  0
SECTION
  2
HEADER
  9
$ACADVER
  1
AC1015
  9
$ACADMAINTVER
 70
     6
  9
$DWGCODEPAGE
  3
ANSI_1252
  9
$INSBASE
 10
0.0
 20
0.0
 30
0.0
  9
$EXTMIN
 10
0.0
 20
0.0
 30
0.0
  9
$EXTMAX
 10
279.4
 20
215.9
 30
0.0
  9
$LIMMIN
 10
0.0
 20
0.0
  9
$LIMMAX
 10
279.4
 20
215.9
  9
$ORTHOMODE
 70
     0
  9
$REGENMODE
 70
     1
  9
$FILLMODE
 70
     1
  9
$QTEXTMODE
 70
     0
  9
$MIRRTEXT
 70
     1
  9
$LTSCALE
 40
1.0
  9
$ATTMODE
 70
     1
  9
$TEXTSIZE
 40
3.5
  9
$TRACEWID
 40
1.0
  9
$TEXTSTYLE
  7
Standard
  9
$CLAYER
  8
0
  9
$CELTYPE
  6
ByLayer
  9
$CECOLOR
 62
   256
  9
$CELTSCALE
 40
1.0
  9
$DISPSILH
 70
     0
  9
$DIMSCALE
 40
1.0
  9
$DIMASZ
 40
3.556
  9
$DIMEXO
 40
1.0
  9
$DIMDLI
 40
3.75
  9
$DIMRND
 40
0.0
  9
$DIMDLE
 40
0.0
  9
$DIMEXE
 40
1.0
  9
$DIMTP
 40
0.0
  9
$DIMTM
 40
0.0
  9
$DIMTXT
 40
3.5
  9
$DIMCEN
 40
2.5
  9
$DIMTSZ
 40
0.0
  9
$DIMTOL
 70
     0
  9
$DIMLIM
 70
     0
  9
$DIMTIH
 70
     1
  9
$DIMTOH
 70
     1
  9
$DIMSE1
 70
     0
  9
$DIMSE2
 70
     0
  9
$DIMTAD
 70
     1
  9
$DIMZIN
 70
     1
  9
$DIMBLK
  1

  9
$DIMASO
 70
     1
  9
$DIMSHO
 70
     1
  9
$DIMPOST
  1

  9
$DIMAPOST
  1

  9
$DIMALT
 70
     0
  9
$DIMALTD
 70
     3
  9
$DIMALTF
 40
0.0393700787
  9
$DIMLFAC
 40
5.0
  9
$DIMTOFL
 70
     1
  9
$DIMTVP
 40
0.0
  9
$DIMTIX
 70
     0
  9
$DIMSOXD
 70
     0
  9
$DIMSAH
 70
     0
  9
$DIMBLK1
  1

  9
$DIMBLK2
  1

  9
$DIMSTYLE
  2
ISO-25
  9
$DIMCLRD
 70
     0
  9
$DIMCLRE
 70
     0
  9
$DIMCLRT
 70
     0
  9
$DIMTFAC
 40
1.0
  9
$DIMGAP
 40
1.524
  9
$DIMJUST
 70
     0
  9
$DIMSD1
 70
     0
  9
$DIMSD2
 70
     0
  9
$DIMTOLJ
 70
     0
  9
$DIMTZIN
 70
     1
  9
$DIMALTZ
 70
     0
  9
$DIMALTTZ
 70
     0
  9
$DIMUPT
 70
     0
  9
$DIMDEC
 70
     2
  9
$DIMTDEC
 70
     2
  9
$DIMALTU
 70
     2
  9
$DIMALTTD
 70
     3
  9
$DIMTXSTY
  7
Standard
  9
$DIMAUNIT
 70
     0
  9
$DIMADEC
 70
     2
  9
$DIMALTRND
 40
0.0
  9
$DIMAZIN
 70
     0
  9
$DIMDSEP
 70
    44
  9
$DIMATFIT
 70
     3
  9
$DIMFRAC
 70
     0
  9
$DIMLDRBLK
  1

  9
$DIMLUNIT
 70
     2
  9
$DIMLWD
 70
    -2
  9
$DIMLWE
 70
    -2
  9
$DIMTMOVE
 70
     0
  9
$LUNITS
 70
     2
  9
$LUPREC
 70
     2
  9
$SKETCHINC
 40
1.0
  9
$FILLETRAD
 40
10.0
  9
$AUNITS
 70
     0
  9
$AUPREC
 70
     2
  9
$MENU
  1
.
  9
$ELEVATION
 40
0.0
  9
$PELEVATION
 40
0.0
  9
$THICKNESS
 40
0.0
  9
$LIMCHECK
 70
     0
  9
$CHAMFERA
 40
0.0
  9
$CHAMFERB
 40
0.0
  9
$CHAMFERC
 40
0.0
  9
$CHAMFERD
 40
0.0
  9
$SKPOLY
 70
     0
  9
$TDCREATE
 40
2460383.706663021
  9
$TDUCREATE
 40
2460383.477496354
  9
$TDUPDATE
 40
2460383.706663391
  9
$TDUUPDATE
 40
2460383.477496725
  9
$TDINDWG
 40
0.0000000116
  9
$TDUSRTIMER
 40
0.0000000116
  9
$USRTIMER
 70
     1
  9
$ANGBASE
 50
0.0
  9
$ANGDIR
 70
     0
  9
$PDMODE
 70
     0
  9
$PDSIZE
 40
-1.0
  9
$PLINEWID
 40
0.0
  9
$SPLFRAME
 70
     0
  9
$SPLINETYPE
 70
     6
  9
$SPLINESEGS
 70
     8
  9
$HANDSEED
  5
31B
  9
$SURFTAB1
 70
     6
  9
$SURFTAB2
 70
     6
  9
$SURFTYPE
 70
     6
  9
$SURFU
 70
     6
  9
$SURFV
 70
     6
  9
$UCSBASE
  2

  9
$UCSNAME
  2

  9
$UCSORG
 10
0.0
 20
0.0
 30
0.0
  9
$UCSXDIR
 10
1.0
 20
0.0
 30
0.0
  9
$UCSYDIR
 10
0.0
 20
1.0
 30
0.0
  9
$UCSORTHOREF
  2

  9
$UCSORTHOVIEW
 70
     0
  9
$UCSORGTOP
 10
0.0
 20
0.0
 30
0.0
  9
$UCSORGBOTTOM
 10
0.0
 20
0.0
 30
0.0
  9
$UCSORGLEFT
 10
0.0
 20
0.0
 30
0.0
  9
$UCSORGRIGHT
 10
0.0
 20
0.0
 30
0.0
  9
$UCSORGFRONT
 10
0.0
 20
0.0
 30
0.0
  9
$UCSORGBACK
 10
0.0
 20
0.0
 30
0.0
  9
$PUCSBASE
  2

  9
$PUCSNAME
  2

  9
$PUCSORG
 10
0.0
 20
0.0
 30
0.0
  9
$PUCSXDIR
 10
1.0
 20
0.0
 30
0.0
  9
$PUCSYDIR
 10
0.0
 20
1.0
 30
0.0
  9
$PUCSORTHOREF
  2

  9
$PUCSORTHOVIEW
 70
     0
  9
$PUCSORGTOP
 10
0.0
 20
0.0
 30
0.0
  9
$PUCSORGBOTTOM
 10
0.0
 20
0.0
 30
0.0
  9
$PUCSORGLEFT
 10
0.0
 20
0.0
 30
0.0
  9
$PUCSORGRIGHT
 10
0.0
 20
0.0
 30
0.0
  9
$PUCSORGFRONT
 10
0.0
 20
0.0
 30
0.0
  9
$PUCSORGBACK
 10
0.0
 20
0.0
 30
0.0
  9
$USERI1
 70
     0
  9
$USERI2
 70
     0
  9
$USERI3
 70
     0
  9
$USERI4
 70
     0
  9
$USERI5
 70
     0
  9
$USERR1
 40
0.0
  9
$USERR2
 40
0.0
  9
$USERR3
 40
0.0
  9
$USERR4
 40
0.0
  9
$USERR5
 40
0.0
  9
$WORLDVIEW
 70
     1
  9
$SHADEDGE
 70
     3
  9
$SHADEDIF
 70
    70
  9
$TILEMODE
 70
     1
  9
$MAXACTVP
 70
    64
  9
$PINSBASE
 10
0.0
 20
0.0
 30
0.0
  9
$PLIMCHECK
 70
     0
  9
$PEXTMIN
 10
1.0000000000E+20
 20
1.0000000000E+20
 30
1.0000000000E+20
  9
$PEXTMAX
 10
-1.0000000000E+20
 20
-1.0000000000E+20
 30
-1.0000000000E+20
  9
$PLIMMIN
 10
0.0
 20
0.0
  9
$PLIMMAX
 10
420.0
 20
297.0
  9
$UNITMODE
 70
     0
  9
$VISRETAIN
 70
     1
  9
$PLINEGEN
 70
     0
  9
$PSLTSCALE
 70
     1
  9
$TREEDEPTH
 70
  3020
  9
$CMLSTYLE
  2
Standard
  9
$CMLJUST
 70
     0
  9
$CMLSCALE
 40
20.0
  9
$PROXYGRAPHICS
 70
     1
  9
$MEASUREMENT
 70
     1
  9
$CELWEIGHT
370
    -1
  9
$ENDCAPS
280
     0
  9
$JOINSTYLE
280
     0
  9
$LWDISPLAY
290
     1
  9
$INSUNITS
 70
     4
  9
$HYPERLINKBASE
  1

  9
$STYLESHEET
  1

  9
$XEDIT
290
     1
  9
$CEPSNTYPE
380
     0
  9
$PSTYLEMODE
290
     1
  9
$FINGERPRINTGUID
  2
{65ad1689-d24e-4da0-a7a8-c72e1474e46a}
  9
$VERSIONGUID
  2
{FAEB1C32-E019-11D5-929B-00C0DF256EC4}
  9
$EXTNAMES
290
     1
  9
$PSVPSCALE
 40
0.0
  9
$OLESTARTUP
290
     0
  0
ENDSEC
  0
SECTION
  2
CLASSES
  0
CLASS
  1
ACDBDICTIONARYWDFLT
  2
AcDbDictionaryWithDefault
  3
ObjectDBX Classes
 90
        0
280
     0
281
     0
  0
CLASS
  1
VISUALSTYLE
  2
AcDbVisualStyle
  3
ObjectDBX Classes
 90
     4095
280
     0
281
     0
  0
CLASS
  1
MATERIAL
  2
AcDbMaterial
  3
ObjectDBX Classes
 90
     1153
280
     0
281
     0
  0
CLASS
  1
SCALE
  2
AcDbScale
  3
ObjectDBX Classes
 90
     1153
280
     0
281
     0
  0
CLASS
  1
TABLESTYLE
  2
AcDbTableStyle
  3
ObjectDBX Classes
 90
     4095
280
     0
281
     0
  0
CLASS
  1
MLEADERSTYLE
  2
AcDbMLeaderStyle
  3
ACDB_MLEADERSTYLE_CLASS
 90
     4095
280
     0
281
     0
  0
CLASS
  1
SUN
  2
AcDbSun
  3
SCENEOE
 90
     1153
280
     0
281
     0
  0
CLASS
  1
ACDBPLACEHOLDER
  2
AcDbPlaceHolder
  3
ObjectDBX Classes
 90
        0
280
     0
281
     0
  0
CLASS
  1
LAYOUT
  2
AcDbLayout
  3
ObjectDBX Classes
 90
        0
280
     0
281
     0
  0
ENDSEC
  0
SECTION
  2
TABLES
  0
TABLE
  2
VPORT
  5
8
330
0
100
AcDbSymbolTable
 70
     1
  0
VPORT
  5
29
330
8
100
AcDbSymbolTableRecord
100
AcDbViewportTableRecord
  2
*Active
 70
     0
 10
0.0
 20
0.0
 11
1.0
 21
1.0
 12
139.7
 22
107.95
 13
0.0
 23
0.0
 14
10.0
 24
10.0
 15
10.0
 25
10.0
 16
0.0
 26
0.0
 36
1.0
 17
0.0
 27
0.0
 37
0.0
 40
215.9
 41
1.2941176471
 42
50.0
 43
0.0
 44
0.0
 50
0.0
 51
0.0
 71
     0
 72
  2000
 73
     1
 74
     3
 75
     0
 76
     0
 77
     0
 78
     0
281
     0
 65
     1
110
0.0
120
0.0
130
0.0
111
1.0
121
0.0
131
0.0
112
0.0
122
1.0
132
0.0
 79
     0
146
0.0
  0
ENDTAB
  0
TABLE
  2
LTYPE
  5
5
330
0
100
AcDbSymbolTable
 70
     6
  0
LTYPE
  5
14
330
5
100
AcDbSymbolTableRecord
100
AcDbLinetypeTableRecord
  2
ByBlock
 70
     0
  3

 72
    65
 73
     0
 40
0.0
  0
LTYPE
  5
15
330
5
100
AcDbSymbolTableRecord
100
AcDbLinetypeTableRecord
  2
ByLayer
 70
     0
  3

 72
    65
 73
     0
 40
0.0
  0
LTYPE
  5
16
330
5
100
AcDbSymbolTableRecord
100
AcDbLinetypeTableRecord
  2
Continuous
 70
     0
  3
Solid line
 72
    65
 73
     0
 40
0.0
  0
LTYPE
  5
6E
330
5
100
AcDbSymbolTableRecord
100
AcDbLinetypeTableRecord
  2
HIDDEN
 70
     0
  3
Hidden __ __ __ __ __ __ __ __ __ __ __ __ __ __
 72
    65
 73
     2
 40
1.905
 49
1.27
 74
     0
 49
-0.635
 74
     0
  0
LTYPE
  5
6F
330
5
100
AcDbSymbolTableRecord
100
AcDbLinetypeTableRecord
  2
PHANTOM
 70
     0
  3
Phantom ______  __  __  ______  __  __  ______
 72
    65
 73
     6
 40
12.7
 49
6.35
 74
     0
 49
-1.27
 74
     0
 49
1.27
 74
     0
 49
-1.27
 74
     0
 49
1.27
 74
     0
 49
-1.27
 74
     0
  0
LTYPE
  5
70
330
5
100
AcDbSymbolTableRecord
100
AcDbLinetypeTableRecord
  2
CENTER
 70
     0
  3
Center ____ _ ____ _ ____ _ ____ _ ____ _ ____
 72
    65
 73
     4
 40
10.16
 49
6.35
 74
     0
 49
-1.27
 74
     0
 49
1.27
 74
     0
 49
-1.27
 74
     0
  0
LTYPE
  5
71
330
5
100
AcDbSymbolTableRecord
100
AcDbLinetypeTableRecord
  2
CENTERX2
 70
     0
  3
Center (2x) ________  __  ________  __  _____
 72
    65
 73
     4
 40
20.32
 49
12.7
 74
     0
 49
-2.54
 74
     0
 49
2.54
 74
     0
 49
-2.54
 74
     0
  0
LTYPE
  5
72
330
5
100
AcDbSymbolTableRecord
100
AcDbLinetypeTableRecord
  2
DOT2
 70
     0
  3
Dot (.5x) ........................................
 72
    65
 73
     2
 40
0.635
 49
0.0
 74
     0
 49
-0.635
 74
     0
  0
ENDTAB
  0
TABLE
  2
LAYER
  5
2
330
0
100
AcDbSymbolTable
 70
     1
  0
LAYER
  5
10
330
2
100
AcDbSymbolTableRecord
100
AcDbLayerTableRecord
  2
0
 70
     0
 62
     7
  6
Continuous
370
    -3
390
F
  0
ENDTAB
  0
TABLE
  2
STYLE
  5
3
330
0
100
AcDbSymbolTable
 70
     1
  0
STYLE
  5
11
330
3
100
AcDbSymbolTableRecord
100
AcDbTextStyleTableRecord
  2
Standard
 70
     0
 40
0.0
 41
1.0
 50
0.0
 71
     0
 42
3.5
  3
txt
  4

  0
ENDTAB
  0
TABLE
  2
VIEW
  5
6
330
0
100
AcDbSymbolTable
 70
     0
  0
ENDTAB
  0
TABLE
  2
UCS
  5
7
330
0
100
AcDbSymbolTable
 70
     0
  0
ENDTAB
  0
TABLE
  2
APPID
  5
9
330
0
100
AcDbSymbolTable
 70
     1
  0
APPID
  5
12
330
9
100
AcDbSymbolTableRecord
100
AcDbRegAppTableRecord
  2
ACAD
 70
     0
  0
ENDTAB
  0
TABLE
  2
DIMSTYLE
  5
A
330
0
100
AcDbSymbolTable
 70
     1
100
AcDbDimStyleTable
  0
DIMSTYLE
105
27
330
A
100
AcDbSymbolTableRecord
100
AcDbDimStyleTableRecord
  2
ISO-25
 70
     0
 41
2.5
 42
0.625
 43
3.75
 44
1.25
 73
     0
 74
     0
 77
     1
 78
     8
140
2.5
141
2.5
143
0.0393700787
147
0.625
171
     3
172
     1
178
     0
271
     2
272
     2
274
     3
278
    44
283
     0
284
     8
340
11
  0
ENDTAB
  0
TABLE
  2
BLOCK_RECORD
  5
1
330
0
100
AcDbSymbolTable
 70
     1
  0
BLOCK_RECORD
  5
1F
330
1
100
AcDbSymbolTableRecord
100
AcDbBlockTableRecord
  2
*Model_Space
340
22
  0
BLOCK_RECORD
  5
1B
330
1
100
AcDbSymbolTableRecord
100
AcDbBlockTableRecord
  2
*Paper_Space
340
1E
  0
BLOCK_RECORD
  5
23
330
1
100
AcDbSymbolTableRecord
100
AcDbBlockTableRecord
  2
*Paper_Space0
340
26
  0
ENDTAB
  0
ENDSEC
  0
SECTION
  2
BLOCKS
  0
BLOCK
  5
20
330
1F
100
AcDbEntity
  8
0
100
AcDbBlockBegin
  2
*Model_Space
 70
     0
 10
0.0
 20
0.0
 30
0.0
  3
*Model_Space
  1

  0
ENDBLK
  5
21
330
1F
100
AcDbEntity
  8
0
100
AcDbBlockEnd
  0
BLOCK
  5
1C
330
1B
100
AcDbEntity
 67
     1
  8
0
100
AcDbBlockBegin
  2
*Paper_Space
 70
     0
 10
0.0
 20
0.0
 30
0.0
  3
*Paper_Space
  1

  0
ENDBLK
  5
1D
330
1B
100
AcDbEntity
 67
     1
  8
0
100
AcDbBlockEnd
  0
BLOCK
  5
24
330
23
100
AcDbEntity
  8
0
100
AcDbBlockBegin
  2
*Paper_Space0
 70
     0
 10
0.0
 20
0.0
 30
0.0
  3
*Paper_Space0
  1

  0
ENDBLK
  5
25
330
23
100
AcDbEntity
  8
0
100
AcDbBlockEnd
  0
ENDSEC
  0
SECTION
  2
ENTITIES
  0
SPLINE
  5
73
330
1F
100
AcDbEntity
  8
0
  6
Continuous
 62
     7
370
    25
100
AcDbSpline
210
0.0
220
0.0
230
1.0
 70
     8
 71
     3
 72
    17
 73
    13
 74
     0
 42
0.00000001
 43
0.00000001
 40
0.0
 40
0.0
 40
0.0
 40
0.0
 40
0.0756219048279692
 40
0.1929635465497375
 40
0.2904955030275068
 40
0.373265253915857
 40
0.4409292187634059
 40
0.4906299051614131
 40
0.5341530871264591
 40
0.5957449496706532
 40
0.737604050223215
 40
1.0
 40
1.0
 40
1.0
 40
1.0
 10
298.3117059943201
 20
108.9622613369526
 30
0.0
 10
298.3116532504964
 20
108.9947988512413
 30
0.0
 10
298.3115186646868
 20
109.0778244529814
 30
0.0
 10
298.254876182924
 20
109.1927774438781
 30
0.0
 10
298.1759589396419
 20
109.2922332681107
 30
0.0
 10
298.0923980883575
 20
109.3568090625368
 30
0.0
 10
298.0188544531674
 20
109.3941865378505
 30
0.0
 10
297.9657814861464
 20
109.4127383249632
 30
0.0
 10
297.9287124790293
 20
109.4226693330161
 30
0.0
 10
297.8873642108654
 20
109.4314028180703
 30
0.0
 10
297.832158342819
 20
109.4407802038242
 30
0.0
 10
297.7418421637228
 20
109.4514696238302
 30
0.0
 10
297.6832192731125
 20
109.4584079676129
 30
0.0
  0
SPLINE
  5
74
330
1F
100
AcDbEntity
  8
0
  6
Continuous
 62
     7
370
    25
100
AcDbSpline
210
0.0
220
0.0
230
1.0
 70
     8
 71
     3
 72
    17
 73
    13
 74
     0
 42
0.00000001
 43
0.00000001
 40
0.0
 40
0.0
 40
0.0
 40
0.0
 40
0.1528454686241313
 40
0.4503509341118805
 40
0.5800780683492893
 40
0.6279303654737081
 40
0.6630079082914488
 40
0.7130445438072699
 40
0.7787902757204668
 40
0.8627555174289526
 40
0.9533303213757085
 40
0.9999999999999999
 40
0.9999999999999999
 40
0.9999999999999999
 40
0.9999999999999999
 10
297.1027135042559
 20
102.8890143215723
 30
0.0
 10
297.1762597216022
 20
102.8917701699514
 30
0.0
 10
297.3929596864782
 20
102.8998901286455
 30
0.0
 10
297.5790080777126
 20
102.9103795513031
 30
0.0
 10
297.6665095573198
 20
102.9178135212082
 30
0.0
 10
297.7261215875182
 20
102.9268656723728
 30
0.0
 10
297.7890400449847
 20
102.9421382614928
 30
0.0
 10
297.8767779180232
 20
102.9770768738565
 30
0.0
 10
297.9836775181618
 20
103.0504261180242
 30
0.0
 10
298.0806726356653
 20
103.1734095916309
 30
0.0
 10
298.1372290639274
 20
103.3114035299122
 30
0.0
 10
298.1307018393431
 20
103.4006010819544
 30
0.0
 10
298.1284822712559
 20
103.4309325095638
 30
0.0
  0
LINE
  5
75
330
1F
100
AcDbEntity
  8
0
  6
Continuous
 62
     7
370
    25
100
AcDbLine
 10
293.6132243888
 20
102.7639788854
 30
0.0
 11
297.1027135043
 21
102.8890143216
 31
0.0
  0
LINE
  5
76
330
1F
100
AcDbEntity
  8
0
  6
Continuous
 62
     7
370
    25
100
AcDbLine
 10
297.3248424725
 20
109.4987570096
 30
0.0
 11
293.8516208807
 21
109.8577833617
 31
0.0
  0
ARC
  5
77
330
1F
100
AcDbEntity
  8
0
  6
Continuous
 62
     7
370
    25
100
AcDbCircle
 10
248.8326897927
 20
104.8462226229
 30
0.0
 40
8.999995138923037
100
AcDbArc
 50
255.2171445356
 51
268.0752254675
  0
ARC
  5
78
330
1F
100
AcDbEntity
  8
0
  6
Continuous
 62
     7
370
    25
100
AcDbCircle
 10
248.8326897927
 20
104.8462226229
 30
0.0
 40
8.999995138923046
100
AcDbArc
 50
268.0752254675
 51
303.2471548844
  0
SPLINE
  5
79
330
1F
100
AcDbEntity
  8
0
  6
Continuous
 62
     7
370
    25
100
AcDbSpline
210
0.0
220
0.0
230
1.0
 70
     8
 71
     3
 72
    17
 73
    13
 74
     0
 42
0.00000001
 43
0.00000001
 40
0.0
 40
0.0
 40
0.0
 40
0.0
 40
0.1528454686241399
 40
0.4503509341118944
 40
0.5800780683493073
 40
0.6279303654737162
 40
0.6630079082914592
 40
0.7130445438072922
 40
0.7787902757204961
 40
0.8627555174289778
 40
0.9533303213757206
 40
1.0
 40
1.0
 40
1.0
 40
1.0
 10
-20.53593148816768
 20
112.2086434273584
 30
0.0
 10
-20.609411345961
 20
112.2044779400019
 30
0.0
 10
-20.82591578599119
 20
112.1922045560479
 30
0.0
 10
-21.01172885591956
 20
112.1781498446526
 30
0.0
 10
-21.09907171415293
 20
112.1690395231659
 30
0.0
 10
-21.15849922354782
 20
112.1588460589742
 30
0.0
 10
-21.22111328421386
 20
112.142369904226
 30
0.0
 10
-21.30816512947226
 20
112.1057554639554
 30
0.0
 10
-21.41363870932161
 20
112.0303700536723
 30
0.0
 10
-21.50825796053119
 20
111.9055494427925
 30
0.0
 10
-21.56215815174497
 20
111.7664964817767
 30
0.0
 10
-21.55392188908128
 20
111.6774404773277
 30
0.0
 10
-21.55112116642652
 20
111.6471571826601
 30
0.0
  0
SPLINE
  5
7A
330
1F
100
AcDbEntity
  8
0
  6
Continuous
 62
     7
370
    25
100
AcDbSpline
210
0.0
220
0.0
230
1.0
 70
     8
 71
     3
 72
    17
 73
    13
 74
     0
 42
0.00000001
 43
0.00000001
 40
0.0
 40
0.0
 40
0.0
 40
0.0
 40
0.075621904827968
 40
0.1929635465497392
 40
0.2904955030275084
 40
0.3732652539158501
 40
0.4409292187634279
 40
0.4906299051614103
 40
0.5341530871264624
 40
0.5957449496706553
 40
0.737604050223206
 40
1.0
 40
1.0
 40
1.0
 40
1.0
 10
-21.62825573356997
 20
106.1133321232687
 30
0.0
 10
-21.6275791382321
 20
106.0808016016505
 30
0.0
 10
-21.62585267767464
 20
105.9977938430277
 30
0.0
 10
-21.56701654611207
 20
105.883948024136
 30
0.0
 10
-21.48620688424666
 20
105.7860236103762
 30
0.0
 10
-21.40142324367486
 20
105.7230618490876
 30
0.0
 10
-21.32717646735927
 20
105.6871013409639
 30
0.0
 10
-21.2737575522555
 20
105.6695705639522
 30
0.0
 10
-21.23650494639245
 20
105.6603521277503
 30
0.0
 10
-21.19499682696474
 20
105.6524130432361
 30
0.0
 10
-21.13962130920866
 20
105.6440958764363
 30
0.0
 10
-21.04911677832566
 20
105.6351401075562
 30
0.0
 10
-20.99037163136752
 20
105.6293270509738
 30
0.0
  0
LINE
  5
7B
330
1F
100
AcDbEntity
  8
0
  6
Continuous
 62
     7
370
    25
100
AcDbLine
 10
-17.0494812258
 20
112.4005619388
 30
0.0
 11
-20.5359314882
 21
112.2086434274
 31
0.0
  0
LINE
  5
7C
330
1F
100
AcDbEntity
  8
0
  6
Continuous
 62
     7
370
    25
100
AcDbLine
 10
-20.631287075
 20
105.595856799
 30
0.0
 11
-17.1518201398
 21
105.3034906004
 31
0.0
  0
ARC
  5
7D
330
1F
100
AcDbEntity
  8
0
  6
Continuous
 62
     7
370
    25
100
AcDbCircle
 10
35.8280678194
 20
108.088800523
 30
0.0
 40
9.141196303513937
100
AcDbArc
 50
294.673579588
 51
359.173859017
  0
ARC
  5
7E
330
1F
100
AcDbEntity
  8
0
  6
Continuous
 62
     7
370
    25
100
AcDbCircle
 10
35.8280678194
 20
108.088800523
 30
0.0
 40
9.141196303513945
100
AcDbArc
 50
359.173859017
 51
63.6713069772
  0
LINE
  5
7F
330
1F
100
AcDbEntity
  8
0
  6
Continuous
 62
     7
370
    25
100
AcDbLine
 10
53.2462322941
 20
141.7705782317
 30
0.0
 11
53.1280678194
 21
141.838800523
 31
0.0
  0
LINE
  5
80
330
1F
100
AcDbEntity
  8
0
  6
Continuous
 62
     7
370
    25
100
AcDbLine
 10
18.5280678194
 20
141.838800523
 30
0.0
 11
18.4099033447
 21
141.7705782317
 31
0.0
  0
LINE
  5
81
330
1F
100
AcDbEntity
  8
0
  6
Continuous
 62
     7
370
    25
100
AcDbLine
 10
18.4003670958
 20
126.0125285702
 30
0.0
 11
18.5280678194
 21
125.938800523
 31
0.0
  0
LINE
  5
82
330
1F
100
AcDbEntity
  8
0
  6
Continuous
 62
     7
370
    25
100
AcDbLine
 10
53.1280678194
 20
125.938800523
 30
0.0
 11
53.255768543
 21
126.0125285702
 31
0.0
  0
LINE
  5
83
330
1F
100
AcDbEntity
  8
0
  6
Continuous
 62
     7
370
    25
100
AcDbLine
 10
223.4101851289
 20
126.0068601261
 30
0.0
 11
223.5280678194
 21
125.938800523
 31
0.0
  0
LINE
  5
84
330
1F
100
AcDbEntity
  8
0
  6
Continuous
 62
     7
370
    25
100
AcDbLine
 10
258.1280678194
 20
125.938800523
 30
0.0
 11
258.2459505099
 21
126.0068601261
 31
0.0
  0
LINE
  5
85
330
1F
100
AcDbEntity
  8
0
  6
Continuous
 62
     7
370
    25
100
AcDbLine
 10
258.2455859867
 20
141.7709513775
 30
0.0
 11
258.1280678194
 21
141.838800523
 31
0.0
  0
LINE
  5
86
330
1F
100
AcDbEntity
  8
0
  6
Continuous
 62
     7
370
    25
100
AcDbLine
 10
223.5280678194
 20
141.838800523
 30
0.0
 11
223.4105496521
 21
141.7709513775
 31
0.0
  0
ARC
  5
87
330
1F
100
AcDbEntity
  8
0
  6
Continuous
 62
     7
370
    25
100
AcDbCircle
 10
10.5280678194
 20
165.538800523
 30
0.0
 40
0.5
100
AcDbArc
 50
90.0
 51
180.0
  0
ARC
  5
88
330
1F
100
AcDbEntity
  8
0
  6
Continuous
 62
     7
370
    25
100
AcDbCircle
 10
61.1280678194
 20
165.538800523
 30
0.0
 40
0.5000000000000071
100
AcDbArc
 50
0.0
 51
90.0
  0
ARC
  5
89
330
1F
100
AcDbEntity
  8
0
  6
Continuous
 62
     7
370
    25
100
AcDbCircle
 10
60.6280678194
 20
163.038800523
 30
0.0
 40
1.000000000000007
100
AcDbArc
 50
270.0
 51
0.0
  0
ARC
  5
8A
330
1F
100
AcDbEntity
  8
0
  6
Continuous
 62
     7
370
    25
100
AcDbCircle
 10
11.0280678194
 20
163.038800523
 30
0.0
 40
1.000000000000002
100
AcDbArc
 50
180.0
 51
270.0
  0
LINE
  5
8B
330
1F
100
AcDbEntity
  8
0
  6
Continuous
 62
     7
370
    25
100
AcDbLine
 10
10.0280678194
 20
165.538800523
 30
0.0
 11
10.0280678194
 21
163.038800523
 31
0.0
  0
LINE
  5
8C
330
1F
100
AcDbEntity
  8
0
  6
Continuous
 62
     7
370
    25
100
AcDbLine
 10
61.6280678194
 20
163.038800523
 30
0.0
 11
61.6280678194
 21
165.538800523
 31
0.0
  0
LINE
  5
8D
330
1F
100
AcDbEntity
  8
0
  6
Continuous
 62
     7
370
    25
100
AcDbLine
 10
18.0084464655
 20
147.5871506606
 30
0.0
 11
22.0309047027
 21
146.7539271686
 31
0.0
  0
LINE
  5
8E
330
1F
100
AcDbEntity
  8
0
  6
Continuous
 62
     7
370
    25
100
AcDbLine
 10
49.6252309361
 20
146.7539271686
 30
0.0
 11
53.6478322263
 21
147.587180293
 31
0.0
  0
ARC
  5
8F
330
1F
100
AcDbEntity
  8
0
  6
Continuous
 62
     7
370
    25
100
AcDbCircle
 10
21.8280678194
 20
145.7747146285
 30
0.0
 40
1.0
100
AcDbArc
 50
0.0
 51
78.2970985198
  0
ARC
  5
90
330
1F
100
AcDbEntity
  8
0
  6
Continuous
 62
     7
370
    25
100
AcDbCircle
 10
49.8280678194
 20
145.7747146285
 30
0.0
 40
1.0
100
AcDbArc
 50
101.7029014802
 51
180.0
  0
LINE
  5
91
330
1F
100
AcDbEntity
  8
0
  6
Continuous
 62
     7
370
    25
100
AcDbLine
 10
22.8280678194
 20
145.7747146285
 30
0.0
 11
22.8280678194
 21
141.838800523
 31
0.0
  0
LINE
  5
92
330
1F
100
AcDbEntity
  8
0
  6
Continuous
 62
     7
370
    25
100
AcDbLine
 10
48.8280678194
 20
141.838800523
 30
0.0
 11
48.8280678194
 21
145.7747146285
 31
0.0
  0
SPLINE
  5
93
330
1F
100
AcDbEntity
  8
0
  6
Continuous
 62
     7
370
    25
100
AcDbSpline
210
0.0
220
0.0
230
1.0
 70
     8
 71
     3
 72
    13
 73
     9
 74
     0
 42
0.00000001
 43
0.00000001
 40
0.0
 40
0.0
 40
0.0
 40
0.0
 40
0.0470628331025765
 40
0.1789984186111342
 40
0.3674426347312379
 40
0.6361325278701059
 40
0.9482517272945521
 40
0.9999999999999999
 40
0.9999999999999999
 40
0.9999999999999999
 40
0.9999999999999999
 10
54.56451264173909
 20
161.0388005230106
 30
0.0
 10
54.56594161442105
 20
161.0691795542513
 30
0.0
 10
54.57137655816419
 20
161.1847229287688
 30
0.0
 10
54.65946941881011
 20
161.4118960143605
 30
0.0
 10
54.91333702453209
 20
161.7026280389694
 30
0.0
 10
55.35309256101138
 20
161.950340592405
 30
0.0
 10
55.75965390560476
 20
162.0345169985931
 30
0.0
 10
55.99391006949323
 20
162.0382671818356
 30
0.0
 10
56.02722536360533
 20
162.0388005230106
 30
0.0
  0
LINE
  5
94
330
1F
100
AcDbEntity
  8
0
  6
Continuous
 62
     7
370
    25
100
AcDbLine
 10
54.5645126417
 20
148.5915112212
 30
0.0
 11
54.5645126417
 21
161.038800523
 31
0.0
  0
LINE
  5
95
330
1F
100
AcDbEntity
  8
0
  6
Continuous
 62
     7
370
    25
100
AcDbLine
 10
53.5112917294
 20
147.5665041404
 30
0.0
 11
53.5997394067
 21
147.5832016006
 31
0.0
  0
SPLINE
  5
96
330
1F
100
AcDbEntity
  8
0
  6
Continuous
 62
     7
370
    25
100
AcDbSpline
210
0.0
220
0.0
230
1.0
 70
     8
 71
     3
 72
    16
 73
    12
 74
     0
 42
0.00000001
 43
0.00000001
 40
0.0
 40
0.0
 40
0.0
 40
0.0
 40
0.0532859445134432
 40
0.1406430807976906
 40
0.1685723413750309
 40
0.2218938947625295
 40
0.3033687382016648
 40
0.4248842178020191
 40
0.6060387264783974
 40
0.843540196315344
 40
0.9999999999999999
 40
0.9999999999999999
 40
0.9999999999999999
 40
0.9999999999999999
 10
53.72441109204571
 20
147.6034632830721
 30
0.0
 10
53.73689447421425
 20
147.6060823104409
 30
0.0
 10
53.76984315032368
 20
147.6129949790858
 30
0.0
 10
53.78829053330096
 20
147.6169126868845
 30
0.0
 10
53.85290731573099
 20
147.6342700522976
 30
0.0
 10
53.93257948297743
 20
147.6605604076171
 30
0.0
 10
54.0522567156399
 20
147.7147838816829
 30
0.0
 10
54.21959859949892
 20
147.8242041669974
 30
0.0
 10
54.41020048776554
 20
148.0296874400559
 30
0.0
 10
54.54952717424906
 20
148.3054869267955
 30
0.0
 10
54.55015037109644
 20
148.5103865716332
 30
0.0
 10
54.55039787069335
 20
148.5917614690179
 30
0.0
  0
SPLINE
  5
97
330
1F
100
AcDbEntity
  8
0
  6
Continuous
 62
     7
370
    25
100
AcDbSpline
210
0.0
220
0.0
230
1.0
 70
     8
 71
     3
 72
     9
 73
     5
 74
     0
 42
0.00000001
 43
0.00000001
 40
0.0
 40
0.0
 40
0.0
 40
0.0
 40
0.164110681883959
 40
0.9999999999999999
 40
0.9999999999999999
 40
0.9999999999999999
 40
0.9999999999999999
 10
53.55259366099165
 20
147.5675972057403
 30
0.0
 10
53.56628010883481
 20
147.5703953542375
 30
0.0
 10
53.64967777488576
 20
147.5874457281989
 30
0.0
 10
53.69038464998029
 20
147.5961704125876
 30
0.0
 10
53.72441109204571
 20
147.6034632830721
 30
0.0
  0
SPLINE
  5
98
330
1F
100
AcDbEntity
  8
0
  6
Continuous
 62
     7
370
    25
100
AcDbSpline
210
0.0
220
0.0
230
1.0
 70
     8
 71
     3
 72
    19
 73
    15
 74
     0
 42
0.00000001
 43
0.00000001
 40
0.0
 40
0.0
 40
0.0
 40
0.0
 40
0.0829274944510794
 40
0.2534832246169145
 40
0.3948220832759137
 40
0.5142293618025076
 40
0.6123625397115862
 40
0.6878837535669775
 40
0.7325187879019427
 40
0.7559472865497979
 40
0.7764062850692842
 40
0.8090672871634714
 40
0.8962905869978924
 40
1.0
 40
1.0
 40
1.0
 40
1.0
 10
17.10939951950188
 20
148.5911097247486
 30
0.0
 10
17.1046247269615
 20
148.5423855205713
 30
0.0
 10
17.09002969044165
 20
148.3934509787344
 30
0.0
 10
17.17541148412044
 20
148.1686224355776
 30
0.0
 10
17.3097159780394
 20
147.954093866531
 30
0.0
 10
17.46300305960657
 20
147.806923008135
 30
0.0
 10
17.60776935655997
 20
147.7128558579062
 30
0.0
 10
17.72397074189044
 20
147.6603385993672
 30
0.0
 10
17.80339363421291
 20
147.6342926589616
 30
0.0
 10
17.84232159088789
 20
147.62371511608
 30
0.0
 10
17.8652193715925
 20
147.6180062730903
 30
0.0
 10
17.89444326809159
 20
147.6112295359713
 30
0.0
 10
17.92799226707589
 20
147.6038679616838
 30
0.0
 10
17.9905790257584
 20
147.5909891782595
 30
0.0
 10
18.02457443654076
 20
147.583993776323
 30
0.0
  0
LINE
  5
99
330
1F
100
AcDbEntity
  8
0
  6
Continuous
 62
     7
370
    25
100
AcDbLine
 10
17.091622997
 20
161.038800523
 30
0.0
 11
17.091622997
 21
148.5915112212
 31
0.0
  0
SPLINE
  5
9A
330
1F
100
AcDbEntity
  8
0
  6
Continuous
 62
     7
370
    25
100
AcDbSpline
210
0.0
220
0.0
230
1.0
 70
     8
 71
     3
 72
    12
 73
     8
 74
     0
 42
0.00000001
 43
0.00000001
 40
0.0
 40
0.0
 40
0.0
 40
0.0
 40
0.1256193039139362
 40
0.445566107472165
 40
0.7077211113210736
 40
0.8748622971086655
 40
1.0
 40
1.0
 40
1.0
 40
1.0
 10
15.62891027516583
 20
162.0388005230106
 30
0.0
 10
15.70973419209343
 20
162.0357881634842
 30
0.0
 10
15.9964130458527
 20
162.0251034576578
 30
0.0
 10
16.44480867754536
 20
161.8935597954977
 30
0.0
 10
16.84350601178317
 20
161.6108470928462
 30
0.0
 10
17.05750950637153
 20
161.3088096359078
 30
0.0
 10
17.08139608237394
 20
161.1197468026507
 30
0.0
 10
17.09162299703207
 20
161.0388005230106
 30
0.0
  0
ARC
  5
9B
330
1F
100
AcDbEntity
  8
0
  6
Continuous
 62
     7
370
    25
100
AcDbCircle
 10
265.6280678194
 20
163.038800523
 30
0.0
 40
1.0
100
AcDbArc
 50
270.0
 51
0.0
  0
ARC
  5
9C
330
1F
100
AcDbEntity
  8
0
  6
Continuous
 62
     7
370
    25
100
AcDbCircle
 10
216.0280678194
 20
163.038800523
 30
0.0
 40
1.0
100
AcDbArc
 50
180.0
 51
270.0
  0
LINE
  5
9D
330
1F
100
AcDbEntity
  8
0
  6
Continuous
 62
     7
370
    25
100
AcDbLine
 10
215.0280678194
 20
165.538800523
 30
0.0
 11
215.0280678194
 21
163.038800523
 31
0.0
  0
LINE
  5
9E
330
1F
100
AcDbEntity
  8
0
  6
Continuous
 62
     7
370
    25
100
AcDbLine
 10
266.6280678194
 20
163.038800523
 30
0.0
 11
266.6280678194
 21
165.538800523
 31
0.0
  0
ARC
  5
9F
330
1F
100
AcDbEntity
  8
0
  6
Continuous
 62
     7
370
    25
100
AcDbCircle
 10
215.5280678194
 20
165.538800523
 30
0.0
 40
0.5
100
AcDbArc
 50
90.0
 51
180.0
  0
ARC
  5
A0
330
1F
100
AcDbEntity
  8
0
  6
Continuous
 62
     7
370
    25
100
AcDbCircle
 10
266.1280678194
 20
165.538800523
 30
0.0
 40
0.5000000000000568
100
AcDbArc
 50
0.0
 51
90.0
  0
LINE
  5
A1
330
1F
100
AcDbEntity
  8
0
  6
Continuous
 62
     7
370
    25
100
AcDbLine
 10
222.8859662817
 20
147.6125215558
 30
0.0
 11
227.0309047027
 21
146.7539271686
 31
0.0
  0
LINE
  5
A2
330
1F
100
AcDbEntity
  8
0
  6
Continuous
 62
     7
370
    25
100
AcDbLine
 10
254.6252309361
 20
146.7539271686
 30
0.0
 11
258.770169357
 21
147.6125215558
 31
0.0
  0
ARC
  5
A3
330
1F
100
AcDbEntity
  8
0
  6
Continuous
 62
     7
370
    25
100
AcDbCircle
 10
226.8280678194
 20
145.7747146285
 30
0.0
 40
1.0
100
AcDbArc
 50
0.0
 51
78.2970985198
  0
ARC
  5
A4
330
1F
100
AcDbEntity
  8
0
  6
Continuous
 62
     7
370
    25
100
AcDbCircle
 10
254.8280678194
 20
145.7747146285
 30
0.0
 40
1.0
100
AcDbArc
 50
101.7029014802
 51
180.0
  0
LINE
  5
A5
330
1F
100
AcDbEntity
  8
0
  6
Continuous
 62
     7
370
    25
100
AcDbLine
 10
227.8280678194
 20
145.7747146285
 30
0.0
 11
227.8280678194
 21
141.838800523
 31
0.0
  0
LINE
  5
A6
330
1F
100
AcDbEntity
  8
0
  6
Continuous
 62
     7
370
    25
100
AcDbLine
 10
253.8280678194
 20
141.838800523
 30
0.0
 11
253.8280678194
 21
145.7747146285
 31
0.0
  0
SPLINE
  5
A7
330
1F
100
AcDbEntity
  8
0
  6
Continuous
 62
     7
370
    25
100
AcDbSpline
210
0.0
220
0.0
230
1.0
 70
     8
 71
     3
 72
    13
 73
     9
 74
     0
 42
0.00000001
 43
0.00000001
 40
0.0
 40
0.0
 40
0.0
 40
0.0
 40
0.0470374194645045
 40
0.1798909867021154
 40
0.3692418456804976
 40
0.6383978021555543
 40
0.9506973575228833
 40
1.0
 40
1.0
 40
1.0
 40
1.0
 10
259.571215795561
 20
161.0388005230107
 30
0.0
 10
259.5726435770875
 20
161.0691386835527
 30
0.0
 10
259.5781040175307
 20
161.1851646411152
 30
0.0
 10
259.6670223482215
 20
161.4133579646027
 30
0.0
 10
259.9229421995001
 20
161.7046779121951
 30
0.0
 10
260.364619765594
 20
161.9518444048259
 30
0.0
 10
260.7705612417821
 20
162.0347585731843
 30
0.0
 10
261.0035487068359
 20
162.0383155474454
 30
0.0
 10
261.0353153768386
 20
162.0388005230107
 30
0.0
  0
LINE
  5
A8
330
1F
100
AcDbEntity
  8
0
  6
Continuous
 62
     7
370
    25
100
AcDbLine
 10
259.5712157956
 20
148.5923567675
 30
0.0
 11
259.5712157956
 21
161.038800523
 31
0.0
  0
LINE
  5
A9
330
1F
100
AcDbEntity
  8
0
  6
Continuous
 62
     7
370
    25
100
AcDbLine
 10
258.5414454824
 20
147.5676706254
 30
0.0
 11
258.6200628543
 21
147.5831443294
 31
0.0
  0
SPLINE
  5
AA
330
1F
100
AcDbEntity
  8
0
  6
Continuous
 62
     7
370
    25
100
AcDbSpline
210
0.0
220
0.0
230
1.0
 70
     8
 71
     3
 72
    19
 73
    15
 74
     0
 42
0.00000001
 43
0.00000001
 40
0.0
 40
0.0
 40
0.0
 40
0.0
 40
0.0892332007070834
 40
0.1093858607858439
 40
0.1153439062997296
 40
0.1202515414341591
 40
0.1268658104358314
 40
0.1500626519303818
 40
0.1895498449439104
 40
0.3196817775549443
 40
0.4520080276711497
 40
0.6451517691692693
 40
0.8678229952946955
 40
1.0
 40
1.0
 40
1.0
 40
1.0
 10
258.7421421090039
 20
147.6069840918976
 30
0.0
 10
258.7508280469598
 20
147.6086945403728
 30
0.0
 10
258.7614756399243
 20
147.6107912810176
 30
0.0
 10
258.7670375592198
 20
147.6118917224637
 30
0.0
 10
258.7723715355812
 20
147.612976385526
 30
0.0
 10
258.7780255857841
 20
147.6141497763944
 30
0.0
 10
258.7943398292799
 20
147.6176558754212
 30
0.0
 10
258.8295645607427
 20
147.6260640666881
 30
0.0
 10
258.92449218104
 20
147.6537045558801
 30
0.0
 10
259.0682023561741
 20
147.7168722959551
 30
0.0
 10
259.2612656918184
 20
147.8535434535915
 30
0.0
 10
259.4428204989487
 20
148.0725966794155
 30
0.0
 10
259.563283015098
 20
148.340015076086
 30
0.0
 10
259.5574733755981
 20
148.5240948624274
 30
0.0
 10
259.5553093497392
 20
148.5926625279007
 30
0.0
  0
SPLINE
  5
AB
330
1F
100
AcDbEntity
  8
0
  6
Continuous
 62
     7
370
    25
100
AcDbSpline
210
0.0
220
0.0
230
1.0
 70
     8
 71
     3
 72
    21
 73
    17
 74
     0
 42
0.00000001
 43
0.00000001
 40
0.0
 40
0.0
 40
0.0
 40
0.0
 40
0.1028703794826816
 40
0.2945225678128135
 40
0.4537005728117743
 40
0.5880969179740133
 40
0.6983488243227072
 40
0.7831404358109837
 40
0.8407991923690569
 40
0.8716791371904073
 40
0.8775660727866353
 40
0.8815351983586722
 40
0.8861689391295298
 40
0.894205742834947
 40
0.914636083342996
 40
1.0
 40
1.0
 40
1.0
 40
1.0
 10
222.1028827294696
 20
148.59181994121
 30
0.0
 10
222.0983558076882
 20
148.538401424953
 30
0.0
 10
222.0853950250603
 20
148.3854617871694
 30
0.0
 10
222.1733666074557
 20
148.1585573380958
 30
0.0
 10
222.3091190484799
 20
147.9469747990985
 30
0.0
 10
222.4626742369618
 20
147.8021312988842
 30
0.0
 10
222.6065666103163
 20
147.7099190651374
 30
0.0
 10
222.7270132397531
 20
147.6566437242282
 30
0.0
 10
222.8113815861669
 20
147.6297769540801
 30
0.0
 10
222.8606783835801
 20
147.6178674507695
 30
0.0
 10
222.8791046698593
 20
147.6139430344007
 30
0.0
 10
222.8835378751855
 20
147.6130239395661
 30
0.0
 10
222.8867239031806
 20
147.6123736118024
 30
0.0
 10
222.8901546006292
 20
147.6116835341359
 30
0.0
 10
222.8956692687171
 20
147.6105874842916
 30
0.0
 10
222.9063020360619
 20
147.6084961824441
 30
0.0
 10
222.9148814683467
 20
147.6068087400309
 30
0.0
  0
LINE
  5
AC
330
1F
100
AcDbEntity
  8
0
  6
Continuous
 62
     7
370
    25
100
AcDbLine
 10
222.0849198432
 20
161.038800523
 30
0.0
 11
222.0849198432
 21
148.5923567675
 31
0.0
  0
SPLINE
  5
AD
330
1F
100
AcDbEntity
  8
0
  6
Continuous
 62
     7
370
    25
100
AcDbSpline
210
0.0
220
0.0
230
1.0
 70
     8
 71
     3
 72
    12
 73
     8
 74
     0
 42
0.00000001
 43
0.00000001
 40
0.0
 40
0.0
 40
0.0
 40
0.0
 40
0.1256646000141357
 40
0.445582764354016
 40
0.7076751820614714
 40
0.8747920263715416
 40
1.0
 40
1.0
 40
1.0
 40
1.0
 10
220.6208202619323
 20
162.0388005230107
 30
0.0
 10
220.701740993159
 20
162.0357859169435
 30
0.0
 10
220.9886705111737
 20
162.0250966973487
 30
0.0
 10
221.4374281238454
 20
161.8935323142356
 30
0.0
 10
221.8365108187938
 20
161.6108145095481
 30
0.0
 10
222.0507789374802
 20
161.308696285487
 30
0.0
 10
222.0746818123042
 20
161.1197357266475
 30
0.0
 10
222.08491984321
 20
161.0388005230107
 30
0.0
  0
LINE
  5
AE
330
1F
100
AcDbEntity
  8
0
  6
Continuous
 62
     7
370
    25
100
AcDbLine
 10
223.3280678194
 20
125.938800523
 30
0.0
 11
223.3280678194
 21
124.217566299
 31
0.0
  0
LINE
  5
AF
330
1F
100
AcDbEntity
  8
0
  6
Continuous
 62
     7
370
    25
100
AcDbLine
 10
258.3280678194
 20
115.4628178424
 30
0.0
 11
258.3280678194
 21
125.938800523
 31
0.0
  0
LINE
  5
B0
330
1F
100
AcDbEntity
  8
0
  6
Continuous
 62
     7
370
    25
100
AcDbLine
 10
18.3280678194
 20
125.938800523
 30
0.0
 11
18.3280678194
 21
116.1151119082
 31
0.0
  0
LINE
  5
B1
330
1F
100
AcDbEntity
  8
0
  6
Continuous
 62
     7
370
    25
100
AcDbLine
 10
53.3280678194
 20
124.217566299
 30
0.0
 11
53.3280678194
 21
125.938800523
 31
0.0
  0
ARC
  5
B2
330
1F
100
AcDbEntity
  8
0
  6
Continuous
 62
     7
370
    25
100
AcDbCircle
 10
35.8280678194
 20
109.038800523
 30
0.0
 40
17.49999999999999
100
AcDbArc
 50
218.5842675868
 51
230.075150585
  0
LWPOLYLINE
  5
B3
330
1F
100
AcDbEntity
  8
0
  6
Continuous
 62
     7
370
    25
100
AcDbPolyline
 90
        3
 70
   128
 43
0.0
 10
230.7961716218
 20
94.6996562431
 10
232.6031277132
 20
93.5921063702
 10
234.3916540693
 20
92.7654303116
  0
ARC
  5
B4
330
1F
100
AcDbEntity
  8
0
  6
Continuous
 62
     7
370
    25
100
AcDbCircle
 10
240.8280678194
 20
109.038800523
 30
0.0
 40
17.49999999999998
100
AcDbArc
 50
286.3507579822
 51
309.3198492977
  0
CIRCLE
  5
B5
330
1F
100
AcDbEntity
  8
0
  6
Continuous
 62
     7
370
    25
100
AcDbCircle
 10
138.3280678194
 20
108.088800523
 30
0.0
 40
0.1754446796632578
  0
CIRCLE
  5
B6
330
1F
100
AcDbEntity
  8
0
  6
Continuous
 62
     7
370
    25
100
AcDbCircle
 10
138.3280678194
 20
108.088800523
 30
0.0
 40
0.807900211696932
  0
CIRCLE
  5
B7
330
1F
100
AcDbEntity
  8
0
  6
Continuous
 62
     7
370
    25
100
AcDbCircle
 10
138.3280678194
 20
108.088800523
 30
0.0
 40
3.250519151701752
  0
CIRCLE
  5
B8
330
1F
100
AcDbEntity
  8
0
  6
Continuous
 62
     7
370
    25
100
AcDbCircle
 10
138.3280678194
 20
108.088800523
 30
0.0
 40
3.753506830611997
  0
CIRCLE
  5
B9
330
1F
100
AcDbEntity
  8
0
  6
Continuous
 62
     7
370
    25
100
AcDbCircle
 10
138.3280678194
 20
108.088800523
 30
0.0
 40
12.90685799625163
  0
CIRCLE
  5
BA
330
1F
100
AcDbEntity
  8
0
  6
Continuous
 62
     7
370
    25
100
AcDbCircle
 10
138.3280678194
 20
108.088800523
 30
0.0
 40
14.37499999999999
  0
CIRCLE
  5
BB
330
1F
100
AcDbEntity
  8
0
  6
Continuous
 62
     7
370
    25
100
AcDbCircle
 10
240.8280678194
 20
108.088800523
 30
0.0
 40
5.328914336627577
  0
CIRCLE
  5
BC
330
1F
100
AcDbEntity
  8
0
  6
Continuous
 62
     7
370
    25
100
AcDbCircle
 10
240.8280678194
 20
108.088800523
 30
0.0
 40
5.925127771161414
  0
CIRCLE
  5
BD
330
1F
100
AcDbEntity
  8
0
  6
Continuous
 62
     7
370
    25
100
AcDbCircle
 10
240.8280678194
 20
108.088800523
 30
0.0
 40
5.074569253689134
  0
CIRCLE
  5
BE
330
1F
100
AcDbEntity
  8
0
  6
Continuous
 62
     7
370
    25
100
AcDbCircle
 10
240.8280678194
 20
108.088800523
 30
0.0
 40
7.150000000000006
  0
LINE
  5
BF
330
1F
100
AcDbEntity
  8
0
  6
Continuous
 62
     7
370
    25
100
AcDbLine
 10
238.7680053489
 20
106.3928811211
 30
0.0
 11
238.2331705799
 21
107.4671025926
 31
0.0
  0
LINE
  5
C0
330
1F
100
AcDbEntity
  8
0
  6
Continuous
 62
     7
370
    25
100
AcDbLine
 10
239.8869860484
 20
106.9500006721
 30
0.0
 11
238.7680053489
 21
106.3928811211
 31
0.0
  0
SPLINE
  5
C1
330
1F
100
AcDbEntity
  8
0
  6
Continuous
 62
     7
370
    25
100
AcDbSpline
210
0.0
220
0.0
230
1.0
 70
     8
 71
     3
 72
    12
 73
     8
 74
     0
 42
0.00000001
 43
0.00000001
 40
0.0
 40
0.0
 40
0.0
 40
0.0
 40
0.2133534395476116
 40
0.4267919313634488
 40
0.6383539739091517
 40
0.8490950351927626
 40
1.0
 40
1.0
 40
1.0
 40
1.0
 10
240.8926461987283
 20
106.6128839830526
 30
0.0
 10
240.8481809897867
 20
106.6840155030063
 30
0.0
 10
240.759232846073
 20
106.8263068991338
 30
0.0
 10
240.5454222571833
 20
106.9698999859328
 30
0.0
 10
240.3023092588625
 20
107.037742216507
 30
0.0
 10
240.0721479135297
 20
107.026660342961
 30
0.0
 10
239.9415012971089
 20
106.9725707678642
 30
0.0
 10
239.8869860484104
 20
106.9500006721419
 30
0.0
  0
LINE
  5
C2
330
1F
100
AcDbEntity
  8
0
  6
Continuous
 62
     7
370
    25
100
AcDbLine
 10
241.4497657498
 20
105.4939032835
 30
0.0
 11
240.8926461987
 21
106.6128839831
 31
0.0
  0
LINE
  5
C3
330
1F
100
AcDbEntity
  8
0
  6
Continuous
 62
     7
370
    25
100
AcDbLine
 10
242.5239872213
 20
106.0287380525
 30
0.0
 11
241.4497657498
 21
105.4939032835
 31
0.0
  0
LINE
  5
C4
330
1F
100
AcDbEntity
  8
0
  6
Continuous
 62
     7
370
    25
100
AcDbLine
 10
241.9668676703
 20
107.147718752
 30
0.0
 11
242.5239872213
 21
106.0287380525
 31
0.0
  0
SPLINE
  5
C5
330
1F
100
AcDbEntity
  8
0
  6
Continuous
 62
     7
370
    25
100
AcDbSpline
210
0.0
220
0.0
230
1.0
 70
     8
 71
     3
 72
    12
 73
     8
 74
     0
 42
0.00000001
 43
0.00000001
 40
0.0
 40
0.0
 40
0.0
 40
0.0
 40
0.2133534395476141
 40
0.4267919313634458
 40
0.6383539739091498
 40
0.8490950351927544
 40
1.0
 40
1.0
 40
1.0
 40
1.0
 10
242.3039843593435
 20
108.1533789023534
 30
0.0
 10
242.2328528393898
 20
108.1089136934117
 30
0.0
 10
242.0905614432623
 20
108.019965549698
 30
0.0
 10
241.9469683564633
 20
107.8061549608084
 30
0.0
 10
241.879126125889
 20
107.5630419624875
 30
0.0
 10
241.890207999435
 20
107.3328806171547
 30
0.0
 10
241.9442975745319
 20
107.202234000734
 30
0.0
 10
241.9668676702541
 20
107.1477187520355
 30
0.0
  0
LINE
  5
C6
330
1F
100
AcDbEntity
  8
0
  6
Continuous
 62
     7
370
    25
100
AcDbLine
 10
243.4229650588
 20
108.7104984534
 30
0.0
 11
242.3039843593
 21
108.1533789024
 31
0.0
  0
LINE
  5
C7
330
1F
100
AcDbEntity
  8
0
  6
Continuous
 62
     7
370
    25
100
AcDbLine
 10
242.8881302899
 20
109.7847199249
 30
0.0
 11
243.4229650588
 21
108.7104984534
 31
0.0
  0
LINE
  5
C8
330
1F
100
AcDbEntity
  8
0
  6
Continuous
 62
     7
370
    25
100
AcDbLine
 10
241.7691495904
 20
109.2276003739
 30
0.0
 11
242.8881302899
 21
109.7847199249
 31
0.0
  0
LINE
  5
C9
330
1F
100
AcDbEntity
  8
0
  6
Continuous
 62
     7
370
    25
100
AcDbLine
 10
240.206369889
 20
110.6836977625
 30
0.0
 11
240.76348944
 21
109.564717063
 31
0.0
  0
LINE
  5
CA
330
1F
100
AcDbEntity
  8
0
  6
Continuous
 62
     7
370
    25
100
AcDbLine
 10
239.1321484175
 20
110.1488629935
 30
0.0
 11
240.206369889
 21
110.6836977625
 31
0.0
  0
LINE
  5
CB
330
1F
100
AcDbEntity
  8
0
  6
Continuous
 62
     7
370
    25
100
AcDbLine
 10
239.6892679685
 20
109.029882294
 30
0.0
 11
239.1321484175
 21
110.1488629935
 31
0.0
  0
SPLINE
  5
CC
330
1F
100
AcDbEntity
  8
0
  6
Continuous
 62
     7
370
    25
100
AcDbSpline
210
0.0
220
0.0
230
1.0
 70
     8
 71
     3
 72
    12
 73
     8
 74
     0
 42
0.00000001
 43
0.00000001
 40
0.0
 40
0.0
 40
0.0
 40
0.0
 40
0.2133534395476069
 40
0.4267919313634408
 40
0.6383539739091472
 40
0.8490950351927541
 40
1.0
 40
1.0
 40
1.0
 40
1.0
 10
239.3521512794275
 20
108.0242221436677
 30
0.0
 10
239.4232827993812
 20
108.0686873526094
 30
0.0
 10
239.5655741955087
 20
108.1576354963231
 30
0.0
 10
239.7091672823078
 20
108.3714460852128
 30
0.0
 10
239.777009512882
 20
108.6145590835336
 30
0.0
 10
239.765927639336
 20
108.8447204288664
 30
0.0
 10
239.7118380642391
 20
108.9753670452872
 30
0.0
 10
239.6892679685169
 20
109.0298822939857
 30
0.0
  0
LINE
  5
CD
330
1F
100
AcDbEntity
  8
0
  6
Continuous
 62
     7
370
    25
100
AcDbLine
 10
238.2331705799
 20
107.4671025926
 30
0.0
 11
239.3521512794
 21
108.0242221437
 31
0.0
  0
CIRCLE
  5
CE
330
1F
100
AcDbEntity
  8
0
  6
Continuous
 62
     7
370
    25
100
AcDbCircle
 10
240.8280678194
 20
108.088800523
 30
0.0
 40
4.197433366238877
  0
SPLINE
  5
CF
330
1F
100
AcDbEntity
  8
0
  6
Continuous
 62
     7
370
    25
100
AcDbSpline
210
0.0
220
0.0
230
1.0
 70
     8
 71
     3
 72
    12
 73
     8
 74
     0
 42
0.00000001
 43
0.00000001
 40
0.0
 40
0.0
 40
0.0
 40
0.0
 40
0.2133534395476126
 40
0.4267919313634497
 40
0.6383539739091519
 40
0.8490950351927626
 40
1.0
 40
1.0
 40
1.0
 40
1.0
 10
240.7634894400427
 20
109.5647170629685
 30
0.0
 10
240.8079546489843
 20
109.4935855430149
 30
0.0
 10
240.896902792698
 20
109.3512941468874
 30
0.0
 10
241.1107133815877
 20
109.2077010600883
 30
0.0
 10
241.3538263799086
 20
109.1398588295141
 30
0.0
 10
241.5839877252413
 20
109.1509407030601
 30
0.0
 10
241.7146343416621
 20
109.205030278157
 30
0.0
 10
241.7691495903606
 20
109.2276003738792
 30
0.0
  0
CIRCLE
  5
D0
330
1F
100
AcDbEntity
  8
0
  6
Continuous
 62
     7
370
    25
100
AcDbCircle
 10
240.8280678194
 20
108.088800523
 30
0.0
 40
4.499999999999989
  0
LINE
  5
D1
330
1F
100
AcDbEntity
  8
0
  6
Continuous
 62
     7
370
    25
100
AcDbLine
 10
33.7680053489
 20
106.3928811211
 30
0.0
 11
33.2331705799
 21
107.4671025926
 31
0.0
  0
LINE
  5
D2
330
1F
100
AcDbEntity
  8
0
  6
Continuous
 62
     7
370
    25
100
AcDbLine
 10
34.8869860484
 20
106.9500006721
 30
0.0
 11
33.7680053489
 21
106.3928811211
 31
0.0
  0
LINE
  5
D3
330
1F
100
AcDbEntity
  8
0
  6
Continuous
 62
     7
370
    25
100
AcDbLine
 10
36.4497657498
 20
105.4939032835
 30
0.0
 11
35.8926461987
 21
106.6128839831
 31
0.0
  0
LINE
  5
D4
330
1F
100
AcDbEntity
  8
0
  6
Continuous
 62
     7
370
    25
100
AcDbLine
 10
37.5239872213
 20
106.0287380525
 30
0.0
 11
36.4497657498
 21
105.4939032835
 31
0.0
  0
LINE
  5
D5
330
1F
100
AcDbEntity
  8
0
  6
Continuous
 62
     7
370
    25
100
AcDbLine
 10
36.9668676703
 20
107.147718752
 30
0.0
 11
37.5239872213
 21
106.0287380525
 31
0.0
  0
LINE
  5
D6
330
1F
100
AcDbEntity
  8
0
  6
Continuous
 62
     7
370
    25
100
AcDbLine
 10
38.4229650588
 20
108.7104984534
 30
0.0
 11
37.3039843593
 21
108.1533789024
 31
0.0
  0
LINE
  5
D7
330
1F
100
AcDbEntity
  8
0
  6
Continuous
 62
     7
370
    25
100
AcDbLine
 10
37.8881302899
 20
109.7847199249
 30
0.0
 11
38.4229650588
 21
108.7104984534
 31
0.0
  0
LINE
  5
D8
330
1F
100
AcDbEntity
  8
0
  6
Continuous
 62
     7
370
    25
100
AcDbLine
 10
36.7691495904
 20
109.2276003739
 30
0.0
 11
37.8881302899
 21
109.7847199249
 31
0.0
  0
LINE
  5
D9
330
1F
100
AcDbEntity
  8
0
  6
Continuous
 62
     7
370
    25
100
AcDbLine
 10
35.206369889
 20
110.6836977625
 30
0.0
 11
35.76348944
 21
109.564717063
 31
0.0
  0
LINE
  5
DA
330
1F
100
AcDbEntity
  8
0
  6
Continuous
 62
     7
370
    25
100
AcDbLine
 10
34.1321484175
 20
110.1488629935
 30
0.0
 11
35.206369889
 21
110.6836977625
 31
0.0
  0
LINE
  5
DB
330
1F
100
AcDbEntity
  8
0
  6
Continuous
 62
     7
370
    25
100
AcDbLine
 10
34.6892679685
 20
109.029882294
 30
0.0
 11
34.1321484175
 21
110.1488629935
 31
0.0
  0
LINE
  5
DC
330
1F
100
AcDbEntity
  8
0
  6
Continuous
 62
     7
370
    25
100
AcDbLine
 10
33.2331705799
 20
107.4671025926
 30
0.0
 11
34.3521512794
 21
108.0242221437
 31
0.0
  0
CIRCLE
  5
DD
330
1F
100
AcDbEntity
  8
0
  6
Continuous
 62
     7
370
    25
100
AcDbCircle
 10
35.8280678194
 20
108.088800523
 30
0.0
 40
4.19743336623889
  0
SPLINE
  5
DE
330
1F
100
AcDbEntity
  8
0
  6
Continuous
 62
     7
370
    25
100
AcDbSpline
210
0.0
220
0.0
230
1.0
 70
     8
 71
     3
 72
    12
 73
     8
 74
     0
 42
0.00000001
 43
0.00000001
 40
0.0
 40
0.0
 40
0.0
 40
0.0
 40
0.2133534395476137
 40
0.4267919313634504
 40
0.6383539739091523
 40
0.8490950351927626
 40
1.0
 40
1.0
 40
1.0
 40
1.0
 10
35.89264619872829
 20
106.6128839830526
 30
0.0
 10
35.84818098978663
 20
106.6840155030063
 30
0.0
 10
35.75923284607292
 20
106.8263068991338
 30
0.0
 10
35.54542225718324
 20
106.9698999859328
 30
0.0
 10
35.30230925886238
 20
107.037742216507
 30
0.0
 10
35.07214791352968
 20
107.0266603429611
 30
0.0
 10
34.94150129710886
 20
106.9725707678642
 30
0.0
 10
34.88698604841038
 20
106.950000672142
 30
0.0
  0
SPLINE
  5
DF
330
1F
100
AcDbEntity
  8
0
  6
Continuous
 62
     7
370
    25
100
AcDbSpline
210
0.0
220
0.0
230
1.0
 70
     8
 71
     3
 72
    12
 73
     8
 74
     0
 42
0.00000001
 43
0.00000001
 40
0.0
 40
0.0
 40
0.0
 40
0.0
 40
0.2133534395476069
 40
0.4267919313634408
 40
0.6383539739091472
 40
0.8490950351927541
 40
1.0
 40
1.0
 40
1.0
 40
1.0
 10
34.35215127942752
 20
108.0242221436678
 30
0.0
 10
34.42328279938116
 20
108.0686873526094
 30
0.0
 10
34.56557419550865
 20
108.1576354963231
 30
0.0
 10
34.70916728230772
 20
108.3714460852128
 30
0.0
 10
34.77700951288192
 20
108.6145590835336
 30
0.0
 10
34.76592763933598
 20
108.8447204288664
 30
0.0
 10
34.71183806423905
 20
108.9753670452872
 30
0.0
 10
34.68926796851684
 20
109.0298822939857
 30
0.0
  0
SPLINE
  5
E0
330
1F
100
AcDbEntity
  8
0
  6
Continuous
 62
     7
370
    25
100
AcDbSpline
210
0.0
220
0.0
230
1.0
 70
     8
 71
     3
 72
    12
 73
     8
 74
     0
 42
0.00000001
 43
0.00000001
 40
0.0
 40
0.0
 40
0.0
 40
0.0
 40
0.2133534395476127
 40
0.4267919313634498
 40
0.6383539739091523
 40
0.849095035192763
 40
1.0
 40
1.0
 40
1.0
 40
1.0
 10
35.76348944004265
 20
109.5647170629685
 30
0.0
 10
35.80795464898433
 20
109.4935855430149
 30
0.0
 10
35.89690279269803
 20
109.3512941468874
 30
0.0
 10
36.11071338158767
 20
109.2077010600883
 30
0.0
 10
36.35382637990851
 20
109.1398588295141
 30
0.0
 10
36.58398772524126
 20
109.1509407030601
 30
0.0
 10
36.71463434166206
 20
109.205030278157
 30
0.0
 10
36.76914959036056
 20
109.2276003738792
 30
0.0
  0
SPLINE
  5
E1
330
1F
100
AcDbEntity
  8
0
  6
Continuous
 62
     7
370
    25
100
AcDbSpline
210
0.0
220
0.0
230
1.0
 70
     8
 71
     3
 72
    12
 73
     8
 74
     0
 42
0.00000001
 43
0.00000001
 40
0.0
 40
0.0
 40
0.0
 40
0.0
 40
0.2133534395476144
 40
0.4267919313634463
 40
0.6383539739091506
 40
0.8490950351927555
 40
1.0
 40
1.0
 40
1.0
 40
1.0
 10
37.30398435934343
 20
108.1533789023534
 30
0.0
 10
37.23285283938978
 20
108.1089136934117
 30
0.0
 10
37.09056144326227
 20
108.019965549698
 30
0.0
 10
36.94696835646324
 20
107.8061549608084
 30
0.0
 10
36.87912612588899
 20
107.5630419624875
 30
0.0
 10
36.890207999435
 20
107.3328806171547
 30
0.0
 10
36.94429757453184
 20
107.202234000734
 30
0.0
 10
36.96686767025409
 20
107.1477187520355
 30
0.0
  0
CIRCLE
  5
E2
330
1F
100
AcDbEntity
  8
0
  6
Continuous
 62
     7
370
    25
100
AcDbCircle
 10
35.8280678194
 20
108.088800523
 30
0.0
 40
4.499999999999998
  0
CIRCLE
  5
E3
330
1F
100
AcDbEntity
  8
0
  6
Continuous
 62
     7
370
    25
100
AcDbCircle
 10
35.8280678194
 20
108.088800523
 30
0.0
 40
5.328914336627597
  0
CIRCLE
  5
E4
330
1F
100
AcDbEntity
  8
0
  6
Continuous
 62
     7
370
    25
100
AcDbCircle
 10
35.8280678194
 20
108.088800523
 30
0.0
 40
5.074569253689152
  0
CIRCLE
  5
E5
330
1F
100
AcDbEntity
  8
0
  6
Continuous
 62
     7
370
    25
100
AcDbCircle
 10
35.8280678194
 20
108.088800523
 30
0.0
 40
5.925127771161409
  0
CIRCLE
  5
E6
330
1F
100
AcDbEntity
  8
0
  6
Continuous
 62
     7
370
    25
100
AcDbCircle
 10
35.8280678194
 20
108.088800523
 30
0.0
 40
7.150000000000008
  0
SPLINE
  5
E7
330
1F
100
AcDbEntity
  8
0
  6
Continuous
 62
     7
370
    25
100
AcDbSpline
210
0.0
220
0.0
230
1.0
 70
     8
 71
     3
 72
    11
 73
     7
 74
     0
 42
0.00000001
 43
0.00000001
 40
0.0
 40
0.0
 40
0.0
 40
0.0
 40
0.2200386424382244
 40
0.6637869905998165
 40
0.8890365590789576
 40
1.0
 40
1.0
 40
1.0
 40
1.0
 10
247.6958537752515
 20
113.6361568098811
 30
0.0
 10
247.8910587449051
 20
113.3644284711187
 30
0.0
 10
248.4799303990868
 20
112.5447100150826
 30
0.0
 10
248.9607578673009
 20
111.2646688146647
 30
0.0
 10
249.1730631236346
 20
110.0903056418495
 30
0.0
 10
249.1351950864653
 20
109.5800098137347
 30
0.0
 10
249.1226971533463
 20
109.4115922350209
 30
0.0
  0
SPLINE
  5
E8
330
1F
100
AcDbEntity
  8
0
  6
Continuous
 62
     7
370
    25
100
AcDbSpline
210
0.0
220
0.0
230
1.0
 70
     8
 71
     3
 72
     9
 73
     5
 74
     0
 42
0.00000001
 43
0.00000001
 40
0.0
 40
0.0
 40
0.0
 40
0.0
 40
0.9209630919903082
 40
1.0
 40
1.0
 40
1.0
 40
1.0
 10
249.3242119990617
 20
113.2609296132277
 30
0.0
 10
248.8119893743143
 20
113.3350026579178
 30
0.0
 10
248.2558078843043
 20
113.4154326396775
 30
0.0
 10
247.7368690927799
 20
113.619989285113
 30
0.0
 10
247.6958537752515
 20
113.6361568098811
 30
0.0
  0
SPLINE
  5
E9
330
1F
100
AcDbEntity
  8
0
  6
Continuous
 62
     7
370
    25
100
AcDbSpline
210
0.0
220
0.0
230
1.0
 70
     8
 71
     3
 72
    10
 73
     6
 74
     0
 42
0.00000001
 43
0.00000001
 40
0.0
 40
0.0
 40
0.0
 40
0.0
 40
0.259615068848884
 40
0.6297606444810662
 40
1.0
 40
1.0
 40
1.0
 40
1.0
 10
296.3857125696197
 20
109.0863463153838
 30
0.0
 10
292.3202610554449
 20
109.522894439681
 30
0.0
 10
282.4585015781336
 20
110.5818500285201
 30
0.0
 10
266.7655417310276
 20
111.9355453668908
 30
0.0
 10
255.1384794852495
 20
112.8190975597886
 30
0.0
 10
249.3242119990617
 20
113.2609296132277
 30
0.0
  0
SPLINE
  5
EA
330
1F
100
AcDbEntity
  8
0
  6
Continuous
 62
     7
370
    25
100
AcDbSpline
210
0.0
220
0.0
230
1.0
 70
     8
 71
     3
 72
    11
 73
     7
 74
     0
 42
0.00000001
 43
0.00000001
 40
0.0
 40
0.0
 40
0.0
 40
0.0
 40
0.0614641195413916
 40
0.4999988937835376
 40
0.9375097801832794
 40
1.0
 40
1.0
 40
1.0
 40
1.0
 10
296.1933904045999
 20
103.3635446742508
 30
0.0
 10
296.2089644961954
 20
103.4795440028854
 30
0.0
 10
296.3356567619849
 20
104.4231764250157
 30
0.0
 10
296.479677005425
 20
106.2165952387978
 30
0.0
 10
296.4565844994565
 20
108.0175850218664
 30
0.0
 10
296.3935861176539
 20
108.9676118121613
 30
0.0
 10
296.3857125696197
 20
109.0863463153838
 30
0.0
  0
SPLINE
  5
EB
330
1F
100
AcDbEntity
  8
0
  6
Continuous
 62
     7
370
    25
100
AcDbSpline
210
0.0
220
0.0
230
1.0
 70
     8
 71
     3
 72
    11
 73
     7
 74
     0
 42
0.00000001
 43
0.00000001
 40
0.0
 40
0.0
 40
0.0
 40
0.0
 40
0.2594589277291887
 40
0.6296002946237427
 40
0.8147836738016297
 40
1.0
 40
1.0
 40
1.0
 40
1.0
 10
248.9578028110439
 20
102.3579372186627
 30
0.0
 10
253.044058431922
 20
102.3862053190693
 30
0.0
 10
262.9597231782823
 20
102.4548003930574
 30
0.0
 10
275.7904103658185
 20
102.7022442351122
 30
0.0
 10
287.4508655364443
 20
102.9881828470766
 30
0.0
 10
293.2790426432715
 20
103.2384166457681
 30
0.0
 10
296.1933904045999
 20
103.3635446742508
 30
0.0
  0
SPLINE
  5
EC
330
1F
100
AcDbEntity
  8
0
  6
Continuous
 62
     7
370
    25
100
AcDbSpline
210
0.0
220
0.0
230
1.0
 70
     8
 71
     3
 72
     9
 73
     5
 74
     0
 42
0.00000001
 43
0.00000001
 40
0.0
 40
0.0
 40
0.0
 40
0.0
 40
0.0790369080192166
 40
1.0
 40
1.0
 40
1.0
 40
1.0
 10
247.307926977084
 20
102.0928793256072
 30
0.0
 10
247.3499351904839
 20
102.1062567370345
 30
0.0
 10
247.8814364150723
 20
102.27551198452
 30
0.0
 10
248.4417628474046
 20
102.3184202707264
 30
0.0
 10
248.9578028110439
 20
102.3579372186627
 30
0.0
  0
SPLINE
  5
ED
330
1F
100
AcDbEntity
  8
0
  6
Continuous
 62
     7
370
    25
100
AcDbSpline
210
0.0
220
0.0
230
1.0
 70
     8
 71
     3
 72
    11
 73
     7
 74
     0
 42
0.00000001
 43
0.00000001
 40
0.0
 40
0.0
 40
0.0
 40
0.0
 40
0.0728838064943295
 40
0.4140719411596028
 40
0.9209668754550561
 40
1.0
 40
1.0
 40
1.0
 40
1.0
 10
249.0151746994339
 20
106.2121187077524
 30
0.0
 10
249.019175894224
 20
106.1014754576077
 30
0.0
 10
249.0419077268956
 20
105.4728822547104
 30
0.0
 10
248.6511593661654
 20
104.1022410857073
 30
0.0
 10
247.9691773232199
 20
102.8545115409779
 30
0.0
 10
247.3865190547381
 20
102.1834021639906
 30
0.0
 10
247.307926977084
 20
102.0928793256072
 30
0.0
  0
SPLINE
  5
EE
330
1F
100
AcDbEntity
  8
0
  6
Continuous
 62
     7
370
    25
100
AcDbSpline
210
0.0
220
0.0
230
1.0
 70
     8
 71
     3
 72
    10
 73
     6
 74
     0
 42
0.00000001
 43
0.00000001
 40
0.0
 40
0.0
 40
0.0
 40
0.0
 40
0.3880207377811385
 40
0.9790637766506856
 40
1.0
 40
1.0
 40
1.0
 40
1.0
 10
249.1226971533463
 20
109.4115922350209
 30
0.0
 10
249.0356249716953
 20
109.0034466143257
 30
0.0
 10
248.8159222323629
 20
107.9736032221751
 30
0.0
 10
248.8748383627329
 20
106.8772364796821
 30
0.0
 10
249.0105325110909
 20
106.2341201511429
 30
0.0
 10
249.0151746994339
 20
106.2121187077524
 30
0.0
  0
ARC
  5
EF
330
1F
100
AcDbEntity
  8
0
  6
Continuous
 62
     7
370
    25
100
AcDbCircle
 10
240.8280678194
 20
108.088800523
 30
0.0
 40
8.399443654264543
100
AcDbArc
 50
9.0609834605
 51
347.0894674746
  0
SPLINE
  5
F0
330
1F
100
AcDbEntity
  8
0
  6
Continuous
 62
     7
370
    25
100
AcDbSpline
210
0.0
220
0.0
230
1.0
 70
     8
 71
     3
 72
     9
 73
     5
 74
     0
 42
0.00000001
 43
0.00000001
 40
0.0
 40
0.0
 40
0.0
 40
0.0
 40
0.6817923421274324
 40
1.0
 40
1.0
 40
1.0
 40
1.0
 10
247.307926977084
 20
102.0928793256072
 30
0.0
 10
247.1593651008277
 20
101.9078543743541
 30
0.0
 10
246.941466091002
 20
101.6364741610244
 30
0.0
 10
246.7043470651889
 20
101.4114069981927
 30
0.0
 10
246.6288939753478
 20
101.3397889034441
 30
0.0
  0
ARC
  5
F1
330
1F
100
AcDbEntity
  8
0
  6
Continuous
 62
     7
370
    25
100
AcDbCircle
 10
240.8280678194
 20
108.088800523
 30
0.0
 40
8.899367501836307
100
AcDbArc
 50
45.4711446636
 51
310.6793062714
  0
LINE
  5
F2
330
1F
100
AcDbEntity
  8
0
  6
Continuous
 62
     7
370
    25
100
AcDbLine
 10
247.0689128774
 20
114.4331361773
 30
0.0
 11
247.6958537753
 21
113.6361568099
 31
0.0
  0
SPLINE
  5
F3
330
1F
100
AcDbEntity
  8
0
  6
Continuous
 62
     7
370
    25
100
AcDbSpline
210
0.0
220
0.0
230
1.0
 70
     8
 71
     3
 72
    10
 73
     6
 74
     0
 42
0.00000001
 43
0.00000001
 40
0.0
 40
0.0
 40
0.0
 40
0.0
 40
0.370289668858304
 40
0.7405318123903297
 40
1.0
 40
1.0
 40
1.0
 40
1.0
 10
296.1900288953669
 20
102.9205480527926
 30
0.0
 10
290.3624944460998
 20
102.7960181268791
 30
0.0
 10
278.7081734903236
 20
102.5469742580132
 30
0.0
 10
262.9689786199271
 20
102.2061852545613
 30
0.0
 10
253.0589581772352
 20
101.9901735498172
 30
0.0
 10
248.9755964849186
 20
101.9011672833473
 30
0.0
  0
ARC
  5
F4
330
1F
100
AcDbEntity
  8
0
  6
Continuous
 62
     7
370
    25
100
AcDbCircle
 10
256.2119190803
 20
102.4117929629
 30
0.0
 40
7.254316183395612
100
AcDbArc
 50
180.4253654123
 51
184.0363431988
  0
ARC
  5
F5
330
1F
100
AcDbEntity
  8
0
  6
Continuous
 62
     7
370
    25
100
AcDbCircle
 10
291.9356302259
 20
103.1743419829
 30
0.0
 40
4.261961918850446
100
AcDbArc
 50
356.5860960061
 51
2.544386774
  0
SPLINE
  5
F6
330
1F
100
AcDbEntity
  8
0
  6
Continuous
 62
     7
370
    25
100
AcDbSpline
210
0.0
220
0.0
230
1.0
 70
     8
 71
     3
 72
    10
 73
     6
 74
     0
 42
0.00000001
 43
0.00000001
 40
0.0
 40
0.0
 40
0.0
 40
0.0
 40
0.3702717503651156
 40
0.7405122151371749
 40
1.0
 40
1.0
 40
1.0
 40
1.0
 10
249.372631583959
 20
113.7154743661799
 30
0.0
 10
255.1781872347471
 20
113.1976605820421
 30
0.0
 10
266.7888080040281
 20
112.1620767657171
 30
0.0
 10
282.4698974711587
 20
110.7657884726547
 30
0.0
 10
292.3435372368731
 20
109.8896099663228
 30
0.0
 10
296.4121000063283
 20
109.5285691207132
 30
0.0
  0
ARC
  5
F7
330
1F
100
AcDbEntity
  8
0
  6
Continuous
 62
     7
370
    25
100
AcDbCircle
 10
292.1502612809
 20
109.560974384
 30
0.0
 40
4.261961921810929
100
AcDbArc
 50
353.6060641635
 51
359.5643549273
  0
ARC
  5
F8
330
1F
100
AcDbEntity
  8
0
  6
Continuous
 62
     7
370
    25
100
AcDbCircle
 10
256.5583456993
 20
112.7201774542
 30
0.0
 40
7.254316183515003
100
AcDbArc
 50
172.1141077362
 51
175.7250855226
  0
SPLINE
  5
F9
330
1F
100
AcDbEntity
  8
0
  6
Continuous
 62
     7
370
    25
100
AcDbSpline
210
0.0
220
0.0
230
1.0
 70
     8
 71
     3
 72
    12
 73
     8
 74
     0
 42
0.00000001
 43
0.00000001
 40
0.0
 40
0.0
 40
0.0
 40
0.0
 40
0.1224290494151382
 40
0.3423522449770503
 40
0.5614228816909443
 40
0.7807229538533598
 40
0.9999999999999999
 40
0.9999999999999999
 40
0.9999999999999999
 40
0.9999999999999999
 10
298.3166305814416
 20
108.9107184645213
 30
0.0
 10
298.3077108077243
 20
108.91337824107
 30
0.0
 10
298.2827681607675
 20
108.9208158588326
 30
0.0
 10
298.0674735926372
 20
108.945068681068
 30
0.0
 10
297.6326782482304
 20
108.9852059179657
 30
0.0
 10
297.0500746726753
 20
109.034353931805
 30
0.0
 10
296.6071588527033
 20
109.0690161274648
 30
0.0
 10
296.3857125696197
 20
109.0863463153838
 30
0.0
  0
SPLINE
  5
FA
330
1F
100
AcDbEntity
  8
0
  6
Continuous
 62
     7
370
    25
100
AcDbSpline
210
0.0
220
0.0
230
1.0
 70
     8
 71
     3
 72
    11
 73
     7
 74
     0
 42
0.00000001
 43
0.00000001
 40
0.0
 40
0.0
 40
0.0
 40
0.0
 40
0.0800485240044433
 40
0.5000005853538798
 40
0.9209248322279645
 40
1.0
 40
1.0
 40
1.0
 40
1.0
 10
298.3166305814416
 20
108.9107184645213
 30
0.0
 10
298.3114325380747
 20
108.7645661667151
 30
0.0
 10
298.2789644225347
 20
107.8516669551087
 30
0.0
 10
298.2208187209359
 20
106.1582548802078
 30
0.0
 10
298.1652048960861
 20
104.4665414606235
 30
0.0
 10
298.1363123084041
 20
103.553533378329
 30
0.0
 10
298.1317429306181
 20
103.409140674718
 30
0.0
  0
SPLINE
  5
FB
330
1F
100
AcDbEntity
  8
0
  6
Continuous
 62
     7
370
    25
100
AcDbSpline
210
0.0
220
0.0
230
1.0
 70
     8
 71
     3
 72
    12
 73
     8
 74
     0
 42
0.00000001
 43
0.00000001
 40
0.0
 40
0.0
 40
0.0
 40
0.0
 40
0.1130367476169261
 40
0.332859469354801
 40
0.5544127937944968
 40
0.7774207483513234
 40
0.9999999999999999
 40
0.9999999999999999
 40
0.9999999999999999
 40
0.9999999999999999
 10
296.1933904045999
 20
103.3635446742508
 30
0.0
 10
296.3075653329927
 20
103.3647257547982
 30
0.0
 10
296.6437764048756
 20
103.3682036843437
 30
0.0
 10
297.1784025067971
 20
103.3758435331285
 30
0.0
 10
297.6955729696298
 20
103.3863543489066
 30
0.0
 10
298.0530536719517
 20
103.3977958539484
 30
0.0
 10
298.1055300070257
 20
103.4053614941152
 30
0.0
 10
298.1317429306181
 20
103.409140674718
 30
0.0
  0
SPLINE
  5
FC
330
1F
100
AcDbEntity
  8
0
  6
Continuous
 62
     7
370
    25
100
AcDbSpline
210
0.0
220
0.0
230
1.0
 70
     8
 71
     3
 72
     9
 73
     5
 74
     0
 42
0.00000001
 43
0.00000001
 40
0.0
 40
0.0
 40
0.0
 40
0.0
 40
0.500010612381544
 40
1.0
 40
1.0
 40
1.0
 40
1.0
 10
246.5840909896802
 20
114.881504717217
 30
0.0
 10
247.0039021053238
 20
114.5793933873163
 30
0.0
 10
247.8435065162062
 20
113.9751835517256
 30
0.0
 10
248.8629304403852
 20
113.8020428697385
 30
0.0
 10
249.372631583959
 20
113.7154743661799
 30
0.0
  0
SPLINE
  5
FD
330
1F
100
AcDbEntity
  8
0
  6
Continuous
 62
     7
370
    25
100
AcDbSpline
210
0.0
220
0.0
230
1.0
 70
     8
 71
     3
 72
     9
 73
     5
 74
     0
 42
0.00000001
 43
0.00000001
 40
0.0
 40
0.0
 40
0.0
 40
0.0
 40
0.9838702326459372
 40
1.0
 40
1.0
 40
1.0
 40
1.0
 10
247.068912877446
 20
114.4331361772791
 30
0.0
 10
246.9125276279422
 20
114.5833058818213
 30
0.0
 10
246.7535785670652
 20
114.7359374988369
 30
0.0
 10
246.5867813893521
 20
114.8791940228133
 30
0.0
 10
246.5840909896802
 20
114.881504717217
 30
0.0
  0
SPLINE
  5
FE
330
1F
100
AcDbEntity
  8
0
  6
Continuous
 62
     7
370
    25
100
AcDbSpline
210
0.0
220
0.0
230
1.0
 70
     8
 71
     3
 72
     9
 73
     5
 74
     0
 42
0.00000001
 43
0.00000001
 40
0.0
 40
0.0
 40
0.0
 40
0.0
 40
0.5055561057107293
 40
1.0
 40
1.0
 40
1.0
 40
1.0
 10
248.9755964849186
 20
101.9011672833473
 30
0.0
 10
248.4554561159876
 20
101.8479513525897
 30
0.0
 10
247.4266081541975
 20
101.7426891865187
 30
0.0
 10
246.5489946000182
 20
101.1955238937646
 30
0.0
 10
246.1150639366087
 20
100.9249813555954
 30
0.0
  0
SPLINE
  5
FF
330
1F
100
AcDbEntity
  8
0
  6
Continuous
 62
     7
370
    25
100
AcDbSpline
210
0.0
220
0.0
230
1.0
 70
     8
 71
     3
 72
     9
 73
     5
 74
     0
 42
0.00000001
 43
0.00000001
 40
0.0
 40
0.0
 40
0.0
 40
0.0
 40
0.0161297673533158
 40
1.0
 40
1.0
 40
1.0
 40
1.0
 10
246.1150639366087
 20
100.9249813555954
 30
0.0
 10
246.1179033987075
 20
100.9271062118284
 30
0.0
 10
246.293942025708
 20
101.058841294328
 30
0.0
 10
246.4627796563795
 20
101.2004572148115
 30
0.0
 10
246.6288939753478
 20
101.3397889034441
 30
0.0
  0
SPLINE
  5
100
330
1F
100
AcDbEntity
  8
0
  6
Continuous
 62
     7
370
    25
100
AcDbSpline
210
0.0
220
0.0
230
1.0
 70
     8
 71
     3
 72
    12
 73
     8
 74
     0
 42
0.00000001
 43
0.00000001
 40
0.0
 40
0.0
 40
0.0
 40
0.0
 40
0.2230315344150351
 40
0.4461337558340341
 40
0.6675099896776983
 40
0.8870667292264971
 40
1.0
 40
1.0
 40
1.0
 40
1.0
 10
297.6428896171349
 20
102.9261243591152
 30
0.0
 10
297.6234303406072
 20
102.9286696277194
 30
0.0
 10
297.5845056201821
 20
102.9337609716182
 30
0.0
 10
297.3168342242414
 20
102.9358096600144
 30
0.0
 10
296.9290002026339
 20
102.9332457020013
 30
0.0
 10
296.5278546953767
 20
102.9273785200138
 30
0.0
 10
296.2756817432668
 20
102.9222798594514
 30
0.0
 10
296.1900288953669
 20
102.9205480527926
 30
0.0
  0
ARC
  5
101
330
1F
100
AcDbEntity
  8
0
  6
Continuous
 62
     7
370
    25
100
AcDbCircle
 10
297.6319308014
 20
103.4261041884
 30
0.0
 40
0.5000999153470148
100
AcDbArc
 50
271.2556373922
 51
358.0561400058
  0
SPLINE
  5
102
330
1F
100
AcDbEntity
  8
0
  6
Continuous
 62
     7
370
    25
100
AcDbSpline
210
0.0
220
0.0
230
1.0
 70
     8
 71
     3
 72
    12
 73
     8
 74
     0
 42
0.00000001
 43
0.00000001
 40
0.0
 40
0.0
 40
0.0
 40
0.0
 40
0.2190444340109299
 40
0.4380981679380268
 40
0.6571027493691847
 40
0.8772791087290022
 40
1.0
 40
1.0
 40
1.0
 40
1.0
 10
296.4121000063283
 20
109.5285691207132
 30
0.0
 10
296.578127315635
 20
109.5141557607391
 30
0.0
 10
296.9101889832294
 20
109.4853284288463
 30
0.0
 10
297.3474446368418
 20
109.4511043777656
 30
0.0
 10
297.6738462538649
 20
109.428823062348
 30
0.0
 10
297.8355375574797
 20
109.4215643188541
 30
0.0
 10
297.8545160812177
 20
109.4244369309168
 30
0.0
 10
297.8613083822462
 20
109.4254650217282
 30
0.0
  0
ARC
  5
103
330
1F
100
AcDbEntity
  8
0
  6
Continuous
 62
     7
370
    25
100
AcDbCircle
 10
297.8168072619
 20
108.9273489955
 30
0.0
 40
0.5000999153470043
100
AcDbArc
 50
358.0943109298
 51
84.8948135427
  0
LINE
  5
104
330
1F
100
AcDbEntity
  8
0
  6
Continuous
 62
     7
370
    25
100
AcDbLine
 10
248.9755964849
 20
101.9011672833
 30
0.0
 11
249.0001729903
 21
101.829010837
 31
0.0
  0
LINE
  5
105
330
1F
100
AcDbEntity
  8
0
  6
Continuous
 62
     7
370
    25
100
AcDbLine
 10
297.6474282556
 20
102.9215308736
 30
0.0
 11
297.6428896171
 21
102.9261243591
 31
0.0
  0
ELLIPSE
  5
106
330
1F
100
AcDbEntity
  8
0
  6
Continuous
 62
     7
370
    25
100
AcDbEllipse
 10
296.1457053331
 20
102.8886587471
 30
0.0
 11
1.501936455350346
 21
0.03244489684944085
 31
0.0
210
0.0
220
0.0
230
1.0
 40
0.0174284859
 41
5.396717970286685
 42
6.299675703200971
  0
LINE
  5
107
330
1F
100
AcDbEntity
  8
0
  6
Continuous
 62
     7
370
    25
100
AcDbLine
 10
293.6244983302
 20
102.764509736
 30
0.0
 11
297.095597456
 21
102.8888862218
 31
0.0
  0
LINE
  5
108
330
1F
100
AcDbEntity
  8
0
  6
Continuous
 62
     7
370
    25
100
AcDbLine
 10
293.6245016349
 20
102.7646080717
 30
0.0
 11
293.6244983302
 21
102.764509736
 31
0.0
  0
ELLIPSE
  5
109
330
1F
100
AcDbEntity
  8
0
  6
Continuous
 62
     7
370
    25
100
AcDbEllipse
 10
284.1692748114
 20
102.7525310744
 30
0.0
 11
14.51871906838676
 21
0.313634002878004
 31
0.0
210
0.0
220
0.0
230
1.0
 40
0.0174284859
 41
4.685109492442214
 42
5.421234828998148
  0
ELLIPSE
  5
10A
330
1F
100
AcDbEntity
  8
0
  6
Continuous
 62
     7
370
    25
100
AcDbEllipse
 10
282.817092736
 20
101.8471528903
 30
0.0
 11
35.74873264482392
 21
0.7722456825840283
 31
0.0
210
0.0
220
0.0
230
1.0
 40
0.0174284859
 41
1.543516838852418
 42
2.025717338718001
  0
ELLIPSE
  5
10B
330
1F
100
AcDbEntity
  8
0
  6
Continuous
 62
     7
370
    25
100
AcDbEllipse
 10
263.7950889457
 20
102.1138056879
 30
0.0
 11
7.509682276751732
 21
0.1622244842472469
 31
0.0
210
0.0
220
0.0
230
1.0
 40
0.0174284859
 41
4.976419334597773
 42
5.167309992307975
  0
LINE
  5
10C
330
1F
100
AcDbEntity
  8
0
  6
Continuous
 62
     7
370
    25
100
AcDbLine
 10
265.7430892446
 20
102.1807597775
 30
0.0
 11
265.7576452156
 21
102.0297951603
 31
0.0
  0
SPLINE
  5
10D
330
1F
100
AcDbEntity
  8
0
  6
Continuous
 62
     7
370
    25
100
AcDbSpline
210
0.0
220
0.0
230
1.0
 70
     8
 71
     3
 72
    10
 73
     6
 74
     0
 42
0.00000001
 43
0.00000001
 40
0.0
 40
0.0
 40
0.0
 40
0.0
 40
0.018636863745741
 40
0.3939469944633137
 40
1.0
 40
1.0
 40
1.0
 40
1.0
 10
265.5594053094167
 20
102.1864460723286
 30
0.0
 10
265.5618630781443
 20
102.186451275843
 30
0.0
 10
265.6138155212444
 20
102.1865612679994
 30
0.0
 10
265.7178457055797
 20
102.1857466931616
 30
0.0
 10
265.7334516188542
 20
102.1826637112708
 30
0.0
 10
265.7430892446165
 20
102.1807597774751
 30
0.0
  0
LINE
  5
10E
330
1F
100
AcDbEntity
  8
0
  6
Continuous
 62
     7
370
    25
100
AcDbLine
 10
249.0001729903
 20
101.829010837
 30
0.0
 11
265.5594053094
 21
102.1864460723
 31
0.0
  0
LINE
  5
10F
330
1F
100
AcDbEntity
  8
0
  6
Continuous
 62
     7
370
    25
100
AcDbLine
 10
265.9024798265
 20
112.3335810176
 30
0.0
 11
249.4085718287
 21
113.8015901593
 31
0.0
  0
SPLINE
  5
110
330
1F
100
AcDbEntity
  8
0
  6
Continuous
 62
     7
370
    25
100
AcDbSpline
210
0.0
220
0.0
230
1.0
 70
     8
 71
     3
 72
    11
 73
     7
 74
     0
 42
0.00000001
 43
0.00000001
 40
0.0
 40
0.0
 40
0.0
 40
0.0
 40
0.4177469294495176
 40
0.8392770662410793
 40
0.9817832068819558
 40
1.0
 40
1.0
 40
1.0
 40
1.0
 10
266.0860362937199
 20
112.3260621575388
 30
0.0
 10
266.0813655004578
 20
112.325135322919
 30
0.0
 10
266.0719816142109
 20
112.3232732600628
 30
0.0
 10
265.9965681225184
 20
112.3270104837344
 30
0.0
 10
265.9264305421424
 20
112.3318394700427
 30
0.0
 10
265.9049181068925
 20
112.3334037209347
 30
0.0
 10
265.9024798264726
 20
112.333581017567
 30
0.0
  0
LINE
  5
111
330
1F
100
AcDbEntity
  8
0
  6
Continuous
 62
     7
370
    25
100
AcDbLine
 10
266.1081806924
 20
112.4604441802
 30
0.0
 11
266.0860362937
 21
112.3260621575
 31
0.0
  0
ELLIPSE
  5
112
330
1F
100
AcDbEntity
  8
0
  6
Continuous
 62
     7
370
    25
100
AcDbEllipse
 10
264.1444121822
 20
112.5083828847
 30
0.0
 11
7.481847567972749
 21
-0.6660342713923058
 31
0.0
210
0.0
220
0.0
230
1.0
 40
0.0174284859
 41
1.115875314871762
 42
1.306765972581862
  0
ELLIPSE
  5
113
330
1F
100
AcDbEntity
  8
0
  6
Continuous
 62
     7
370
    25
100
AcDbEllipse
 10
283.1414003903
 20
111.4973581895
 30
0.0
 11
35.61622962729047
 21
-3.170557717735122
 31
0.0
210
0.0
220
0.0
230
1.0
 40
0.0174284859
 41
4.257467968461723
 42
4.739668468327168
  0
ELLIPSE
  5
114
330
1F
100
AcDbEntity
  8
0
  6
Continuous
 62
     7
370
    25
100
AcDbEllipse
 10
284.4297474823
 20
110.503241601
 30
0.0
 11
14.46490529808068
 21
-1.287666258025141
 31
0.0
210
0.0
220
0.0
230
1.0
 40
0.0174284859
 41
0.8619504781817817
 42
1.598075814737375
  0
LINE
  5
115
330
1F
100
AcDbEntity
  8
0
  6
Continuous
 62
     7
370
    25
100
AcDbLine
 10
293.862833746
 20
109.8564968128
 30
0.0
 11
293.8628304413
 21
109.8563984771
 31
0.0
  0
LINE
  5
116
330
1F
100
AcDbEntity
  8
0
  6
Continuous
 62
     7
370
    25
100
AcDbLine
 10
297.3177510798
 20
109.4993625689
 30
0.0
 11
293.862833746
 21
109.8564968128
 31
0.0
  0
ELLIPSE
  5
117
330
1F
100
AcDbEntity
  8
0
  6
Continuous
 62
     7
370
    25
100
AcDbEllipse
 10
296.3700173927
 20
109.5633622179
 30
0.0
 11
1.496369513594516
 21
-0.1332068542784697
 31
0.0
210
0.0
220
0.0
230
1.0
 40
0.0174284859
 41
0.4960898662644514
 42
0.8864673368935894
  0
LINE
  5
118
330
1F
100
AcDbEntity
  8
0
  6
Continuous
 62
     7
370
    25
100
AcDbLine
 10
297.8613083822
 20
109.4254650217
 30
0.0
 11
297.8661451724
 21
109.4297434338
 31
0.0
  0
LINE
  5
119
330
1F
100
AcDbEntity
  8
0
  6
Continuous
 62
     7
370
    25
100
AcDbLine
 10
249.4085718287
 20
113.8015901593
 30
0.0
 11
249.372631584
 21
113.7154743662
 31
0.0
  0
SPLINE
  5
11A
330
1F
100
AcDbEntity
  8
0
  6
Continuous
 62
     7
370
    25
100
AcDbSpline
210
0.0
220
0.0
230
1.0
 70
     8
 71
     3
 72
     9
 73
     5
 74
     0
 42
0.00000001
 43
0.00000001
 40
0.0
 40
0.0
 40
0.0
 40
0.0
 40
0.5001021276704696
 40
0.9999999999999999
 40
0.9999999999999999
 40
0.9999999999999999
 40
0.9999999999999999
 10
246.1460576595082
 20
100.8582112394763
 30
0.0
 10
246.5843870493821
 20
101.1301679993607
 30
0.0
 10
247.4608668034589
 20
101.6739704445757
 30
0.0
 10
248.4871408020025
 20
101.7773377439789
 30
0.0
 10
249.0001729903015
 20
101.829010837019
 30
0.0
  0
LINE
  5
11B
330
1F
100
AcDbEntity
  8
0
  6
Continuous
 62
     7
370
    25
100
AcDbLine
 10
246.1460576595
 20
100.8582112395
 30
0.0
 11
246.1150639366
 21
100.9249813556
 31
0.0
  0
SPLINE
  5
11C
330
1F
100
AcDbEntity
  8
0
  6
Continuous
 62
     7
370
    25
100
AcDbSpline
210
0.0
220
0.0
230
1.0
 70
     8
 71
     3
 72
     9
 73
     5
 74
     0
 42
0.00000001
 43
0.00000001
 40
0.0
 40
0.0
 40
0.0
 40
0.0
 40
0.4007227371565288
 40
0.9999999999999999
 40
0.9999999999999999
 40
0.9999999999999999
 40
0.9999999999999999
 10
249.4085718286533
 20
113.8015901593016
 30
0.0
 10
249.0017421624654
 20
113.8636967869468
 30
0.0
 10
247.9865023757872
 20
114.0186833197447
 30
0.0
 10
247.136729187033
 20
114.6076645208795
 30
0.0
 10
246.6274794364386
 20
114.9606275629619
 30
0.0
  0
LINE
  5
11D
330
1F
100
AcDbEntity
  8
0
  6
Continuous
 62
     7
370
    25
100
AcDbLine
 10
246.5840909897
 20
114.8815047172
 30
0.0
 11
246.6274794364
 21
114.960627563
 31
0.0
  0
ARC
  5
11E
330
1F
100
AcDbEntity
  8
0
  6
Continuous
 62
     7
370
    25
100
AcDbCircle
 10
240.8280678194
 20
108.088800523
 30
0.0
 40
8.975658044222097
100
AcDbArc
 50
243.2401108622
 51
306.3339234504
  0
LWPOLYLINE
  5
11F
330
1F
100
AcDbEntity
  8
0
  6
Continuous
 62
     7
370
    25
100
AcDbPolyline
 90
        3
 70
   128
 43
0.0
 10
236.6178570831
 20
99.9749726241
 10
236.7246048828
 20
100.0376750388
 10
236.7867548008
 20
100.0744242895
  0
ARC
  5
120
330
1F
100
AcDbEntity
  8
0
  6
Continuous
 62
     7
370
    25
100
AcDbCircle
 10
240.8280678194
 20
108.088800523
 30
0.0
 40
9.141120151092153
100
AcDbArc
 50
113.5749418851
 51
242.5755048964
  0
LWPOLYLINE
  5
121
330
1F
100
AcDbEntity
  8
0
  6
Continuous
 62
     7
370
    25
100
AcDbPolyline
 90
        3
 70
   128
 43
0.0
 10
237.3179980011
 20
116.3673627075
 10
237.2743897385
 20
116.3972541535
 10
237.1720924223
 20
116.4669818005
  0
ARC
  5
122
330
1F
100
AcDbEntity
  8
0
  6
Continuous
 62
     7
370
    25
100
AcDbCircle
 10
240.8280678194
 20
108.088800523
 30
0.0
 40
8.99195095466076
100
AcDbArc
 50
49.8376326145
 51
112.9767066341
  0
LINE
  5
123
330
1F
100
AcDbEntity
  8
0
  6
Continuous
 62
     7
370
    25
100
AcDbLine
 10
298.3214673716
 20
108.9149968766
 30
0.0
 11
298.3166305814
 21
108.9107184645
 31
0.0
  0
LINE
  5
124
330
1F
100
AcDbEntity
  8
0
  6
Continuous
 62
     7
370
    25
100
AcDbLine
 10
298.1362815691
 20
103.4045471892
 30
0.0
 11
298.3214673716
 21
108.9149968766
 31
0.0
  0
LINE
  5
125
330
1F
100
AcDbEntity
  8
0
  6
Continuous
 62
     7
370
    25
100
AcDbLine
 10
298.1317429306
 20
103.4091406747
 30
0.0
 11
298.1362815691
 21
103.4045471892
 31
0.0
  0
ARC
  5
126
330
1F
100
AcDbEntity
  8
0
  6
Continuous
 62
     7
370
    25
100
AcDbCircle
 10
297.821644052
 20
108.9316274076
 30
0.0
 40
0.5000999153469244
100
AcDbArc
 50
358.0943109292
 51
84.8948135427
  0
ARC
  5
127
330
1F
100
AcDbEntity
  8
0
  6
Continuous
 62
     7
370
    25
100
AcDbCircle
 10
297.6364694399
 20
103.4215107028
 30
0.0
 40
0.5000999153468689
100
AcDbArc
 50
271.2556373922
 51
358.0561400058
  0
LINE
  5
128
330
1F
100
AcDbEntity
  8
0
  6
Continuous
 62
     7
370
    25
100
AcDbLine
 10
297.3177510798
 20
109.4993625689
 30
0.0
 11
297.3248424725
 21
109.4987570096
 31
0.0
  0
LINE
  5
129
330
1F
100
AcDbEntity
  8
0
  6
Continuous
 62
     7
370
    25
100
AcDbLine
 10
297.095597456
 20
102.8888862218
 30
0.0
 11
297.1027135043
 21
102.8890143216
 31
0.0
  0
SPLINE
  5
12A
330
1F
100
AcDbEntity
  8
0
  6
Continuous
 62
     7
370
    25
100
AcDbSpline
210
0.0
220
0.0
230
1.0
 70
     8
 71
     3
 72
    12
 73
     8
 74
     0
 42
0.00000001
 43
0.00000001
 40
0.0
 40
0.0
 40
0.0
 40
0.0
 40
0.1662426524176555
 40
0.3368059756191305
 40
0.605418107125459
 40
0.8801435087136199
 40
1.0
 40
1.0
 40
1.0
 40
1.0
 10
246.5544850164504
 20
96.21310461996453
 30
0.0
 10
245.9223856171932
 20
96.38992009125303
 30
0.0
 10
244.6417584630967
 20
96.74814649371845
 30
0.0
 10
242.481071659502
 20
97.48409854382614
 30
0.0
 10
240.1490529301263
 20
98.41514506345061
 30
0.0
 10
238.2129260029124
 20
99.3233154874057
 30
0.0
 10
237.1178446450042
 20
99.89827884640891
 30
0.0
 10
236.7852074621983
 20
100.0729272326446
 30
0.0
  0
LINE
  5
12B
330
1F
100
AcDbEntity
  8
0
  6
Continuous
 62
     7
370
    25
100
AcDbLine
 10
246.5544850165
 20
96.21310462
 30
0.0
 11
246.5363024561
 21
96.1442029169
 31
0.0
  0
ARC
  5
12C
330
1F
100
AcDbEntity
  8
0
  6
Continuous
 62
     7
370
    25
100
AcDbCircle
 10
258.8296833389
 20
142.7292197351
 30
0.0
 40
48.17977797259052
100
AcDbArc
 50
242.5470733798
 51
255.2171445356
  0
LWPOLYLINE
  5
12D
330
1F
100
AcDbEntity
  8
0
  6
Continuous
 62
     7
370
    25
100
AcDbPolyline
 90
        3
 70
   128
 43
0.0
 10
236.7852074622
 20
100.0729272326
 10
236.7245927981
 20
100.0374193801
 10
236.6178570317
 20
99.9749710859
  0
SPLINE
  5
12E
330
1F
100
AcDbEntity
  8
0
  6
Continuous
 62
     7
370
    25
100
AcDbSpline
210
0.0
220
0.0
230
1.0
 70
     8
 71
     3
 72
    12
 73
     8
 74
     0
 42
0.00000001
 43
0.00000001
 40
0.0
 40
0.0
 40
0.0
 40
0.0
 40
0.1345419440893854
 40
0.4125227334043397
 40
0.6966514762099305
 40
0.8475579366075728
 40
1.0
 40
1.0
 40
1.0
 40
1.0
 10
236.7859495415165
 20
100.0736442788193
 30
0.0
 10
237.2086553974615
 20
99.86850552706483
 30
0.0
 10
238.504725379954
 20
99.23952399142783
 30
0.0
 10
240.8560237311375
 20
98.53520411098197
 30
0.0
 10
243.3694238212577
 20
98.1492122835181
 30
0.0
 10
245.5096049619853
 20
97.97164244625829
 30
0.0
 10
246.645122329361
 20
97.92784576598373
 30
0.0
 10
247.2157551062672
 20
97.90583657263949
 30
0.0
  0
ARC
  5
12F
330
1F
100
AcDbEntity
  8
0
  6
Continuous
 62
     7
370
    25
100
AcDbCircle
 10
242.7465770984
 20
98.6762030462
 30
0.0
 40
4.535087272520933
100
AcDbArc
 50
327.1036881082
 51
350.2198521658
  0
LINE
  5
130
330
1F
100
AcDbEntity
  8
0
  6
Continuous
 62
     7
370
    25
100
AcDbLine
 10
236.7852074622
 20
100.0729272326
 30
0.0
 11
236.7859495415
 21
100.0736442788
 31
0.0
  0
LINE
  5
131
330
1F
100
AcDbEntity
  8
0
  6
Continuous
 62
     7
370
    25
100
AcDbLine
 10
246.1460576595
 20
100.8582112395
 30
0.0
 11
248.2490776829
 21
97.9988462348
 31
0.0
  0
ARC
  5
132
330
1F
100
AcDbEntity
  8
0
  6
Continuous
 62
     7
370
    25
100
AcDbCircle
 10
240.8280678194
 20
108.088800523
 30
0.0
 40
12.52511736202728
100
AcDbArc
 50
305.9335323377
 51
306.3339234504
  0
LINE
  5
133
330
1F
100
AcDbEntity
  8
0
  6
Continuous
 62
     7
370
    25
100
AcDbLine
 10
247.2157551063
 20
97.9058365726
 30
0.0
 11
248.1783870126
 21
97.9472339433
 31
0.0
  0
LINE
  5
134
330
1F
100
AcDbEntity
  8
0
  6
Continuous
 62
     7
370
    25
100
AcDbLine
 10
236.7867548008
 20
100.0744242895
 30
0.0
 11
236.7859495415
 21
100.0736442788
 31
0.0
  0
ARC
  5
135
330
1F
100
AcDbEntity
  8
0
  6
Continuous
 62
     7
370
    25
100
AcDbCircle
 10
258.5584032275
 20
102.2133714274
 30
0.0
 40
6.834138728222952
100
AcDbArc
 50
209.9523325978
 51
225.0240262103
  0
SPLINE
  5
136
330
1F
100
AcDbEntity
  8
0
  6
Continuous
 62
     7
370
    25
100
AcDbSpline
210
0.0
220
0.0
230
1.0
 70
     8
 71
     3
 72
    17
 73
    13
 74
     0
 42
0.00000001
 43
0.00000001
 40
0.0
 40
0.0
 40
0.0
 40
0.0
 40
0.2859834379244704
 40
0.5215922644122237
 40
0.7592399016809375
 40
0.852149240506049
 40
0.9266708633836016
 40
0.9605058393195357
 40
0.9835417153308587
 40
0.9930790992390823
 40
0.9972256067114869
 40
1.0
 40
1.0
 40
1.0
 40
1.0
 10
252.6370246829589
 20
98.801227191162
 30
0.0
 10
253.8829736059317
 20
99.29152384375654
 30
0.0
 10
256.1554035228242
 20
100.1857537443288
 30
0.0
 10
259.527474079538
 20
101.1152499871571
 30
0.0
 10
262.0494682926108
 20
101.6486624429163
 30
0.0
 10
263.830664832788
 20
101.9429781647098
 30
0.0
 10
264.7004935505321
 20
102.0685348118161
 30
0.0
 10
265.2287569149962
 20
102.1393317888326
 30
0.0
 10
265.463600853158
 20
102.1705733966417
 30
0.0
 10
265.5416881641632
 20
102.1822770220977
 30
0.0
 10
265.5578861516627
 20
102.1854685278786
 30
0.0
 10
265.558970589123
 20
102.1861663394244
 30
0.0
 10
265.5594053094167
 20
102.1864460723286
 30
0.0
  0
SPLINE
  5
137
330
1F
100
AcDbEntity
  8
0
  6
Continuous
 62
     7
370
    25
100
AcDbSpline
210
0.0
220
0.0
230
1.0
 70
     8
 71
     3
 72
    10
 73
     6
 74
     0
 42
0.00000001
 43
0.00000001
 40
0.0
 40
0.0
 40
0.0
 40
0.0
 40
0.5975855365574337
 40
0.979056356318196
 40
1.0
 40
1.0
 40
1.0
 40
1.0
 10
265.6690620031565
 20
102.1736288672704
 30
0.0
 10
265.6717053142212
 20
102.1772814440572
 30
0.0
 10
265.6760359921601
 20
102.1832656560256
 30
0.0
 10
265.601719474421
 20
102.186139930343
 30
0.0
 10
265.5614986029657
 20
102.1864309273992
 30
0.0
 10
265.5594053094167
 20
102.1864460723286
 30
0.0
  0
SPLINE
  5
138
330
1F
100
AcDbEntity
  8
0
  6
Continuous
 62
     7
370
    25
100
AcDbSpline
210
0.0
220
0.0
230
1.0
 70
     8
 71
     3
 72
    15
 73
    11
 74
     0
 42
0.00000001
 43
0.00000001
 40
0.0
 40
0.0
 40
0.0
 40
0.0
 40
0.0128981401598395
 40
0.0519443541565608
 40
0.1318327952014343
 40
0.22790572123612
 40
0.4677439605522731
 40
0.7076088995729004
 40
0.8538517081976992
 40
1.0
 40
1.0
 40
1.0
 40
1.0
 10
265.6690620031565
 20
102.1736288672704
 30
0.0
 10
265.6353487938856
 20
102.1669125173703
 30
0.0
 10
265.4995764375291
 20
102.1398639310216
 30
0.0
 10
265.0571148677597
 20
102.052284879254
 30
0.0
 10
264.23932164236
 20
101.8773321678376
 30
0.0
 10
262.5712810259703
 20
101.4654759321773
 30
0.0
 10
260.1983149597041
 20
100.7131662962743
 30
0.0
 10
257.6160647226581
 20
99.60568174627488
 30
0.0
 10
255.4579454515656
 20
98.47060474990818
 30
0.0
 10
254.3045003604608
 20
97.74270954130941
 30
0.0
 10
253.7279642432313
 20
97.37887958481484
 30
0.0
  0
LINE
  5
139
330
1F
100
AcDbEntity
  8
0
  6
Continuous
 62
     7
370
    25
100
AcDbLine
 10
251.1795645764
 20
98.3257674487
 30
0.0
 11
249.0767711288
 21
98.2803781181
 31
0.0
  0
LINE
  5
13A
330
1F
100
AcDbEntity
  8
0
  6
Continuous
 62
     7
370
    25
100
AcDbLine
 10
249.0001729903
 20
101.829010837
 30
0.0
 11
249.0767711288
 21
98.2803781181
 31
0.0
  0
LINE
  5
13B
330
1F
100
AcDbEntity
  8
0
  6
Continuous
 62
     7
370
    25
100
AcDbLine
 10
251.1795645764
 20
98.3257674487
 30
0.0
 11
252.637024683
 21
98.8012271912
 31
0.0
  0
LWPOLYLINE
  5
13C
330
1F
100
AcDbEntity
  8
0
  6
Continuous
 62
     7
370
    25
100
AcDbPolyline
 90
        4
 70
   128
 43
0.0
 10
265.6835029022
 20
102.0219626876
 10
265.6818425469
 20
102.039386432
 10
265.6752046377
 20
102.1090814508
 10
265.6690620032
 20
102.1736288673
  0
LINE
  5
13D
330
1F
100
AcDbEntity
  8
0
  6
Continuous
 62
     7
370
    25
100
AcDbLine
 10
263.8819608186
 20
101.6527358584
 30
0.0
 11
265.6835029022
 21
102.0219626876
 31
0.0
  0
ARC
  5
13E
330
1F
100
AcDbEntity
  8
0
  6
Continuous
 62
     7
370
    25
100
AcDbCircle
 10
271.0409828584
 20
70.9692777678
 30
0.0
 40
31.50755777528335
100
AcDbArc
 50
103.1332227153
 51
123.2471548844
  0
LINE
  5
13F
330
1F
100
AcDbEntity
  8
0
  6
Continuous
 62
     7
370
    25
100
AcDbLine
 10
253.7279642432
 20
97.3788795848
 30
0.0
 11
253.7669106921
 21
97.3194699446
 31
0.0
  0
SPLINE
  5
140
330
1F
100
AcDbEntity
  8
0
  6
Continuous
 62
     7
370
    25
100
AcDbSpline
210
0.0
220
0.0
230
1.0
 70
     8
 71
     3
 72
     9
 73
     5
 74
     0
 42
0.00000001
 43
0.00000001
 40
0.0
 40
0.0
 40
0.0
 40
0.0
 40
0.4998978730609687
 40
1.0
 40
1.0
 40
1.0
 40
1.0
 10
249.0767711288189
 20
98.28037811807923
 30
0.0
 10
248.9279892104467
 20
98.26540051760139
 30
0.0
 10
248.630364582718
 20
98.23543919692978
 30
0.0
 10
248.3761906215043
 20
98.07772129366896
 30
0.0
 10
248.2490776828889
 20
97.99884623479186
 30
0.0
  0
ARC
  5
141
330
1F
100
AcDbEntity
  8
0
  6
Continuous
 62
     7
370
    25
100
AcDbCircle
 10
265.7538923771
 20
101.6808001406
 30
0.0
 40
0.5000763403751126
100
AcDbArc
 50
91.2378551074
 51
99.7665890292
  0
SPLINE
  5
142
330
1F
100
AcDbEntity
  8
0
  6
Continuous
 62
     7
370
    25
100
AcDbSpline
210
0.0
220
0.0
230
1.0
 70
     8
 71
     3
 72
    13
 73
     9
 74
     0
 42
0.00000001
 43
0.00000001
 40
0.0
 40
0.0
 40
0.0
 40
0.0
 40
0.0460329529079875
 40
0.2492425848193724
 40
0.4775225570272887
 40
0.7051721168687839
 40
0.8526808263814657
 40
0.9999999999999999
 40
0.9999999999999999
 40
0.9999999999999999
 40
0.9999999999999999
 10
237.3168072526745
 20
116.3686777871802
 30
0.0
 10
237.4471690061901
 20
116.4268410682874
 30
0.0
 10
238.1530046816194
 20
116.7417625671038
 30
0.0
 10
239.5326569901647
 20
117.3137238556494
 30
0.0
 10
241.5667182866467
 20
118.0562964543995
 30
0.0
 10
243.603355355302
 20
118.6808684368152
 30
0.0
 10
245.4830687976844
 20
119.1682426571682
 30
0.0
 10
246.5838071842201
 20
119.3989180498691
 30
0.0
 10
247.1338225618447
 20
119.5141815991166
 30
0.0
  0
LINE
  5
143
330
1F
100
AcDbEntity
  8
0
  6
Continuous
 62
     7
370
    25
100
AcDbLine
 10
247.5216120133
 20
117.5524474185
 30
0.0
 11
247.1338225618
 21
119.5141815991
 31
0.0
  0
SPLINE
  5
144
330
1F
100
AcDbEntity
  8
0
  6
Continuous
 62
     7
370
    25
100
AcDbSpline
210
0.0
220
0.0
230
1.0
 70
     8
 71
     3
 72
    13
 73
     9
 74
     0
 42
0.00000001
 43
0.00000001
 40
0.0
 40
0.0
 40
0.0
 40
0.0
 40
0.2574896950994372
 40
0.4890886589321028
 40
0.7206004760683482
 40
0.9447506334961281
 40
0.9460032291293298
 40
0.9999999999999999
 40
0.9999999999999999
 40
0.9999999999999999
 40
0.9999999999999999
 10
247.5216120133078
 20
117.552447418507
 30
0.0
 10
246.6043473550407
 20
117.6113520925437
 30
0.0
 10
244.8620495072593
 20
117.723238543061
 30
0.0
 10
242.36336445908
 20
117.6425530714318
 30
0.0
 10
240.0351370436793
 20
117.3071888128045
 30
0.0
 10
238.5420830525469
 20
116.8575256242577
 30
0.0
 10
237.65874336561
 20
116.5127572720327
 30
0.0
 10
237.4861401575485
 20
116.4395328210312
 30
0.0
 10
237.3174501531738
 20
116.3679684909212
 30
0.0
  0
LINE
  5
145
330
1F
100
AcDbEntity
  8
0
  6
Continuous
 62
     7
370
    25
100
AcDbLine
 10
237.3174501532
 20
116.3679684909
 30
0.0
 11
237.3168072527
 21
116.3686777872
 31
0.0
  0
ARC
  5
146
330
1F
100
AcDbEntity
  8
0
  6
Continuous
 62
     7
370
    25
100
AcDbCircle
 10
256.4634219607
 20
72.3179673571
 30
0.0
 40
48.10950076354638
100
AcDbArc
 50
100.9333063994
 51
101.1818887889
  0
LWPOLYLINE
  5
147
330
1F
100
AcDbEntity
  8
0
  6
Continuous
 62
     7
370
    25
100
AcDbPolyline
 90
        3
 70
   128
 43
0.0
 10
237.3168072527
 20
116.3686777872
 10
237.2743948451
 20
116.3975100468
 10
237.1720924743
 20
116.4669833387
  0
ARC
  5
148
330
1F
100
AcDbEntity
  8
0
  6
Continuous
 62
     7
370
    25
100
AcDbCircle
 10
256.4634219607
 20
72.3179673571
 30
0.0
 40
48.17977797259052
100
AcDbArc
 50
100.9333063994
 51
113.6033767663
  0
LINE
  5
149
330
1F
100
AcDbEntity
  8
0
  6
Continuous
 62
     7
370
    25
100
AcDbLine
 10
247.338674332
 20
119.5542145031
 30
0.0
 11
247.3253451188
 21
119.6232160841
 31
0.0
  0
LINE
  5
14A
330
1F
100
AcDbEntity
  8
0
  6
Continuous
 62
     7
370
    25
100
AcDbLine
 10
253.579558273
 20
116.0402395339
 30
0.0
 11
254.7638212972
 21
117.6515442051
 31
0.0
  0
SPLINE
  5
14B
330
1F
100
AcDbEntity
  8
0
  6
Continuous
 62
     7
370
    25
100
AcDbSpline
210
0.0
220
0.0
230
1.0
 70
     8
 71
     3
 72
    15
 73
    11
 74
     0
 42
0.00000001
 43
0.00000001
 40
0.0
 40
0.0
 40
0.0
 40
0.0
 40
0.2255198391625379
 40
0.4515645943751953
 40
0.6337799820516984
 40
0.8158790324473558
 40
0.8946729146060265
 40
0.9638048440471935
 40
0.9940832206369732
 40
0.9999999999999999
 40
0.9999999999999999
 40
0.9999999999999999
 40
0.9999999999999999
 10
254.7638212971793
 20
117.6515442051446
 30
0.0
 10
255.5904874693764
 20
117.0784476734694
 30
0.0
 10
257.2457439475562
 20
115.9309206806125
 30
0.0
 10
259.6797837107985
 20
114.6313311365669
 30
0.0
 10
261.9756144607329
 20
113.6227514378093
 30
0.0
 10
263.6964444251317
 20
113.008816410446
 30
0.0
 10
264.9420997750607
 20
112.630211726358
 30
0.0
 10
265.5806515491136
 20
112.4533175617562
 30
0.0
 10
265.9058741706954
 20
112.366791983525
 30
0.0
 10
265.997636580202
 20
112.3421753316606
 30
0.0
 10
266.0126368728262
 20
112.3381512766758
 30
0.0
  0
SPLINE
  5
14C
330
1F
100
AcDbEntity
  8
0
  6
Continuous
 62
     7
370
    25
100
AcDbSpline
210
0.0
220
0.0
230
1.0
 70
     8
 71
     3
 72
    11
 73
     7
 74
     0
 42
0.00000001
 43
0.00000001
 40
0.0
 40
0.0
 40
0.0
 40
0.0
 40
0.0195561212295966
 40
0.1681891996744667
 40
0.5898876540792625
 40
1.0
 40
1.0
 40
1.0
 40
1.0
 10
265.9024798264726
 20
112.333581017567
 30
0.0
 10
265.904435482603
 20
112.3334571486857
 30
0.0
 10
265.9212547810492
 20
112.3323918347737
 30
0.0
 10
265.9730976328948
 20
112.3298026933137
 30
0.0
 10
266.0224246318646
 20
112.3302354735915
 30
0.0
 10
266.0158690219593
 20
112.3355372915974
 30
0.0
 10
266.0126368728262
 20
112.3381512766758
 30
0.0
  0
SPLINE
  5
14D
330
1F
100
AcDbEntity
  8
0
  6
Continuous
 62
     7
370
    25
100
AcDbSpline
210
0.0
220
0.0
230
1.0
 70
     8
 71
     3
 72
    17
 73
    13
 74
     0
 42
0.00000001
 43
0.00000001
 40
0.0
 40
0.0
 40
0.0
 40
0.0
 40
0.0068263121770687
 40
0.0088448507297265
 40
0.0223990310416127
 40
0.0309593028397545
 40
0.0563218912149135
 40
0.1198824177066681
 40
0.1957460556357059
 40
0.5558621944880027
 40
0.7780336097977191
 40
1.0
 40
1.0
 40
1.0
 40
1.0
 10
265.9024798264726
 20
112.333581017567
 30
0.0
 10
265.8988965936479
 20
112.3347402058822
 30
0.0
 10
265.8942537999047
 20
112.3362421658498
 30
0.0
 10
265.8510005764241
 20
112.345290019342
 30
0.0
 10
265.7769054077155
 20
112.3595382244131
 30
0.0
 10
265.6110311203935
 20
112.3908460591541
 30
0.0
 10
265.2316356425485
 20
112.4621437482121
 30
0.0
 10
264.552787613563
 20
112.5942159457111
 30
0.0
 10
262.4613083027562
 20
113.0318823311624
 30
0.0
 10
259.6712611553238
 20
113.7601811787191
 30
0.0
 10
256.3084165459852
 20
114.8867060588265
 30
0.0
 10
254.488897718847
 20
115.6558467270764
 30
0.0
 10
253.5795582729528
 20
116.040239533927
 30
0.0
  0
LINE
  5
14E
330
1F
100
AcDbEntity
  8
0
  6
Continuous
 62
     7
370
    25
100
AcDbLine
 10
249.4085718287
 20
113.8015901593
 30
0.0
 11
249.6390336681
 21
116.3909584869
 31
0.0
  0
LINE
  5
14F
330
1F
100
AcDbEntity
  8
0
  6
Continuous
 62
     7
370
    25
100
AcDbLine
 10
249.6390336681
 20
116.3909584869
 30
0.0
 11
253.579558273
 21
116.0402395339
 31
0.0
  0
LINE
  5
150
330
1F
100
AcDbEntity
  8
0
  6
Continuous
 62
     7
370
    25
100
AcDbLine
 10
246.6274794364
 20
114.960627563
 30
0.0
 11
248.3041093198
 21
116.9472964406
 31
0.0
  0
LINE
  5
151
330
1F
100
AcDbEntity
  8
0
  6
Continuous
 62
     7
370
    25
100
AcDbLine
 10
237.3174501532
 20
116.3679684909
 30
0.0
 11
237.3179980011
 21
116.3673627075
 31
0.0
  0
ARC
  5
152
330
1F
100
AcDbEntity
  8
0
  6
Continuous
 62
     7
370
    25
100
AcDbCircle
 10
240.8280678194
 20
108.088800523
 30
0.0
 40
11.59155496206737
100
AcDbArc
 50
49.8376326145
 51
54.7286069047
  0
LWPOLYLINE
  5
153
330
1F
100
AcDbEntity
  8
0
  6
Continuous
 62
     7
370
    25
100
AcDbPolyline
 90
        4
 70
   128
 43
0.0
 10
266.0126368728
 20
112.3381512767
 10
266.0154608716
 20
112.3554244268
 10
266.0267603568
 20
112.4245167517
 10
266.0347315072
 20
112.4732366565
  0
ARC
  5
154
330
1F
100
AcDbEntity
  8
0
  6
Continuous
 62
     7
370
    25
100
AcDbCircle
 10
273.4649007407
 20
143.0961760544
 30
0.0
 40
31.57783498432755
100
AcDbArc
 50
232.9032960505
 51
233.6851734779
  0
LINE
  5
155
330
1F
100
AcDbEntity
  8
0
  6
Continuous
 62
     7
370
    25
100
AcDbLine
 10
254.4183473458
 20
117.9091066323
 30
0.0
 11
254.4607358951
 21
117.9651610434
 31
0.0
  0
ARC
  5
156
330
1F
100
AcDbEntity
  8
0
  6
Continuous
 62
     7
370
    25
100
AcDbCircle
 10
273.4649007407
 20
143.0961760544
 30
0.0
 40
31.5075577752834
100
AcDbArc
 50
232.9032960505
 51
253.0172282196
  0
LINE
  5
157
330
1F
100
AcDbEntity
  8
0
  6
Continuous
 62
     7
370
    25
100
AcDbLine
 10
266.0347315072
 20
112.4732366565
 30
0.0
 11
264.2620427917
 21
112.9625801433
 31
0.0
  0
LINE
  5
158
330
1F
100
AcDbEntity
  8
0
  6
Continuous
 62
     7
370
    25
100
AcDbLine
 10
265.7576452156
 20
102.0297951603
 30
0.0
 11
265.6835029022
 21
102.0219626876
 31
0.0
  0
SPLINE
  5
159
330
1F
100
AcDbEntity
  8
0
  6
Continuous
 62
     7
370
    25
100
AcDbSpline
210
0.0
220
0.0
230
1.0
 70
     8
 71
     3
 72
    10
 73
     6
 74
     0
 42
0.00000001
 43
0.00000001
 40
0.0
 40
0.0
 40
0.0
 40
0.0
 40
0.049076908576164
 40
0.5995805843665285
 40
1.0
 40
1.0
 40
1.0
 40
1.0
 10
248.3041093197987
 20
116.9472964406434
 30
0.0
 10
248.3225550289921
 20
116.9320455580766
 30
0.0
 10
248.5479092621352
 20
116.7457230421145
 30
0.0
 10
248.9856702862187
 20
116.4968273923185
 30
0.0
 10
249.4454340571658
 20
116.4223287464807
 30
0.0
 10
249.6390336680623
 20
116.3909584868867
 30
0.0
  0
ARC
  5
15A
330
1F
100
AcDbEntity
  8
0
  6
Continuous
 62
     7
370
    25
100
AcDbCircle
 10
266.1303807293
 20
112.8241684889
 30
0.0
 40
0.5000763405137636
100
AcDbArc
 50
256.3817458054
 51
264.912595502
  0
SPLINE
  5
15B
330
1F
100
AcDbEntity
  8
0
  6
Continuous
 62
     7
370
    25
100
AcDbSpline
210
0.0
220
0.0
230
1.0
 70
     8
 71
     3
 72
     9
 73
     5
 74
     0
 42
0.00000001
 43
0.00000001
 40
0.0
 40
0.0
 40
0.0
 40
0.0
 40
0.8458911907785789
 40
1.0
 40
1.0
 40
1.0
 40
1.0
 10
266.0347315071992
 20
112.4732366565033
 30
0.0
 10
266.0554322155613
 20
112.4687240218001
 30
0.0
 10
266.0799042854773
 20
112.4633892520893
 30
0.0
 10
266.1044049275939
 20
112.4608374373019
 30
0.0
 10
266.1081806923756
 20
112.4604441801637
 30
0.0
  0
LINE
  5
15C
330
1F
100
AcDbEntity
  8
0
  6
Continuous
 62
     7
370
    25
100
AcDbLine
 10
284.0576349353
 20
110.7903717216
 30
0.0
 11
284.0571780165
 21
110.7904121775
 31
0.0
  0
LINE
  5
15D
330
1F
100
AcDbEntity
  8
0
  6
Continuous
 62
     7
370
    25
100
AcDbLine
 10
253.7279642432
 20
97.3788795848
 30
0.0
 11
251.856775398
 21
96.4442342555
 31
0.0
  0
LINE
  5
15E
330
1F
100
AcDbEntity
  8
0
  6
Continuous
 62
     7
370
    25
100
AcDbLine
 10
251.1795645764
 20
98.3257674487
 30
0.0
 11
251.856775398
 21
96.4442342555
 31
0.0
  0
LINE
  5
15F
330
1F
100
AcDbEntity
  8
0
  6
Continuous
 62
     7
370
    25
100
AcDbLine
 10
248.1783870126
 20
97.9472339433
 30
0.0
 11
247.9895823408
 21
95.9564716647
 31
0.0
  0
LINE
  5
160
330
1F
100
AcDbEntity
  8
0
  6
Continuous
 62
     7
370
    25
100
AcDbLine
 10
247.9895823408
 20
95.9564716647
 30
0.0
 11
246.5544850165
 21
96.21310462
 31
0.0
  0
ARC
  5
161
330
1F
100
AcDbEntity
  8
0
  6
Continuous
 62
     7
370
    25
100
AcDbCircle
 10
273.4649007407
 20
143.0961760544
 30
0.0
 40
33.5775303746403
100
AcDbArc
 50
232.9032960505
 51
233.6851734779
  0
LINE
  5
162
330
1F
100
AcDbEntity
  8
0
  6
Continuous
 62
     7
370
    25
100
AcDbLine
 10
253.2122068665
 20
116.3141123383
 30
0.0
 11
254.4183473458
 21
117.9091066323
 31
0.0
  0
ARC
  5
163
330
1F
100
AcDbEntity
  8
0
  6
Continuous
 62
     7
370
    25
100
AcDbCircle
 10
248.8326897927
 20
104.8462226229
 30
0.0
 40
6.929946387144305
100
AcDbArc
 50
264.5822507961
 51
289.795071751
  0
ARC
  5
164
330
1F
100
AcDbEntity
  8
0
  6
Continuous
 62
     7
370
    25
100
AcDbCircle
 10
256.4634219607
 20
72.3179673571
 30
0.0
 40
46.1098053732336
100
AcDbArc
 50
100.9333063994
 51
101.1818887889
  0
ARC
  5
165
330
1F
100
AcDbEntity
  8
0
  6
Continuous
 62
     7
370
    25
100
AcDbCircle
 10
249.0323258217
 20
110.7866580074
 30
0.0
 40
6.929946387144304
100
AcDbArc
 50
52.9032960505
 51
100.9333063994
  0
ARC
  5
166
330
1F
100
AcDbEntity
  8
0
  6
Continuous
 62
     7
370
    25
100
AcDbCircle
 10
248.8326897927
 20
104.8462226229
 30
0.0
 40
8.929641777457086
100
AcDbArc
 50
264.5822507961
 51
289.795071751
  0
LINE
  5
167
330
1F
100
AcDbEntity
  8
0
  6
Continuous
 62
     7
370
    25
100
AcDbLine
 10
247.7179490175
 20
117.5908163348
 30
0.0
 11
247.338674332
 21
119.5542145031
 31
0.0
  0
ARC
  5
168
330
1F
100
AcDbEntity
  8
0
  6
Continuous
 62
     7
370
    25
100
AcDbCircle
 10
249.0323258217
 20
110.7866580074
 30
0.0
 40
8.929641777457059
100
AcDbArc
 50
52.9032960505
 51
100.9333063994
  0
ARC
  5
169
330
1F
100
AcDbEntity
  8
0
  6
Continuous
 62
     7
370
    25
100
AcDbCircle
 10
248.8326897927
 20
104.8462226229
 30
0.0
 40
8.999918986501264
100
AcDbArc
 50
255.2171445356
 51
303.2471548844
  0
ARC
  5
16A
330
1F
100
AcDbEntity
  8
0
  6
Continuous
 62
     7
370
    25
100
AcDbCircle
 10
249.0323258217
 20
110.7866580074
 30
0.0
 40
8.999918986501214
100
AcDbArc
 50
52.9032960505
 51
100.9333063994
  0
SPLINE
  5
16B
330
1F
100
AcDbEntity
  8
0
  6
Continuous
 62
     7
370
    25
100
AcDbSpline
210
0.0
220
0.0
230
1.0
 70
     8
 71
     3
 72
    11
 73
     7
 74
     0
 42
0.00000001
 43
0.00000001
 40
0.0
 40
0.0
 40
0.0
 40
0.0
 40
0.2200386424382246
 40
0.6637869905998163
 40
0.889036559078957
 40
1.0
 40
1.0
 40
1.0
 40
1.0
 10
29.06790714872688
 20
102.4107838432224
 30
0.0
 10
28.86752805380659
 20
102.678719448514
 30
0.0
 10
28.26304770016326
 20
103.4869964272312
 30
0.0
 10
27.7577656275635
 20
104.7575831248105
 30
0.0
 10
27.52298263230983
 20
105.9276597584851
 30
0.0
 10
27.55105950125447
 20
106.4385878452651
 30
0.0
 10
27.56032596596964
 20
106.6072140940634
 30
0.0
  0
SPLINE
  5
16C
330
1F
100
AcDbEntity
  8
0
  6
Continuous
 62
     7
370
    25
100
AcDbSpline
210
0.0
220
0.0
230
1.0
 70
     8
 71
     3
 72
     9
 73
     5
 74
     0
 42
0.00000001
 43
0.00000001
 40
0.0
 40
0.0
 40
0.0
 40
0.0
 40
0.9209630919903141
 40
1.0
 40
1.0
 40
1.0
 40
1.0
 10
27.43265381120721
 20
102.754720576197
 30
0.0
 10
27.94620252066622
 20
102.6904822989333
 30
0.0
 10
28.50382389976967
 20
102.620731102797
 30
0.0
 10
29.02658938144135
 20
102.4261619847102
 30
0.0
 10
29.0679071487269
 20
102.4107838432224
 30
0.0
  0
SPLINE
  5
16D
330
1F
100
AcDbEntity
  8
0
  6
Continuous
 62
     7
370
    25
100
AcDbSpline
210
0.0
220
0.0
230
1.0
 70
     8
 71
     3
 72
    10
 73
     6
 74
     0
 42
0.00000001
 43
0.00000001
 40
0.0
 40
0.0
 40
0.0
 40
0.0
 40
0.2596150688488841
 40
0.6297606444810658
 40
1.0
 40
1.0
 40
1.0
 40
1.0
 10
-19.70023720939981
 20
106.0261981785735
 30
0.0
 10
-15.62716285036006
 20
105.6676796369792
 30
0.0
 10
-5.746912274992827
 20
104.7980041254076
 30
0.0
 10
9.969117940121425
 20
103.7454481365769
 30
0.0
 10
21.61098365362543
 20
103.0849909816369
 30
0.0
 10
27.43265381120721
 20
102.754720576197
 30
0.0
  0
SPLINE
  5
16E
330
1F
100
AcDbEntity
  8
0
  6
Continuous
 62
     7
370
    25
100
AcDbSpline
210
0.0
220
0.0
230
1.0
 70
     8
 71
     3
 72
    11
 73
     7
 74
     0
 42
0.00000001
 43
0.00000001
 40
0.0
 40
0.0
 40
0.0
 40
0.0
 40
0.0614641195413917
 40
0.4999988937835378
 40
0.937509780183279
 40
1.0
 40
1.0
 40
1.0
 40
1.0
 10
-19.61767709557713
 20
111.7516353030661
 30
0.0
 10
-19.63102419971827
 20
111.6353586872581
 30
0.0
 10
-19.73960034716163
 20
110.6894705868399
 30
0.0
 10
-19.84920782441815
 20
108.8936200716028
 30
0.0
 10
-19.79158810993745
 20
107.0934041314854
 30
0.0
 10
-19.71038587763852
 20
106.1447598905513
 30
0.0
 10
-19.70023720939981
 20
106.0261981785735
 30
0.0
  0
SPLINE
  5
16F
330
1F
100
AcDbEntity
  8
0
  6
Continuous
 62
     7
370
    25
100
AcDbSpline
210
0.0
220
0.0
230
1.0
 70
     8
 71
     3
 72
    11
 73
     7
 74
     0
 42
0.00000001
 43
0.00000001
 40
0.0
 40
0.0
 40
0.0
 40
0.0
 40
0.259458927729189
 40
0.6296002946237425
 40
0.8147836738016292
 40
1.0
 40
1.0
 40
1.0
 40
1.0
 10
27.58994605188716
 20
113.6627340525376
 30
0.0
 10
23.50498360988029
 20
113.5561229271712
 30
0.0
 10
13.59245687771535
 20
113.2974214959724
 30
0.0
 10
0.7688727482211832
 20
112.8040127068745
 30
0.0
 10
-10.88395640525794
 20
112.2945537823151
 30
0.0
 10
-16.70626423421814
 20
111.932618860842
 30
0.0
 10
-19.61767709557713
 20
111.7516353030661
 30
0.0
  0
SPLINE
  5
170
330
1F
100
AcDbEntity
  8
0
  6
Continuous
 62
     7
370
    25
100
AcDbSpline
210
0.0
220
0.0
230
1.0
 70
     8
 71
     3
 72
     9
 73
     5
 74
     0
 42
0.00000001
 43
0.00000001
 40
0.0
 40
0.0
 40
0.0
 40
0.0
 40
0.0790369080192127
 40
1.0
 40
1.0
 40
1.0
 40
1.0
 10
29.23443647522522
 20
113.959377275459
 30
0.0
 10
29.19269247731407
 20
113.9451968746205
 30
0.0
 10
28.66453419079558
 20
113.7657819507087
 30
0.0
 10
28.10513346967064
 20
113.7121380787357
 30
0.0
 10
27.58994605188716
 20
113.6627340525376
 30
0.0
  0
SPLINE
  5
171
330
1F
100
AcDbEntity
  8
0
  6
Continuous
 62
     7
370
    25
100
AcDbSpline
210
0.0
220
0.0
230
1.0
 70
     8
 71
     3
 72
    11
 73
     7
 74
     0
 42
0.00000001
 43
0.00000001
 40
0.0
 40
0.0
 40
0.0
 40
0.0
 40
0.0728838064943294
 40
0.4140719411596031
 40
0.9209668754550561
 40
1.0
 40
1.0
 40
1.0
 40
1.0
 10
27.60648323563732
 20
109.8081610533621
 30
0.0
 10
27.6003613472184
 20
109.9187072466232
 30
0.0
 10
27.56558130013929
 20
110.5467490440145
 30
0.0
 10
27.9299777070668
 20
111.9246302994925
 30
0.0
 10
28.58791091666854
 20
113.1852065230483
 30
0.0
 10
29.15759449366659
 20
113.8673641850364
 30
0.0
 10
29.23443647522522
 20
113.959377275459
 30
0.0
  0
SPLINE
  5
172
330
1F
100
AcDbEntity
  8
0
  6
Continuous
 62
     7
370
    25
100
AcDbSpline
210
0.0
220
0.0
230
1.0
 70
     8
 71
     3
 72
    10
 73
     6
 74
     0
 42
0.00000001
 43
0.00000001
 40
0.0
 40
0.0
 40
0.0
 40
0.0
 40
0.3880207377811382
 40
0.9790637766506857
 40
1.0
 40
1.0
 40
1.0
 40
1.0
 10
27.56032596596964
 20
106.6072140940634
 30
0.0
 10
27.63955652116712
 20
107.0169541722022
 30
0.0
 10
27.83947306954899
 20
108.0508207398546
 30
0.0
 10
27.75954647486664
 20
109.1458563027132
 30
0.0
 10
27.61154641743038
 20
109.7862526619559
 30
0.0
 10
27.60648323563733
 20
109.8081610533621
 30
0.0
  0
ARC
  5
173
330
1F
100
AcDbEntity
  8
0
  6
Continuous
 62
     7
370
    25
100
AcDbCircle
 10
35.8280678194
 20
108.088800523
 30
0.0
 40
8.399443654264541
100
AcDbArc
 50
190.15961701
 51
168.1881010241
  0
SPLINE
  5
174
330
1F
100
AcDbEntity
  8
0
  6
Continuous
 62
     7
370
    25
100
AcDbSpline
210
0.0
220
0.0
230
1.0
 70
     8
 71
     3
 72
     9
 73
     5
 74
     0
 42
0.00000001
 43
0.00000001
 40
0.0
 40
0.0
 40
0.0
 40
0.0
 40
0.6817923421274322
 40
1.0
 40
1.0
 40
1.0
 40
1.0
 10
29.23443647522522
 20
113.959377275459
 30
0.0
 10
29.37942344731881
 20
114.147216679169
 30
0.0
 10
29.59207906565735
 20
114.4227249125468
 30
0.0
 10
29.8248391545615
 20
114.6522971260244
 30
0.0
 10
29.89890519729789
 20
114.7253487623877
 30
0.0
  0
ARC
  5
175
330
1F
100
AcDbEntity
  8
0
  6
Continuous
 62
     7
370
    25
100
AcDbCircle
 10
35.8280678194
 20
108.088800523
 30
0.0
 40
8.899367501836315
100
AcDbArc
 50
226.5697782131
 51
131.7779398209
  0
LINE
  5
176
330
1F
100
AcDbEntity
  8
0
  6
Continuous
 62
     7
370
    25
100
AcDbLine
 10
29.7100137576
 20
101.6259716974
 30
0.0
 11
29.0679071487
 21
102.4107838432
 31
0.0
  0
SPLINE
  5
177
330
1F
100
AcDbEntity
  8
0
  6
Continuous
 62
     7
370
    25
100
AcDbSpline
210
0.0
220
0.0
230
1.0
 70
     8
 71
     3
 72
    10
 73
     6
 74
     0
 42
0.00000001
 43
0.00000001
 40
0.0
 40
0.0
 40
0.0
 40
0.0
 40
0.3702896688583039
 40
0.7405318123903298
 40
0.9999999999999999
 40
0.9999999999999999
 40
0.9999999999999999
 40
0.9999999999999999
 10
-19.62281004330671
 20
112.1946149405386
 30
0.0
 10
-13.79873455827715
 20
112.4308567753596
 30
0.0
 10
-2.151331087030361
 20
112.9033101242251
 30
0.0
 10
13.57843629084651
 20
113.5458134713527
 30
0.0
 10
23.4824932497604
 20
113.9517962120529
 30
0.0
 10
27.56339772603469
 20
114.1190788509438
 30
0.0
  0
ARC
  5
178
330
1F
100
AcDbEntity
  8
0
  6
Continuous
 62
     7
370
    25
100
AcDbCircle
 10
20.3381959175
 20
113.4698007014
 30
0.0
 40
7.254316183408126
100
AcDbArc
 50
1.5239989619
 51
5.1349767483
  0
ARC
  5
179
330
1F
100
AcDbEntity
  8
0
  6
Continuous
 62
     7
370
    25
100
AcDbCircle
 10
-15.3643273186
 20
112.0224397941
 30
0.0
 40
4.261961918878141
100
AcDbArc
 50
177.6847295556
 51
183.6430203235
  0
SPLINE
  5
17A
330
1F
100
AcDbEntity
  8
0
  6
Continuous
 62
     7
370
    25
100
AcDbSpline
210
0.0
220
0.0
230
1.0
 70
     8
 71
     3
 72
    10
 73
     6
 74
     0
 42
0.00000001
 43
0.00000001
 40
0.0
 40
0.0
 40
0.0
 40
0.0
 40
0.3702717503651155
 40
0.7405122151371751
 40
1.0
 40
1.0
 40
1.0
 40
1.0
 10
27.39295838554079
 20
102.29933100471
 30
0.0
 10
21.57854161872011
 20
102.70573621033
 30
0.0
 10
9.950199366081518
 20
103.5185122829313
 30
0.0
 10
-5.754779311372527
 20
104.6138809944678
 30
0.0
 10
-15.64340349693144
 20
105.3005852356312
 30
0.0
 10
-19.71814079312131
 20
105.5835507251081
 30
0.0
  0
ARC
  5
17B
330
1F
100
AcDbEntity
  8
0
  6
Continuous
 62
     7
370
    25
100
AcDbCircle
 10
-15.4564641974
 20
105.6328662002
 30
0.0
 40
4.261961921815081
100
AcDbArc
 50
174.704697713
 51
180.6629884768
  0
ARC
  5
17C
330
1F
100
AcDbEntity
  8
0
  6
Continuous
 62
     7
370
    25
100
AcDbCircle
 10
20.1894817998
 20
103.1566689591
 30
0.0
 40
7.254316183476428
100
AcDbArc
 50
353.2127412857
 51
356.8237190721
  0
SPLINE
  5
17D
330
1F
100
AcDbEntity
  8
0
  6
Continuous
 62
     7
370
    25
100
AcDbSpline
210
0.0
220
0.0
230
1.0
 70
     8
 71
     3
 72
    12
 73
     8
 74
     0
 42
0.00000001
 43
0.00000001
 40
0.0
 40
0.0
 40
0.0
 40
0.0
 40
0.1224290494151383
 40
0.3423522449770467
 40
0.5614228816909445
 40
0.7807229538533592
 40
1.0
 40
1.0
 40
1.0
 40
1.0
 10
-21.63416767770493
 20
106.1647710985047
 30
0.0
 10
-21.62519854622683
 20
106.1622828350567
 30
0.0
 10
-21.60011787859384
 20
106.1553248248328
 30
0.0
 10
-21.38439787427587
 20
106.1352044324441
 30
0.0
 10
-20.94891288320289
 20
106.1034111650159
 30
0.0
 10
-20.36547406360406
 20
106.0654427926651
 30
0.0
 10
-19.92197506599375
 20
106.0392792587279
 30
0.0
 10
-19.70023720939981
 20
106.0261981785735
 30
0.0
  0
SPLINE
  5
17E
330
1F
100
AcDbEntity
  8
0
  6
Continuous
 62
     7
370
    25
100
AcDbSpline
210
0.0
220
0.0
230
1.0
 70
     8
 71
     3
 72
    11
 73
     7
 74
     0
 42
0.00000001
 43
0.00000001
 40
0.0
 40
0.0
 40
0.0
 40
0.0
 40
0.0800485240044436
 40
0.50000058535388
 40
0.9209248322279648
 40
1.0
 40
1.0
 40
1.0
 40
1.0
 10
-21.63416767770493
 20
106.1647710985047
 30
0.0
 10
-21.6317728552613
 20
106.3109961942795
 30
0.0
 10
-21.61681427059608
 20
107.2243501179165
 30
0.0
 10
-21.59114805985449
 20
108.918565754623
 30
0.0
 10
-21.56798069109225
 20
110.6110345030909
 30
0.0
 10
-21.55659906443752
 20
111.5244287216695
 30
0.0
 10
-21.55479905425578
 20
111.6688824929348
 30
0.0
  0
SPLINE
  5
17F
330
1F
100
AcDbEntity
  8
0
  6
Continuous
 62
     7
370
    25
100
AcDbSpline
210
0.0
220
0.0
230
1.0
 70
     8
 71
     3
 72
    12
 73
     8
 74
     0
 42
0.00000001
 43
0.00000001
 40
0.0
 40
0.0
 40
0.0
 40
0.0
 40
0.1130367476169291
 40
0.332859469354799
 40
0.5544127937944973
 40
0.7774207483513229
 40
1.0
 40
1.0
 40
1.0
 40
1.0
 10
-19.61767709557716
 20
111.7516353030661
 30
0.0
 10
-19.73180838959279
 20
111.7482652954893
 30
0.0
 10
-20.0678909712641
 20
111.7383416294483
 30
0.0
 10
-20.60227230930994
 20
111.7204524792855
 30
0.0
 10
-21.11914617037655
 20
111.7000275773022
 30
0.0
 10
-21.47634178209096
 20
111.6817339843737
 30
0.0
 10
-21.52866340988221
 20
111.673163574862
 30
0.0
 10
-21.55479905425581
 20
111.6688824929348
 30
0.0
  0
SPLINE
  5
180
330
1F
100
AcDbEntity
  8
0
  6
Continuous
 62
     7
370
    25
100
AcDbSpline
210
0.0
220
0.0
230
1.0
 70
     8
 71
     3
 72
     9
 73
     5
 74
     0
 42
0.00000001
 43
0.00000001
 40
0.0
 40
0.0
 40
0.0
 40
0.0
 40
0.5000106123815462
 40
1.0
 40
1.0
 40
1.0
 40
1.0
 10
30.20334335839594
 20
101.1869813610139
 30
0.0
 10
29.77781685565585
 20
101.480987864238
 30
0.0
 10
28.92678191319069
 20
102.0689883905143
 30
0.0
 10
27.90422566025268
 20
102.2225512197563
 30
0.0
 10
27.39295838554079
 20
102.29933100471
 30
0.0
  0
SPLINE
  5
181
330
1F
100
AcDbEntity
  8
0
  6
Continuous
 62
     7
370
    25
100
AcDbSpline
210
0.0
220
0.0
230
1.0
 70
     8
 71
     3
 72
     9
 73
     5
 74
     0
 42
0.00000001
 43
0.00000001
 40
0.0
 40
0.0
 40
0.0
 40
0.0
 40
0.9838702326459308
 40
1.0
 40
1.0
 40
1.0
 40
1.0
 10
29.71001375757453
 20
101.6259716973725
 30
0.0
 10
29.8692495522329
 20
101.4788280664401
 30
0.0
 10
30.0310958906775
 20
101.3292721330965
 30
0.0
 10
30.20060914897617
 20
101.1892400460009
 30
0.0
 10
30.20334335839594
 20
101.1869813610139
 30
0.0
  0
SPLINE
  5
182
330
1F
100
AcDbEntity
  8
0
  6
Continuous
 62
     7
370
    25
100
AcDbSpline
210
0.0
220
0.0
230
1.0
 70
     8
 71
     3
 72
     9
 73
     5
 74
     0
 42
0.00000001
 43
0.00000001
 40
0.0
 40
0.0
 40
0.0
 40
0.0
 40
0.5055561057107304
 40
1.0
 40
1.0
 40
1.0
 40
1.0
 10
27.56339772603469
 20
114.1190788509438
 30
0.0
 10
28.08242213654522
 20
114.1822579611964
 30
0.0
 10
29.1090627104551
 20
114.3072274938336
 30
0.0
 10
29.97602380543767
 20
114.8711192102654
 30
0.0
 10
30.40468742543812
 20
115.1499320264954
 30
0.0
  0
SPLINE
  5
183
330
1F
100
AcDbEntity
  8
0
  6
Continuous
 62
     7
370
    25
100
AcDbSpline
210
0.0
220
0.0
230
1.0
 70
     8
 71
     3
 72
     9
 73
     5
 74
     0
 42
0.00000001
 43
0.00000001
 40
0.0
 40
0.0
 40
0.0
 40
0.0
 40
0.0161297673533132
 40
1.0
 40
1.0
 40
1.0
 40
1.0
 10
30.40468742543812
 20
115.1499320264954
 30
0.0
 10
30.40188922645729
 20
115.1477531181714
 30
0.0
 10
30.2284087961731
 20
115.0126669587553
 30
0.0
 10
30.06231748966882
 20
114.86783984676
 30
0.0
 10
29.89890519729789
 20
114.7253487623877
 30
0.0
  0
SPLINE
  5
184
330
1F
100
AcDbEntity
  8
0
  6
Continuous
 62
     7
370
    25
100
AcDbSpline
210
0.0
220
0.0
230
1.0
 70
     8
 71
     3
 72
    12
 73
     8
 74
     0
 42
0.00000001
 43
0.00000001
 40
0.0
 40
0.0
 40
0.0
 40
0.0
 40
0.2230315344150363
 40
0.446133755834033
 40
0.6675099896777047
 40
0.8870667292264958
 40
1.0
 40
1.0
 40
1.0
 40
1.0
 10
-21.07529676736658
 20
112.1611830922744
 30
0.0
 10
-21.05579226608761
 20
112.159011395908
 30
0.0
 10
-21.01677708182648
 20
112.1546673148836
 30
0.0
 10
-20.74911561127749
 20
112.157751226768
 30
0.0
 10
-20.3614020456225
 20
112.1677508869638
 30
0.0
 10
-19.96044277606016
 20
112.1813083929725
 30
0.0
 10
-19.70841394065182
 20
112.1912411789884
 30
0.0
 10
-19.62281004330671
 20
112.1946149405386
 30
0.0
  0
ARC
  5
185
330
1F
100
AcDbEntity
  8
0
  6
Continuous
 62
     7
370
    25
100
AcDbCircle
 10
-21.0547535541
 20
111.6615052944
 30
0.0
 40
0.5000999153470035
100
AcDbArc
 50
92.3542709417
 51
179.1547735553
  0
SPLINE
  5
186
330
1F
100
AcDbEntity
  8
0
  6
Continuous
 62
     7
370
    25
100
AcDbSpline
210
0.0
220
0.0
230
1.0
 70
     8
 71
     3
 72
    12
 73
     8
 74
     0
 42
0.00000001
 43
0.00000001
 40
0.0
 40
0.0
 40
0.0
 40
0.0
 40
0.219044434010928
 40
0.4380981679380272
 40
0.6571027493691843
 40
0.8772791087289992
 40
1.0
 40
1.0
 40
1.0
 40
1.0
 10
-19.71814079312131
 20
105.5835507251081
 30
0.0
 10
-19.88441393754042
 20
105.5947780946289
 30
0.0
 10
-20.21696728579703
 20
105.6172333103482
 30
0.0
 10
-20.65479875674989
 20
105.6430673060033
 30
0.0
 10
-20.98156758423752
 20
105.6590862321366
 30
0.0
 10
-21.14336834031572
 20
105.6632434372415
 30
0.0
 10
-21.16228829691741
 20
105.6600074666723
 30
0.0
 10
-21.16905963711546
 20
105.6588493320076
 30
0.0
  0
ARC
  5
187
330
1F
100
AcDbEntity
  8
0
  6
Continuous
 62
     7
370
    25
100
AcDbCircle
 10
-21.1341173737
 20
106.157727036
 30
0.0
 40
0.5000999153470301
100
AcDbArc
 50
179.1929444793
 51
265.9934470923
  0
LINE
  5
188
330
1F
100
AcDbEntity
  8
0
  6
Continuous
 62
     7
370
    25
100
AcDbLine
 10
27.563397726
 20
114.1190788509
 30
0.0
 11
27.5374422399
 21
114.1907508127
 31
0.0
  0
LINE
  5
189
330
1F
100
AcDbEntity
  8
0
  6
Continuous
 62
     7
370
    25
100
AcDbLine
 10
-21.0799226452
 20
112.1656887114
 30
0.0
 11
-21.0752967674
 21
112.1611830923
 31
0.0
  0
ELLIPSE
  5
18A
330
1F
100
AcDbEntity
  8
0
  6
Continuous
 62
     7
370
    25
100
AcDbEllipse
 10
-19.5791060618
 20
112.2273482262
 30
0.0
 11
1.501038268487992
 21
0.06123645790346189
 31
0.0
210
0.0
220
0.0
230
1.0
 40
0.0174284859
 41
2.255125316696672
 42
3.158083049612391
  0
LINE
  5
18B
330
1F
100
AcDbEntity
  8
0
  6
Continuous
 62
     7
370
    25
100
AcDbLine
 10
-17.0607429164
 20
112.3998150238
 30
0.0
 11
-20.5288192042
 21
112.2089079439
 31
0.0
  0
LINE
  5
18C
330
1F
100
AcDbEntity
  8
0
  6
Continuous
 62
     7
370
    25
100
AcDbLine
 10
-17.060744335
 20
112.3997166428
 30
0.0
 11
-17.0607429164
 21
112.3998150238
 31
0.0
  0
ELLIPSE
  5
18D
330
1F
100
AcDbEntity
  8
0
  6
Continuous
 62
     7
370
    25
100
AcDbEllipse
 10
-7.6074872283
 20
112.5930821356
 30
0.0
 11
14.5100365953838
 21
0.5919524264001838
 31
0.0
210
0.0
220
0.0
230
1.0
 40
0.0174284859
 41
1.54351683885242
 42
2.279642175408032
  0
ELLIPSE
  5
18E
330
1F
100
AcDbEntity
  8
0
  6
Continuous
 62
     7
370
    25
100
AcDbEllipse
 10
-6.2729130822
 20
113.5242200789
 30
0.0
 11
35.72735421573405
 21
1.457535539475572
 31
0.0
210
0.0
220
0.0
230
1.0
 40
0.0174284859
 41
4.685109492442212
 42
5.167309992307964
  0
ELLIPSE
  5
18F
330
1F
100
AcDbEntity
  8
0
  6
Continuous
 62
     7
370
    25
100
AcDbEllipse
 10
12.7507065805
 20
113.6223365488
 30
0.0
 11
7.505191342439904
 21
0.3061822895173379
 31
0.0
210
0.0
220
0.0
230
1.0
 40
0.0174284859
 41
1.834826681007921
 42
2.025717338718015
  0
LINE
  5
190
330
1F
100
AcDbEntity
  8
0
  6
Continuous
 62
     7
370
    25
100
AcDbLine
 10
10.8043481339
 20
113.5180445933
 30
0.0
 11
10.786900304
 21
113.6687023682
 31
0.0
  0
SPLINE
  5
191
330
1F
100
AcDbEntity
  8
0
  6
Continuous
 62
     7
370
    25
100
AcDbSpline
210
0.0
220
0.0
230
1.0
 70
     8
 71
     3
 72
    10
 73
     6
 74
     0
 42
0.00000001
 43
0.00000001
 40
0.0
 40
0.0
 40
0.0
 40
0.0
 40
0.0186368637457255
 40
0.3939469944633129
 40
1.0
 40
1.0
 40
1.0
 40
1.0
 10
10.98810732918898
 20
113.5158812256337
 30
0.0
 10
10.98565011204392
 20
113.515828898807
 30
0.0
 10
10.9337093283233
 20
113.5147228116255
 30
0.0
 10
10.82968264956027
 20
113.5135426038134
 30
0.0
 10
10.81402049327124
 20
113.5163257974554
 30
0.0
 10
10.80434813393605
 20
113.5180445932909
 30
0.0
  0
LINE
  5
192
330
1F
100
AcDbEntity
  8
0
  6
Continuous
 62
     7
370
    25
100
AcDbLine
 10
27.5374422399
 20
114.1907508127
 30
0.0
 11
10.9881073292
 21
113.5158812256
 31
0.0
  0
LINE
  5
193
330
1F
100
AcDbEntity
  8
0
  6
Continuous
 62
     7
370
    25
100
AcDbLine
 10
10.8396529632
 20
103.3640336587
 30
0.0
 11
27.3586758973
 21
102.2125419385
 31
0.0
  0
SPLINE
  5
194
330
1F
100
AcDbEntity
  8
0
  6
Continuous
 62
     7
370
    25
100
AcDbSpline
210
0.0
220
0.0
230
1.0
 70
     8
 71
     3
 72
    11
 73
     7
 74
     0
 42
0.00000001
 43
0.00000001
 40
0.0
 40
0.0
 40
0.0
 40
0.0
 40
0.4177469294495412
 40
0.8392770662411015
 40
0.9817832068819935
 40
1.0
 40
1.0
 40
1.0
 40
1.0
 10
10.65598607557644
 20
103.3680316986659
 30
0.0
 10
10.66063823945088
 20
103.3690479188165
 30
0.0
 10
10.66998469821087
 20
103.3710895622291
 30
0.0
 10
10.74545598263993
 20
103.3687989735256
 30
0.0
 10
10.81567325864333
 20
103.3653156646832
 30
0.0
 10
10.83721173157245
 20
103.3641641721277
 30
0.0
 10
10.83965296317679
 20
103.3640336586958
 30
0.0
  0
LINE
  5
195
330
1F
100
AcDbEntity
  8
0
  6
Continuous
 62
     7
370
    25
100
AcDbLine
 10
10.6364223346
 20
103.2332497917
 30
0.0
 11
10.6559860756
 21
103.3680316987
 31
0.0
  0
ELLIPSE
  5
196
330
1F
100
AcDbEntity
  8
0
  6
Continuous
 62
     7
370
    25
100
AcDbEllipse
 10
12.600749002
 20
103.2229724072
 30
0.0
 11
7.493242450720735
 21
-0.5224578985577182
 31
0.0
210
0.0
220
0.0
230
1.0
 40
0.0174284859
 41
4.257467968461692
 42
4.448358626171713
  0
ELLIPSE
  5
197
330
1F
100
AcDbEntity
  8
0
  6
Continuous
 62
     7
370
    25
100
AcDbEllipse
 10
-6.4121319645
 20
103.8695706355
 30
0.0
 11
35.67047328259635
 21
-2.487083613582029
 31
0.0
210
0.0
220
0.0
230
1.0
 40
0.0174284859
 41
1.115875314871785
 42
1.598075814737374
  0
ELLIPSE
  5
198
330
1F
100
AcDbEntity
  8
0
  6
Continuous
 62
     7
370
    25
100
AcDbEllipse
 10
-7.7193030108
 20
104.8388022263
 30
0.0
 11
14.48693540472678
 21
-1.010085270544948
 31
0.0
210
0.0
220
0.0
230
1.0
 40
0.0174284859
 41
4.003543131771951
 42
4.739668468327164
  0
LINE
  5
199
330
1F
100
AcDbEntity
  8
0
  6
Continuous
 62
     7
370
    25
100
AcDbLine
 10
-17.1630556116
 20
105.3045619218
 30
0.0
 11
-17.163054193
 21
105.3046603028
 31
0.0
  0
LINE
  5
19A
330
1F
100
AcDbEntity
  8
0
  6
Continuous
 62
     7
370
    25
100
AcDbLine
 10
-20.6241853751
 20
105.5953873185
 30
0.0
 11
-17.1630556116
 21
105.3045619218
 31
0.0
  0
ELLIPSE
  5
19B
330
1F
100
AcDbEntity
  8
0
  6
Continuous
 62
     7
370
    25
100
AcDbEllipse
 10
-19.6753988067
 20
105.549570899
 30
0.0
 11
1.498648490144141
 21
-0.1044915797115493
 31
0.0
210
0.0
220
0.0
230
1.0
 40
0.0174284859
 41
3.637682519854752
 42
4.028059990483719
  0
LINE
  5
19C
330
1F
100
AcDbEntity
  8
0
  6
Continuous
 62
     7
370
    25
100
AcDbLine
 10
-21.1690596371
 20
105.658849332
 30
0.0
 11
-21.1738135055
 21
105.6544789677
 31
0.0
  0
LINE
  5
19D
330
1F
100
AcDbEntity
  8
0
  6
Continuous
 62
     7
370
    25
100
AcDbLine
 10
27.3586758973
 20
102.2125419385
 30
0.0
 11
27.3929583855
 21
102.2993310047
 31
0.0
  0
SPLINE
  5
19E
330
1F
100
AcDbEntity
  8
0
  6
Continuous
 62
     7
370
    25
100
AcDbSpline
210
0.0
220
0.0
230
1.0
 70
     8
 71
     3
 72
     9
 73
     5
 74
     0
 42
0.00000001
 43
0.00000001
 40
0.0
 40
0.0
 40
0.0
 40
0.0
 40
0.500102127670468
 40
1.0
 40
1.0
 40
1.0
 40
1.0
 10
30.37241917677791
 20
115.2160956070676
 30
0.0
 10
29.93938475465056
 20
114.9357844896874
 30
0.0
 10
29.07349277345772
 20
114.3752767416284
 30
0.0
 10
28.04938935821059
 20
114.252251079461
 30
0.0
 10
27.53744223988318
 20
114.1907508127016
 30
0.0
  0
LINE
  5
19F
330
1F
100
AcDbEntity
  8
0
  6
Continuous
 62
     7
370
    25
100
AcDbLine
 10
30.3724191768
 20
115.2160956071
 30
0.0
 11
30.4046874254
 21
115.1499320265
 31
0.0
  0
SPLINE
  5
1A0
330
1F
100
AcDbEntity
  8
0
  6
Continuous
 62
     7
370
    25
100
AcDbSpline
210
0.0
220
0.0
230
1.0
 70
     8
 71
     3
 72
     9
 73
     5
 74
     0
 42
0.00000001
 43
0.00000001
 40
0.0
 40
0.0
 40
0.0
 40
0.0
 40
0.4007227371565286
 40
1.0
 40
1.0
 40
1.0
 40
1.0
 10
27.35867589732874
 20
102.2125419384881
 30
0.0
 10
27.76662158338297
 20
102.1582471162881
 30
0.0
 10
28.78464638763782
 20
102.0227548739829
 30
0.0
 10
29.64555625093404
 20
101.4501751547341
 30
0.0
 10
30.16147995736516
 20
101.107041147823
 30
0.0
  0
LINE
  5
1A1
330
1F
100
AcDbEntity
  8
0
  6
Continuous
 62
     7
370
    25
100
AcDbLine
 10
30.2033433584
 20
101.186981361
 30
0.0
 11
30.1614799574
 21
101.1070411478
 31
0.0
  0
ARC
  5
1A2
330
1F
100
AcDbEntity
  8
0
  6
Continuous
 62
     7
370
    25
100
AcDbCircle
 10
35.8280678194
 20
108.088800523
 30
0.0
 40
8.975658044222106
100
AcDbArc
 50
64.3387444117
 51
127.4325569999
  0
LWPOLYLINE
  5
1A3
330
1F
100
AcDbEntity
  8
0
  6
Continuous
 62
     7
370
    25
100
AcDbPolyline
 90
        3
 70
   128
 43
0.0
 10
39.8819333191
 20
116.2818617413
 10
39.7764073737
 20
116.2171241138
 10
39.7149734962
 20
116.1791899813
  0
ARC
  5
1A4
330
1F
100
AcDbEntity
  8
0
  6
Continuous
 62
     7
370
    25
100
AcDbCircle
 10
35.8280678194
 20
108.088800523
 30
0.0
 40
9.141120151092142
100
AcDbArc
 50
294.6735754346
 51
63.6741384459
  0
LWPOLYLINE
  5
1A5
330
1F
100
AcDbEntity
  8
0
  6
Continuous
 62
     7
370
    25
100
AcDbPolyline
 90
        3
 70
   128
 43
0.0
 10
39.4962222015
 20
99.879060856
 10
39.5403955742
 20
99.8500110322
 10
39.6440110148
 20
99.7822576109
  0
ARC
  5
1A6
330
1F
100
AcDbEntity
  8
0
  6
Continuous
 62
     7
370
    25
100
AcDbCircle
 10
35.8280678194
 20
108.088800523
 30
0.0
 40
8.991950954660766
100
AcDbArc
 50
230.936266164
 51
294.0753401836
  0
LINE
  5
1A7
330
1F
100
AcDbEntity
  8
0
  6
Continuous
 62
     7
370
    25
100
AcDbLine
 10
-21.6389215461
 20
106.1604007342
 30
0.0
 11
-21.6341676777
 21
106.1647710985
 31
0.0
  0
LINE
  5
1A8
330
1F
100
AcDbEntity
  8
0
  6
Continuous
 62
     7
370
    25
100
AcDbLine
 10
-21.5594249321
 20
111.673388112
 30
0.0
 11
-21.6389215461
 21
106.1604007342
 31
0.0
  0
LINE
  5
1A9
330
1F
100
AcDbEntity
  8
0
  6
Continuous
 62
     7
370
    25
100
AcDbLine
 10
-21.5547990543
 20
111.6688824929
 30
0.0
 11
-21.5594249321
 21
111.673388112
 31
0.0
  0
ARC
  5
1AA
330
1F
100
AcDbEntity
  8
0
  6
Continuous
 62
     7
370
    25
100
AcDbCircle
 10
-21.1388712421
 20
106.1533566717
 30
0.0
 40
0.5000999153468959
100
AcDbArc
 50
179.1929444787
 51
265.9934470923
  0
ARC
  5
1AB
330
1F
100
AcDbEntity
  8
0
  6
Continuous
 62
     7
370
    25
100
AcDbCircle
 10
-21.0593794319
 20
111.6660109135
 30
0.0
 40
0.5000999153469141
100
AcDbArc
 50
92.3542709417
 51
179.1547735553
  0
LINE
  5
1AC
330
1F
100
AcDbEntity
  8
0
  6
Continuous
 62
     7
370
    25
100
AcDbLine
 10
-20.5288192042
 20
112.2089079439
 30
0.0
 11
-20.5359314882
 21
112.2086434274
 31
0.0
  0
LINE
  5
1AD
330
1F
100
AcDbEntity
  8
0
  6
Continuous
 62
     7
370
    25
100
AcDbLine
 10
-20.6241853751
 20
105.5953873185
 30
0.0
 11
-20.631287075
 21
105.595856799
 31
0.0
  0
SPLINE
  5
1AE
330
1F
100
AcDbEntity
  8
0
  6
Continuous
 62
     7
370
    25
100
AcDbSpline
210
0.0
220
0.0
230
1.0
 70
     8
 71
     3
 72
    12
 73
     8
 74
     0
 42
0.00000001
 43
0.00000001
 40
0.0
 40
0.0
 40
0.0
 40
0.0
 40
0.134541944089385
 40
0.4125227334043401
 40
0.6966514762099306
 40
0.8475579366075731
 40
1.0
 40
1.0
 40
1.0
 40
1.0
 10
39.71576365178742
 20
116.1799852882848
 30
0.0
 10
39.28920225409113
 20
116.3769815372768
 30
0.0
 10
37.98131068961696
 20
116.9809971225625
 30
0.0
 10
35.61694023230559
 20
117.640104678931
 30
0.0
 10
33.096601329306
 20
117.9778346271323
 30
0.0
 10
30.95340896613757
 20
118.1143368494116
 30
0.0
 10
29.81726060135538
 20
118.1363535253117
 30
0.0
 10
29.24631072863669
 20
118.1474175893833
 30
0.0
  0
ARC
  5
1AF
330
1F
100
AcDbEntity
  8
0
  6
Continuous
 62
     7
370
    25
100
AcDbCircle
 10
33.7294378629
 20
117.4628829539
 30
0.0
 40
4.535087272518838
100
AcDbArc
 50
148.2023216577
 51
171.3184857153
  0
SPLINE
  5
1B0
330
1F
100
AcDbEntity
  8
0
  6
Continuous
 62
     7
370
    25
100
AcDbSpline
210
0.0
220
0.0
230
1.0
 70
     8
 71
     3
 72
    12
 73
     8
 74
     0
 42
0.00000001
 43
0.00000001
 40
0.0
 40
0.0
 40
0.0
 40
0.0
 40
0.1662426524176547
 40
0.33680597561913
 40
0.6054181071254587
 40
0.8801435087136187
 40
1.0
 40
1.0
 40
1.0
 40
1.0
 10
29.87500349543598
 20
119.8525172932913
 30
0.0
 10
30.51037688437601
 20
119.6878539456541
 30
0.0
 10
31.79763710930758
 20
119.3542476259574
 30
0.0
 10
33.97203756170889
 20
118.6598590057429
 30
0.0
 10
36.3214791067657
 20
117.7736968297139
 30
0.0
 10
38.27466300952237
 20
116.9028158738753
 30
0.0
 10
39.38056717442679
 20
116.3489548600088
 30
0.0
 10
39.71649184633407
 20
116.180716430975
 30
0.0
  0
LINE
  5
1B1
330
1F
100
AcDbEntity
  8
0
  6
Continuous
 62
     7
370
    25
100
AcDbLine
 10
39.7164918463
 20
116.180716431
 30
0.0
 11
39.7157636518
 21
116.1799852883
 31
0.0
  0
LINE
  5
1B2
330
1F
100
AcDbEntity
  8
0
  6
Continuous
 62
     7
370
    25
100
AcDbLine
 10
29.8750034954
 20
119.8525172933
 30
0.0
 11
29.8918616197
 21
119.9217549553
 31
0.0
  0
ARC
  5
1B3
330
1F
100
AcDbEntity
  8
0
  6
Continuous
 62
     7
370
    25
100
AcDbCircle
 10
18.4939430057
 20
73.1095935359
 30
0.0
 40
48.17977797259053
100
AcDbArc
 50
63.6457069293
 51
76.3157780851
  0
LWPOLYLINE
  5
1B4
330
1F
100
AcDbEntity
  8
0
  6
Continuous
 62
     7
370
    25
100
AcDbPolyline
 90
        3
 70
   128
 43
0.0
 10
39.7164918463
 20
116.180716431
 10
39.7764145543
 20
116.2173799573
 10
39.881933341
 20
116.2818632802
  0
LINE
  5
1B5
330
1F
100
AcDbEntity
  8
0
  6
Continuous
 62
     7
370
    25
100
AcDbLine
 10
30.3724191768
 20
115.2160956071
 30
0.0
 11
28.2149614379
 21
118.0346125138
 31
0.0
  0
ARC
  5
1B6
330
1F
100
AcDbEntity
  8
0
  6
Continuous
 62
     7
370
    25
100
AcDbCircle
 10
35.8280678194
 20
108.088800523
 30
0.0
 40
12.52511736202729
100
AcDbArc
 50
127.0321658872
 51
127.4325569999
  0
LINE
  5
1B7
330
1F
100
AcDbEntity
  8
0
  6
Continuous
 62
     7
370
    25
100
AcDbLine
 10
29.2463107286
 20
118.1474175894
 30
0.0
 11
28.2846495198
 21
118.0875707119
 31
0.0
  0
LINE
  5
1B8
330
1F
100
AcDbEntity
  8
0
  6
Continuous
 62
     7
370
    25
100
AcDbLine
 10
39.7149734962
 20
116.1791899813
 30
0.0
 11
39.7157636518
 21
116.1799852883
 31
0.0
  0
LINE
  5
1B9
330
1F
100
AcDbEntity
  8
0
  6
Continuous
 62
     7
370
    25
100
AcDbLine
 10
25.2912815126
 20
117.6515634211
 30
0.0
 11
27.3928181262
 21
117.7372625235
 31
0.0
  0
LINE
  5
1BA
330
1F
100
AcDbEntity
  8
0
  6
Continuous
 62
     7
370
    25
100
AcDbLine
 10
27.5374422399
 20
114.1907508127
 30
0.0
 11
27.3928181262
 21
117.7372625235
 31
0.0
  0
SPLINE
  5
1BB
330
1F
100
AcDbEntity
  8
0
  6
Continuous
 62
     7
370
    25
100
AcDbSpline
210
0.0
220
0.0
230
1.0
 70
     8
 71
     3
 72
    17
 73
    13
 74
     0
 42
0.00000001
 43
0.00000001
 40
0.0
 40
0.0
 40
0.0
 40
0.0
 40
0.2859834379244695
 40
0.5215922644122238
 40
0.7592399016809388
 40
0.8521492405060507
 40
0.9266708633836027
 40
0.9605058393195363
 40
0.9835417153308587
 40
0.9930790992390834
 40
0.9972256067114875
 40
1.0
 40
1.0
 40
1.0
 40
1.0
 10
23.84320560520553
 20
117.1482463287607
 30
0.0
 10
22.60688647620901
 20
116.6341504841173
 30
0.0
 10
20.35201990523034
 20
115.6965143130208
 30
0.0
 10
16.9983910243828
 20
114.7025342154166
 30
0.0
 10
14.48708786616804
 20
114.1208641145238
 30
0.0
 10
12.711861855179
 20
113.792450550946
 30
0.0
 10
11.84460041097174
 20
113.6502392390311
 30
0.0
 10
11.31779159008975
 20
113.5693265674003
 30
0.0
 10
11.08358983738511
 20
113.5335878995465
 30
0.0
 10
11.0057412818019
 20
113.5203892108827
 30
0.0
 10
10.98960746463174
 20
113.5168877181011
 30
0.0
 10
10.98853660608176
 20
113.5161692422665
 30
0.0
 10
10.98810732918898
 20
113.5158812256337
 30
0.0
  0
LINE
  5
1BC
330
1F
100
AcDbEntity
  8
0
  6
Continuous
 62
     7
370
    25
100
AcDbLine
 10
25.2912815126
 20
117.6515634211
 30
0.0
 11
23.8432056052
 21
117.1482463288
 31
0.0
  0
ARC
  5
1BD
330
1F
100
AcDbEntity
  8
0
  6
Continuous
 62
     7
370
    25
100
AcDbCircle
 10
17.9883386706
 20
113.6231952179
 30
0.0
 40
6.834138728219062
100
AcDbArc
 50
31.0509661473
 51
46.1226597598
  0
SPLINE
  5
1BE
330
1F
100
AcDbEntity
  8
0
  6
Continuous
 62
     7
370
    25
100
AcDbSpline
210
0.0
220
0.0
230
1.0
 70
     8
 71
     3
 72
    10
 73
     6
 74
     0
 42
0.00000001
 43
0.00000001
 40
0.0
 40
0.0
 40
0.0
 40
0.0
 40
0.5975855365574487
 40
0.9790563563182193
 40
1.0
 40
1.0
 40
1.0
 40
1.0
 10
10.87822504174082
 20
113.5265935611669
 30
0.0
 10
10.87565224963474
 20
113.5228909740515
 30
0.0
 10
10.8714371066789
 20
113.516824827486
 30
0.0
 10
10.94579507296775
 20
113.515375996563
 30
0.0
 10
10.98601413006806
 20
113.5158562318106
 30
0.0
 10
10.98810732918898
 20
113.5158812256337
 30
0.0
  0
SPLINE
  5
1BF
330
1F
100
AcDbEntity
  8
0
  6
Continuous
 62
     7
370
    25
100
AcDbSpline
210
0.0
220
0.0
230
1.0
 70
     8
 71
     3
 72
    15
 73
    11
 74
     0
 42
0.00000001
 43
0.00000001
 40
0.0
 40
0.0
 40
0.0
 40
0.0
 40
0.0128981401598384
 40
0.0519443541565592
 40
0.1318327952014325
 40
0.2279057212361198
 40
0.4677439605522717
 40
0.7076088995729001
 40
0.853851708197699
 40
1.0
 40
1.0
 40
1.0
 40
1.0
 10
10.87822504174082
 20
113.5265935611669
 30
0.0
 10
10.91180327691035
 20
113.533955079911
 30
0.0
 10
11.04703205547711
 20
113.5636019384528
 30
0.0
 10
11.48773308188575
 20
113.6596484706846
 30
0.0
 10
12.30202149918327
 20
113.8502490588174
 30
0.0
 10
13.96185871334482
 20
114.2940119225881
 30
0.0
 10
16.319964074169
 20
115.0916815579486
 30
0.0
 10
18.88050515207007
 20
116.2484735459883
 30
0.0
 10
21.01646418568248
 20
117.4247207915413
 30
0.0
 10
22.1557408686863
 20
118.1745978831094
 30
0.0
 10
22.72519507186821
 20
118.5494152282142
 30
0.0
  0
LWPOLYLINE
  5
1C0
330
1F
100
AcDbEntity
  8
0
  6
Continuous
 62
     7
370
    25
100
AcDbPolyline
 90
        4
 70
   128
 43
0.0
 10
10.860878811
 20
113.677954976
 10
10.862872937
 20
113.6605662696
 10
10.8708459302
 20
113.5910113355
 10
10.8782250417
 20
113.5265935612
  0
LINE
  5
1C1
330
1F
100
AcDbEntity
  8
0
  6
Continuous
 62
     7
370
    25
100
AcDbLine
 10
12.6550103099
 20
114.0816559733
 30
0.0
 11
10.860878811
 21
113.677954976
 31
0.0
  0
ARC
  5
1C2
330
1F
100
AcDbEntity
  8
0
  6
Continuous
 62
     7
370
    25
100
AcDbCircle
 10
4.908992033
 20
144.6222093052
 30
0.0
 40
31.50755777528335
100
AcDbArc
 50
284.2318562649
 51
304.3457884339
  0
LINE
  5
1C3
330
1F
100
AcDbEntity
  8
0
  6
Continuous
 62
     7
370
    25
100
AcDbLine
 10
22.7251950719
 20
118.5494152282
 30
0.0
 11
22.685116686
 21
118.6080672036
 31
0.0
  0
SPLINE
  5
1C4
330
1F
100
AcDbEntity
  8
0
  6
Continuous
 62
     7
370
    25
100
AcDbSpline
210
0.0
220
0.0
230
1.0
 70
     8
 71
     3
 72
     9
 73
     5
 74
     0
 42
0.00000001
 43
0.00000001
 40
0.0
 40
0.0
 40
0.0
 40
0.0
 40
0.4998978730609703
 40
1.0
 40
1.0
 40
1.0
 40
1.0
 10
27.39281812618427
 20
117.7372625234522
 30
0.0
 10
27.541285519442
 20
117.7550900552452
 30
0.0
 10
27.83828096842972
 20
117.790752403004
 30
0.0
 10
28.08938418513045
 20
117.9533147422175
 30
0.0
 10
28.21496143788373
 20
118.0346125138183
 30
0.0
  0
ARC
  5
1C5
330
1F
100
AcDbEntity
  8
0
  6
Continuous
 62
     7
370
    25
100
AcDbCircle
 10
10.7839609624
 20
114.0177051875
 30
0.0
 40
0.5000763403763654
100
AcDbArc
 50
272.3364886569
 51
280.8652225788
  0
ARC
  5
1C6
330
1F
100
AcDbEntity
  8
0
  6
Continuous
 62
     7
370
    25
100
AcDbCircle
 10
19.5097323647
 20
143.5532719345
 30
0.0
 40
48.10950076354637
100
AcDbArc
 50
282.0319399489
 51
282.2805223384
  0
SPLINE
  5
1C7
330
1F
100
AcDbEntity
  8
0
  6
Continuous
 62
     7
370
    25
100
AcDbSpline
210
0.0
220
0.0
230
1.0
 70
     8
 71
     3
 72
    13
 73
     9
 74
     0
 42
0.00000001
 43
0.00000001
 40
0.0
 40
0.0
 40
0.0
 40
0.0
 40
0.0460329529079874
 40
0.2492425848193729
 40
0.4775225570272885
 40
0.7051721168687843
 40
0.8526808263814663
 40
1.0
 40
1.0
 40
1.0
 40
1.0
 10
39.49743794584793
 20
99.8777688489712
 30
0.0
 10
39.36821535612999
 20
99.81711675621752
 30
0.0
 10
38.66854761283467
 20
99.48871974021786
 30
0.0
 10
37.30011548188036
 20
98.89041069712964
 30
0.0
 10
35.2806658958343
 20
98.10897433268383
 30
0.0
 10
33.25637851477027
 20
97.4454675056616
 30
0.0
 10
31.38635533795953
 20
96.92214201007782
 30
0.0
 10
30.29024217770114
 20
96.67040390747991
 30
0.0
 10
29.74253792650656
 20
96.54461577357226
 30
0.0
  0
LWPOLYLINE
  5
1C8
330
1F
100
AcDbEntity
  8
0
  6
Continuous
 62
     7
370
    25
100
AcDbPolyline
 90
        3
 70
   128
 43
0.0
 10
39.4974379458
 20
99.877768849
 10
39.5403953749
 20
99.849755088
 10
39.6440109924
 20
99.782256072
  0
ARC
  5
1C9
330
1F
100
AcDbEntity
  8
0
  6
Continuous
 62
     7
370
    25
100
AcDbCircle
 10
19.5097323647
 20
143.5532719345
 30
0.0
 40
48.17977797259052
100
AcDbArc
 50
282.0319399489
 51
294.7020103158
  0
LINE
  5
1CA
330
1F
100
AcDbEntity
  8
0
  6
Continuous
 62
     7
370
    25
100
AcDbLine
 10
29.5384913891
 20
96.5006624834
 30
0.0
 11
29.5531411606
 21
96.431929156
 31
0.0
  0
LINE
  5
1CB
330
1F
100
AcDbEntity
  8
0
  6
Continuous
 62
     7
370
    25
100
AcDbLine
 10
29.3172062605
 20
98.498554009
 30
0.0
 11
29.7425379265
 21
96.5446157736
 31
0.0
  0
SPLINE
  5
1CC
330
1F
100
AcDbEntity
  8
0
  6
Continuous
 62
     7
370
    25
100
AcDbSpline
210
0.0
220
0.0
230
1.0
 70
     8
 71
     3
 72
    13
 73
     9
 74
     0
 42
0.00000001
 43
0.00000001
 40
0.0
 40
0.0
 40
0.0
 40
0.0
 40
0.2574896950994371
 40
0.4890886589321037
 40
0.7206004760683485
 40
0.9447506334961281
 40
0.9460032291293302
 40
1.0
 40
1.0
 40
1.0
 40
1.0
 10
29.31720626047227
 20
98.49855400901028
 30
0.0
 10
30.23543171220638
 20
98.45724742700764
 30
0.0
 10
31.9795545386074
 20
98.37878766267055
 30
0.0
 10
34.47623322193519
 20
98.5073670838295
 30
0.0
 10
36.79760249915191
 20
98.88731018822229
 30
0.0
 10
38.28176036060133
 20
99.36551793165496
 30
0.0
 10
39.15832721322117
 20
99.72715970481822
 30
0.0
 10
39.32949471541221
 20
99.80368011942342
 30
0.0
 10
39.4967815637721
 20
99.8784656881245
 30
0.0
  0
LINE
  5
1CD
330
1F
100
AcDbEntity
  8
0
  6
Continuous
 62
     7
370
    25
100
AcDbLine
 10
39.4967815638
 20
99.8784656881
 30
0.0
 11
39.4974379458
 21
99.877768849
 31
0.0
  0
LINE
  5
1CE
330
1F
100
AcDbEntity
  8
0
  6
Continuous
 62
     7
370
    25
100
AcDbLine
 10
23.2313791694
 20
99.8943312793
 30
0.0
 11
22.0782283562
 21
98.2606162319
 31
0.0
  0
SPLINE
  5
1CF
330
1F
100
AcDbEntity
  8
0
  6
Continuous
 62
     7
370
    25
100
AcDbSpline
210
0.0
220
0.0
230
1.0
 70
     8
 71
     3
 72
    15
 73
    11
 74
     0
 42
0.00000001
 43
0.00000001
 40
0.0
 40
0.0
 40
0.0
 40
0.0
 40
0.2255198391625373
 40
0.4515645943751958
 40
0.6337799820516982
 40
0.8158790324473558
 40
0.8946729146060277
 40
0.9638048440471942
 40
0.9940832206369734
 40
1.0
 40
1.0
 40
1.0
 40
1.0
 10
22.07822835618672
 20
98.2606162318865
 30
0.0
 10
21.24072582793971
 20
98.81775724639982
 30
0.0
 10
19.56377141514634
 20
99.93333606714899
 30
0.0
 10
17.10526129508605
 20
101.1860174079531
 30
0.0
 10
14.79051448703514
 20
102.1503923639264
 30
0.0
 10
13.05822952011573
 20
102.7312200299182
 30
0.0
 10
11.80554394549935
 20
103.0858714203964
 30
0.0
 10
11.16371785907194
 20
103.250489731642
 30
0.0
 10
10.83689601663873
 20
103.3307637161297
 30
0.0
 10
10.74467848606528
 20
103.3536164271805
 30
0.0
 10
10.72960379533819
 20
103.3573521328453
 30
0.0
  0
SPLINE
  5
1D0
330
1F
100
AcDbEntity
  8
0
  6
Continuous
 62
     7
370
    25
100
AcDbSpline
210
0.0
220
0.0
230
1.0
 70
     8
 71
     3
 72
    11
 73
     7
 74
     0
 42
0.00000001
 43
0.00000001
 40
0.0
 40
0.0
 40
0.0
 40
0.0
 40
0.019556121229576
 40
0.1681891996744573
 40
0.5898876540792573
 40
1.0
 40
1.0
 40
1.0
 40
1.0
 10
10.83965296317679
 20
103.3640336586958
 30
0.0
 10
10.83769529154319
 20
103.3641200078423
 30
0.0
 10
10.82085865909357
 20
103.3648626394548
 30
0.0
 10
10.76897569437937
 20
103.3664572909657
 30
0.0
 10
10.71966606116256
 20
103.3650788142106
 30
0.0
 10
10.72632212087371
 20
103.3599036654667
 30
0.0
 10
10.72960379533819
 20
103.3573521328453
 30
0.0
  0
SPLINE
  5
1D1
330
1F
100
AcDbEntity
  8
0
  6
Continuous
 62
     7
370
    25
100
AcDbSpline
210
0.0
220
0.0
230
1.0
 70
     8
 71
     3
 72
    17
 73
    13
 74
     0
 42
0.00000001
 43
0.00000001
 40
0.0
 40
0.0
 40
0.0
 40
0.0
 40
0.0068263121770689
 40
0.0088448507297267
 40
0.0223990310416136
 40
0.0309593028397545
 40
0.056321891214915
 40
0.1198824177066685
 40
0.1957460556357066
 40
0.555862194488003
 40
0.7780336097977198
 40
1.0
 40
1.0
 40
1.0
 40
1.0
 10
10.83965296317679
 20
103.3640336586958
 30
0.0
 10
10.84325776310516
 20
103.3629433869393
 30
0.0
 10
10.84792850133826
 20
103.3615307221371
 30
0.0
 10
10.8913472534681
 20
103.3533138518222
 30
0.0
 10
10.96570199059033
 20
103.3404889369617
 30
0.0
 10
11.13214606901786
 20
103.3123672644088
 30
0.0
 10
11.51283883567914
 20
103.2483570583004
 30
0.0
 10
12.19409437099911
 20
103.1293250987031
 30
0.0
 10
14.29358084370563
 20
102.7318403525688
 30
0.0
 10
17.097079205003
 20
102.0571706300742
 30
0.0
 10
20.48090515641832
 20
100.9953306691635
 30
0.0
 10
22.31483669459536
 20
100.2612181143425
 30
0.0
 10
23.23137916937526
 20
99.89433127928024
 30
0.0
  0
LINE
  5
1D2
330
1F
100
AcDbEntity
  8
0
  6
Continuous
 62
     7
370
    25
100
AcDbLine
 10
27.3586758973
 20
102.2125419385
 30
0.0
 11
27.1779039305
 21
99.6192308327
 31
0.0
  0
LINE
  5
1D3
330
1F
100
AcDbEntity
  8
0
  6
Continuous
 62
     7
370
    25
100
AcDbLine
 10
27.1779039305
 20
99.6192308327
 30
0.0
 11
23.2313791694
 21
99.8943312793
 31
0.0
  0
LINE
  5
1D4
330
1F
100
AcDbEntity
  8
0
  6
Continuous
 62
     7
370
    25
100
AcDbLine
 10
30.1614799574
 20
101.1070411478
 30
0.0
 11
28.5232498793
 21
99.0885904532
 31
0.0
  0
LINE
  5
1D5
330
1F
100
AcDbEntity
  8
0
  6
Continuous
 62
     7
370
    25
100
AcDbLine
 10
39.4967815638
 20
99.8784656881
 30
0.0
 11
39.4962222015
 21
99.879060856
 31
0.0
  0
ARC
  5
1D6
330
1F
100
AcDbEntity
  8
0
  6
Continuous
 62
     7
370
    25
100
AcDbCircle
 10
35.8280678194
 20
108.088800523
 30
0.0
 40
11.59155496206739
100
AcDbArc
 50
230.936266164
 51
235.8272404542
  0
LWPOLYLINE
  5
1D7
330
1F
100
AcDbEntity
  8
0
  6
Continuous
 62
     7
370
    25
100
AcDbPolyline
 90
        4
 70
   128
 43
0.0
 10
10.7296037953
 20
103.3573521328
 10
10.7271115042
 20
103.3400280118
 10
10.7171388446
 20
103.2707317364
 10
10.7101032954
 20
103.2218679522
  0
ARC
  5
1D8
330
1F
100
AcDbEntity
  8
0
  6
Continuous
 62
     7
370
    25
100
AcDbCircle
 10
3.8684518736
 20
72.4620949031
 30
0.0
 40
31.57783498432753
100
AcDbArc
 50
54.0019296001
 51
54.7838070274
  0
LINE
  5
1D9
330
1F
100
AcDbEntity
  8
0
  6
Continuous
 62
     7
370
    25
100
AcDbLine
 10
22.4285771973
 20
98.0097251311
 30
0.0
 11
22.3872712051
 21
97.9528682835
 31
0.0
  0
ARC
  5
1DA
330
1F
100
AcDbEntity
  8
0
  6
Continuous
 62
     7
370
    25
100
AcDbCircle
 10
3.8684518736
 20
72.4620949031
 30
0.0
 40
31.50755777528337
100
AcDbArc
 50
54.0019296001
 51
74.1158617691
  0
LINE
  5
1DB
330
1F
100
AcDbEntity
  8
0
  6
Continuous
 62
     7
370
    25
100
AcDbLine
 10
10.7101032954
 20
103.2218679522
 30
0.0
 11
12.4918486121
 21
102.7666032419
 31
0.0
  0
LINE
  5
1DC
330
1F
100
AcDbEntity
  8
0
  6
Continuous
 62
     7
370
    25
100
AcDbLine
 10
10.786900304
 20
113.6687023682
 30
0.0
 11
10.860878811
 21
113.677954976
 31
0.0
  0
SPLINE
  5
1DD
330
1F
100
AcDbEntity
  8
0
  6
Continuous
 62
     7
370
    25
100
AcDbSpline
210
0.0
220
0.0
230
1.0
 70
     8
 71
     3
 72
    10
 73
     6
 74
     0
 42
0.00000001
 43
0.00000001
 40
0.0
 40
0.0
 40
0.0
 40
0.0
 40
0.0490769085761627
 40
0.5995805843665292
 40
1.0
 40
1.0
 40
1.0
 40
1.0
 10
28.52324987929792
 20
99.08859045319599
 30
0.0
 10
28.50451514669787
 20
99.1034848615803
 30
0.0
 10
28.27562986752703
 20
99.28545227440137
 30
0.0
 10
27.83317709212756
 20
99.52590871585265
 30
0.0
 10
27.37206943263573
 20
99.5915783409858
 30
0.0
 10
27.17790393047996
 20
99.619230832715
 30
0.0
  0
ARC
  5
1DE
330
1F
100
AcDbEntity
  8
0
  6
Continuous
 62
     7
370
    25
100
AcDbCircle
 10
10.6212002823
 20
102.8691666919
 30
0.0
 40
0.5000763405147991
100
AcDbArc
 50
77.4803793549
 51
86.0112290515
  0
SPLINE
  5
1DF
330
1F
100
AcDbEntity
  8
0
  6
Continuous
 62
     7
370
    25
100
AcDbSpline
210
0.0
220
0.0
230
1.0
 70
     8
 71
     3
 72
     9
 73
     5
 74
     0
 42
0.00000001
 43
0.00000001
 40
0.0
 40
0.0
 40
0.0
 40
0.0
 40
0.8458911907784694
 40
1.0
 40
1.0
 40
1.0
 40
1.0
 10
10.71010329536082
 20
103.2218679521752
 30
0.0
 10
10.68931986897417
 20
103.2259828502645
 30
0.0
 10
10.66475001103825
 20
103.2308474216587
 30
0.0
 10
10.64020494541232
 20
103.2329290018891
 30
0.0
 10
10.63642233457643
 20
103.2332497917397
 30
0.0
  0
LINE
  5
1E0
330
1F
100
AcDbEntity
  8
0
  6
Continuous
 62
     7
370
    25
100
AcDbLine
 10
-7.3417535519
 20
104.5588596253
 30
0.0
 11
-7.3412959414
 21
104.5588279375
 31
0.0
  0
LINE
  5
1E1
330
1F
100
AcDbEntity
  8
0
  6
Continuous
 62
     7
370
    25
100
AcDbLine
 10
22.7251950719
 20
118.5494152282
 30
0.0
 11
24.5781194223
 21
119.5197661636
 31
0.0
  0
LINE
  5
1E2
330
1F
100
AcDbEntity
  8
0
  6
Continuous
 62
     7
370
    25
100
AcDbLine
 10
25.2912815126
 20
117.6515634211
 30
0.0
 11
24.5781194223
 21
119.5197661636
 31
0.0
  0
LINE
  5
1E3
330
1F
100
AcDbEntity
  8
0
  6
Continuous
 62
     7
370
    25
100
AcDbLine
 10
28.2846495198
 20
118.0875707119
 30
0.0
 11
28.4352494084
 21
120.0815870928
 31
0.0
  0
LINE
  5
1E4
330
1F
100
AcDbEntity
  8
0
  6
Continuous
 62
     7
370
    25
100
AcDbLine
 10
28.4352494084
 20
120.0815870928
 30
0.0
 11
29.8750034954
 21
119.8525172933
 31
0.0
  0
ARC
  5
1E5
330
1F
100
AcDbEntity
  8
0
  6
Continuous
 62
     7
370
    25
100
AcDbCircle
 10
27.6770456426
 20
105.2341338441
 30
0.0
 40
6.929946387144277
100
AcDbArc
 50
234.0019296001
 51
282.0319399489
  0
LINE
  5
1E6
330
1F
100
AcDbEntity
  8
0
  6
Continuous
 62
     7
370
    25
100
AcDbLine
 10
29.1216410191
 20
98.4564276593
 30
0.0
 11
29.5384913891
 21
96.5006624834
 31
0.0
  0
ARC
  5
1E7
330
1F
100
AcDbEntity
  8
0
  6
Continuous
 62
     7
370
    25
100
AcDbCircle
 10
27.6770456426
 20
105.2341338441
 30
0.0
 40
8.929641777457064
100
AcDbArc
 50
234.0019296001
 51
282.0319399489
  0
LINE
  5
1E8
330
1F
100
AcDbEntity
  8
0
  6
Continuous
 62
     7
370
    25
100
AcDbLine
 10
23.6039141725
 20
99.6275522692
 30
0.0
 11
22.4285771973
 21
98.0097251311
 31
0.0
  0
ARC
  5
1E9
330
1F
100
AcDbEntity
  8
0
  6
Continuous
 62
     7
370
    25
100
AcDbCircle
 10
3.8684518736
 20
72.4620949031
 30
0.0
 40
33.57753037464033
100
AcDbArc
 50
54.0019296001
 51
54.7838070274
  0
ARC
  5
1EA
330
1F
100
AcDbEntity
  8
0
  6
Continuous
 62
     7
370
    25
100
AcDbCircle
 10
19.5097323647
 20
143.5532719345
 30
0.0
 40
46.1098053732336
100
AcDbArc
 50
282.0319399489
 51
282.2805223384
  0
ARC
  5
1EB
330
1F
100
AcDbEntity
  8
0
  6
Continuous
 62
     7
370
    25
100
AcDbCircle
 10
27.7627454541
 20
111.1773049373
 30
0.0
 40
6.9299463871443
100
AcDbArc
 50
85.6808843456
 51
110.8937053005
  0
ARC
  5
1EC
330
1F
100
AcDbEntity
  8
0
  6
Continuous
 62
     7
370
    25
100
AcDbCircle
 10
27.7627454541
 20
111.1773049373
 30
0.0
 40
8.929641777457086
100
AcDbArc
 50
85.6808843456
 51
110.8937053005
  0
ARC
  5
1ED
330
1F
100
AcDbEntity
  8
0
  6
Continuous
 62
     7
370
    25
100
AcDbCircle
 10
27.7627454541
 20
111.1773049373
 30
0.0
 40
8.999918986501246
100
AcDbArc
 50
76.3157780851
 51
124.3457884339
  0
ARC
  5
1EE
330
1F
100
AcDbEntity
  8
0
  6
Continuous
 62
     7
370
    25
100
AcDbCircle
 10
27.6770456426
 20
105.2341338441
 30
0.0
 40
8.99991898650122
100
AcDbArc
 50
234.0019296001
 51
282.0319399489
  0
SPLINE
  5
1EF
330
1F
100
AcDbEntity
  8
0
  6
Continuous
 62
     7
370
    25
100
AcDbSpline
210
0.0
220
0.0
230
1.0
 70
     8
 71
     3
 72
    12
 73
     8
 74
     0
 42
0.00000001
 43
0.00000001
 40
0.0
 40
0.0
 40
0.0
 40
0.0
 40
0.2645407070669319
 40
0.3998213831319917
 40
0.5350776475046123
 40
0.7654087769394589
 40
1.0
 40
1.0
 40
1.0
 40
1.0
 10
52.94363741401153
 20
140.2222197692796
 30
0.0
 10
52.99302875016339
 20
140.6728483293266
 30
0.0
 10
53.06767779965721
 20
141.3539190656772
 30
0.0
 10
53.17028959287376
 20
141.7456265576143
 30
0.0
 10
53.26675132097265
 20
141.8250433985286
 30
0.0
 10
53.38232534520424
 20
141.4227149739562
 30
0.0
 10
53.46901771339338
 20
140.6248218747778
 30
0.0
 10
53.51276107951539
 20
140.2222197692796
 30
0.0
  0
SPLINE
  5
1F0
330
1F
100
AcDbEntity
  8
0
  6
Continuous
 62
     7
370
    25
100
AcDbSpline
210
0.0
220
0.0
230
1.0
 70
     8
 71
     3
 72
    12
 73
     8
 74
     0
 42
0.00000001
 43
0.00000001
 40
0.0
 40
0.0
 40
0.0
 40
0.0
 40
0.2645407070669314
 40
0.3998213831319918
 40
0.535077647504612
 40
0.7654087769394587
 40
1.0
 40
1.0
 40
1.0
 40
1.0
 10
35.25894415388174
 20
140.2222197692796
 30
0.0
 10
36.79370835803808
 20
140.6728483293266
 30
0.0
 10
39.11331940652596
 20
141.3539190656772
 30
0.0
 10
42.30183219890911
 20
141.7456265576143
 30
0.0
 10
45.29924062904289
 20
141.8250433985286
 30
0.0
 10
48.89053596828276
 20
141.4227149739562
 30
0.0
 10
51.58437569477141
 20
140.6248218747778
 30
0.0
 10
52.94363741401153
 20
140.2222197692796
 30
0.0
  0
SPLINE
  5
1F1
330
1F
100
AcDbEntity
  8
0
  6
Continuous
 62
     7
370
    25
100
AcDbSpline
210
0.0
220
0.0
230
1.0
 70
     8
 71
     3
 72
    12
 73
     8
 74
     0
 42
0.00000001
 43
0.00000001
 40
0.0
 40
0.0
 40
0.0
 40
0.0
 40
0.1820499033062403
 40
0.3656406087374416
 40
0.6149613348991662
 40
0.8710066969717195
 40
1.0
 40
1.0
 40
1.0
 40
1.0
 10
18.1433745592558
 20
140.2222197692796
 30
0.0
 10
19.16223335337314
 20
140.5411836541675
 30
0.0
 10
21.20857418043684
 20
141.1818110146747
 30
0.0
 10
24.73926864678661
 20
141.7918119959497
 30
0.0
 10
28.74512152890781
 20
141.8253658701369
 30
0.0
 10
32.38779556167889
 20
141.1404839317404
 30
0.0
 10
34.53844627951563
 20
140.4526527670549
 30
0.0
 10
35.25894415388174
 20
140.2222197692796
 30
0.0
  0
SPLINE
  5
1F2
330
1F
100
AcDbEntity
  8
0
  6
Continuous
 62
     7
370
    25
100
AcDbSpline
210
0.0
220
0.0
230
1.0
 70
     8
 71
     3
 72
    10
 73
     6
 74
     0
 42
0.00000001
 43
0.00000001
 40
0.0
 40
0.0
 40
0.0
 40
0.0
 40
0.0228313630000873
 40
0.5069387727653175
 40
1.0
 40
1.0
 40
1.0
 40
1.0
 10
18.41396749608026
 20
141.7635389150691
 30
0.0
 10
18.41187698241817
 20
141.7653569439528
 30
0.0
 10
18.36546002385467
 20
141.805723755656
 30
0.0
 10
18.27379774616308
 20
141.3956111870578
 30
0.0
 10
18.18711371743828
 20
140.615732257735
 30
0.0
 10
18.14337455925577
 20
140.2222197692796
 30
0.0
  0
LINE
  5
1F3
330
1F
100
AcDbEntity
  8
0
  6
Continuous
 62
     7
370
    25
100
AcDbLine
 10
18.5280678194
 20
141.838800523
 30
0.0
 11
53.1280678194
 21
141.838800523
 31
0.0
  0
LINE
  5
1F4
330
1F
100
AcDbEntity
  8
0
  6
Continuous
 62
     7
370
    25
100
AcDbLine
 10
52.943637414
 20
127.5553812767
 30
0.0
 11
52.943637414
 21
140.2222197693
 31
0.0
  0
SPLINE
  5
1F5
330
1F
100
AcDbEntity
  8
0
  6
Continuous
 62
     7
370
    25
100
AcDbSpline
210
0.0
220
0.0
230
1.0
 70
     8
 71
     3
 72
    12
 73
     8
 74
     0
 42
0.00000001
 43
0.00000001
 40
0.0
 40
0.0
 40
0.0
 40
0.0
 40
0.2645407070669314
 40
0.3998213831319918
 40
0.535077647504612
 40
0.7654087769394586
 40
1.0
 40
1.0
 40
1.0
 40
1.0
 10
52.94363741401153
 20
127.5553812767415
 30
0.0
 10
51.40887320985525
 20
127.1047527166945
 30
0.0
 10
49.08926216136734
 20
126.423681980344
 30
0.0
 10
45.90074936898417
 20
126.0319744884069
 30
0.0
 10
42.9033409388504
 20
125.9525576474925
 30
0.0
 10
39.31204559961049
 20
126.3548860720649
 30
0.0
 10
36.61820587312187
 20
127.1527791712433
 30
0.0
 10
35.25894415388174
 20
127.5553812767415
 30
0.0
  0
LINE
  5
1F6
330
1F
100
AcDbEntity
  8
0
  6
Continuous
 62
     7
370
    25
100
AcDbLine
 10
35.2589441539
 20
127.5553812767
 30
0.0
 11
35.2589441539
 21
140.2222197693
 31
0.0
  0
SPLINE
  5
1F7
330
1F
100
AcDbEntity
  8
0
  6
Continuous
 62
     7
370
    25
100
AcDbSpline
210
0.0
220
0.0
230
1.0
 70
     8
 71
     3
 72
    12
 73
     8
 74
     0
 42
0.00000001
 43
0.00000001
 40
0.0
 40
0.0
 40
0.0
 40
0.0
 40
0.1289937508738282
 40
0.3786272441489031
 40
0.6343574588057702
 40
0.8162656302547747
 40
1.0
 40
1.0
 40
1.0
 40
1.0
 10
35.25894415388174
 20
127.5553812767415
 30
0.0
 10
34.53843466093204
 20
127.3249428380905
 30
0.0
 10
32.42356846120813
 20
126.6485513820599
 30
0.0
 10
28.78302016271897
 20
125.9564158978469
 30
0.0
 10
24.78577500389842
 20
125.9792182731008
 30
0.0
 10
21.21821166360285
 20
126.5934534181573
 30
0.0
 10
19.17172730977515
 20
127.2336728006152
 30
0.0
 10
18.14337455925577
 20
127.5553812767415
 30
0.0
  0
SPLINE
  5
1F8
330
1F
100
AcDbEntity
  8
0
  6
Continuous
 62
     7
370
    25
100
AcDbSpline
210
0.0
220
0.0
230
1.0
 70
     8
 71
     3
 72
    12
 73
     8
 74
     0
 42
0.00000001
 43
0.00000001
 40
0.0
 40
0.0
 40
0.0
 40
0.0
 40
0.2645407070669317
 40
0.3998213831319917
 40
0.5350776475046123
 40
0.7654087769394586
 40
1.0
 40
1.0
 40
1.0
 40
1.0
 10
53.51276107951539
 20
127.5553812767415
 30
0.0
 10
53.46336974336351
 20
127.1047527166945
 30
0.0
 10
53.38872069386969
 20
126.423681980344
 30
0.0
 10
53.2861089006531
 20
126.0319744884068
 30
0.0
 10
53.18964717255425
 20
125.9525576474925
 30
0.0
 10
53.07407314832266
 20
126.3548860720649
 30
0.0
 10
52.98738078013351
 20
127.1527791712433
 30
0.0
 10
52.94363741401153
 20
127.5553812767415
 30
0.0
  0
SPLINE
  5
1F9
330
1F
100
AcDbEntity
  8
0
  6
Continuous
 62
     7
370
    25
100
AcDbSpline
210
0.0
220
0.0
230
1.0
 70
     8
 71
     3
 72
    10
 73
     6
 74
     0
 42
0.00000001
 43
0.00000001
 40
0.0
 40
0.0
 40
0.0
 40
0.0
 40
0.5559383799318959
 40
0.8402338319307929
 40
1.0
 40
1.0
 40
1.0
 40
1.0
 10
18.14337455925577
 20
127.5553812767415
 30
0.0
 10
18.19276935272352
 20
127.1102597931662
 30
0.0
 10
18.2674236275335
 20
126.437512338916
 30
0.0
 10
18.35865447475438
 20
126.0541574018964
 30
0.0
 10
18.39934090720091
 20
126.0408818124597
 30
0.0
 10
18.41397922564733
 20
126.036105470715
 30
0.0
  0
LINE
  5
1FA
330
1F
100
AcDbEntity
  8
0
  6
Continuous
 62
     7
370
    25
100
AcDbLine
 10
18.1433745593
 20
127.5553812767
 30
0.0
 11
18.1433745593
 21
140.2222197693
 31
0.0
  0
LINE
  5
1FB
330
1F
100
AcDbEntity
  8
0
  6
Continuous
 62
     7
370
    25
100
AcDbLine
 10
53.5127610795
 20
127.5553812767
 30
0.0
 11
53.5127610795
 21
140.2222197693
 31
0.0
  0
SPLINE
  5
1FC
330
1F
100
AcDbEntity
  8
0
  6
Continuous
 62
     7
370
    25
100
AcDbSpline
210
0.0
220
0.0
230
1.0
 70
     8
 71
     3
 72
    12
 73
     8
 74
     0
 42
0.00000001
 43
0.00000001
 40
0.0
 40
0.0
 40
0.0
 40
0.0
 40
0.2645407070669317
 40
0.3998213831319914
 40
0.5350776475046125
 40
0.7654087769394584
 40
1.0
 40
1.0
 40
1.0
 40
1.0
 10
240.8062868996358
 20
140.2222197692797
 30
0.0
 10
242.3179053642922
 20
140.6728483293267
 30
0.0
 10
244.6025344182013
 20
141.3539190656773
 30
0.0
 10
247.7429613311479
 20
141.7456265576143
 30
0.0
 10
250.6951659218183
 20
141.8250433985287
 30
0.0
 10
254.232301028389
 20
141.4227149739563
 30
0.0
 10
256.8855150272285
 20
140.6248218747779
 30
0.0
 10
258.224277755431
 20
140.2222197692797
 30
0.0
  0
LINE
  5
1FD
330
1F
100
AcDbEntity
  8
0
  6
Continuous
 62
     7
370
    25
100
AcDbLine
 10
258.2242777554
 20
127.5553812767
 30
0.0
 11
258.2242777554
 21
140.2222197693
 31
0.0
  0
SPLINE
  5
1FE
330
1F
100
AcDbEntity
  8
0
  6
Continuous
 62
     7
370
    25
100
AcDbSpline
210
0.0
220
0.0
230
1.0
 70
     8
 71
     3
 72
    12
 73
     8
 74
     0
 42
0.00000001
 43
0.00000001
 40
0.0
 40
0.0
 40
0.0
 40
0.0
 40
0.2645407070669321
 40
0.3998213831319917
 40
0.5350776475046121
 40
0.7654087769394592
 40
1.0
 40
1.0
 40
1.0
 40
1.0
 10
258.224277755431
 20
127.5553812767416
 30
0.0
 10
256.7126592907746
 20
127.1047527166946
 30
0.0
 10
254.4280302368655
 20
126.423681980344
 30
0.0
 10
251.287603323919
 20
126.0319744884069
 30
0.0
 10
248.3353987332486
 20
125.9525576474926
 30
0.0
 10
244.7982636266777
 20
126.354886072065
 30
0.0
 10
242.1450496278383
 20
127.1527791712434
 30
0.0
 10
240.8062868996358
 20
127.5553812767416
 30
0.0
  0
LINE
  5
1FF
330
1F
100
AcDbEntity
  8
0
  6
Continuous
 62
     7
370
    25
100
AcDbLine
 10
240.8062868996
 20
127.5553812767
 30
0.0
 11
240.8062868996
 21
140.2222197693
 31
0.0
  0
SPLINE
  5
200
330
1F
100
AcDbEntity
  8
0
  6
Continuous
 62
     7
370
    25
100
AcDbSpline
210
0.0
220
0.0
230
1.0
 70
     8
 71
     3
 72
    10
 73
     6
 74
     0
 42
0.00000001
 43
0.00000001
 40
0.0
 40
0.0
 40
0.0
 40
0.0
 40
0.5300198440163736
 40
0.8010610898851669
 40
0.9999999999999999
 40
0.9999999999999999
 40
0.9999999999999999
 40
0.9999999999999999
 10
223.4100769635903
 20
127.5553812767416
 30
0.0
 10
223.4119672891938
 20
127.1088130471736
 30
0.0
 10
223.4148242884274
 20
126.433879010789
 30
0.0
 10
223.4184869300424
 20
126.0414244176946
 30
0.0
 10
223.4202156629331
 20
126.0302366561296
 30
0.0
 10
223.4209474219931
 20
126.0255009644966
 30
0.0
  0
SPLINE
  5
201
330
1F
100
AcDbEntity
  8
0
  6
Continuous
 62
     7
370
    25
100
AcDbSpline
210
0.0
220
0.0
230
1.0
 70
     8
 71
     3
 72
    12
 73
     8
 74
     0
 42
0.00000001
 43
0.00000001
 40
0.0
 40
0.0
 40
0.0
 40
0.0
 40
0.1820499033062397
 40
0.3656406087374415
 40
0.6149613348991654
 40
0.8710066969717195
 40
1.0
 40
1.0
 40
1.0
 40
1.0
 10
240.8062868996358
 20
127.5553812767416
 30
0.0
 10
239.7707220953411
 20
127.2364173918537
 30
0.0
 10
237.6908278545161
 20
126.5957900313465
 30
0.0
 10
234.1022413446088
 20
125.9857890500715
 30
0.0
 10
230.0307053478066
 20
125.9522351758843
 30
0.0
 10
226.3283031664288
 20
126.6371171142808
 30
0.0
 10
224.1423886878161
 20
127.3249482789663
 30
0.0
 10
223.4100769635903
 20
127.5553812767416
 30
0.0
  0
SPLINE
  5
202
330
1F
100
AcDbEntity
  8
0
  6
Continuous
 62
     7
370
    25
100
AcDbSpline
210
0.0
220
0.0
230
1.0
 70
     8
 71
     3
 72
     9
 73
     5
 74
     0
 42
0.00000001
 43
0.00000001
 40
0.0
 40
0.0
 40
0.0
 40
0.0
 40
0.6616472210532065
 40
1.0
 40
1.0
 40
1.0
 40
1.0
 10
258.2460586751807
 20
127.5553812767416
 30
0.0
 10
258.2441688777284
 20
127.0963868773118
 30
0.0
 10
258.2413126767317
 20
126.402672183401
 30
0.0
 10
258.2383758559683
 20
126.1546655202168
 30
0.0
 10
258.2373821745016
 20
126.0707517765311
 30
0.0
  0
SPLINE
  5
203
330
1F
100
AcDbEntity
  8
0
  6
Continuous
 62
     7
370
    25
100
AcDbSpline
210
0.0
220
0.0
230
1.0
 70
     8
 71
     3
 72
    10
 73
     6
 74
     0
 42
0.00000001
 43
0.00000001
 40
0.0
 40
0.0
 40
0.0
 40
0.0
 40
0.0717987274598615
 40
0.5316467995078767
 40
1.0
 40
1.0
 40
1.0
 40
1.0
 10
258.2351882167779
 20
126.0255009644966
 30
0.0
 10
258.234923353946
 20
126.0183922460666
 30
0.0
 10
258.2329621287008
 20
125.9657544412534
 30
0.0
 10
258.2292692256971
 20
126.3758854589711
 30
0.0
 10
258.2259517116708
 20
127.159821596194
 30
0.0
 10
258.224277755431
 20
127.5553812767416
 30
0.0
  0
SPLINE
  5
204
330
1F
100
AcDbEntity
  8
0
  6
Continuous
 62
     7
370
    25
100
AcDbSpline
210
0.0
220
0.0
230
1.0
 70
     8
 71
     3
 72
    10
 73
     6
 74
     0
 42
0.00000001
 43
0.00000001
 40
0.0
 40
0.0
 40
0.0
 40
0.0
 40
0.068356642084379
 40
0.5299099868685637
 40
1.0
 40
1.0
 40
1.0
 40
1.0
 10
223.4209465348201
 20
141.7529434482769
 30
0.0
 10
223.4206953008402
 20
141.7596176559918
 30
0.0
 10
223.4187477008564
 20
141.8113570219802
 30
0.0
 10
223.4150684307166
 20
141.4013098736419
 30
0.0
 10
223.4117509187771
 20
140.6176433884154
 30
0.0
 10
223.4100769635903
 20
140.2222197692797
 30
0.0
  0
SPLINE
  5
205
330
1F
100
AcDbEntity
  8
0
  6
Continuous
 62
     7
370
    25
100
AcDbSpline
210
0.0
220
0.0
230
1.0
 70
     8
 71
     3
 72
    10
 73
     6
 74
     0
 42
0.00000001
 43
0.00000001
 40
0.0
 40
0.0
 40
0.0
 40
0.0
 40
0.5280619251651234
 40
0.7981019316072346
 40
1.0
 40
1.0
 40
1.0
 40
1.0
 10
258.224277755431
 20
140.2222197692797
 30
0.0
 10
258.2261680766902
 20
140.6688902105862
 30
0.0
 10
258.2290250693579
 20
141.3439787276897
 30
0.0
 10
258.2327013201883
 20
141.7372043739659
 30
0.0
 10
258.2344437020586
 20
141.7482276301457
 30
0.0
 10
258.2351891039509
 20
141.7529434482769
 30
0.0
  0
SPLINE
  5
206
330
1F
100
AcDbEntity
  8
0
  6
Continuous
 62
     7
370
    25
100
AcDbSpline
210
0.0
220
0.0
230
1.0
 70
     8
 71
     3
 72
    12
 73
     8
 74
     0
 42
0.00000001
 43
0.00000001
 40
0.0
 40
0.0
 40
0.0
 40
0.0
 40
0.1289937508738281
 40
0.3786272441489034
 40
0.6343574588057703
 40
0.8162656302547753
 40
1.0
 40
1.0
 40
1.0
 40
1.0
 10
223.4100769635903
 20
140.2222197692797
 30
0.0
 10
224.1424004969071
 20
140.4526582079307
 30
0.0
 10
226.2919437063015
 20
141.1290496639613
 30
0.0
 10
229.992185298186
 20
141.8211851481743
 30
0.0
 10
234.054972432686
 20
141.7983827729204
 30
0.0
 10
237.6810323475957
 20
141.1841476278639
 30
0.0
 10
239.7610724685623
 20
140.5439282454061
 30
0.0
 10
240.8062868996358
 20
140.2222197692797
 30
0.0
  0
LINE
  5
207
330
1F
100
AcDbEntity
  8
0
  6
Continuous
 62
     7
370
    25
100
AcDbLine
 10
232.1618377261
 20
141.838800523
 30
0.0
 11
258.1280678194
 21
141.838800523
 31
0.0
  0
LINE
  5
208
330
1F
100
AcDbEntity
  8
0
  6
Continuous
 62
     7
370
    25
100
AcDbLine
 10
223.5280678194
 20
141.838800523
 30
0.0
 11
232.1618377261
 21
141.838800523
 31
0.0
  0
LINE
  5
209
330
1F
100
AcDbEntity
  8
0
  6
Continuous
 62
     7
370
    25
100
AcDbLine
 10
223.4100769636
 20
127.5553812767
 30
0.0
 11
223.4100769636
 21
140.2222197693
 31
0.0
  0
LINE
  5
20A
330
1F
100
AcDbEntity
  8
0
  6
Continuous
 62
     7
370
    25
100
AcDbLine
 10
258.2460586752
 20
127.5553812767
 30
0.0
 11
258.2460586752
 21
140.2222197693
 31
0.0
  0
LINE
  5
20B
330
1F
100
AcDbEntity
  8
0
  6
Continuous
 62
     7
370
    25
100
AcDbLine
 10
10.5280678194
 20
166.038800523
 30
0.0
 11
61.1280678194
 21
166.038800523
 31
0.0
  0
LINE
  5
20C
330
1F
100
AcDbEntity
  8
0
  6
Continuous
 62
     7
370
    25
100
AcDbLine
 10
60.6280678194
 20
162.038800523
 30
0.0
 11
11.0280678194
 21
162.038800523
 31
0.0
  0
ELLIPSE
  5
20D
330
1F
100
AcDbEntity
  8
0
  6
Continuous
 62
     7
370
    25
100
AcDbEllipse
 10
56.0272253636
 20
161.038800523
 30
0.0
 11
1.759670971157192
 21
0.0
 31
0.0
210
0.0
220
0.0
230
1.0
 40
0.5682880586
 41
1.570796326794897
 42
3.141592653589793
  0
LINE
  5
20E
330
1F
100
AcDbEntity
  8
0
  6
Continuous
 62
     7
370
    25
100
AcDbLine
 10
54.2675543924
 20
161.038800523
 30
0.0
 11
45.488770133
 21
161.038800523
 31
0.0
  0
ELLIPSE
  5
20F
330
1F
100
AcDbEntity
  8
0
  6
Continuous
 62
     7
370
    25
100
AcDbEllipse
 10
45.4321409126
 20
161.038800523
 30
0.0
 11
0.0
 21
1.0
 31
0.0
210
0.0
220
0.0
230
1.0
 40
0.0566292204
 41
4.712388980384691
 42
6.283185307179586
  0
LINE
  5
210
330
1F
100
AcDbEntity
  8
0
  6
Continuous
 62
     7
370
    25
100
AcDbLine
 10
45.488770133
 20
161.038800523
 30
0.0
 11
43.7290991619
 21
161.038800523
 31
0.0
  0
ELLIPSE
  5
211
330
1F
100
AcDbEntity
  8
0
  6
Continuous
 62
     7
370
    25
100
AcDbEllipse
 10
45.4321409126
 20
161.038800523
 30
0.0
 11
1.703041750709055
 21
0.0
 31
0.0
210
0.0
220
0.0
230
1.0
 40
0.5871846651
 41
1.570796326794897
 42
3.141592653589793
  0
LINE
  5
212
330
1F
100
AcDbEntity
  8
0
  6
Continuous
 62
     7
370
    25
100
AcDbLine
 10
43.7290991619
 20
161.038800523
 30
0.0
 11
26.9926543395
 21
161.038800523
 31
0.0
  0
ELLIPSE
  5
213
330
1F
100
AcDbEntity
  8
0
  6
Continuous
 62
     7
370
    25
100
AcDbEllipse
 10
25.2329833684
 20
161.038800523
 30
0.0
 11
1.759670971157188
 21
0.0
 31
0.0
210
0.0
220
0.0
230
1.0
 40
0.5682880586
 41
0.0
 42
1.570796326794897
  0
LINE
  5
214
330
1F
100
AcDbEntity
  8
0
  6
Continuous
 62
     7
370
    25
100
AcDbLine
 10
26.9926543395
 20
161.038800523
 30
0.0
 11
25.2896125888
 21
161.038800523
 31
0.0
  0
ELLIPSE
  5
215
330
1F
100
AcDbEntity
  8
0
  6
Continuous
 62
     7
370
    25
100
AcDbEllipse
 10
25.2329833684
 20
161.038800523
 30
0.0
 11
0.0
 21
1.0
 31
0.0
210
0.0
220
0.0
230
1.0
 40
0.0566292204
 41
4.712388980384691
 42
6.283185307179586
  0
LINE
  5
216
330
1F
100
AcDbEntity
  8
0
  6
Continuous
 62
     7
370
    25
100
AcDbLine
 10
25.2896125888
 20
161.038800523
 30
0.0
 11
17.3319520259
 21
161.038800523
 31
0.0
  0
ELLIPSE
  5
217
330
1F
100
AcDbEntity
  8
0
  6
Continuous
 62
     7
370
    25
100
AcDbEllipse
 10
15.6289102752
 20
161.038800523
 30
0.0
 11
1.703041750709053
 21
0.0
 31
0.0
210
0.0
220
0.0
230
1.0
 40
0.5871846651
 41
0.0
 42
1.570796326794897
  0
LINE
  5
218
330
1F
100
AcDbEntity
  8
0
  6
Continuous
 62
     7
370
    25
100
AcDbLine
 10
45.488770133
 20
161.038800523
 30
0.0
 11
45.488770133
 21
148.5662587755
 31
0.0
  0
SPLINE
  5
219
330
1F
100
AcDbEntity
  8
0
  6
Continuous
 62
     7
370
    25
100
AcDbSpline
210
0.0
220
0.0
230
1.0
 70
     8
 71
     3
 72
    11
 73
     7
 74
     0
 42
0.00000001
 43
0.00000001
 40
0.0
 40
0.0
 40
0.0
 40
0.0
 40
0.188346734649991
 40
0.5045742105980915
 40
0.8244987390967907
 40
1.0
 40
1.0
 40
1.0
 40
1.0
 10
45.48877013303262
 20
148.5662587755493
 30
0.0
 10
45.41346465956028
 20
148.5720502207473
 30
0.0
 10
45.21172397155932
 20
148.5875652966759
 30
0.0
 10
44.74168433698411
 20
148.5958694527752
 30
0.0
 10
44.19673465133578
 20
148.5870365752207
 30
0.0
 10
43.85142336687058
 20
148.5716938374393
 30
0.0
 10
43.72909916186518
 20
148.5662587755512
 30
0.0
  0
LINE
  5
21A
330
1F
100
AcDbEntity
  8
0
  6
Continuous
 62
     7
370
    25
100
AcDbLine
 10
43.7290991619
 20
148.5662587756
 30
0.0
 11
43.7290991619
 21
161.038800523
 31
0.0
  0
ARC
  5
21B
330
1F
100
AcDbEntity
  8
0
  6
Continuous
 62
     7
370
    25
100
AcDbCircle
 10
44.4613293352
 20
148.5763966031
 30
0.0
 40
1.027490811927403
100
AcDbArc
 50
285.6600875045
 51
359.4346770303
  0
SPLINE
  5
21C
330
1F
100
AcDbEntity
  8
0
  6
Continuous
 62
     7
370
    25
100
AcDbSpline
210
0.0
220
0.0
230
1.0
 70
     8
 71
     3
 72
    11
 73
     7
 74
     0
 42
0.00000001
 43
0.00000001
 40
0.0
 40
0.0
 40
0.0
 40
0.0
 40
0.1755702971684213
 40
0.4954273686125923
 40
0.8115831191424561
 40
1.0
 40
1.0
 40
1.0
 40
1.0
 10
43.84871362585574
 20
147.5870462354114
 30
0.0
 10
43.91043570108955
 20
147.5924810535736
 30
0.0
 10
44.08460414422348
 20
147.6078171195506
 30
0.0
 10
44.36006012472365
 20
147.6166605272402
 30
0.0
 10
44.59803747768076
 20
147.6083460050581
 30
0.0
 10
44.70044048552099
 20
147.5928374286241
 30
0.0
 10
44.73867968861574
 20
147.5870462354114
 30
0.0
  0
ARC
  5
21D
330
1F
100
AcDbEntity
  8
0
  6
Continuous
 62
     7
370
    25
100
AcDbCircle
 10
56.5940258373
 20
149.6408456053
 30
0.0
 40
12.90972792966227
100
AcDbArc
 50
184.77474132
 51
189.1540389589
  0
SPLINE
  5
21E
330
1F
100
AcDbEntity
  8
0
  6
Continuous
 62
     7
370
    25
100
AcDbSpline
210
0.0
220
0.0
230
1.0
 70
     8
 71
     3
 72
    11
 73
     7
 74
     0
 42
0.00000001
 43
0.00000001
 40
0.0
 40
0.0
 40
0.0
 40
0.0
 40
0.2494542507989795
 40
0.4994676090797708
 40
0.8818193942259387
 40
1.0
 40
1.0
 40
1.0
 40
1.0
 10
43.84871362585574
 20
147.5870462354114
 30
0.0
 10
42.44361427773051
 20
147.4652841372673
 30
0.0
 10
39.63026630037655
 20
147.2214870328212
 30
0.0
 10
34.64470462940632
 20
147.0916758916983
 30
0.0
 10
30.40130400510208
 20
147.2660612749693
 30
0.0
 10
27.58461127275838
 20
147.5257347755389
 30
0.0
 10
26.9195624978414
 20
147.5870462354114
 30
0.0
  0
ARC
  5
21F
330
1F
100
AcDbEntity
  8
0
  6
Continuous
 62
     7
370
    25
100
AcDbCircle
 10
39.6192094284
 20
147.1314344488
 30
0.0
 40
12.70781705328432
100
AcDbArc
 50
173.5169777305
 51
177.9453411859
  0
SPLINE
  5
220
330
1F
100
AcDbEntity
  8
0
  6
Continuous
 62
     7
370
    25
100
AcDbSpline
210
0.0
220
0.0
230
1.0
 70
     8
 71
     3
 72
    11
 73
     7
 74
     0
 42
0.00000001
 43
0.00000001
 40
0.0
 40
0.0
 40
0.0
 40
0.0
 40
0.2499930973934118
 40
0.5005566710537418
 40
0.7499548284117814
 40
1.0
 40
1.0
 40
1.0
 40
1.0
 10
26.99265433953121
 20
148.5662587755493
 30
0.0
 10
28.38460079127778
 20
148.4442797263575
 30
0.0
 10
31.17167007213425
 20
148.2000432756779
 30
0.0
 10
35.36370515203494
 20
148.0916810115169
 30
0.0
 10
39.55599040205524
 20
148.2005622193105
 30
0.0
 10
42.33686206261836
 20
148.4442546913135
 30
0.0
 10
43.72909916186518
 20
148.5662587755512
 30
0.0
  0
LINE
  5
221
330
1F
100
AcDbEntity
  8
0
  6
Continuous
 62
     7
370
    25
100
AcDbLine
 10
26.9926543395
 20
161.038800523
 30
0.0
 11
26.9926543395
 21
148.5662587755
 31
0.0
  0
SPLINE
  5
222
330
1F
100
AcDbEntity
  8
0
  6
Continuous
 62
     7
370
    25
100
AcDbSpline
210
0.0
220
0.0
230
1.0
 70
     8
 71
     3
 72
    11
 73
     7
 74
     0
 42
0.00000001
 43
0.00000001
 40
0.0
 40
0.0
 40
0.0
 40
0.0
 40
0.2497319698433378
 40
0.5000251141114277
 40
0.8819169336526694
 40
1.0
 40
1.0
 40
1.0
 40
1.0
 10
26.05823706459992
 20
147.5870462354114
 30
0.0
 10
25.38384848944719
 20
147.4651651015349
 30
0.0
 10
24.03355591594239
 20
147.221128953849
 30
0.0
 10
21.65495877121495
 20
147.0917740727857
 30
0.0
 10
19.64857200661713
 20
147.2663864617616
 30
0.0
 10
18.32220850234811
 20
147.5257825801347
 30
0.0
 10
18.00895062861127
 20
147.5870462354114
 30
0.0
  0
SPLINE
  5
223
330
1F
100
AcDbEntity
  8
0
  6
Continuous
 62
     7
370
    25
100
AcDbSpline
210
0.0
220
0.0
230
1.0
 70
     8
 71
     3
 72
    11
 73
     7
 74
     0
 42
0.00000001
 43
0.00000001
 40
0.0
 40
0.0
 40
0.0
 40
0.0
 40
0.1755702971684319
 40
0.4954273686125988
 40
0.8115831191424551
 40
1.0
 40
1.0
 40
1.0
 40
1.0
 10
26.05823706459992
 20
147.5870462354114
 30
0.0
 10
26.09074028280023
 20
147.5924810535736
 30
0.0
 10
26.18245843857094
 20
147.6078171195506
 30
0.0
 10
26.40431511857447
 20
147.6166605272403
 30
0.0
 10
26.67670622580377
 20
147.6083460050581
 30
0.0
 10
26.85353231922324
 20
147.5928374286241
 30
0.0
 10
26.91956249784142
 20
147.5870462354114
 30
0.0
  0
SPLINE
  5
224
330
1F
100
AcDbEntity
  8
0
  6
Continuous
 62
     7
370
    25
100
AcDbSpline
210
0.0
220
0.0
230
1.0
 70
     8
 71
     3
 72
    11
 73
     7
 74
     0
 42
0.00000001
 43
0.00000001
 40
0.0
 40
0.0
 40
0.0
 40
0.0
 40
0.2497319698433385
 40
0.5000251141114282
 40
0.8819169336526688
 40
1.0
 40
1.0
 40
1.0
 40
1.0
 10
53.6185443806414
 20
147.5870462354114
 30
0.0
 10
52.88626694017588
 20
147.4651651015349
 30
0.0
 10
51.4200665535786
 20
147.221128953849
 30
0.0
 10
48.81252837757846
 20
147.0917740727857
 30
0.0
 10
46.57711330444557
 20
147.2663864617616
 30
0.0
 10
45.0899216358277
 20
147.5257825801347
 30
0.0
 10
44.73867968861573
 20
147.5870462354114
 30
0.0
  0
SPLINE
  5
225
330
1F
100
AcDbEntity
  8
0
  6
Continuous
 62
     7
370
    25
100
AcDbSpline
210
0.0
220
0.0
230
1.0
 70
     8
 71
     3
 72
     9
 73
     5
 74
     0
 42
0.00000001
 43
0.00000001
 40
0.0
 40
0.0
 40
0.0
 40
0.0
 40
0.048685755988283
 40
1.0
 40
1.0
 40
1.0
 40
1.0
 10
53.72444704544024
 20
147.6032827964853
 30
0.0
 10
53.72402450527191
 20
147.6031815293262
 30
0.0
 10
53.71534557732328
 20
147.6011015131672
 30
0.0
 10
53.68041498253438
 20
147.5938985330224
 30
0.0
 10
53.64718501015992
 20
147.5870462354114
 30
0.0
  0
ARC
  5
226
330
1F
100
AcDbEntity
  8
0
  6
Continuous
 62
     7
370
    25
100
AcDbCircle
 10
26.3155985915
 20
148.5803288177
 30
0.0
 40
1.026082474205964
100
AcDbArc
 50
180.7856866483
 51
255.4739867895
  0
SPLINE
  5
227
330
1F
100
AcDbEntity
  8
0
  6
Continuous
 62
     7
370
    25
100
AcDbSpline
210
0.0
220
0.0
230
1.0
 70
     8
 71
     3
 72
    11
 73
     7
 74
     0
 42
0.00000001
 43
0.00000001
 40
0.0
 40
0.0
 40
0.0
 40
0.0
 40
0.1883467346483285
 40
0.5045742105936694
 40
0.8244987390895767
 40
1.0
 40
1.0
 40
1.0
 40
1.0
 10
26.99265433953121
 20
148.5662587755493
 30
0.0
 10
26.86176097010797
 20
148.5720502207473
 30
0.0
 10
26.51110228376549
 20
148.5875652966759
 30
0.0
 10
25.97220623219075
 20
148.5958694527751
 30
0.0
 10
25.53409680595757
 20
148.5870365752211
 30
0.0
 10
25.35356482974868
 20
148.5716938374382
 30
0.0
 10
25.28961258879393
 20
148.5662587755495
 30
0.0
  0
LINE
  5
228
330
1F
100
AcDbEntity
  8
0
  6
Continuous
 62
     7
370
    25
100
AcDbLine
 10
25.2896125888
 20
148.5662587755
 30
0.0
 11
25.2896125888
 21
161.038800523
 31
0.0
  0
ARC
  5
229
330
1F
100
AcDbEntity
  8
0
  6
Continuous
 62
     7
370
    25
100
AcDbCircle
 10
53.3651468895
 20
148.4596791632
 30
0.0
 40
0.9086795447912257
100
AcDbArc
 50
286.1923821461
 51
6.7357638105
  0
SPLINE
  5
22A
330
1F
100
AcDbEntity
  8
0
  6
Continuous
 62
     7
370
    25
100
AcDbSpline
210
0.0
220
0.0
230
1.0
 70
     8
 71
     3
 72
    11
 73
     7
 74
     0
 42
0.00000001
 43
0.00000001
 40
0.0
 40
0.0
 40
0.0
 40
0.0
 40
0.2497158009045062
 40
0.499999974331176
 40
0.7496752808048255
 40
0.9999999999999999
 40
0.9999999999999999
 40
0.9999999999999999
 40
0.9999999999999999
 10
45.48877013303262
 20
148.5662587755493
 30
0.0
 10
46.21807826945584
 20
148.4443986243834
 30
0.0
 10
47.67835450416067
 20
148.2004009589004
 30
0.0
 10
49.87637736483716
 20
148.091681422993
 30
0.0
 10
52.07618387897661
 20
148.2002038485097
 30
0.0
 10
53.53646533774157
 20
148.4441348586067
 30
0.0
 10
54.26755439243172
 20
148.5662587755482
 30
0.0
  0
LINE
  5
22B
330
1F
100
AcDbEntity
  8
0
  6
Continuous
 62
     7
370
    25
100
AcDbLine
 10
54.2675543924
 20
148.5662587755
 30
0.0
 11
54.2675543924
 21
161.038800523
 31
0.0
  0
ARC
  5
22C
330
1F
100
AcDbEntity
  8
0
  6
Continuous
 62
     7
370
    25
100
AcDbCircle
 10
18.2445997245
 20
148.4736017344
 30
0.0
 40
0.9173391679913009
100
AcDbArc
 50
174.202878985
 51
255.1147928552
  0
SPLINE
  5
22D
330
1F
100
AcDbEntity
  8
0
  6
Continuous
 62
     7
370
    25
100
AcDbSpline
210
0.0
220
0.0
230
1.0
 70
     8
 71
     3
 72
    11
 73
     7
 74
     0
 42
0.00000001
 43
0.00000001
 40
0.0
 40
0.0
 40
0.0
 40
0.0
 40
0.249715800904311
 40
0.4999999743307847
 40
0.7496752808046284
 40
1.0
 40
1.0
 40
1.0
 40
1.0
 10
17.33195202588422
 20
148.5662587755493
 30
0.0
 10
17.99304431656284
 20
148.4443986243834
 30
0.0
 10
19.31673359522515
 20
148.2004009589004
 30
0.0
 10
21.30916435988911
 20
148.091681422993
 30
0.0
 10
23.30321194396801
 20
148.2002038485099
 30
0.0
 10
24.62690595805994
 20
148.4441348586076
 30
0.0
 10
25.28961258879393
 20
148.5662587755495
 30
0.0
  0
LINE
  5
22E
330
1F
100
AcDbEntity
  8
0
  6
Continuous
 62
     7
370
    25
100
AcDbLine
 10
17.3319520259
 20
161.038800523
 30
0.0
 11
17.3319520259
 21
148.5662587755
 31
0.0
  0
LINE
  5
22F
330
1F
100
AcDbEntity
  8
0
  6
Continuous
 62
     7
370
    25
100
AcDbLine
 10
265.6280678194
 20
162.038800523
 30
0.0
 11
216.0280823801
 21
162.038800523
 31
0.0
  0
LINE
  5
230
330
1F
100
AcDbEntity
  8
0
  6
Continuous
 62
     7
370
    25
100
AcDbLine
 10
215.5280678194
 20
166.038800523
 30
0.0
 11
266.1280529651
 21
166.038800523
 31
0.0
  0
ELLIPSE
  5
231
330
1F
100
AcDbEntity
  8
0
  6
Continuous
 62
     7
370
    25
100
AcDbEllipse
 10
261.0353153768
 20
161.038800523
 30
0.0
 11
1.733133418487171
 21
0.0
 31
0.0
210
0.0
220
0.0
230
1.0
 40
0.5769896243
 41
1.570796326794897
 42
3.141592653589793
  0
LINE
  5
232
330
1F
100
AcDbEntity
  8
0
  6
Continuous
 62
     7
370
    25
100
AcDbLine
 10
259.3021819584
 20
161.038800523
 30
0.0
 11
250.9148953665
 21
161.038800523
 31
0.0
  0
ELLIPSE
  5
233
330
1F
100
AcDbEntity
  8
0
  6
Continuous
 62
     7
370
    25
100
AcDbEllipse
 10
250.9127281108
 20
161.038800523
 30
0.0
 11
0.0
 21
1.0
 31
0.0
210
0.0
220
0.0
230
1.0
 40
0.0021672557
 41
4.71238898038469
 42
6.283185307179586
  0
LINE
  5
234
330
1F
100
AcDbEntity
  8
0
  6
Continuous
 62
     7
370
    25
100
AcDbLine
 10
250.9148953665
 20
161.038800523
 30
0.0
 11
249.181761948
 21
161.038800523
 31
0.0
  0
ELLIPSE
  5
235
330
1F
100
AcDbEntity
  8
0
  6
Continuous
 62
     7
370
    25
100
AcDbEllipse
 10
250.9127281108
 20
161.038800523
 30
0.0
 11
1.730966162790622
 21
0.0
 31
0.0
210
0.0
220
0.0
230
1.0
 40
0.577712044
 41
1.570796326794897
 42
3.141592653589793
  0
LINE
  5
236
330
1F
100
AcDbEntity
  8
0
  6
Continuous
 62
     7
370
    25
100
AcDbLine
 10
249.181761948
 20
161.038800523
 30
0.0
 11
232.4386139718
 21
161.038800523
 31
0.0
  0
ELLIPSE
  5
237
330
1F
100
AcDbEntity
  8
0
  6
Continuous
 62
     7
370
    25
100
AcDbEllipse
 10
230.7054805533
 20
161.038800523
 30
0.0
 11
1.733133418487114
 21
0.0
 31
0.0
210
0.0
220
0.0
230
1.0
 40
0.5769896243
 41
0.0
 42
1.570796326794897
  0
LINE
  5
238
330
1F
100
AcDbEntity
  8
0
  6
Continuous
 62
     7
370
    25
100
AcDbLine
 10
232.4386139718
 20
161.038800523
 30
0.0
 11
230.707647809
 21
161.038800523
 31
0.0
  0
ELLIPSE
  5
239
330
1F
100
AcDbEntity
  8
0
  6
Continuous
 62
     7
370
    25
100
AcDbEllipse
 10
230.7054805533
 20
161.038800523
 30
0.0
 11
0.0
 21
1.0
 31
0.0
210
0.0
220
0.0
230
1.0
 40
0.0021672557
 41
4.71238898038469
 42
6.283185307179586
  0
ELLIPSE
  5
23A
330
1F
100
AcDbEntity
  8
0
  6
Continuous
 62
     7
370
    25
100
AcDbEllipse
 10
220.6208202619
 20
161.038800523
 30
0.0
 11
1.730966162790594
 21
0.0
 31
0.0
210
0.0
220
0.0
230
1.0
 40
0.577712044
 41
0.0
 42
1.570796326794897
  0
LINE
  5
23B
330
1F
100
AcDbEntity
  8
0
  6
Continuous
 62
     7
370
    25
100
AcDbLine
 10
230.707647809
 20
161.038800523
 30
0.0
 11
222.3517864247
 21
161.038800523
 31
0.0
  0
SPLINE
  5
23C
330
1F
100
AcDbEntity
  8
0
  6
Continuous
 62
     7
370
    25
100
AcDbSpline
210
0.0
220
0.0
230
1.0
 70
     8
 71
     3
 72
    11
 73
     7
 74
     0
 42
0.00000001
 43
0.00000001
 40
0.0
 40
0.0
 40
0.0
 40
0.0
 40
0.175570297168431
 40
0.4954273686125963
 40
0.8115831191424632
 40
0.9999999999999999
 40
0.9999999999999999
 40
0.9999999999999999
 40
0.9999999999999999
 10
249.2790439245877
 20
147.5870462354115
 30
0.0
 10
249.3406914736899
 20
147.5924810535737
 30
0.0
 10
249.514649617668
 20
147.6078171195507
 30
0.0
 10
249.7873580951673
 20
147.6166605272404
 30
0.0
 10
250.0204235925182
 20
147.6083460050582
 30
0.0
 10
250.1188384711604
 20
147.5928374286242
 30
0.0
 10
250.1555884320387
 20
147.5870462354115
 30
0.0
  0
ARC
  5
23D
330
1F
100
AcDbEntity
  8
0
  6
Continuous
 62
     7
370
    25
100
AcDbCircle
 10
581.8703581602
 20
181.1234845505
 30
0.0
 40
334.277841024239
100
AcDbArc
 50
185.5892231584
 51
185.75788812
  0
SPLINE
  5
23E
330
1F
100
AcDbEntity
  8
0
  6
Continuous
 62
     7
370
    25
100
AcDbSpline
210
0.0
220
0.0
230
1.0
 70
     8
 71
     3
 72
    11
 73
     7
 74
     0
 42
0.00000001
 43
0.00000001
 40
0.0
 40
0.0
 40
0.0
 40
0.0
 40
0.1883467346482264
 40
0.5045742105933777
 40
0.8244987390890784
 40
1.0
 40
1.0
 40
1.0
 40
1.0
 10
250.9148953664742
 20
148.5662587755494
 30
0.0
 10
250.8425496884785
 20
148.5720502207474
 30
0.0
 10
250.648738187405
 20
148.587565296676
 30
0.0
 10
250.1884279823939
 20
148.5958694527752
 30
0.0
 10
249.6488886201754
 20
148.5870365752212
 30
0.0
 10
249.3039530564255
 20
148.5716938374382
 30
0.0
 10
249.1817619479577
 20
148.5662587755494
 30
0.0
  0
ARC
  5
23F
330
1F
100
AcDbEntity
  8
0
  6
Continuous
 62
     7
370
    25
100
AcDbCircle
 10
249.8881878456
 20
148.5783950892
 30
0.0
 40
1.026779247749807
100
AcDbArc
 50
285.0953741522
 51
359.3227602269
  0
LINE
  5
240
330
1F
100
AcDbEntity
  8
0
  6
Continuous
 62
     7
370
    25
100
AcDbLine
 10
250.9148953665
 20
161.038800523
 30
0.0
 11
250.9148953665
 21
148.5662587755
 31
0.0
  0
LINE
  5
241
330
1F
100
AcDbEntity
  8
0
  6
Continuous
 62
     7
370
    25
100
AcDbLine
 10
249.181761948
 20
148.5662587755
 30
0.0
 11
249.181761948
 21
161.038800523
 31
0.0
  0
SPLINE
  5
242
330
1F
100
AcDbEntity
  8
0
  6
Continuous
 62
     7
370
    25
100
AcDbSpline
210
0.0
220
0.0
230
1.0
 70
     8
 71
     3
 72
    11
 73
     7
 74
     0
 42
0.00000001
 43
0.00000001
 40
0.0
 40
0.0
 40
0.0
 40
0.0
 40
0.2500096864632719
 40
0.5005826195738755
 40
0.882015585887548
 40
1.0
 40
1.0
 40
1.0
 40
1.0
 10
249.2790439245877
 20
147.5870462354115
 30
0.0
 10
247.8704223345304
 20
147.4650461055747
 30
0.0
 10
245.0500056718232
 20
147.2207709918943
 30
0.0
 10
240.0615391202566
 20
147.0918724224161
 30
0.0
 10
235.8193086268333
 20
147.2667120877933
 30
0.0
 10
233.0074075308167
 20
147.5258309343527
 30
0.0
 10
232.3431124614848
 20
147.5870462354115
 30
0.0
  0
ARC
  5
243
330
1F
100
AcDbEntity
  8
0
  6
Continuous
 62
     7
370
    25
100
AcDbCircle
 10
564.8887406564
 20
115.6485041949
 30
0.0
 40
334.0758376465423
100
AcDbArc
 50
174.3452548254
 51
174.5139918582
  0
SPLINE
  5
244
330
1F
100
AcDbEntity
  8
0
  6
Continuous
 62
     7
370
    25
100
AcDbSpline
210
0.0
220
0.0
230
1.0
 70
     8
 71
     3
 72
    11
 73
     7
 74
     0
 42
0.00000001
 43
0.00000001
 40
0.0
 40
0.0
 40
0.0
 40
0.0
 40
0.2494385017247713
 40
0.4994432776068949
 40
0.7493957302433195
 40
1.0
 40
1.0
 40
1.0
 40
1.0
 10
232.4386139718214
 20
148.5662587755494
 30
0.0
 10
233.8280246170633
 20
148.444517560747
 30
0.0
 10
236.6100001413037
 20
148.2007587547875
 30
0.0
 10
240.8005499778631
 20
148.0916823575834
 30
0.0
 10
244.9976532447359
 20
148.1998455898151
 30
0.0
 10
247.7858487986972
 20
148.4440150624176
 30
0.0
 10
249.1817619479577
 20
148.5662587755494
 30
0.0
  0
LINE
  5
245
330
1F
100
AcDbEntity
  8
0
  6
Continuous
 62
     7
370
    25
100
AcDbLine
 10
232.4386139718
 20
161.038800523
 30
0.0
 11
232.4386139718
 21
148.5662587755
 31
0.0
  0
SPLINE
  5
246
330
1F
100
AcDbEntity
  8
0
  6
Continuous
 62
     7
370
    25
100
AcDbSpline
210
0.0
220
0.0
230
1.0
 70
     8
 71
     3
 72
    11
 73
     7
 74
     0
 42
0.00000001
 43
0.00000001
 40
0.0
 40
0.0
 40
0.0
 40
0.0
 40
0.1883467346500049
 40
0.5045742105981019
 40
0.824498739096787
 40
1.0
 40
1.0
 40
1.0
 40
1.0
 10
232.4386139718214
 20
148.5662587755494
 30
0.0
 10
232.3074591424698
 20
148.5720502207474
 30
0.0
 10
231.9561000142681
 20
148.587565296676
 30
0.0
 10
231.4110963835935
 20
148.5958694527753
 30
0.0
 10
230.9629019491508
 20
148.5870365752208
 30
0.0
 10
230.7744172490344
 20
148.5716938374394
 30
0.0
 10
230.7076478090111
 20
148.5662587755513
 30
0.0
  0
LINE
  5
247
330
1F
100
AcDbEntity
  8
0
  6
Continuous
 62
     7
370
    25
100
AcDbLine
 10
230.707647809
 20
148.5662587756
 30
0.0
 11
230.707647809
 21
161.038800523
 31
0.0
  0
SPLINE
  5
248
330
1F
100
AcDbEntity
  8
0
  6
Continuous
 62
     7
370
    25
100
AcDbSpline
210
0.0
220
0.0
230
1.0
 70
     8
 71
     3
 72
    11
 73
     7
 74
     0
 42
0.00000001
 43
0.00000001
 40
0.0
 40
0.0
 40
0.0
 40
0.0
 40
0.1755702971684407
 40
0.4954273686126004
 40
0.8115831191424576
 40
1.0
 40
1.0
 40
1.0
 40
1.0
 10
231.4676640589596
 20
147.5870462354115
 30
0.0
 10
231.5015850020102
 20
147.5924810535736
 30
0.0
 10
231.5973037188286
 20
147.6078171195507
 30
0.0
 10
231.824251550396
 20
147.6166605272404
 30
0.0
 10
232.0997420815454
 20
147.6083460050582
 30
0.0
 10
232.2769425020972
 20
147.5928374286242
 30
0.0
 10
232.3431124614848
 20
147.5870462354115
 30
0.0
  0
ARC
  5
249
330
1F
100
AcDbEntity
  8
0
  6
Continuous
 62
     7
370
    25
100
AcDbCircle
 10
231.7343002099
 20
148.5785457487
 30
0.0
 40
1.026725923458104
100
AcDbArc
 50
180.6856829997
 51
254.9480022117
  0
SPLINE
  5
24A
330
1F
100
AcDbEntity
  8
0
  6
Continuous
 62
     7
370
    25
100
AcDbSpline
210
0.0
220
0.0
230
1.0
 70
     8
 71
     3
 72
    11
 73
     7
 74
     0
 42
0.00000001
 43
0.00000001
 40
0.0
 40
0.0
 40
0.0
 40
0.0
 40
0.2497319698433379
 40
0.5000251141114277
 40
0.8819169336526689
 40
1.0
 40
1.0
 40
1.0
 40
1.0
 10
231.4676640589596
 20
147.5870462354115
 30
0.0
 10
230.7598969869926
 20
147.465165101535
 30
0.0
 10
229.3427724148097
 20
147.2211289538491
 30
0.0
 10
226.8456691951541
 20
147.0917740727858
 30
0.0
 10
224.7381913171278
 20
147.2663864617617
 30
0.0
 10
223.3447031021839
 20
147.5257825801347
 30
0.0
 10
223.0155918488317
 20
147.5870462354115
 30
0.0
  0
SPLINE
  5
24B
330
1F
100
AcDbEntity
  8
0
  6
Continuous
 62
     7
370
    25
100
AcDbSpline
210
0.0
220
0.0
230
1.0
 70
     8
 71
     3
 72
    11
 73
     7
 74
     0
 42
0.00000001
 43
0.00000001
 40
0.0
 40
0.0
 40
0.0
 40
0.0
 40
0.2497319698433377
 40
0.5000251141114279
 40
0.8819169336526684
 40
0.9999999999999999
 40
0.9999999999999999
 40
0.9999999999999999
 40
0.9999999999999999
 10
258.6394476850136
 20
147.5870462354115
 30
0.0
 10
257.9401602620913
 20
147.465165101535
 30
0.0
 10
256.5400140426754
 20
147.2211289538491
 30
0.0
 10
254.0492315929152
 20
147.0917740727858
 30
0.0
 10
251.9128798812286
 20
147.2663864617617
 30
0.0
 10
250.491327762041
 20
147.5257825801348
 30
0.0
 10
250.1555884320387
 20
147.5870462354115
 30
0.0
  0
SPLINE
  5
24C
330
1F
100
AcDbEntity
  8
0
  6
Continuous
 62
     7
370
    25
100
AcDbSpline
210
0.0
220
0.0
230
1.0
 70
     8
 71
     3
 72
     9
 73
     5
 74
     0
 42
0.00000001
 43
0.00000001
 40
0.0
 40
0.0
 40
0.0
 40
0.0
 40
0.3871787841914578
 40
0.9999999999999999
 40
0.9999999999999999
 40
0.9999999999999999
 40
0.9999999999999999
 10
222.9148930406941
 20
147.606867264865
 30
0.0
 10
222.9194743305575
 20
147.6059645139825
 30
0.0
 10
222.9313068225495
 20
147.6036329015093
 30
0.0
 10
222.9835661960349
 20
147.5933486456133
 30
0.0
 10
223.0155918488317
 20
147.5870462354115
 30
0.0
  0
ARC
  5
24D
330
1F
100
AcDbEntity
  8
0
  6
Continuous
 62
     7
370
    25
100
AcDbCircle
 10
258.3949317617
 20
148.4664120578
 30
0.0
 40
0.9127279367083413
100
AcDbArc
 50
285.5390892353
 51
6.280368218
  0
SPLINE
  5
24E
330
1F
100
AcDbEntity
  8
0
  6
Continuous
 62
     7
370
    25
100
AcDbSpline
210
0.0
220
0.0
230
1.0
 70
     8
 71
     3
 72
    11
 73
     7
 74
     0
 42
0.00000001
 43
0.00000001
 40
0.0
 40
0.0
 40
0.0
 40
0.0
 40
0.2497158009040376
 40
0.499999974330238
 40
0.7496752808043534
 40
1.0
 40
1.0
 40
1.0
 40
1.0
 10
250.9148953664742
 20
148.5662587755494
 30
0.0
 10
251.6116793599308
 20
148.4443986243836
 30
0.0
 10
253.0068332812315
 20
148.2004009589005
 30
0.0
 10
255.1068333636168
 20
148.091681422993
 30
0.0
 10
257.2085375558601
 20
148.2002038485104
 30
0.0
 10
258.6036964682546
 20
148.444134858609
 30
0.0
 10
259.3021819583516
 20
148.5662587755513
 30
0.0
  0
LINE
  5
24F
330
1F
100
AcDbEntity
  8
0
  6
Continuous
 62
     7
370
    25
100
AcDbLine
 10
259.3021819584
 20
148.5662587756
 30
0.0
 11
259.3021819584
 21
161.038800523
 31
0.0
  0
ARC
  5
250
330
1F
100
AcDbEntity
  8
0
  6
Continuous
 62
     7
370
    25
100
AcDbCircle
 10
223.2594290801
 20
148.4669449921
 30
0.0
 40
0.9130599199662583
100
AcDbArc
 50
173.755567523
 51
254.5109019979
  0
SPLINE
  5
251
330
1F
100
AcDbEntity
  8
0
  6
Continuous
 62
     7
370
    25
100
AcDbSpline
210
0.0
220
0.0
230
1.0
 70
     8
 71
     3
 72
    11
 73
     7
 74
     0
 42
0.00000001
 43
0.00000001
 40
0.0
 40
0.0
 40
0.0
 40
0.0
 40
0.2497158009040377
 40
0.499999974330238
 40
0.7496752808043535
 40
1.0
 40
1.0
 40
1.0
 40
1.0
 10
222.3517864247328
 20
148.5662587755494
 30
0.0
 10
223.0459597310015
 20
148.4443986243835
 30
0.0
 10
224.4358863358002
 20
148.2004009589005
 30
0.0
 10
226.5280182074329
 20
148.091681422993
 30
0.0
 10
228.6218478040213
 20
148.2002038485104
 30
0.0
 10
230.0117793812132
 20
148.444134858609
 30
0.0
 10
230.7076478090111
 20
148.5662587755513
 30
0.0
  0
LINE
  5
252
330
1F
100
AcDbEntity
  8
0
  6
Continuous
 62
     7
370
    25
100
AcDbLine
 10
222.3517864247
 20
161.038800523
 30
0.0
 11
222.3517864247
 21
148.5662587755
 31
0.0
  0
ARC
  5
253
330
1F
100
AcDbEntity
  8
0
  6
Continuous
 62
     7
370
    25
100
AcDbCircle
 10
240.8280678194
 20
108.088800523
 30
0.0
 40
10.30000000000001
100
AcDbArc
 50
199.9280483469
 51
214.4663264937
  0
SPLINE
  5
254
330
1F
100
AcDbEntity
  8
0
  6
Continuous
 62
     7
370
    25
100
AcDbSpline
210
0.0
220
0.0
230
1.0
 70
    24
 71
     3
 72
    13
 73
     9
 74
     0
 42
0.00000001
 43
0.00000001
 40
0.0
 40
0.0
 40
0.0
 40
0.0
 40
0.0295448902054262
 40
0.2606471239688196
 40
0.4913152552054731
 40
0.7308682638478781
 40
0.9709134921287367
 40
1.0
 40
1.0
 40
1.0
 40
1.0
 10
231.1448175404491
 20
104.578150435708
 30
0.0
 10
231.1484948749009
 20
104.6532634324256
 30
0.0
 10
231.1809365811344
 20
105.3159156349209
 30
0.0
 10
231.2439995298763
 20
106.6040353650909
 30
0.0
 10
231.337110118834
 20
108.5059062594421
 30
0.0
 10
231.4315636123875
 20
110.4352072365894
 30
0.0
 10
231.4969303501164
 20
111.7703840122606
 30
0.0
 10
231.5304269196012
 20
112.4545827836004
 30
0.0
 10
231.5340470732327
 20
112.5285278085633
 30
0.0
  0
ARC
  5
255
330
1F
100
AcDbEntity
  8
0
  6
Continuous
 62
     7
370
    25
100
AcDbCircle
 10
240.8280678194
 20
108.088800523
 30
0.0
 40
10.3
100
AcDbArc
 50
139.9280483469
 51
154.4663264937
  0
SPLINE
  5
256
330
1F
100
AcDbEntity
  8
0
  6
Continuous
 62
     7
370
    25
100
AcDbSpline
210
0.0
220
0.0
230
1.0
 70
    24
 71
     3
 72
    11
 73
     7
 74
     0
 42
0.00000001
 43
0.00000001
 40
0.0
 40
0.0
 40
0.0
 40
0.0
 40
0.2431641197380921
 40
0.4936284730588938
 40
0.742170607686329
 40
0.9999999999999999
 40
0.9999999999999999
 40
0.9999999999999999
 40
0.9999999999999999
 10
232.9461305205152
 20
114.719416212121
 30
0.0
 10
233.5042693870821
 20
115.0062259926557
 30
0.0
 10
234.6373034743273
 20
115.5884561102249
 30
0.0
 10
236.4346617999957
 20
116.5120612877285
 30
0.0
 10
238.2699425213307
 20
117.4551535761108
 30
0.0
 10
239.4335165892676
 20
118.0530772167159
 30
0.0
 10
240.0259740614727
 20
118.3575222352549
 30
0.0
  0
ARC
  5
257
330
1F
100
AcDbEntity
  8
0
  6
Continuous
 62
     7
370
    25
100
AcDbCircle
 10
240.8280678194
 20
108.088800523
 30
0.0
 40
10.30000000000001
100
AcDbArc
 50
82.8673793139
 51
94.4663264937
  0
ARC
  5
258
330
1F
100
AcDbEntity
  8
0
  6
Continuous
 62
     7
370
    25
100
AcDbCircle
 10
240.8280678194
 20
108.088800523
 30
0.0
 40
10.3
100
AcDbArc
 50
259.9280483469
 51
273.283071621
  0
SPLINE
  5
259
330
1F
100
AcDbEntity
  8
0
  6
Continuous
 62
     7
370
    25
100
AcDbSpline
210
0.0
220
0.0
230
1.0
 70
    24
 71
     3
 72
    11
 73
     7
 74
     0
 42
0.00000001
 43
0.00000001
 40
0.0
 40
0.0
 40
0.0
 40
0.0
 40
0.2431641197380922
 40
0.4936284730588933
 40
0.742170607686329
 40
1.0
 40
1.0
 40
1.0
 40
1.0
 10
239.0267548393194
 20
97.9475347465976
 30
0.0
 10
238.499300850039
 20
98.28749229361662
 30
0.0
 10
237.4285577337531
 20
98.97761353774011
 30
0.0
 10
235.7300130241341
 20
100.0723689187206
 30
0.0
 10
233.9956307836141
 20
101.1902225022814
 30
0.0
 10
232.8960266873584
 20
101.898945383997
 30
0.0
 10
232.3361408311455
 20
102.259806096319
 30
0.0
  0
ARC
  5
25A
330
1F
100
AcDbEntity
  8
0
  6
Continuous
 62
     7
370
    25
100
AcDbCircle
 10
35.8280678194
 20
108.088800523
 30
0.0
 40
10.3
100
AcDbArc
 50
356.7363618434
 51
11.2746399902
  0
SPLINE
  5
25B
330
1F
100
AcDbEntity
  8
0
  6
Continuous
 62
     7
370
    25
100
AcDbSpline
210
0.0
220
0.0
230
1.0
 70
    24
 71
     3
 72
    13
 73
     9
 74
     0
 42
0.00000001
 43
0.00000001
 40
0.0
 40
0.0
 40
0.0
 40
0.0
 40
0.029544890205426
 40
0.2606471239688198
 40
0.4913152552054734
 40
0.7308682638478781
 40
0.9709134921287366
 40
1.0
 40
1.0
 40
1.0
 40
1.0
 10
46.11136274015744
 20
107.5024170542583
 30
0.0
 10
46.07840242231095
 20
107.43482191751
 30
0.0
 10
45.78762415263208
 20
106.8384928106756
 30
0.0
 10
45.22238461239138
 20
105.6792975566716
 30
0.0
 10
44.38782505651949
 20
103.9677798593458
 30
0.0
 10
43.54122891194766
 20
102.2315774832208
 30
0.0
 10
42.95534027974664
 20
101.0300349981831
 30
0.0
 10
42.65510716485252
 20
100.4143158612455
 30
0.0
 10
42.62265936443911
 20
100.3477717970669
 30
0.0
  0
ARC
  5
25C
330
1F
100
AcDbEntity
  8
0
  6
Continuous
 62
     7
370
    25
100
AcDbCircle
 10
35.8280678194
 20
108.088800523
 30
0.0
 40
10.30000000000001
100
AcDbArc
 50
296.7363618434
 51
311.2746399902
  0
SPLINE
  5
25D
330
1F
100
AcDbEntity
  8
0
  6
Continuous
 62
     7
370
    25
100
AcDbSpline
210
0.0
220
0.0
230
1.0
 70
    24
 71
     3
 72
     9
 73
     5
 74
     0
 42
0.00000001
 43
0.00000001
 40
0.0
 40
0.0
 40
0.0
 40
0.0
 40
0.5369239876999345
 40
1.0
 40
1.0
 40
1.0
 40
1.0
 10
40.46189229947271
 20
98.89001415263844
 30
0.0
 10
39.83645547382547
 20
98.84621900769217
 30
0.0
 10
38.67160376301536
 20
98.76465225718455
 30
0.0
 10
37.44212262131949
 20
98.67855994122033
 30
0.0
 10
36.87277939702484
 20
98.63869265485394
 30
0.0
  0
SPLINE
  5
25E
330
1F
100
AcDbEntity
  8
0
  6
Continuous
 62
     7
370
    25
100
AcDbSpline
210
0.0
220
0.0
230
1.0
 70
    24
 71
     3
 72
     9
 73
     5
 74
     0
 42
0.00000001
 43
0.00000001
 40
0.0
 40
0.0
 40
0.0
 40
0.0
 40
0.2241850678717836
 40
1.0
 40
1.0
 40
1.0
 40
1.0
 10
36.52001762945688
 20
117.6605151371702
 30
0.0
 10
36.72165471375795
 20
117.6746344294335
 30
0.0
 10
37.62107716956746
 20
117.737614949935
 30
0.0
 10
38.47343085687969
 20
117.7972995603554
 30
0.0
 10
39.13469957495106
 20
117.8436037723378
 30
0.0
  0
ARC
  5
25F
330
1F
100
AcDbEntity
  8
0
  6
Continuous
 62
     7
370
    25
100
AcDbCircle
 10
35.8280678194
 20
108.088800523
 30
0.0
 40
10.30000000000001
100
AcDbArc
 50
56.7363618434
 51
71.2746399902
  0
SPLINE
  5
260
330
1F
100
AcDbEntity
  8
0
  6
Continuous
 62
     7
370
    25
100
AcDbSpline
210
0.0
220
0.0
230
1.0
 70
    24
 71
     3
 72
    11
 73
     7
 74
     0
 42
0.00000001
 43
0.00000001
 40
0.0
 40
0.0
 40
0.0
 40
0.0
 40
0.2431641197380915
 40
0.4936284730588936
 40
0.7421706076863279
 40
1.0
 40
1.0
 40
1.0
 40
1.0
 10
41.4775382600702
 20
116.7012034246304
 30
0.0
 10
41.82849182014613
 20
116.1810011147038
 30
0.0
 10
42.54093521089582
 20
115.1249790658615
 30
0.0
 10
43.67110073225695
 20
113.4497867279231
 30
0.0
 10
44.82511157341752
 20
111.7392495698952
 30
0.0
 10
45.55675827644389
 20
110.6547633350722
 30
0.0
 10
45.92929112000466
 20
110.1025750463941
 30
0.0
  0
LWPOLYLINE
  5
261
330
1F
100
AcDbEntity
  8
0
  6
Continuous
 62
     7
370
    25
100
AcDbPolyline
 90
        3
 70
   128
 43
0.0
 10
236.3717887245
 20
116.7608289263
 10
237.8205875522
 20
117.3633658736
 10
237.8486201095
 20
117.3724092687
  0
LWPOLYLINE
  5
262
330
1F
100
AcDbEntity
  8
0
  6
Continuous
 62
     7
370
    25
100
AcDbPolyline
 90
        3
 70
   128
 43
0.0
 10
234.9394139456
 20
115.8596599063
 10
235.0384051845
 20
115.9336909986
 10
236.3717887245
 20
116.7608289263
  0
ARC
  5
263
330
1F
100
AcDbEntity
  8
0
  6
Continuous
 62
     7
370
    25
100
AcDbCircle
 10
240.8280678194
 20
108.088800523
 30
0.0
 40
14.875
100
AcDbArc
 50
51.4589725089
 51
297.1971874203
  0
LWPOLYLINE
  5
264
330
1F
100
AcDbEntity
  8
0
  6
Continuous
 62
     7
370
    25
100
AcDbPolyline
 90
        3
 70
   128
 43
0.0
 10
249.2941627793
 20
95.8580662389
 10
249.2627992364
 20
95.8364158195
 10
247.6267500283
 20
94.8583982154
  0
ARC
  5
265
330
1F
100
AcDbEntity
  8
0
  6
Continuous
 62
     7
370
    25
100
AcDbCircle
 10
240.8280678194
 20
108.088800523
 30
0.0
 40
10.57499999999999
100
AcDbArc
 50
79.8310175086
 51
276.4243237068
  0
ARC
  5
266
330
1F
100
AcDbEntity
  8
0
  6
Continuous
 62
     7
370
    25
100
AcDbCircle
 10
240.8280678194
 20
108.088800523
 30
0.0
 40
16.19999999999999
100
AcDbArc
 50
117.1971874203
 51
314.1494537325
  0
ARC
  5
267
330
1F
100
AcDbEntity
  8
0
  6
Continuous
 62
     7
370
    25
100
AcDbCircle
 10
240.8280678194
 20
108.088800523
 30
0.0
 40
16.20000000000001
100
AcDbArc
 50
42.0003016336
 51
117.1971874203
  0
SPLINE
  5
268
330
1F
100
AcDbEntity
  8
0
  6
Continuous
 62
     7
370
    25
100
AcDbSpline
210
0.0
220
0.0
230
1.0
 70
     8
 71
     3
 72
     9
 73
     5
 74
     0
 42
0.00000001
 43
0.00000001
 40
0.0
 40
0.0
 40
0.0
 40
0.0
 40
0.5850553834534138
 40
1.0
 40
1.0
 40
1.0
 40
1.0
 10
228.1594692349053
 20
119.8487584270716
 30
0.0
 10
227.7606824383734
 20
119.6081959272943
 30
0.0
 10
227.0790601376298
 20
119.1970169063316
 30
0.0
 10
226.5686205916597
 20
118.5493508172965
 30
0.0
 10
226.356816449987
 20
118.2806052603317
 30
0.0
  0
SPLINE
  5
269
330
1F
100
AcDbEntity
  8
0
  6
Continuous
 62
     7
370
    25
100
AcDbSpline
210
0.0
220
0.0
230
1.0
 70
    24
 71
     3
 72
    11
 73
     7
 74
     0
 42
0.00000001
 43
0.00000001
 40
0.0
 40
0.0
 40
0.0
 40
0.0
 40
0.2379053903768485
 40
0.4814905141303179
 40
0.7366519444348061
 40
1.0
 40
1.0
 40
1.0
 40
1.0
 10
238.6424027541068
 20
125.235603963373
 30
0.0
 10
237.8299322233675
 20
124.8181012439412
 30
0.0
 10
236.1855943084437
 20
123.9731283800998
 30
0.0
 10
233.5593908608737
 20
122.6236061024808
 30
0.0
 10
230.8339130705656
 20
121.2230699031318
 30
0.0
 10
229.0602849801201
 20
120.3116589374346
 30
0.0
 10
228.1594692349053
 20
119.8487584270716
 30
0.0
  0
SPLINE
  5
26A
330
1F
100
AcDbEntity
  8
0
  6
Continuous
 62
     7
370
    25
100
AcDbSpline
210
0.0
220
0.0
230
1.0
 70
     8
 71
     3
 72
     9
 73
     5
 74
     0
 42
0.00000001
 43
0.00000001
 40
0.0
 40
0.0
 40
0.0
 40
0.0
 40
0.5841917497409946
 40
1.0
 40
1.0
 40
1.0
 40
1.0
 10
240.9668891499781
 20
125.7882561258864
 30
0.0
 10
240.4843334804844
 20
125.755120731998
 30
0.0
 10
239.6583107410197
 20
125.6984006672196
 30
0.0
 10
238.9407644301213
 20
125.3715225721372
 30
0.0
 10
238.6424027541068
 20
125.235603963373
 30
0.0
  0
ARC
  5
26B
330
1F
100
AcDbEntity
  8
0
  6
Continuous
 62
     7
370
    25
100
AcDbCircle
 10
240.8280678194
 20
108.088800523
 30
0.0
 40
17.7
100
AcDbArc
 50
84.8437509929
 51
89.5506238477
  0
SPLINE
  5
26C
330
1F
100
AcDbEntity
  8
0
  6
Continuous
 62
     7
370
    25
100
AcDbSpline
210
0.0
220
0.0
230
1.0
 70
     8
 71
     3
 72
     9
 73
     5
 74
     0
 42
0.00000001
 43
0.00000001
 40
0.0
 40
0.0
 40
0.0
 40
0.0
 40
0.5850553834536173
 40
1.0
 40
1.0
 40
1.0
 40
1.0
 10
244.6781908194965
 20
124.9401076795494
 30
0.0
 10
244.2704641852255
 20
125.165185926151
 30
0.0
 10
243.5735615571972
 20
125.5498986438991
 30
0.0
 10
242.7574464979386
 20
125.6681192132877
 30
0.0
 10
242.4188039476169
 20
125.7171742021206
 30
0.0
  0
SPLINE
  5
26D
330
1F
100
AcDbEntity
  8
0
  6
Continuous
 62
     7
370
    25
100
AcDbSpline
210
0.0
220
0.0
230
1.0
 70
    24
 71
     3
 72
    11
 73
     7
 74
     0
 42
0.00000001
 43
0.00000001
 40
0.0
 40
0.0
 40
0.0
 40
0.0
 40
0.2328716322111471
 40
0.471026502431323
 40
0.7311421212560294
 40
1.0
 40
1.0
 40
1.0
 40
1.0
 10
254.5848026597982
 20
118.5550437138874
 30
0.0
 10
253.8334805663016
 20
119.0392899630718
 30
0.0
 10
252.3137908791601
 20
120.0187687209737
 30
0.0
 10
249.8529648025113
 20
121.6048338824096
 30
0.0
 10
247.2581346512979
 20
123.2772680872226
 30
0.0
 10
245.5475953659841
 20
124.3797542781193
 30
0.0
 10
244.6781908194965
 20
124.9401076795494
 30
0.0
  0
SPLINE
  5
26E
330
1F
100
AcDbEntity
  8
0
  6
Continuous
 62
     7
370
    25
100
AcDbSpline
210
0.0
220
0.0
230
1.0
 70
     8
 71
     3
 72
     9
 73
     5
 74
     0
 42
0.00000001
 43
0.00000001
 40
0.0
 40
0.0
 40
0.0
 40
0.0
 40
0.5841917497409245
 40
1.0
 40
1.0
 40
1.0
 40
1.0
 10
256.2256566699271
 20
116.8183055255681
 30
0.0
 10
255.9556827423085
 20
117.2196432971457
 30
0.0
 10
255.4935503555736
 20
117.9066399412366
 30
0.0
 10
254.8516924658423
 20
118.3646142273253
 30
0.0
 10
254.5848026597982
 20
118.5550437138874
 30
0.0
  0
ARC
  5
26F
330
1F
100
AcDbEntity
  8
0
  6
Continuous
 62
     7
370
    25
100
AcDbCircle
 10
240.8280678194
 20
108.088800523
 30
0.0
 40
17.70000000000001
100
AcDbArc
 50
324.8437509929
 51
327.1558348381
  0
SPLINE
  5
270
330
1F
100
AcDbEntity
  8
0
  6
Continuous
 62
     7
370
    25
100
AcDbSpline
210
0.0
220
0.0
230
1.0
 70
     8
 71
     3
 72
     9
 73
     5
 74
     0
 42
0.00000001
 43
0.00000001
 40
0.0
 40
0.0
 40
0.0
 40
0.0
 40
0.5850553834536204
 40
0.9999999999999999
 40
0.9999999999999999
 40
0.9999999999999999
 40
0.9999999999999999
 10
253.4966664038672
 20
96.3288426189503
 30
0.0
 10
253.8954532003989
 20
96.56940511872767
 30
0.0
 10
254.5770755011418
 20
96.9805841396903
 30
0.0
 10
255.0875150471116
 20
97.62825022872492
 30
0.0
 10
255.2993191887841
 20
97.89699578568948
 30
0.0
  0
SPLINE
  5
271
330
1F
100
AcDbEntity
  8
0
  6
Continuous
 62
     7
370
    25
100
AcDbSpline
210
0.0
220
0.0
230
1.0
 70
    24
 71
     3
 72
    11
 73
     7
 74
     0
 42
0.00000001
 43
0.00000001
 40
0.0
 40
0.0
 40
0.0
 40
0.0
 40
0.2556279644380978
 40
0.5185037642963868
 40
0.75604679725801
 40
1.0
 40
1.0
 40
1.0
 40
1.0
 10
243.0137328846644
 20
90.94199708264831
 30
0.0
 10
243.8876831470439
 20
91.39109227734976
 30
0.0
 10
245.6603628374198
 20
92.30201589046841
 30
0.0
 10
248.3646319984063
 20
93.69165365094211
 30
0.0
 10
251.0182117126534
 20
95.05524371976482
 30
0.0
 10
252.6632148526908
 20
95.90055842159714
 30
0.0
 10
253.4966664038672
 20
96.3288426189503
 30
0.0
  0
SPLINE
  5
272
330
1F
100
AcDbEntity
  8
0
  6
Continuous
 62
     7
370
    25
100
AcDbSpline
210
0.0
220
0.0
230
1.0
 70
     8
 71
     3
 72
     9
 73
     5
 74
     0
 42
0.00000001
 43
0.00000001
 40
0.0
 40
0.0
 40
0.0
 40
0.0
 40
0.5841917497409272
 40
1.0
 40
1.0
 40
1.0
 40
1.0
 10
240.6892464887929
 20
90.38934492013476
 30
0.0
 10
241.1718021582866
 20
90.42248031402312
 30
0.0
 10
241.9978248977513
 20
90.47920037880156
 30
0.0
 10
242.7153712086499
 20
90.80607847388406
 30
0.0
 10
243.0137328846644
 20
90.94199708264831
 30
0.0
  0
ARC
  5
273
330
1F
100
AcDbEntity
  8
0
  6
Continuous
 62
     7
370
    25
100
AcDbCircle
 10
240.8280678194
 20
108.088800523
 30
0.0
 40
17.69999999999999
100
AcDbArc
 50
264.8437509929
 51
269.5506238477
  0
SPLINE
  5
274
330
1F
100
AcDbEntity
  8
0
  6
Continuous
 62
     7
370
    25
100
AcDbSpline
210
0.0
220
0.0
230
1.0
 70
     8
 71
     3
 72
     9
 73
     5
 74
     0
 42
0.00000001
 43
0.00000001
 40
0.0
 40
0.0
 40
0.0
 40
0.0
 40
0.5850553834536204
 40
1.0
 40
1.0
 40
1.0
 40
1.0
 10
236.9779448192745
 20
91.23749336647175
 30
0.0
 10
237.3856714535455
 20
91.01241511987016
 30
0.0
 10
238.0825740815738
 20
90.62770240212204
 30
0.0
 10
238.8986891408324
 20
90.50948183273341
 30
0.0
 10
239.2373316911541
 20
90.46042684390055
 30
0.0
  0
SPLINE
  5
275
330
1F
100
AcDbEntity
  8
0
  6
Continuous
 62
     7
370
    25
100
AcDbSpline
210
0.0
220
0.0
230
1.0
 70
    24
 71
     3
 72
    11
 73
     7
 74
     0
 42
0.00000001
 43
0.00000001
 40
0.0
 40
0.0
 40
0.0
 40
0.0
 40
0.232871632211147
 40
0.471026502431323
 40
0.7311421212560294
 40
1.0
 40
1.0
 40
1.0
 40
1.0
 10
227.0713329789729
 20
97.62255733213371
 30
0.0
 10
227.8226550724694
 20
97.13831108294941
 30
0.0
 10
229.3423447596109
 20
96.15883232504748
 30
0.0
 10
231.8031708362597
 20
94.57276716361156
 30
0.0
 10
234.398000987473
 20
92.90033295879859
 30
0.0
 10
236.1085402727868
 20
91.7978467679019
 30
0.0
 10
236.9779448192745
 20
91.23749336647175
 30
0.0
  0
SPLINE
  5
276
330
1F
100
AcDbEntity
  8
0
  6
Continuous
 62
     7
370
    25
100
AcDbSpline
210
0.0
220
0.0
230
1.0
 70
     8
 71
     3
 72
     9
 73
     5
 74
     0
 42
0.00000001
 43
0.00000001
 40
0.0
 40
0.0
 40
0.0
 40
0.0
 40
0.5841917497409247
 40
1.0
 40
1.0
 40
1.0
 40
1.0
 10
225.4304789688439
 20
99.35929552045303
 30
0.0
 10
225.7004528964625
 20
98.95795774887544
 30
0.0
 10
226.1625852831973
 20
98.27096110478459
 30
0.0
 10
226.8044431729287
 20
97.81298681869589
 30
0.0
 10
227.0713329789729
 20
97.62255733213371
 30
0.0
  0
ARC
  5
277
330
1F
100
AcDbEntity
  8
0
  6
Continuous
 62
     7
370
    25
100
AcDbCircle
 10
240.8280678194
 20
108.088800523
 30
0.0
 40
17.70000000000002
100
AcDbArc
 50
204.8437509929
 51
209.5506238477
  0
SPLINE
  5
278
330
1F
100
AcDbEntity
  8
0
  6
Continuous
 62
     7
370
    25
100
AcDbSpline
210
0.0
220
0.0
230
1.0
 70
     8
 71
     3
 72
     9
 73
     5
 74
     0
 42
0.00000001
 43
0.00000001
 40
0.0
 40
0.0
 40
0.0
 40
0.0
 40
0.585055383453619
 40
0.9999999999999999
 40
0.9999999999999999
 40
0.9999999999999999
 40
0.9999999999999999
 10
224.3093462347929
 20
102.997451270532
 30
0.0
 10
224.3182860725321
 20
102.5318105241531
 30
0.0
 10
224.3335663998174
 20
101.7359187854424
 30
0.0
 10
224.6392419131063
 20
100.9700321270191
 30
0.0
 10
224.7660803217555
 20
100.6522315812216
 30
0.0
  0
SPLINE
  5
279
330
1F
100
AcDbEntity
  8
0
  6
Continuous
 62
     7
370
    25
100
AcDbSpline
210
0.0
220
0.0
230
1.0
 70
    24
 71
     3
 72
    11
 73
     7
 74
     0
 42
0.00000001
 43
0.00000001
 40
0.0
 40
0.0
 40
0.0
 40
0.0
 40
0.2328716322111485
 40
0.4710265024313259
 40
0.731142121256031
 40
1.0
 40
1.0
 40
1.0
 40
1.0
 10
224.8856679136939
 20
114.769360772496
 30
0.0
 10
224.8419594069612
 20
113.8765736285112
 30
0.0
 10
224.7535507637217
 20
112.0707443746265
 30
0.0
 10
224.6103910801851
 20
109.1465738972355
 30
0.0
 10
224.4594356482658
 20
106.0631679653725
 30
0.0
 10
224.3599242422846
 20
104.0305543946711
 30
0.0
 10
224.3093462347929
 20
102.997451270532
 30
0.0
  0
SPLINE
  5
27A
330
1F
100
AcDbEntity
  8
0
  6
Continuous
 62
     7
370
    25
100
AcDbSpline
210
0.0
220
0.0
230
1.0
 70
     8
 71
     3
 72
     9
 73
     5
 74
     0
 42
0.00000001
 43
0.00000001
 40
0.0
 40
0.0
 40
0.0
 40
0.0
 40
0.5841917497409252
 40
0.9999999999999999
 40
0.9999999999999999
 40
0.9999999999999999
 40
0.9999999999999999
 10
225.5693002994365
 20
117.0587511233288
 30
0.0
 10
225.3567185575614
 20
116.6242779578629
 30
0.0
 10
224.9928282048314
 20
115.8805612489936
 30
0.0
 10
224.9171397836643
 20
115.0957088678224
 30
0.0
 10
224.8856679136939
 20
114.769360772496
 30
0.0
  0
ARC
  5
27B
330
1F
100
AcDbEntity
  8
0
  6
Continuous
 62
     7
370
    25
100
AcDbCircle
 10
240.8280678194
 20
108.088800523
 30
0.0
 40
17.70000000000001
100
AcDbArc
 50
144.8437509929
 51
149.5506238477
  0
LINE
  5
27C
330
1F
100
AcDbEntity
  8
0
  6
Continuous
 62
     7
370
    25
100
AcDbLine
 10
36.5091272438
 20
98.3626163761
 30
0.0
 11
36.1673600158
 21
98.3447058598
 31
0.0
  0
LWPOLYLINE
  5
27D
330
1F
100
AcDbEntity
  8
0
  6
Continuous
 62
     7
370
    25
100
AcDbPolyline
 90
        3
 70
   128
 43
0.0
 10
38.1806434399
 20
98.6268827497
 10
38.06049736
 20
98.5978175209
 10
36.5091272438
 20
98.3626163761
  0
ARC
  5
27E
330
1F
100
AcDbEntity
  8
0
  6
Continuous
 62
     7
370
    25
100
AcDbCircle
 10
35.8280678194
 20
108.088800523
 30
0.0
 40
14.875
100
AcDbArc
 50
232.5576060585
 51
94.0055009168
  0
ARC
  5
27F
330
1F
100
AcDbEntity
  8
0
  6
Continuous
 62
     7
370
    25
100
AcDbCircle
 10
35.8280678194
 20
108.088800523
 30
0.0
 40
14.875
100
AcDbArc
 50
94.0055009168
 51
125.7901119755
  0
ARC
  5
280
330
1F
100
AcDbEntity
  8
0
  6
Continuous
 62
     7
370
    25
100
AcDbCircle
 10
35.8280678194
 20
108.088800523
 30
0.0
 40
10.57500000000001
100
AcDbArc
 50
260.8247607777
 51
97.5229572563
  0
SPLINE
  5
281
330
1F
100
AcDbEntity
  8
0
  6
Continuous
 62
     7
370
    25
100
AcDbSpline
210
0.0
220
0.0
230
1.0
 70
     8
 71
     3
 72
     9
 73
     5
 74
     0
 42
0.00000001
 43
0.00000001
 40
0.0
 40
0.0
 40
0.0
 40
0.0
 40
0.5850553834534129
 40
0.9999999999999999
 40
0.9999999999999999
 40
0.9999999999999999
 40
0.9999999999999999
 10
42.84177663084174
 20
92.29013321503545
 30
0.0
 10
43.30307402623298
 20
92.35421081168627
 30
0.0
 10
44.09154193617405
 20
92.46373479601847
 30
0.0
 10
44.81579057076539
 20
92.85804914811413
 30
0.0
 10
45.1163136427303
 20
93.02166776574327
 30
0.0
  0
SPLINE
  5
282
330
1F
100
AcDbEntity
  8
0
  6
Continuous
 62
     7
370
    25
100
AcDbSpline
210
0.0
220
0.0
230
1.0
 70
    24
 71
     3
 72
    11
 73
     7
 74
     0
 42
0.00000001
 43
0.00000001
 40
0.0
 40
0.0
 40
0.0
 40
0.0
 40
0.2379053903768475
 40
0.4814905141303176
 40
0.7366519444348059
 40
1.0
 40
1.0
 40
1.0
 40
1.0
 10
31.08455708934604
 20
91.46685400781557
 30
0.0
 10
31.99579003605897
 20
91.53066153776045
 30
0.0
 10
33.84001062858227
 20
91.65979993327926
 30
0.0
 10
36.78545051305313
 20
91.86604932791228
 30
0.0
 10
39.84223234587017
 20
92.08009525221298
 30
0.0
 10
41.831459388676
 20
92.21938747662043
 30
0.0
 10
42.84177663084174
 20
92.29013321503545
 30
0.0
  0
SPLINE
  5
283
330
1F
100
AcDbEntity
  8
0
  6
Continuous
 62
     7
370
    25
100
AcDbSpline
210
0.0
220
0.0
230
1.0
 70
     8
 71
     3
 72
     9
 73
     5
 74
     0
 42
0.00000001
 43
0.00000001
 40
0.0
 40
0.0
 40
0.0
 40
0.0
 40
0.5841917497409931
 40
1.0
 40
1.0
 40
1.0
 40
1.0
 10
28.73026751009272
 20
91.87426288638945
 30
0.0
 10
29.18687805847982
 20
91.71468614751349
 30
0.0
 10
29.96848880287936
 20
91.44152799533707
 30
0.0
 10
30.7567793685421
 20
91.45941601970328
 30
0.0
 10
31.08455708934604
 20
91.46685400781557
 30
0.0
  0
ARC
  5
284
330
1F
100
AcDbEntity
  8
0
  6
Continuous
 62
     7
370
    25
100
AcDbCircle
 10
35.8280678194
 20
108.088800523
 30
0.0
 40
17.70000000000001
100
AcDbArc
 50
241.6520644894
 51
246.3589373442
  0
SPLINE
  5
285
330
1F
100
AcDbEntity
  8
0
  6
Continuous
 62
     7
370
    25
100
AcDbSpline
210
0.0
220
0.0
230
1.0
 70
     8
 71
     3
 72
     9
 73
     5
 74
     0
 42
0.00000001
 43
0.00000001
 40
0.0
 40
0.0
 40
0.0
 40
0.0
 40
0.5850553834536204
 40
1.0
 40
1.0
 40
1.0
 40
1.0
 10
25.65287499046934
 20
94.11541686355382
 30
0.0
 10
25.93901651467807
 20
93.74796039877101
 30
0.0
 10
26.42810102240381
 20
93.1198891508599
 30
0.0
 10
27.13171158569067
 20
92.68982861069576
 30
0.0
 10
27.42367100107174
 20
92.5113773047656
 30
0.0
  0
SPLINE
  5
286
330
1F
100
AcDbEntity
  8
0
  6
Continuous
 62
     7
370
    25
100
AcDbSpline
210
0.0
220
0.0
230
1.0
 70
    24
 71
     3
 72
     9
 73
     5
 74
     0
 42
0.00000001
 43
0.00000001
 40
0.0
 40
0.0
 40
0.0
 40
0.0
 40
0.2155049349179627
 40
1.0
 40
1.0
 40
1.0
 40
1.0
 10
23.40926145634911
 20
97.44102194583121
 30
0.0
 10
23.57465369558559
 20
97.19586864157026
 30
0.0
 10
24.34211750934682
 20
96.0582923519402
 30
0.0
 10
25.07664320615073
 20
94.96953871714264
 30
0.0
 10
25.65287499046934
 20
94.11541686355382
 30
0.0
  0
LINE
  5
287
330
1F
100
AcDbEntity
  8
0
  6
Continuous
 62
     7
370
    25
100
AcDbLine
 10
23.8047952419
 20
120.5077745759
 30
0.0
 11
22.9505797639
 21
118.7559464438
 31
0.0
  0
SPLINE
  5
288
330
1F
100
AcDbEntity
  8
0
  6
Continuous
 62
     7
370
    25
100
AcDbSpline
210
0.0
220
0.0
230
1.0
 70
     8
 71
     3
 72
     9
 73
     5
 74
     0
 42
0.00000001
 43
0.00000001
 40
0.0
 40
0.0
 40
0.0
 40
0.0
 40
0.5841917497409221
 40
1.0
 40
1.0
 40
1.0
 40
1.0
 10
25.33476647009909
 20
122.3429447201577
 30
0.0
 10
24.96826368618586
 20
122.0272967550566
 30
0.0
 10
24.34089641495046
 20
121.4869810706239
 30
0.0
 10
23.96224261564372
 20
120.7953574030131
 30
0.0
 10
23.80479524189999
 20
120.5077745759461
 30
0.0
  0
ARC
  5
289
330
1F
100
AcDbEntity
  8
0
  6
Continuous
 62
     7
370
    25
100
AcDbCircle
 10
35.8280678194
 20
108.088800523
 30
0.0
 40
17.7
100
AcDbArc
 50
121.6520644894
 51
126.3589373442
  0
SPLINE
  5
28A
330
1F
100
AcDbEntity
  8
0
  6
Continuous
 62
     7
370
    25
100
AcDbSpline
210
0.0
220
0.0
230
1.0
 70
     8
 71
     3
 72
     9
 73
     5
 74
     0
 42
0.00000001
 43
0.00000001
 40
0.0
 40
0.0
 40
0.0
 40
0.0
 40
0.5850553834536188
 40
1.0
 40
1.0
 40
1.0
 40
1.0
 10
28.81435900792766
 20
123.8874678309856
 30
0.0
 10
28.35306161253655
 20
123.8233902343347
 30
0.0
 10
27.56459370259608
 20
123.7138662500023
 30
0.0
 10
26.84034506800524
 20
123.3195518979069
 30
0.0
 10
26.53982199604069
 20
123.1559332802779
 30
0.0
  0
SPLINE
  5
28B
330
1F
100
AcDbEntity
  8
0
  6
Continuous
 62
     7
370
    25
100
AcDbSpline
210
0.0
220
0.0
230
1.0
 70
    24
 71
     3
 72
    11
 73
     7
 74
     0
 42
0.00000001
 43
0.00000001
 40
0.0
 40
0.0
 40
0.0
 40
0.0
 40
0.2556279644380975
 40
0.5185037642963872
 40
0.7560467972580107
 40
1.0
 40
1.0
 40
1.0
 40
1.0
 10
40.57157854942467
 20
124.7107470382056
 30
0.0
 10
39.59139250853051
 20
124.6421111856703
 30
0.0
 10
37.60322915155369
 20
124.5028934440453
 30
0.0
 10
34.57023402983737
 20
124.2905131435419
 30
0.0
 10
31.59409007031334
 20
124.0821137485215
 30
0.0
 10
29.7491233891413
 20
123.95292310942
 30
0.0
 10
28.81435900792766
 20
123.8874678309856
 30
0.0
  0
SPLINE
  5
28C
330
1F
100
AcDbEntity
  8
0
  6
Continuous
 62
     7
370
    25
100
AcDbSpline
210
0.0
220
0.0
230
1.0
 70
     8
 71
     3
 72
     9
 73
     5
 74
     0
 42
0.00000001
 43
0.00000001
 40
0.0
 40
0.0
 40
0.0
 40
0.0
 40
0.5841917497409234
 40
1.0
 40
1.0
 40
1.0
 40
1.0
 10
42.92586812867827
 20
124.3033381596317
 30
0.0
 10
42.46925758029117
 20
124.4629148985077
 30
0.0
 10
41.68764683589156
 20
124.7360730506841
 30
0.0
 10
40.89935627022867
 20
124.7181850263179
 30
0.0
 10
40.57157854942467
 20
124.7107470382056
 30
0.0
  0
ARC
  5
28D
330
1F
100
AcDbEntity
  8
0
  6
Continuous
 62
     7
370
    25
100
AcDbCircle
 10
35.8280678194
 20
108.088800523
 30
0.0
 40
17.70000000000001
100
AcDbArc
 50
61.6520644894
 51
66.3589373442
  0
SPLINE
  5
28E
330
1F
100
AcDbEntity
  8
0
  6
Continuous
 62
     7
370
    25
100
AcDbSpline
210
0.0
220
0.0
230
1.0
 70
     8
 71
     3
 72
     9
 73
     5
 74
     0
 42
0.00000001
 43
0.00000001
 40
0.0
 40
0.0
 40
0.0
 40
0.0
 40
0.5850553834536169
 40
1.0
 40
1.0
 40
1.0
 40
1.0
 10
46.00326064830164
 20
122.0621841824673
 30
0.0
 10
45.71711912409292
 20
122.4296406472502
 30
0.0
 10
45.2280346163672
 20
123.0577118951613
 30
0.0
 10
44.52442405308028
 20
123.4877724353254
 30
0.0
 10
44.23246463769925
 20
123.6662237412556
 30
0.0
  0
SPLINE
  5
28F
330
1F
100
AcDbEntity
  8
0
  6
Continuous
 62
     7
370
    25
100
AcDbSpline
210
0.0
220
0.0
230
1.0
 70
    24
 71
     3
 72
    11
 73
     7
 74
     0
 42
0.00000001
 43
0.00000001
 40
0.0
 40
0.0
 40
0.0
 40
0.0
 40
0.232871632211147
 40
0.4710265024313228
 40
0.7311421212560293
 40
0.9999999999999999
 40
0.9999999999999999
 40
0.9999999999999999
 40
0.9999999999999999
 10
52.59485112691016
 20
112.2917729852701
 30
0.0
 10
52.09494181001202
 20
113.0327655580423
 30
0.0
 10
51.08378156333215
 20
114.5315618543813
 30
0.0
 10
49.44641472209166
 20
116.9585553655061
 30
0.0
 10
47.71988520886683
 20
119.5177106017193
 30
0.0
 10
46.58173882258257
 20
121.2047326084246
 30
0.0
 10
46.00326064830166
 20
122.0621841824673
 30
0.0
  0
SPLINE
  5
290
330
1F
100
AcDbEntity
  8
0
  6
Continuous
 62
     7
370
    25
100
AcDbSpline
210
0.0
220
0.0
230
1.0
 70
     8
 71
     3
 72
     9
 73
     5
 74
     0
 42
0.00000001
 43
0.00000001
 40
0.0
 40
0.0
 40
0.0
 40
0.0
 40
0.5841917497409231
 40
1.0
 40
1.0
 40
1.0
 40
1.0
 10
53.41916947796469
 20
110.0491939624846
 30
0.0
 10
53.32906171349078
 20
110.5244186664617
 30
0.0
 10
53.1748182403266
 20
111.3378925030709
 30
0.0
 10
52.76518147397051
 20
112.0116281463154
 30
0.0
 10
52.59485112691017
 20
112.2917729852701
 30
0.0
  0
ARC
  5
291
330
1F
100
AcDbEntity
  8
0
  6
Continuous
 62
     7
370
    25
100
AcDbCircle
 10
35.8280678194
 20
108.088800523
 30
0.0
 40
17.70000000000001
100
AcDbArc
 50
1.6520644894
 51
6.3589373442
  0
SPLINE
  5
292
330
1F
100
AcDbEntity
  8
0
  6
Continuous
 62
     7
370
    25
100
AcDbSpline
210
0.0
220
0.0
230
1.0
 70
     8
 71
     3
 72
     9
 73
     5
 74
     0
 42
0.00000001
 43
0.00000001
 40
0.0
 40
0.0
 40
0.0
 40
0.0
 40
0.5850553834536187
 40
1.0
 40
1.0
 40
1.0
 40
1.0
 10
53.01696945975949
 20
106.2635168744923
 30
0.0
 10
53.19212533094189
 20
106.6950509359261
 30
0.0
 10
53.4915087331566
 20
107.4326461681695
 30
0.0
 10
53.51214680446058
 20
108.2570210604291
 30
0.0
 10
53.52071046104406
 20
108.5990909839882
 30
0.0
  0
SPLINE
  5
293
330
1F
100
AcDbEntity
  8
0
  6
Continuous
 62
     7
370
    25
100
AcDbSpline
210
0.0
220
0.0
230
1.0
 70
    24
 71
     3
 72
    11
 73
     7
 74
     0
 42
0.00000001
 43
0.00000001
 40
0.0
 40
0.0
 40
0.0
 40
0.0
 40
0.2328716322111487
 40
0.4710265024313259
 40
0.731142121256031
 40
1.0
 40
1.0
 40
1.0
 40
1.0
 10
47.85134039687099
 20
95.66982647007511
 30
0.0
 10
48.24310413045825
 20
96.47325692448354
 30
0.0
 10
49.03551967484596
 20
98.0983455335748
 30
0.0
 10
50.31867428967978
 20
100.7298435689656
 30
0.0
 10
51.67170297985592
 20
103.5046396059086
 30
0.0
 10
52.56363370126396
 20
105.3338142930089
 30
0.0
 10
53.01696945975949
 20
106.2635168744923
 30
0.0
  0
SPLINE
  5
294
330
1F
100
AcDbEntity
  8
0
  6
Continuous
 62
     7
370
    25
100
AcDbSpline
210
0.0
220
0.0
230
1.0
 70
     8
 71
     3
 72
     9
 73
     5
 74
     0
 42
0.00000001
 43
0.00000001
 40
0.0
 40
0.0
 40
0.0
 40
0.0
 40
0.5841917497409274
 40
1.0
 40
1.0
 40
1.0
 40
1.0
 10
46.32136916867192
 20
93.83465632586345
 30
0.0
 10
46.68787195258514
 20
94.15030429096464
 30
0.0
 10
47.31523922382058
 20
94.69061997539735
 30
0.0
 10
47.69389302312728
 20
95.3822436430081
 30
0.0
 10
47.851340396871
 20
95.66982647007511
 30
0.0
  0
ARC
  5
295
330
1F
100
AcDbEntity
  8
0
  6
Continuous
 62
     7
370
    25
100
AcDbCircle
 10
35.8280678194
 20
108.088800523
 30
0.0
 40
17.7
100
AcDbArc
 50
301.6520644894
 51
306.3589373442
  0
ARC
  5
296
330
1F
100
AcDbEntity
  8
0
  6
Continuous
 62
     7
370
    25
100
AcDbCircle
 10
35.8280678194
 20
108.088800523
 30
0.0
 40
16.19999999999998
100
AcDbArc
 50
274.0055009168
 51
135.2487828509
  0
ARC
  5
297
330
1F
100
AcDbEntity
  8
0
  6
Continuous
 62
     7
370
    25
100
AcDbCircle
 10
35.8280678194
 20
108.088800523
 30
0.0
 40
16.19999999999998
100
AcDbArc
 50
223.0989351832
 51
274.0055009168
  0
SPLINE
  5
298
330
1F
100
AcDbEntity
  8
0
  6
Continuous
 62
     7
370
    25
100
AcDbSpline
210
0.0
220
0.0
230
1.0
 70
     8
 71
     3
 72
    16
 73
    12
 74
     0
 42
0.00000001
 43
0.00000001
 40
0.0
 40
0.0
 40
0.0
 40
0.0
 40
0.0281445582477488
 40
0.1887685212068339
 40
0.3933766796183799
 40
0.4979930972193612
 40
0.6025973417427986
 40
0.700471731624155
 40
0.7983369535484229
 40
0.8991729385485782
 40
0.9999999999999999
 40
0.9999999999999999
 40
0.9999999999999999
 40
0.9999999999999999
 10
231.0377178933897
 20
95.06612110557647
 30
0.0
 10
230.9234572144888
 20
95.0918577171812
 30
0.0
 10
230.157098787458
 20
95.2644758862331
 30
0.0
 10
228.1551749091734
 20
95.66216092740859
 30
0.0
 10
225.4048312455619
 20
96.13899533432338
 30
0.0
 10
222.5805938912349
 20
96.53407232349738
 30
0.0
 10
220.3053167180483
 20
96.80031365990988
 30
0.0
 10
217.910327222623
 20
97.02370898914626
 30
0.0
 10
215.3928578141565
 20
97.19560079627782
 30
0.0
 10
212.7142903056618
 20
97.3144227152071
 30
0.0
 10
210.8069217580086
 20
97.33067482679364
 30
0.0
 10
209.8532796845169
 20
97.33880052301058
 30
0.0
  0
SPLINE
  5
299
330
1F
100
AcDbEntity
  8
0
  6
Continuous
 62
     7
370
    25
100
AcDbSpline
210
0.0
220
0.0
230
1.0
 70
     8
 71
     3
 72
    15
 73
    11
 74
     0
 42
0.00000001
 43
0.00000001
 40
0.0
 40
0.0
 40
0.0
 40
0.0
 40
0.1250000000000002
 40
0.2500000000000003
 40
0.3750000000000002
 40
0.5
 40
0.6250000000000001
 40
0.75
 40
0.875
 40
1.0
 40
1.0
 40
1.0
 40
1.0
 10
209.8532796845169
 20
97.33880052301058
 30
0.0
 10
209.6112848004635
 20
97.3788089241246
 30
0.0
 10
209.1272950323567
 20
97.4588257263526
 30
0.0
 10
208.4292226422297
 20
98.09804912363421
 30
0.0
 10
207.7858236496669
 20
99.09155107019612
 30
0.0
 10
207.2220720178954
 20
100.4387597401307
 30
0.0
 10
206.7587037978456
 20
102.0778257208121
 30
0.0
 10
206.4169919020807
 20
103.94846048492
 30
0.0
 10
206.1971330083379
 20
105.9780540900232
 30
0.0
 10
206.1696114787857
 20
107.3852183786815
 30
0.0
 10
206.1558507140097
 20
108.0888005230106
 30
0.0
  0
SPLINE
  5
29A
330
1F
100
AcDbEntity
  8
0
  6
Continuous
 62
     7
370
    25
100
AcDbSpline
210
0.0
220
0.0
230
1.0
 70
     8
 71
     3
 72
    15
 73
    11
 74
     0
 42
0.00000001
 43
0.00000001
 40
0.0
 40
0.0
 40
0.0
 40
0.0
 40
0.1250000000000002
 40
0.2500000000000003
 40
0.3750000000000001
 40
0.5
 40
0.6250000000000002
 40
0.7500000000000001
 40
0.8750000000000001
 40
1.0
 40
1.0
 40
1.0
 40
1.0
 10
66.8028559542541
 20
97.33880052301058
 30
0.0
 10
67.04485083830751
 20
97.3788089241246
 30
0.0
 10
67.52884060641432
 20
97.45882572635259
 30
0.0
 10
68.22691299654132
 20
98.09804912363423
 30
0.0
 10
68.8703119891041
 20
99.0915510701961
 30
0.0
 10
69.43406362087563
 20
100.4387597401307
 30
0.0
 10
69.8974318409254
 20
102.0778257208121
 30
0.0
 10
70.23914373669032
 20
103.94846048492
 30
0.0
 10
70.45900263043316
 20
105.9780540900232
 30
0.0
 10
70.48652415998527
 20
107.3852183786815
 30
0.0
 10
70.50028492476132
 20
108.0888005230106
 30
0.0
  0
SPLINE
  5
29B
330
1F
100
AcDbEntity
  8
0
  6
Continuous
 62
     7
370
    25
100
AcDbSpline
210
0.0
220
0.0
230
1.0
 70
     8
 71
     3
 72
    14
 73
    10
 74
     0
 42
0.00000001
 43
0.00000001
 40
0.0
 40
0.0
 40
0.0
 40
0.0
 40
0.0355138569804205
 40
0.1994864488451144
 40
0.3637950707277488
 40
0.5276153009203348
 40
0.6849584860914132
 40
0.8427763308022376
 40
1.0
 40
1.0
 40
1.0
 40
1.0
 10
47.89129594152914
 20
95.52988227094117
 30
0.0
 10
48.03593240316094
 20
95.55915916709354
 30
0.0
 10
48.84837623657384
 20
95.72361170881159
 30
0.0
 10
50.67111552824946
 20
96.03840148429451
 30
0.0
 10
53.34676413586165
 20
96.44377740174117
 30
0.0
 10
56.33792955233567
 20
96.80704605630373
 30
0.0
 10
59.59509903695637
 20
97.09437720019108
 30
0.0
 10
63.05952382683439
 20
97.29582397006588
 30
0.0
 10
65.55664845653504
 20
97.32449302886292
 30
0.0
 10
66.80285595425408
 20
97.33880052301058
 30
0.0
  0
LINE
  5
29C
330
1F
100
AcDbEntity
  8
0
  6
Continuous
 62
     7
370
    25
100
AcDbLine
 10
49.1567984072
 20
120.4080296582
 30
0.0
 11
49.4899676697
 21
120.3490748873
 31
0.0
  0
SPLINE
  5
29D
330
1F
100
AcDbEntity
  8
0
  6
Continuous
 62
     7
370
    25
100
AcDbSpline
210
0.0
220
0.0
230
1.0
 70
     8
 71
     3
 72
    12
 73
     8
 74
     0
 42
0.00000001
 43
0.00000001
 40
0.0
 40
0.0
 40
0.0
 40
0.0
 40
0.0911986768867012
 40
0.3150229849906385
 40
0.538826327327591
 40
0.7694233670843407
 40
1.0
 40
1.0
 40
1.0
 40
1.0
 10
55.52317259595713
 20
119.476993256151
 30
0.0
 10
55.82414040589449
 20
119.4436645756943
 30
0.0
 10
56.86375831603528
 20
119.3285389975425
 30
0.0
 10
58.74694540150897
 20
119.1541084469594
 30
0.0
 10
61.26296434535132
 20
118.9819405886373
 30
0.0
 10
63.94192466873129
 20
118.8631934299021
 30
0.0
 10
65.8492403251896
 20
118.8469312521084
 30
0.0
 10
66.80285595425408
 20
118.8388005230106
 30
0.0
  0
SPLINE
  5
29E
330
1F
100
AcDbEntity
  8
0
  6
Continuous
 62
     7
370
    25
100
AcDbSpline
210
0.0
220
0.0
230
1.0
 70
     8
 71
     3
 72
    15
 73
    11
 74
     0
 42
0.00000001
 43
0.00000001
 40
0.0
 40
0.0
 40
0.0
 40
0.0
 40
0.1250000000000002
 40
0.2500000000000003
 40
0.3750000000000001
 40
0.5
 40
0.6250000000000001
 40
0.7500000000000001
 40
0.8750000000000001
 40
1.0
 40
1.0
 40
1.0
 40
1.0
 10
66.8028559542541
 20
118.8388005230106
 30
0.0
 10
67.04485083830751
 20
118.7987921218966
 30
0.0
 10
67.52884060641432
 20
118.7187753196686
 30
0.0
 10
68.2269129965413
 20
118.079551922387
 30
0.0
 10
68.87031198910411
 20
117.0860499758251
 30
0.0
 10
69.43406362087562
 20
115.7388413058904
 30
0.0
 10
69.8974318409254
 20
114.0997753252091
 30
0.0
 10
70.23914373669034
 20
112.2291405611012
 30
0.0
 10
70.45900263043316
 20
110.199546955998
 30
0.0
 10
70.48652415998527
 20
108.7923826673397
 30
0.0
 10
70.50028492476132
 20
108.0888005230106
 30
0.0
  0
SPLINE
  5
29F
330
1F
100
AcDbEntity
  8
0
  6
Continuous
 62
     7
370
    25
100
AcDbSpline
210
0.0
220
0.0
230
1.0
 70
     8
 71
     3
 72
     9
 73
     5
 74
     0
 42
0.00000001
 43
0.00000001
 40
0.0
 40
0.0
 40
0.0
 40
0.0
 40
0.672644986677333
 40
1.0
 40
1.0
 40
1.0
 40
1.0
 10
46.81164910232953
 20
120.8639471820725
 30
0.0
 10
47.29829183777903
 20
120.7633136956798
 30
0.0
 10
48.02176818130077
 20
120.6137050783766
 30
0.0
 10
48.87687492707132
 20
120.4587537517584
 30
0.0
 10
49.15679840722538
 20
120.408029658169
 30
0.0
  0
SPLINE
  5
2A0
330
1F
100
AcDbEntity
  8
0
  6
Continuous
 62
     7
370
    25
100
AcDbSpline
210
0.0
220
0.0
230
1.0
 70
     8
 71
     3
 72
    15
 73
    11
 74
     0
 42
0.00000001
 43
0.00000001
 40
0.0
 40
0.0
 40
0.0
 40
0.0
 40
0.1250000000000002
 40
0.2500000000000003
 40
0.3750000000000001
 40
0.5
 40
0.6250000000000001
 40
0.75
 40
0.875
 40
1.0
 40
1.0
 40
1.0
 40
1.0
 10
209.8532796845169
 20
118.8388005230106
 30
0.0
 10
209.6112848004635
 20
118.7987921218966
 30
0.0
 10
209.1272950323567
 20
118.7187753196686
 30
0.0
 10
208.4292226422297
 20
118.079551922387
 30
0.0
 10
207.7858236496669
 20
117.0860499758251
 30
0.0
 10
207.2220720178954
 20
115.7388413058904
 30
0.0
 10
206.7587037978456
 20
114.0997753252091
 30
0.0
 10
206.4169919020807
 20
112.2291405611012
 30
0.0
 10
206.1971330083379
 20
110.199546955998
 30
0.0
 10
206.1696114787857
 20
108.7923826673397
 30
0.0
 10
206.1558507140097
 20
108.0888005230106
 30
0.0
  0
SPLINE
  5
2A1
330
1F
100
AcDbEntity
  8
0
  6
Continuous
 62
     7
370
    25
100
AcDbSpline
210
0.0
220
0.0
230
1.0
 70
     8
 71
     3
 72
    12
 73
     8
 74
     0
 42
0.00000001
 43
0.00000001
 40
0.0
 40
0.0
 40
0.0
 40
0.0
 40
0.0911986768867012
 40
0.3150229849906385
 40
0.538826327327591
 40
0.7694233670843407
 40
1.0
 40
1.0
 40
1.0
 40
1.0
 10
221.1329630428139
 20
119.476993256151
 30
0.0
 10
220.8319952328765
 20
119.4436645756943
 30
0.0
 10
219.7923773227357
 20
119.3285389975425
 30
0.0
 10
217.909190237262
 20
119.1541084469594
 30
0.0
 10
215.3931712934197
 20
118.9819405886373
 30
0.0
 10
212.7142109700397
 20
118.8631934299021
 30
0.0
 10
210.8068953135814
 20
118.8469312521084
 30
0.0
 10
209.8532796845169
 20
118.8388005230106
 30
0.0
  0
LINE
  5
2A2
330
1F
100
AcDbEntity
  8
0
  6
Continuous
 62
     7
370
    25
100
AcDbLine
 10
227.4993372315
 20
120.4080296582
 30
0.0
 11
227.2785755334
 21
120.3689655643
 31
0.0
  0
SPLINE
  5
2A3
330
1F
100
AcDbEntity
  8
0
  6
Continuous
 62
     7
370
    25
100
AcDbSpline
210
0.0
220
0.0
230
1.0
 70
     8
 71
     3
 72
     9
 73
     5
 74
     0
 42
0.00000001
 43
0.00000001
 40
0.0
 40
0.0
 40
0.0
 40
0.0
 40
0.7296320066210731
 40
1.0
 40
1.0
 40
1.0
 40
1.0
 10
230.3206225679329
 20
120.9593062678986
 30
0.0
 10
229.6836974669845
 20
120.82722856805
 30
0.0
 10
228.8107572790971
 20
120.6462089600145
 30
0.0
 10
227.7784421905664
 20
120.4587205290347
 30
0.0
 10
227.4993372315456
 20
120.408029658169
 30
0.0
  0
LINE
  5
2A4
330
1F
100
AcDbEntity
  8
0
  6
Continuous
 62
     7
370
    25
100
AcDbLine
 10
40.0560747624
 20
125.938800523
 30
0.0
 11
35.8280678194
 21
125.938800523
 31
0.0
  0
LINE
  5
2A5
330
1F
100
AcDbEntity
  8
0
  6
Continuous
 62
     7
370
    25
100
AcDbLine
 10
236.6000608764
 20
125.938800523
 30
0.0
 11
240.8280678194
 21
125.938800523
 31
0.0
  0
LINE
  5
2A6
330
1F
100
AcDbEntity
  8
0
  6
Continuous
 62
     7
370
    25
100
AcDbLine
 10
35.8280678194
 20
125.938800523
 30
0.0
 11
28.811775052
 21
125.938800523
 31
0.0
  0
LINE
  5
2A7
330
1F
100
AcDbEntity
  8
0
  6
Continuous
 62
     7
370
    25
100
AcDbLine
 10
240.8280678194
 20
125.938800523
 30
0.0
 11
247.8443605868
 21
125.938800523
 31
0.0
  0
LINE
  5
2A8
330
1F
100
AcDbEntity
  8
0
  6
Continuous
 62
     7
370
    25
100
AcDbLine
 10
232.1865689332
 20
125.938800523
 30
0.0
 11
236.6000608764
 21
125.938800523
 31
0.0
  0
LINE
  5
2A9
330
1F
100
AcDbEntity
  8
0
  6
Continuous
 62
     7
370
    25
100
AcDbLine
 10
44.4695667055
 20
125.938800523
 30
0.0
 11
40.0560747624
 21
125.938800523
 31
0.0
  0
SPLINE
  5
2AA
330
1F
100
AcDbEntity
  8
0
  6
Continuous
 62
     7
370
    25
100
AcDbSpline
210
0.0
220
0.0
230
1.0
 70
     8
 71
     3
 72
     9
 73
     5
 74
     0
 42
0.00000001
 43
0.00000001
 40
0.0
 40
0.0
 40
0.0
 40
0.0
 40
0.673253769858657
 40
1.0
 40
1.0
 40
1.0
 40
1.0
 10
46.88109384786764
 20
125.3295682014111
 30
0.0
 10
46.35773707318108
 20
125.4536706496759
 30
0.0
 10
45.58038268154298
 20
125.6380029977752
 30
0.0
 10
44.74313441900106
 20
125.864721203866
 30
0.0
 10
44.4695667055231
 20
125.9388005230106
 30
0.0
  0
LWPOLYLINE
  5
2AB
330
1F
100
AcDbEntity
  8
0
  6
Continuous
 62
     7
370
    25
100
AcDbPolyline
 90
        9
 70
   128
 43
0.0
 10
46.8810938479
 20
125.3295682014
 10
46.8366803388
 20
124.4313060573
 10
46.8985026949
 20
123.5628425117
 10
47.0645100456
 20
122.7529876361
 10
47.3291953275
 20
122.0286072406
 10
47.6837779743
 20
121.4137316385
 10
48.1164951993
 20
120.9287584735
 10
48.6129922097
 20
120.5897760565
 10
49.1567984072
 20
120.4080296582
  0
SPLINE
  5
2AC
330
1F
100
AcDbEntity
  8
0
  6
Continuous
 62
     7
370
    25
100
AcDbSpline
210
0.0
220
0.0
230
1.0
 70
     8
 71
     3
 72
     9
 73
     5
 74
     0
 42
0.00000001
 43
0.00000001
 40
0.0
 40
0.0
 40
0.0
 40
0.0
 40
0.673253769858657
 40
1.0
 40
1.0
 40
1.0
 40
1.0
 10
229.7750417909033
 20
125.3295682014111
 30
0.0
 10
230.2983985655899
 20
125.4536706496759
 30
0.0
 10
231.075752957228
 20
125.6380029977752
 30
0.0
 10
231.9130012197699
 20
125.864721203866
 30
0.0
 10
232.1865689332479
 20
125.9388005230106
 30
0.0
  0
LWPOLYLINE
  5
2AD
330
1F
100
AcDbEntity
  8
0
  6
Continuous
 62
     7
370
    25
100
AcDbPolyline
 90
        9
 70
   128
 43
0.0
 10
229.7750417909
 20
125.3295682014
 10
229.8194553
 20
124.4313060573
 10
229.7576329438
 20
123.5628425117
 10
229.5916255932
 20
122.7529876361
 10
229.3269403112
 20
122.0286072406
 10
228.9723576645
 20
121.4137316385
 10
228.5396404395
 20
120.9287584735
 10
228.0431434291
 20
120.5897760565
 10
227.4993372315
 20
120.4080296582
  0
SPLINE
  5
2AE
330
1F
100
AcDbEntity
  8
0
  6
Continuous
 62
     7
370
    25
100
AcDbSpline
210
0.0
220
0.0
230
1.0
 70
     8
 71
     3
 72
    10
 73
     6
 74
     0
 42
0.00000001
 43
0.00000001
 40
0.0
 40
0.0
 40
0.0
 40
0.0
 40
0.8221941384101852
 40
0.9999856333282494
 40
1.0
 40
1.0
 40
1.0
 40
1.0
 10
151.7901757681436
 20
117.9037741718952
 30
0.0
 10
151.0118859360444
 20
118.1758323903796
 30
0.0
 10
150.0652984887419
 20
118.5067205555998
 30
0.0
 10
149.1057771317233
 20
118.6692586465606
 30
0.0
 10
148.9346239331208
 20
118.695340700184
 30
0.0
 10
148.9346101039827
 20
118.6953428076078
 30
0.0
  0
SPLINE
  5
2AF
330
1F
100
AcDbEntity
  8
0
  6
Continuous
 62
     7
370
    25
100
AcDbSpline
210
0.0
220
0.0
230
1.0
 70
     8
 71
     3
 72
    10
 73
     6
 74
     0
 42
0.00000001
 43
0.00000001
 40
0.0
 40
0.0
 40
0.0
 40
0.0
 40
0.000014366671749
 40
0.1778058615897022
 40
1.0
 40
1.0
 40
1.0
 40
1.0
 10
148.9346101039826
 20
97.4822582384135
 30
0.0
 10
148.9346239331209
 20
97.48226034583729
 30
0.0
 10
149.1057771336311
 20
97.5083423994112
 30
0.0
 10
150.0652984845367
 20
97.67088049053038
 30
0.0
 10
151.0118859341468
 20
98.0017686556907
 30
0.0
 10
151.7901757681436
 20
98.27382687412596
 30
0.0
  0
SPLINE
  5
2B0
330
1F
100
AcDbEntity
  8
0
  6
Continuous
 62
     7
370
    25
100
AcDbSpline
210
0.0
220
0.0
230
1.0
 70
     8
 71
     3
 72
    10
 73
     6
 74
     0
 42
0.00000001
 43
0.00000001
 40
0.0
 40
0.0
 40
0.0
 40
0.0
 40
0.0000143666717493
 40
0.1778058615897025
 40
1.0
 40
1.0
 40
1.0
 40
1.0
 10
127.7215255347884
 20
97.4822582384135
 30
0.0
 10
127.7215117056501
 20
97.48226034583729
 30
0.0
 10
127.550358505111
 20
97.5083423993872
 30
0.0
 10
126.590837154298
 20
97.67088049058329
 30
0.0
 10
125.6442497046529
 20
98.00176865571457
 30
0.0
 10
124.8659598706274
 20
98.27382687412596
 30
0.0
  0
SPLINE
  5
2B1
330
1F
100
AcDbEntity
  8
0
  6
Continuous
 62
     7
370
    25
100
AcDbSpline
210
0.0
220
0.0
230
1.0
 70
     8
 71
     3
 72
    10
 73
     6
 74
     0
 42
0.00000001
 43
0.00000001
 40
0.0
 40
0.0
 40
0.0
 40
0.0
 40
0.822194138410185
 40
0.9999856333282491
 40
1.0
 40
1.0
 40
1.0
 40
1.0
 10
124.8659598706274
 20
117.9037741718952
 30
0.0
 10
125.6442497027326
 20
118.1758323903753
 30
0.0
 10
126.5908371500422
 20
118.5067205555902
 30
0.0
 10
127.5503585070418
 20
118.6692586465649
 30
0.0
 10
127.7215117056502
 20
118.695340700184
 30
0.0
 10
127.7215255347884
 20
118.6953428076078
 30
0.0
  0
SPLINE
  5
2B2
330
1F
100
AcDbEntity
  8
0
  6
Continuous
 62
     7
370
    25
100
AcDbSpline
210
0.0
220
0.0
230
1.0
 70
     8
 71
     3
 72
    16
 73
    12
 74
     0
 42
0.00000001
 43
0.00000001
 40
0.0
 40
0.0
 40
0.0
 40
0.0
 40
0.0624272887184103
 40
0.2142379262836522
 40
0.3543756579305876
 40
0.4949796458254478
 40
0.6192990557321093
 40
0.743528284814642
 40
0.8455984262736979
 40
0.9474255412487883
 40
1.0
 40
1.0
 40
1.0
 40
1.0
 10
156.8482536448497
 20
108.9541704682809
 30
0.0
 10
156.707768472906
 20
109.1801552162496
 30
0.0
 10
156.2256515569113
 20
109.9556895181624
 30
0.0
 10
155.6939951655617
 20
111.3937307201736
 30
0.0
 10
155.2493592476167
 20
113.0580229528491
 30
0.0
 10
154.8640657104182
 20
114.4690067074633
 30
0.0
 10
154.3860950516748
 20
115.6468724771776
 30
0.0
 10
153.8265633940811
 20
116.549743440054
 30
0.0
 10
153.1391133743699
 20
117.2298514622401
 30
0.0
 10
152.4615353575755
 20
117.6531114280879
 30
0.0
 10
151.9607093638422
 20
117.8401027509726
 30
0.0
 10
151.7901757681436
 20
117.9037741718952
 30
0.0
  0
SPLINE
  5
2B3
330
1F
100
AcDbEntity
  8
0
  6
Continuous
 62
     7
370
    25
100
AcDbSpline
210
0.0
220
0.0
230
1.0
 70
     8
 71
     3
 72
    11
 73
     7
 74
     0
 42
0.00000001
 43
0.00000001
 40
0.0
 40
0.0
 40
0.0
 40
0.0
 40
0.0208399923946955
 40
0.3043832614294072
 40
0.5943798184347352
 40
1.0
 40
1.0
 40
1.0
 40
1.0
 10
153.4327360360577
 20
108.0888005230106
 30
0.0
 10
153.4514548714455
 20
108.0982313874062
 30
0.0
 10
153.7248570904862
 20
108.2359760280213
 30
0.0
 10
154.2961047515032
 20
108.495330504671
 30
0.0
 10
155.3931821636824
 20
108.7740510874223
 30
0.0
 10
156.3123050695797
 20
108.8878268371953
 30
0.0
 10
156.8482536448497
 20
108.9541704682809
 30
0.0
  0
SPLINE
  5
2B4
330
1F
100
AcDbEntity
  8
0
  6
Continuous
 62
     7
370
    25
100
AcDbSpline
210
0.0
220
0.0
230
1.0
 70
     8
 71
     3
 72
    11
 73
     7
 74
     0
 42
0.00000001
 43
0.00000001
 40
0.0
 40
0.0
 40
0.0
 40
0.0
 40
0.0208399923946954
 40
0.3043832614294023
 40
0.5943798184347383
 40
1.0
 40
1.0
 40
1.0
 40
1.0
 10
123.2233996027133
 20
108.0888005230106
 30
0.0
 10
123.2046807673255
 20
108.0982313874062
 30
0.0
 10
122.9312785482848
 20
108.2359760280213
 30
0.0
 10
122.360030887268
 20
108.4953305046716
 30
0.0
 10
121.2629534750886
 20
108.774051087422
 30
0.0
 10
120.3438305691913
 20
108.8878268371953
 30
0.0
 10
119.8078819939213
 20
108.9541704682809
 30
0.0
  0
SPLINE
  5
2B5
330
1F
100
AcDbEntity
  8
0
  6
Continuous
 62
     7
370
    25
100
AcDbSpline
210
0.0
220
0.0
230
1.0
 70
     8
 71
     3
 72
    16
 73
    12
 74
     0
 42
0.00000001
 43
0.00000001
 40
0.0
 40
0.0
 40
0.0
 40
0.0
 40
0.0624248131099613
 40
0.2142294304922877
 40
0.3517572753501817
 40
0.4949828669895425
 40
0.6178117588422438
 40
0.7435294175532033
 40
0.8439850676452121
 40
0.9474276261346927
 40
1.0
 40
1.0
 40
1.0
 40
1.0
 10
119.8078819939213
 20
108.9541704682809
 30
0.0
 10
119.9483311816449
 20
109.1801702547719
 30
0.0
 10
120.4303246070178
 20
109.9557561658751
 30
0.0
 10
120.9599584692026
 20
111.3824409948498
 30
0.0
 10
121.3989727784005
 20
113.0507538062596
 30
0.0
 10
121.7887318227595
 20
114.4549183463008
 30
0.0
 10
122.2677086781497
 20
115.6440771388556
 30
0.0
 10
122.824138113936
 20
116.5415591178575
 30
0.0
 10
123.5127057793606
 20
117.2289180150986
 30
0.0
 10
124.1894225337999
 20
117.650894847406
 30
0.0
 10
124.6954453055272
 20
117.8400384315437
 30
0.0
 10
124.8659598706274
 20
117.9037741718952
 30
0.0
  0
SPLINE
  5
2B6
330
1F
100
AcDbEntity
  8
0
  6
Continuous
 62
     7
370
    25
100
AcDbSpline
210
0.0
220
0.0
230
1.0
 70
     8
 71
     3
 72
    11
 73
     7
 74
     0
 42
0.00000001
 43
0.00000001
 40
0.0
 40
0.0
 40
0.0
 40
0.0
 40
0.4056165424583468
 40
0.6884333764358724
 40
0.979160194599229
 40
1.0
 40
1.0
 40
1.0
 40
1.0
 10
119.8078819939289
 20
107.2234305777291
 30
0.0
 10
120.343840999564
 20
107.2898256939135
 30
0.0
 10
121.2534983464867
 20
107.4025149193988
 30
0.0
 10
122.3525122292024
 20
107.6795061450853
 30
0.0
 10
122.9248260560556
 20
107.9383696027926
 30
0.0
 10
123.2046809075619
 20
108.0793694445764
 30
0.0
 10
123.2233996027133
 20
108.0888005230106
 30
0.0
  0
SPLINE
  5
2B7
330
1F
100
AcDbEntity
  8
0
  6
Continuous
 62
     7
370
    25
100
AcDbSpline
210
0.0
220
0.0
230
1.0
 70
     8
 71
     3
 72
    16
 73
    12
 74
     0
 42
0.00000001
 43
0.00000001
 40
0.0
 40
0.0
 40
0.0
 40
0.0
 40
0.0989384758571002
 40
0.1981552343929994
 40
0.256441724224095
 40
0.3806791327730123
 40
0.505006728083719
 40
0.6456199735872838
 40
0.7857669321438097
 40
0.9394626944291051
 40
1.0
 40
1.0
 40
1.0
 40
1.0
 10
124.8659598706274
 20
98.27382687412596
 30
0.0
 10
124.5535721215175
 20
98.40052501298076
 30
0.0
 10
123.9279179752399
 20
98.65427765253213
 30
0.0
 10
123.3223073320598
 20
99.12854318652754
 30
0.0
 10
122.7598898565312
 20
99.7409825574531
 30
0.0
 10
122.2699716063067
 20
100.5306021459615
 30
0.0
 10
121.792097396504
 20
101.7086313525732
 30
0.0
 10
121.4067415558887
 20
103.1195757141238
 30
0.0
 10
120.9603267807947
 20
104.791054943058
 30
0.0
 10
120.4271668533402
 20
106.2296284435846
 30
0.0
 10
119.944322601779
 20
107.0044764644405
 30
0.0
 10
119.8078819939289
 20
107.2234305777291
 30
0.0
  0
SPLINE
  5
2B8
330
1F
100
AcDbEntity
  8
0
  6
Continuous
 62
     7
370
    25
100
AcDbSpline
210
0.0
220
0.0
230
1.0
 70
     8
 71
     3
 72
    11
 73
     7
 74
     0
 42
0.00000001
 43
0.00000001
 40
0.0
 40
0.0
 40
0.0
 40
0.0
 40
0.4056165424583451
 40
0.688433376435867
 40
0.9791601945992291
 40
1.0
 40
1.0
 40
1.0
 40
1.0
 10
156.8482536448421
 20
107.2234305777291
 30
0.0
 10
156.312294639207
 20
107.2898256939135
 30
0.0
 10
155.4026372922843
 20
107.4025149193989
 30
0.0
 10
154.3036234095686
 20
107.679506145085
 30
0.0
 10
153.7313095827155
 20
107.9383696027926
 30
0.0
 10
153.4514547312091
 20
108.0793694445764
 30
0.0
 10
153.4327360360577
 20
108.0888005230106
 30
0.0
  0
SPLINE
  5
2B9
330
1F
100
AcDbEntity
  8
0
  6
Continuous
 62
     7
370
    25
100
AcDbSpline
210
0.0
220
0.0
230
1.0
 70
     8
 71
     3
 72
    16
 73
    12
 74
     0
 42
0.00000001
 43
0.00000001
 40
0.0
 40
0.0
 40
0.0
 40
0.0
 40
0.0989384758571002
 40
0.1981552343929993
 40
0.2564417242240949
 40
0.3806791327730122
 40
0.5050067280837189
 40
0.6456199735872838
 40
0.7857669321438097
 40
0.9394626944291051
 40
1.0
 40
1.0
 40
1.0
 40
1.0
 10
151.7901757681436
 20
98.27382687412596
 30
0.0
 10
152.1025635172535
 20
98.40052501298076
 30
0.0
 10
152.7282176635312
 20
98.65427765253212
 30
0.0
 10
153.3338283067112
 20
99.12854318652752
 30
0.0
 10
153.8962457822398
 20
99.7409825574531
 30
0.0
 10
154.3861640324643
 20
100.5306021459615
 30
0.0
 10
154.864038242267
 20
101.7086313525732
 30
0.0
 10
155.2493940828823
 20
103.1195757141238
 30
0.0
 10
155.6958088579763
 20
104.791054943058
 30
0.0
 10
156.2289687854309
 20
106.2296284435846
 30
0.0
 10
156.711813036992
 20
107.0044764644405
 30
0.0
 10
156.8482536448421
 20
107.2234305777291
 30
0.0
  0
ARC
  5
2BA
330
1F
100
AcDbEntity
  8
0
  6
Continuous
 62
     7
370
    25
100
AcDbCircle
 10
220.3741658581
 20
124.1232842351
 30
0.0
 40
4.707843776969122
100
AcDbArc
 50
279.2752330304
 51
3.919444943
  0
SPLINE
  5
2BB
330
1F
100
AcDbEntity
  8
0
  6
Continuous
 62
     7
370
    25
100
AcDbSpline
210
0.0
220
0.0
230
1.0
 70
     8
 71
     3
 72
    10
 73
     6
 74
     0
 42
0.00000001
 43
0.00000001
 40
0.0
 40
0.0
 40
0.0
 40
0.0
 40
0.4002088599189572
 40
0.8141959364606277
 40
1.0
 40
1.0
 40
1.0
 40
1.0
 10
225.0709986403405
 20
124.445083619494
 30
0.0
 10
225.5652287786066
 20
124.5101223059768
 30
0.0
 10
226.570704195453
 20
124.6424388025626
 30
0.0
 10
228.2690667764543
 20
124.9799612731682
 30
0.0
 10
229.4188580005952
 20
125.2468813575891
 30
0.0
 10
229.7750417909033
 20
125.3295682014111
 30
0.0
  0
SPLINE
  5
2BC
330
1F
100
AcDbEntity
  8
0
  6
Continuous
 62
     7
370
    25
100
AcDbSpline
210
0.0
220
0.0
230
1.0
 70
     8
 71
     3
 72
    10
 73
     6
 74
     0
 42
0.00000001
 43
0.00000001
 40
0.0
 40
0.0
 40
0.0
 40
0.0
 40
0.4002088599189572
 40
0.8141959364606277
 40
1.0
 40
1.0
 40
1.0
 40
1.0
 10
51.58513699843054
 20
124.445083619494
 30
0.0
 10
51.09090686016442
 20
124.5101223059768
 30
0.0
 10
50.08543144331799
 20
124.6424388025626
 30
0.0
 10
48.38706886231675
 20
124.9799612731682
 30
0.0
 10
47.23727763817577
 20
125.2468813575891
 30
0.0
 10
46.88109384786764
 20
125.3295682014111
 30
0.0
  0
ARC
  5
2BD
330
1F
100
AcDbEntity
  8
0
  6
Continuous
 62
     7
370
    25
100
AcDbCircle
 10
56.2819697807
 20
124.1232842351
 30
0.0
 40
4.707843776969151
100
AcDbArc
 50
176.080555057
 51
260.7247669696
  0
SPLINE
  5
2BE
330
1F
100
AcDbEntity
  8
0
  6
Continuous
 62
     7
370
    25
100
AcDbSpline
210
0.0
220
0.0
230
1.0
 70
     8
 71
     3
 72
    10
 73
     6
 74
     0
 42
0.00000001
 43
0.00000001
 40
0.0
 40
0.0
 40
0.0
 40
0.0
 40
0.3644327143101641
 40
0.7393133379813288
 40
1.0
 40
1.0
 40
1.0
 40
1.0
 10
223.3280678193855
 20
124.2175662990316
 30
0.0
 10
223.3748712995184
 20
124.2229898287359
 30
0.0
 10
223.469820067199
 20
124.233992375137
 30
0.0
 10
224.1259036330767
 20
124.3117838420461
 30
0.0
 10
224.7961059457375
 20
124.4063117132507
 30
0.0
 10
225.0709986403405
 20
124.445083619494
 30
0.0
  0
LINE
  5
2BF
330
1F
100
AcDbEntity
  8
0
  6
Continuous
 62
     7
370
    25
100
AcDbLine
 10
247.8443605868
 20
125.938800523
 30
0.0
 11
258.3280678194
 21
125.938800523
 31
0.0
  0
LINE
  5
2C0
330
1F
100
AcDbEntity
  8
0
  6
Continuous
 62
     7
370
    25
100
AcDbLine
 10
223.3280678194
 20
125.938800523
 30
0.0
 11
232.1865689332
 21
125.938800523
 31
0.0
  0
SPLINE
  5
2C1
330
1F
100
AcDbEntity
  8
0
  6
Continuous
 62
     7
370
    25
100
AcDbSpline
210
0.0
220
0.0
230
1.0
 70
     8
 71
     3
 72
    10
 73
     6
 74
     0
 42
0.00000001
 43
0.00000001
 40
0.0
 40
0.0
 40
0.0
 40
0.0
 40
0.3644327143101641
 40
0.7393133379813288
 40
1.0
 40
1.0
 40
1.0
 40
1.0
 10
53.3280678193855
 20
124.2175662990316
 30
0.0
 10
53.28126433925257
 20
124.2229898287359
 30
0.0
 10
53.18631557157201
 20
124.233992375137
 30
0.0
 10
52.5302320056943
 20
124.3117838420461
 30
0.0
 10
51.86002969303347
 20
124.4063117132507
 30
0.0
 10
51.58513699843054
 20
124.445083619494
 30
0.0
  0
LINE
  5
2C2
330
1F
100
AcDbEntity
  8
0
  6
Continuous
 62
     7
370
    25
100
AcDbLine
 10
28.811775052
 20
125.938800523
 30
0.0
 11
18.3280678194
 21
125.938800523
 31
0.0
  0
LINE
  5
2C3
330
1F
100
AcDbEntity
  8
0
  6
Continuous
 62
     7
370
    25
100
AcDbLine
 10
53.3280678194
 20
125.938800523
 30
0.0
 11
44.4695667055
 21
125.938800523
 31
0.0
  0
ARC
  5
2C4
330
1F
100
AcDbEntity
  8
0
  6
Continuous
 62
     7
370
    25
100
AcDbCircle
 10
139.455559792
 20
108.0888005231
 30
0.0
 40
17.41420869872254
100
AcDbArc
 50
357.1516090285
 51
2.848390971
  0
ARC
  5
2C5
330
1F
100
AcDbEntity
  8
0
  6
Continuous
 62
     7
370
    25
100
AcDbCircle
 10
137.2005758468
 20
108.0888005231
 30
0.0
 40
17.4142086987225
100
AcDbArc
 50
177.151609029
 51
182.8483909715
  0
SPLINE
  5
2C6
330
1F
100
AcDbEntity
  8
0
  6
Continuous
 62
     7
370
    25
100
AcDbSpline
210
0.0
220
0.0
230
1.0
 70
    24
 71
     3
 72
    10
 73
     6
 74
     0
 42
0.00000001
 43
0.00000001
 40
0.0
 40
0.0
 40
0.0
 40
0.0
 40
0.3294727588569358
 40
0.6629978812425847
 40
1.0
 40
1.0
 40
1.0
 40
1.0
 10
66.80285595425403
 20
118.8388005230106
 30
0.0
 10
68.29640690983918
 20
118.8388005230106
 30
0.0
 10
71.30187881141984
 20
118.8388005230106
 30
0.0
 10
76.01548994859445
 20
118.8388005230106
 30
0.0
 10
79.2120989162928
 20
118.8388005230106
 30
0.0
 10
80.8186913540838
 20
118.8388005230106
 30
0.0
  0
SPLINE
  5
2C7
330
1F
100
AcDbEntity
  8
0
  6
Continuous
 62
     7
370
    25
100
AcDbSpline
210
0.0
220
0.0
230
1.0
 70
    24
 71
     3
 72
    15
 73
    11
 74
     0
 42
0.00000001
 43
0.00000001
 40
0.0
 40
0.0
 40
0.0
 40
0.0
 40
0.1250000000000003
 40
0.2500000000000004
 40
0.3749999999999999
 40
0.5000000000000001
 40
0.6250000000000003
 40
0.7499999999999998
 40
0.875
 40
1.0
 40
1.0
 40
1.0
 40
1.0
 10
80.8186913540838
 20
118.8388005230106
 30
0.0
 10
80.81869135408381
 20
118.7987921218966
 30
0.0
 10
80.8186913540838
 20
118.7187753196686
 30
0.0
 10
80.8186913540838
 20
118.079551922387
 30
0.0
 10
80.8186913540838
 20
117.0860499758251
 30
0.0
 10
80.8186913540838
 20
115.7388413058904
 30
0.0
 10
80.81869135408378
 20
114.0997753252091
 30
0.0
 10
80.81869135408381
 20
112.2291405611012
 30
0.0
 10
80.8186913540838
 20
110.199546955998
 30
0.0
 10
80.81869135408378
 20
108.7923826673397
 30
0.0
 10
80.8186913540838
 20
108.0888005230106
 30
0.0
  0
SPLINE
  5
2C8
330
1F
100
AcDbEntity
  8
0
  6
Continuous
 62
     7
370
    25
100
AcDbSpline
210
0.0
220
0.0
230
1.0
 70
    24
 71
     3
 72
    10
 73
     6
 74
     0
 42
0.00000001
 43
0.00000001
 40
0.0
 40
0.0
 40
0.0
 40
0.0
 40
0.3383039829547538
 40
0.6713211380777825
 40
1.0
 40
1.0
 40
1.0
 40
1.0
 10
80.81869135408378
 20
108.0888005230106
 30
0.0
 10
79.63137990740057
 20
108.0888005230106
 30
0.0
 10
77.275311661681
 20
108.0888005230106
 30
0.0
 10
73.80530882748839
 20
108.0888005230106
 30
0.0
 10
71.59713372216473
 20
108.0888005230106
 30
0.0
 10
70.50028492476126
 20
108.0888005230106
 30
0.0
  0
SPLINE
  5
2C9
330
1F
100
AcDbEntity
  8
0
  6
Continuous
 62
     7
370
    25
100
AcDbSpline
210
0.0
220
0.0
230
1.0
 70
    24
 71
     3
 72
    15
 73
    11
 74
     0
 42
0.00000001
 43
0.00000001
 40
0.0
 40
0.0
 40
0.0
 40
0.0
 40
0.1250000000000003
 40
0.2500000000000003
 40
0.3750000000000003
 40
0.5000000000000002
 40
0.6250000000000003
 40
0.7500000000000001
 40
0.8750000000000002
 40
1.0
 40
1.0
 40
1.0
 40
1.0
 10
80.8186913540838
 20
97.33880052301058
 30
0.0
 10
80.8186913540838
 20
97.3788089241246
 30
0.0
 10
80.81869135408381
 20
97.45882572635259
 30
0.0
 10
80.8186913540838
 20
98.09804912363421
 30
0.0
 10
80.8186913540838
 20
99.0915510701961
 30
0.0
 10
80.81869135408378
 20
100.4387597401307
 30
0.0
 10
80.81869135408381
 20
102.0778257208121
 30
0.0
 10
80.81869135408378
 20
103.94846048492
 30
0.0
 10
80.8186913540838
 20
105.9780540900232
 30
0.0
 10
80.8186913540838
 20
107.3852183786814
 30
0.0
 10
80.8186913540838
 20
108.0888005230106
 30
0.0
  0
SPLINE
  5
2CA
330
1F
100
AcDbEntity
  8
0
  6
Continuous
 62
     7
370
    25
100
AcDbSpline
210
0.0
220
0.0
230
1.0
 70
    24
 71
     3
 72
    10
 73
     6
 74
     0
 42
0.00000001
 43
0.00000001
 40
0.0
 40
0.0
 40
0.0
 40
0.0
 40
0.3294727588569358
 40
0.6629978812425847
 40
1.0
 40
1.0
 40
1.0
 40
1.0
 10
66.80285595425403
 20
97.33880052301058
 30
0.0
 10
68.29640690983918
 20
97.33880052301058
 30
0.0
 10
71.30187881141984
 20
97.33880052301058
 30
0.0
 10
76.01548994859445
 20
97.33880052301058
 30
0.0
 10
79.2120989162928
 20
97.33880052301058
 30
0.0
 10
80.8186913540838
 20
97.33880052301058
 30
0.0
  0
SPLINE
  5
2CB
330
1F
100
AcDbEntity
  8
0
  6
Continuous
 62
     7
370
    25
100
AcDbSpline
210
0.0
220
0.0
230
1.0
 70
    24
 71
     3
 72
    10
 73
     6
 74
     0
 42
0.00000001
 43
0.00000001
 40
0.0
 40
0.0
 40
0.0
 40
0.0
 40
0.3383039829547538
 40
0.6713211380777825
 40
1.0
 40
1.0
 40
1.0
 40
1.0
 10
195.8374442846872
 20
108.0888005230106
 30
0.0
 10
197.0247557313704
 20
108.0888005230106
 30
0.0
 10
199.38082397709
 20
108.0888005230106
 30
0.0
 10
202.8508268112826
 20
108.0888005230106
 30
0.0
 10
205.0590019166063
 20
108.0888005230106
 30
0.0
 10
206.1558507140097
 20
108.0888005230106
 30
0.0
  0
SPLINE
  5
2CC
330
1F
100
AcDbEntity
  8
0
  6
Continuous
 62
     7
370
    25
100
AcDbSpline
210
0.0
220
0.0
230
1.0
 70
    24
 71
     3
 72
    15
 73
    11
 74
     0
 42
0.00000001
 43
0.00000001
 40
0.0
 40
0.0
 40
0.0
 40
0.0
 40
0.1250000000000003
 40
0.2500000000000002
 40
0.3750000000000003
 40
0.5000000000000002
 40
0.6250000000000003
 40
0.7500000000000001
 40
0.8750000000000001
 40
1.0
 40
1.0
 40
1.0
 40
1.0
 10
195.8374442846872
 20
118.8388005230106
 30
0.0
 10
195.8374442846872
 20
118.7987921218966
 30
0.0
 10
195.8374442846872
 20
118.7187753196686
 30
0.0
 10
195.8374442846872
 20
118.079551922387
 30
0.0
 10
195.8374442846872
 20
117.0860499758251
 30
0.0
 10
195.8374442846872
 20
115.7388413058904
 30
0.0
 10
195.8374442846872
 20
114.0997753252091
 30
0.0
 10
195.8374442846872
 20
112.2291405611012
 30
0.0
 10
195.8374442846872
 20
110.199546955998
 30
0.0
 10
195.8374442846872
 20
108.7923826673397
 30
0.0
 10
195.8374442846872
 20
108.0888005230106
 30
0.0
  0
SPLINE
  5
2CD
330
1F
100
AcDbEntity
  8
0
  6
Continuous
 62
     7
370
    25
100
AcDbSpline
210
0.0
220
0.0
230
1.0
 70
    24
 71
     3
 72
    10
 73
     6
 74
     0
 42
0.00000001
 43
0.00000001
 40
0.0
 40
0.0
 40
0.0
 40
0.0
 40
0.3294727588569358
 40
0.6629978812425853
 40
1.0
 40
1.0
 40
1.0
 40
1.0
 10
209.853279684517
 20
118.8388005230106
 30
0.0
 10
208.3597287289318
 20
118.8388005230106
 30
0.0
 10
205.3542568273512
 20
118.8388005230106
 30
0.0
 10
200.6406456901766
 20
118.8388005230106
 30
0.0
 10
197.4440367224782
 20
118.8388005230106
 30
0.0
 10
195.8374442846872
 20
118.8388005230106
 30
0.0
  0
SPLINE
  5
2CE
330
1F
100
AcDbEntity
  8
0
  6
Continuous
 62
     7
370
    25
100
AcDbSpline
210
0.0
220
0.0
230
1.0
 70
    24
 71
     3
 72
    10
 73
     6
 74
     0
 42
0.00000001
 43
0.00000001
 40
0.0
 40
0.0
 40
0.0
 40
0.0
 40
0.3294727588569358
 40
0.6629978812425853
 40
1.0
 40
1.0
 40
1.0
 40
1.0
 10
209.853279684517
 20
97.33880052301058
 30
0.0
 10
208.3597287289318
 20
97.33880052301058
 30
0.0
 10
205.3542568273512
 20
97.33880052301058
 30
0.0
 10
200.6406456901766
 20
97.33880052301059
 30
0.0
 10
197.4440367224782
 20
97.33880052301058
 30
0.0
 10
195.8374442846872
 20
97.33880052301058
 30
0.0
  0
SPLINE
  5
2CF
330
1F
100
AcDbEntity
  8
0
  6
Continuous
 62
     7
370
    25
100
AcDbSpline
210
0.0
220
0.0
230
1.0
 70
    24
 71
     3
 72
    15
 73
    11
 74
     0
 42
0.00000001
 43
0.00000001
 40
0.0
 40
0.0
 40
0.0
 40
0.0
 40
0.1250000000000003
 40
0.2500000000000004
 40
0.3749999999999999
 40
0.5000000000000001
 40
0.6250000000000003
 40
0.7499999999999998
 40
0.875
 40
1.0
 40
1.0
 40
1.0
 40
1.0
 10
195.8374442846872
 20
97.33880052301058
 30
0.0
 10
195.8374442846872
 20
97.37880892412458
 30
0.0
 10
195.8374442846872
 20
97.45882572635259
 30
0.0
 10
195.8374442846872
 20
98.09804912363421
 30
0.0
 10
195.8374442846872
 20
99.0915510701961
 30
0.0
 10
195.8374442846872
 20
100.4387597401307
 30
0.0
 10
195.8374442846872
 20
102.0778257208121
 30
0.0
 10
195.8374442846872
 20
103.94846048492
 30
0.0
 10
195.8374442846872
 20
105.9780540900232
 30
0.0
 10
195.8374442846872
 20
107.3852183786814
 30
0.0
 10
195.8374442846872
 20
108.0888005230106
 30
0.0
  0
SPLINE
  5
2D0
330
1F
100
AcDbEntity
  8
0
  6
Continuous
 62
     7
370
    25
100
AcDbSpline
210
0.0
220
0.0
230
1.0
 70
     8
 71
     3
 72
    12
 73
     8
 74
     0
 42
0.00000001
 43
0.00000001
 40
0.0
 40
0.0
 40
0.0
 40
0.0
 40
0.0083795365781665
 40
0.0958567924053465
 40
0.1830705552997315
 40
0.356492235864228
 40
1.0
 40
1.0
 40
1.0
 40
1.0
 10
117.4731526478963
 20
108.0888005230106
 30
0.0
 10
117.4791668501846
 20
108.0851163433769
 30
0.0
 10
117.5479656596247
 20
108.0429715733127
 30
0.0
 10
117.6834903720559
 20
107.9692617017665
 30
0.0
 10
117.9477059513025
 20
107.8428513167132
 30
0.0
 10
118.6507663067408
 20
107.5491113275682
 30
0.0
 10
119.2980258192137
 20
107.3669342421681
 30
0.0
 10
119.8078819939289
 20
107.2234305777291
 30
0.0
  0
ARC
  5
2D1
330
1F
100
AcDbEntity
  8
0
  6
Continuous
 62
     7
370
    25
100
AcDbCircle
 10
124.9463450388
 20
94.5789176196
 30
0.0
 40
3.695783567043099
100
AcDbArc
 50
91.2463105627
 51
108.352169288
  0
SPLINE
  5
2D2
330
1F
100
AcDbEntity
  8
0
  6
Continuous
 62
     7
370
    25
100
AcDbSpline
210
0.0
220
0.0
230
1.0
 70
     8
 71
     3
 72
    16
 73
    12
 74
     0
 42
0.00000001
 43
0.00000001
 40
0.0
 40
0.0
 40
0.0
 40
0.0
 40
0.0036460627524314
 40
0.1285407933881971
 40
0.2538626077876391
 40
0.38040805447286
 40
0.5069784733327951
 40
0.6239525322835108
 40
0.7409191154634805
 40
0.8705485012177803
 40
1.0
 40
1.0
 40
1.0
 40
1.0
 10
117.4731526478963
 20
108.0888005230106
 30
0.0
 10
117.4795623691309
 20
108.072223887091
 30
0.0
 10
117.7055350714238
 20
107.487819811382
 30
0.0
 10
117.9695166585453
 20
106.2701896926809
 30
0.0
 10
118.3054797492557
 20
104.5136228159779
 30
0.0
 10
118.852615743873
 20
102.896337672249
 30
0.0
 10
119.4975982402362
 20
101.4815641088904
 30
0.0
 10
120.265964559302
 20
100.3067682336963
 30
0.0
 10
121.1876035064235
 20
99.33275372590334
 30
0.0
 10
122.316844037614
 20
98.56439813933181
 30
0.0
 10
123.2943066860552
 20
98.24588023119857
 30
0.0
 10
123.7827024435065
 20
98.08673062558182
 30
0.0
  0
ARC
  5
2D3
330
1F
100
AcDbEntity
  8
0
  6
Continuous
 62
     7
370
    25
100
AcDbCircle
 10
151.7097906
 20
94.5789176196
 30
0.0
 40
3.695783567043461
100
AcDbArc
 50
71.647830712
 51
88.7536894373
  0
SPLINE
  5
2D4
330
1F
100
AcDbEntity
  8
0
  6
Continuous
 62
     7
370
    25
100
AcDbSpline
210
0.0
220
0.0
230
1.0
 70
     8
 71
     3
 72
    12
 73
     8
 74
     0
 42
0.00000001
 43
0.00000001
 40
0.0
 40
0.0
 40
0.0
 40
0.0
 40
0.0083795365781654
 40
0.0958567924053455
 40
0.1830705552997306
 40
0.3564922358642273
 40
1.0
 40
1.0
 40
1.0
 40
1.0
 10
159.1829829908747
 20
108.0888005230106
 30
0.0
 10
159.1769687885864
 20
108.0851163433769
 30
0.0
 10
159.1081699791463
 20
108.0429715733127
 30
0.0
 10
158.9726452667151
 20
107.9692617017665
 30
0.0
 10
158.7084296874686
 20
107.8428513167132
 30
0.0
 10
158.0053693320302
 20
107.5491113275682
 30
0.0
 10
157.3581098195573
 20
107.3669342421681
 30
0.0
 10
156.8482536448421
 20
107.2234305777291
 30
0.0
  0
SPLINE
  5
2D5
330
1F
100
AcDbEntity
  8
0
  6
Continuous
 62
     7
370
    25
100
AcDbSpline
210
0.0
220
0.0
230
1.0
 70
     8
 71
     3
 72
    16
 73
    12
 74
     0
 42
0.00000001
 43
0.00000001
 40
0.0
 40
0.0
 40
0.0
 40
0.0
 40
0.0036460627524313
 40
0.128540793388197
 40
0.253862607787639
 40
0.3804080544728599
 40
0.506978473332795
 40
0.6239525322835107
 40
0.7409191154634804
 40
0.87054850121778
 40
1.0
 40
1.0
 40
1.0
 40
1.0
 10
159.1829829908747
 20
108.0888005230106
 30
0.0
 10
159.1765732696401
 20
108.072223887091
 30
0.0
 10
158.9506005673472
 20
107.487819811382
 30
0.0
 10
158.6866189802257
 20
106.270189692681
 30
0.0
 10
158.3506558895153
 20
104.5136228159779
 30
0.0
 10
157.803519894898
 20
102.896337672249
 30
0.0
 10
157.1585373985349
 20
101.4815641088904
 30
0.0
 10
156.390171079469
 20
100.3067682336963
 30
0.0
 10
155.4685321323476
 20
99.33275372590334
 30
0.0
 10
154.339291601157
 20
98.56439813933181
 30
0.0
 10
153.3618289527158
 20
98.24588023119857
 30
0.0
 10
152.8734331952645
 20
98.08673062558182
 30
0.0
  0
SPLINE
  5
2D6
330
1F
100
AcDbEntity
  8
0
  6
Continuous
 62
     7
370
    25
100
AcDbSpline
210
0.0
220
0.0
230
1.0
 70
     8
 71
     3
 72
    12
 73
     8
 74
     0
 42
0.00000001
 43
0.00000001
 40
0.0
 40
0.0
 40
0.0
 40
0.0
 40
0.6435077641343188
 40
0.8169294446995038
 40
0.9041432075942221
 40
0.9916204634217558
 40
1.0
 40
1.0
 40
1.0
 40
1.0
 10
119.8078819939213
 20
108.9541704682809
 30
0.0
 10
119.2980258192075
 20
108.810666803848
 30
0.0
 10
118.6507663067355
 20
108.6284897184552
 30
0.0
 10
117.9477059513039
 20
108.3347497293056
 30
0.0
 10
117.6834903720536
 20
108.2083393442588
 30
0.0
 10
117.5479656596305
 20
108.1346294726991
 30
0.0
 10
117.4791668501851
 20
108.0924847026436
 30
0.0
 10
117.4731526478963
 20
108.0888005230106
 30
0.0
  0
SPLINE
  5
2D7
330
1F
100
AcDbEntity
  8
0
  6
Continuous
 62
     7
370
    25
100
AcDbSpline
210
0.0
220
0.0
230
1.0
 70
     8
 71
     3
 72
    15
 73
    11
 74
     0
 42
0.00000001
 43
0.00000001
 40
0.0
 40
0.0
 40
0.0
 40
0.0
 40
0.1294530873601727
 40
0.2590840638753839
 40
0.376052082423325
 40
0.493027576833752
 40
0.6195995489161581
 40
0.7461465485174016
 40
0.8733701645101339
 40
1.0
 40
1.0
 40
1.0
 40
1.0
 10
123.7827024435065
 20
118.0908704204393
 30
0.0
 10
123.2943107628005
 20
117.931719512093
 30
0.0
 10
122.316856273452
 20
117.6131989967104
 30
0.0
 10
121.1875564801534
 20
116.8448623474276
 30
0.0
 10
120.2661217884106
 20
115.8707825695452
 30
0.0
 10
119.4969887869656
 20
114.6962316887684
 30
0.0
 10
118.8550994452234
 20
113.2804697035618
 30
0.0
 10
118.2934683511244
 20
111.6588177421266
 30
0.0
 10
117.9998241000688
 20
109.8701432746884
 30
0.0
 10
117.6484358249222
 20
108.6816547884132
 30
0.0
 10
117.4731526478963
 20
108.0888005230106
 30
0.0
  0
ARC
  5
2D8
330
1F
100
AcDbEntity
  8
0
  6
Continuous
 62
     7
370
    25
100
AcDbCircle
 10
124.9463450388
 20
121.5986834264
 30
0.0
 40
3.695783567043541
100
AcDbArc
 50
251.647830712
 51
268.7536894373
  0
ARC
  5
2D9
330
1F
100
AcDbEntity
  8
0
  6
Continuous
 62
     7
370
    25
100
AcDbCircle
 10
151.7097906
 20
121.5986834264
 30
0.0
 40
3.695783567043868
100
AcDbArc
 50
271.2463105627
 51
288.352169288
  0
SPLINE
  5
2DA
330
1F
100
AcDbEntity
  8
0
  6
Continuous
 62
     7
370
    25
100
AcDbSpline
210
0.0
220
0.0
230
1.0
 70
     8
 71
     3
 72
    15
 73
    11
 74
     0
 42
0.00000001
 43
0.00000001
 40
0.0
 40
0.0
 40
0.0
 40
0.0
 40
0.1294530873601727
 40
0.2590840638753839
 40
0.376052082423325
 40
0.493027576833752
 40
0.6195995489161581
 40
0.7461465485174016
 40
0.8733701645101339
 40
1.0
 40
1.0
 40
1.0
 40
1.0
 10
152.8734331952645
 20
118.0908704204393
 30
0.0
 10
153.3618248759705
 20
117.931719512093
 30
0.0
 10
154.339279365319
 20
117.6131989967104
 30
0.0
 10
155.4685791586176
 20
116.8448623474276
 30
0.0
 10
156.3900138503604
 20
115.8707825695452
 30
0.0
 10
157.1591468518054
 20
114.6962316887684
 30
0.0
 10
157.8010361935476
 20
113.2804697035618
 30
0.0
 10
158.3626672876466
 20
111.6588177421266
 30
0.0
 10
158.6563115387022
 20
109.8701432746884
 30
0.0
 10
159.0076998138488
 20
108.6816547884132
 30
0.0
 10
159.1829829908747
 20
108.0888005230106
 30
0.0
  0
SPLINE
  5
2DB
330
1F
100
AcDbEntity
  8
0
  6
Continuous
 62
     7
370
    25
100
AcDbSpline
210
0.0
220
0.0
230
1.0
 70
     8
 71
     3
 72
    12
 73
     8
 74
     0
 42
0.00000001
 43
0.00000001
 40
0.0
 40
0.0
 40
0.0
 40
0.0
 40
0.6435077641343194
 40
0.8169294446995048
 40
0.9041432075942231
 40
0.9916204634217569
 40
1.0
 40
1.0
 40
1.0
 40
1.0
 10
156.8482536448497
 20
108.9541704682809
 30
0.0
 10
157.3581098195635
 20
108.810666803848
 30
0.0
 10
158.0053693320355
 20
108.6284897184552
 30
0.0
 10
158.7084296874671
 20
108.3347497293056
 30
0.0
 10
158.9726452667174
 20
108.2083393442588
 30
0.0
 10
159.1081699791405
 20
108.1346294726991
 30
0.0
 10
159.1769687885859
 20
108.0924847026436
 30
0.0
 10
159.1829829908747
 20
108.0888005230106
 30
0.0
  0
LINE
  5
2DC
330
1F
100
AcDbEntity
  8
0
  6
Continuous
 62
     7
370
    25
100
AcDbLine
 10
195.8374442847
 20
97.338800523
 30
0.0
 11
147.8715538177
 21
97.338800523
 31
0.0
  0
LINE
  5
2DD
330
1F
100
AcDbEntity
  8
0
  6
Continuous
 62
     7
370
    25
100
AcDbLine
 10
195.8374442847
 20
118.838800523
 30
0.0
 11
147.8715538177
 21
118.838800523
 31
0.0
  0
LINE
  5
2DE
330
1F
100
AcDbEntity
  8
0
  6
Continuous
 62
     7
370
    25
100
AcDbLine
 10
80.8186913541
 20
97.338800523
 30
0.0
 11
128.7845818211
 21
97.338800523
 31
0.0
  0
LINE
  5
2DF
330
1F
100
AcDbEntity
  8
0
  6
Continuous
 62
     7
370
    25
100
AcDbLine
 10
80.8186913541
 20
118.838800523
 30
0.0
 11
128.7845818211
 21
118.838800523
 31
0.0
  0
ARC
  5
2E0
330
1F
100
AcDbEntity
  8
0
  6
Continuous
 62
     7
370
    25
100
AcDbCircle
 10
58.3280678194
 20
124.217566299
 30
0.0
 40
5.000000000000007
100
AcDbArc
 50
180.0
 51
264.8819374039
  0
SPLINE
  5
2E1
330
1F
100
AcDbEntity
  8
0
  6
Continuous
 62
     7
370
    25
100
AcDbSpline
210
0.0
220
0.0
230
1.0
 70
     8
 71
     3
 72
     9
 73
     5
 74
     0
 42
0.00000001
 43
0.00000001
 40
0.0
 40
0.0
 40
0.0
 40
0.0
 40
0.2705243364503947
 40
1.0
 40
1.0
 40
1.0
 40
1.0
 10
57.17556016016301
 20
119.3044114803417
 30
0.0
 10
57.30910144393189
 20
119.2913044950088
 30
0.0
 10
57.80274015134401
 20
119.2428541947332
 30
0.0
 10
57.84858421202087
 20
119.2397591209075
 30
0.0
 10
57.88202633860293
 20
119.2375013398748
 30
0.0
  0
ARC
  5
2E2
330
1F
100
AcDbEntity
  8
0
  6
Continuous
 62
     7
370
    25
100
AcDbCircle
 10
218.3280678194
 20
124.217566299
 30
0.0
 40
5.0
100
AcDbArc
 50
275.1180625961
 51
0.0
  0
ARC
  5
2E3
330
1F
100
AcDbEntity
  8
0
  6
Continuous
 62
     7
370
    25
100
AcDbCircle
 10
227.9291790219
 20
90.6032731969
 30
0.0
 40
5.000000000000007
100
AcDbArc
 50
55.0204557102
 51
79.031305318
  0
ELLIPSE
  5
2E4
330
1F
100
AcDbEntity
  8
0
  6
Continuous
 62
     8
370
    25
100
AcDbEllipse
 10
296.3700173927
 20
109.5633622179
 30
0.0
 11
1.496369513594516
 21
-0.1332068542784697
 31
0.0
210
0.0
220
0.0
230
1.0
 40
0.0174284859
 41
6.266694911159234
 42
6.779275173444046
  0
ELLIPSE
  5
2E5
330
1F
100
AcDbEntity
  8
0
  6
Continuous
 62
     8
370
    25
100
AcDbEllipse
 10
-19.6753988067
 20
105.549570899
 30
0.0
 11
1.498648490144141
 21
-0.1044915797115493
 31
0.0
210
0.0
220
0.0
230
1.0
 40
0.0174284859
 41
3.125102257569176
 42
3.637682519854752
  0
LINE
  5
2E6
330
1F
100
AcDbEntity
  8
0
  6
Continuous
 62
     8
370
    25
100
AcDbLine
 10
61.6280678194
 20
165.538800523
 30
0.0
 11
10.0280678194
 21
165.538800523
 31
0.0
  0
LINE
  5
2E7
330
1F
100
AcDbEntity
  8
0
  6
Continuous
 62
     8
370
    25
100
AcDbLine
 10
61.6177235944
 20
163.038800523
 30
0.0
 11
61.6280678194
 21
163.038800523
 31
0.0
  0
LINE
  5
2E8
330
1F
100
AcDbEntity
  8
0
  6
Continuous
 62
     8
370
    25
100
AcDbLine
 10
10.0280678194
 20
163.038800523
 30
0.0
 11
61.6177235944
 21
163.038800523
 31
0.0
  0
SPLINE
  5
2E9
330
1F
100
AcDbEntity
  8
0
  6
Continuous
 62
     8
370
    25
100
AcDbSpline
210
0.0
220
0.0
230
1.0
 70
     8
 71
     3
 72
    10
 73
     6
 74
     0
 42
0.00000001
 43
0.00000001
 40
0.0
 40
0.0
 40
0.0
 40
0.0
 40
0.2189318414093667
 40
0.6177857407788148
 40
1.0
 40
1.0
 40
1.0
 40
1.0
 10
53.6185443806414
 20
147.5870462354114
 30
0.0
 10
53.64756260166309
 20
147.592441880849
 30
0.0
 10
53.72944673078096
 20
147.607667408539
 30
0.0
 10
53.78925077630042
 20
147.6177415128109
 30
0.0
 10
53.74573930397203
 20
147.6080334292336
 30
0.0
 10
53.72444704544024
 20
147.6032827964853
 30
0.0
  0
LINE
  5
2EA
330
1F
100
AcDbEntity
  8
0
  6
Continuous
 62
     8
370
    25
100
AcDbLine
 10
22.0309047027
 20
146.7539271686
 30
0.0
 11
49.6252309361
 21
146.7539271686
 31
0.0
  0
LINE
  5
2EB
330
1F
100
AcDbEntity
  8
0
  6
Continuous
 62
     8
370
    25
100
AcDbLine
 10
48.8280678194
 20
145.7747146285
 30
0.0
 11
22.8280678194
 21
145.7747146285
 31
0.0
  0
LINE
  5
2EC
330
1F
100
AcDbEntity
  8
0
  6
Continuous
 62
     8
370
    25
100
AcDbLine
 10
54.5645124051
 20
161.038800523
 30
0.0
 11
54.2675543924
 21
161.038800523
 31
0.0
  0
SPLINE
  5
2ED
330
1F
100
AcDbEntity
  8
0
  6
Continuous
 62
     8
370
    25
100
AcDbSpline
210
0.0
220
0.0
230
1.0
 70
     8
 71
     3
 72
    10
 73
     6
 74
     0
 42
0.00000001
 43
0.00000001
 40
0.0
 40
0.0
 40
0.0
 40
0.0
 40
0.0595198163307505
 40
0.6668412068398806
 40
1.0
 40
1.0
 40
1.0
 40
1.0
 10
54.55475678383959
 20
148.5915112211518
 30
0.0
 10
54.55793234835073
 20
148.5918817238196
 30
0.0
 10
54.59351036927799
 20
148.5960327185862
 30
0.0
 10
54.48382605036893
 20
148.5863656557199
 30
0.0
 10
54.32412678528706
 20
148.5715183381512
 30
0.0
 10
54.26755439243171
 20
148.5662587755482
 30
0.0
  0
SPLINE
  5
2EE
330
1F
100
AcDbEntity
  8
0
  6
Continuous
 62
     8
370
    25
100
AcDbSpline
210
0.0
220
0.0
230
1.0
 70
     8
 71
     3
 72
     9
 73
     5
 74
     0
 42
0.00000001
 43
0.00000001
 40
0.0
 40
0.0
 40
0.0
 40
0.0
 40
0.3987010578383508
 40
1.0
 40
1.0
 40
1.0
 40
1.0
 10
17.33195202588422
 20
148.5662587755493
 30
0.0
 10
17.2746878387062
 20
148.5722135898243
 30
0.0
 10
17.1310609632509
 20
148.5871491265075
 30
0.0
 10
17.11266605472436
 20
148.5898564597293
 30
0.0
 10
17.10160521568621
 20
148.5914843763316
 30
0.0
  0
LINE
  5
2EF
330
1F
100
AcDbEntity
  8
0
  6
Continuous
 62
     8
370
    25
100
AcDbLine
 10
17.3319520259
 20
161.038800523
 30
0.0
 11
17.091622997
 21
161.038800523
 31
0.0
  0
LINE
  5
2F0
330
1F
100
AcDbEntity
  8
0
  6
Continuous
 62
     8
370
    25
100
AcDbLine
 10
215.0280829672
 20
163.038800523
 30
0.0
 11
266.6280678194
 21
163.038800523
 31
0.0
  0
LINE
  5
2F1
330
1F
100
AcDbEntity
  8
0
  6
Continuous
 62
     8
370
    25
100
AcDbLine
 10
266.6280526716
 20
165.538800523
 30
0.0
 11
215.0280678194
 21
165.538800523
 31
0.0
  0
SPLINE
  5
2F2
330
1F
100
AcDbEntity
  8
0
  6
Continuous
 62
     8
370
    25
100
AcDbSpline
210
0.0
220
0.0
230
1.0
 70
     8
 71
     3
 72
    10
 73
     6
 74
     0
 42
0.00000001
 43
0.00000001
 40
0.0
 40
0.0
 40
0.0
 40
0.0
 40
0.3384706001769203
 40
0.9551023237006709
 40
1.0
 40
1.0
 40
1.0
 40
1.0
 10
258.6394476850136
 20
147.5870462354115
 30
0.0
 10
258.6662361264449
 20
147.5922975156523
 30
0.0
 10
258.7418282240921
 20
147.6071156710778
 30
0.0
 10
258.7917683187976
 20
147.6168160521273
 30
0.0
 10
258.7715341217751
 20
147.6128330150478
 30
0.0
 10
258.7701608367354
 20
147.6125626882725
 30
0.0
  0
LINE
  5
2F3
330
1F
100
AcDbEntity
  8
0
  6
Continuous
 62
     8
370
    25
100
AcDbLine
 10
222.885974802
 20
147.6125626883
 30
0.0
 11
222.9148930407
 21
147.6068672649
 31
0.0
  0
LINE
  5
2F4
330
1F
100
AcDbEntity
  8
0
  6
Continuous
 62
     8
370
    25
100
AcDbLine
 10
227.0309047027
 20
146.7539271686
 30
0.0
 11
254.6252228354
 21
146.7539271686
 31
0.0
  0
LINE
  5
2F5
330
1F
100
AcDbEntity
  8
0
  6
Continuous
 62
     8
370
    25
100
AcDbLine
 10
253.8280601868
 20
145.7747146285
 30
0.0
 11
227.8280678194
 21
145.7747146285
 31
0.0
  0
LINE
  5
2F6
330
1F
100
AcDbEntity
  8
0
  6
Continuous
 62
     8
370
    25
100
AcDbLine
 10
259.5712154661
 20
161.038800523
 30
0.0
 11
259.3021819584
 21
161.038800523
 31
0.0
  0
SPLINE
  5
2F7
330
1F
100
AcDbEntity
  8
0
  6
Continuous
 62
     8
370
    25
100
AcDbSpline
210
0.0
220
0.0
230
1.0
 70
     8
 71
     3
 72
    10
 73
     6
 74
     0
 42
0.00000001
 43
0.00000001
 40
0.0
 40
0.0
 40
0.0
 40
0.0
 40
0.0110620927799985
 40
0.6496753835087526
 40
1.0
 40
1.0
 40
1.0
 40
1.0
 10
259.5693389846986
 20
148.5923567675339
 30
0.0
 10
259.569962982557
 20
148.5924182413782
 30
0.0
 10
259.6066103020112
 20
148.5960285928855
 30
0.0
 10
259.5061502182785
 20
148.5862630597133
 30
0.0
 10
259.3555360253625
 20
148.5714915010649
 30
0.0
 10
259.3021819583516
 20
148.5662587755513
 30
0.0
  0
SPLINE
  5
2F8
330
1F
100
AcDbEntity
  8
0
  6
Continuous
 62
     8
370
    25
100
AcDbSpline
210
0.0
220
0.0
230
1.0
 70
     8
 71
     3
 72
     9
 73
     5
 74
     0
 42
0.00000001
 43
0.00000001
 40
0.0
 40
0.0
 40
0.0
 40
0.0
 40
0.3784092830463807
 40
1.0
 40
1.0
 40
1.0
 40
1.0
 10
222.3517864247328
 20
148.5662587755494
 30
0.0
 10
222.2916386931585
 20
148.5721806130006
 30
0.0
 10
222.1326898135486
 20
148.5878299052261
 30
0.0
 10
222.1046549432311
 20
148.5905952702491
 30
0.0
 10
222.0872287280908
 20
148.5923141954763
 30
0.0
  0
LINE
  5
2F9
330
1F
100
AcDbEntity
  8
0
  6
Continuous
 62
     8
370
    25
100
AcDbLine
 10
222.3517864247
 20
161.038800523
 30
0.0
 11
222.0849198432
 21
161.038800523
 31
0.0
  0
SPLINE
  5
2FA
330
1F
100
AcDbEntity
  8
0
  6
Continuous
 62
     8
370
    25
100
AcDbSpline
210
0.0
220
0.0
230
1.0
 70
     8
 71
     3
 72
    14
 73
    10
 74
     0
 42
0.00000001
 43
0.00000001
 40
0.0
 40
0.0
 40
0.0
 40
0.0
 40
0.1895794082214933
 40
0.3791960395163054
 40
0.5121413121947295
 40
0.645593001983996
 40
0.7787280012122823
 40
0.9523002077868459
 40
1.0
 40
1.0
 40
1.0
 40
1.0
 10
206.1558507140097
 20
108.0888005230106
 30
0.0
 10
207.6609195017529
 20
108.0504077868962
 30
0.0
 10
210.6713525907994
 20
107.9736147764244
 30
0.0
 10
214.3040577724265
 20
107.4136747391447
 30
0.0
 10
217.1776689229297
 20
106.6441944638134
 30
0.0
 10
219.4292996516715
 20
105.7468173687448
 30
0.0
 10
221.6464357730921
 20
104.4900220861657
 30
0.0
 10
223.2107187758992
 20
103.2575185270893
 30
0.0
 10
224.1800842192403
 20
102.3232143664112
 30
0.0
 10
224.3890511489888
 20
102.121805627066
 30
0.0
  0
SPLINE
  5
2FB
330
1F
100
AcDbEntity
  8
0
  6
Continuous
 62
     8
370
    25
100
AcDbSpline
210
0.0
220
0.0
230
1.0
 70
     8
 71
     3
 72
    14
 73
    10
 74
     0
 42
0.00000001
 43
0.00000001
 40
0.0
 40
0.0
 40
0.0
 40
0.0
 40
0.1586892998889449
 40
0.3226994796250624
 40
0.4901756931414689
 40
0.6625115993806102
 40
0.8097228148047252
 40
0.958033448302974
 40
1.0
 40
1.0
 40
1.0
 40
1.0
 10
70.5002849247613
 20
108.0888005230106
 30
0.0
 10
69.0180417838784
 20
108.0519506282892
 30
0.0
 10
66.00385563159543
 20
107.9770152554622
 30
0.0
 10
61.92255818076206
 20
107.3490282326097
 30
0.0
 10
58.26726554001374
 20
106.2815309877566
 30
0.0
 10
55.32901583350555
 20
104.7448440145741
 30
0.0
 10
52.86869256043504
 20
102.7851282380935
 30
0.0
 10
51.21485957943124
 20
101.1044523834883
 30
0.0
 10
50.1450760287174
 20
100.1094102444243
 30
0.0
 10
49.90913010256978
 20
99.88994889740633
 30
0.0
  0
SPLINE
  5
2FC
330
1F
100
AcDbEntity
  8
0
  6
Continuous
 62
     8
370
    25
100
AcDbSpline
210
0.0
220
0.0
230
1.0
 70
     8
 71
     3
 72
    10
 73
     6
 74
     0
 42
0.00000001
 43
0.00000001
 40
0.0
 40
0.0
 40
0.0
 40
0.0
 40
0.1432659911262007
 40
0.569791790278193
 40
1.0
 40
1.0
 40
1.0
 40
1.0
 10
49.48996766968433
 20
120.3490748872919
 30
0.0
 10
49.81037672095209
 20
120.291799562879
 30
0.0
 10
51.08469483028193
 20
120.0640064252372
 30
0.0
 10
53.172911962684
 20
119.7386334664753
 30
0.0
 10
54.73751073421212
 20
119.5644562089148
 30
0.0
 10
55.52317259595713
 20
119.476993256151
 30
0.0
  0
SPLINE
  5
2FD
330
1F
100
AcDbEntity
  8
0
  6
Continuous
 62
     8
370
    25
100
AcDbSpline
210
0.0
220
0.0
230
1.0
 70
     8
 71
     3
 72
    14
 73
    10
 74
     0
 42
0.00000001
 43
0.00000001
 40
0.0
 40
0.0
 40
0.0
 40
0.0
 40
0.1584297727246418
 40
0.3221717233054632
 40
0.4893740391689559
 40
0.6614281000090367
 40
0.8083985600115866
 40
0.9564666400536496
 40
0.9999999999999999
 40
0.9999999999999999
 40
0.9999999999999999
 40
0.9999999999999999
 10
70.50028492476129
 20
108.0888005230106
 30
0.0
 10
69.01804215885856
 20
108.1256502881278
 30
0.0
 10
66.00385676910912
 20
108.2005853974008
 30
0.0
 10
61.9225534103789
 20
108.8285744621961
 30
0.0
 10
58.26728405582188
 20
109.896063658657
 30
0.0
 10
55.3289489334626
 20
111.4327801540684
 30
0.0
 10
52.8689025495475
 20
113.392400229518
 30
0.0
 10
51.20627470286654
 20
115.0814990817107
 30
0.0
 10
50.12698444319033
 20
116.0852102523253
 30
0.0
 10
49.88176117470179
 20
116.3132613550476
 30
0.0
  0
SPLINE
  5
2FE
330
1F
100
AcDbEntity
  8
0
  6
Continuous
 62
     8
370
    25
100
AcDbSpline
210
0.0
220
0.0
230
1.0
 70
     8
 71
     3
 72
    13
 73
     9
 74
     0
 42
0.00000001
 43
0.00000001
 40
0.0
 40
0.0
 40
0.0
 40
0.0
 40
0.1799003222414469
 40
0.3658327336015947
 40
0.5556944621520641
 40
0.7510654486514075
 40
0.9179534814985315
 40
1.0
 40
1.0
 40
1.0
 40
1.0
 10
206.1558507140097
 20
108.0888005230106
 30
0.0
 10
207.6380573589057
 20
108.1255924565406
 30
0.0
 10
210.652169295498
 20
108.2004099635359
 30
0.0
 10
214.7340417487871
 20
108.8293101779529
 30
0.0
 10
218.387067996334
 20
109.8932080448682
 30
0.0
 10
221.3336310376559
 20
111.4430978611849
 30
0.0
 10
223.3720455736457
 20
113.0488807485635
 30
0.0
 10
224.5009985950073
 20
114.1496597429538
 30
0.0
 10
224.8730910363845
 20
114.5124662864408
 30
0.0
  0
SPLINE
  5
2FF
330
1F
100
AcDbEntity
  8
0
  6
Continuous
 62
     8
370
    25
100
AcDbSpline
210
0.0
220
0.0
230
1.0
 70
     8
 71
     3
 72
    10
 73
     6
 74
     0
 42
0.00000001
 43
0.00000001
 40
0.0
 40
0.0
 40
0.0
 40
0.0
 40
0.1574605636474221
 40
0.5769195820652243
 40
0.9999999999999999
 40
0.9999999999999999
 40
0.9999999999999999
 40
0.9999999999999999
 10
227.2785755333848
 20
120.3689655643284
 30
0.0
 10
226.9203242327752
 20
120.3048727604889
 30
0.0
 10
225.6077276953668
 20
120.0700432085813
 30
0.0
 10
223.4828462722732
 20
119.7384440330245
 30
0.0
 10
221.9184987433244
 20
119.5643928837518
 30
0.0
 10
221.1329630428139
 20
119.476993256151
 30
0.0
  0
LINE
  5
300
330
1F
100
AcDbEntity
  8
0
  6
Continuous
 62
     8
370
    25
100
AcDbLine
 10
35.8280678194
 20
125.938800523
 30
0.0
 11
35.8280678194
 21
124.3737459447
 31
0.0
  0
LWPOLYLINE
  5
301
330
1F
100
AcDbEntity
  8
0
  6
Continuous
 62
     8
370
    25
100
AcDbPolyline
 90
        3
 70
   128
 43
0.0
 10
40.0560747624
 20
125.938800523
 10
39.9138414681
 20
125.2496101881
 10
39.8043011546
 20
124.6226932301
  0
ARC
  5
302
330
1F
100
AcDbEntity
  8
0
  6
Continuous
 62
     8
370
    25
100
AcDbCircle
 10
217.0544949715
 20
121.5246348737
 30
0.0
 40
20.03781437483515
100
AcDbArc
 50
8.0360447263
 51
12.7261707796
  0
ARC
  5
303
330
1F
100
AcDbEntity
  8
0
  6
Continuous
 62
     8
370
    25
100
AcDbCircle
 10
19.0145698546
 20
121.6871325877
 30
0.0
 40
10.67997705575087
100
AcDbArc
 50
11.98578437
 51
23.4592730309
  0
ARC
  5
304
330
1F
100
AcDbEntity
  8
0
  6
Continuous
 62
     8
370
    25
100
AcDbCircle
 10
256.5299479199
 20
122.0613980486
 30
0.0
 40
9.511765202577982
100
AcDbArc
 50
155.94315588
 51
172.5543197163
  0
ARC
  5
305
330
1F
100
AcDbEntity
  8
0
  6
Continuous
 62
     8
370
    25
100
AcDbCircle
 10
227.1613783668
 20
124.447462384
 30
0.0
 40
5.24181549403758
100
AcDbArc
 50
325.7757798728
 51
16.5294381717
  0
ARC
  5
306
330
1F
100
AcDbEntity
  8
0
  6
Continuous
 62
     8
370
    25
100
AcDbCircle
 10
53.0082124487
 20
124.4777787809
 30
0.0
 40
8.662739500784575
100
AcDbArc
 50
170.2903231443
 51
186.6466132075
  0
SPLINE
  5
307
330
1F
100
AcDbEntity
  8
0
  6
Continuous
 62
     8
370
    25
100
AcDbSpline
210
0.0
220
0.0
230
1.0
 70
     8
 71
     3
 72
    11
 73
     7
 74
     0
 42
0.00000001
 43
0.00000001
 40
0.0
 40
0.0
 40
0.0
 40
0.0
 40
0.207713225861605
 40
0.4187268174729206
 40
0.7384486574695532
 40
0.9999999999999999
 40
0.9999999999999999
 40
0.9999999999999999
 40
0.9999999999999999
 10
247.8443605867802
 20
125.9388005230106
 30
0.0
 10
248.3808717970361
 20
125.5595485757048
 30
0.0
 10
249.4624188707826
 20
124.7950187280891
 30
0.0
 10
251.0868871653909
 20
123.1952139703447
 30
0.0
 10
252.6009672305967
 20
121.3154736238154
 30
0.0
 10
253.4242737402434
 20
119.7628761742916
 30
0.0
 10
253.7947310903934
 20
119.0642649884687
 30
0.0
  0
SPLINE
  5
308
330
1F
100
AcDbEntity
  8
0
  6
Continuous
 62
     8
370
    25
100
AcDbSpline
210
0.0
220
0.0
230
1.0
 70
     8
 71
     3
 72
    11
 73
     7
 74
     0
 42
0.00000001
 43
0.00000001
 40
0.0
 40
0.0
 40
0.0
 40
0.0
 40
0.1999298173308511
 40
0.4000171600375629
 40
0.7083078910115602
 40
1.0
 40
1.0
 40
1.0
 40
1.0
 10
28.81177505199082
 20
125.9388005230106
 30
0.0
 10
28.27143571625246
 20
125.5565001734444
 30
0.0
 10
27.19033130959472
 20
124.7915982585801
 30
0.0
 10
25.55858944770689
 20
123.1855698397185
 30
0.0
 10
23.96700404269071
 20
121.1938895354814
 30
0.0
 10
23.08229747358626
 20
119.5130827184856
 30
0.0
 10
22.6521819639591
 20
118.695929205758
 30
0.0
  0
SPLINE
  5
309
330
1F
100
AcDbEntity
  8
0
  6
Continuous
 62
     8
370
    25
100
AcDbSpline
210
0.0
220
0.0
230
1.0
 70
     8
 71
     3
 72
     9
 73
     5
 74
     0
 42
0.00000001
 43
0.00000001
 40
0.0
 40
0.0
 40
0.0
 40
0.0
 40
0.6118467405544997
 40
1.0
 40
1.0
 40
1.0
 40
1.0
 10
124.1466210780802
 20
109.5728743746795
 30
0.0
 10
123.9871647739222
 20
109.2298312461786
 30
0.0
 10
123.7265499931463
 20
108.6691628536494
 30
0.0
 10
123.3640897337986
 20
108.2510805369529
 30
0.0
 10
123.2233996027133
 20
108.0888005230106
 30
0.0
  0
SPLINE
  5
30A
330
1F
100
AcDbEntity
  8
0
  6
Continuous
 62
     8
370
    25
100
AcDbSpline
210
0.0
220
0.0
230
1.0
 70
     8
 71
     3
 72
     9
 73
     5
 74
     0
 42
0.00000001
 43
0.00000001
 40
0.0
 40
0.0
 40
0.0
 40
0.0
 40
0.575808928950852
 40
1.0
 40
1.0
 40
1.0
 40
1.0
 10
124.0749043092894
 20
106.7402123550023
 30
0.0
 10
123.9369443258694
 20
107.0347205556346
 30
0.0
 10
123.6973509877262
 20
107.5461891797299
 30
0.0
 10
123.3645646119039
 20
107.9271853496335
 30
0.0
 10
123.2233996027133
 20
108.0888005230106
 30
0.0
  0
SPLINE
  5
30B
330
1F
100
AcDbEntity
  8
0
  6
Continuous
 62
     8
370
    25
100
AcDbSpline
210
0.0
220
0.0
230
1.0
 70
     8
 71
     3
 72
     9
 73
     5
 74
     0
 42
0.00000001
 43
0.00000001
 40
0.0
 40
0.0
 40
0.0
 40
0.0
 40
0.6004670959350782
 40
1.0
 40
1.0
 40
1.0
 40
1.0
 10
152.5335581872328
 20
109.5274517038781
 30
0.0
 10
152.6858169307376
 20
109.2006932590817
 30
0.0
 10
152.9393841029199
 20
108.6565194866828
 30
0.0
 10
153.2918959529127
 20
108.2508706005271
 30
0.0
 10
153.4327360360577
 20
108.0888005230106
 30
0.0
  0
SPLINE
  5
30C
330
1F
100
AcDbEntity
  8
0
  6
Continuous
 62
     8
370
    25
100
AcDbSpline
210
0.0
220
0.0
230
1.0
 70
     8
 71
     3
 72
     9
 73
     5
 74
     0
 42
0.00000001
 43
0.00000001
 40
0.0
 40
0.0
 40
0.0
 40
0.0
 40
0.6144057452699635
 40
1.0
 40
1.0
 40
1.0
 40
1.0
 10
152.5039122865334
 20
106.5941429827976
 30
0.0
 10
152.6650444360577
 20
106.9409822230995
 30
0.0
 10
152.9273013416365
 20
107.5054939370149
 30
0.0
 10
153.2920796255358
 20
107.926473299483
 30
0.0
 10
153.4327360360577
 20
108.0888005230106
 30
0.0
  0
SPLINE
  5
30D
330
1F
100
AcDbEntity
  8
0
  6
Continuous
 62
     8
370
    25
100
AcDbSpline
210
0.0
220
0.0
230
1.0
 70
     8
 71
     3
 72
    10
 73
     6
 74
     0
 42
0.00000001
 43
0.00000001
 40
0.0
 40
0.0
 40
0.0
 40
0.0
 40
0.4910653014746985
 40
0.7832499350670505
 40
1.0
 40
1.0
 40
1.0
 40
1.0
 10
151.7901757681436
 20
117.9037741718952
 30
0.0
 10
151.1367670339169
 20
117.9836776651531
 30
0.0
 10
150.0945790660064
 20
118.1111238636891
 30
0.0
 10
149.059187977479
 20
118.2337651920688
 30
0.0
 10
148.5619363232263
 20
118.3302899431622
 30
0.0
 10
148.3501619469467
 20
118.3713988440247
 30
0.0
  0
SPLINE
  5
30E
330
1F
100
AcDbEntity
  8
0
  6
Continuous
 62
     8
370
    25
100
AcDbSpline
210
0.0
220
0.0
230
1.0
 70
     8
 71
     3
 72
    10
 73
     6
 74
     0
 42
0.00000001
 43
0.00000001
 40
0.0
 40
0.0
 40
0.0
 40
0.0
 40
0.000037987442484
 40
0.8816373690641013
 40
0.9999999999999999
 40
0.9999999999999999
 40
0.9999999999999999
 40
0.9999999999999999
 10
148.9346101039827
 20
118.6953428076078
 30
0.0
 10
148.9345965830013
 20
118.6953449163693
 30
0.0
 10
148.6207928188166
 20
118.7442864310731
 30
0.0
 10
148.2582489268616
 20
118.7920300817728
 30
0.0
 10
147.8594717114842
 20
118.8064783281222
 30
0.0
 10
147.8122695980272
 20
118.8081885255386
 30
0.0
  0
SPLINE
  5
30F
330
1F
100
AcDbEntity
  8
0
  6
Continuous
 62
     8
370
    25
100
AcDbSpline
210
0.0
220
0.0
230
1.0
 70
     8
 71
     3
 72
    10
 73
     6
 74
     0
 42
0.00000001
 43
0.00000001
 40
0.0
 40
0.0
 40
0.0
 40
0.0
 40
0.4724373039230258
 40
0.7535382494135112
 40
1.0
 40
1.0
 40
1.0
 40
1.0
 10
151.7901757681436
 20
98.27382687412596
 30
0.0
 10
151.136636978368
 20
98.19407276652358
 30
0.0
 10
150.0942415716505
 20
98.06686483834517
 30
0.0
 10
149.0190674227379
 20
97.93819098933609
 30
0.0
 10
148.4837114240178
 20
97.83370549479034
 30
0.0
 10
148.2336088720127
 20
97.78489294968784
 30
0.0
  0
LWPOLYLINE
  5
310
330
1F
100
AcDbEntity
  8
0
  6
Continuous
 62
     8
370
    25
100
AcDbPolyline
 90
        4
 70
   128
 43
0.0
 10
147.7596683861
 20
97.3920935507
 10
148.934569541
 20
97.4822519121
 10
148.934610104
 20
97.4822582384
 10
148.934610104
 20
97.4822582384
  0
LWPOLYLINE
  5
311
330
1F
100
AcDbEntity
  8
0
  6
Continuous
 62
     8
370
    25
100
AcDbPolyline
 90
        4
 70
   128
 43
0.0
 10
128.7141337711
 20
97.4060852707
 10
127.7215660977
 20
97.4822519121
 10
127.7215255348
 20
97.4822582384
 10
127.7215255348
 20
97.4822582384
  0
SPLINE
  5
312
330
1F
100
AcDbEntity
  8
0
  6
Continuous
 62
     8
370
    25
100
AcDbSpline
210
0.0
220
0.0
230
1.0
 70
     8
 71
     3
 72
    10
 73
     6
 74
     0
 42
0.00000001
 43
0.00000001
 40
0.0
 40
0.0
 40
0.0
 40
0.0
 40
0.4798761549103071
 40
0.7654032285420802
 40
1.0
 40
1.0
 40
1.0
 40
1.0
 10
124.8659598706274
 20
98.27382687412596
 30
0.0
 10
125.5194479672949
 20
98.19401453891814
 30
0.0
 10
126.5617625184244
 20
98.06671373761667
 30
0.0
 10
127.6206695814575
 20
97.94049380789585
 30
0.0
 10
128.1404539082844
 20
97.83926100573973
 30
0.0
 10
128.3748975433518
 20
97.79360094078469
 30
0.0
  0
SPLINE
  5
313
330
1F
100
AcDbEntity
  8
0
  6
Continuous
 62
     8
370
    25
100
AcDbSpline
210
0.0
220
0.0
230
1.0
 70
     8
 71
     3
 72
    10
 73
     6
 74
     0
 42
0.00000001
 43
0.00000001
 40
0.0
 40
0.0
 40
0.0
 40
0.0
 40
0.4846834968178605
 40
0.7730709465128441
 40
1.0
 40
1.0
 40
1.0
 40
1.0
 10
124.8659598706274
 20
117.9037741718952
 30
0.0
 10
125.5194143400005
 20
117.9836251324093
 30
0.0
 10
126.5616752555422
 20
118.1109875411355
 30
0.0
 10
127.6103421332508
 20
118.2356539223434
 30
0.0
 10
128.1203178312044
 20
118.3348374774649
 30
0.0
 10
128.3448949633618
 20
118.3785147712178
 30
0.0
  0
SPLINE
  5
314
330
1F
100
AcDbEntity
  8
0
  6
Continuous
 62
     8
370
    25
100
AcDbSpline
210
0.0
220
0.0
230
1.0
 70
     8
 71
     3
 72
    10
 73
     6
 74
     0
 42
0.00000001
 43
0.00000001
 40
0.0
 40
0.0
 40
0.0
 40
0.0
 40
0.0000363409615408
 40
0.8434247642801124
 40
1.0
 40
1.0
 40
1.0
 40
1.0
 10
127.7215255347884
 20
118.6953428076078
 30
0.0
 10
127.7215390557692
 20
118.6953449163697
 30
0.0
 10
128.0353428088442
 20
118.7442864412692
 30
0.0
 10
128.4152296802794
 20
118.7933505471535
 30
0.0
 10
128.8325334657689
 20
118.8080320999984
 30
0.0
 10
128.8978752789331
 20
118.8103309511383
 30
0.0
  0
SPLINE
  5
315
330
1F
100
AcDbEntity
  8
0
  6
Continuous
 62
     8
370
    25
100
AcDbSpline
210
0.0
220
0.0
230
1.0
 70
     8
 71
     3
 72
    10
 73
     6
 74
     0
 42
0.00000001
 43
0.00000001
 40
0.0
 40
0.0
 40
0.0
 40
0.0
 40
0.5664006985514366
 40
0.8631257892167442
 40
1.0
 40
1.0
 40
1.0
 40
1.0
 10
152.8734331952645
 20
98.08673062558182
 30
0.0
 10
151.9148435112116
 20
97.87161224300958
 30
0.0
 10
150.4540693989989
 20
97.54379798676385
 30
0.0
 10
148.7426390500331
 20
97.38465380196403
 30
0.0
 10
147.965223688354
 20
97.36520456985669
 30
0.0
 10
147.7198171258316
 20
97.35906503437741
 30
0.0
  0
SPLINE
  5
316
330
1F
100
AcDbEntity
  8
0
  6
Continuous
 62
     8
370
    25
100
AcDbSpline
210
0.0
220
0.0
230
1.0
 70
     8
 71
     3
 72
    10
 73
     6
 74
     0
 42
0.00000001
 43
0.00000001
 40
0.0
 40
0.0
 40
0.0
 40
0.0
 40
0.1234586877516347
 40
0.4247957623683116
 40
0.9999999999999999
 40
0.9999999999999999
 40
0.9999999999999999
 40
0.9999999999999999
 10
147.8017463163205
 20
118.8159243017788
 30
0.0
 10
148.0196313897754
 20
118.8103583999767
 30
0.0
 10
148.7693287790198
 20
118.7912072852
 30
0.0
 10
150.4537296086415
 20
118.6333265924744
 30
0.0
 10
151.9147088809705
 20
118.3058000194382
 30
0.0
 10
152.8734331952645
 20
118.0908704204393
 30
0.0
  0
SPLINE
  5
317
330
1F
100
AcDbEntity
  8
0
  6
Continuous
 62
     8
370
    25
100
AcDbSpline
210
0.0
220
0.0
230
1.0
 70
     8
 71
     3
 72
    10
 73
     6
 74
     0
 42
0.00000001
 43
0.00000001
 40
0.0
 40
0.0
 40
0.0
 40
0.0
 40
0.1321524545055432
 40
0.4305007889403081
 40
1.0
 40
1.0
 40
1.0
 40
1.0
 10
128.9071936714028
 20
118.817607580208
 30
0.0
 10
128.6715722311997
 20
118.8116697714101
 30
0.0
 10
127.9040101281863
 20
118.792326722644
 30
0.0
 10
126.2021840720029
 20
118.6336378304841
 30
0.0
 10
124.7413388145277
 20
118.3059233367937
 30
0.0
 10
123.7827024435065
 20
118.0908704204393
 30
0.0
  0
SPLINE
  5
318
330
1F
100
AcDbEntity
  8
0
  6
Continuous
 62
     8
370
    25
100
AcDbSpline
210
0.0
220
0.0
230
1.0
 70
     8
 71
     3
 72
    10
 73
     6
 74
     0
 42
0.00000001
 43
0.00000001
 40
0.0
 40
0.0
 40
0.0
 40
0.0
 40
0.5840333504855902
 40
0.8899958066012096
 40
0.9999999999999999
 40
0.9999999999999999
 40
0.9999999999999999
 40
0.9999999999999999
 10
123.7827024435065
 20
98.08673062558182
 30
0.0
 10
124.7415681639568
 20
97.87199931159864
 30
0.0
 10
126.2027629220727
 20
97.54477490081437
 30
0.0
 10
127.8608350904843
 20
97.38806836143566
 30
0.0
 10
128.5835719450861
 20
97.36920536338063
 30
0.0
 10
128.7747028562369
 20
97.36421696133314
 30
0.0
  0
SPLINE
  5
319
330
1F
100
AcDbEntity
  8
0
  6
Continuous
 62
     8
370
    25
100
AcDbSpline
210
0.0
220
0.0
230
1.0
 70
     8
 71
     3
 72
     9
 73
     5
 74
     0
 42
0.00000001
 43
0.00000001
 40
0.0
 40
0.0
 40
0.0
 40
0.0
 40
0.4341123552591804
 40
1.0
 40
1.0
 40
1.0
 40
1.0
 10
231.9796386276664
 20
94.45902917183652
 30
0.0
 10
231.6666247626586
 20
94.5239444980469
 30
0.0
 10
230.945581324904
 20
94.67348027012055
 30
0.0
 10
230.8498001424455
 20
94.69045260982664
 30
0.0
 10
230.7955987546936
 20
94.70005704716866
 30
0.0
  0
ENDSEC
  0
SECTION
  2
OBJECTS
  0
DICTIONARY
  5
C
330
0
100
AcDbDictionary
281
     1
  3
ACAD_GROUP
350
D
  3
ACAD_LAYOUT
350
1A
  3
ACAD_MLINESTYLE
350
17
  3
ACAD_PLOTSETTINGS
350
19
  3
ACAD_PLOTSTYLENAME
350
E
  3
ACAD_SCALELIST
350
47
  3
DWGPROPS
350
31A
  0
DICTIONARY
  5
D
102
{ACAD_REACTORS
330
C
102
}
330
C
100
AcDbDictionary
281
     1
  0
DICTIONARY
  5
1A
102
{ACAD_REACTORS
330
C
102
}
330
C
100
AcDbDictionary
281
     1
  3
Layout1
350
1E
  3
Layout2
350
26
  3
Model
350
22
  0
DICTIONARY
  5
17
102
{ACAD_REACTORS
330
C
102
}
330
C
100
AcDbDictionary
281
     1
  3
Standard
350
18
  0
DICTIONARY
  5
19
102
{ACAD_REACTORS
330
C
102
}
330
C
100
AcDbDictionary
281
     1
  0
ACDBDICTIONARYWDFLT
  5
E
102
{ACAD_REACTORS
330
C
102
}
330
C
100
AcDbDictionary
281
     1
  3
Normal
350
F
100
AcDbDictionaryWithDefault
340
F
  0
DICTIONARY
  5
47
102
{ACAD_REACTORS
330
C
102
}
330
C
100
AcDbDictionary
281
     1
  3
A0
350
48
  3
A1
350
49
  3
A2
350
4A
  3
A3
350
4B
  3
A4
350
4C
  3
A5
350
4D
  3
A6
350
4E
  3
A7
350
4F
  3
A8
350
50
  3
A9
350
51
  3
B0
350
52
  3
B1
350
53
  3
B2
350
54
  3
B3
350
55
  3
B4
350
56
  3
B5
350
57
  3
B6
350
58
  3
B7
350
59
  3
B8
350
5A
  3
B9
350
5B
  3
C0
350
5C
  3
C1
350
5D
  3
C2
350
5E
  3
C3
350
5F
  3
C4
350
60
  3
C5
350
61
  3
C6
350
62
  3
C7
350
63
  3
C8
350
64
  3
C9
350
65
  3
D0
350
66
  3
D1
350
67
  3
D2
350
68
  0
XRECORD
  5
31A
102
{ACAD_REACTORS
330
C
102
}
330
C
100
AcDbXrecord
280
     1
  1
DWGPROPS COOKIE
  2

  3

  4

  6

  7

  8
vishesh
  9

300
=
301
=
302
=
303
=
304
=
305
=
306
=
307
=
308
=
309
=
 40
0.0
 41
2460383.477496354
 42
2460383.477496725
  1

 90
        0
  0
LAYOUT
  5
1E
102
{ACAD_REACTORS
330
1A
102
}
330
1A
100
AcDbPlotSettings
  1

  2
none_device
  4

  6

 40
0.0
 41
0.0
 42
0.0
 43
0.0
 44
0.0
 45
0.0
 46
0.0
 47
0.0
 48
0.0
 49
0.0
140
0.0
141
0.0
142
1.0
143
1.0
 70
   688
 72
     1
 73
     0
 74
     5
  7

 75
    16
147
1.0
148
0.0
149
0.0
100
AcDbLayout
  1
Layout1
 70
     1
 71
     1
 10
0.0
 20
0.0
 11
420.0
 21
297.0
 12
0.0
 22
0.0
 32
0.0
 14
1.0000000000E+20
 24
1.0000000000E+20
 34
1.0000000000E+20
 15
-1.0000000000E+20
 25
-1.0000000000E+20
 35
-1.0000000000E+20
146
0.0
 13
0.0
 23
0.0
 33
0.0
 16
1.0
 26
0.0
 36
0.0
 17
0.0
 27
1.0
 37
0.0
 76
     0
330
1B
  0
LAYOUT
  5
26
102
{ACAD_REACTORS
330
1A
102
}
330
1A
100
AcDbPlotSettings
  1

  2
none_device
  4

  6

 40
0.0
 41
0.0
 42
0.0
 43
0.0
 44
0.0
 45
0.0
 46
0.0
 47
0.0
 48
0.0
 49
0.0
140
0.0
141
0.0
142
1.0
143
1.0
 70
   688
 72
     1
 73
     0
 74
     5
  7

 75
    16
147
1.0
148
0.0
149
0.0
100
AcDbLayout
  1
Layout2
 70
     1
 71
     2
 10
0.0
 20
0.0
 11
0.0
 21
0.0
 12
0.0
 22
0.0
 32
0.0
 14
0.0
 24
0.0
 34
0.0
 15
0.0
 25
0.0
 35
0.0
146
0.0
 13
0.0
 23
0.0
 33
0.0
 16
1.0
 26
0.0
 36
0.0
 17
0.0
 27
1.0
 37
0.0
 76
     0
330
23
  0
LAYOUT
  5
22
102
{ACAD_REACTORS
330
1A
102
}
330
1A
100
AcDbPlotSettings
  1

  2
none_device
  4
Letter_(8.50_x_11.00_Inches)
  6

 40
6.35
 41
6.35
 42
6.35000508
 43
6.35000508
 44
215.9
 45
279.4
 46
0.0
 47
0.0
 48
0.0
 49
0.0
140
0.0
141
0.0
142
1.0
143
1.0
 70
  1712
 72
     1
 73
     0
 74
     0
  7

 75
     0
147
1.0
148
0.0
149
0.0
100
AcDbLayout
  1
Model
 70
     1
 71
     0
 10
0.0
 20
0.0
 11
279.4
 21
215.9
 12
0.0
 22
0.0
 32
0.0
 14
0.0
 24
0.0
 34
0.0
 15
279.4
 25
215.9
 35
0.0
146
0.0
 13
0.0
 23
0.0
 33
0.0
 16
1.0
 26
0.0
 36
0.0
 17
0.0
 27
1.0
 37
0.0
 76
     0
330
1F
331
29
  0
MLINESTYLE
  5
18
102
{ACAD_REACTORS
330
17
102
}
330
17
100
AcDbMlineStyle
  2
Standard
 70
     0
  3

 62
   256
 51
90.0
 52
90.0
 71
     2
 49
0.5
 62
   256
  6
BYLAYER
 49
-0.5
 62
   256
  6
BYLAYER
  0
ACDBPLACEHOLDER
  5
F
102
{ACAD_REACTORS
330
E
102
}
330
E
  0
SCALE
  5
48
102
{ACAD_REACTORS
330
47
102
}
330
47
100
AcDbScale
 70
     0
300
1:1
140
1.0
141
1.0
290
     1
  0
SCALE
  5
49
102
{ACAD_REACTORS
330
47
102
}
330
47
100
AcDbScale
 70
     0
300
1:2
140
1.0
141
2.0
290
     0
  0
SCALE
  5
4A
102
{ACAD_REACTORS
330
47
102
}
330
47
100
AcDbScale
 70
     0
300
1:4
140
1.0
141
4.0
290
     0
  0
SCALE
  5
4B
102
{ACAD_REACTORS
330
47
102
}
330
47
100
AcDbScale
 70
     0
300
1:5
140
1.0
141
5.0
290
     0
  0
SCALE
  5
4C
102
{ACAD_REACTORS
330
47
102
}
330
47
100
AcDbScale
 70
     0
300
1:8
140
1.0
141
8.0
290
     0
  0
SCALE
  5
4D
102
{ACAD_REACTORS
330
47
102
}
330
47
100
AcDbScale
 70
     0
300
1:10
140
1.0
141
10.0
290
     0
  0
SCALE
  5
4E
102
{ACAD_REACTORS
330
47
102
}
330
47
100
AcDbScale
 70
     0
300
1:16
140
1.0
141
16.0
290
     0
  0
SCALE
  5
4F
102
{ACAD_REACTORS
330
47
102
}
330
47
100
AcDbScale
 70
     0
300
1:20
140
1.0
141
20.0
290
     0
  0
SCALE
  5
50
102
{ACAD_REACTORS
330
47
102
}
330
47
100
AcDbScale
 70
     0
300
1:30
140
1.0
141
30.0
290
     0
  0
SCALE
  5
51
102
{ACAD_REACTORS
330
47
102
}
330
47
100
AcDbScale
 70
     0
300
1:40
140
1.0
141
40.0
290
     0
  0
SCALE
  5
52
102
{ACAD_REACTORS
330
47
102
}
330
47
100
AcDbScale
 70
     0
300
1:50
140
1.0
141
50.0
290
     0
  0
SCALE
  5
53
102
{ACAD_REACTORS
330
47
102
}
330
47
100
AcDbScale
 70
     0
300
1:100
140
1.0
141
100.0
290
     0
  0
SCALE
  5
54
102
{ACAD_REACTORS
330
47
102
}
330
47
100
AcDbScale
 70
     0
300
2:1
140
2.0
141
1.0
290
     0
  0
SCALE
  5
55
102
{ACAD_REACTORS
330
47
102
}
330
47
100
AcDbScale
 70
     0
300
4:1
140
4.0
141
1.0
290
     0
  0
SCALE
  5
56
102
{ACAD_REACTORS
330
47
102
}
330
47
100
AcDbScale
 70
     0
300
8:1
140
8.0
141
1.0
290
     0
  0
SCALE
  5
57
102
{ACAD_REACTORS
330
47
102
}
330
47
100
AcDbScale
 70
     0
300
10:1
140
10.0
141
1.0
290
     0
  0
SCALE
  5
58
102
{ACAD_REACTORS
330
47
102
}
330
47
100
AcDbScale
 70
     0
300
100:1
140
100.0
141
1.0
290
     0
  0
SCALE
  5
59
102
{ACAD_REACTORS
330
47
102
}
330
47
100
AcDbScale
 70
     0
300
1/128" = 1'-0"
140
0.0078125
141
12.0
290
     0
  0
SCALE
  5
5A
102
{ACAD_REACTORS
330
47
102
}
330
47
100
AcDbScale
 70
     0
300
1/64" = 1'-0"
140
0.015625
141
12.0
290
     0
  0
SCALE
  5
5B
102
{ACAD_REACTORS
330
47
102
}
330
47
100
AcDbScale
 70
     0
300
1/32" = 1'-0"
140
0.03125
141
12.0
290
     0
  0
SCALE
  5
5C
102
{ACAD_REACTORS
330
47
102
}
330
47
100
AcDbScale
 70
     0
300
1/16" = 1'-0"
140
0.0625
141
12.0
290
     0
  0
SCALE
  5
5D
102
{ACAD_REACTORS
330
47
102
}
330
47
100
AcDbScale
 70
     0
300
3/32" = 1'-0"
140
0.09375
141
12.0
290
     0
  0
SCALE
  5
5E
102
{ACAD_REACTORS
330
47
102
}
330
47
100
AcDbScale
 70
     0
300
1/8" = 1'-0"
140
0.125
141
12.0
290
     0
  0
SCALE
  5
5F
102
{ACAD_REACTORS
330
47
102
}
330
47
100
AcDbScale
 70
     0
300
3/16" = 1'-0"
140
0.1875
141
12.0
290
     0
  0
SCALE
  5
60
102
{ACAD_REACTORS
330
47
102
}
330
47
100
AcDbScale
 70
     0
300
1/4" = 1'-0"
140
0.25
141
12.0
290
     0
  0
SCALE
  5
61
102
{ACAD_REACTORS
330
47
102
}
330
47
100
AcDbScale
 70
     0
300
3/8" = 1'-0"
140
0.375
141
12.0
290
     0
  0
SCALE
  5
62
102
{ACAD_REACTORS
330
47
102
}
330
47
100
AcDbScale
 70
     0
300
1/2" = 1'-0"
140
0.5
141
12.0
290
     0
  0
SCALE
  5
63
102
{ACAD_REACTORS
330
47
102
}
330
47
100
AcDbScale
 70
     0
300
3/4" = 1'-0"
140
0.75
141
12.0
290
     0
  0
SCALE
  5
64
102
{ACAD_REACTORS
330
47
102
}
330
47
100
AcDbScale
 70
     0
300
1" = 1'-0"
140
1.0
141
12.0
290
     0
  0
SCALE
  5
65
102
{ACAD_REACTORS
330
47
102
}
330
47
100
AcDbScale
 70
     0
300
1-1/2" = 1'-0"
140
1.5
141
12.0
290
     0
  0
SCALE
  5
66
102
{ACAD_REACTORS
330
47
102
}
330
47
100
AcDbScale
 70
     0
300
3" = 1'-0"
140
3.0
141
12.0
290
     0
  0
SCALE
  5
67
102
{ACAD_REACTORS
330
47
102
}
330
47
100
AcDbScale
 70
     0
300
6" = 1'-0"
140
6.0
141
12.0
290
     0
  0
SCALE
  5
68
102
{ACAD_REACTORS
330
47
102
}
330
47
100
AcDbScale
 70
     0
300
1'-0" = 1'-0"
140
12.0
141
12.0
290
     0
  0
ENDSEC
  0
EOF
