  0
SECTION
  2
HEADER
  9
$ACADVER
  1
AC1015
  9
$ACADMAINTVER
 70
     6
  9
$DWGCODEPAGE
  3
ANSI_1252
  9
$INSBASE
 10
0.0
 20
0.0
 30
0.0
  9
$EXTMIN
 10
0.0
 20
0.0
 30
0.0
  9
$EXTMAX
 10
279.4
 20
215.9
 30
0.0
  9
$LIMMIN
 10
0.0
 20
0.0
  9
$LIMMAX
 10
279.4
 20
215.9
  9
$ORTHOMODE
 70
     0
  9
$REGENMODE
 70
     1
  9
$FILLMODE
 70
     1
  9
$QTEXTMODE
 70
     0
  9
$MIRRTEXT
 70
     1
  9
$LTSCALE
 40
1.0
  9
$ATTMODE
 70
     1
  9
$TEXTSIZE
 40
3.5277777778
  9
$TRACEWID
 40
1.0
  9
$TEXTSTYLE
  7
Standard
  9
$CLAYER
  8
0
  9
$CELTYPE
  6
ByLayer
  9
$CECOLOR
 62
   256
  9
$CELTSCALE
 40
1.0
  9
$DISPSILH
 70
     0
  9
$DIMSCALE
 40
1.0
  9
$DIMASZ
 40
3.556
  9
$DIMEXO
 40
1.0
  9
$DIMDLI
 40
3.75
  9
$DIMRND
 40
0.0
  9
$DIMDLE
 40
0.0
  9
$DIMEXE
 40
1.0
  9
$DIMTP
 40
0.0
  9
$DIMTM
 40
0.0
  9
$DIMTXT
 40
3.5277777778
  9
$DIMCEN
 40
2.5
  9
$DIMTSZ
 40
0.0
  9
$DIMTOL
 70
     0
  9
$DIMLIM
 70
     0
  9
$DIMTIH
 70
     1
  9
$DIMTOH
 70
     1
  9
$DIMSE1
 70
     0
  9
$DIMSE2
 70
     0
  9
$DIMTAD
 70
     1
  9
$DIMZIN
 70
     0
  9
$DIMBLK
  1

  9
$DIMASO
 70
     1
  9
$DIMSHO
 70
     1
  9
$DIMPOST
  1

  9
$DIMAPOST
  1

  9
$DIMALT
 70
     0
  9
$DIMALTD
 70
     3
  9
$DIMALTF
 40
0.0393700787
  9
$DIMLFAC
 40
2.0
  9
$DIMTOFL
 70
     1
  9
$DIMTVP
 40
0.0
  9
$DIMTIX
 70
     0
  9
$DIMSOXD
 70
     0
  9
$DIMSAH
 70
     0
  9
$DIMBLK1
  1

  9
$DIMBLK2
  1

  9
$DIMSTYLE
  2
ISO-25
  9
$DIMCLRD
 70
     0
  9
$DIMCLRE
 70
     0
  9
$DIMCLRT
 70
     0
  9
$DIMTFAC
 40
1.0
  9
$DIMGAP
 40
1.524
  9
$DIMJUST
 70
     0
  9
$DIMSD1
 70
     0
  9
$DIMSD2
 70
     0
  9
$DIMTOLJ
 70
     0
  9
$DIMTZIN
 70
     0
  9
$DIMALTZ
 70
     0
  9
$DIMALTTZ
 70
     0
  9
$DIMUPT
 70
     0
  9
$DIMDEC
 70
     2
  9
$DIMTDEC
 70
     2
  9
$DIMALTU
 70
     2
  9
$DIMALTTD
 70
     3
  9
$DIMTXSTY
  7
Standard
  9
$DIMAUNIT
 70
     0
  9
$DIMADEC
 70
     2
  9
$DIMALTRND
 40
0.0
  9
$DIMAZIN
 70
     0
  9
$DIMDSEP
 70
    44
  9
$DIMATFIT
 70
     3
  9
$DIMFRAC
 70
     0
  9
$DIMLDRBLK
  1

  9
$DIMLUNIT
 70
     2
  9
$DIMLWD
 70
    -2
  9
$DIMLWE
 70
    -2
  9
$DIMTMOVE
 70
     0
  9
$LUNITS
 70
     2
  9
$LUPREC
 70
     2
  9
$SKETCHINC
 40
1.0
  9
$FILLETRAD
 40
10.0
  9
$AUNITS
 70
     0
  9
$AUPREC
 70
     2
  9
$MENU
  1
.
  9
$ELEVATION
 40
0.0
  9
$PELEVATION
 40
0.0
  9
$THICKNESS
 40
0.0
  9
$LIMCHECK
 70
     0
  9
$CHAMFERA
 40
0.0
  9
$CHAMFERB
 40
0.0
  9
$CHAMFERC
 40
0.0
  9
$CHAMFERD
 40
0.0
  9
$SKPOLY
 70
     0
  9
$TDCREATE
 40
2460384.396549792
  9
$TDUCREATE
 40
2460384.167383125
  9
$TDUPDATE
 40
2460384.396550324
  9
$TDUUPDATE
 40
2460384.167383657
  9
$TDINDWG
 40
0.0000000116
  9
$TDUSRTIMER
 40
0.0000000116
  9
$USRTIMER
 70
     1
  9
$ANGBASE
 50
0.0
  9
$ANGDIR
 70
     0
  9
$PDMODE
 70
     0
  9
$PDSIZE
 40
-1.0
  9
$PLINEWID
 40
0.0
  9
$SPLFRAME
 70
     0
  9
$SPLINETYPE
 70
     6
  9
$SPLINESEGS
 70
     8
  9
$HANDSEED
  5
20D
  9
$SURFTAB1
 70
     6
  9
$SURFTAB2
 70
     6
  9
$SURFTYPE
 70
     6
  9
$SURFU
 70
     6
  9
$SURFV
 70
     6
  9
$UCSBASE
  2

  9
$UCSNAME
  2

  9
$UCSORG
 10
0.0
 20
0.0
 30
0.0
  9
$UCSXDIR
 10
1.0
 20
0.0
 30
0.0
  9
$UCSYDIR
 10
0.0
 20
1.0
 30
0.0
  9
$UCSORTHOREF
  2

  9
$UCSORTHOVIEW
 70
     0
  9
$UCSORGTOP
 10
0.0
 20
0.0
 30
0.0
  9
$UCSORGBOTTOM
 10
0.0
 20
0.0
 30
0.0
  9
$UCSORGLEFT
 10
0.0
 20
0.0
 30
0.0
  9
$UCSORGRIGHT
 10
0.0
 20
0.0
 30
0.0
  9
$UCSORGFRONT
 10
0.0
 20
0.0
 30
0.0
  9
$UCSORGBACK
 10
0.0
 20
0.0
 30
0.0
  9
$PUCSBASE
  2

  9
$PUCSNAME
  2

  9
$PUCSORG
 10
0.0
 20
0.0
 30
0.0
  9
$PUCSXDIR
 10
1.0
 20
0.0
 30
0.0
  9
$PUCSYDIR
 10
0.0
 20
1.0
 30
0.0
  9
$PUCSORTHOREF
  2

  9
$PUCSORTHOVIEW
 70
     0
  9
$PUCSORGTOP
 10
0.0
 20
0.0
 30
0.0
  9
$PUCSORGBOTTOM
 10
0.0
 20
0.0
 30
0.0
  9
$PUCSORGLEFT
 10
0.0
 20
0.0
 30
0.0
  9
$PUCSORGRIGHT
 10
0.0
 20
0.0
 30
0.0
  9
$PUCSORGFRONT
 10
0.0
 20
0.0
 30
0.0
  9
$PUCSORGBACK
 10
0.0
 20
0.0
 30
0.0
  9
$USERI1
 70
     0
  9
$USERI2
 70
     0
  9
$USERI3
 70
     0
  9
$USERI4
 70
     0
  9
$USERI5
 70
     0
  9
$USERR1
 40
0.0
  9
$USERR2
 40
0.0
  9
$USERR3
 40
0.0
  9
$USERR4
 40
0.0
  9
$USERR5
 40
0.0
  9
$WORLDVIEW
 70
     1
  9
$SHADEDGE
 70
     3
  9
$SHADEDIF
 70
    70
  9
$TILEMODE
 70
     1
  9
$MAXACTVP
 70
    64
  9
$PINSBASE
 10
0.0
 20
0.0
 30
0.0
  9
$PLIMCHECK
 70
     0
  9
$PEXTMIN
 10
1.0000000000E+20
 20
1.0000000000E+20
 30
1.0000000000E+20
  9
$PEXTMAX
 10
-1.0000000000E+20
 20
-1.0000000000E+20
 30
-1.0000000000E+20
  9
$PLIMMIN
 10
0.0
 20
0.0
  9
$PLIMMAX
 10
420.0
 20
297.0
  9
$UNITMODE
 70
     0
  9
$VISRETAIN
 70
     1
  9
$PLINEGEN
 70
     0
  9
$PSLTSCALE
 70
     1
  9
$TREEDEPTH
 70
  3020
  9
$CMLSTYLE
  2
Standard
  9
$CMLJUST
 70
     0
  9
$CMLSCALE
 40
20.0
  9
$PROXYGRAPHICS
 70
     1
  9
$MEASUREMENT
 70
     1
  9
$CELWEIGHT
370
    -1
  9
$ENDCAPS
280
     0
  9
$JOINSTYLE
280
     0
  9
$LWDISPLAY
290
     1
  9
$INSUNITS
 70
     4
  9
$HYPERLINKBASE
  1

  9
$STYLESHEET
  1

  9
$XEDIT
290
     1
  9
$CEPSNTYPE
380
     0
  9
$PSTYLEMODE
290
     1
  9
$FINGERPRINTGUID
  2
{92eae6e2-cafa-47db-ba99-c7704c73c26b}
  9
$VERSIONGUID
  2
{FAEB1C32-E019-11D5-929B-00C0DF256EC4}
  9
$EXTNAMES
290
     1
  9
$PSVPSCALE
 40
0.0
  9
$OLESTARTUP
290
     0
  0
ENDSEC
  0
SECTION
  2
CLASSES
  0
CLASS
  1
ACDBDICTIONARYWDFLT
  2
AcDbDictionaryWithDefault
  3
ObjectDBX Classes
 90
        0
280
     0
281
     0
  0
CLASS
  1
VISUALSTYLE
  2
AcDbVisualStyle
  3
ObjectDBX Classes
 90
     4095
280
     0
281
     0
  0
CLASS
  1
MATERIAL
  2
AcDbMaterial
  3
ObjectDBX Classes
 90
     1153
280
     0
281
     0
  0
CLASS
  1
SCALE
  2
AcDbScale
  3
ObjectDBX Classes
 90
     1153
280
     0
281
     0
  0
CLASS
  1
TABLESTYLE
  2
AcDbTableStyle
  3
ObjectDBX Classes
 90
     4095
280
     0
281
     0
  0
CLASS
  1
MLEADERSTYLE
  2
AcDbMLeaderStyle
  3
ACDB_MLEADERSTYLE_CLASS
 90
     4095
280
     0
281
     0
  0
CLASS
  1
SUN
  2
AcDbSun
  3
SCENEOE
 90
     1153
280
     0
281
     0
  0
CLASS
  1
ACDBPLACEHOLDER
  2
AcDbPlaceHolder
  3
ObjectDBX Classes
 90
        0
280
     0
281
     0
  0
CLASS
  1
LAYOUT
  2
AcDbLayout
  3
ObjectDBX Classes
 90
        0
280
     0
281
     0
  0
ENDSEC
  0
SECTION
  2
TABLES
  0
TABLE
  2
VPORT
  5
8
330
0
100
AcDbSymbolTable
 70
     1
  0
VPORT
  5
29
330
8
100
AcDbSymbolTableRecord
100
AcDbViewportTableRecord
  2
*Active
 70
     0
 10
0.0
 20
0.0
 11
1.0
 21
1.0
 12
139.7
 22
107.95
 13
0.0
 23
0.0
 14
10.0
 24
10.0
 15
10.0
 25
10.0
 16
0.0
 26
0.0
 36
1.0
 17
0.0
 27
0.0
 37
0.0
 40
215.9
 41
1.2941176471
 42
50.0
 43
0.0
 44
0.0
 50
0.0
 51
0.0
 71
     0
 72
  2000
 73
     1
 74
     3
 75
     0
 76
     0
 77
     0
 78
     0
281
     0
 65
     1
110
0.0
120
0.0
130
0.0
111
1.0
121
0.0
131
0.0
112
0.0
122
1.0
132
0.0
 79
     0
146
0.0
  0
ENDTAB
  0
TABLE
  2
LTYPE
  5
5
330
0
100
AcDbSymbolTable
 70
     6
  0
LTYPE
  5
14
330
5
100
AcDbSymbolTableRecord
100
AcDbLinetypeTableRecord
  2
ByBlock
 70
     0
  3

 72
    65
 73
     0
 40
0.0
  0
LTYPE
  5
15
330
5
100
AcDbSymbolTableRecord
100
AcDbLinetypeTableRecord
  2
ByLayer
 70
     0
  3

 72
    65
 73
     0
 40
0.0
  0
LTYPE
  5
16
330
5
100
AcDbSymbolTableRecord
100
AcDbLinetypeTableRecord
  2
Continuous
 70
     0
  3
Solid line
 72
    65
 73
     0
 40
0.0
  0
LTYPE
  5
6E
330
5
100
AcDbSymbolTableRecord
100
AcDbLinetypeTableRecord
  2
HIDDEN
 70
     0
  3
Hidden __ __ __ __ __ __ __ __ __ __ __ __ __ __
 72
    65
 73
     2
 40
1.905
 49
1.27
 74
     0
 49
-0.635
 74
     0
  0
LTYPE
  5
6F
330
5
100
AcDbSymbolTableRecord
100
AcDbLinetypeTableRecord
  2
PHANTOM
 70
     0
  3
Phantom ______  __  __  ______  __  __  ______
 72
    65
 73
     6
 40
12.7
 49
6.35
 74
     0
 49
-1.27
 74
     0
 49
1.27
 74
     0
 49
-1.27
 74
     0
 49
1.27
 74
     0
 49
-1.27
 74
     0
  0
LTYPE
  5
70
330
5
100
AcDbSymbolTableRecord
100
AcDbLinetypeTableRecord
  2
CENTER
 70
     0
  3
Center ____ _ ____ _ ____ _ ____ _ ____ _ ____
 72
    65
 73
     4
 40
10.16
 49
6.35
 74
     0
 49
-1.27
 74
     0
 49
1.27
 74
     0
 49
-1.27
 74
     0
  0
LTYPE
  5
71
330
5
100
AcDbSymbolTableRecord
100
AcDbLinetypeTableRecord
  2
CENTERX2
 70
     0
  3
Center (2x) ________  __  ________  __  _____
 72
    65
 73
     4
 40
20.32
 49
12.7
 74
     0
 49
-2.54
 74
     0
 49
2.54
 74
     0
 49
-2.54
 74
     0
  0
LTYPE
  5
72
330
5
100
AcDbSymbolTableRecord
100
AcDbLinetypeTableRecord
  2
DOT2
 70
     0
  3
Dot (.5x) ........................................
 72
    65
 73
     2
 40
0.635
 49
0.0
 74
     0
 49
-0.635
 74
     0
  0
ENDTAB
  0
TABLE
  2
LAYER
  5
2
330
0
100
AcDbSymbolTable
 70
     4
  0
LAYER
  5
10
330
2
100
AcDbSymbolTableRecord
100
AcDbLayerTableRecord
  2
0
 70
     0
 62
     7
  6
Continuous
370
    -3
390
F
  0
LAYER
  5
73
330
2
100
AcDbSymbolTableRecord
100
AcDbLayerTableRecord
  2
FORMAT
 70
     0
 62
     7
  6
Continuous
370
    -3
390
F
  0
LAYER
  5
74
330
2
100
AcDbSymbolTableRecord
100
AcDbLayerTableRecord
  2
OUT_LINE
 70
     0
 62
     7
  6
Continuous
370
    50
390
F
  0
LAYER
  5
75
330
2
100
AcDbSymbolTableRecord
100
AcDbLayerTableRecord
  2
WATERMARK
 70
     0
 62
   254
  6
Continuous
370
    -3
390
F
  0
ENDTAB
  0
TABLE
  2
STYLE
  5
3
330
0
100
AcDbSymbolTable
 70
     1
  0
STYLE
  5
11
330
3
100
AcDbSymbolTableRecord
100
AcDbTextStyleTableRecord
  2
Standard
 70
     0
 40
0.0
 41
1.0
 50
0.0
 71
     0
 42
3.5277777778
  3
txt
  4

  0
ENDTAB
  0
TABLE
  2
VIEW
  5
6
330
0
100
AcDbSymbolTable
 70
     0
  0
ENDTAB
  0
TABLE
  2
UCS
  5
7
330
0
100
AcDbSymbolTable
 70
     0
  0
ENDTAB
  0
TABLE
  2
APPID
  5
9
330
0
100
AcDbSymbolTable
 70
     1
  0
APPID
  5
12
330
9
100
AcDbSymbolTableRecord
100
AcDbRegAppTableRecord
  2
ACAD
 70
     0
  0
ENDTAB
  0
TABLE
  2
DIMSTYLE
  5
A
330
0
100
AcDbSymbolTable
 70
     1
100
AcDbDimStyleTable
  0
DIMSTYLE
105
27
330
A
100
AcDbSymbolTableRecord
100
AcDbDimStyleTableRecord
  2
ISO-25
 70
     0
 41
2.5
 42
0.625
 43
3.75
 44
1.25
 73
     0
 74
     0
 77
     1
 78
     8
140
2.5
141
2.5
143
0.0393700787
147
0.625
171
     3
172
     1
178
     0
271
     2
272
     2
274
     3
278
    44
283
     0
284
     8
340
11
  0
ENDTAB
  0
TABLE
  2
BLOCK_RECORD
  5
1
330
0
100
AcDbSymbolTable
 70
     7
  0
BLOCK_RECORD
  5
1F
330
1
100
AcDbSymbolTableRecord
100
AcDbBlockTableRecord
  2
*Model_Space
340
22
  0
BLOCK_RECORD
  5
1B
330
1
100
AcDbSymbolTableRecord
100
AcDbBlockTableRecord
  2
*Paper_Space
340
1E
  0
BLOCK_RECORD
  5
23
330
1
100
AcDbSymbolTableRecord
100
AcDbBlockTableRecord
  2
*Paper_Space0
340
26
  0
BLOCK_RECORD
  5
76
330
1
100
AcDbSymbolTableRecord
100
AcDbBlockTableRecord
  2
Block6
340
0
  0
BLOCK_RECORD
  5
7B
330
1
100
AcDbSymbolTableRecord
100
AcDbBlockTableRecord
  2
Block4
340
0
  0
BLOCK_RECORD
  5
7F
330
1
100
AcDbSymbolTableRecord
100
AcDbBlockTableRecord
  2
Block5
340
0
  0
BLOCK_RECORD
  5
8D
330
1
100
AcDbSymbolTableRecord
100
AcDbBlockTableRecord
  2
Block2
340
0
  0
BLOCK_RECORD
  5
98
330
1
100
AcDbSymbolTableRecord
100
AcDbBlockTableRecord
  2
Block3
340
0
  0
BLOCK_RECORD
  5
A5
330
1
100
AcDbSymbolTableRecord
100
AcDbBlockTableRecord
  2
Block7
340
0
  0
ENDTAB
  0
ENDSEC
  0
SECTION
  2
BLOCKS
  0
BLOCK
  5
20
330
1F
100
AcDbEntity
  8
0
100
AcDbBlockBegin
  2
*Model_Space
 70
     0
 10
0.0
 20
0.0
 30
0.0
  3
*Model_Space
  1

  0
ENDBLK
  5
21
330
1F
100
AcDbEntity
  8
0
100
AcDbBlockEnd
  0
BLOCK
  5
1C
330
1B
100
AcDbEntity
 67
     1
  8
0
100
AcDbBlockBegin
  2
*Paper_Space
 70
     0
 10
0.0
 20
0.0
 30
0.0
  3
*Paper_Space
  1

  0
ENDBLK
  5
1D
330
1B
100
AcDbEntity
 67
     1
  8
0
100
AcDbBlockEnd
  0
BLOCK
  5
24
330
23
100
AcDbEntity
  8
0
100
AcDbBlockBegin
  2
*Paper_Space0
 70
     0
 10
0.0
 20
0.0
 30
0.0
  3
*Paper_Space0
  1

  0
ENDBLK
  5
25
330
23
100
AcDbEntity
  8
0
100
AcDbBlockEnd
  0
BLOCK
  5
77
330
76
100
AcDbEntity
  8
0
100
AcDbBlockBegin
  2
Block6
 70
     0
 10
0.0
 20
0.0
 30
0.0
  3
Block6
  1

  0
LINE
  5
79
330
76
100
AcDbEntity
  8
FORMAT
100
AcDbLine
 10
253.5616893058
 20
55.3714964458
 30
0.0
 11
250.6928867464
 21
53.8486167051
 31
0.0
  0
LINE
  5
7A
330
76
100
AcDbEntity
  8
FORMAT
100
AcDbLine
 10
250.6928867464
 20
53.8486167051
 30
0.0
 11
253.5616893058
 21
53.8486167051
 31
0.0
  0
ENDBLK
  5
78
330
76
100
AcDbEntity
  8
0
100
AcDbBlockEnd
  0
BLOCK
  5
7C
330
7B
100
AcDbEntity
  8
0
100
AcDbBlockBegin
  2
Block4
 70
     0
 10
0.0
 20
0.0
 30
0.0
  3
Block4
  1

  0
LINE
  5
7E
330
7B
100
AcDbEntity
  8
FORMAT
100
AcDbLine
 10
250.0093082872
 20
64.7263291389
 30
0.0
 11
290.0093082872
 21
64.7263291389
 31
0.0
  0
ENDBLK
  5
7D
330
7B
100
AcDbEntity
  8
0
100
AcDbBlockEnd
  0
BLOCK
  5
80
330
7F
100
AcDbEntity
  8
0
100
AcDbBlockBegin
  2
Block5
 70
     0
 10
0.0
 20
0.0
 30
0.0
  3
Block5
  1

  0
LINE
  5
82
330
7F
100
AcDbEntity
  8
FORMAT
100
AcDbLine
 10
251.0883122991
 20
64.4632252413
 30
0.0
 11
250.3611798328
 21
64.9733337839
 31
0.0
  0
LINE
  5
83
330
7F
100
AcDbEntity
  8
FORMAT
100
AcDbLine
 10
250.3611798328
 20
64.9733337839
 30
0.0
 11
251.0883122991
 21
65.4834423266
 31
0.0
  0
LINE
  5
84
330
7F
100
AcDbEntity
  8
FORMAT
100
AcDbLine
 10
250.3611798328
 20
65.6106440044
 30
0.0
 11
250.3611798328
 21
64.3360235634
 31
0.0
  0
LINE
  5
85
330
7F
100
AcDbEntity
  8
FORMAT
100
AcDbLine
 10
251.0883122991
 20
65.4834423266
 30
0.0
 11
251.0883122991
 21
64.4632252413
 31
0.0
  0
LINE
  5
86
330
7F
100
AcDbEntity
  8
FORMAT
  6
Continuous
 62
     7
370
    18
100
AcDbLine
 10
254.0738326611
 20
65.4834423266
 30
0.0
 11
254.0738326611
 21
64.4632252413
 31
0.0
  0
LINE
  5
87
330
7F
100
AcDbEntity
  8
FORMAT
100
AcDbLine
 10
251.0883122991
 20
64.9733337839
 30
0.0
 11
254.0738326611
 21
64.9733337839
 31
0.0
  0
LINE
  5
88
330
7F
100
AcDbEntity
  8
FORMAT
100
AcDbLine
 10
254.0738326611
 20
64.9733337839
 30
0.0
 11
254.0738326611
 21
64.4632252413
 31
0.0
  0
LINE
  5
89
330
7F
100
AcDbEntity
  8
FORMAT
  6
Continuous
 62
     7
370
    18
100
AcDbLine
 10
254.0738326611
 20
64.4632252413
 30
0.0
 11
254.8009651274
 21
64.9733337839
 31
0.0
  0
LINE
  5
8A
330
7F
100
AcDbEntity
  8
FORMAT
  6
Continuous
 62
     7
370
    18
100
AcDbLine
 10
254.8009651274
 20
64.9733337839
 30
0.0
 11
254.0738326611
 21
65.4834423266
 31
0.0
  0
LINE
  5
8B
330
7F
100
AcDbEntity
  8
FORMAT
100
AcDbLine
 10
254.0738326611
 20
65.4834423266
 30
0.0
 11
254.0738326611
 21
64.9733337839
 31
0.0
  0
LINE
  5
8C
330
7F
100
AcDbEntity
  8
FORMAT
100
AcDbLine
 10
254.8009651274
 20
65.6106440044
 30
0.0
 11
254.8009651274
 21
64.3360235634
 31
0.0
  0
ENDBLK
  5
81
330
7F
100
AcDbEntity
  8
0
100
AcDbBlockEnd
  0
BLOCK
  5
8E
330
8D
100
AcDbEntity
  8
0
100
AcDbBlockBegin
  2
Block2
 70
     0
 10
0.0
 20
0.0
 30
0.0
  3
Block2
  1

  0
CIRCLE
  5
90
330
8D
100
AcDbEntity
  8
FORMAT
100
AcDbCircle
 10
48.741006851
 20
68.2700462855
 30
0.0
 40
7.000000000000013
  0
CIRCLE
  5
91
330
8D
100
AcDbEntity
  8
FORMAT
100
AcDbCircle
 10
48.741006851
 20
68.2700462855
 30
0.0
 40
3.32888862482043
  0
LINE
  5
92
330
8D
100
AcDbEntity
  8
FORMAT
100
AcDbLine
 10
60.4734604481
 20
71.6747664277
 30
0.0
 11
76.4734604481
 21
75.1747664277
 31
0.0
  0
LINE
  5
93
330
8D
100
AcDbEntity
  8
FORMAT
100
AcDbLine
 10
76.4734604481
 20
75.1747664277
 30
0.0
 11
76.4734604481
 21
61.3653261433
 31
0.0
  0
LINE
  5
94
330
8D
100
AcDbEntity
  8
FORMAT
100
AcDbLine
 10
76.4734604481
 20
61.3653261433
 30
0.0
 11
60.4734604481
 21
64.8653261433
 31
0.0
  0
LINE
  5
95
330
8D
100
AcDbEntity
  8
FORMAT
100
AcDbLine
 10
60.4734604481
 20
64.8653261433
 30
0.0
 11
60.4734604481
 21
71.6747664277
 31
0.0
  0
LINE
  5
96
330
8D
100
AcDbEntity
  8
FORMAT
  6
CENTERX2
100
AcDbLine
 10
76.4734604481
 20
68.2700462855
 30
0.0
 11
39.8388877958
 21
68.2700462855
 31
0.0
  0
LINE
  5
97
330
8D
100
AcDbEntity
  8
FORMAT
100
AcDbLine
 10
48.741006851
 20
76.8424572275
 30
0.0
 11
48.741006851
 21
59.6976353435
 31
0.0
  0
ENDBLK
  5
8F
330
8D
100
AcDbEntity
  8
0
100
AcDbBlockEnd
  0
BLOCK
  5
99
330
98
100
AcDbEntity
  8
0
100
AcDbBlockBegin
  2
Block3
 70
     0
 10
0.0
 20
0.0
 30
0.0
  3
Block3
  1

  0
ARC
  5
9B
330
98
100
AcDbEntity
  8
FORMAT
100
AcDbCircle
 10
253.5616893058
 20
61.9516976285
 30
0.0
 40
0.5251511718353873
100
AcDbArc
 50
349.3356822367
 51
90.0
  0
LINE
  5
9C
330
98
100
AcDbEntity
  8
FORMAT
100
AcDbLine
 10
250.6928867464
 20
62.4768488003
 30
0.0
 11
250.6928867464
 21
61.2321831396
 31
0.0
  0
LINE
  5
9D
330
98
100
AcDbEntity
  8
FORMAT
100
AcDbLine
 10
250.6928867464
 20
61.2321831396
 30
0.0
 11
251.7250485138
 21
61.2321831396
 31
0.0
  0
LINE
  5
9E
330
98
100
AcDbEntity
  8
FORMAT
100
AcDbLine
 10
251.7250485138
 20
61.2321831396
 30
0.0
 11
251.7250485138
 21
61.85451597
 31
0.0
  0
LINE
  5
9F
330
98
100
AcDbEntity
  8
FORMAT
100
AcDbLine
 10
251.7250485138
 20
61.85451597
 30
0.0
 11
251.2089676301
 21
62.4768488003
 31
0.0
  0
LINE
  5
A0
330
98
100
AcDbEntity
  8
FORMAT
100
AcDbLine
 10
251.2089676301
 20
62.4768488003
 30
0.0
 11
250.6928867464
 21
62.4768488003
 31
0.0
  0
LINE
  5
A1
330
98
100
AcDbEntity
  8
0
  6
Continuous
 62
     7
370
    18
100
AcDbLine
 10
253.0456084221
 20
61.2321831396
 30
0.0
 11
254.0777701895
 21
61.2321831396
 31
0.0
  0
LINE
  5
A2
330
98
100
AcDbEntity
  8
0
  6
Continuous
 62
     7
370
    18
100
AcDbLine
 10
254.0777701895
 20
61.2321831396
 30
0.0
 11
254.0777701895
 21
61.85451597
 31
0.0
  0
LINE
  5
A3
330
98
100
AcDbEntity
  8
0
  6
Continuous
 62
     7
370
    18
100
AcDbLine
 10
253.0456084221
 20
62.4768488003
 30
0.0
 11
253.0456084221
 21
61.2321831396
 31
0.0
  0
LINE
  5
A4
330
98
100
AcDbEntity
  8
0
  6
Continuous
 62
     7
370
    18
100
AcDbLine
 10
253.5616893058
 20
62.4768488003
 30
0.0
 11
253.0456084221
 21
62.4768488003
 31
0.0
  0
ENDBLK
  5
9A
330
98
100
AcDbEntity
  8
0
100
AcDbBlockEnd
  0
BLOCK
  5
A6
330
A5
100
AcDbEntity
  8
0
100
AcDbBlockBegin
  2
Block7
 70
     0
 10
0.0
 20
0.0
 30
0.0
  3
Block7
  1

  0
LINE
  5
A8
330
A5
100
AcDbEntity
  8
FORMAT
100
AcDbLine
 10
221.8284763776
 20
80.2705155621
 30
0.0
 11
222.3963943455
 21
79.286852787
 31
0.0
  0
LINE
  5
A9
330
A5
100
AcDbEntity
  8
FORMAT
100
AcDbLine
 10
222.3963943455
 20
79.286852787
 30
0.0
 11
222.9643123135
 21
80.2705155621
 31
0.0
  0
LINE
  5
AA
330
A5
100
AcDbEntity
  8
FORMAT
100
AcDbLine
 10
221.8284763776
 20
80.2705155621
 30
0.0
 11
222.9643123135
 21
80.2705155621
 31
0.0
  0
LINE
  5
AB
330
A5
100
AcDbEntity
  8
FORMAT
100
AcDbLine
 10
222.9643123135
 20
80.2705155621
 30
0.0
 11
223.3725273771
 21
80.9775647926
 31
0.0
  0
LINE
  5
AC
330
A5
100
AcDbEntity
  8
FORMAT
100
AcDbLine
 10
223.3725273771
 20
80.9775647926
 30
0.0
 11
224.1023154201
 21
80.9775647926
 31
0.0
  0
ENDBLK
  5
A7
330
A5
100
AcDbEntity
  8
0
100
AcDbBlockEnd
  0
ENDSEC
  0
SECTION
  2
ENTITIES
  0
LINE
  5
AD
330
1F
100
AcDbEntity
  8
0
  6
Continuous
 62
     7
370
    25
100
AcDbLine
 10
137.3532487827
 20
110.4061813987
 30
0.0
 11
137.3532487827
 21
127.6092302498
 31
0.0
  0
LINE
  5
AE
330
1F
100
AcDbEntity
  8
0
  6
Continuous
 62
     7
370
    25
100
AcDbLine
 10
104.9532487827
 20
127.6092302498
 30
0.0
 11
104.9532487827
 21
110.3996720373
 31
0.0
  0
SPLINE
  5
AF
330
1F
100
AcDbEntity
  8
0
  6
Continuous
 62
     7
370
    25
100
AcDbSpline
210
0.0
220
0.0
230
1.0
 70
     8
 71
     3
 72
     9
 73
     5
 74
     0
 42
0.00000001
 43
0.00000001
 40
0.0
 40
0.0
 40
0.0
 40
0.0
 40
0.5018878356541039
 40
1.0
 40
1.0
 40
1.0
 40
1.0
 10
135.6478511506321
 20
129.715440179743
 30
0.0
 10
135.5129249491908
 20
129.7933427689975
 30
0.0
 10
135.2440875878201
 20
129.9485618911208
 30
0.0
 10
134.9752574051982
 20
130.1038877562397
 30
0.0
 10
134.8413498210908
 20
130.1812574590929
 30
0.0
  0
SPLINE
  5
B0
330
1F
100
AcDbEntity
  8
0
  6
Continuous
 62
     7
370
    25
100
AcDbSpline
210
0.0
220
0.0
230
1.0
 70
     8
 71
     3
 72
     9
 73
     5
 74
     0
 42
0.00000001
 43
0.00000001
 40
0.0
 40
0.0
 40
0.0
 40
0.0
 40
0.5015109964661149
 40
1.0
 40
1.0
 40
1.0
 40
1.0
 10
135.6478511506321
 20
128.215440179743
 30
0.0
 10
135.5130271312891
 20
128.2932689581082
 30
0.0
 10
135.2441915119446
 20
128.4484575360528
 30
0.0
 10
134.9753577119659
 20
128.6038147839069
 30
0.0
 10
134.8413470188982
 20
128.6812586635815
 30
0.0
  0
SPLINE
  5
B1
330
1F
100
AcDbEntity
  8
0
  6
Continuous
 62
     7
370
    25
100
AcDbSpline
210
0.0
220
0.0
230
1.0
 70
     8
 71
     3
 72
     9
 73
     5
 74
     0
 42
0.00000001
 43
0.00000001
 40
0.0
 40
0.0
 40
0.0
 40
0.0
 40
0.5016435549345938
 40
1.0
 40
1.0
 40
1.0
 40
1.0
 10
107.4708652530836
 20
130.9345605576458
 30
0.0
 10
107.3350526402319
 20
130.8560901975363
 30
0.0
 10
107.0643173511693
 20
130.6996636685047
 30
0.0
 10
106.7935752917123
 20
130.5433444863255
 30
0.0
 10
106.6586492414316
 20
130.4654418143991
 30
0.0
  0
SPLINE
  5
B2
330
1F
100
AcDbEntity
  8
0
  6
Continuous
 62
     7
370
    25
100
AcDbSpline
210
0.0
220
0.0
230
1.0
 70
     8
 71
     3
 72
     9
 73
     5
 74
     0
 42
0.00000001
 43
0.00000001
 40
0.0
 40
0.0
 40
0.0
 40
0.0
 40
0.5020160303133284
 40
1.0
 40
1.0
 40
1.0
 40
1.0
 10
107.4708652530836
 20
129.4345605576458
 30
0.0
 10
107.3349504151083
 20
129.3560163153656
 30
0.0
 10
107.064212371364
 20
129.1995586774866
 30
0.0
 10
106.7934730723198
 20
129.043270714581
 30
0.0
 10
106.6586492414316
 20
128.9654418143991
 30
0.0
  0
SPLINE
  5
B3
330
1F
100
AcDbEntity
  8
0
  6
Continuous
 62
     7
370
    25
100
AcDbSpline
210
0.0
220
0.0
230
1.0
 70
     8
 71
     3
 72
     9
 73
     5
 74
     0
 42
0.00000001
 43
0.00000001
 40
0.0
 40
0.0
 40
0.0
 40
0.0
 40
0.4981726380348098
 40
1.0
 40
1.0
 40
1.0
 40
1.0
 10
134.8357633853305
 20
130.5464762301993
 30
0.0
 10
134.9706269217685
 20
130.6243927912812
 30
0.0
 10
135.2413433885942
 20
130.7807975295847
 30
0.0
 10
135.5121065459969
 20
130.9371400374217
 30
0.0
 10
135.6479829069936
 20
131.0155969856926
 30
0.0
  0
SPLINE
  5
B4
330
1F
100
AcDbEntity
  8
0
  6
Continuous
 62
     7
370
    25
100
AcDbSpline
210
0.0
220
0.0
230
1.0
 70
     8
 71
     3
 72
     9
 73
     5
 74
     0
 42
0.00000001
 43
0.00000001
 40
0.0
 40
0.0
 40
0.0
 40
0.0
 40
0.497705480424455
 40
1.0
 40
1.0
 40
1.0
 40
1.0
 10
134.8357633853305
 20
129.0464762301993
 30
0.0
 10
134.9704879116925
 20
129.1243258848091
 30
0.0
 10
135.2411791772322
 20
129.2807429982863
 30
0.0
 10
135.5119674444199
 20
129.4370731881033
 30
0.0
 10
135.6479829069936
 20
129.5155969856926
 30
0.0
  0
SPLINE
  5
B5
330
1F
100
AcDbEntity
  8
0
  6
Continuous
 62
     7
370
    25
100
AcDbSpline
210
0.0
220
0.0
230
1.0
 70
     8
 71
     3
 72
     9
 73
     5
 74
     0
 42
0.00000001
 43
0.00000001
 40
0.0
 40
0.0
 40
0.0
 40
0.0
 40
0.5053004767195902
 40
1.0
 40
1.0
 40
1.0
 40
1.0
 10
106.6585132682656
 20
130.2655977996498
 30
0.0
 10
106.794389579922
 20
130.1871408762208
 30
0.0
 10
107.0632915855928
 20
130.031873016712
 30
0.0
 10
107.3321469981538
 20
129.8765437038087
 30
0.0
 10
107.4651496425791
 20
129.7997023667639
 30
0.0
  0
LINE
  5
B6
330
1F
100
AcDbEntity
  8
0
  6
Continuous
 62
     7
370
    25
100
AcDbLine
 10
135.6532487827
 20
131.021821576
 30
0.0
 11
135.6532487827
 21
131.0592302498
 31
0.0
  0
LINE
  5
B7
330
1F
100
AcDbEntity
  8
0
  6
Continuous
 62
     7
370
    25
100
AcDbLine
 10
135.6532487827
 20
129.521821576
 30
0.0
 11
135.6532487827
 21
129.7091368902
 31
0.0
  0
LINE
  5
B8
330
1F
100
AcDbEntity
  8
0
  6
Continuous
 62
     7
370
    25
100
AcDbLine
 10
135.6532487827
 20
127.6092302498
 30
0.0
 11
135.6532487827
 21
128.2091368902
 31
0.0
  0
LINE
  5
B9
330
1F
100
AcDbEntity
  8
0
  6
Continuous
 62
     7
370
    25
100
AcDbLine
 10
106.6532487827
 20
128.9592332332
 30
0.0
 11
106.6532487827
 21
127.6092302498
 31
0.0
  0
LINE
  5
BA
330
1F
100
AcDbEntity
  8
0
  6
Continuous
 62
     7
370
    25
100
AcDbLine
 10
106.6532487827
 20
130.4592332332
 30
0.0
 11
106.6532487827
 21
130.2717342318
 31
0.0
  0
LINE
  5
BB
330
1F
100
AcDbEntity
  8
0
  6
Continuous
 62
     7
370
    25
100
AcDbLine
 10
107.4651496426
 20
129.803104053
 30
0.0
 11
107.4651496426
 21
129.431258148
 31
0.0
  0
LINE
  5
BC
330
1F
100
AcDbEntity
  8
0
  6
Continuous
 62
     7
370
    25
100
AcDbLine
 10
107.4651483095
 20
131.0592302498
 30
0.0
 11
107.4651483095
 21
130.9312577918
 31
0.0
  0
LINE
  5
BD
330
1F
100
AcDbEntity
  8
0
  6
Continuous
 62
     7
370
    25
100
AcDbLine
 10
134.8413498211
 20
130.1779468398
 30
0.0
 11
134.8413498211
 21
130.5497034527
 31
0.0
  0
LINE
  5
BE
330
1F
100
AcDbEntity
  8
0
  6
Continuous
 62
     7
370
    25
100
AcDbLine
 10
134.8413470189
 20
128.6778316008
 30
0.0
 11
134.8413470189
 21
129.0497022058
 31
0.0
  0
SPLINE
  5
BF
330
1F
100
AcDbEntity
  8
0
  6
Continuous
 62
     7
370
    25
100
AcDbSpline
210
0.0
220
0.0
230
1.0
 70
     8
 71
     3
 72
    11
 73
     7
 74
     0
 42
0.00000001
 43
0.00000001
 40
0.0
 40
0.0
 40
0.0
 40
0.0
 40
0.2302671847980908
 40
0.6132085159423399
 40
0.9886847903410663
 40
0.9999999999999999
 40
0.9999999999999999
 40
0.9999999999999999
 40
0.9999999999999999
 10
137.8460127753385
 20
106.652473985117
 30
0.0
 10
137.7701820043841
 20
106.9342191289158
 30
0.0
 10
137.5682423551871
 20
107.6845150152111
 30
0.0
 10
137.4115610786986
 20
108.9278440064186
 30
0.0
 10
137.3259385777862
 20
109.9019379025064
 30
0.0
 10
137.3475849535914
 20
110.3905853232061
 30
0.0
 10
137.3482181973175
 20
110.4048802294861
 30
0.0
  0
SPLINE
  5
C0
330
1F
100
AcDbEntity
  8
0
  6
Continuous
 62
     7
370
    25
100
AcDbSpline
210
0.0
220
0.0
230
1.0
 70
     8
 71
     3
 72
    11
 73
     7
 74
     0
 42
0.00000001
 43
0.00000001
 40
0.0
 40
0.0
 40
0.0
 40
0.0
 40
0.0655867859536023
 40
0.4262350643713813
 40
0.78781984757555
 40
1.0
 40
1.0
 40
1.0
 40
1.0
 10
104.9471778315299
 20
110.3980065390625
 30
0.0
 10
104.9503022929283
 20
110.310863821957
 30
0.0
 10
104.9706075264582
 20
109.7445411840221
 30
0.0
 10
104.8688058343363
 20
108.6982671731832
 30
0.0
 10
104.6937812692434
 20
107.4651488932318
 30
0.0
 10
104.4807623127807
 20
106.7313079752916
 30
0.0
 10
104.4019872049884
 20
106.459931200318
 30
0.0
  0
ARC
  5
C1
330
1F
100
AcDbEntity
  8
0
  6
Continuous
 62
     7
370
    25
100
AcDbCircle
 10
121.1532487827
 20
170.401995662
 30
0.0
 40
10.63
100
AcDbArc
 50
104.157651444
 51
110.4937008693
  0
ARC
  5
C2
330
1F
100
AcDbEntity
  8
0
  6
Continuous
 62
     7
370
    25
100
AcDbCircle
 10
121.1532487827
 20
170.401995662
 30
0.0
 40
10.63
100
AcDbArc
 50
69.5062991307
 51
75.842348556
  0
SPLINE
  5
C3
330
1F
100
AcDbEntity
  8
0
  6
Continuous
 62
     7
370
    25
100
AcDbSpline
210
0.0
220
0.0
230
1.0
 70
     8
 71
     3
 72
    30
 73
    26
 74
     0
 42
0.00000001
 43
0.00000001
 40
0.0
 40
0.0
 40
0.0
 40
0.0
 40
0.0678255054309537
 40
0.1654173723945505
 40
0.250168781234768
 40
0.3220967614729623
 40
0.3812832489196832
 40
0.4279116252240391
 40
0.4623565409571014
 40
0.4749062168032357
 40
0.4844953911617782
 40
0.4884610035676239
 40
0.4921052621464002
 40
0.4956757783299645
 40
0.4994346876521711
 40
0.503693421841345
 40
0.5087384951086307
 40
0.5216435104145621
 40
0.560188605626453
 40
0.616848541959497
 40
0.6755841869000485
 40
0.7463991815955346
 40
0.8293767973634807
 40
0.9245352941801295
 40
1.0
 40
1.0
 40
1.0
 40
1.0
 10
126.3282192097357
 20
178.3321026913448
 30
0.0
 10
126.1699428445788
 20
178.3739230881055
 30
0.0
 10
125.7839278746931
 20
178.4759174647152
 30
0.0
 10
125.1726553764664
 20
178.7136491660029
 30
0.0
 10
124.51571061636
 20
178.9735516459986
 30
0.0
 10
123.9054073757797
 20
179.2055394584208
 30
0.0
 10
123.3376025333643
 20
179.3940310500556
 30
0.0
 10
122.8008040410184
 20
179.5373358101374
 30
0.0
 10
122.3527299384711
 20
179.6268936283241
 30
0.0
 10
121.9806320884816
 20
179.6776383888531
 30
0.0
 10
121.7557796305595
 20
179.7001231408115
 30
0.0
 10
121.5745069992734
 20
179.7126580739713
 30
0.0
 10
121.4456251360375
 20
179.7191763088796
 30
0.0
 10
121.3165876057756
 20
179.7232939239802
 30
0.0
 10
121.1878700435477
 20
179.7249893006636
 30
0.0
 10
121.059563452931
 20
179.7242619660128
 30
0.0
 10
120.8725299669945
 20
179.7196186596873
 30
0.0
 10
120.4960365217802
 20
179.6974539113595
 30
0.0
 10
119.9927224391293
 20
179.6297902610831
 30
0.0
 10
119.4129191970164
 20
179.5028565431259
 30
0.0
 10
118.7954066473186
 20
179.3200622255201
 30
0.0
 10
118.1394465099759
 20
179.0876424499304
 30
0.0
 10
117.4032370144738
 20
178.8062724262608
 30
0.0
 10
116.6684606702601
 20
178.5221335165745
 30
0.0
 10
116.1738293751595
 20
178.3872767647362
 30
0.0
 10
115.9550595677871
 20
178.3276311541273
 30
0.0
  0
SPLINE
  5
C4
330
1F
100
AcDbEntity
  8
0
  6
Continuous
 62
     7
370
    25
100
AcDbSpline
210
0.0
220
0.0
230
1.0
 70
     8
 71
     3
 72
     9
 73
     5
 74
     0
 42
0.00000001
 43
0.00000001
 40
0.0
 40
0.0
 40
0.0
 40
0.0
 40
0.7554834030171049
 40
1.0
 40
1.0
 40
1.0
 40
1.0
 10
124.7897603297191
 20
168.0206022887812
 30
0.0
 10
124.8534964162409
 20
168.0197692845585
 30
0.0
 10
124.9378610578297
 20
168.0186666736747
 30
0.0
 10
125.0060156470952
 20
168.0505930287382
 30
0.0
 10
125.0226805753311
 20
168.0583995524324
 30
0.0
  0
LINE
  5
C5
330
1F
100
AcDbEntity
  8
0
  6
Continuous
 62
     7
370
    25
100
AcDbLine
 10
117.2838169901
 20
168.0583995524
 30
0.0
 11
117.522512931
 21
168.0143761034
 31
0.0
  0
LINE
  5
C6
330
1F
100
AcDbEntity
  8
0
  6
Continuous
 62
     7
370
    25
100
AcDbLine
 10
117.5213846377
 20
168.0040363272
 30
0.0
 11
124.7851129277
 21
168.0040363272
 31
0.0
  0
ARC
  5
C7
330
1F
100
AcDbEntity
  8
0
  6
Continuous
 62
     7
370
    25
100
AcDbCircle
 10
132.6251383974
 20
164.1092302498
 30
0.0
 40
0.5000000000000063
100
AcDbArc
 50
270.0
 51
1.0
  0
ARC
  5
C8
330
1F
100
AcDbEntity
  8
0
  6
Continuous
 62
     7
370
    25
100
AcDbCircle
 10
109.681359168
 20
164.1092302498
 30
0.0
 40
0.5000000000000063
100
AcDbArc
 50
179.0
 51
270.0
  0
LINE
  5
C9
330
1F
100
AcDbEntity
  8
0
  6
Continuous
 62
     7
370
    25
100
AcDbLine
 10
109.2517125294
 20
168.1441350626
 30
0.0
 11
109.1814353204
 21
164.117956453
 31
0.0
  0
LINE
  5
CA
330
1F
100
AcDbEntity
  8
0
  6
Continuous
 62
     7
370
    25
100
AcDbLine
 10
133.125062245
 20
164.117956453
 30
0.0
 11
133.054785036
 21
168.1441350626
 31
0.0
  0
ARC
  5
CB
330
1F
100
AcDbEntity
  8
0
  6
Continuous
 62
     7
370
    25
100
AcDbCircle
 10
131.0550896456
 20
168.1092302498
 30
0.0
 40
2.0
100
AcDbArc
 50
1.0
 51
90.0
  0
ARC
  5
CC
330
1F
100
AcDbEntity
  8
0
  6
Continuous
 62
     7
370
    25
100
AcDbCircle
 10
111.2514079197
 20
168.1092302498
 30
0.0
 40
2.000000000000012
100
AcDbArc
 50
90.0
 51
179.0
  0
ARC
  5
CD
330
1F
100
AcDbEntity
  8
0
  6
Continuous
 62
     7
370
    25
100
AcDbCircle
 10
129.552692437
 20
177.9592302498
 30
0.0
 40
0.5000000000000048
100
AcDbArc
 50
1.0
 51
90.0
  0
ARC
  5
CE
330
1F
100
AcDbEntity
  8
0
  6
Continuous
 62
     7
370
    25
100
AcDbCircle
 10
112.7538051284
 20
177.9592302498
 30
0.0
 40
0.5000000000000048
100
AcDbArc
 50
90.0
 51
179.0
  0
ARC
  5
CF
330
1F
100
AcDbEntity
  8
0
  6
Continuous
 62
     7
370
    25
100
AcDbCircle
 10
108.6281314207
 20
173.6592302498
 30
0.0
 40
3.550000000000007
100
AcDbArc
 50
331.8464790807
 51
359.0
  0
ARC
  5
D0
330
1F
100
AcDbEntity
  8
0
  6
Continuous
 62
     7
370
    25
100
AcDbCircle
 10
132.7448037448
 20
172.7092302498
 30
0.0
 40
2.599999999999994
100
AcDbArc
 50
181.0
 51
210.5908421204
  0
SPLINE
  5
D1
330
1F
100
AcDbEntity
  8
0
  6
Continuous
 62
     7
370
    25
100
AcDbSpline
210
0.0
220
0.0
230
1.0
 70
     8
 71
     3
 72
    13
 73
     9
 74
     0
 42
0.00000001
 43
0.00000001
 40
0.0
 40
0.0
 40
0.0
 40
0.0
 40
0.1643896119617613
 40
0.3794765711288161
 40
0.5739163079753437
 40
0.7416619806707709
 40
0.8853403256208718
 40
1.0
 40
1.0
 40
1.0
 40
1.0
 10
111.7488525906807
 20
171.9764000719555
 30
0.0
 10
111.6480901819772
 20
171.7906026271802
 30
0.0
 10
111.4154904884979
 20
171.3617082680634
 30
0.0
 10
111.0931355115059
 20
170.8143284647452
 30
0.0
 10
110.7948909251738
 20
170.3552716580317
 30
0.0
 10
110.5762817559948
 20
170.0591353393551
 30
0.0
 10
110.4319411416857
 20
169.8964373908591
 30
0.0
 10
110.4136987773988
 20
169.8804365465251
 30
0.0
 10
110.4056021621407
 20
169.8733347981804
 30
0.0
  0
SPLINE
  5
D2
330
1F
100
AcDbEntity
  8
0
  6
Continuous
 62
     7
370
    25
100
AcDbSpline
210
0.0
220
0.0
230
1.0
 70
     8
 71
     3
 72
    11
 73
     7
 74
     0
 42
0.00000001
 43
0.00000001
 40
0.0
 40
0.0
 40
0.0
 40
0.0
 40
0.1877405279976751
 40
0.4627338560062602
 40
0.7840117509989808
 40
1.0
 40
1.0
 40
1.0
 40
1.0
 10
131.4294106093897
 20
170.0455717017809
 30
0.0
 10
131.3883678346091
 20
170.0928809835167
 30
0.0
 10
131.2872075702913
 20
170.2094866338576
 30
0.0
 10
131.0469433367021
 20
170.5393838302793
 30
0.0
 10
130.7786292344443
 20
170.9417907723551
 30
0.0
 10
130.5817438866891
 20
171.2672727932664
 30
0.0
 10
130.5025933167323
 20
171.3981209633286
 30
0.0
  0
LINE
  5
D3
330
1F
100
AcDbEntity
  8
0
  6
Continuous
 62
     7
370
    25
100
AcDbLine
 10
130.1451997374
 20
172.663853993
 30
0.0
 11
130.0526162845
 21
177.967956453
 31
0.0
  0
LINE
  5
D4
330
1F
100
AcDbEntity
  8
0
  6
Continuous
 62
     7
370
    25
100
AcDbLine
 10
112.2538812809
 20
177.967956453
 30
0.0
 11
112.1775907385
 21
173.5972742069
 31
0.0
  0
LINE
  5
D5
330
1F
100
AcDbEntity
  8
0
  6
Continuous
 62
     7
370
    25
100
AcDbLine
 10
128.3032487827
 20
178.4592302498
 30
0.0
 11
127.0783765539
 21
180.0642352393
 31
0.0
  0
LINE
  5
D6
330
1F
100
AcDbEntity
  8
0
  6
Continuous
 62
     7
370
    25
100
AcDbLine
 10
115.2281210115
 20
180.0642352393
 30
0.0
 11
114.0032487827
 21
178.4592302498
 31
0.0
  0
ARC
  5
D7
330
1F
100
AcDbEntity
  8
0
  6
Continuous
 62
     7
370
    25
100
AcDbCircle
 10
126.4821631193
 20
179.6092302498
 30
0.0
 40
0.7500000000000014
100
AcDbArc
 50
37.3493490446
 51
90.0
  0
ARC
  5
D8
330
1F
100
AcDbEntity
  8
0
  6
Continuous
 62
     7
370
    25
100
AcDbCircle
 10
115.8243344461
 20
179.6092302498
 30
0.0
 40
0.7500000000000014
100
AcDbArc
 50
90.0
 51
142.6506509554
  0
LINE
  5
D9
330
1F
100
AcDbEntity
  8
0
  6
Continuous
 62
     7
370
    25
100
AcDbLine
 10
130.6532487827
 20
154.4897180546
 30
0.0
 11
129.4032487827
 21
155.7092302498
 31
0.0
  0
LINE
  5
DA
330
1F
100
AcDbEntity
  8
0
  6
Continuous
 62
     7
370
    25
100
AcDbLine
 10
112.9032487827
 20
155.7092302498
 30
0.0
 11
111.6532487827
 21
154.4897180546
 31
0.0
  0
LINE
  5
DB
330
1F
100
AcDbEntity
  8
0
  6
Continuous
 62
     7
370
    25
100
AcDbLine
 10
130.5532487827
 20
148.4480848936
 30
0.0
 11
130.5532487827
 21
148.8008897276
 31
0.0
  0
SPLINE
  5
DC
330
1F
100
AcDbEntity
  8
0
  6
Continuous
 62
     7
370
    25
100
AcDbSpline
210
0.0
220
0.0
230
1.0
 70
     8
 71
     3
 72
     9
 73
     5
 74
     0
 42
0.00000001
 43
0.00000001
 40
0.0
 40
0.0
 40
0.0
 40
0.0
 40
0.5072485947492584
 40
1.0
 40
1.0
 40
1.0
 40
1.0
 10
130.5456361452301
 20
148.8095357129149
 30
0.0
 10
130.4177642859112
 20
148.8834026285792
 30
0.0
 10
130.1656751512293
 20
149.0290253398671
 30
0.0
 10
129.9136463233644
 20
149.1747068469502
 30
0.0
 10
129.7894587642703
 20
149.2464916142844
 30
0.0
  0
SPLINE
  5
DD
330
1F
100
AcDbEntity
  8
0
  6
Continuous
 62
     7
370
    25
100
AcDbSpline
210
0.0
220
0.0
230
1.0
 70
     8
 71
     3
 72
     9
 73
     5
 74
     0
 42
0.00000001
 43
0.00000001
 40
0.0
 40
0.0
 40
0.0
 40
0.0
 40
0.7691850970638455
 40
0.9999999999999999
 40
0.9999999999999999
 40
0.9999999999999999
 40
0.9999999999999999
 10
112.5253192326728
 20
148.5457219231271
 30
0.0
 10
112.3982165279539
 20
148.4722593646734
 30
0.0
 10
112.2329732006923
 20
148.3767523680688
 30
0.0
 10
112.0677090313223
 20
148.2812691902016
 30
0.0
 10
112.0295635981104
 20
148.2592302497702
 30
0.0
  0
LINE
  5
DE
330
1F
100
AcDbEntity
  8
0
  6
Continuous
 62
     7
370
    25
100
AcDbLine
 10
130.2336812375
 20
148.2592302498
 30
0.0
 11
130.5456313724
 21
148.4394776175
 31
0.0
  0
SPLINE
  5
DF
330
1F
100
AcDbEntity
  8
0
  6
Continuous
 62
     7
370
    25
100
AcDbSpline
210
0.0
220
0.0
230
1.0
 70
     8
 71
     3
 72
     9
 73
     5
 74
     0
 42
0.00000001
 43
0.00000001
 40
0.0
 40
0.0
 40
0.0
 40
0.0
 40
0.3608557569702092
 40
1.0
 40
1.0
 40
1.0
 40
1.0
 10
111.9306704140445
 20
149.046918879215
 30
0.0
 10
112.0012047807784
 20
149.0061645787428
 30
0.0
 10
112.1966689388843
 20
148.8932266535887
 30
0.0
 10
112.3921177092201
 20
148.7802734681771
 30
0.0
 10
112.5170376655875
 20
148.7080800899895
 30
0.0
  0
LINE
  5
E0
330
1F
100
AcDbEntity
  8
0
  6
Continuous
 62
     7
370
    25
100
AcDbLine
 10
112.2532487827
 20
149.4092302498
 30
0.0
 11
111.9241016784
 21
149.0800831455
 31
0.0
  0
SPLINE
  5
E1
330
1F
100
AcDbEntity
  8
0
  6
Continuous
 62
     7
370
    25
100
AcDbSpline
210
0.0
220
0.0
230
1.0
 70
     8
 71
     3
 72
     9
 73
     5
 74
     0
 42
0.00000001
 43
0.00000001
 40
0.0
 40
0.0
 40
0.0
 40
0.0
 40
0.5037102482820472
 40
1.0
 40
1.0
 40
1.0
 40
1.0
 10
129.7894603567687
 20
149.2417196275282
 30
0.0
 10
129.7894454453578
 20
149.2713727226302
 30
0.0
 10
129.7894158422062
 20
149.330242073022
 30
0.0
 10
129.7894455921677
 20
149.3889649529283
 30
0.0
 10
129.7894603567687
 20
149.4181085164171
 30
0.0
  0
SPLINE
  5
E2
330
1F
100
AcDbEntity
  8
0
  6
Continuous
 62
     7
370
    25
100
AcDbSpline
210
0.0
220
0.0
230
1.0
 70
     8
 71
     3
 72
     9
 73
     5
 74
     0
 42
0.00000001
 43
0.00000001
 40
0.0
 40
0.0
 40
0.0
 40
0.0
 40
0.5112090479899728
 40
1.0
 40
1.0
 40
1.0
 40
1.0
 10
112.5170372317869
 20
148.7125521494381
 30
0.0
 10
112.5170415100368
 20
148.68331955215
 30
0.0
 10
112.5170498789223
 20
148.6261362972702
 30
0.0
 10
112.5170416915756
 20
148.568908341739
 30
0.0
 10
112.5170376896746
 20
148.5409358348734
 30
0.0
  0
LINE
  5
E3
330
1F
100
AcDbEntity
  8
0
  6
Continuous
 62
     7
370
    25
100
AcDbLine
 10
129.2782487827
 20
149.4092302498
 30
0.0
 11
129.2782487827
 21
150.9092302498
 31
0.0
  0
LINE
  5
E4
330
1F
100
AcDbEntity
  8
0
  6
Continuous
 62
     7
370
    25
100
AcDbLine
 10
113.0282487827
 20
150.9092302498
 30
0.0
 11
113.0282487827
 21
149.4092302498
 31
0.0
  0
LINE
  5
E5
330
1F
100
AcDbEntity
  8
0
  6
Continuous
 62
     7
370
    25
100
AcDbLine
 10
104.8885269477
 20
131.1239520847
 30
0.0
 11
104.9532487827
 21
131.0592302498
 31
0.0
  0
LINE
  5
E6
330
1F
100
AcDbEntity
  8
0
  6
Continuous
 62
     7
370
    25
100
AcDbLine
 10
137.3532487827
 20
131.0592302498
 30
0.0
 11
137.4179706176
 21
131.1239520847
 31
0.0
  0
LINE
  5
E7
330
1F
100
AcDbEntity
  8
0
  6
Continuous
 62
     7
370
    25
100
AcDbLine
 10
137.4179706176
 20
140.4445084148
 30
0.0
 11
137.3532487827
 21
140.5092302498
 31
0.0
  0
LINE
  5
E8
330
1F
100
AcDbEntity
  8
0
  6
Continuous
 62
     7
370
    25
100
AcDbLine
 10
104.9532487827
 20
140.5092302498
 30
0.0
 11
104.8885269477
 21
140.4445084148
 31
0.0
  0
ARC
  5
E9
330
1F
100
AcDbEntity
  8
0
  6
Continuous
 62
     7
370
    25
100
AcDbCircle
 10
126.8942371548
 20
140.5092302498
 30
0.0
 40
9.134011627906972
100
AcDbArc
 50
0.0
 51
58.0464183091
  0
ARC
  5
EA
330
1F
100
AcDbEntity
  8
0
  6
Continuous
 62
     7
370
    25
100
AcDbCircle
 10
115.4122604106
 20
140.5092302498
 30
0.0
 40
9.134011627906986
100
AcDbArc
 50
121.9535816909
 51
180.0
  0
LINE
  5
EB
330
1F
100
AcDbEntity
  8
0
  6
Continuous
 62
     7
370
    25
100
AcDbLine
 10
115.5032487827
 20
163.6092302498
 30
0.0
 11
115.5032487827
 21
155.7092302498
 31
0.0
  0
LINE
  5
EC
330
1F
100
AcDbEntity
  8
0
  6
Continuous
 62
     7
370
    25
100
AcDbLine
 10
126.8032487827
 20
155.7092302498
 30
0.0
 11
126.8032487827
 21
163.6092302498
 31
0.0
  0
CIRCLE
  5
ED
330
1F
100
AcDbEntity
  8
0
  6
Continuous
 62
     7
370
    25
100
AcDbCircle
 10
121.1532487827
 20
96.4092302498
 30
0.0
 40
9.599999999999937
  0
ARC
  5
EE
330
1F
100
AcDbEntity
  8
0
  6
Continuous
 62
     7
370
    25
100
AcDbCircle
 10
121.1532487827
 20
96.4092302498
 30
0.0
 40
8.600000000000026
100
AcDbArc
 50
15.0552561196
 51
105.0552570859
  0
SPLINE
  5
EF
330
1F
100
AcDbEntity
  8
0
  6
Continuous
 62
     7
370
    25
100
AcDbSpline
210
0.0
220
0.0
230
1.0
 70
     8
 71
     3
 72
    39
 73
    35
 74
     0
 42
0.00000001
 43
0.00000001
 40
0.0
 40
0.0
 40
0.0
 40
0.0
 40
0.0391584365112173
 40
0.069323103311152
 40
0.0994887243310256
 40
0.129677725099527
 40
0.1598667258647156
 40
0.1904235114232665
 40
0.2209802969849428
 40
0.2515274131236598
 40
0.2820765145969339
 40
0.312922884814624
 40
0.3437692550332227
 40
0.3747128660827919
 40
0.4056591072914577
 40
0.4367568879251298
 40
0.4678546685574325
 40
0.4991933736053201
 40
0.5305328125977002
 40
0.5618860999188492
 40
0.5932393872369301
 40
0.624969990848907
 40
0.6567005944635527
 40
0.6884219312865798
 40
0.7201453815577243
 40
0.7521557335248065
 40
0.7841660854925468
 40
0.8162838236623796
 40
0.8484041454182997
 40
0.8806663408344942
 40
0.9129285362493235
 40
0.9454412709765745
 40
0.9779545208672225
 40
1.0
 40
1.0
 40
1.0
 40
1.0
 10
118.9193946467157
 20
104.7140418490278
 30
0.0
 10
118.3180773621494
 20
104.5227746630289
 30
0.0
 10
117.2535511973004
 20
104.1841698545546
 30
0.0
 10
115.891498858454
 20
103.3280912591125
 30
0.0
 10
114.7899939157234
 20
102.3735197199109
 30
0.0
 10
113.8684798903372
 20
101.2407698760233
 30
0.0
 10
113.1394671709001
 20
99.96926863837328
 30
0.0
 10
112.6357333109116
 20
98.58606607355372
 30
0.0
 10
112.3653256033501
 20
97.13325885596721
 30
0.0
 10
112.3474919851634
 20
95.65576588772566
 30
0.0
 10
112.5710105342257
 20
94.19059949252022
 30
0.0
 10
113.041445080196
 20
92.77989030392433
 30
0.0
 10
113.7397707526883
 20
91.45974004904484
 30
0.0
 10
114.6549946969369
 20
90.27745548196256
 30
0.0
 10
115.7542406359487
 20
89.258261206383
 30
0.0
 10
117.0123881901612
 20
88.43870181252156
 30
0.0
 10
118.3932457423212
 20
87.83298904367385
 30
0.0
 10
119.8611780365473
 20
87.47097608356465
 30
0.0
 10
121.3727192947591
 20
87.35515962565883
 30
0.0
 10
122.8820668969114
 20
87.49802463116097
 30
0.0
 10
124.3542385258228
 20
87.8856427682379
 30
0.0
 10
125.7445846605478
 20
88.5210062408964
 30
0.0
 10
127.0163933709459
 20
89.37973465233998
 30
0.0
 10
128.122322448276
 20
90.4433698273948
 30
0.0
 10
129.0428788640822
 20
91.67640635991145
 30
0.0
 10
129.7430277284886
 20
93.05203295499837
 30
0.0
 10
130.2101611772481
 20
94.52990982317789
 30
0.0
 10
130.4174166638465
 20
96.06777013867028
 30
0.0
 10
130.3699589217541
 20
97.62277549811077
 30
0.0
 10
130.0589511842368
 20
99.14929214192571
 30
0.0
 10
129.5012547349135
 20
100.6113269535229
 30
0.0
 10
128.6977938032448
 20
101.957077749468
 30
0.0
 10
127.7977452254827
 20
103.0374904522153
 30
0.0
 10
127.1294775502441
 20
103.6044192971622
 30
0.0
 10
126.8594514452875
 20
103.8334975444887
 30
0.0
  0
SPLINE
  5
F0
330
1F
100
AcDbEntity
  8
0
  6
Continuous
 62
     7
370
    25
100
AcDbSpline
210
0.0
220
0.0
230
1.0
 70
     8
 71
     3
 72
    13
 73
     9
 74
     0
 42
0.00000001
 43
0.00000001
 40
0.0
 40
0.0
 40
0.0
 40
0.0
 40
0.0480213514502391
 40
0.2406233407804631
 40
0.4355109719644551
 40
0.6303986031484471
 40
0.8151993015742235
 40
1.0
 40
1.0
 40
1.0
 40
1.0
 10
126.8594514452837
 20
103.8334975444918
 30
0.0
 10
126.7653531506511
 20
103.9040621387809
 30
0.0
 10
126.2938494271521
 20
104.2576441997992
 30
0.0
 10
125.373969602231
 20
104.8073906930924
 30
0.0
 10
124.0498291549097
 20
105.3519617028965
 30
0.0
 10
122.6769620504547
 20
105.6814772307596
 30
0.0
 10
121.2933615927256
 20
105.8127368382662
 30
0.0
 10
120.3900496181068
 20
105.7334953439219
 30
0.0
 10
119.9383936307973
 20
105.6938745967498
 30
0.0
  0
SPLINE
  5
F1
330
1F
100
AcDbEntity
  8
0
  6
Continuous
 62
     7
370
    25
100
AcDbSpline
210
0.0
220
0.0
230
1.0
 70
     8
 71
     3
 72
    15
 73
    11
 74
     0
 42
0.00000001
 43
0.00000001
 40
0.0
 40
0.0
 40
0.0
 40
0.0
 40
0.1454648731423981
 40
0.2639401517681239
 40
0.3824154280040732
 40
0.500890620909242
 40
0.6193658155112888
 40
0.7380223753802957
 40
0.8566617520809959
 40
1.0
 40
1.0
 40
1.0
 40
1.0
 10
119.9383936307989
 20
105.69387459675
 30
0.0
 10
120.5674250084023
 20
105.7054562065468
 30
0.0
 10
121.7087771003882
 20
105.7264705709185
 30
0.0
 10
123.3276059826077
 20
105.3593603937888
 30
0.0
 10
124.7565001662744
 20
104.793601951848
 30
0.0
 10
126.0661317688585
 20
103.9858045230123
 30
0.0
 10
127.2277902548963
 20
102.975035981779
 30
0.0
 10
128.1909578354527
 20
101.775050956457
 30
0.0
 10
129.0060328106315
 20
100.3365748084288
 30
0.0
 10
129.2982027632307
 20
99.24198003679192
 30
0.0
 10
129.4580604196277
 20
98.64308424568954
 30
0.0
  0
CIRCLE
  5
F2
330
1F
100
AcDbEntity
  8
0
  6
Continuous
 62
     7
370
    25
100
AcDbCircle
 10
121.1532487827
 20
96.4092302498
 30
0.0
 40
13.25
  0
CIRCLE
  5
F3
330
1F
100
AcDbEntity
  8
0
  6
Continuous
 62
     7
370
    25
100
AcDbCircle
 10
121.1532487827
 20
96.4092302498
 30
0.0
 40
14.24999999999999
  0
SPLINE
  5
F4
330
1F
100
AcDbEntity
  8
0
  6
Continuous
 62
     7
370
    25
100
AcDbSpline
210
0.0
220
0.0
230
1.0
 70
     8
 71
     3
 72
    28
 73
    24
 74
     0
 42
0.00000001
 43
0.00000001
 40
0.0
 40
0.0
 40
0.0
 40
0.0
 40
0.0279013131872639
 40
0.0758849967087
 40
0.1247786425282164
 40
0.1740627834090037
 40
0.2224439739078297
 40
0.2707793455190109
 40
0.3200549688029407
 40
0.3689791842649209
 40
0.4169564128735176
 40
0.465981231889894
 40
0.5152163675073563
 40
0.5634079376555772
 40
0.6119469545378903
 40
0.6612519076836997
 40
0.710026149486445
 40
0.7580562887169908
 40
0.8071879131977048
 40
0.8563490407024058
 40
0.904409247107568
 40
0.9531294544640991
 40
0.9999999999999999
 40
0.9999999999999999
 40
0.9999999999999999
 40
0.9999999999999999
 10
129.4580604196267
 20
98.64308424569319
 30
0.0
 10
129.5412894976104
 20
98.2770460654233
 30
0.0
 10
129.767652976149
 20
97.28150847482281
 30
0.0
 10
129.7849480999778
 20
95.58565654371091
 30
0.0
 10
129.3798900987906
 20
93.6487299871106
 30
0.0
 10
128.5340120867788
 20
91.84960920224015
 30
0.0
 10
127.3079764518854
 20
90.29669826976837
 30
0.0
 10
125.7633845780662
 20
89.05980551036055
 30
0.0
 10
123.9709512627144
 20
88.20288032434254
 30
0.0
 10
122.0350171559972
 20
87.77959169209537
 30
0.0
 10
120.0576200970448
 20
87.80397026651315
 30
0.0
 10
118.1319655743175
 20
88.27552653512053
 30
0.0
 10
116.3625594606504
 20
89.17654396301697
 30
0.0
 10
114.8493072695212
 20
90.45072059227769
 30
0.0
 10
113.6611981084203
 20
92.03395513078132
 30
0.0
 10
112.8616251151159
 20
93.85398546153255
 30
0.0
 10
112.500165181755
 20
95.80131618497309
 30
0.0
 10
112.586770245205
 20
97.77728006110432
 30
0.0
 10
113.1199562330209
 20
99.68757896358932
 30
0.0
 10
114.0757897468434
 20
101.4280873572316
 30
0.0
 10
115.3988333832018
 20
102.8928075255679
 30
0.0
 10
116.984383523384
 20
104.0392379585026
 30
0.0
 10
118.2030778401928
 20
104.4624412980654
 30
0.0
 10
118.8006342537782
 20
104.6699485181439
 30
0.0
  0
SPLINE
  5
F5
330
1F
100
AcDbEntity
  8
0
  6
Continuous
 62
     7
370
    25
100
AcDbSpline
210
0.0
220
0.0
230
1.0
 70
     8
 71
     3
 72
    30
 73
    26
 74
     0
 42
0.00000001
 43
0.00000001
 40
0.0
 40
0.0
 40
0.0
 40
0.0
 40
0.0697198222017876
 40
0.139857387985939
 40
0.221047313129137
 40
0.2623885984673187
 40
0.3037111065148013
 40
0.3493845953281586
 40
0.3960268208954824
 40
0.4227788618254777
 40
0.4500705422495326
 40
0.4733710392366144
 40
0.4990814321432869
 40
0.5257359896850873
 40
0.5556086174737964
 40
0.591290468167286
 40
0.6282181358342251
 40
0.6460537494872755
 40
0.6780299664056005
 40
0.7100220890568109
 40
0.7755743729573616
 40
0.8311136749687271
 40
0.8866719947546551
 40
0.943335002513803
 40
1.0
 40
1.0
 40
1.0
 40
1.0
 10
107.1298342917044
 20
107.6398726184395
 30
0.0
 10
107.3900616575975
 20
108.7352430198726
 30
0.0
 10
107.9120756060973
 20
110.9325470057913
 30
0.0
 10
109.0642409879445
 20
114.2714106363316
 30
0.0
 10
110.3430596784005
 20
117.0731218176352
 30
0.0
 10
111.684269819416
 20
119.3314008211908
 30
0.0
 10
112.8909409331094
 20
121.0134810680992
 30
0.0
 10
114.3453104977683
 20
122.6344713640763
 30
0.0
 10
115.8687609331538
 20
123.8923983030293
 30
0.0
 10
117.326573275362
 20
124.7505095974961
 30
0.0
 10
118.5427751046737
 20
125.2577045405069
 30
0.0
 10
119.8153189700369
 20
125.5790018128619
 30
0.0
 10
121.1219175436245
 20
125.6985207708716
 30
0.0
 10
122.5438784640064
 20
125.5812452552947
 30
0.0
 10
124.0781592563584
 20
125.1677714044354
 30
0.0
 10
125.6462046075011
 20
124.4100125996744
 30
0.0
 10
126.8752545102445
 20
123.5342555110553
 30
0.0
 10
127.9479297846615
 20
122.5928854473568
 30
0.0
 10
128.8762207900587
 20
121.6307176425281
 30
0.0
 10
130.1917614993531
 20
119.9967508968513
 30
0.0
 10
131.5068494651484
 20
117.9142485550205
 30
0.0
 10
132.7531876017842
 20
115.3825315319589
 30
0.0
 10
133.7317721928165
 20
112.8894515500873
 30
0.0
 10
134.5525469791392
 20
110.3151096160317
 30
0.0
 10
134.9686220737947
 20
108.5316287219713
 30
0.0
 10
135.1766632736877
 20
107.6398726184395
 30
0.0
  0
ARC
  5
F6
330
1F
100
AcDbEntity
  8
0
  6
Continuous
 62
     7
370
    25
100
AcDbCircle
 10
140.4029537958
 20
103.9096370295
 30
0.0
 40
6.420963336612961
100
AcDbArc
 50
144.4828644704
 51
198.4216051483
  0
ARC
  5
F7
330
1F
100
AcDbEntity
  8
0
  6
Continuous
 62
     7
370
    25
100
AcDbCircle
 10
101.9035437696
 20
103.9096370295
 30
0.0
 40
6.420963336612921
100
AcDbArc
 50
341.5783948517
 51
35.5171355296
  0
CIRCLE
  5
F8
330
1F
100
AcDbEntity
  8
0
  6
Continuous
 62
     7
370
    25
100
AcDbCircle
 10
121.1532487827
 20
96.4092302498
 30
0.0
 40
7.325000000000003
  0
SPLINE
  5
F9
330
1F
100
AcDbEntity
  8
0
  6
Continuous
 62
     7
370
    25
100
AcDbSpline
210
0.0
220
0.0
230
1.0
 70
     8
 71
     3
 72
    24
 73
    20
 74
     0
 42
0.00000001
 43
0.00000001
 40
0.0
 40
0.0
 40
0.0
 40
0.0
 40
0.0656088539569248
 40
0.1308457440702172
 40
0.2100235777563092
 40
0.3031943820503154
 40
0.3733800787710155
 40
0.4216818088167131
 40
0.4595346342504652
 40
0.5010219687876181
 40
0.5421460908215067
 40
0.5867435472492964
 40
0.6416660659297448
 40
0.7213285221079717
 40
0.8035803129356612
 40
0.8515013720333993
 40
0.9010041805188113
 40
0.968278216012196
 40
0.9999999999999999
 40
0.9999999999999999
 40
0.9999999999999999
 40
0.9999999999999999
 10
119.4118876600176
 20
103.5242345674375
 30
0.0
 10
119.1303707918914
 20
103.2383207841826
 30
0.0
 10
118.5689330916922
 20
102.6681141816641
 30
0.0
 10
118.1190114871066
 20
101.4700494011028
 30
0.0
 10
117.9834632249306
 20
100.0457527861097
 30
0.0
 10
118.2997286108533
 20
98.58981074759258
 30
0.0
 10
118.9529615658012
 20
97.45139422602189
 30
0.0
 10
119.6740032436061
 20
96.80043984338684
 30
0.0
 10
120.4137570505729
 20
96.46630086434924
 30
0.0
 10
121.1726991940196
 20
96.51325159878549
 30
0.0
 10
121.9740468247155
 20
96.47276488507579
 30
0.0
 10
122.7748517523981
 20
96.88853944245942
 30
0.0
 10
123.5406578304741
 20
97.69313626224096
 30
0.0
 10
124.1094619230523
 20
98.91157750811483
 30
0.0
 10
124.295548393402
 20
100.1752654062375
 30
0.0
 10
124.2033972727319
 20
101.2497533887576
 30
0.0
 10
123.9335692550761
 20
102.1969512596404
 30
0.0
 10
123.4846744636727
 20
102.9894408538906
 30
0.0
 10
123.0378033235558
 20
103.3944539548118
 30
0.0
 10
122.8946099053745
 20
103.5242345674375
 30
0.0
  0
LINE
  5
FA
330
1F
100
AcDbEntity
  8
0
  6
Continuous
 62
     7
370
    25
100
AcDbLine
 10
137.3532487827
 20
127.6092302498
 30
0.0
 11
104.9532487827
 21
127.6092302498
 31
0.0
  0
LINE
  5
FB
330
1F
100
AcDbEntity
  8
0
  6
Continuous
 62
     7
370
    25
100
AcDbLine
 10
107.9954771615
 20
101.8805688396
 30
0.0
 11
105.5814308485
 21
102.8843911532
 31
0.0
  0
ARC
  5
FC
330
1F
100
AcDbEntity
  8
0
  6
Continuous
 62
     7
370
    25
100
AcDbCircle
 10
90.0879959132
 20
110.5589382757
 30
0.0
 40
17.2900317995863
100
AcDbArc
 50
333.6488590876
 51
350.280235246
  0
LINE
  5
FD
330
1F
100
AcDbEntity
  8
0
  6
Continuous
 62
     7
370
    25
100
AcDbLine
 10
136.7250667169
 20
102.8843911532
 30
0.0
 11
134.3110204039
 21
101.8805688396
 31
0.0
  0
ARC
  5
FE
330
1F
100
AcDbEntity
  8
0
  6
Continuous
 62
     7
370
    25
100
AcDbCircle
 10
121.1532487827
 20
96.4092302498
 30
0.0
 40
16.86443661971833
100
AcDbArc
 50
157.4212070912
 51
22.5787929088
  0
ARC
  5
FF
330
1F
100
AcDbEntity
  8
0
  6
Continuous
 62
     7
370
    25
100
AcDbCircle
 10
152.2185016522
 20
110.5589382757
 30
0.0
 40
17.29003179958462
100
AcDbArc
 50
189.719764754
 51
206.3511409124
  0
SPLINE
  5
100
330
1F
100
AcDbEntity
  8
0
  6
Continuous
 62
     7
370
    25
100
AcDbSpline
210
0.0
220
0.0
230
1.0
 70
     8
 71
     3
 72
    21
 73
    17
 74
     0
 42
0.00000001
 43
0.00000001
 40
0.0
 40
0.0
 40
0.0
 40
0.0
 40
0.0269579524175612
 40
0.1005834901674091
 40
0.1756191800257738
 40
0.2514453670769972
 40
0.3267007690932135
 40
0.4003829193709586
 40
0.4751586552000659
 40
0.5509472068430916
 40
0.626391273828666
 40
0.7002456338755039
 40
0.7747264485673213
 40
0.8504394252932969
 40
0.9260352421156549
 40
1.0
 40
1.0
 40
1.0
 40
1.0
 10
132.8610782876424
 20
131.0592302497702
 30
0.0
 10
132.6822894099105
 20
131.0537785376706
 30
0.0
 10
132.0152057587918
 20
131.0334375183722
 30
0.0
 10
130.4336259991692
 20
131.0006537587227
 30
0.0
 10
128.1893809556411
 20
130.9550334139175
 30
0.0
 10
125.6475977361724
 20
130.908491437325
 30
0.0
 10
122.9682928133841
 20
130.8625511807063
 30
0.0
 10
120.2367734546242
 20
130.8202422120492
 30
0.0
 10
117.5307251341691
 20
130.7752921178601
 30
0.0
 10
114.9325084663604
 20
130.7287423831827
 30
0.0
 10
112.5677029270609
 20
130.6825037891903
 30
0.0
 10
110.5198707906247
 20
130.6397657755836
 30
0.0
 10
108.8385030138493
 20
130.5954979759405
 30
0.0
 10
107.5931267906228
 20
130.54899400555
 30
0.0
 10
106.7997752168419
 20
130.5026148906911
 30
0.0
 10
106.7021352844954
 20
130.4735882674234
 30
0.0
 10
106.6538477329799
 20
130.4592332332413
 30
0.0
  0
SPLINE
  5
101
330
1F
100
AcDbEntity
  8
0
  6
Continuous
 62
     7
370
    25
100
AcDbSpline
210
0.0
220
0.0
230
1.0
 70
     8
 71
     3
 72
    24
 73
    20
 74
     0
 42
0.00000001
 43
0.00000001
 40
0.0
 40
0.0
 40
0.0
 40
0.0
 40
0.0395223818245116
 40
0.0998025671576749
 40
0.1605359716471031
 40
0.2206322981080221
 40
0.2796034045460494
 40
0.3397039863349759
 40
0.4004377247095619
 40
0.4607142871356747
 40
0.519730737940757
 40
0.5796231069655144
 40
0.6403267008857372
 40
0.7007543763947442
 40
0.7599087603264727
 40
0.8195649093342432
 40
0.8802079707732968
 40
0.9407571918227566
 40
1.0
 40
1.0
 40
1.0
 40
1.0
 10
135.5981695885925
 20
129.7091368902166
 30
0.0
 10
135.5983302460243
 20
129.6996683601582
 30
0.0
 10
135.5987359408076
 20
129.6757582726732
 30
0.0
 10
135.0152274276634
 20
129.634809628289
 30
0.0
 10
133.9325752147448
 20
129.5882323277015
 30
0.0
 10
132.3827973711952
 20
129.542736414169
 30
0.0
 10
130.4513578614449
 20
129.5005655654034
 30
0.0
 10
128.1845340722977
 20
129.4550575209585
 30
0.0
 10
125.648892147123
 20
129.4084849992872
 30
0.0
 10
122.9679553032345
 20
129.3625528593873
 30
0.0
 10
120.2368645255783
 20
129.3202417590878
 30
0.0
 10
117.5307002047253
 20
129.2752922418522
 30
0.0
 10
114.9325151547691
 20
129.2287423499165
 30
0.0
 10
112.5677011808468
 20
129.1825037978754
 30
0.0
 10
110.5198712584251
 20
129.1397657732569
 30
0.0
 10
108.8385028857677
 20
129.0954979765775
 30
0.0
 10
107.5931268249798
 20
129.0489940053791
 30
0.0
 10
106.7997752084739
 20
129.0026148907327
 30
0.0
 10
106.7021352817265
 20
128.9735882674371
 30
0.0
 10
106.6538477329799
 20
128.9592332332413
 30
0.0
  0
SPLINE
  5
102
330
1F
100
AcDbEntity
  8
0
  6
Continuous
 62
     7
370
    25
100
AcDbSpline
210
0.0
220
0.0
230
1.0
 70
     8
 71
     3
 72
    21
 73
    17
 74
     0
 42
0.00000001
 43
0.00000001
 40
0.0
 40
0.0
 40
0.0
 40
0.0
 40
0.0494007706898125
 40
0.1247476368277267
 40
0.2006610016071013
 40
0.2757780544198125
 40
0.3494886450265445
 40
0.4246110167616841
 40
0.5005247988788646
 40
0.5758671365852375
 40
0.6496344051191476
 40
0.7244965225238907
 40
0.8003726257561251
 40
0.8759038463792577
 40
0.9498435236204726
 40
1.0
 40
1.0
 40
1.0
 40
1.0
 10
135.5981695885925
 20
128.2091368902166
 30
0.0
 10
135.598330245665
 20
128.1996683601587
 30
0.0
 10
135.5987359395409
 20
128.1757582726752
 30
0.0
 10
135.0152274359947
 20
128.1348096282757
 30
0.0
 10
133.932575183817
 20
128.0882323277507
 30
0.0
 10
132.3827974842682
 20
128.0427364139891
 30
0.0
 10
130.4513574447807
 20
128.0005655660662
 30
0.0
 10
128.1845356686389
 20
127.955057518419
 30
0.0
 10
125.6488861423225
 20
127.9084850088397
 30
0.0
 10
122.9679773209503
 20
127.8625528243612
 30
0.0
 10
120.2367837441415
 20
127.820241887596
 30
0.0
 10
117.5310086518603
 20
127.7752917511702
 30
0.0
 10
114.9313494078986
 20
127.7287442044028
 30
0.0
 10
112.5719892114796
 20
127.6824969764165
 30
0.0
 10
110.7294860798826
 20
127.6444438520256
 30
0.0
 10
109.798696115411
 20
127.6200350300324
 30
0.0
 10
109.4224947303946
 20
127.6101696114192
 30
0.0
  0
LINE
  5
103
330
1F
100
AcDbEntity
  8
0
  6
Continuous
 62
     7
370
    25
100
AcDbLine
 10
109.4225770404
 20
127.609758729
 30
0.0
 11
110.0793350949
 21
128.078919716
 31
0.0
  0
SPLINE
  5
104
330
1F
100
AcDbEntity
  8
0
  6
Continuous
 62
     7
370
    25
100
AcDbSpline
210
0.0
220
0.0
230
1.0
 70
     8
 71
     3
 72
    11
 73
     7
 74
     0
 42
0.00000001
 43
0.00000001
 40
0.0
 40
0.0
 40
0.0
 40
0.0
 40
0.1466219292939724
 40
0.4534245244101012
 40
0.7582717982348288
 40
0.9999999999999999
 40
0.9999999999999999
 40
0.9999999999999999
 40
0.9999999999999999
 10
109.4978516788457
 20
131.0592302497702
 30
0.0
 10
109.309881122595
 20
131.053120371199
 30
0.0
 10
108.7285870386782
 20
131.034225729731
 30
0.0
 10
108.0881930839136
 20
131.0019403112159
 30
0.0
 10
107.5816094511538
 20
130.9660303113573
 30
0.0
 10
107.5223729681106
 20
130.9442417810601
 30
0.0
 10
107.4961750701726
 20
130.934605596337
 30
0.0
  0
SPLINE
  5
105
330
1F
100
AcDbEntity
  8
0
  6
Continuous
 62
     7
370
    25
100
AcDbSpline
210
0.0
220
0.0
230
1.0
 70
     8
 71
     3
 72
    28
 73
    24
 74
     0
 42
0.00000001
 43
0.00000001
 40
0.0
 40
0.0
 40
0.0
 40
0.0
 40
0.0004296282752884
 40
0.0502763158949563
 40
0.1010540239482042
 40
0.1521456033799836
 40
0.2029107922266326
 40
0.252733503025774
 40
0.3025804871483512
 40
0.3533583482584784
 40
0.4044499261315025
 40
0.4552149589195837
 40
0.505037377863772
 40
0.5548846584565843
 40
0.6056626725869563
 40
0.6567542488632085
 40
0.7075191255561443
 40
0.7573412527892696
 40
0.8071888298196398
 40
0.857966996933622
 40
0.9090585715750846
 40
0.9598232921362978
 40
1.0
 40
1.0
 40
1.0
 40
1.0
 10
134.8399451055226
 20
130.1779544869267
 30
0.0
 10
134.8404120184161
 20
130.1778508005655
 30
0.0
 10
134.8950514857878
 20
130.1657171293184
 30
0.0
 10
134.7015305523699
 20
130.141675490605
 30
0.0
 10
134.2291852491645
 20
130.1032628728224
 30
0.0
 10
133.384947339457
 20
130.0644256368109
 30
0.0
 10
132.25247284266
 20
130.0260915785434
 30
0.0
 10
130.8558957186125
 20
129.9901408406982
 30
0.0
 10
129.2254630995049
 20
129.9541168492377
 30
0.0
 10
127.3821029667514
 20
129.9157669185322
 30
0.0
 10
125.3714218801499
 20
129.8769126372453
 30
0.0
 10
123.2683891549909
 20
129.8385833656651
 30
0.0
 10
121.1314291198514
 20
129.8026323017487
 30
0.0
 10
118.9947986599881
 20
129.7666077523182
 30
0.0
 10
116.8928597689426
 20
129.7282574929879
 30
0.0
 10
114.8848540478776
 20
129.6894032205195
 30
0.0
 10
113.0456898269965
 20
129.6510742620403
 30
0.0
 10
111.41949895634
 20
129.6151238290414
 30
0.0
 10
110.0291172597459
 20
129.5790992786036
 30
0.0
 10
108.8978292259341
 20
129.5407454437508
 30
0.0
 10
108.0768893468045
 20
129.501903694707
 30
0.0
 10
107.5830348183202
 20
129.4659690266238
 30
0.0
 10
107.522879267758
 20
129.4442066902429
 30
0.0
 10
107.4963033493545
 20
129.4345923808314
 30
0.0
  0
SPLINE
  5
106
330
1F
100
AcDbEntity
  8
0
  6
Continuous
 62
     7
370
    25
100
AcDbSpline
210
0.0
220
0.0
230
1.0
 70
     8
 71
     3
 72
    24
 73
    20
 74
     0
 42
0.00000001
 43
0.00000001
 40
0.0
 40
0.0
 40
0.0
 40
0.0
 40
0.0004482837775169
 40
0.0622096688155226
 40
0.1251231363740933
 40
0.1884239479459379
 40
0.2513188407380873
 40
0.3130446937375618
 40
0.3748064458092586
 40
0.4377201026372632
 40
0.5010209119010355
 40
0.563915610979098
 40
0.6256411038058657
 40
0.6874032228707585
 40
0.7503170689228051
 40
0.8136178758313996
 40
0.8765123811500637
 40
0.9382375139824085
 40
1.0
 40
1.0
 40
1.0
 40
1.0
 10
134.8401624040214
 20
128.6778379712455
 30
0.0
 10
134.8405535980048
 20
128.677750658661
 30
0.0
 10
134.8948407468377
 20
128.6656340324488
 30
0.0
 10
134.7008155740271
 20
128.6416017036994
 30
0.0
 10
134.2278929831201
 20
128.6031877155824
 30
0.0
 10
133.3830140093917
 20
128.564350338501
 30
0.0
 10
132.2500079303076
 20
128.5260183711783
 30
0.0
 10
130.852951372506
 20
128.4900745166181
 30
0.0
 10
129.2220858910727
 20
128.4540435320198
 30
0.0
 10
127.3783349260879
 20
128.4156916347585
 30
0.0
 10
125.3674000430495
 20
128.3768373644984
 30
0.0
 10
123.2642591242663
 20
128.3385101839455
 30
0.0
 10
121.1272889762037
 20
128.3025658564572
 30
0.0
 10
118.9906131670542
 20
128.2665348918461
 30
0.0
 10
116.8890752093782
 20
128.2281804588567
 30
0.0
 10
114.8802157312478
 20
128.1893345025618
 30
0.0
 10
113.045548560575
 20
128.1509769907917
 30
0.0
 10
111.4047658467446
 20
128.115145471206
 30
0.0
 10
110.521239234365
 20
128.0909974736964
 30
0.0
 10
110.079342301284
 20
128.0789198227348
 30
0.0
  0
SPLINE
  5
107
330
1F
100
AcDbEntity
  8
0
  6
Continuous
 62
     7
370
    25
100
AcDbSpline
210
0.0
220
0.0
230
1.0
 70
     8
 71
     3
 72
    28
 73
    24
 74
     0
 42
0.00000001
 43
0.00000001
 40
0.0
 40
0.0
 40
0.0
 40
0.0
 40
0.040758196406918
 40
0.0910746887807165
 40
0.1417021990877015
 40
0.1920062808942538
 40
0.2413764429959667
 40
0.2907706677210146
 40
0.3410873118228817
 40
0.391714820584009
 40
0.4420187476856311
 40
0.4913886204674836
 40
0.5407831390894948
 40
0.5910999348831028
 40
0.6417274420606661
 40
0.6920312144210863
 40
0.7414007980257725
 40
0.7907956105123444
 40
0.8411125579613598
 40
0.8917400635176584
 40
0.9420436811005994
 40
0.9914129756708213
 40
1.0
 40
1.0
 40
1.0
 40
1.0
 10
134.8120304310477
 20
130.5463276473547
 30
0.0
 10
134.7831895703831
 20
130.5364747467602
 30
0.0
 10
134.7187443141954
 20
130.5144583197751
 30
0.0
 10
134.2161706173694
 20
130.4782658029438
 30
0.0
 10
133.3884162689521
 20
130.4394246570452
 30
0.0
 10
132.2515588777406
 20
130.4010916413266
 30
0.0
 10
130.8561311175165
 20
130.3651406444228
 30
0.0
 10
129.2253899104724
 20
130.3291167105069
 30
0.0
 10
127.382112970772
 20
130.2907667549306
 30
0.0
 10
125.3714085075615
 20
130.2519124783352
 30
0.0
 10
123.2683816761006
 20
130.2135832088762
 30
0.0
 10
121.1314195673919
 20
130.1776321595093
 30
0.0
 10
118.9947909633872
 20
130.1416075938957
 30
0.0
 10
116.8928467916854
 20
130.1032573307642
 30
0.0
 10
114.884861743465
 20
130.0644030530279
 30
0.0
 10
113.0456240884546
 20
130.0260741150241
 30
0.0
 10
111.4197059176938
 20
129.9901236350095
 30
0.0
 10
110.0283081148106
 20
129.9540992984243
 30
0.0
 10
108.9008949960605
 20
129.9157445825846
 30
0.0
 10
108.0653885273109
 20
129.876906126627
 30
0.0
 10
107.5917575065938
 20
129.8385190686542
 30
0.0
 10
107.4092004744924
 20
129.8125660202788
 30
0.0
 10
107.4833710530293
 20
129.7984245114755
 30
0.0
 10
107.4943604425298
 20
129.7963292527971
 30
0.0
  0
SPLINE
  5
108
330
1F
100
AcDbEntity
  8
0
  6
Continuous
 62
     7
370
    25
100
AcDbSpline
210
0.0
220
0.0
230
1.0
 70
     8
 71
     3
 72
    23
 73
    19
 74
     0
 42
0.00000001
 43
0.00000001
 40
0.0
 40
0.0
 40
0.0
 40
0.0
 40
0.0516327042115293
 40
0.1152557515588928
 40
0.179270507791609
 40
0.2428747631926814
 40
0.3052967902816293
 40
0.3677551360724457
 40
0.431378374901297
 40
0.4953931287980008
 40
0.5589971882191223
 40
0.621418850927813
 40
0.6838775680019432
 40
0.747500998266343
 40
0.811515749779358
 40
0.8751196131746716
 40
0.9375409116835444
 40
1.0
 40
1.0
 40
1.0
 40
1.0
 10
134.8121654811868
 20
129.0463139690372
 30
0.0
 10
134.7831112839702
 20
129.0364415543775
 30
0.0
 10
134.7182558132511
 20
129.014404115342
 30
0.0
 10
134.2148796679022
 20
128.9781904228719
 30
0.0
 10
133.3864815244202
 20
128.9393493792415
 30
0.0
 10
132.2490931523314
 20
128.9010183906166
 30
0.0
 10
130.853185535607
 20
128.8650742967478
 30
0.0
 10
129.2220113273682
 20
128.8290433623146
 30
0.0
 10
127.3783433793552
 20
128.7906914406277
 30
0.0
 10
125.3673850471449
 20
128.7518371747353
 30
0.0
 10
123.2642498768007
 20
128.7135099972775
 30
0.0
 10
121.1272780185072
 20
128.6775656869866
 30
0.0
 10
118.9906026738966
 20
128.6415347036726
 30
0.0
 10
116.8890648294546
 20
128.6031802648908
 30
0.0
 10
114.8802060103431
 20
128.5643343078351
 30
0.0
 10
113.0455398138292
 20
128.525976800844
 30
0.0
 10
111.4047581905416
 20
128.4901452976116
 30
0.0
 10
110.5212324366791
 20
128.4659972900509
 30
0.0
 10
110.0793358787548
 20
128.45391963258
 30
0.0
  0
LINE
  5
109
330
1F
100
AcDbEntity
  8
0
  6
Continuous
 62
     7
370
    25
100
AcDbLine
 10
110.0793345475
 20
128.4539197276
 30
0.0
 11
109.4224928146
 21
128.9226695672
 31
0.0
  0
SPLINE
  5
10A
330
1F
100
AcDbEntity
  8
0
  6
Continuous
 62
     7
370
    25
100
AcDbSpline
210
0.0
220
0.0
230
1.0
 70
     8
 71
     3
 72
    25
 73
    21
 74
     0
 42
0.00000001
 43
0.00000001
 40
0.0
 40
0.0
 40
0.0
 40
0.0
 40
0.011232139473766
 40
0.0716484060001414
 40
0.132881667896625
 40
0.1938352667345976
 40
0.2535041227038793
 40
0.3136823132960957
 40
0.374854738136025
 40
0.4359311615695579
 40
0.4958314743949485
 40
0.5557440136324114
 40
0.6168251292822671
 40
0.677994191077152
 40
0.7381613178755915
 40
0.7978383683683621
 40
0.8557022051598917
 40
0.91386150419237
 40
0.9713748618805943
 40
1.0
 40
1.0
 40
1.0
 40
1.0
 10
135.609767256052
 20
131.0155530100756
 30
0.0
 10
135.6171124742705
 20
131.0128683975949
 30
0.0
 10
135.6639666981083
 20
130.9957435919943
 30
0.0
 10
135.2539061717018
 20
130.962720364658
 30
0.0
 10
134.3543564730496
 20
130.916189869014
 30
0.0
 10
132.940292826348
 20
130.869947842415
 30
0.0
 10
131.1326913860674
 20
130.8272153532006
 30
0.0
 10
128.9704835863184
 20
130.7829417267915
 30
0.0
 10
126.5128113999011
 20
130.7364376106313
 30
0.0
 10
123.8663207888904
 20
130.6900222148651
 30
0.0
 10
121.143298496769
 20
130.6465816665264
 30
0.0
 10
118.420536664539
 20
130.6031039600793
 30
0.0
 10
115.774930896936
 20
130.556683523453
 30
0.0
 10
113.319046081397
 20
130.5101824525306
 30
0.0
 10
111.1595220788447
 20
130.4659396567972
 30
0.0
 10
109.3844389280128
 20
130.4239204871535
 30
0.0
 10
108.0154864582668
 20
130.3792940265456
 30
0.0
 10
107.1135360153691
 20
130.3351040712845
 30
0.0
 10
106.6674125134918
 20
130.2989882482108
 30
0.0
 10
106.698791880147
 20
130.2785321168029
 30
0.0
 10
106.7092197230781
 20
130.2717342318219
 30
0.0
  0
SPLINE
  5
10B
330
1F
100
AcDbEntity
  8
0
  6
Continuous
 62
     7
370
    25
100
AcDbSpline
210
0.0
220
0.0
230
1.0
 70
     8
 71
     3
 72
    21
 73
    17
 74
     0
 42
0.00000001
 43
0.00000001
 40
0.0
 40
0.0
 40
0.0
 40
0.0
 40
0.0140469233911592
 40
0.0897366714606103
 40
0.1664499547018416
 40
0.2428128749090746
 40
0.3175662639476978
 40
0.3929577495041875
 40
0.4695948158298656
 40
0.5461116111973691
 40
0.6211549703406525
 40
0.696213646783444
 40
0.7727363205789235
 40
0.8493691736678891
 40
0.9247467984578701
 40
1.0
 40
1.0
 40
1.0
 40
1.0
 10
135.6097944280579
 20
129.5155388166716
 30
0.0
 10
135.617123554408
 20
129.5128589174487
 30
0.0
 10
135.6639445831175
 20
129.4957387816428
 30
0.0
 10
135.2538900791032
 20
129.4627203236562
 30
0.0
 10
134.3543607575076
 20
129.4161898802809
 30
0.0
 10
132.9402918289346
 20
129.3699478384923
 30
0.0
 10
131.1326912111574
 20
129.327215357832
 30
0.0
 10
128.9704853148168
 20
129.2829417119134
 30
0.0
 10
126.5128045442401
 20
129.2364376663867
 30
0.0
 10
123.8663461843042
 20
129.1900220091472
 30
0.0
 10
121.143205720353
 20
129.1465824178595
 30
0.0
 10
118.4208860763039
 20
129.1031011304888
 30
0.0
 10
115.7735976597032
 20
129.0566943201981
 30
0.0
 10
113.3239920835389
 20
129.0101423991048
 30
0.0
 10
111.1367520655009
 20
128.9659907905736
 30
0.0
 10
109.9935981302956
 20
128.9371020207858
 30
0.0
 10
109.4224932935604
 20
128.9226695671634
 30
0.0
  0
ELLIPSE
  5
10C
330
1F
100
AcDbEntity
  8
0
  6
Continuous
 62
     7
370
    25
100
AcDbEllipse
 10
121.1532487827
 20
135.9896689416
 30
0.0
 11
14.35777723298277
 21
7.401257687792879
 31
0.0
210
0.0
220
0.0
230
1.0
 40
0.2737224856
 41
3.293509019009431
 42
3.629735090468596
  0
ELLIPSE
  5
10D
330
1F
100
AcDbEntity
  8
0
  6
Continuous
 62
     7
370
    25
100
AcDbEllipse
 10
121.1532487827
 20
120.5510934934
 30
0.0
 11
14.35826292490985
 21
-7.392868934794834
 31
0.0
210
0.0
220
0.0
230
1.0
 40
0.2735670702
 41
2.653211704080705
 42
2.989436341729562
  0
LINE
  5
10E
330
1F
100
AcDbEntity
  8
0
  6
Continuous
 62
     7
370
    25
100
AcDbLine
 10
107.2674152388
 20
128.0789078361
 30
0.0
 11
107.2674152389
 21
128.4539078477
 31
0.0
  0
LINE
  5
10F
330
1F
100
AcDbEntity
  8
0
  6
Continuous
 62
     7
370
    25
100
AcDbLine
 10
110.0793350949
 20
128.078919716
 30
0.0
 11
110.0793345475
 21
128.4539197276
 31
0.0
  0
LINE
  5
110
330
1F
100
AcDbEntity
  8
0
  6
Continuous
 62
     7
370
    25
100
AcDbLine
 10
107.2674152388
 20
128.0789078361
 30
0.0
 11
110.0793350949
 21
128.078919716
 31
0.0
  0
LINE
  5
111
330
1F
100
AcDbEntity
  8
0
  6
Continuous
 62
     7
370
    25
100
AcDbLine
 10
107.267415239
 20
128.4539078477
 30
0.0
 11
110.07933909
 21
128.4539197277
 31
0.0
  0
ARC
  5
112
330
1F
100
AcDbEntity
  8
0
  6
Continuous
 62
     7
370
    25
100
AcDbCircle
 10
152.3375087431
 20
110.4161488859
 30
0.0
 40
14.9855501485054
100
AcDbArc
 50
194.5484564533
 51
204.1879891399
  0
SPLINE
  5
113
330
1F
100
AcDbEntity
  8
0
  6
Continuous
 62
     7
370
    25
100
AcDbSpline
210
0.0
220
0.0
230
1.0
 70
     8
 71
     3
 72
    11
 73
     7
 74
     0
 42
0.00000001
 43
0.00000001
 40
0.0
 40
0.0
 40
0.0
 40
0.0
 40
0.2756639491105541
 40
0.5592618902439815
 40
0.7775934071377829
 40
1.0
 40
1.0
 40
1.0
 40
1.0
 10
138.6675995660761
 20
104.2760921804714
 30
0.0
 10
138.6467799108842
 20
104.2365644953141
 30
0.0
 10
138.6045413818551
 20
104.1563714632208
 30
0.0
 10
138.1460557649645
 20
103.8489834801108
 30
0.0
 10
137.5125821355539
 20
103.441196615805
 30
0.0
 10
136.9891849710117
 20
103.0711335117433
 30
0.0
 10
136.7250667168766
 20
102.884391153194
 30
0.0
  0
SPLINE
  5
114
330
1F
100
AcDbEntity
  8
0
  6
Continuous
 62
     7
370
    25
100
AcDbSpline
210
0.0
220
0.0
230
1.0
 70
     8
 71
     3
 72
    11
 73
     7
 74
     0
 42
0.00000001
 43
0.00000001
 40
0.0
 40
0.0
 40
0.0
 40
0.0
 40
0.2755197189875424
 40
0.5594792609444444
 40
0.7778054874819672
 40
1.0
 40
1.0
 40
1.0
 40
1.0
 10
105.5814308485155
 20
102.884391153194
 30
0.0
 10
105.2580278608697
 20
103.1109820160702
 30
0.0
 10
104.6013152844335
 20
103.571104757791
 30
0.0
 10
104.0071587692931
 20
103.9484830655857
 30
0.0
 10
103.6738076882093
 20
104.1879134983706
 30
0.0
 10
103.650602485198
 20
104.2465277193588
 30
0.0
 10
103.638897999316
 20
104.2760921804714
 30
0.0
  0
ARC
  5
115
330
1F
100
AcDbEntity
  8
0
  6
Continuous
 62
     7
370
    25
100
AcDbCircle
 10
89.9690431058
 20
110.4161288916
 30
0.0
 40
14.98549243852737
100
AcDbArc
 50
335.811995556
 51
344.6795375265
  0
ARC
  5
116
330
1F
100
AcDbEntity
  8
0
  6
Continuous
 62
     7
370
    25
100
AcDbCircle
 10
121.1532487827
 20
96.4092302498
 30
0.0
 40
19.20000000000001
100
AcDbArc
 50
155.8119747904
 51
24.1880252096
  0
LINE
  5
117
330
1F
100
AcDbEntity
  8
0
  6
Continuous
 62
     7
370
    25
100
AcDbLine
 10
138.6675902529
 20
104.2761129147
 30
0.0
 11
138.6675995661
 21
104.2760921805
 31
0.0
  0
LINE
  5
118
330
1F
100
AcDbEntity
  8
0
  6
Continuous
 62
     7
370
    25
100
AcDbLine
 10
103.6388979993
 20
104.2760921805
 30
0.0
 11
103.6389073125
 21
104.2761129147
 31
0.0
  0
ARC
  5
119
330
1F
100
AcDbEntity
  8
0
  6
Continuous
 62
     7
370
    25
100
AcDbCircle
 10
121.1532487827
 20
96.4092302498
 30
0.0
 40
25.375
100
AcDbArc
 50
129.6743748818
 51
0.0
  0
ARC
  5
11A
330
1F
100
AcDbEntity
  8
0
  6
Continuous
 62
     7
370
    25
100
AcDbCircle
 10
121.1532487827
 20
96.4092302498
 30
0.0
 40
25.37500000000002
100
AcDbArc
 50
0.0
 51
50.3256251182
  0
LINE
  5
11B
330
1F
100
AcDbEntity
  8
0
  6
Continuous
 62
     7
370
    25
100
AcDbLine
 10
123.7532487827
 20
180.7091242631
 30
0.0
 11
123.7532487827
 21
180.6916458018
 31
0.0
  0
LINE
  5
11C
330
1F
100
AcDbEntity
  8
0
  6
Continuous
 62
     7
370
    25
100
AcDbLine
 10
118.5532487827
 20
180.6916458018
 30
0.0
 11
118.5532487827
 21
180.7091242631
 31
0.0
  0
ARC
  5
11D
330
1F
100
AcDbEntity
  8
0
  6
Continuous
 62
     7
370
    25
100
AcDbCircle
 10
121.1532487827
 20
170.401995662
 30
0.0
 40
10.61305328357492
100
AcDbArc
 50
97.3079276166
 51
104.1807309007
  0
SPLINE
  5
11E
330
1F
100
AcDbEntity
  8
0
  6
Continuous
 62
     7
370
    25
100
AcDbSpline
210
0.0
220
0.0
230
1.0
 70
     8
 71
     3
 72
    12
 73
     8
 74
     0
 42
0.00000001
 43
0.00000001
 40
0.0
 40
0.0
 40
0.0
 40
0.0
 40
0.213353439547616
 40
0.426791931363449
 40
0.6383539739091509
 40
0.8490950351927566
 40
0.9999999999999999
 40
0.9999999999999999
 40
0.9999999999999999
 40
0.9999999999999999
 10
120.553248782696
 20
180.9288375435699
 30
0.0
 10
120.54514722258
 20
180.9384966872973
 30
0.0
 10
120.5289408727021
 20
180.9578188253207
 30
0.0
 10
120.4015397476862
 20
180.9701318953288
 30
0.0
 10
120.2141457317805
 20
180.9677944550321
 30
0.0
 10
120.0031697064891
 20
180.9526769360183
 30
0.0
 10
119.8621093848702
 20
180.9358563236373
 30
0.0
 10
119.803248782696
 20
180.9288375435699
 30
0.0
  0
LINE
  5
11F
330
1F
100
AcDbEntity
  8
0
  6
Continuous
 62
     7
370
    25
100
AcDbLine
 10
120.5532487827
 20
180.6916458018
 30
0.0
 11
120.5532487827
 21
180.9288375436
 31
0.0
  0
ARC
  5
120
330
1F
100
AcDbEntity
  8
0
  6
Continuous
 62
     7
370
    25
100
AcDbCircle
 10
121.1532487827
 20
170.401995662
 30
0.0
 40
10.30712860111874
100
AcDbArc
 50
86.6628035549
 51
93.3371964451
  0
LINE
  5
121
330
1F
100
AcDbEntity
  8
0
  6
Continuous
 62
     7
370
    25
100
AcDbLine
 10
121.7532487827
 20
180.9288375436
 30
0.0
 11
121.7532487827
 21
180.6916458018
 31
0.0
  0
SPLINE
  5
122
330
1F
100
AcDbEntity
  8
0
  6
Continuous
 62
     7
370
    25
100
AcDbSpline
210
0.0
220
0.0
230
1.0
 70
     8
 71
     3
 72
    12
 73
     8
 74
     0
 42
0.00000001
 43
0.00000001
 40
0.0
 40
0.0
 40
0.0
 40
0.0
 40
0.2133534395476113
 40
0.4267919313634442
 40
0.638353973909146
 40
0.849095035192752
 40
1.0
 40
1.0
 40
1.0
 40
1.0
 10
122.5032487826961
 20
180.9288375435699
 30
0.0
 10
122.4197549945389
 20
180.9384966872973
 30
0.0
 10
122.2527341338488
 20
180.9578188253207
 30
0.0
 10
122.0288973722512
 20
180.9701318953289
 30
0.0
 10
121.859811651374
 20
180.9677944550321
 30
0.0
 10
121.767150065164
 20
180.9526769360183
 30
0.0
 10
121.7573415901998
 20
180.9358563236374
 30
0.0
 10
121.7532487826961
 20
180.9288375435699
 30
0.0
  0
ARC
  5
123
330
1F
100
AcDbEntity
  8
0
  6
Continuous
 62
     7
370
    25
100
AcDbCircle
 10
121.1532487827
 20
170.401995662
 30
0.0
 40
10.61305328357492
100
AcDbArc
 50
75.8192690993
 51
82.6920723834
  0
LINE
  5
124
330
1F
100
AcDbEntity
  8
0
  6
Continuous
 62
     7
370
    25
100
AcDbLine
 10
123.9100290396
 20
176.0290491162
 30
0.0
 11
123.9055905865
 21
176.2977596988
 31
0.0
  0
LINE
  5
125
330
1F
100
AcDbEntity
  8
0
  6
Continuous
 62
     7
370
    25
100
AcDbLine
 10
118.3964685258
 20
176.0290491162
 30
0.0
 11
123.9100290396
 21
176.0290491162
 31
0.0
  0
LINE
  5
126
330
1F
100
AcDbEntity
  8
0
  6
Continuous
 62
     7
370
    25
100
AcDbLine
 10
118.4009069789
 20
176.2977596988
 30
0.0
 11
118.3964685258
 21
176.0290491162
 31
0.0
  0
SPLINE
  5
127
330
1F
100
AcDbEntity
  8
0
  6
Continuous
 62
     7
370
    25
100
AcDbSpline
210
0.0
220
0.0
230
1.0
 70
     8
 71
     3
 72
    11
 73
     7
 74
     0
 42
0.00000001
 43
0.00000001
 40
0.0
 40
0.0
 40
0.0
 40
0.0
 40
0.0800485240044433
 40
0.5000005853538798
 40
0.9209248322279645
 40
1.0
 40
1.0
 40
1.0
 40
1.0
 10
123.9055905865398
 20
176.2977596987792
 30
0.0
 10
123.7593461614392
 20
176.3141586302833
 30
0.0
 10
122.8458715026061
 20
176.4165899424553
 30
0.0
 10
121.1514619148476
 20
176.4873829664247
 30
0.0
 10
119.4588350629929
 20
176.4164752900653
 30
0.0
 10
118.545371687349
 20
176.3139708321694
 30
0.0
 10
118.4009069788578
 20
176.2977596987799
 30
0.0
  0
SPLINE
  5
128
330
1F
100
AcDbEntity
  8
0
  6
Continuous
 62
     7
370
    25
100
AcDbSpline
210
0.0
220
0.0
230
1.0
 70
     8
 71
     3
 72
    12
 73
     8
 74
     0
 42
0.00000001
 43
0.00000001
 40
0.0
 40
0.0
 40
0.0
 40
0.0
 40
0.1224290494151353
 40
0.3423522449770472
 40
0.5614228816909412
 40
0.780722953853353
 40
1.0
 40
1.0
 40
1.0
 40
1.0
 10
123.9055905865398
 20
176.2977596987792
 30
0.0
 10
123.9079492709808
 20
176.4215232221718
 30
0.0
 10
123.9145449353055
 20
176.7676070991774
 30
0.0
 10
123.9315529030448
 20
177.308657333275
 30
0.0
 10
123.9570638771991
 20
177.8222774924842
 30
0.0
 10
123.9866160597585
 20
178.1787579568442
 30
0.0
 10
124.0063823366375
 20
178.2345322005997
 30
0.0
 10
124.0162649561961
 20
178.262417858358
 30
0.0
  0
SPLINE
  5
129
330
1F
100
AcDbEntity
  8
0
  6
Continuous
 62
     7
370
    25
100
AcDbSpline
210
0.0
220
0.0
230
1.0
 70
     8
 71
     3
 72
    12
 73
     8
 74
     0
 42
0.00000001
 43
0.00000001
 40
0.0
 40
0.0
 40
0.0
 40
0.0
 40
0.1130367476169278
 40
0.3328594693547993
 40
0.5544127937944988
 40
0.7774207483513238
 40
1.0
 40
1.0
 40
1.0
 40
1.0
 10
118.2902326091942
 20
178.2624178583578
 30
0.0
 10
118.2952478548955
 20
178.2533493463068
 30
0.0
 10
118.3100162559514
 20
178.2266452861424
 30
0.0
 10
118.3356084600607
 20
178.0135027384783
 30
0.0
 10
118.3634837229317
 20
177.5710434221834
 30
0.0
 10
118.3869255965222
 20
176.9752403333823
 30
0.0
 10
118.3962495082819
 20
176.5234416839854
 30
0.0
 10
118.4009069788578
 20
176.2977596987799
 30
0.0
  0
SPLINE
  5
12A
330
1F
100
AcDbEntity
  8
0
  6
Continuous
 62
     7
370
    25
100
AcDbSpline
210
0.0
220
0.0
230
1.0
 70
     8
 71
     3
 72
    11
 73
     7
 74
     0
 42
0.00000001
 43
0.00000001
 40
0.0
 40
0.0
 40
0.0
 40
0.0
 40
0.0614641195413918
 40
0.4999988937835377
 40
0.9375097801832794
 40
1.0
 40
1.0
 40
1.0
 40
1.0
 10
118.2902326091942
 20
178.2624178583578
 30
0.0
 10
118.4066895816462
 20
178.2745767554127
 30
0.0
 10
119.3540448489775
 20
178.373487064752
 30
0.0
 10
121.1512890474257
 20
178.4385685893633
 30
0.0
 10
122.9504870716665
 20
178.3735962813727
 30
0.0
 10
123.8978618960996
 20
178.274769273876
 30
0.0
 10
124.0162649561961
 20
178.262417858358
 30
0.0
  0
SPLINE
  5
12B
330
1F
100
AcDbEntity
  8
0
  6
Continuous
 62
     7
370
    25
100
AcDbSpline
210
0.0
220
0.0
230
1.0
 70
     8
 71
     3
 72
    12
 73
     8
 74
     0
 42
0.00000001
 43
0.00000001
 40
0.0
 40
0.0
 40
0.0
 40
0.0
 40
0.2230315344150367
 40
0.4461337558340369
 40
0.6675099896776976
 40
0.8870667292264955
 40
1.0
 40
1.0
 40
1.0
 40
1.0
 10
117.9017439078093
 20
176.2977596987799
 30
0.0
 10
117.9036341551041
 20
176.4676021761529
 30
0.0
 10
117.9074152487835
 20
176.8073409603087
 30
0.0
 10
117.9004724125128
 20
177.2556131878137
 30
0.0
 10
117.884883590023
 20
177.5882493257106
 30
0.0
 10
117.8655463099588
 20
177.7481453536925
 30
0.0
 10
117.8519807087823
 20
177.7678803943022
 30
0.0
 10
117.8473730283609
 20
177.7745835812122
 30
0.0
  0
ARC
  5
12C
330
1F
100
AcDbEntity
  8
0
  6
Continuous
 62
     7
370
    25
100
AcDbCircle
 10
118.3477618048
 20
177.7652596799
 30
0.0
 40
0.5004756365193024
100
AcDbArc
 50
96.6006859565
 51
178.9325132694
  0
ARC
  5
12D
330
1F
100
AcDbEntity
  8
0
  6
Continuous
 62
     7
370
    25
100
AcDbCircle
 10
118.1513254433
 20
168.1923522916
 30
0.0
 40
8.109249051491814
100
AcDbArc
 50
88.2363068264
 51
91.7636931736
  0
SPLINE
  5
12E
330
1F
100
AcDbEntity
  8
0
  6
Continuous
 62
     7
370
    25
100
AcDbSpline
210
0.0
220
0.0
230
1.0
 70
     8
 71
     3
 72
    12
 73
     8
 74
     0
 42
0.00000001
 43
0.00000001
 40
0.0
 40
0.0
 40
0.0
 40
0.0
 40
0.2190444340109331
 40
0.4380981679380288
 40
0.6571027493691858
 40
0.877279108729002
 40
0.9999999999999999
 40
0.9999999999999999
 40
0.9999999999999999
 40
0.9999999999999999
 10
124.4591245370314
 20
177.7745835812123
 30
0.0
 10
124.4502957240816
 20
177.7538356978146
 30
0.0
 10
124.4326377233393
 20
177.7123390501313
 30
0.0
 10
124.4131192339303
 20
177.4445322897844
 30
0.0
 10
124.401813450298
 20
177.0582380939598
 30
0.0
 10
124.3999895822214
 20
176.6512385731898
 30
0.0
 10
124.4034980115462
 20
176.3909245448411
 30
0.0
 10
124.4047536575827
 20
176.2977596987814
 30
0.0
  0
ARC
  5
12F
330
1F
100
AcDbEntity
  8
0
  6
Continuous
 62
     7
370
    25
100
AcDbCircle
 10
124.1551721221
 20
168.1923522946
 30
0.0
 40
8.109249048457757
100
AcDbArc
 50
88.236306826
 51
91.7636931745
  0
ARC
  5
130
330
1F
100
AcDbEntity
  8
0
  6
Continuous
 62
     7
370
    25
100
AcDbCircle
 10
123.9587357606
 20
177.7652596799
 30
0.0
 40
0.5004756365187162
100
AcDbArc
 50
1.0674867306
 51
83.3993140438
  0
ELLIPSE
  5
131
330
1F
100
AcDbEntity
  8
0
  6
Continuous
 62
     7
370
    25
100
AcDbEllipse
 10
123.9933214896
 20
175.9941443033
 30
0.0
 11
-0.02626756389830121
 21
1.999999704111502
 31
0.0
210
0.0
220
0.0
230
1.0
 40
0.0414165792
 41
1.552799077927843
 42
2.455756810842385
  0
LINE
  5
132
330
1F
100
AcDbEntity
  8
0
  6
Continuous
 62
     7
370
    25
100
AcDbLine
 10
123.9611897986
 20
174.4456756124
 30
0.0
 11
118.3453077668
 21
174.4456756124
 31
0.0
  0
ELLIPSE
  5
133
330
1F
100
AcDbEntity
  8
0
  6
Continuous
 62
     7
370
    25
100
AcDbEllipse
 10
118.3131760758
 20
175.9941443033
 30
0.0
 11
0.02626756389831542
 21
1.999999704111502
 31
0.0
210
0.0
220
0.0
230
1.0
 40
0.0414165792
 41
3.827428496337728
 42
4.730386229251738
  0
ELLIPSE
  5
134
330
1F
100
AcDbEntity
  8
0
  6
Continuous
 62
     7
370
    25
100
AcDbEllipse
 10
124.4924845607
 20
176.0028705065
 30
0.0
 11
-0.02630270273702706
 21
1.499999296945731
 31
0.0
210
0.0
220
0.0
230
1.0
 40
0.0552146892
 41
1.552374837086633
 42
2.455332570000903
  0
ARC
  5
135
330
1F
100
AcDbEntity
  8
0
  6
Continuous
 62
     7
370
    25
100
AcDbCircle
 10
123.99119472
 20
174.9204859481
 30
0.0
 40
0.4757574488748183
100
AcDbArc
 50
266.3840879997
 51
350.4457404449
  0
ARC
  5
136
330
1F
100
AcDbEntity
  8
0
  6
Continuous
 62
     7
370
    25
100
AcDbCircle
 10
124.1596105751
 20
167.9236417089
 30
0.0
 40
8.109249051647833
100
AcDbArc
 50
88.2363068264
 51
91.7636931736
  0
ELLIPSE
  5
137
330
1F
100
AcDbEntity
  8
0
  6
Continuous
 62
     7
370
    25
100
AcDbEllipse
 10
117.8140130047
 20
176.0028705065
 30
0.0
 11
0.02630270273702706
 21
1.499999296945731
 31
0.0
210
0.0
220
0.0
230
1.0
 40
0.0552146892
 41
3.827852737178751
 42
4.730810470092955
  0
ARC
  5
138
330
1F
100
AcDbEntity
  8
0
  6
Continuous
 62
     7
370
    25
100
AcDbCircle
 10
118.1468869903
 20
167.9236417089
 30
0.0
 40
8.109249051647433
100
AcDbArc
 50
88.2363068264
 51
91.7636931736
  0
ARC
  5
139
330
1F
100
AcDbEntity
  8
0
  6
Continuous
 62
     7
370
    25
100
AcDbCircle
 10
118.3153028454
 20
174.9204859481
 30
0.0
 40
0.4757574488748183
100
AcDbArc
 50
189.5542595551
 51
273.6159120003
  0
LINE
  5
13A
330
1F
100
AcDbEntity
  8
0
  6
Continuous
 62
     7
370
    25
100
AcDbLine
 10
124.4047536576
 20
176.2977596988
 30
0.0
 11
124.4091921107
 21
176.0290491162
 31
0.0
  0
LINE
  5
13B
330
1F
100
AcDbEntity
  8
0
  6
Continuous
 62
     7
370
    25
100
AcDbLine
 10
117.8973054547
 20
176.0290491162
 30
0.0
 11
117.9017439078
 21
176.2977596988
 31
0.0
  0
LINE
  5
13C
330
1F
100
AcDbEntity
  8
0
  6
Continuous
 62
     7
370
    25
100
AcDbLine
 10
115.2427604628
 20
177.7605362393
 30
0.0
 11
115.1714701875
 21
173.5972742069
 31
0.0
  0
SPLINE
  5
13D
330
1F
100
AcDbEntity
  8
0
  6
Continuous
 62
     7
370
    25
100
AcDbSpline
210
0.0
220
0.0
230
1.0
 70
     8
 71
     3
 72
    11
 73
     7
 74
     0
 42
0.00000001
 43
0.00000001
 40
0.0
 40
0.0
 40
0.0
 40
0.0
 40
0.1851296338675982
 40
0.3702933375482647
 40
0.7405333240509903
 40
1.0
 40
1.0
 40
1.0
 40
1.0
 10
117.8473730283609
 20
177.7745835812122
 30
0.0
 10
117.6875889784431
 20
177.8270532639712
 30
0.0
 10
117.367991473198
 20
177.9320022856001
 30
0.0
 10
116.7254125848797
 20
177.9511531032414
 30
0.0
 10
116.0177143167081
 20
177.9364950025496
 30
0.0
 10
115.4688971358413
 20
177.8118821731712
 30
0.0
 10
115.2427604628248
 20
177.7605362393462
 30
0.0
  0
LINE
  5
13E
330
1F
100
AcDbEntity
  8
0
  6
Continuous
 62
     7
370
    25
100
AcDbLine
 10
117.6052534167
 20
172.0090796158
 30
0.0
 11
117.8461446957
 21
174.8415189883
 31
0.0
  0
LINE
  5
13F
330
1F
100
AcDbEntity
  8
0
  6
Continuous
 62
     7
370
    25
100
AcDbLine
 10
117.6053518079
 20
172.0147078669
 30
0.0
 11
117.6052534167
 21
172.0090796158
 31
0.0
  0
ELLIPSE
  5
140
330
1F
100
AcDbEntity
  8
0
  6
Continuous
 62
     7
370
    25
100
AcDbEllipse
 10
117.2757057565
 20
183.0127625304
 30
0.0
 11
0.2542594597913421
 21
14.49999320380851
 31
0.0
210
0.0
220
0.0
230
1.0
 40
0.0552146892
 41
3.24351371300449
 42
3.852369595890229
  0
ELLIPSE
  5
141
330
1F
100
AcDbEntity
  8
0
  6
Continuous
 62
     7
370
    25
100
AcDbEllipse
 10
116.3254222072
 20
132.8275041755
 30
0.0
 11
0.6260506459064601
 21
35.70262486333172
 31
0.0
210
0.0
220
0.0
230
1.0
 40
0.0552146892
 41
0.1673823474850555
 42
0.4568521056102984
  0
ELLIPSE
  5
142
330
1F
100
AcDbEntity
  8
0
  6
Continuous
 62
     7
370
    25
100
AcDbEllipse
 10
115.9530261475
 20
171.617956453
 30
0.0
 11
0.1315135136851637
 21
7.499996484728541
 31
0.0
210
0.0
220
0.0
230
1.0
 40
0.0552146892
 41
3.407554101490177
 42
3.598444759200245
  0
LINE
  5
143
330
1F
100
AcDbEntity
  8
0
  6
Continuous
 62
     7
370
    25
100
AcDbLine
 10
116.0853705987
 20
173.0444884268
 30
0.0
 11
115.9349800541
 21
164.3797494388
 31
0.0
  0
SPLINE
  5
144
330
1F
100
AcDbEntity
  8
0
  6
Continuous
 62
     7
370
    25
100
AcDbSpline
210
0.0
220
0.0
230
1.0
 70
     8
 71
     3
 72
    10
 73
     6
 74
     0
 42
0.00000001
 43
0.00000001
 40
0.0
 40
0.0
 40
0.0
 40
0.0
 40
0.0186368637457406
 40
0.3939469944633167
 40
1.0
 40
1.0
 40
1.0
 40
1.0
 10
116.0848842314209
 20
173.5972742069179
 30
0.0
 10
116.0849719819002
 20
173.5945336324652
 30
0.0
 10
116.0868268560931
 20
173.5366032272508
 30
0.0
 10
116.0895068374713
 20
173.3613314556733
 30
0.0
 10
116.0869497560737
 20
173.1654546088346
 30
0.0
 10
116.0853705986659
 20
173.0444884268414
 30
0.0
  0
LINE
  5
145
330
1F
100
AcDbEntity
  8
0
  6
Continuous
 62
     7
370
    25
100
AcDbLine
 10
115.1714701875
 20
173.5972742069
 30
0.0
 11
116.0848842314
 21
173.5972742069
 31
0.0
  0
LINE
  5
146
330
1F
100
AcDbEntity
  8
0
  6
Continuous
 62
     7
370
    25
100
AcDbLine
 10
126.2378169828
 20
172.663853993
 30
0.0
 11
127.151011445
 21
172.663853993
 31
0.0
  0
SPLINE
  5
147
330
1F
100
AcDbEntity
  8
0
  6
Continuous
 62
     7
370
    25
100
AcDbSpline
210
0.0
220
0.0
230
1.0
 70
     8
 71
     3
 72
    11
 73
     7
 74
     0
 42
0.00000001
 43
0.00000001
 40
0.0
 40
0.0
 40
0.0
 40
0.0
 40
0.417746929449536
 40
0.8392770662410923
 40
0.9817832068819766
 40
1.0
 40
1.0
 40
1.0
 40
1.0
 10
126.2364675375128
 20
172.1606467057287
 30
0.0
 10
126.2353843463291
 20
172.2372584861193
 30
0.0
 10
126.233208154346
 20
172.3911758598998
 30
0.0
 10
126.2344103312374
 20
172.5609316740056
 30
0.0
 10
126.2368808585774
 20
172.6415908523335
 30
0.0
 10
126.2377216815344
 20
172.6615875146198
 30
0.0
 10
126.2378169827929
 20
172.6638539930333
 30
0.0
  0
LINE
  5
148
330
1F
100
AcDbEntity
  8
0
  6
Continuous
 62
     7
370
    25
100
AcDbLine
 10
126.3715175113
 20
164.3797494388
 30
0.0
 11
126.2364675375
 21
172.1606467057
 31
0.0
  0
ELLIPSE
  5
149
330
1F
100
AcDbEntity
  8
0
  6
Continuous
 62
     7
370
    25
100
AcDbEllipse
 10
126.3534714179
 20
171.617956453
 30
0.0
 11
-0.1315135136851495
 21
7.499996484728541
 31
0.0
210
0.0
220
0.0
230
1.0
 40
0.0552146892
 41
2.684740547979544
 42
2.875631205689687
  0
ELLIPSE
  5
14A
330
1F
100
AcDbEntity
  8
0
  6
Continuous
 62
     7
370
    25
100
AcDbEllipse
 10
125.9810753582
 20
132.8275041755
 30
0.0
 11
-0.6260506459064317
 21
35.70262486333172
 31
0.0
210
0.0
220
0.0
230
1.0
 40
0.0552146892
 41
5.826333201569488
 42
6.05826727412484
  0
ELLIPSE
  5
14B
330
1F
100
AcDbEntity
  8
0
  6
Continuous
 62
     7
370
    25
100
AcDbEllipse
 10
125.0307918089
 20
183.0127625304
 30
0.0
 11
-0.2542594597913279
 21
14.49999320380851
 31
0.0
210
0.0
220
0.0
230
1.0
 40
0.0552146892
 41
2.430815711289504
 42
3.030376289773573
  0
LINE
  5
14C
330
1F
100
AcDbEntity
  8
0
  6
Continuous
 62
     7
370
    25
100
AcDbLine
 10
124.7012441487
 20
172.0090796158
 30
0.0
 11
124.7011457575
 21
172.0147078669
 31
0.0
  0
LINE
  5
14D
330
1F
100
AcDbEntity
  8
0
  6
Continuous
 62
     7
370
    25
100
AcDbLine
 10
124.4603528697
 20
174.8415189883
 30
0.0
 11
124.7012441487
 21
172.0090796158
 31
0.0
  0
SPLINE
  5
14E
330
1F
100
AcDbEntity
  8
0
  6
Continuous
 62
     7
370
    25
100
AcDbSpline
210
0.0
220
0.0
230
1.0
 70
     8
 71
     3
 72
    10
 73
     6
 74
     0
 42
0.00000001
 43
0.00000001
 40
0.0
 40
0.0
 40
0.0
 40
0.0
 40
0.3702717503651155
 40
0.7405122151371749
 40
1.0
 40
1.0
 40
1.0
 40
1.0
 10
127.0637371025673
 20
177.7605362393485
 30
0.0
 10
126.7412086168994
 20
177.8233791966356
 30
0.0
 10
126.0961788971563
 20
177.9490598013819
 30
0.0
 10
125.2273644096773
 20
177.9845841003069
 30
0.0
 10
124.6833094989105
 20
177.83586516792
 30
0.0
 10
124.4591245370314
 20
177.7745835812123
 30
0.0
  0
LINE
  5
14F
330
1F
100
AcDbEntity
  8
0
  6
Continuous
 62
     7
370
    25
100
AcDbLine
 10
127.151011445
 20
172.663853993
 30
0.0
 11
127.0637371026
 21
177.7605362393
 31
0.0
  0
ELLIPSE
  5
150
330
1F
100
AcDbEntity
  8
0
  6
Continuous
 62
     7
370
    25
100
AcDbEllipse
 10
118.1044164878
 20
172.0003534125
 30
0.0
 11
0.05394483169983742
 21
1.053482645954545
 31
0.0
210
0.0
220
0.0
230
1.0
 40
0.4730658061
 41
1.58673462605604
 42
1.927517226050936
  0
LINE
  5
151
330
1F
100
AcDbEntity
  8
0
  6
Continuous
 62
     7
370
    25
100
AcDbLine
 10
118.3453077668
 20
174.4456756124
 30
0.0
 11
118.0477570687
 21
170.9470254487
 31
0.0
  0
ELLIPSE
  5
152
330
1F
100
AcDbEntity
  8
0
  6
Continuous
 62
     7
370
    25
100
AcDbEllipse
 10
118.1044164878
 20
172.0003534125
 30
0.0
 11
0.05394483169983742
 21
1.053482645954545
 31
0.0
210
0.0
220
0.0
230
1.0
 40
0.4730658061
 41
1.927517226050936
 42
3.136144051102228
  0
ELLIPSE
  5
153
330
1F
100
AcDbEntity
  8
0
  6
Continuous
 62
     7
370
    25
100
AcDbEllipse
 10
124.2020810776
 20
172.0003534125
 30
0.0
 11
-0.05394483169982323
 21
1.053482645954546
 31
0.0
210
0.0
220
0.0
230
1.0
 40
0.4730658061
 41
4.355668081128896
 42
4.696450681123531
  0
ELLIPSE
  5
154
330
1F
100
AcDbEntity
  8
0
  6
Continuous
 62
     7
370
    25
100
AcDbEllipse
 10
124.2020810776
 20
172.0003534125
 30
0.0
 11
-0.05394483169982323
 21
1.053482645954546
 31
0.0
210
0.0
220
0.0
230
1.0
 40
0.4730658061
 41
3.147041256077444
 42
4.355668081128896
  0
LINE
  5
155
330
1F
100
AcDbEntity
  8
0
  6
Continuous
 62
     7
370
    25
100
AcDbLine
 10
124.2587404967
 20
170.9470254487
 30
0.0
 11
123.9611897986
 21
174.4456756124
 31
0.0
  0
ELLIPSE
  5
156
330
1F
100
AcDbEntity
  8
0
  6
Continuous
 62
     7
370
    25
100
AcDbEllipse
 10
124.2133707268
 20
171.3545541104
 30
0.0
 11
0.4999218664536045
 21
-0.01755356269836739
 31
0.0
210
0.0
220
0.0
230
1.0
 40
0.8168249212
 41
4.755349237456818
 42
4.831903282675299
  0
LINE
  5
157
330
1F
100
AcDbEntity
  8
0
  6
Continuous
 62
     7
370
    25
100
AcDbLine
 10
124.2205159348
 20
170.9458283604
 30
0.0
 11
118.0859816306
 21
170.9458283604
 31
0.0
  0
ELLIPSE
  5
158
330
1F
100
AcDbEntity
  8
0
  6
Continuous
 62
     7
370
    25
100
AcDbEllipse
 10
118.0931268386
 20
171.3545541104
 30
0.0
 11
0.4999218664536187
 21
0.01755356269836739
 31
0.0
210
0.0
220
0.0
230
1.0
 40
0.8168249212
 41
4.592874678094109
 42
4.669428723312558
  0
SPLINE
  5
159
330
1F
100
AcDbEntity
  8
0
  6
Continuous
 62
     7
370
    25
100
AcDbSpline
210
0.0
220
0.0
230
1.0
 70
     8
 71
     3
 72
     9
 73
     5
 74
     0
 42
0.00000001
 43
0.00000001
 40
0.0
 40
0.0
 40
0.0
 40
0.0
 40
0.9209630919903055
 40
0.9999999999999999
 40
0.9999999999999999
 40
0.9999999999999999
 40
0.9999999999999999
 10
126.6078225251852
 20
178.2499051089671
 30
0.0
 10
126.6646495841038
 20
178.2388262503424
 30
0.0
 10
126.7263535322997
 20
178.2267966058093
 30
0.0
 10
126.9133649931877
 20
178.2169971424217
 30
0.0
 10
126.9281458008187
 20
178.2162226231355
 30
0.0
  0
LINE
  5
15A
330
1F
100
AcDbEntity
  8
0
  6
Continuous
 62
     7
370
    25
100
AcDbLine
 10
125.9603504445
 20
178.336742153
 30
0.0
 11
126.6078225252
 21
178.249905109
 31
0.0
  0
SPLINE
  5
15B
330
1F
100
AcDbEntity
  8
0
  6
Continuous
 62
     7
370
    25
100
AcDbSpline
210
0.0
220
0.0
230
1.0
 70
     8
 71
     3
 72
     9
 73
     5
 74
     0
 42
0.00000001
 43
0.00000001
 40
0.0
 40
0.0
 40
0.0
 40
0.0
 40
0.7763560178134832
 40
1.0
 40
1.0
 40
1.0
 40
1.0
 10
115.698675040207
 20
178.2499051089671
 30
0.0
 10
115.8562016681129
 20
178.2916764992499
 30
0.0
 10
116.0591068099441
 20
178.34548092573
 30
0.0
 10
116.3362082126838
 20
178.3458605210589
 30
0.0
 10
116.398180273862
 20
178.3459454152699
 30
0.0
  0
SPLINE
  5
15C
330
1F
100
AcDbEntity
  8
0
  6
Continuous
 62
     7
370
    25
100
AcDbSpline
210
0.0
220
0.0
230
1.0
 70
     8
 71
     3
 72
     9
 73
     5
 74
     0
 42
0.00000001
 43
0.00000001
 40
0.0
 40
0.0
 40
0.0
 40
0.0
 40
0.0790369080192137
 40
1.0
 40
1.0
 40
1.0
 40
1.0
 10
115.3783517645736
 20
178.2162226231354
 30
0.0
 10
115.3931325722064
 20
178.2169971424218
 30
0.0
 10
115.5801440330942
 20
178.2267966058099
 30
0.0
 10
115.6418479812896
 20
178.2388262503427
 30
0.0
 10
115.698675040207
 20
178.2499051089671
 30
0.0
  0
ARC
  5
15D
330
1F
100
AcDbEntity
  8
0
  6
Continuous
 62
     7
370
    25
100
AcDbCircle
 10
115.7418083058
 20
177.7526624442
 30
0.0
 40
0.4991099540956453
100
AcDbArc
 50
94.9577065176
 51
179.0960830536
  0
ARC
  5
15E
330
1F
100
AcDbEntity
  8
0
  6
Continuous
 62
     7
370
    25
100
AcDbCircle
 10
126.5646892595
 20
177.7526624442
 30
0.0
 40
0.4991099540953967
100
AcDbArc
 50
0.9039169467
 51
85.0422934825
  0
ARC
  5
15F
330
1F
100
AcDbEntity
  8
0
  6
Continuous
 62
     7
370
    25
100
AcDbCircle
 10
125.7989823508
 20
164.9171296236
 30
0.0
 40
0.4909657463241598
100
AcDbArc
 50
268.9120388997
 51
356.1208510823
  0
ARC
  5
160
330
1F
100
AcDbEntity
  8
0
  6
Continuous
 62
     7
370
    25
100
AcDbCircle
 10
116.5075152146
 20
164.9171296236
 30
0.0
 40
0.4909657463241596
100
AcDbArc
 50
183.8791489177
 51
271.0879611003
  0
LINE
  5
161
330
1F
100
AcDbEntity
  8
0
  6
Continuous
 62
     7
370
    25
100
AcDbLine
 10
116.5168373591
 20
164.4262523867
 30
0.0
 11
125.7896602063
 21
164.4262523867
 31
0.0
  0
ELLIPSE
  5
162
330
1F
100
AcDbEntity
  8
0
  6
Continuous
 62
     7
370
    25
100
AcDbEllipse
 10
116.4521892185
 20
171.6092302498
 30
0.0
 11
0.1314648441207993
 21
7.999997105433749
 31
0.0
210
0.0
220
0.0
230
1.0
 40
0.0517656972
 41
3.407436575569045
 42
3.598327233279113
  0
ARC
  5
163
330
1F
100
AcDbEntity
  8
0
  6
Continuous
 62
     7
370
    25
100
AcDbCircle
 10
116.4347437222
 20
164.3883127685
 30
0.0
 40
0.4998370280062932
100
AcDbArc
 50
180.9816532714
 51
269.9311541913
  0
ARC
  5
164
330
1F
100
AcDbEntity
  8
0
  6
Continuous
 62
     7
370
    25
100
AcDbCircle
 10
125.8717538432
 20
164.3883127685
 30
0.0
 40
0.4998370280062932
100
AcDbArc
 50
270.0688458087
 51
359.0183467286
  0
ELLIPSE
  5
165
330
1F
100
AcDbEntity
  8
0
  6
Continuous
 62
     7
370
    25
100
AcDbEllipse
 10
125.8543083469
 20
171.6092302498
 30
0.0
 11
-0.1314648441207993
 21
7.999997105433749
 31
0.0
210
0.0
220
0.0
230
1.0
 40
0.0517656972
 41
2.684858073900691
 42
2.875748731610825
  0
SPLINE
  5
166
330
1F
100
AcDbEntity
  8
0
  6
Continuous
 62
     7
370
    25
100
AcDbSpline
210
0.0
220
0.0
230
1.0
 70
     8
 71
     3
 72
     9
 73
     5
 74
     0
 42
0.00000001
 43
0.00000001
 40
0.0
 40
0.0
 40
0.0
 40
0.0
 40
0.1533602411230223
 40
1.0
 40
1.0
 40
1.0
 40
1.0
 10
125.8723544402414
 20
163.8884761012866
 30
0.0
 10
125.8728521548945
 20
163.8862883642072
 30
0.0
 10
125.8760975505031
 20
163.8720230170526
 30
0.0
 10
125.8848840271226
 20
163.8587008594559
 30
0.0
 10
125.8923230075691
 20
163.8474217911605
 30
0.0
  0
LINE
  5
167
330
1F
100
AcDbEntity
  8
0
  6
Continuous
 62
     7
370
    25
100
AcDbLine
 10
126.3286051766
 20
163.6092302498
 30
0.0
 11
125.8923230076
 21
163.8474217912
 31
0.0
  0
LINE
  5
168
330
1F
100
AcDbEntity
  8
0
  6
Continuous
 62
     7
370
    25
100
AcDbLine
 10
126.3286051766
 20
163.6092302498
 30
0.0
 11
115.9778923888
 21
163.6092302498
 31
0.0
  0
LINE
  5
169
330
1F
100
AcDbEntity
  8
0
  6
Continuous
 62
     7
370
    25
100
AcDbLine
 10
116.4141745578
 20
163.8474217912
 30
0.0
 11
115.9778923888
 21
163.6092302498
 31
0.0
  0
LINE
  5
16A
330
1F
100
AcDbEntity
  8
0
  6
Continuous
 62
     7
370
    25
100
AcDbLine
 10
116.4141745578
 20
163.8474217912
 30
0.0
 11
116.4341431252
 21
163.8884761013
 31
0.0
  0
ARC
  5
16B
330
1F
100
AcDbEntity
  8
0
  6
Continuous
 62
     7
370
    25
100
AcDbCircle
 10
129.7485929085
 20
172.7071721631
 30
0.0
 40
2.597942632774375
100
AcDbArc
 50
180.9553957458
 51
269.9573581589
  0
SPLINE
  5
16C
330
1F
100
AcDbEntity
  8
0
  6
Continuous
 62
     7
370
    25
100
AcDbSpline
210
0.0
220
0.0
230
1.0
 70
     8
 71
     3
 72
    18
 73
    14
 74
     0
 42
0.00000001
 43
0.00000001
 40
0.0
 40
0.0
 40
0.0
 40
0.0
 40
0.0068251959707227
 40
0.0088434044614842
 40
0.0223953684577847
 40
0.0309542405206877
 40
0.0563126817251128
 40
0.1198628150995938
 40
0.1957140481646498
 40
0.3754356489149269
 40
0.5559517461447964
 40
0.7770243168945054
 40
1.0
 40
1.0
 40
1.0
 40
1.0
 10
126.2378169827929
 20
172.6638539930333
 30
0.0
 10
126.2388551659766
 20
172.633349276632
 30
0.0
 10
126.24020033963
 20
172.593824324341
 30
0.0
 10
126.2477903263913
 20
172.5040948129521
 30
0.0
 10
126.2595418611837
 20
172.4238574265101
 30
0.0
 10
126.2852606241175
 20
172.2976139452984
 30
0.0
 10
126.3437775706611
 20
172.0951438559301
 30
0.0
 10
126.452948156966
 20
171.8502674373406
 30
0.0
 10
126.6877413794337
 20
171.4621243079594
 30
0.0
 10
127.0649831978058
 20
171.040574544623
 30
0.0
 10
127.6797402660675
 20
170.5865774381176
 30
0.0
 10
128.465655378196
 20
170.2089914252143
 30
0.0
 10
129.1732010280448
 20
170.1425788524357
 30
0.0
 10
129.5284900607875
 20
170.1092302497702
 30
0.0
  0
ARC
  5
16D
330
1F
100
AcDbEntity
  8
0
  6
Continuous
 62
     7
370
    25
100
AcDbCircle
 10
129.3397144148
 20
168.2753011434
 30
0.0
 40
1.843619323976545
100
AcDbArc
 50
355.9201895471
 51
84.1229528255
  0
SPLINE
  5
16E
330
1F
100
AcDbEntity
  8
0
  6
Continuous
 62
     7
370
    25
100
AcDbSpline
210
0.0
220
0.0
230
1.0
 70
     8
 71
     3
 72
    15
 73
    11
 74
     0
 42
0.00000001
 43
0.00000001
 40
0.0
 40
0.0
 40
0.0
 40
0.0
 40
0.2224688524270113
 40
0.4515705942233889
 40
0.6326877678833182
 40
0.8158692804920167
 40
0.894667335963646
 40
0.9638029269730595
 40
0.9940829072551296
 40
1.0
 40
1.0
 40
1.0
 40
1.0
 10
131.1786618504263
 20
168.1441350626448
 30
0.0
 10
130.6402770294483
 20
168.1995638945887
 30
0.0
 10
129.5474554911629
 20
168.3120741642511
 30
0.0
 10
128.3325131048743
 20
168.9787758269197
 30
0.0
 10
127.3958043259888
 20
169.7928325405604
 30
0.0
 10
126.8396748066284
 20
170.5453474107091
 30
0.0
 10
126.5020230716555
 20
171.2331988483376
 30
0.0
 10
126.3466766859019
 20
171.6770616250623
 30
0.0
 10
126.2711232159939
 20
172.0089983911055
 30
0.0
 10
126.2496025093627
 20
172.1393399286499
 30
0.0
 10
126.2460845448859
 20
172.1606467057361
 30
0.0
  0
SPLINE
  5
16F
330
1F
100
AcDbEntity
  8
0
  6
Continuous
 62
     7
370
    25
100
AcDbSpline
210
0.0
220
0.0
230
1.0
 70
     8
 71
     3
 72
    11
 73
     7
 74
     0
 42
0.00000001
 43
0.00000001
 40
0.0
 40
0.0
 40
0.0
 40
0.0
 40
0.0195561212295929
 40
0.1681891996744423
 40
0.5898876540792745
 40
1.0
 40
1.0
 40
1.0
 40
1.0
 10
126.2378169827929
 20
172.6638539930333
 30
0.0
 10
126.2377588690772
 20
172.6610484462601
 30
0.0
 10
126.2372590716364
 20
172.6369198033203
 30
0.0
 10
126.2364126542229
 20
172.5474347081575
 30
0.0
 10
126.238501952745
 20
172.3784725320769
 30
0.0
 10
126.2435805939285
 20
172.2325779366764
 30
0.0
 10
126.2460845448859
 20
172.1606467057361
 30
0.0
  0
ARC
  5
170
330
1F
100
AcDbEntity
  8
0
  6
Continuous
 62
     7
370
    25
100
AcDbCircle
 10
112.6726735839
 20
168.3826449738
 30
0.0
 40
1.800614607762324
100
AcDbArc
 50
103.0024955286
 51
186.2155465251
  0
SPLINE
  5
171
330
1F
100
AcDbEntity
  8
0
  6
Continuous
 62
     7
370
    25
100
AcDbSpline
210
0.0
220
0.0
230
1.0
 70
     8
 71
     3
 72
    18
 73
    14
 74
     0
 42
0.00000001
 43
0.00000001
 40
0.0
 40
0.0
 40
0.0
 40
0.0
 40
0.1430320684960219
 40
0.2861109093054184
 40
0.5227114032131916
 40
0.759293463640957
 40
0.8521821329019413
 40
0.9266871769351877
 40
0.9605146255954601
 40
0.9835453768096154
 40
0.9930806389336274
 40
0.9972262239314647
 40
1.0
 40
1.0
 40
1.0
 40
1.0
 10
112.2675470137109
 20
170.1370923021096
 30
0.0
 10
112.5421466818686
 20
170.1824556438323
 30
0.0
 10
113.0914358138633
 20
170.2731971613528
 30
0.0
 10
113.9548707720974
 20
170.6258727801879
 30
0.0
 10
114.8173000946514
 20
171.1736318792084
 30
0.0
 10
115.4299769963942
 20
171.8511389483549
 30
0.0
 10
115.7835445170788
 20
172.4411276336986
 30
0.0
 10
115.9381853339952
 20
172.7967706405383
 30
0.0
 10
116.0266915962798
 20
173.1070180704832
 30
0.0
 10
116.0658026374154
 20
173.3196641466949
 30
0.0
 10
116.080122465514
 20
173.4758079792125
 30
0.0
 10
116.0838562136774
 20
173.5517686646834
 30
0.0
 10
116.0845900551418
 20
173.5842523975409
 30
0.0
 10
116.0848842314209
 20
173.5972742069179
 30
0.0
  0
SPLINE
  5
172
330
1F
100
AcDbEntity
  8
0
  6
Continuous
 62
     7
370
    25
100
AcDbSpline
210
0.0
220
0.0
230
1.0
 70
     8
 71
     3
 72
    10
 73
     6
 74
     0
 42
0.00000001
 43
0.00000001
 40
0.0
 40
0.0
 40
0.0
 40
0.0
 40
0.5975855365574454
 40
0.9790563563181981
 40
1.0
 40
1.0
 40
1.0
 40
1.0
 10
116.0757573340815
 20
173.0444884268414
 30
0.0
 10
116.0794966318079
 20
173.159545490463
 30
0.0
 10
116.0856229233314
 20
173.3480496335301
 30
0.0
 10
116.085999482188
 20
173.5286201032296
 30
0.0
 10
116.0849394031875
 20
173.593877869253
 30
0.0
 10
116.0848842314209
 20
173.5972742069179
 30
0.0
  0
SPLINE
  5
173
330
1F
100
AcDbEntity
  8
0
  6
Continuous
 62
     7
370
    25
100
AcDbSpline
210
0.0
220
0.0
230
1.0
 70
     8
 71
     3
 72
    15
 73
    11
 74
     0
 42
0.00000001
 43
0.00000001
 40
0.0
 40
0.0
 40
0.0
 40
0.0
 40
0.0128981401598393
 40
0.0519443541565596
 40
0.1318327952014336
 40
0.2279057212361198
 40
0.4677439605522729
 40
0.7076088995729002
 40
0.8538517081976984
 40
1.0
 40
1.0
 40
1.0
 40
1.0
 10
116.0757573340815
 20
173.0444884268414
 30
0.0
 10
116.067912436794
 20
172.9947364957744
 30
0.0
 10
116.0363188800503
 20
172.7943718001443
 30
0.0
 10
115.9339281367414
 20
172.3645836320477
 30
0.0
 10
115.7316066412528
 20
171.7987997206737
 30
0.0
 10
115.2639577420225
 20
170.8777459264915
 30
0.0
 10
114.4323709639874
 20
169.8134300456698
 30
0.0
 10
113.2387803689124
 20
168.9485921769029
 30
0.0
 10
112.031858324222
 20
168.3989622811001
 30
0.0
 10
111.2656326577199
 20
168.2581016129913
 30
0.0
 10
110.8826436675256
 20
168.1876940458795
 30
0.0
  0
ARC
  5
174
330
1F
100
AcDbEntity
  8
0
  6
Continuous
 62
     7
370
    25
100
AcDbCircle
 10
111.62477242
 20
173.6564201698
 30
0.0
 40
3.54719090244191
100
AcDbArc
 50
270.0426418411
 51
359.0446042542
  0
LINE
  5
175
330
1F
100
AcDbEntity
  8
0
  6
Continuous
 62
     7
370
    25
100
AcDbLine
 10
111.7434033317
 20
170.1092302498
 30
0.0
 11
112.2675470137
 21
170.1370923021
 31
0.0
  0
SPLINE
  5
176
330
1F
100
AcDbEntity
  8
0
  6
Continuous
 62
     7
370
    25
100
AcDbSpline
210
0.0
220
0.0
230
1.0
 70
     8
 71
     3
 72
     9
 73
     5
 74
     0
 42
0.00000001
 43
0.00000001
 40
0.0
 40
0.0
 40
0.0
 40
0.0
 40
0.845891190778427
 40
0.9999999999999999
 40
0.9999999999999999
 40
0.9999999999999999
 40
0.9999999999999999
 10
126.3818358075721
 20
164.3412610230423
 30
0.0
 10
126.3780210005798
 20
164.351878452869
 30
0.0
 10
126.3735111924225
 20
164.3644302206879
 30
0.0
 10
126.3717837286715
 20
164.3777038548332
 30
0.0
 10
126.3715175112898
 20
164.3797494387854
 30
0.0
  0
ARC
  5
177
330
1F
100
AcDbEntity
  8
0
  6
Continuous
 62
     7
370
    25
100
AcDbCircle
 10
125.864824211
 20
164.3642114276
 30
0.0
 40
0.5175207359149772
100
AcDbArc
 50
273.0458824723
 51
357.4582801867
  0
LINE
  5
178
330
1F
100
AcDbEntity
  8
0
  6
Continuous
 62
     7
370
    25
100
AcDbLine
 10
115.9349800541
 20
164.3797494388
 30
0.0
 11
115.9246617578
 21
164.341261023
 31
0.0
  0
ARC
  5
179
330
1F
100
AcDbEntity
  8
0
  6
Continuous
 62
     7
370
    25
100
AcDbCircle
 10
116.4416733544
 20
164.3642114276
 30
0.0
 40
0.5175207359149333
100
AcDbArc
 50
182.5417198133
 51
266.9541175277
  0
ARC
  5
17A
330
1F
100
AcDbEntity
  8
0
  6
Continuous
 62
     7
370
    25
100
AcDbCircle
 10
116.0805639664
 20
173.4886770507
 30
0.0
 40
0.4442146297529969
100
AcDbArc
 50
269.3800179011
 51
270.6199820985
  0
ARC
  5
17B
330
1F
100
AcDbEntity
  8
0
  6
Continuous
 62
     7
370
    25
100
AcDbCircle
 10
126.2412760409
 20
172.6049535689
 30
0.0
 40
0.4443328824210529
100
AcDbArc
 50
269.3799416244
 51
270.6200584636
  0
LWPOLYLINE
  5
17C
330
1F
100
AcDbEntity
  8
0
  6
Continuous
 62
     7
370
    25
100
AcDbPolyline
 90
        4
 70
   128
 43
0.0
 10
126.2460845449
 20
172.1606467057
 10
126.2634427999
 20
171.1607998858
 10
126.3328756615
 20
167.1614126112
 10
126.3818358076
 20
164.341261023
  0
LWPOLYLINE
  5
17D
330
1F
100
AcDbEntity
  8
0
  6
Continuous
 62
     7
370
    25
100
AcDbPolyline
 90
        4
 70
   128
 43
0.0
 10
115.9246617578
 20
164.341261023
 10
115.9420199047
 20
165.3411078395
 10
116.0114526509
 20
169.3404951104
 10
116.0757573341
 20
173.0444884268
  0
LINE
  5
17E
330
1F
100
AcDbEntity
  8
0
  6
Continuous
 62
     7
370
    25
100
AcDbLine
 10
126.3818358076
 20
164.341261023
 30
0.0
 11
126.8113633109
 21
164.117956453
 31
0.0
  0
ARC
  5
17F
330
1F
100
AcDbEntity
  8
0
  6
Continuous
 62
     7
370
    25
100
AcDbCircle
 10
126.3196634987
 20
164.1011364051
 30
0.0
 40
0.49198741780763
100
AcDbArc
 50
271.0413856032
 51
1.959207802
  0
LINE
  5
180
330
1F
100
AcDbEntity
  8
0
  6
Continuous
 62
     7
370
    25
100
AcDbLine
 10
115.4951342545
 20
164.117956453
 30
0.0
 11
115.9246617578
 21
164.341261023
 31
0.0
  0
ARC
  5
181
330
1F
100
AcDbEntity
  8
0
  6
Continuous
 62
     7
370
    25
100
AcDbCircle
 10
115.9868340667
 20
164.1011364051
 30
0.0
 40
0.4919874178076625
100
AcDbArc
 50
178.040792198
 51
268.9586143968
  0
LINE
  5
182
330
1F
100
AcDbEntity
  8
0
  6
Continuous
 62
     7
370
    25
100
AcDbLine
 10
110.8245756545
 20
164.117956453
 30
0.0
 11
115.4951342545
 21
164.117956453
 31
0.0
  0
LINE
  5
183
330
1F
100
AcDbEntity
  8
0
  6
Continuous
 62
     7
370
    25
100
AcDbLine
 10
110.8826436675
 20
168.1876940459
 30
0.0
 11
110.8245756545
 21
164.117956453
 31
0.0
  0
LINE
  5
184
330
1F
100
AcDbEntity
  8
0
  6
Continuous
 62
     7
370
    25
100
AcDbLine
 10
131.4244754081
 20
168.1441350626
 30
0.0
 11
131.1786618504
 21
168.1441350626
 31
0.0
  0
LINE
  5
185
330
1F
100
AcDbEntity
  8
0
  6
Continuous
 62
     7
370
    25
100
AcDbLine
 10
131.4244754081
 20
168.1441350626
 30
0.0
 11
131.4819219109
 21
164.117956453
 31
0.0
  0
LINE
  5
186
330
1F
100
AcDbEntity
  8
0
  6
Continuous
 62
     7
370
    25
100
AcDbLine
 10
126.8113633109
 20
164.117956453
 30
0.0
 11
131.4819219109
 21
164.117956453
 31
0.0
  0
ARC
  5
187
330
1F
100
AcDbEntity
  8
0
  6
Continuous
 62
     7
370
    25
100
AcDbCircle
 10
131.0213401615
 20
164.0694396206
 30
0.0
 40
0.4631300366780713
100
AcDbArc
 50
276.4380684431
 51
6.013255932
  0
LINE
  5
188
330
1F
100
AcDbEntity
  8
0
  6
Continuous
 62
     7
370
    25
100
AcDbLine
 10
131.0732705558
 20
163.6092302498
 30
0.0
 11
126.3286051766
 21
163.6092302498
 31
0.0
  0
LINE
  5
189
330
1F
100
AcDbEntity
  8
0
  6
Continuous
 62
     7
370
    25
100
AcDbLine
 10
115.9778923888
 20
163.6092302498
 30
0.0
 11
111.2332270096
 21
163.6092302498
 31
0.0
  0
ARC
  5
18A
330
1F
100
AcDbEntity
  8
0
  6
Continuous
 62
     7
370
    25
100
AcDbCircle
 10
111.2851574039
 20
164.0694396206
 30
0.0
 40
0.4631300366780012
100
AcDbArc
 50
173.986744068
 51
263.5619315569
  0
LINE
  5
18B
330
1F
100
AcDbEntity
  8
0
  6
Continuous
 62
     7
370
    25
100
AcDbLine
 10
129.5284900608
 20
170.1092302498
 30
0.0
 11
129.7898699877
 21
170.1092302498
 31
0.0
  0
ARC
  5
18C
330
1F
100
AcDbEntity
  8
0
  6
Continuous
 62
     7
370
    25
100
AcDbCircle
 10
129.591658238
 20
168.2819574482
 30
0.0
 40
1.837991781539994
100
AcDbArc
 50
355.6996216829
 51
83.8090988865
  0
LINE
  5
18D
330
1F
100
AcDbEntity
  8
0
  6
Continuous
 62
     7
370
    25
100
AcDbLine
 10
132.6251383974
 20
163.6092302498
 30
0.0
 11
131.0732705558
 21
163.6092302498
 31
0.0
  0
LINE
  5
18E
330
1F
100
AcDbEntity
  8
0
  6
Continuous
 62
     7
370
    25
100
AcDbLine
 10
111.2332270096
 20
163.6092302498
 30
0.0
 11
109.681359168
 21
163.6092302498
 31
0.0
  0
LINE
  5
18F
330
1F
100
AcDbEntity
  8
0
  6
Continuous
 62
     7
370
    25
100
AcDbLine
 10
110.8826436675
 20
168.1876940459
 30
0.0
 11
109.8856774319
 21
168.1441350626
 31
0.0
  0
LINE
  5
190
330
1F
100
AcDbEntity
  8
0
  6
Continuous
 62
     7
370
    25
100
AcDbLine
 10
129.7898699877
 20
170.1092302498
 30
0.0
 11
131.0550896456
 21
170.1092302498
 31
0.0
  0
ARC
  5
191
330
1F
100
AcDbEntity
  8
0
  6
Continuous
 62
     7
370
    25
100
AcDbCircle
 10
111.8153866757
 20
168.1805208142
 30
0.0
 40
1.93005225026663
100
AcDbArc
 50
92.1374025298
 51
181.0802160954
  0
LINE
  5
192
330
1F
100
AcDbEntity
  8
0
  6
Continuous
 62
     7
370
    25
100
AcDbLine
 10
111.2514079197
 20
170.1092302498
 30
0.0
 11
111.7434033317
 21
170.1092302498
 31
0.0
  0
LINE
  5
193
330
1F
100
AcDbEntity
  8
0
  6
Continuous
 62
     7
370
    25
100
AcDbLine
 10
125.9265577768
 20
178.4592302498
 30
0.0
 11
129.552692437
 21
178.4592302498
 31
0.0
  0
LINE
  5
194
330
1F
100
AcDbEntity
  8
0
  6
Continuous
 62
     7
370
    25
100
AcDbLine
 10
112.7538051284
 20
178.4592302498
 30
0.0
 11
116.393340611
 21
178.4592302498
 31
0.0
  0
SPLINE
  5
195
330
1F
100
AcDbEntity
  8
0
  6
Continuous
 62
     7
370
    25
100
AcDbSpline
210
0.0
220
0.0
230
1.0
 70
     8
 71
     3
 72
     9
 73
     5
 74
     0
 42
0.00000001
 43
0.00000001
 40
0.0
 40
0.0
 40
0.0
 40
0.0
 40
0.681792342127431
 40
1.0
 40
1.0
 40
1.0
 40
1.0
 10
115.3783517645736
 20
178.2162226231354
 30
0.0
 10
115.1884414094685
 20
178.182513953223
 30
0.0
 10
114.9098956655949
 20
178.1330726969496
 30
0.0
 10
114.6769912926519
 20
178.0078145534586
 30
0.0
 10
114.6028793376295
 20
177.9679564529889
 30
0.0
  0
SPLINE
  5
196
330
1F
100
AcDbEntity
  8
0
  6
Continuous
 62
     7
370
    25
100
AcDbSpline
210
0.0
220
0.0
230
1.0
 70
     8
 71
     3
 72
     9
 73
     5
 74
     0
 42
0.00000001
 43
0.00000001
 40
0.0
 40
0.0
 40
0.0
 40
0.0
 40
0.4941867114119826
 40
1.0
 40
1.0
 40
1.0
 40
1.0
 10
127.7036182277627
 20
177.9679564529889
 30
0.0
 10
127.5854281525013
 20
178.031043055175
 30
0.0
 10
127.346267380809
 20
178.1587004784311
 30
0.0
 10
127.0685957842312
 20
178.1969005296196
 30
0.0
 10
126.9281458008187
 20
178.2162226231355
 30
0.0
  0
ARC
  5
197
330
1F
100
AcDbEntity
  8
0
  6
Continuous
 62
     7
370
    25
100
AcDbCircle
 10
110.8950144987
 20
173.3049504749
 30
0.0
 40
3.223623274024219
100
AcDbArc
 50
277.544059084
 51
5.2028276603
  0
SPLINE
  5
198
330
1F
100
AcDbEntity
  8
0
  6
Continuous
 62
     7
370
    25
100
AcDbSpline
210
0.0
220
0.0
230
1.0
 70
     8
 71
     3
 72
     9
 73
     5
 74
     0
 42
0.00000001
 43
0.00000001
 40
0.0
 40
0.0
 40
0.0
 40
0.0
 40
0.5001021276704695
 40
1.0
 40
1.0
 40
1.0
 40
1.0
 10
114.105356201423
 20
173.5972742069179
 30
0.0
 10
114.3918818355115
 20
173.5957624407373
 30
0.0
 10
114.9648160788093
 20
173.5927395258226
 30
0.0
 10
115.1025948652635
 20
173.5957628523963
 30
0.0
 10
115.1714701874641
 20
173.5972742069179
 30
0.0
  0
SPLINE
  5
199
330
1F
100
AcDbEntity
  8
0
  6
Continuous
 62
     7
370
    25
100
AcDbSpline
210
0.0
220
0.0
230
1.0
 70
     8
 71
     3
 72
     9
 73
     5
 74
     0
 42
0.00000001
 43
0.00000001
 40
0.0
 40
0.0
 40
0.0
 40
0.0
 40
0.400722737156528
 40
1.0
 40
1.0
 40
1.0
 40
1.0
 10
127.1510114450074
 20
172.6638539930333
 30
0.0
 10
127.1994187070731
 20
172.662910092096
 30
0.0
 10
127.3202185958169
 20
172.6605545957645
 30
0.0
 10
127.8803258691705
 20
172.6626176509794
 30
0.0
 10
128.2159854228446
 20
172.6638539930617
 30
0.0
  0
ARC
  5
19A
330
1F
100
AcDbEntity
  8
0
  6
Continuous
 62
     7
370
    25
100
AcDbCircle
 10
130.5674349449
 20
172.4500001211
 30
0.0
 40
2.361154025759533
100
AcDbArc
 50
174.8034992243
 51
262.4658413595
  0
SPLINE
  5
19B
330
1F
100
AcDbEntity
  8
0
  6
Continuous
 62
     7
370
    25
100
AcDbSpline
210
0.0
220
0.0
230
1.0
 70
     8
 71
     3
 72
     9
 73
     5
 74
     0
 42
0.00000001
 43
0.00000001
 40
0.0
 40
0.0
 40
0.0
 40
0.0
 40
0.500010612381544
 40
1.0
 40
1.0
 40
1.0
 40
1.0
 10
128.1354499170089
 20
177.7301738304339
 30
0.0
 10
127.8476093789157
 20
177.7253449930059
 30
0.0
 10
127.2719405211642
 20
177.7156875231274
 30
0.0
 10
127.1331372600775
 20
177.7455868788103
 30
0.0
 10
127.0637371025673
 20
177.7605362393485
 30
0.0
  0
LINE
  5
19C
330
1F
100
AcDbEntity
  8
0
  6
Continuous
 62
     7
370
    25
100
AcDbLine
 10
128.135449917
 20
177.7301738304
 30
0.0
 11
128.2159854228
 21
172.6638539931
 31
0.0
  0
LINE
  5
19D
330
1F
100
AcDbEntity
  8
0
  6
Continuous
 62
     7
370
    25
100
AcDbLine
 10
114.1053562014
 20
173.5972742069
 30
0.0
 11
114.1710476484
 21
177.7301738304
 31
0.0
  0
SPLINE
  5
19E
330
1F
100
AcDbEntity
  8
0
  6
Continuous
 62
     7
370
    25
100
AcDbSpline
210
0.0
220
0.0
230
1.0
 70
     8
 71
     3
 72
     9
 73
     5
 74
     0
 42
0.00000001
 43
0.00000001
 40
0.0
 40
0.0
 40
0.0
 40
0.0
 40
0.5055561057107305
 40
1.0
 40
1.0
 40
1.0
 40
1.0
 10
115.2427604628248
 20
177.7605362393462
 30
0.0
 10
115.1721044285548
 20
177.7453794050656
 30
0.0
 10
115.0323453919774
 20
177.7153988863668
 30
0.0
 10
114.4560121171816
 20
177.7252854696796
 30
0.0
 10
114.1710476483832
 20
177.7301738304339
 30
0.0
  0
SPLINE
  5
19F
330
1F
100
AcDbEntity
  8
0
  6
Continuous
 62
     7
370
    25
100
AcDbSpline
210
0.0
220
0.0
230
1.0
 70
     8
 71
     3
 72
     9
 73
     5
 74
     0
 42
0.00000001
 43
0.00000001
 40
0.0
 40
0.0
 40
0.0
 40
0.0
 40
0.0161297673533178
 40
0.9999999999999999
 40
0.9999999999999999
 40
0.9999999999999999
 40
0.9999999999999999
 10
114.1710476483832
 20
177.7301738304339
 30
0.0
 10
114.1732666757071
 20
177.7314636300499
 30
0.0
 10
114.3108400997567
 20
177.8114275618132
 30
0.0
 10
114.4580469246119
 20
177.8903283329422
 30
0.0
 10
114.6028793376295
 20
177.9679564529889
 30
0.0
  0
SPLINE
  5
1A0
330
1F
100
AcDbEntity
  8
0
  6
Continuous
 62
     7
370
    25
100
AcDbSpline
210
0.0
220
0.0
230
1.0
 70
     8
 71
     3
 72
     9
 73
     5
 74
     0
 42
0.00000001
 43
0.00000001
 40
0.0
 40
0.0
 40
0.0
 40
0.0
 40
0.9838702326459385
 40
1.0
 40
1.0
 40
1.0
 40
1.0
 10
127.7036182277627
 20
177.9679564529889
 30
0.0
 10
127.8484506407816
 20
177.8903283329498
 30
0.0
 10
127.9956574656385
 20
177.8114275618284
 30
0.0
 10
128.133230889685
 20
177.7314636300502
 30
0.0
 10
128.1354499170089
 20
177.7301738304339
 30
0.0
  0
LINE
  5
1A1
330
1F
100
AcDbEntity
  8
0
  6
Continuous
 62
     7
370
    25
100
AcDbLine
 10
111.190575591
 20
170.1452606499
 30
0.0
 11
111.2642818447
 21
170.1092302498
 31
0.0
  0
LINE
  5
1A2
330
1F
100
AcDbEntity
  8
0
  6
Continuous
 62
     7
370
    25
100
AcDbLine
 10
115.8243344461
 20
180.3592302498
 30
0.0
 11
126.4821631193
 21
180.3592302498
 31
0.0
  0
LINE
  5
1A3
330
1F
100
AcDbEntity
  8
0
  6
Continuous
 62
     7
370
    25
100
AcDbLine
 10
129.3499863706
 20
151.1592302498
 30
0.0
 11
128.7430331055
 21
150.9092302498
 31
0.0
  0
LINE
  5
1A4
330
1F
100
AcDbEntity
  8
0
  6
Continuous
 62
     7
370
    25
100
AcDbLine
 10
123.0634644599
 20
150.9092302498
 30
0.0
 11
128.7430331055
 21
150.9092302498
 31
0.0
  0
LINE
  5
1A5
330
1F
100
AcDbEntity
  8
0
  6
Continuous
 62
     7
370
    25
100
AcDbLine
 10
123.0634644599
 20
150.9092302498
 30
0.0
 11
122.4565111948
 21
151.1592302498
 31
0.0
  0
LINE
  5
1A6
330
1F
100
AcDbEntity
  8
0
  6
Continuous
 62
     7
370
    25
100
AcDbLine
 10
122.4565111948
 20
153.7092302498
 30
0.0
 11
122.4565111948
 21
151.1592302498
 31
0.0
  0
SPLINE
  5
1A7
330
1F
100
AcDbEntity
  8
0
  6
Continuous
 62
     7
370
    25
100
AcDbSpline
210
0.0
220
0.0
230
1.0
 70
     8
 71
     3
 72
    11
 73
     7
 74
     0
 42
0.00000001
 43
0.00000001
 40
0.0
 40
0.0
 40
0.0
 40
0.0
 40
0.2431641197380917
 40
0.4936284730588942
 40
0.742170607686329
 40
1.0
 40
1.0
 40
1.0
 40
1.0
 10
129.3499863706189
 20
153.7092302497702
 30
0.0
 10
128.806539838348
 20
153.919370572979
 30
0.0
 10
127.7033315105612
 20
154.3459600179406
 30
0.0
 10
125.9532864808347
 20
154.5563444480836
 30
0.0
 10
124.1663173168918
 20
154.3656577544166
 30
0.0
 10
123.0333729366695
 20
153.9306985840219
 30
0.0
 10
122.4565111947732
 20
153.7092302497702
 30
0.0
  0
LINE
  5
1A8
330
1F
100
AcDbEntity
  8
0
  6
Continuous
 62
     7
370
    25
100
AcDbLine
 10
129.3499863706
 20
151.1592302498
 30
0.0
 11
129.3499863706
 21
153.7092302498
 31
0.0
  0
SPLINE
  5
1A9
330
1F
100
AcDbEntity
  8
0
  6
Continuous
 62
     7
370
    25
100
AcDbSpline
210
0.0
220
0.0
230
1.0
 70
    24
 71
     3
 72
    10
 73
     6
 74
     0
 42
0.00000001
 43
0.00000001
 40
0.0
 40
0.0
 40
0.0
 40
0.0
 40
0.4545003040429959
 40
0.9418717272555379
 40
1.0
 40
1.0
 40
1.0
 40
1.0
 10
130.653248782696
 20
154.4833365466335
 30
0.0
 10
130.653248782696
 20
154.4513665610061
 30
0.0
 10
130.6532487826961
 20
154.385114403823
 30
0.0
 10
130.653248782696
 20
153.9941748715313
 30
0.0
 10
130.653248782696
 20
153.7366698972843
 30
0.0
 10
130.653248782696
 20
153.7092302497702
 30
0.0
  0
LINE
  5
1AA
330
1F
100
AcDbEntity
  8
0
  6
Continuous
 62
     7
370
    25
100
AcDbLine
 10
129.3499863706
 20
153.7092302498
 30
0.0
 11
130.6532487827
 21
153.7092302498
 31
0.0
  0
LINE
  5
1AB
330
1F
100
AcDbEntity
  8
0
  6
Continuous
 62
     7
370
    25
100
AcDbLine
 10
119.8499863706
 20
153.7092302498
 30
0.0
 11
122.4565111948
 21
153.7092302498
 31
0.0
  0
SPLINE
  5
1AC
330
1F
100
AcDbEntity
  8
0
  6
Continuous
 62
     7
370
    25
100
AcDbSpline
210
0.0
220
0.0
230
1.0
 70
     8
 71
     3
 72
    11
 73
     7
 74
     0
 42
0.00000001
 43
0.00000001
 40
0.0
 40
0.0
 40
0.0
 40
0.0
 40
0.2431641197380909
 40
0.4936284730588934
 40
0.7421706076863288
 40
1.0
 40
1.0
 40
1.0
 40
1.0
 10
119.8499863706189
 20
153.7092302497702
 30
0.0
 10
119.306539838348
 20
153.919370572979
 30
0.0
 10
118.2033315105612
 20
154.3459600179406
 30
0.0
 10
116.4532864808347
 20
154.5563444480836
 30
0.0
 10
114.6663173168918
 20
154.3656577544166
 30
0.0
 10
113.5333729366695
 20
153.9306985840219
 30
0.0
 10
112.9565111947732
 20
153.7092302497702
 30
0.0
  0
LINE
  5
1AD
330
1F
100
AcDbEntity
  8
0
  6
Continuous
 62
     7
370
    25
100
AcDbLine
 10
111.6532487827
 20
153.7092302498
 30
0.0
 11
112.9565111948
 21
153.7092302498
 31
0.0
  0
SPLINE
  5
1AE
330
1F
100
AcDbEntity
  8
0
  6
Continuous
 62
     7
370
    25
100
AcDbSpline
210
0.0
220
0.0
230
1.0
 70
    24
 71
     3
 72
    10
 73
     6
 74
     0
 42
0.00000001
 43
0.00000001
 40
0.0
 40
0.0
 40
0.0
 40
0.0
 40
0.0581277883667209
 40
0.5304051942242717
 40
1.0
 40
1.0
 40
1.0
 40
1.0
 10
111.653248782696
 20
153.7092302497702
 30
0.0
 10
111.653248782696
 20
153.7366690414324
 30
0.0
 10
111.653248782696
 20
153.9870428820651
 30
0.0
 10
111.653248782696
 20
154.3806178591286
 30
0.0
 10
111.653248782696
 20
154.4490321448006
 30
0.0
 10
111.653248782696
 20
154.4831418603178
 30
0.0
  0
LINE
  5
1AF
330
1F
100
AcDbEntity
  8
0
  6
Continuous
 62
     7
370
    25
100
AcDbLine
 10
112.9032487827
 20
155.7092302498
 30
0.0
 11
129.4032487827
 21
155.7092302498
 31
0.0
  0
LINE
  5
1B0
330
1F
100
AcDbEntity
  8
0
  6
Continuous
 62
     7
370
    25
100
AcDbLine
 10
119.8499863706
 20
151.1592302498
 30
0.0
 11
119.2430331055
 21
150.9092302498
 31
0.0
  0
LINE
  5
1B1
330
1F
100
AcDbEntity
  8
0
  6
Continuous
 62
     7
370
    25
100
AcDbLine
 10
113.5634644599
 20
150.9092302498
 30
0.0
 11
119.2430331055
 21
150.9092302498
 31
0.0
  0
LINE
  5
1B2
330
1F
100
AcDbEntity
  8
0
  6
Continuous
 62
     7
370
    25
100
AcDbLine
 10
113.5634644599
 20
150.9092302498
 30
0.0
 11
112.9565111948
 21
151.1592302498
 31
0.0
  0
LINE
  5
1B3
330
1F
100
AcDbEntity
  8
0
  6
Continuous
 62
     7
370
    25
100
AcDbLine
 10
112.9565111948
 20
153.7092302498
 30
0.0
 11
112.9565111948
 21
151.1592302498
 31
0.0
  0
LINE
  5
1B4
330
1F
100
AcDbEntity
  8
0
  6
Continuous
 62
     7
370
    25
100
AcDbLine
 10
119.8499863706
 20
151.1592302498
 30
0.0
 11
119.8499863706
 21
153.7092302498
 31
0.0
  0
LINE
  5
1B5
330
1F
100
AcDbEntity
  8
0
  6
Continuous
 62
     7
370
    25
100
AcDbLine
 10
119.8499863706
 20
151.1592302498
 30
0.0
 11
122.4565111948
 21
151.1592302498
 31
0.0
  0
LINE
  5
1B6
330
1F
100
AcDbEntity
  8
0
  6
Continuous
 62
     7
370
    25
100
AcDbLine
 10
123.0634644599
 20
150.9092302498
 30
0.0
 11
119.2430331055
 21
150.9092302498
 31
0.0
  0
SPLINE
  5
1B7
330
1F
100
AcDbEntity
  8
0
  6
Continuous
 62
     7
370
    25
100
AcDbSpline
210
0.0
220
0.0
230
1.0
 70
     8
 71
     3
 72
    34
 73
    30
 74
     0
 42
0.00000001
 43
0.00000001
 40
0.0
 40
0.0
 40
0.0
 40
0.0
 40
0.0227870372981756
 40
0.0650832065607313
 40
0.1089105412576385
 40
0.1541483135023817
 40
0.200888611883741
 40
0.2404253224203604
 40
0.2862038606134346
 40
0.3157691494477849
 40
0.3361533602398182
 40
0.3598797555545949
 40
0.383606140991721
 40
0.4049570499117644
 40
0.4269773110523234
 40
0.4635831552522703
 40
0.5096005054050309
 40
0.5682797958237453
 40
0.6163568974747526
 40
0.6538236597163269
 40
0.6872537117556575
 40
0.7300299575809387
 40
0.7824379007389773
 40
0.8437344458722992
 40
0.8998452930883847
 40
0.9323173425821444
 40
0.9608272345570922
 40
0.9848081722000985
 40
1.0
 40
1.0
 40
1.0
 40
1.0
 10
114.1450077191665
 20
148.2592302497702
 30
0.0
 10
114.2590561320009
 20
148.2633413705844
 30
0.0
 10
114.5847955562752
 20
148.2750833500984
 30
0.0
 10
115.2177907863905
 20
148.2937331812693
 30
0.0
 10
116.0317754104967
 20
148.3181186318853
 30
0.0
 10
116.940312557415
 20
148.3435658958502
 30
0.0
 10
117.8702677077765
 20
148.3682350663933
 30
0.0
 10
118.840951825217
 20
148.3928941353662
 30
0.0
 10
119.7088953083711
 20
148.4142480030719
 30
0.0
 10
120.4413186677338
 20
148.4318113141476
 30
0.0
 10
121.0073474654712
 20
148.4448757549119
 30
0.0
 10
121.5290714285307
 20
148.4569675120645
 30
0.0
 10
122.0569918696896
 20
148.4692410750544
 30
0.0
 10
122.569014126853
 20
148.4810588968659
 30
0.0
 10
123.1743706319347
 20
148.4958423169637
 30
0.0
 10
123.9549129505134
 20
148.5154380405064
 30
0.0
 10
124.9769637496297
 20
148.5420951776884
 30
0.0
 10
126.022734584684
 20
148.5706818150736
 30
0.0
 10
126.933146579745
 20
148.5973090669634
 30
0.0
 10
127.6244027956995
 20
148.618746915633
 30
0.0
 10
128.2323083033246
 20
148.6385962941238
 30
0.0
 10
128.8511524258977
 20
148.6621376415712
 30
0.0
 10
129.4898233413397
 20
148.6911296395596
 30
0.0
 10
130.0224094596236
 20
148.7231698547763
 30
0.0
 10
130.3351352481044
 20
148.7512372446412
 30
0.0
 10
130.4843304734866
 20
148.7727276153399
 30
0.0
 10
130.5416818821446
 20
148.7881443203389
 30
0.0
 10
130.5606174520329
 20
148.7999385075638
 30
0.0
 10
130.5452378236813
 20
148.8069653521382
 30
0.0
 10
130.539273356713
 20
148.8096904753595
 30
0.0
  0
SPLINE
  5
1B8
330
1F
100
AcDbEntity
  8
0
  6
Continuous
 62
     7
370
    25
100
AcDbSpline
210
0.0
220
0.0
230
1.0
 70
     8
 71
     3
 72
    17
 73
    13
 74
     0
 42
0.00000001
 43
0.00000001
 40
0.0
 40
0.0
 40
0.0
 40
0.0
 40
0.0480092357624193
 40
0.151651450773016
 40
0.2383556306810758
 40
0.335663961643722
 40
0.4612782558034142
 40
0.6074785248369421
 40
0.7139105608506446
 40
0.7989219811097976
 40
0.9126654681781007
 40
1.0
 40
1.0
 40
1.0
 40
1.0
 10
127.404748062363
 20
148.2592302497702
 30
0.0
 10
127.5006115285978
 20
148.2621767571572
 30
0.0
 10
127.8034247998313
 20
148.2714841771329
 30
0.0
 10
128.2302589667186
 20
148.2858824971612
 30
0.0
 10
128.7085485630957
 20
148.3037825746713
 30
0.0
 10
129.1702263896498
 20
148.3233807055437
 30
0.0
 10
129.6440398644999
 20
148.3471538997591
 30
0.0
 10
130.0262138899004
 20
148.3715095725399
 30
0.0
 10
130.278391400226
 20
148.393194287822
 30
0.0
 10
130.4404389536087
 20
148.4128834190993
 30
0.0
 10
130.5414730071223
 20
148.4307177508031
 30
0.0
 10
130.540669370062
 20
148.4428259293629
 30
0.0
 10
130.5403203251152
 20
148.4480848935777
 30
0.0
  0
SPLINE
  5
1B9
330
1F
100
AcDbEntity
  8
0
  6
Continuous
 62
     7
370
    25
100
AcDbSpline
210
0.0
220
0.0
230
1.0
 70
     8
 71
     3
 72
    22
 73
    18
 74
     0
 42
0.00000001
 43
0.00000001
 40
0.0
 40
0.0
 40
0.0
 40
0.0
 40
0.0271653445239602
 40
0.1034274503289995
 40
0.1799431116718874
 40
0.2547634523336638
 40
0.3304499844271188
 40
0.4071200606928879
 40
0.4826538512905611
 40
0.5515467560227248
 40
0.6215727983254136
 40
0.6920556172497474
 40
0.7667907983737831
 40
0.8426097871058765
 40
0.9192695786366373
 40
0.9946520048933247
 40
1.0
 40
1.0
 40
1.0
 40
1.0
 10
112.5787410259734
 20
148.5459209810669
 30
0.0
 10
112.5752878089515
 20
148.5519906994497
 30
0.0
 10
112.5621402697513
 20
148.5751001246218
 30
0.0
 10
113.028911743593
 20
148.6179942418634
 30
0.0
 10
113.9538702854032
 20
148.6726135190996
 30
0.0
 10
115.3008576939103
 20
148.7228258803476
 30
0.0
 10
116.9597694073208
 20
148.7754447644969
 30
0.0
 10
118.8585577857983
 20
148.8303342573651
 30
0.0
 10
120.8228264848604
 20
148.8812078134114
 30
0.0
 10
122.7404700721684
 20
148.9288003575649
 30
0.0
 10
124.5399883213065
 20
148.9788979562885
 30
0.0
 10
126.2274354349255
 20
149.0303230176885
 30
0.0
 10
127.6995800067578
 20
149.0789734447567
 30
0.0
 10
128.869990860634
 20
149.1319242310533
 30
0.0
 10
129.565334054529
 20
149.1868828599873
 30
0.0
 10
129.8564482634202
 20
149.2226069375945
 30
0.0
 10
129.7791730452211
 20
149.240979206037
 30
0.0
 10
129.7740539404052
 20
149.2421962788587
 30
0.0
  0
SPLINE
  5
1BA
330
1F
100
AcDbEntity
  8
0
  6
Continuous
 62
     7
370
    25
100
AcDbSpline
210
0.0
220
0.0
230
1.0
 70
     8
 71
     3
 72
    22
 73
    18
 74
     0
 42
0.00000001
 43
0.00000001
 40
0.0
 40
0.0
 40
0.0
 40
0.0
 40
0.0322559774995884
 40
0.1016689078701322
 40
0.1710818376161171
 40
0.240494767362913
 40
0.3099076971058067
 40
0.3786936808213668
 40
0.44726211158858
 40
0.515830541859542
 40
0.584398972129929
 40
0.6529534196205109
 40
0.7206773543488653
 40
0.7884012882200014
 40
0.8561252217588254
 40
0.9269330641999511
 40
1.0
 40
1.0
 40
1.0
 40
1.0
 10
111.9399820264306
 20
149.0642027974332
 30
0.0
 10
111.9365775624935
 20
149.0676947708748
 30
0.0
 10
111.9258468962047
 20
149.0787012618772
 30
0.0
 10
112.1796527600837
 20
149.0981567215567
 30
0.0
 10
112.6816545309993
 20
149.1224293611352
 30
0.0
 10
113.4299654384511
 20
149.146747904426
 30
0.0
 10
114.382989066481
 20
149.170215140024
 30
0.0
 10
115.5164416673118
 20
149.1926353999271
 30
0.0
 10
116.7975111106203
 20
149.2166581122011
 30
0.0
 10
118.193610054765
 20
149.2409617222024
 30
0.0
 10
119.6675014782746
 20
149.2652369640051
 30
0.0
 10
121.1725207940894
 20
149.2881080034931
 30
0.0
 10
122.6666445587456
 20
149.311010536835
 30
0.0
 10
124.1102342175636
 20
149.3351675907682
 30
0.0
 10
125.4852656833516
 20
149.3598850677909
 30
0.0
 10
126.7805452308859
 20
149.3849113509224
 30
0.0
 10
127.5031156509772
 20
149.4010395362936
 30
0.0
 10
127.8700736900529
 20
149.4092302497702
 30
0.0
  0
SPLINE
  5
1BB
330
1F
100
AcDbEntity
  8
0
  6
Continuous
 62
     7
370
    25
100
AcDbSpline
210
0.0
220
0.0
230
1.0
 70
    24
 71
     3
 72
    11
 73
     7
 74
     0
 42
0.00000001
 43
0.00000001
 40
0.0
 40
0.0
 40
0.0
 40
0.0
 40
0.32885975158502
 40
0.576873250531387
 40
0.8321686270520482
 40
1.0
 40
1.0
 40
1.0
 40
1.0
 10
127.8700736900529
 20
149.4092302497702
 30
0.0
 10
128.2427067279963
 20
149.4092302497702
 30
0.0
 10
128.8963654102087
 20
149.4092302497702
 30
0.0
 10
129.4702730683907
 20
149.4092302497702
 30
0.0
 10
129.7447026329049
 20
149.4092302497702
 30
0.0
 10
129.7712856801333
 20
149.4092302497702
 30
0.0
 10
129.7818297294496
 20
149.4092302497702
 30
0.0
  0
LWPOLYLINE
  5
1BC
330
1F
100
AcDbEntity
  8
0
  6
Continuous
 62
     7
370
    25
100
AcDbPolyline
 90
       17
 70
   128
 43
0.0
 10
112.5740174069
 20
148.7127558287
 10
112.5877964304
 20
148.7406255982
 10
113.08421348
 20
148.7943837725
 10
114.0330751362
 20
148.8486817931
 10
115.1037655356
 20
148.8910817641
 10
116.4033042127
 20
148.9338357187
 10
117.9000182691
 20
148.9787772858
 10
118.4131992971
 20
148.9933694429
 10
120.399975489
 20
149.0465726667
 10
122.3924638608
 20
149.0969449563
 10
124.3612876998
 20
149.1508828929
 10
126.1537471589
 20
149.2050523148
 10
127.6363783604
 20
149.2556039379
 10
128.7865062645
 20
149.3084244116
 10
129.5227733055
 20
149.363030364
 10
129.7818297294
 20
149.4092302498
 10
129.7818297294
 20
149.4092302498
  0
LINE
  5
1BD
330
1F
100
AcDbEntity
  8
0
  6
Continuous
 62
     7
370
    25
100
AcDbLine
 10
112.2532487827
 20
149.4092302498
 30
0.0
 11
127.8700736901
 21
149.4092302498
 31
0.0
  0
LINE
  5
1BE
330
1F
100
AcDbEntity
  8
0
  6
Continuous
 62
     7
370
    25
100
AcDbLine
 10
111.6532487827
 20
151.1592302498
 30
0.0
 11
111.6532487827
 21
150.9092302498
 31
0.0
  0
LINE
  5
1BF
330
1F
100
AcDbEntity
  8
0
  6
Continuous
 62
     7
370
    25
100
AcDbLine
 10
111.6532487827
 20
151.1592302498
 30
0.0
 11
112.9565111948
 21
151.1592302498
 31
0.0
  0
LINE
  5
1C0
330
1F
100
AcDbEntity
  8
0
  6
Continuous
 62
     7
370
    25
100
AcDbLine
 10
113.5634644599
 20
150.9092302498
 30
0.0
 11
111.6532487827
 21
150.9092302498
 31
0.0
  0
LINE
  5
1C1
330
1F
100
AcDbEntity
  8
0
  6
Continuous
 62
     7
370
    25
100
AcDbLine
 10
129.3499863706
 20
151.1592302498
 30
0.0
 11
130.6532487827
 21
151.1592302498
 31
0.0
  0
LINE
  5
1C2
330
1F
100
AcDbEntity
  8
0
  6
Continuous
 62
     7
370
    25
100
AcDbLine
 10
130.6532487827
 20
150.9092302498
 30
0.0
 11
130.6532487827
 21
151.1592302498
 31
0.0
  0
LINE
  5
1C3
330
1F
100
AcDbEntity
  8
0
  6
Continuous
 62
     7
370
    25
100
AcDbLine
 10
130.6532487827
 20
150.9092302498
 30
0.0
 11
128.7430331055
 21
150.9092302498
 31
0.0
  0
LINE
  5
1C4
330
1F
100
AcDbEntity
  8
0
  6
Continuous
 62
     7
370
    25
100
AcDbLine
 10
111.6532487827
 20
151.1592302498
 30
0.0
 11
111.6532487827
 21
153.7092302498
 31
0.0
  0
LINE
  5
1C5
330
1F
100
AcDbEntity
  8
0
  6
Continuous
 62
     7
370
    25
100
AcDbLine
 10
130.6532487827
 20
153.7092302498
 30
0.0
 11
130.6532487827
 21
151.1592302498
 31
0.0
  0
SPLINE
  5
1C6
330
1F
100
AcDbEntity
  8
0
  6
Continuous
 62
     7
370
    25
100
AcDbSpline
210
0.0
220
0.0
230
1.0
 70
    24
 71
     3
 72
    10
 73
     6
 74
     0
 42
0.00000001
 43
0.00000001
 40
0.0
 40
0.0
 40
0.0
 40
0.0
 40
0.4656580937850591
 40
0.9418807312929255
 40
1.0
 40
1.0
 40
1.0
 40
1.0
 10
104.9032487826961
 20
132.1447733421929
 30
0.0
 10
104.9032487826961
 20
131.8846048214453
 30
0.0
 10
104.903248782696
 20
131.3583652481367
 30
0.0
 10
104.9032487826961
 20
131.0410114840709
 30
0.0
 10
104.9032487826961
 20
131.1290934280197
 30
0.0
 10
104.9032487826961
 20
131.1386739196657
 30
0.0
  0
SPLINE
  5
1C7
330
1F
100
AcDbEntity
  8
0
  6
Continuous
 62
     7
370
    25
100
AcDbSpline
210
0.0
220
0.0
230
1.0
 70
     8
 71
     3
 72
     9
 73
     5
 74
     0
 42
0.00000001
 43
0.00000001
 40
0.0
 40
0.0
 40
0.0
 40
0.0
 40
0.5841917497409214
 40
1.0
 40
1.0
 40
1.0
 40
1.0
 10
105.4741149244283
 20
132.5592302497702
 30
0.0
 10
105.2830327023618
 20
132.5330622859496
 30
0.0
 10
104.955944512309
 20
132.4882688361409
 30
0.0
 10
104.9187249738557
 20
132.245654418627
 30
0.0
 10
104.9032487826961
 20
132.1447733421929
 30
0.0
  0
LINE
  5
1C8
330
1F
100
AcDbEntity
  8
0
  6
Continuous
 62
     7
370
    25
100
AcDbLine
 10
105.4741149244
 20
132.5592302498
 30
0.0
 11
106.2009417985
 21
132.5592302498
 31
0.0
  0
SPLINE
  5
1C9
330
1F
100
AcDbEntity
  8
0
  6
Continuous
 62
     7
370
    25
100
AcDbSpline
210
0.0
220
0.0
230
1.0
 70
     8
 71
     3
 72
     9
 73
     5
 74
     0
 42
0.00000001
 43
0.00000001
 40
0.0
 40
0.0
 40
0.0
 40
0.0
 40
0.585055383453613
 40
1.0
 40
1.0
 40
1.0
 40
1.0
 10
107.9247573307585
 20
132.1447733421929
 30
0.0
 10
107.5382108051947
 20
132.2813274762172
 30
0.0
 10
106.8775100638699
 20
132.5147312494091
 30
0.0
 10
106.3993512317442
 20
132.5461805371344
 30
0.0
 10
106.2009417984996
 20
132.5592302497702
 30
0.0
  0
SPLINE
  5
1CA
330
1F
100
AcDbEntity
  8
0
  6
Continuous
 62
     7
370
    25
100
AcDbSpline
210
0.0
220
0.0
230
1.0
 70
     8
 71
     3
 72
    11
 73
     7
 74
     0
 42
0.00000001
 43
0.00000001
 40
0.0
 40
0.0
 40
0.0
 40
0.0
 40
0.2328716322111448
 40
0.4710265024313182
 40
0.7311421212560264
 40
1.0
 40
1.0
 40
1.0
 40
1.0
 10
118.1317402346336
 20
132.1447733421929
 30
0.0
 10
117.3576378586401
 20
131.8743766075201
 30
0.0
 10
115.7918707824794
 20
131.3274485553893
 30
0.0
 10
113.2564318151846
 20
131.0262242374057
 30
0.0
 10
110.5829257347154
 20
131.2338760028154
 30
0.0
 10
108.8205224506202
 20
131.8378138345956
 30
0.0
 10
107.9247573307585
 20
132.1447733421929
 30
0.0
  0
SPLINE
  5
1CB
330
1F
100
AcDbEntity
  8
0
  6
Continuous
 62
     7
370
    25
100
AcDbSpline
210
0.0
220
0.0
230
1.0
 70
     8
 71
     3
 72
     9
 73
     5
 74
     0
 42
0.00000001
 43
0.00000001
 40
0.0
 40
0.0
 40
0.0
 40
0.0
 40
0.5841917497409225
 40
0.9999999999999999
 40
0.9999999999999999
 40
0.9999999999999999
 40
0.9999999999999999
 10
120.4264219086248
 20
132.5592302497703
 30
0.0
 10
119.9460637830586
 20
132.5330622859496
 30
0.0
 10
119.1238027261722
 20
132.4882688361409
 30
0.0
 10
118.4230987351077
 20
132.245654418627
 30
0.0
 10
118.1317402346336
 20
132.1447733421929
 30
0.0
  0
LINE
  5
1CC
330
1F
100
AcDbEntity
  8
0
  6
Continuous
 62
     7
370
    25
100
AcDbLine
 10
120.4264219086
 20
132.5592302498
 30
0.0
 11
121.8800756568
 21
132.5592302498
 31
0.0
  0
SPLINE
  5
1CD
330
1F
100
AcDbEntity
  8
0
  6
Continuous
 62
     7
370
    25
100
AcDbSpline
210
0.0
220
0.0
230
1.0
 70
     8
 71
     3
 72
     9
 73
     5
 74
     0
 42
0.00000001
 43
0.00000001
 40
0.0
 40
0.0
 40
0.0
 40
0.0
 40
0.5850553834536167
 40
1.0
 40
1.0
 40
1.0
 40
1.0
 10
124.1747573307585
 20
132.1447733421929
 30
0.0
 10
123.756512388156
 20
132.2813274762172
 30
0.0
 10
123.0416314479388
 20
132.5147312494091
 30
0.0
 10
122.220711832013
 20
132.5461805371344
 30
0.0
 10
121.8800756567673
 20
132.5592302497702
 30
0.0
  0
SPLINE
  5
1CE
330
1F
100
AcDbEntity
  8
0
  6
Continuous
 62
     7
370
    25
100
AcDbSpline
210
0.0
220
0.0
230
1.0
 70
     8
 71
     3
 72
    11
 73
     7
 74
     0
 42
0.00000001
 43
0.00000001
 40
0.0
 40
0.0
 40
0.0
 40
0.0
 40
0.2556279644381001
 40
0.5185037642963933
 40
0.7560467972580139
 40
1.0
 40
1.0
 40
1.0
 40
1.0
 10
134.3817402346336
 20
132.1447733421929
 30
0.0
 10
133.5307956616662
 20
131.8511473820909
 30
0.0
 10
131.804779631843
 20
131.2555702669553
 30
0.0
 10
129.1716971036457
 20
131.0236813053287
 30
0.0
 10
126.5879696834751
 20
131.3066517637895
 30
0.0
 10
124.9862692723807
 20
131.8629308973537
 30
0.0
 10
124.1747573307585
 20
132.1447733421929
 30
0.0
  0
SPLINE
  5
1CF
330
1F
100
AcDbEntity
  8
0
  6
Continuous
 62
     7
370
    25
100
AcDbSpline
210
0.0
220
0.0
230
1.0
 70
     8
 71
     3
 72
     9
 73
     5
 74
     0
 42
0.00000001
 43
0.00000001
 40
0.0
 40
0.0
 40
0.0
 40
0.0
 40
0.5841917497409229
 40
1.0
 40
1.0
 40
1.0
 40
1.0
 10
136.1055557668925
 20
132.5592302497702
 30
0.0
 10
135.8162798633928
 20
132.5330622859496
 30
0.0
 10
135.3211069965593
 20
132.4882688361409
 30
0.0
 10
134.657622543948
 20
132.245654418627
 30
0.0
 10
134.3817402346336
 20
132.1447733421929
 30
0.0
  0
LINE
  5
1D0
330
1F
100
AcDbEntity
  8
0
  6
Continuous
 62
     7
370
    25
100
AcDbLine
 10
136.1055557669
 20
132.5592302498
 30
0.0
 11
136.832382641
 21
132.5592302498
 31
0.0
  0
SPLINE
  5
1D1
330
1F
100
AcDbEntity
  8
0
  6
Continuous
 62
     7
370
    25
100
AcDbSpline
210
0.0
220
0.0
230
1.0
 70
     8
 71
     3
 72
     9
 73
     5
 74
     0
 42
0.00000001
 43
0.00000001
 40
0.0
 40
0.0
 40
0.0
 40
0.0
 40
0.5850553834536173
 40
0.9999999999999999
 40
0.9999999999999999
 40
0.9999999999999999
 40
0.9999999999999999
 10
137.403248782696
 20
132.1447733421929
 30
0.0
 10
137.3715503656574
 20
132.2813274762172
 30
0.0
 10
137.3173701667649
 20
132.5147312494091
 30
0.0
 10
136.9746093829648
 20
132.5461805371344
 30
0.0
 10
136.8323826409638
 20
132.5592302497702
 30
0.0
  0
SPLINE
  5
1D2
330
1F
100
AcDbEntity
  8
0
  6
Continuous
 62
     7
370
    25
100
AcDbSpline
210
0.0
220
0.0
230
1.0
 70
    24
 71
     3
 72
     9
 73
     5
 74
     0
 42
0.00000001
 43
0.00000001
 40
0.0
 40
0.0
 40
0.0
 40
0.0
 40
0.4621858742620172
 40
1.0
 40
1.0
 40
1.0
 40
1.0
 10
137.403248782696
 20
131.1386739196657
 30
0.0
 10
137.403248782696
 20
131.1694082580363
 30
0.0
 10
137.403248782696
 20
131.2359060462253
 30
0.0
 10
137.403248782696
 20
131.8269184974417
 30
0.0
 10
137.403248782696
 20
132.1447733421929
 30
0.0
  0
LINE
  5
1D3
330
1F
100
AcDbEntity
  8
0
  6
Continuous
 62
     7
370
    25
100
AcDbLine
 10
137.3532487827
 20
131.0592302498
 30
0.0
 11
104.9532487827
 21
131.0592302498
 31
0.0
  0
SPLINE
  5
1D4
330
1F
100
AcDbEntity
  8
0
  6
Continuous
 62
     7
370
    25
100
AcDbSpline
210
0.0
220
0.0
230
1.0
 70
     8
 71
     3
 72
     9
 73
     5
 74
     0
 42
0.00000001
 43
0.00000001
 40
0.0
 40
0.0
 40
0.0
 40
0.0
 40
0.5850553834534096
 40
1.0
 40
1.0
 40
1.0
 40
1.0
 10
134.3817402346322
 20
139.4236871573481
 30
0.0
 10
134.7682867601962
 20
139.2871330233237
 30
0.0
 10
135.4289875015215
 20
139.0537292501314
 30
0.0
 10
135.9071463336476
 20
139.0222799624061
 30
0.0
 10
136.1055557668925
 20
139.0092302497702
 30
0.0
  0
SPLINE
  5
1D5
330
1F
100
AcDbEntity
  8
0
  6
Continuous
 62
     7
370
    25
100
AcDbSpline
210
0.0
220
0.0
230
1.0
 70
     8
 71
     3
 72
    11
 73
     7
 74
     0
 42
0.00000001
 43
0.00000001
 40
0.0
 40
0.0
 40
0.0
 40
0.0
 40
0.2379053903768482
 40
0.4814905141303176
 40
0.7366519444348057
 40
1.0
 40
1.0
 40
1.0
 40
1.0
 10
124.1747573307582
 20
139.4236871573475
 30
0.0
 10
124.9658405520691
 20
139.6992725923205
 30
0.0
 10
126.5668932493009
 20
140.257022765874
 30
0.0
 10
129.1239650500847
 20
140.5435859905303
 30
0.0
 10
131.7776979159479
 20
140.3187055843323
 30
0.0
 10
133.5046373803495
 20
139.7251504674145
 30
0.0
 10
134.3817402346322
 20
139.4236871573481
 30
0.0
  0
SPLINE
  5
1D6
330
1F
100
AcDbEntity
  8
0
  6
Continuous
 62
     7
370
    25
100
AcDbSpline
210
0.0
220
0.0
230
1.0
 70
     8
 71
     3
 72
     9
 73
     5
 74
     0
 42
0.00000001
 43
0.00000001
 40
0.0
 40
0.0
 40
0.0
 40
0.0
 40
0.5841917497409942
 40
1.0
 40
1.0
 40
1.0
 40
1.0
 10
121.8800756567673
 20
139.0092302497702
 30
0.0
 10
122.3604337823335
 20
139.0353982135909
 30
0.0
 10
123.1826948392198
 20
139.0801916633995
 30
0.0
 10
123.8833988302842
 20
139.3228060809134
 30
0.0
 10
124.1747573307582
 20
139.4236871573475
 30
0.0
  0
LINE
  5
1D7
330
1F
100
AcDbEntity
  8
0
  6
Continuous
 62
     7
370
    25
100
AcDbLine
 10
121.8800756568
 20
139.0092302498
 30
0.0
 11
120.4264219086
 21
139.0092302498
 31
0.0
  0
SPLINE
  5
1D8
330
1F
100
AcDbEntity
  8
0
  6
Continuous
 62
     7
370
    25
100
AcDbSpline
210
0.0
220
0.0
230
1.0
 70
     8
 71
     3
 72
     9
 73
     5
 74
     0
 42
0.00000001
 43
0.00000001
 40
0.0
 40
0.0
 40
0.0
 40
0.0
 40
0.5850553834536182
 40
1.0
 40
1.0
 40
1.0
 40
1.0
 10
118.1317402346336
 20
139.4236871573476
 30
0.0
 10
118.5499851772361
 20
139.2871330233233
 30
0.0
 10
119.2648661174533
 20
139.0537292501313
 30
0.0
 10
120.0857857333791
 20
139.0222799624061
 30
0.0
 10
120.4264219086248
 20
139.0092302497702
 30
0.0
  0
SPLINE
  5
1D9
330
1F
100
AcDbEntity
  8
0
  6
Continuous
 62
     7
370
    25
100
AcDbSpline
210
0.0
220
0.0
230
1.0
 70
     8
 71
     3
 72
    11
 73
     7
 74
     0
 42
0.00000001
 43
0.00000001
 40
0.0
 40
0.0
 40
0.0
 40
0.0
 40
0.232871632211147
 40
0.4710265024313225
 40
0.7311421212560294
 40
1.0
 40
1.0
 40
1.0
 40
1.0
 10
107.9247573307585
 20
139.4236871573476
 30
0.0
 10
108.698859706752
 20
139.6940838920204
 30
0.0
 10
110.2646267829128
 20
140.2410119441512
 30
0.0
 10
112.8000657502075
 20
140.5422362621347
 30
0.0
 10
115.4735718306767
 20
140.3345844967251
 30
0.0
 10
117.235975114772
 20
139.7306466649448
 30
0.0
 10
118.1317402346336
 20
139.4236871573476
 30
0.0
  0
SPLINE
  5
1DA
330
1F
100
AcDbEntity
  8
0
  6
Continuous
 62
     7
370
    25
100
AcDbSpline
210
0.0
220
0.0
230
1.0
 70
     8
 71
     3
 72
     9
 73
     5
 74
     0
 42
0.00000001
 43
0.00000001
 40
0.0
 40
0.0
 40
0.0
 40
0.0
 40
0.584191749740925
 40
1.0
 40
1.0
 40
1.0
 40
1.0
 10
106.2009417984996
 20
139.0092302497702
 30
0.0
 10
106.4902177019993
 20
139.0353982135909
 30
0.0
 10
106.9853905688329
 20
139.0801916633995
 30
0.0
 10
107.6488750214441
 20
139.3228060809135
 30
0.0
 10
107.9247573307585
 20
139.4236871573476
 30
0.0
  0
LINE
  5
1DB
330
1F
100
AcDbEntity
  8
0
  6
Continuous
 62
     7
370
    25
100
AcDbLine
 10
106.2009417985
 20
139.0092302498
 30
0.0
 11
105.4741149244
 21
139.0092302498
 31
0.0
  0
SPLINE
  5
1DC
330
1F
100
AcDbEntity
  8
0
  6
Continuous
 62
     7
370
    25
100
AcDbSpline
210
0.0
220
0.0
230
1.0
 70
     8
 71
     3
 72
     9
 73
     5
 74
     0
 42
0.00000001
 43
0.00000001
 40
0.0
 40
0.0
 40
0.0
 40
0.0
 40
0.5850553834536165
 40
1.0
 40
1.0
 40
1.0
 40
1.0
 10
104.9032487826961
 20
139.4236871573476
 30
0.0
 10
104.9349471997347
 20
139.2871330233233
 30
0.0
 10
104.9891273986272
 20
139.0537292501313
 30
0.0
 10
105.3318881824273
 20
139.022279962406
 30
0.0
 10
105.4741149244283
 20
139.0092302497702
 30
0.0
  0
SPLINE
  5
1DD
330
1F
100
AcDbEntity
  8
0
  6
Continuous
 62
     7
370
    25
100
AcDbSpline
210
0.0
220
0.0
230
1.0
 70
    24
 71
     3
 72
     9
 73
     5
 74
     0
 42
0.00000001
 43
0.00000001
 40
0.0
 40
0.0
 40
0.0
 40
0.0
 40
0.4621858742620256
 40
1.0
 40
1.0
 40
1.0
 40
1.0
 10
104.9032487826961
 20
140.4297865798748
 30
0.0
 10
104.9032487826961
 20
140.3990522415041
 30
0.0
 10
104.9032487826961
 20
140.3325544533152
 30
0.0
 10
104.9032487826961
 20
139.7415420020988
 30
0.0
 10
104.9032487826961
 20
139.4236871573476
 30
0.0
  0
SPLINE
  5
1DE
330
1F
100
AcDbEntity
  8
0
  6
Continuous
 62
     7
370
    25
100
AcDbSpline
210
0.0
220
0.0
230
1.0
 70
    24
 71
     3
 72
    10
 73
     6
 74
     0
 42
0.00000001
 43
0.00000001
 40
0.0
 40
0.0
 40
0.0
 40
0.0
 40
0.465658093785067
 40
0.9418807312929462
 40
1.0
 40
1.0
 40
1.0
 40
1.0
 10
137.403248782696
 20
139.4236871573476
 30
0.0
 10
137.403248782696
 20
139.6838556780952
 30
0.0
 10
137.403248782696
 20
140.2100952514038
 30
0.0
 10
137.403248782696
 20
140.5274490154695
 30
0.0
 10
137.403248782696
 20
140.4393670715207
 30
0.0
 10
137.403248782696
 20
140.4297865798747
 30
0.0
  0
SPLINE
  5
1DF
330
1F
100
AcDbEntity
  8
0
  6
Continuous
 62
     7
370
    25
100
AcDbSpline
210
0.0
220
0.0
230
1.0
 70
     8
 71
     3
 72
     9
 73
     5
 74
     0
 42
0.00000001
 43
0.00000001
 40
0.0
 40
0.0
 40
0.0
 40
0.0
 40
0.5841917497409269
 40
1.0
 40
1.0
 40
1.0
 40
1.0
 10
136.8323826409638
 20
139.0092302497702
 30
0.0
 10
137.0234648630303
 20
139.0353982135909
 30
0.0
 10
137.3505530530831
 20
139.0801916633995
 30
0.0
 10
137.3877725915364
 20
139.3228060809135
 30
0.0
 10
137.403248782696
 20
139.4236871573476
 30
0.0
  0
LINE
  5
1E0
330
1F
100
AcDbEntity
  8
0
  6
Continuous
 62
     7
370
    25
100
AcDbLine
 10
136.832382641
 20
139.0092302498
 30
0.0
 11
136.1055557669
 21
139.0092302498
 31
0.0
  0
LINE
  5
1E1
330
1F
100
AcDbEntity
  8
0
  6
Continuous
 62
     7
370
    25
100
AcDbLine
 10
129.2532487827
 20
140.5092302498
 30
0.0
 11
137.3532487827
 21
140.5092302498
 31
0.0
  0
LINE
  5
1E2
330
1F
100
AcDbEntity
  8
0
  6
Continuous
 62
     7
370
    25
100
AcDbLine
 10
104.9532487827
 20
140.5092302498
 30
0.0
 11
129.2532487827
 21
140.5092302498
 31
0.0
  0
LINE
  5
1E3
330
1F
100
AcDbEntity
  8
0
  6
Continuous
 62
     7
370
    25
100
AcDbLine
 10
118.1317402346
 20
132.1447733422
 30
0.0
 11
118.1317402346
 21
139.4236871573
 31
0.0
  0
LINE
  5
1E4
330
1F
100
AcDbEntity
  8
0
  6
Continuous
 62
     7
370
    25
100
AcDbLine
 10
107.9247573308
 20
139.4236871573
 30
0.0
 11
107.9247573308
 21
132.1447733422
 31
0.0
  0
LINE
  5
1E5
330
1F
100
AcDbEntity
  8
0
  6
Continuous
 62
     7
370
    25
100
AcDbLine
 10
131.7282487827
 20
148.2592302498
 30
0.0
 11
110.5782487827
 21
148.2592302498
 31
0.0
  0
LINE
  5
1E6
330
1F
100
AcDbEntity
  8
0
  6
Continuous
 62
     7
370
    25
100
AcDbLine
 10
120.4264219086
 20
139.0092302498
 30
0.0
 11
120.4264219086
 21
132.5592302498
 31
0.0
  0
LINE
  5
1E7
330
1F
100
AcDbEntity
  8
0
  6
Continuous
 62
     7
370
    25
100
AcDbLine
 10
121.8800756568
 20
132.5592302498
 30
0.0
 11
121.8800756568
 21
139.0092302498
 31
0.0
  0
LINE
  5
1E8
330
1F
100
AcDbEntity
  8
0
  6
Continuous
 62
     7
370
    25
100
AcDbLine
 10
124.1747573308
 20
139.4236871573
 30
0.0
 11
124.1747573308
 21
132.1447733422
 31
0.0
  0
LINE
  5
1E9
330
1F
100
AcDbEntity
  8
0
  6
Continuous
 62
     7
370
    25
100
AcDbLine
 10
134.3817402346
 20
132.1447733422
 30
0.0
 11
134.3817402346
 21
139.4236871573
 31
0.0
  0
LINE
  5
1EA
330
1F
100
AcDbEntity
  8
0
  6
Continuous
 62
     7
370
    25
100
AcDbLine
 10
106.2009417985
 20
132.5592302498
 30
0.0
 11
106.2009417985
 21
139.0092302498
 31
0.0
  0
LINE
  5
1EB
330
1F
100
AcDbEntity
  8
0
  6
Continuous
 62
     7
370
    25
100
AcDbLine
 10
136.1055557669
 20
139.0092302498
 30
0.0
 11
136.1055557669
 21
132.5592302498
 31
0.0
  0
LINE
  5
1EC
330
1F
100
AcDbEntity
  8
0
  6
Continuous
 62
     7
370
    25
100
AcDbLine
 10
105.4741149244
 20
139.0092302498
 30
0.0
 11
105.4741149244
 21
132.5592302498
 31
0.0
  0
LINE
  5
1ED
330
1F
100
AcDbEntity
  8
0
  6
Continuous
 62
     7
370
    25
100
AcDbLine
 10
136.832382641
 20
132.5592302498
 30
0.0
 11
136.832382641
 21
139.0092302498
 31
0.0
  0
LINE
  5
1EE
330
1F
100
AcDbEntity
  8
0
  6
Continuous
 62
     7
370
    25
100
AcDbLine
 10
104.9032487827
 20
132.1447733422
 30
0.0
 11
104.9032487827
 21
139.4236871573
 31
0.0
  0
LINE
  5
1EF
330
1F
100
AcDbEntity
  8
0
  6
Continuous
 62
     7
370
    25
100
AcDbLine
 10
137.4032487827
 20
139.4236871573
 30
0.0
 11
137.4032487827
 21
132.1447733422
 31
0.0
  0
SPLINE
  5
1F0
330
1F
100
AcDbEntity
  8
0
  6
Continuous
 62
     8
370
    25
100
AcDbSpline
210
0.0
220
0.0
230
1.0
 70
     8
 71
     3
 72
    12
 73
     8
 74
     0
 42
0.00000001
 43
0.00000001
 40
0.0
 40
0.0
 40
0.0
 40
0.0
 40
0.1924082105681739
 40
0.4135492548068708
 40
0.6381901448204661
 40
0.8686791278218469
 40
1.0
 40
1.0
 40
1.0
 40
1.0
 10
104.9642961338724
 20
110.3996720373424
 30
0.0
 10
104.9778297731834
 20
110.349565053728
 30
0.0
 10
105.0069180664293
 20
110.2418684763671
 30
0.0
 10
105.338918257033
 20
109.8178199193546
 30
0.0
 10
105.8856376660799
 20
109.1678805996756
 30
0.0
 10
106.5177113061221
 20
108.4187172420795
 30
0.0
 10
106.9668257426779
 20
107.8472791936
 30
0.0
 10
107.1298342917044
 20
107.6398726184395
 30
0.0
  0
SPLINE
  5
1F1
330
1F
100
AcDbEntity
  8
0
  6
Continuous
 62
     8
370
    25
100
AcDbSpline
210
0.0
220
0.0
230
1.0
 70
     8
 71
     3
 72
    12
 73
     8
 74
     0
 42
0.00000001
 43
0.00000001
 40
0.0
 40
0.0
 40
0.0
 40
0.0
 40
0.2298983238880673
 40
0.4658043110208701
 40
0.6969655693638132
 40
0.9348948514667819
 40
1.0
 40
1.0
 40
1.0
 40
1.0
 10
135.1766632736877
 20
107.6398726184395
 30
0.0
 10
135.4586196335825
 20
107.9944966711909
 30
0.0
 10
136.0299003882119
 20
108.7130117511168
 30
0.0
 10
136.7027909633205
 20
109.4987143324958
 30
0.0
 10
137.17039306221
 20
110.0694316383729
 30
0.0
 10
137.3449035283385
 20
110.3289402783205
 30
0.0
 10
137.3486840382031
 20
110.3925213771069
 30
0.0
 10
137.3494962583054
 20
110.4061813987477
 30
0.0
  0
ARC
  5
1F2
330
1F
100
AcDbEntity
  8
0
  6
Continuous
 62
     8
370
    25
100
AcDbCircle
 10
121.1532487827
 20
96.4092302498
 30
0.0
 40
24.76305823079824
100
AcDbArc
 50
0.0
 51
49.140960131
  0
ARC
  5
1F3
330
1F
100
AcDbEntity
  8
0
  6
Continuous
 62
     8
370
    25
100
AcDbCircle
 10
121.1532487827
 20
96.4092302498
 30
0.0
 40
24.76305823079824
100
AcDbArc
 50
130.859039869
 51
0.0
  0
ELLIPSE
  5
1F4
330
1F
100
AcDbEntity
  8
0
  6
Continuous
 62
     8
370
    25
100
AcDbEllipse
 10
117.2757057565
 20
183.0127625304
 30
0.0
 11
0.2542594597913421
 21
14.49999320380851
 31
0.0
210
0.0
220
0.0
230
1.0
 40
0.0552146892
 41
3.116244259334506
 42
3.24351371300449
  0
ELLIPSE
  5
1F5
330
1F
100
AcDbEntity
  8
0
  6
Continuous
 62
     8
370
    25
100
AcDbEllipse
 10
116.3254222072
 20
132.8275041755
 30
0.0
 11
0.6260506459064601
 21
35.70262486333172
 31
0.0
210
0.0
220
0.0
230
1.0
 40
0.0552146892
 41
6.257836912924546
 42
6.450567654664643
  0
ELLIPSE
  5
1F6
330
1F
100
AcDbEntity
  8
0
  6
Continuous
 62
     8
370
    25
100
AcDbEllipse
 10
125.9810753582
 20
132.8275041755
 30
0.0
 11
-0.6260506459064317
 21
35.70262486333172
 31
0.0
210
0.0
220
0.0
230
1.0
 40
0.0552146892
 41
6.05826727412484
 42
6.308533701434891
  0
ELLIPSE
  5
1F7
330
1F
100
AcDbEntity
  8
0
  6
Continuous
 62
     8
370
    25
100
AcDbEllipse
 10
125.0307918089
 20
183.0127625304
 30
0.0
 11
-0.2542594597913279
 21
14.49999320380851
 31
0.0
210
0.0
220
0.0
230
1.0
 40
0.0552146892
 41
3.030376289773573
 42
3.166941047845349
  0
SPLINE
  5
1F8
330
1F
100
AcDbEntity
  8
0
  6
Continuous
 62
     8
370
    25
100
AcDbSpline
210
0.0
220
0.0
230
1.0
 70
     8
 71
     3
 72
    10
 73
     6
 74
     0
 42
0.00000001
 43
0.00000001
 40
0.0
 40
0.0
 40
0.0
 40
0.0
 40
0.3772819031208936
 40
0.9151906917959268
 40
1.0
 40
1.0
 40
1.0
 40
1.0
 10
124.0162649561961
 20
178.262417858358
 30
0.0
 10
124.3148251005781
 20
178.298231595749
 30
0.0
 10
125.0390566707103
 20
178.3851066852444
 30
0.0
 10
125.6272038161978
 20
178.3840410650515
 30
0.0
 10
125.9204171007267
 20
178.342411739723
 30
0.0
 10
125.9603504444688
 20
178.3367421529552
 30
0.0
  0
SPLINE
  5
1F9
330
1F
100
AcDbEntity
  8
0
  6
Continuous
 62
     8
370
    25
100
AcDbSpline
210
0.0
220
0.0
230
1.0
 70
     8
 71
     3
 72
    10
 73
     6
 74
     0
 42
0.00000001
 43
0.00000001
 40
0.0
 40
0.0
 40
0.0
 40
0.0
 40
0.4436764188045558
 40
0.721813466936019
 40
1.0
 40
1.0
 40
1.0
 40
1.0
 10
116.398180273862
 20
178.3459454152699
 30
0.0
 10
116.6295666426545
 20
178.3492162038251
 30
0.0
 10
117.006007197034
 20
178.3545374224578
 30
0.0
 10
117.6227243364644
 20
178.3683452394638
 30
0.0
 10
118.0677166576086
 20
178.2977290791602
 30
0.0
 10
118.2902326091942
 20
178.2624178583578
 30
0.0
  0
ARC
  5
1FA
330
1F
100
AcDbEntity
  8
0
  6
Continuous
 62
     8
370
    25
100
AcDbCircle
 10
124.8063308537
 20
168.5080871914
 30
0.0
 40
0.4990250118485224
100
AcDbArc
 50
295.6350507788
 51
1.1133356549
  0
ELLIPSE
  5
1FB
330
1F
100
AcDbEntity
  8
0
  6
Continuous
 62
     8
370
    25
100
AcDbEllipse
 10
124.5316287379
 20
183.0040363272
 30
0.0
 11
-0.2542085132690772
 21
14.99999386323822
 31
0.0
210
0.0
220
0.0
230
1.0
 40
0.0533752749
 41
2.501275951618343
 42
3.141375837250818
  0
ARC
  5
1FC
330
1F
100
AcDbEntity
  8
0
  6
Continuous
 62
     8
370
    25
100
AcDbCircle
 10
117.5001662848
 20
168.50808708
 30
0.0
 40
0.4990245872131562
100
AcDbArc
 50
178.886650611
 51
244.4027763153
  0
ELLIPSE
  5
1FD
330
1F
100
AcDbEntity
  8
0
  6
Continuous
 62
     8
370
    25
100
AcDbEllipse
 10
117.7748688275
 20
183.0040363272
 30
0.0
 11
0.2542085132690914
 21
14.99999386323822
 31
0.0
210
0.0
220
0.0
230
1.0
 40
0.0533752749
 41
3.142344280601848
 42
3.781909355561431
  0
ELLIPSE
  5
1FE
330
1F
100
AcDbEntity
  8
0
  6
Continuous
 62
     8
370
    25
100
AcDbEllipse
 10
125.4819122871
 20
132.8187779723
 30
0.0
 11
-0.6261054031505893
 21
35.20262413736901
 31
0.0
210
0.0
220
0.0
230
1.0
 40
0.0559984374
 41
5.826305424353229
 42
6.28243686413122
  0
ELLIPSE
  5
1FF
330
1F
100
AcDbEntity
  8
0
  6
Continuous
 62
     8
370
    25
100
AcDbEllipse
 10
116.8245852783
 20
132.8187779723
 30
0.0
 11
0.6261054031506035
 21
35.20262413736901
 31
0.0
210
0.0
220
0.0
230
1.0
 40
0.0559984374
 41
0.0003092589841187
 42
0.4568798828265548
  0
LINE
  5
200
330
1F
100
AcDbEntity
  8
0
  6
Continuous
 62
     8
370
    25
100
AcDbLine
 10
131.4819219109
 20
164.117956453
 30
0.0
 11
133.125062245
 21
164.117956453
 31
0.0
  0
LINE
  5
201
330
1F
100
AcDbEntity
  8
0
  6
Continuous
 62
     8
370
    25
100
AcDbLine
 10
109.1814353204
 20
164.117956453
 30
0.0
 11
110.8245756545
 21
164.117956453
 31
0.0
  0
LINE
  5
202
330
1F
100
AcDbEntity
  8
0
  6
Continuous
 62
     8
370
    25
100
AcDbLine
 10
109.8856774319
 20
168.1441350626
 30
0.0
 11
109.2517125294
 21
168.1441350626
 31
0.0
  0
LINE
  5
203
330
1F
100
AcDbEntity
  8
0
  6
Continuous
 62
     8
370
    25
100
AcDbLine
 10
133.054785036
 20
168.1441350626
 30
0.0
 11
131.4244754081
 21
168.1441350626
 31
0.0
  0
LINE
  5
204
330
1F
100
AcDbEntity
  8
0
  6
Continuous
 62
     8
370
    25
100
AcDbLine
 10
114.6028793376
 20
177.967956453
 30
0.0
 11
112.2538812809
 21
177.967956453
 31
0.0
  0
LINE
  5
205
330
1F
100
AcDbEntity
  8
0
  6
Continuous
 62
     8
370
    25
100
AcDbLine
 10
130.0526162845
 20
177.967956453
 30
0.0
 11
127.7036182278
 21
177.967956453
 31
0.0
  0
LINE
  5
206
330
1F
100
AcDbEntity
  8
0
  6
Continuous
 62
     8
370
    25
100
AcDbLine
 10
112.1775907385
 20
173.5972742069
 30
0.0
 11
114.1053562014
 21
173.5972742069
 31
0.0
  0
SPLINE
  5
207
330
1F
100
AcDbEntity
  8
0
  6
Continuous
 62
     8
370
    25
100
AcDbSpline
210
0.0
220
0.0
230
1.0
 70
     8
 71
     3
 72
    11
 73
     7
 74
     0
 42
0.00000001
 43
0.00000001
 40
0.0
 40
0.0
 40
0.0
 40
0.0
 40
0.055074914364229
 40
0.5120804733758308
 40
0.7548052699293218
 40
1.0
 40
1.0
 40
1.0
 40
1.0
 10
111.7728603815859
 20
171.9713180078544
 30
0.0
 10
111.739930248879
 20
171.923893876583
 30
0.0
 10
111.4337495105246
 20
171.4829495397421
 30
0.0
 10
111.319642981396
 20
170.9172358660875
 30
0.0
 10
111.1962612760771
 20
170.3520378884559
 30
0.0
 10
111.1924772045637
 20
170.2144186136397
 30
0.0
 10
111.1905755909929
 20
170.1452606498776
 30
0.0
  0
LWPOLYLINE
  5
208
330
1F
100
AcDbEntity
  8
0
  6
Continuous
 62
     8
370
    25
100
AcDbPolyline
 90
        3
 70
   128
 43
0.0
 10
111.190575591
 20
170.1452606499
 10
110.8441460134
 20
170.0776519645
 10
110.7303633807
 20
170.0401659372
  0
LINE
  5
209
330
1F
100
AcDbEntity
  8
0
  6
Continuous
 62
     8
370
    25
100
AcDbLine
 10
128.2159854228
 20
172.6638539931
 30
0.0
 11
130.1451997374
 21
172.663853993
 31
0.0
  0
SPLINE
  5
20A
330
1F
100
AcDbEntity
  8
0
  6
Continuous
 62
     8
370
    25
100
AcDbSpline
210
0.0
220
0.0
230
1.0
 70
     8
 71
     3
 72
    11
 73
     7
 74
     0
 42
0.00000001
 43
0.00000001
 40
0.0
 40
0.0
 40
0.0
 40
0.0
 40
0.2097989882688694
 40
0.4220394943726251
 40
0.7982319142245893
 40
1.0
 40
1.0
 40
1.0
 40
1.0
 10
130.8363744682696
 20
170.1092302497702
 30
0.0
 10
130.8539231115514
 20
170.127282672941
 30
0.0
 10
130.8892246189549
 20
170.1635976028178
 30
0.0
 10
130.8781049888408
 20
170.4596195999798
 30
0.0
 10
130.8097279459621
 20
170.8703973706524
 30
0.0
 10
130.5675602034104
 20
171.2409054874961
 30
0.0
 10
130.4830185757811
 20
171.3702512001736
 30
0.0
  0
LINE
  5
20B
330
1F
100
AcDbEntity
  8
0
  6
Continuous
 62
     8
370
    25
100
AcDbLine
 10
127.0783765539
 20
180.0642352393
 30
0.0
 11
115.2281210115
 21
180.0642352393
 31
0.0
  0
ENDSEC
  0
SECTION
  2
OBJECTS
  0
DICTIONARY
  5
C
330
0
100
AcDbDictionary
281
     1
  3
ACAD_GROUP
350
D
  3
ACAD_LAYOUT
350
1A
  3
ACAD_MLINESTYLE
350
17
  3
ACAD_PLOTSETTINGS
350
19
  3
ACAD_PLOTSTYLENAME
350
E
  3
ACAD_SCALELIST
350
47
  3
DWGPROPS
350
20C
  0
DICTIONARY
  5
D
102
{ACAD_REACTORS
330
C
102
}
330
C
100
AcDbDictionary
281
     1
  0
DICTIONARY
  5
1A
102
{ACAD_REACTORS
330
C
102
}
330
C
100
AcDbDictionary
281
     1
  3
Layout1
350
1E
  3
Layout2
350
26
  3
Model
350
22
  0
DICTIONARY
  5
17
102
{ACAD_REACTORS
330
C
102
}
330
C
100
AcDbDictionary
281
     1
  3
Standard
350
18
  0
DICTIONARY
  5
19
102
{ACAD_REACTORS
330
C
102
}
330
C
100
AcDbDictionary
281
     1
  0
ACDBDICTIONARYWDFLT
  5
E
102
{ACAD_REACTORS
330
C
102
}
330
C
100
AcDbDictionary
281
     1
  3
Normal
350
F
100
AcDbDictionaryWithDefault
340
F
  0
DICTIONARY
  5
47
102
{ACAD_REACTORS
330
C
102
}
330
C
100
AcDbDictionary
281
     1
  3
A0
350
48
  3
A1
350
49
  3
A2
350
4A
  3
A3
350
4B
  3
A4
350
4C
  3
A5
350
4D
  3
A6
350
4E
  3
A7
350
4F
  3
A8
350
50
  3
A9
350
51
  3
B0
350
52
  3
B1
350
53
  3
B2
350
54
  3
B3
350
55
  3
B4
350
56
  3
B5
350
57
  3
B6
350
58
  3
B7
350
59
  3
B8
350
5A
  3
B9
350
5B
  3
C0
350
5C
  3
C1
350
5D
  3
C2
350
5E
  3
C3
350
5F
  3
C4
350
60
  3
C5
350
61
  3
C6
350
62
  3
C7
350
63
  3
C8
350
64
  3
C9
350
65
  3
D0
350
66
  3
D1
350
67
  3
D2
350
68
  0
XRECORD
  5
20C
102
{ACAD_REACTORS
330
C
102
}
330
C
100
AcDbXrecord
280
     1
  1
DWGPROPS COOKIE
  2

  3

  4

  6

  7

  8
DS-1
  9

300
=
301
=
302
=
303
=
304
=
305
=
306
=
307
=
308
=
309
=
 40
0.0
 41
2460384.167383125
 42
2460384.167383657
  1

 90
        0
  0
LAYOUT
  5
1E
102
{ACAD_REACTORS
330
1A
102
}
330
1A
100
AcDbPlotSettings
  1

  2
none_device
  4

  6

 40
0.0
 41
0.0
 42
0.0
 43
0.0
 44
0.0
 45
0.0
 46
0.0
 47
0.0
 48
0.0
 49
0.0
140
0.0
141
0.0
142
1.0
143
1.0
 70
   688
 72
     1
 73
     0
 74
     5
  7

 75
    16
147
1.0
148
0.0
149
0.0
100
AcDbLayout
  1
Layout1
 70
     1
 71
     1
 10
0.0
 20
0.0
 11
420.0
 21
297.0
 12
0.0
 22
0.0
 32
0.0
 14
1.0000000000E+20
 24
1.0000000000E+20
 34
1.0000000000E+20
 15
-1.0000000000E+20
 25
-1.0000000000E+20
 35
-1.0000000000E+20
146
0.0
 13
0.0
 23
0.0
 33
0.0
 16
1.0
 26
0.0
 36
0.0
 17
0.0
 27
1.0
 37
0.0
 76
     0
330
1B
  0
LAYOUT
  5
26
102
{ACAD_REACTORS
330
1A
102
}
330
1A
100
AcDbPlotSettings
  1

  2
none_device
  4

  6

 40
0.0
 41
0.0
 42
0.0
 43
0.0
 44
0.0
 45
0.0
 46
0.0
 47
0.0
 48
0.0
 49
0.0
140
0.0
141
0.0
142
1.0
143
1.0
 70
   688
 72
     1
 73
     0
 74
     5
  7

 75
    16
147
1.0
148
0.0
149
0.0
100
AcDbLayout
  1
Layout2
 70
     1
 71
     2
 10
0.0
 20
0.0
 11
0.0
 21
0.0
 12
0.0
 22
0.0
 32
0.0
 14
0.0
 24
0.0
 34
0.0
 15
0.0
 25
0.0
 35
0.0
146
0.0
 13
0.0
 23
0.0
 33
0.0
 16
1.0
 26
0.0
 36
0.0
 17
0.0
 27
1.0
 37
0.0
 76
     0
330
23
  0
LAYOUT
  5
22
102
{ACAD_REACTORS
330
1A
102
}
330
1A
100
AcDbPlotSettings
  1

  2
none_device
  4
Letter_(8.50_x_11.00_Inches)
  6

 40
6.35
 41
6.35
 42
6.35000508
 43
6.35000508
 44
215.9
 45
279.4
 46
0.0
 47
0.0
 48
0.0
 49
0.0
140
0.0
141
0.0
142
1.0
143
1.0
 70
  1712
 72
     1
 73
     0
 74
     0
  7

 75
     0
147
1.0
148
0.0
149
0.0
100
AcDbLayout
  1
Model
 70
     1
 71
     0
 10
0.0
 20
0.0
 11
279.4
 21
215.9
 12
0.0
 22
0.0
 32
0.0
 14
0.0
 24
0.0
 34
0.0
 15
279.4
 25
215.9
 35
0.0
146
0.0
 13
0.0
 23
0.0
 33
0.0
 16
1.0
 26
0.0
 36
0.0
 17
0.0
 27
1.0
 37
0.0
 76
     0
330
1F
331
29
  0
MLINESTYLE
  5
18
102
{ACAD_REACTORS
330
17
102
}
330
17
100
AcDbMlineStyle
  2
Standard
 70
     0
  3

 62
   256
 51
90.0
 52
90.0
 71
     2
 49
0.5
 62
   256
  6
BYLAYER
 49
-0.5
 62
   256
  6
BYLAYER
  0
ACDBPLACEHOLDER
  5
F
102
{ACAD_REACTORS
330
E
102
}
330
E
  0
SCALE
  5
48
102
{ACAD_REACTORS
330
47
102
}
330
47
100
AcDbScale
 70
     0
300
1:1
140
1.0
141
1.0
290
     1
  0
SCALE
  5
49
102
{ACAD_REACTORS
330
47
102
}
330
47
100
AcDbScale
 70
     0
300
1:2
140
1.0
141
2.0
290
     0
  0
SCALE
  5
4A
102
{ACAD_REACTORS
330
47
102
}
330
47
100
AcDbScale
 70
     0
300
1:4
140
1.0
141
4.0
290
     0
  0
SCALE
  5
4B
102
{ACAD_REACTORS
330
47
102
}
330
47
100
AcDbScale
 70
     0
300
1:5
140
1.0
141
5.0
290
     0
  0
SCALE
  5
4C
102
{ACAD_REACTORS
330
47
102
}
330
47
100
AcDbScale
 70
     0
300
1:8
140
1.0
141
8.0
290
     0
  0
SCALE
  5
4D
102
{ACAD_REACTORS
330
47
102
}
330
47
100
AcDbScale
 70
     0
300
1:10
140
1.0
141
10.0
290
     0
  0
SCALE
  5
4E
102
{ACAD_REACTORS
330
47
102
}
330
47
100
AcDbScale
 70
     0
300
1:16
140
1.0
141
16.0
290
     0
  0
SCALE
  5
4F
102
{ACAD_REACTORS
330
47
102
}
330
47
100
AcDbScale
 70
     0
300
1:20
140
1.0
141
20.0
290
     0
  0
SCALE
  5
50
102
{ACAD_REACTORS
330
47
102
}
330
47
100
AcDbScale
 70
     0
300
1:30
140
1.0
141
30.0
290
     0
  0
SCALE
  5
51
102
{ACAD_REACTORS
330
47
102
}
330
47
100
AcDbScale
 70
     0
300
1:40
140
1.0
141
40.0
290
     0
  0
SCALE
  5
52
102
{ACAD_REACTORS
330
47
102
}
330
47
100
AcDbScale
 70
     0
300
1:50
140
1.0
141
50.0
290
     0
  0
SCALE
  5
53
102
{ACAD_REACTORS
330
47
102
}
330
47
100
AcDbScale
 70
     0
300
1:100
140
1.0
141
100.0
290
     0
  0
SCALE
  5
54
102
{ACAD_REACTORS
330
47
102
}
330
47
100
AcDbScale
 70
     0
300
2:1
140
2.0
141
1.0
290
     0
  0
SCALE
  5
55
102
{ACAD_REACTORS
330
47
102
}
330
47
100
AcDbScale
 70
     0
300
4:1
140
4.0
141
1.0
290
     0
  0
SCALE
  5
56
102
{ACAD_REACTORS
330
47
102
}
330
47
100
AcDbScale
 70
     0
300
8:1
140
8.0
141
1.0
290
     0
  0
SCALE
  5
57
102
{ACAD_REACTORS
330
47
102
}
330
47
100
AcDbScale
 70
     0
300
10:1
140
10.0
141
1.0
290
     0
  0
SCALE
  5
58
102
{ACAD_REACTORS
330
47
102
}
330
47
100
AcDbScale
 70
     0
300
100:1
140
100.0
141
1.0
290
     0
  0
SCALE
  5
59
102
{ACAD_REACTORS
330
47
102
}
330
47
100
AcDbScale
 70
     0
300
1/128" = 1'-0"
140
0.0078125
141
12.0
290
     0
  0
SCALE
  5
5A
102
{ACAD_REACTORS
330
47
102
}
330
47
100
AcDbScale
 70
     0
300
1/64" = 1'-0"
140
0.015625
141
12.0
290
     0
  0
SCALE
  5
5B
102
{ACAD_REACTORS
330
47
102
}
330
47
100
AcDbScale
 70
     0
300
1/32" = 1'-0"
140
0.03125
141
12.0
290
     0
  0
SCALE
  5
5C
102
{ACAD_REACTORS
330
47
102
}
330
47
100
AcDbScale
 70
     0
300
1/16" = 1'-0"
140
0.0625
141
12.0
290
     0
  0
SCALE
  5
5D
102
{ACAD_REACTORS
330
47
102
}
330
47
100
AcDbScale
 70
     0
300
3/32" = 1'-0"
140
0.09375
141
12.0
290
     0
  0
SCALE
  5
5E
102
{ACAD_REACTORS
330
47
102
}
330
47
100
AcDbScale
 70
     0
300
1/8" = 1'-0"
140
0.125
141
12.0
290
     0
  0
SCALE
  5
5F
102
{ACAD_REACTORS
330
47
102
}
330
47
100
AcDbScale
 70
     0
300
3/16" = 1'-0"
140
0.1875
141
12.0
290
     0
  0
SCALE
  5
60
102
{ACAD_REACTORS
330
47
102
}
330
47
100
AcDbScale
 70
     0
300
1/4" = 1'-0"
140
0.25
141
12.0
290
     0
  0
SCALE
  5
61
102
{ACAD_REACTORS
330
47
102
}
330
47
100
AcDbScale
 70
     0
300
3/8" = 1'-0"
140
0.375
141
12.0
290
     0
  0
SCALE
  5
62
102
{ACAD_REACTORS
330
47
102
}
330
47
100
AcDbScale
 70
     0
300
1/2" = 1'-0"
140
0.5
141
12.0
290
     0
  0
SCALE
  5
63
102
{ACAD_REACTORS
330
47
102
}
330
47
100
AcDbScale
 70
     0
300
3/4" = 1'-0"
140
0.75
141
12.0
290
     0
  0
SCALE
  5
64
102
{ACAD_REACTORS
330
47
102
}
330
47
100
AcDbScale
 70
     0
300
1" = 1'-0"
140
1.0
141
12.0
290
     0
  0
SCALE
  5
65
102
{ACAD_REACTORS
330
47
102
}
330
47
100
AcDbScale
 70
     0
300
1-1/2" = 1'-0"
140
1.5
141
12.0
290
     0
  0
SCALE
  5
66
102
{ACAD_REACTORS
330
47
102
}
330
47
100
AcDbScale
 70
     0
300
3" = 1'-0"
140
3.0
141
12.0
290
     0
  0
SCALE
  5
67
102
{ACAD_REACTORS
330
47
102
}
330
47
100
AcDbScale
 70
     0
300
6" = 1'-0"
140
6.0
141
12.0
290
     0
  0
SCALE
  5
68
102
{ACAD_REACTORS
330
47
102
}
330
47
100
AcDbScale
 70
     0
300
1'-0" = 1'-0"
140
12.0
141
12.0
290
     0
  0
ENDSEC
  0
EOF
