  0
SECTION
  2
HEADER
  9
$ACADVER
  1
AC1015
  9
$ACADMAINTVER
 70
     6
  9
$DWGCODEPAGE
  3
ANSI_1252
  9
$INSBASE
 10
0.0
 20
0.0
 30
0.0
  9
$EXTMIN
 10
0.0
 20
0.0
 30
0.0
  9
$EXTMAX
 10
279.4
 20
215.9
 30
0.0
  9
$LIMMIN
 10
0.0
 20
0.0
  9
$LIMMAX
 10
279.4
 20
215.9
  9
$ORTHOMODE
 70
     0
  9
$REGENMODE
 70
     1
  9
$FILLMODE
 70
     1
  9
$QTEXTMODE
 70
     0
  9
$MIRRTEXT
 70
     1
  9
$LTSCALE
 40
1.0
  9
$ATTMODE
 70
     1
  9
$TEXTSIZE
 40
3.5
  9
$TRACEWID
 40
1.0
  9
$TEXTSTYLE
  7
Standard
  9
$CLAYER
  8
0
  9
$CELTYPE
  6
ByLayer
  9
$CECOLOR
 62
   256
  9
$CELTSCALE
 40
1.0
  9
$DISPSILH
 70
     0
  9
$DIMSCALE
 40
1.0
  9
$DIMASZ
 40
3.556
  9
$DIMEXO
 40
1.0
  9
$DIMDLI
 40
3.75
  9
$DIMRND
 40
0.0
  9
$DIMDLE
 40
0.0
  9
$DIMEXE
 40
1.0
  9
$DIMTP
 40
0.0
  9
$DIMTM
 40
0.0
  9
$DIMTXT
 40
3.5
  9
$DIMCEN
 40
2.5
  9
$DIMTSZ
 40
0.0
  9
$DIMTOL
 70
     0
  9
$DIMLIM
 70
     0
  9
$DIMTIH
 70
     1
  9
$DIMTOH
 70
     1
  9
$DIMSE1
 70
     0
  9
$DIMSE2
 70
     0
  9
$DIMTAD
 70
     1
  9
$DIMZIN
 70
     1
  9
$DIMBLK
  1

  9
$DIMASO
 70
     1
  9
$DIMSHO
 70
     1
  9
$DIMPOST
  1

  9
$DIMAPOST
  1

  9
$DIMALT
 70
     0
  9
$DIMALTD
 70
     3
  9
$DIMALTF
 40
0.0393700787
  9
$DIMLFAC
 40
5.0
  9
$DIMTOFL
 70
     1
  9
$DIMTVP
 40
0.0
  9
$DIMTIX
 70
     0
  9
$DIMSOXD
 70
     0
  9
$DIMSAH
 70
     0
  9
$DIMBLK1
  1

  9
$DIMBLK2
  1

  9
$DIMSTYLE
  2
ISO-25
  9
$DIMCLRD
 70
     0
  9
$DIMCLRE
 70
     0
  9
$DIMCLRT
 70
     0
  9
$DIMTFAC
 40
1.0
  9
$DIMGAP
 40
1.524
  9
$DIMJUST
 70
     0
  9
$DIMSD1
 70
     0
  9
$DIMSD2
 70
     0
  9
$DIMTOLJ
 70
     0
  9
$DIMTZIN
 70
     1
  9
$DIMALTZ
 70
     0
  9
$DIMALTTZ
 70
     0
  9
$DIMUPT
 70
     0
  9
$DIMDEC
 70
     2
  9
$DIMTDEC
 70
     2
  9
$DIMALTU
 70
     2
  9
$DIMALTTD
 70
     3
  9
$DIMTXSTY
  7
Standard
  9
$DIMAUNIT
 70
     0
  9
$DIMADEC
 70
     2
  9
$DIMALTRND
 40
0.0
  9
$DIMAZIN
 70
     0
  9
$DIMDSEP
 70
    44
  9
$DIMATFIT
 70
     3
  9
$DIMFRAC
 70
     0
  9
$DIMLDRBLK
  1

  9
$DIMLUNIT
 70
     2
  9
$DIMLWD
 70
    -2
  9
$DIMLWE
 70
    -2
  9
$DIMTMOVE
 70
     0
  9
$LUNITS
 70
     2
  9
$LUPREC
 70
     2
  9
$SKETCHINC
 40
1.0
  9
$FILLETRAD
 40
10.0
  9
$AUNITS
 70
     0
  9
$AUPREC
 70
     2
  9
$MENU
  1
.
  9
$ELEVATION
 40
0.0
  9
$PELEVATION
 40
0.0
  9
$THICKNESS
 40
0.0
  9
$LIMCHECK
 70
     0
  9
$CHAMFERA
 40
0.0
  9
$CHAMFERB
 40
0.0
  9
$CHAMFERC
 40
0.0
  9
$CHAMFERD
 40
0.0
  9
$SKPOLY
 70
     0
  9
$TDCREATE
 40
2460383.666276968
  9
$TDUCREATE
 40
2460383.437110301
  9
$TDUPDATE
 40
2460383.666277523
  9
$TDUUPDATE
 40
2460383.437110857
  9
$TDINDWG
 40
0.0000000116
  9
$TDUSRTIMER
 40
0.0000000116
  9
$USRTIMER
 70
     1
  9
$ANGBASE
 50
0.0
  9
$ANGDIR
 70
     0
  9
$PDMODE
 70
     0
  9
$PDSIZE
 40
-1.0
  9
$PLINEWID
 40
0.0
  9
$SPLFRAME
 70
     0
  9
$SPLINETYPE
 70
     6
  9
$SPLINESEGS
 70
     8
  9
$HANDSEED
  5
36C
  9
$SURFTAB1
 70
     6
  9
$SURFTAB2
 70
     6
  9
$SURFTYPE
 70
     6
  9
$SURFU
 70
     6
  9
$SURFV
 70
     6
  9
$UCSBASE
  2

  9
$UCSNAME
  2

  9
$UCSORG
 10
0.0
 20
0.0
 30
0.0
  9
$UCSXDIR
 10
1.0
 20
0.0
 30
0.0
  9
$UCSYDIR
 10
0.0
 20
1.0
 30
0.0
  9
$UCSORTHOREF
  2

  9
$UCSORTHOVIEW
 70
     0
  9
$UCSORGTOP
 10
0.0
 20
0.0
 30
0.0
  9
$UCSORGBOTTOM
 10
0.0
 20
0.0
 30
0.0
  9
$UCSORGLEFT
 10
0.0
 20
0.0
 30
0.0
  9
$UCSORGRIGHT
 10
0.0
 20
0.0
 30
0.0
  9
$UCSORGFRONT
 10
0.0
 20
0.0
 30
0.0
  9
$UCSORGBACK
 10
0.0
 20
0.0
 30
0.0
  9
$PUCSBASE
  2

  9
$PUCSNAME
  2

  9
$PUCSORG
 10
0.0
 20
0.0
 30
0.0
  9
$PUCSXDIR
 10
1.0
 20
0.0
 30
0.0
  9
$PUCSYDIR
 10
0.0
 20
1.0
 30
0.0
  9
$PUCSORTHOREF
  2

  9
$PUCSORTHOVIEW
 70
     0
  9
$PUCSORGTOP
 10
0.0
 20
0.0
 30
0.0
  9
$PUCSORGBOTTOM
 10
0.0
 20
0.0
 30
0.0
  9
$PUCSORGLEFT
 10
0.0
 20
0.0
 30
0.0
  9
$PUCSORGRIGHT
 10
0.0
 20
0.0
 30
0.0
  9
$PUCSORGFRONT
 10
0.0
 20
0.0
 30
0.0
  9
$PUCSORGBACK
 10
0.0
 20
0.0
 30
0.0
  9
$USERI1
 70
     0
  9
$USERI2
 70
     0
  9
$USERI3
 70
     0
  9
$USERI4
 70
     0
  9
$USERI5
 70
     0
  9
$USERR1
 40
0.0
  9
$USERR2
 40
0.0
  9
$USERR3
 40
0.0
  9
$USERR4
 40
0.0
  9
$USERR5
 40
0.0
  9
$WORLDVIEW
 70
     1
  9
$SHADEDGE
 70
     3
  9
$SHADEDIF
 70
    70
  9
$TILEMODE
 70
     1
  9
$MAXACTVP
 70
    64
  9
$PINSBASE
 10
0.0
 20
0.0
 30
0.0
  9
$PLIMCHECK
 70
     0
  9
$PEXTMIN
 10
1.0000000000E+20
 20
1.0000000000E+20
 30
1.0000000000E+20
  9
$PEXTMAX
 10
-1.0000000000E+20
 20
-1.0000000000E+20
 30
-1.0000000000E+20
  9
$PLIMMIN
 10
0.0
 20
0.0
  9
$PLIMMAX
 10
420.0
 20
297.0
  9
$UNITMODE
 70
     0
  9
$VISRETAIN
 70
     1
  9
$PLINEGEN
 70
     0
  9
$PSLTSCALE
 70
     1
  9
$TREEDEPTH
 70
  3020
  9
$CMLSTYLE
  2
Standard
  9
$CMLJUST
 70
     0
  9
$CMLSCALE
 40
20.0
  9
$PROXYGRAPHICS
 70
     1
  9
$MEASUREMENT
 70
     1
  9
$CELWEIGHT
370
    -1
  9
$ENDCAPS
280
     0
  9
$JOINSTYLE
280
     0
  9
$LWDISPLAY
290
     1
  9
$INSUNITS
 70
     4
  9
$HYPERLINKBASE
  1

  9
$STYLESHEET
  1

  9
$XEDIT
290
     1
  9
$CEPSNTYPE
380
     0
  9
$PSTYLEMODE
290
     1
  9
$FINGERPRINTGUID
  2
{e686c2b3-1118-4caf-9eff-88957b7d022c}
  9
$VERSIONGUID
  2
{FAEB1C32-E019-11D5-929B-00C0DF256EC4}
  9
$EXTNAMES
290
     1
  9
$PSVPSCALE
 40
0.0
  9
$OLESTARTUP
290
     0
  0
ENDSEC
  0
SECTION
  2
CLASSES
  0
CLASS
  1
ACDBDICTIONARYWDFLT
  2
AcDbDictionaryWithDefault
  3
ObjectDBX Classes
 90
        0
280
     0
281
     0
  0
CLASS
  1
VISUALSTYLE
  2
AcDbVisualStyle
  3
ObjectDBX Classes
 90
     4095
280
     0
281
     0
  0
CLASS
  1
MATERIAL
  2
AcDbMaterial
  3
ObjectDBX Classes
 90
     1153
280
     0
281
     0
  0
CLASS
  1
SCALE
  2
AcDbScale
  3
ObjectDBX Classes
 90
     1153
280
     0
281
     0
  0
CLASS
  1
TABLESTYLE
  2
AcDbTableStyle
  3
ObjectDBX Classes
 90
     4095
280
     0
281
     0
  0
CLASS
  1
MLEADERSTYLE
  2
AcDbMLeaderStyle
  3
ACDB_MLEADERSTYLE_CLASS
 90
     4095
280
     0
281
     0
  0
CLASS
  1
SUN
  2
AcDbSun
  3
SCENEOE
 90
     1153
280
     0
281
     0
  0
CLASS
  1
ACDBPLACEHOLDER
  2
AcDbPlaceHolder
  3
ObjectDBX Classes
 90
        0
280
     0
281
     0
  0
CLASS
  1
LAYOUT
  2
AcDbLayout
  3
ObjectDBX Classes
 90
        0
280
     0
281
     0
  0
ENDSEC
  0
SECTION
  2
TABLES
  0
TABLE
  2
VPORT
  5
8
330
0
100
AcDbSymbolTable
 70
     1
  0
VPORT
  5
29
330
8
100
AcDbSymbolTableRecord
100
AcDbViewportTableRecord
  2
*Active
 70
     0
 10
0.0
 20
0.0
 11
1.0
 21
1.0
 12
139.7
 22
107.95
 13
0.0
 23
0.0
 14
10.0
 24
10.0
 15
10.0
 25
10.0
 16
0.0
 26
0.0
 36
1.0
 17
0.0
 27
0.0
 37
0.0
 40
215.9
 41
1.2941176471
 42
50.0
 43
0.0
 44
0.0
 50
0.0
 51
0.0
 71
     0
 72
  2000
 73
     1
 74
     3
 75
     0
 76
     0
 77
     0
 78
     0
281
     0
 65
     1
110
0.0
120
0.0
130
0.0
111
1.0
121
0.0
131
0.0
112
0.0
122
1.0
132
0.0
 79
     0
146
0.0
  0
ENDTAB
  0
TABLE
  2
LTYPE
  5
5
330
0
100
AcDbSymbolTable
 70
     6
  0
LTYPE
  5
14
330
5
100
AcDbSymbolTableRecord
100
AcDbLinetypeTableRecord
  2
ByBlock
 70
     0
  3

 72
    65
 73
     0
 40
0.0
  0
LTYPE
  5
15
330
5
100
AcDbSymbolTableRecord
100
AcDbLinetypeTableRecord
  2
ByLayer
 70
     0
  3

 72
    65
 73
     0
 40
0.0
  0
LTYPE
  5
16
330
5
100
AcDbSymbolTableRecord
100
AcDbLinetypeTableRecord
  2
Continuous
 70
     0
  3
Solid line
 72
    65
 73
     0
 40
0.0
  0
LTYPE
  5
6E
330
5
100
AcDbSymbolTableRecord
100
AcDbLinetypeTableRecord
  2
HIDDEN
 70
     0
  3
Hidden __ __ __ __ __ __ __ __ __ __ __ __ __ __
 72
    65
 73
     2
 40
1.905
 49
1.27
 74
     0
 49
-0.635
 74
     0
  0
LTYPE
  5
6F
330
5
100
AcDbSymbolTableRecord
100
AcDbLinetypeTableRecord
  2
PHANTOM
 70
     0
  3
Phantom ______  __  __  ______  __  __  ______
 72
    65
 73
     6
 40
12.7
 49
6.35
 74
     0
 49
-1.27
 74
     0
 49
1.27
 74
     0
 49
-1.27
 74
     0
 49
1.27
 74
     0
 49
-1.27
 74
     0
  0
LTYPE
  5
70
330
5
100
AcDbSymbolTableRecord
100
AcDbLinetypeTableRecord
  2
CENTER
 70
     0
  3
Center ____ _ ____ _ ____ _ ____ _ ____ _ ____
 72
    65
 73
     4
 40
10.16
 49
6.35
 74
     0
 49
-1.27
 74
     0
 49
1.27
 74
     0
 49
-1.27
 74
     0
  0
LTYPE
  5
71
330
5
100
AcDbSymbolTableRecord
100
AcDbLinetypeTableRecord
  2
CENTERX2
 70
     0
  3
Center (2x) ________  __  ________  __  _____
 72
    65
 73
     4
 40
20.32
 49
12.7
 74
     0
 49
-2.54
 74
     0
 49
2.54
 74
     0
 49
-2.54
 74
     0
  0
LTYPE
  5
72
330
5
100
AcDbSymbolTableRecord
100
AcDbLinetypeTableRecord
  2
DOT2
 70
     0
  3
Dot (.5x) ........................................
 72
    65
 73
     2
 40
0.635
 49
0.0
 74
     0
 49
-0.635
 74
     0
  0
ENDTAB
  0
TABLE
  2
LAYER
  5
2
330
0
100
AcDbSymbolTable
 70
     1
  0
LAYER
  5
10
330
2
100
AcDbSymbolTableRecord
100
AcDbLayerTableRecord
  2
0
 70
     0
 62
     7
  6
Continuous
370
    -3
390
F
  0
ENDTAB
  0
TABLE
  2
STYLE
  5
3
330
0
100
AcDbSymbolTable
 70
     1
  0
STYLE
  5
11
330
3
100
AcDbSymbolTableRecord
100
AcDbTextStyleTableRecord
  2
Standard
 70
     0
 40
0.0
 41
1.0
 50
0.0
 71
     0
 42
3.5
  3
txt
  4

  0
ENDTAB
  0
TABLE
  2
VIEW
  5
6
330
0
100
AcDbSymbolTable
 70
     0
  0
ENDTAB
  0
TABLE
  2
UCS
  5
7
330
0
100
AcDbSymbolTable
 70
     0
  0
ENDTAB
  0
TABLE
  2
APPID
  5
9
330
0
100
AcDbSymbolTable
 70
     1
  0
APPID
  5
12
330
9
100
AcDbSymbolTableRecord
100
AcDbRegAppTableRecord
  2
ACAD
 70
     0
  0
ENDTAB
  0
TABLE
  2
DIMSTYLE
  5
A
330
0
100
AcDbSymbolTable
 70
     1
100
AcDbDimStyleTable
  0
DIMSTYLE
105
27
330
A
100
AcDbSymbolTableRecord
100
AcDbDimStyleTableRecord
  2
ISO-25
 70
     0
 41
2.5
 42
0.625
 43
3.75
 44
1.25
 73
     0
 74
     0
 77
     1
 78
     8
140
2.5
141
2.5
143
0.0393700787
147
0.625
171
     3
172
     1
178
     0
271
     2
272
     2
274
     3
278
    44
283
     0
284
     8
340
11
  0
ENDTAB
  0
TABLE
  2
BLOCK_RECORD
  5
1
330
0
100
AcDbSymbolTable
 70
     1
  0
BLOCK_RECORD
  5
1F
330
1
100
AcDbSymbolTableRecord
100
AcDbBlockTableRecord
  2
*Model_Space
340
22
  0
BLOCK_RECORD
  5
1B
330
1
100
AcDbSymbolTableRecord
100
AcDbBlockTableRecord
  2
*Paper_Space
340
1E
  0
BLOCK_RECORD
  5
23
330
1
100
AcDbSymbolTableRecord
100
AcDbBlockTableRecord
  2
*Paper_Space0
340
26
  0
ENDTAB
  0
ENDSEC
  0
SECTION
  2
BLOCKS
  0
BLOCK
  5
20
330
1F
100
AcDbEntity
  8
0
100
AcDbBlockBegin
  2
*Model_Space
 70
     0
 10
0.0
 20
0.0
 30
0.0
  3
*Model_Space
  1

  0
ENDBLK
  5
21
330
1F
100
AcDbEntity
  8
0
100
AcDbBlockEnd
  0
BLOCK
  5
1C
330
1B
100
AcDbEntity
 67
     1
  8
0
100
AcDbBlockBegin
  2
*Paper_Space
 70
     0
 10
0.0
 20
0.0
 30
0.0
  3
*Paper_Space
  1

  0
ENDBLK
  5
1D
330
1B
100
AcDbEntity
 67
     1
  8
0
100
AcDbBlockEnd
  0
BLOCK
  5
24
330
23
100
AcDbEntity
  8
0
100
AcDbBlockBegin
  2
*Paper_Space0
 70
     0
 10
0.0
 20
0.0
 30
0.0
  3
*Paper_Space0
  1

  0
ENDBLK
  5
25
330
23
100
AcDbEntity
  8
0
100
AcDbBlockEnd
  0
ENDSEC
  0
SECTION
  2
ENTITIES
  0
LINE
  5
73
330
1F
100
AcDbEntity
  8
0
  6
Continuous
 62
     7
370
    25
100
AcDbLine
 10
248.0682244898
 20
183.3617871759
 30
0.0
 11
245.2682244898
 21
184.9783679296
 31
0.0
  0
LINE
  5
74
330
1F
100
AcDbEntity
  8
0
  6
Continuous
 62
     7
370
    25
100
AcDbLine
 10
210.6682244898
 20
184.9783679296
 30
0.0
 11
207.8682244898
 21
183.3617871759
 31
0.0
  0
LINE
  5
75
330
1F
100
AcDbEntity
  8
0
  6
Continuous
 62
     7
370
    25
100
AcDbLine
 10
207.8682244898
 20
170.6949486834
 30
0.0
 11
210.6682244898
 21
169.0783679296
 31
0.0
  0
LINE
  5
76
330
1F
100
AcDbEntity
  8
0
  6
Continuous
 62
     7
370
    25
100
AcDbLine
 10
245.2682244898
 20
169.0783679296
 30
0.0
 11
248.0682244898
 21
170.6949486834
 31
0.0
  0
LINE
  5
77
330
1F
100
AcDbEntity
  8
0
  6
Continuous
 62
     7
370
    25
100
AcDbLine
 10
2.8682244898
 20
170.6949486834
 30
0.0
 11
5.6682244898
 21
169.0783679296
 31
0.0
  0
LINE
  5
78
330
1F
100
AcDbEntity
  8
0
  6
Continuous
 62
     7
370
    25
100
AcDbLine
 10
40.2682244898
 20
169.0783679296
 30
0.0
 11
43.0682244898
 21
170.6949486834
 31
0.0
  0
LINE
  5
79
330
1F
100
AcDbEntity
  8
0
  6
Continuous
 62
     7
370
    25
100
AcDbLine
 10
43.0682244898
 20
183.3617871759
 30
0.0
 11
40.2682244898
 21
184.9783679296
 31
0.0
  0
LINE
  5
7A
330
1F
100
AcDbEntity
  8
0
  6
Continuous
 62
     7
370
    25
100
AcDbLine
 10
5.6682244898
 20
184.9783679296
 30
0.0
 11
2.8682244898
 21
183.3617871759
 31
0.0
  0
ARC
  5
7B
330
1F
100
AcDbEntity
  8
0
  6
Continuous
 62
     7
370
    25
100
AcDbCircle
 10
202.6682244898
 20
208.6783679296
 30
0.0
 40
0.5
100
AcDbArc
 50
90.0
 51
180.0
  0
ARC
  5
7C
330
1F
100
AcDbEntity
  8
0
  6
Continuous
 62
     7
370
    25
100
AcDbCircle
 10
253.2682244898
 20
208.6783679296
 30
0.0
 40
0.5000000000000568
100
AcDbArc
 50
0.0
 51
90.0
  0
ARC
  5
7D
330
1F
100
AcDbEntity
  8
0
  6
Continuous
 62
     7
370
    25
100
AcDbCircle
 10
252.7682244898
 20
206.1783679296
 30
0.0
 40
1.0
100
AcDbArc
 50
270.0
 51
0.0
  0
ARC
  5
7E
330
1F
100
AcDbEntity
  8
0
  6
Continuous
 62
     7
370
    25
100
AcDbCircle
 10
203.1682244898
 20
206.1783679296
 30
0.0
 40
1.0
100
AcDbArc
 50
180.0
 51
270.0
  0
LINE
  5
7F
330
1F
100
AcDbEntity
  8
0
  6
Continuous
 62
     7
370
    25
100
AcDbLine
 10
202.1682244898
 20
208.6783679296
 30
0.0
 11
202.1682244898
 21
206.1783679296
 31
0.0
  0
LINE
  5
80
330
1F
100
AcDbEntity
  8
0
  6
Continuous
 62
     7
370
    25
100
AcDbLine
 10
253.7682244898
 20
206.1783679296
 30
0.0
 11
253.7682244898
 21
208.6783679296
 31
0.0
  0
LINE
  5
81
330
1F
100
AcDbEntity
  8
0
  6
Continuous
 62
     7
370
    25
100
AcDbLine
 10
212.2653876065
 20
190.288241284
 30
0.0
 11
214.1710613731
 21
189.8934945752
 31
0.0
  0
LINE
  5
82
330
1F
100
AcDbEntity
  8
0
  6
Continuous
 62
     7
370
    25
100
AcDbLine
 10
241.7653876065
 20
189.8934945752
 30
0.0
 11
243.6710613731
 21
190.288241284
 31
0.0
  0
ARC
  5
83
330
1F
100
AcDbEntity
  8
0
  6
Continuous
 62
     7
370
    25
100
AcDbCircle
 10
213.9682244898
 20
188.9142820351
 30
0.0
 40
1.0
100
AcDbArc
 50
0.0
 51
78.2970985198
  0
ARC
  5
84
330
1F
100
AcDbEntity
  8
0
  6
Continuous
 62
     7
370
    25
100
AcDbCircle
 10
241.9682244898
 20
188.9142820351
 30
0.0
 40
1.0
100
AcDbArc
 50
101.7029014802
 51
180.0
  0
LINE
  5
85
330
1F
100
AcDbEntity
  8
0
  6
Continuous
 62
     7
370
    25
100
AcDbLine
 10
214.9682244898
 20
188.9142820351
 30
0.0
 11
214.9682244898
 21
184.9783679296
 31
0.0
  0
LINE
  5
86
330
1F
100
AcDbEntity
  8
0
  6
Continuous
 62
     7
370
    25
100
AcDbLine
 10
240.9682244898
 20
184.9783679296
 30
0.0
 11
240.9682244898
 21
188.9142820351
 31
0.0
  0
ARC
  5
87
330
1F
100
AcDbEntity
  8
0
  6
Continuous
 62
     7
370
    25
100
AcDbCircle
 10
212.4682244898
 20
191.2674538242
 30
0.0
 40
1.000000000000013
100
AcDbArc
 50
180.0
 51
258.3071308719
  0
ARC
  5
88
330
1F
100
AcDbEntity
  8
0
  6
Continuous
 62
     7
370
    25
100
AcDbCircle
 10
243.4682244898
 20
191.2674538242
 30
0.0
 40
1.000000000000013
100
AcDbArc
 50
281.7165811692
 51
0.0
  0
ARC
  5
89
330
1F
100
AcDbEntity
  8
0
  6
Continuous
 62
     7
370
    25
100
AcDbCircle
 10
-2.3317755102
 20
208.6783679296
 30
0.0
 40
0.5
100
AcDbArc
 50
90.0
 51
180.0
  0
ARC
  5
8A
330
1F
100
AcDbEntity
  8
0
  6
Continuous
 62
     7
370
    25
100
AcDbCircle
 10
48.2682244898
 20
208.6783679296
 30
0.0
 40
0.5
100
AcDbArc
 50
0.0
 51
90.0
  0
LINE
  5
8B
330
1F
100
AcDbEntity
  8
0
  6
Continuous
 62
     7
370
    25
100
AcDbLine
 10
-2.8317755102
 20
208.6783679296
 30
0.0
 11
-2.8317755102
 21
206.1783679296
 31
0.0
  0
LINE
  5
8C
330
1F
100
AcDbEntity
  8
0
  6
Continuous
 62
     7
370
    25
100
AcDbLine
 10
48.7682244898
 20
206.1783679296
 30
0.0
 11
48.7682244898
 21
208.6783679296
 31
0.0
  0
ARC
  5
8D
330
1F
100
AcDbEntity
  8
0
  6
Continuous
 62
     7
370
    25
100
AcDbCircle
 10
47.7682244898
 20
206.1783679296
 30
0.0
 40
1.0
100
AcDbArc
 50
270.0
 51
0.0
  0
ARC
  5
8E
330
1F
100
AcDbEntity
  8
0
  6
Continuous
 62
     7
370
    25
100
AcDbCircle
 10
-1.8317755102
 20
206.1783679296
 30
0.0
 40
1.000000000000001
100
AcDbArc
 50
180.0
 51
270.0
  0
LINE
  5
8F
330
1F
100
AcDbEntity
  8
0
  6
Continuous
 62
     7
370
    25
100
AcDbLine
 10
7.2653876065
 20
190.288241284
 30
0.0
 11
9.1710613731
 21
189.8934945752
 31
0.0
  0
LINE
  5
90
330
1F
100
AcDbEntity
  8
0
  6
Continuous
 62
     7
370
    25
100
AcDbLine
 10
36.7653876065
 20
189.8934945752
 30
0.0
 11
38.6710613731
 21
190.288241284
 31
0.0
  0
ARC
  5
91
330
1F
100
AcDbEntity
  8
0
  6
Continuous
 62
     7
370
    25
100
AcDbCircle
 10
8.9682244898
 20
188.9142820351
 30
0.0
 40
1.0
100
AcDbArc
 50
0.0
 51
78.2970985198
  0
ARC
  5
92
330
1F
100
AcDbEntity
  8
0
  6
Continuous
 62
     7
370
    25
100
AcDbCircle
 10
36.9682244898
 20
188.9142820351
 30
0.0
 40
1.0
100
AcDbArc
 50
101.7029014802
 51
180.0
  0
LINE
  5
93
330
1F
100
AcDbEntity
  8
0
  6
Continuous
 62
     7
370
    25
100
AcDbLine
 10
9.9682244898
 20
188.9142820351
 30
0.0
 11
9.9682244898
 21
184.9783679296
 31
0.0
  0
LINE
  5
94
330
1F
100
AcDbEntity
  8
0
  6
Continuous
 62
     7
370
    25
100
AcDbLine
 10
35.9682244898
 20
184.9783679296
 30
0.0
 11
35.9682244898
 21
188.9142820351
 31
0.0
  0
ARC
  5
95
330
1F
100
AcDbEntity
  8
0
  6
Continuous
 62
     7
370
    25
100
AcDbCircle
 10
38.4682244898
 20
191.2674538242
 30
0.0
 40
1.0
100
AcDbArc
 50
281.7165811692
 51
0.0
  0
ARC
  5
96
330
1F
100
AcDbEntity
  8
0
  6
Continuous
 62
     7
370
    25
100
AcDbCircle
 10
7.4682244898
 20
191.2674538242
 30
0.0
 40
1.000000000000006
100
AcDbArc
 50
180.0
 51
258.3071308719
  0
SPLINE
  5
97
330
1F
100
AcDbEntity
  8
0
  6
Continuous
 62
     7
370
    25
100
AcDbSpline
210
0.0
220
0.0
230
1.0
 70
     8
 71
     3
 72
    17
 73
    13
 74
     0
 42
0.00000001
 43
0.00000001
 40
0.0
 40
0.0
 40
0.0
 40
0.0
 40
0.0758638560574038
 40
0.1944512688327572
 40
0.2935017512999625
 40
0.3774713485266745
 40
0.4456791619301756
 40
0.4955544323599035
 40
0.5407951418500359
 40
0.6072804462002959
 40
0.7683374253552987
 40
1.0
 40
1.0
 40
1.0
 40
1.0
 10
-34.45236494775403
 20
143.6635069364561
 30
0.0
 10
-34.45018013021051
 20
143.6318736118066
 30
0.0
 10
-34.44458009133056
 20
143.5507923112353
 30
0.0
 10
-34.38270125194911
 20
143.4414334214793
 30
0.0
 10
-34.29985295569526
 20
143.3478418099153
 30
0.0
 10
-34.2145943718298
 20
143.288570710992
 30
0.0
 10
-34.1412125337289
 20
143.2555106935957
 30
0.0
 10
-34.08935959512954
 20
143.2397669983889
 30
0.0
 10
-34.05254794802964
 20
143.2313935570377
 30
0.0
 10
-34.00901035074796
 20
143.2239174282896
 30
0.0
 10
-33.9578918730688
 20
143.2170233748282
 30
0.0
 10
-33.86735171820055
 20
143.209565615924
 30
0.0
 10
-33.81394270104685
 20
143.2051663350323
 30
0.0
  0
SPLINE
  5
98
330
1F
100
AcDbEntity
  8
0
  6
Continuous
 62
     7
370
    25
100
AcDbSpline
210
0.0
220
0.0
230
1.0
 70
     8
 71
     3
 72
    17
 73
    13
 74
     0
 42
0.00000001
 43
0.00000001
 40
0.0
 40
0.0
 40
0.0
 40
0.0
 40
0.167118617241693
 40
0.4636760807227361
 40
0.5849232052480482
 40
0.6274220697414155
 40
0.6628640065761371
 40
0.715737679638898
 40
0.7809525427187044
 40
0.8632301617523919
 40
0.9536469871410553
 40
1.0
 40
1.0
 40
1.0
 40
1.0
 10
-33.44931722887734
 20
149.7896836911645
 30
0.0
 10
-33.52976228559268
 20
149.7839499981089
 30
0.0
 10
-33.75295973197495
 20
149.7680416788087
 30
0.0
 10
-33.93396614404537
 20
149.7512622335018
 30
0.0
 10
-34.01732259795148
 20
149.7412527602758
 30
0.0
 10
-34.07760119922914
 20
149.7293592667794
 30
0.0
 10
-34.14168794302241
 20
149.710756643154
 30
0.0
 10
-34.2304349406169
 20
149.6696631504293
 30
0.0
 10
-34.3336211553722
 20
149.5890444596171
 30
0.0
 10
-34.42287179033082
 20
149.4610380653186
 30
0.0
 10
-34.4712427380337
 20
149.3204446783529
 30
0.0
 10
-34.4594847600461
 20
149.2315264637136
 30
0.0
 10
-34.45549983389692
 20
149.2013909660091
 30
0.0
  0
LINE
  5
99
330
1F
100
AcDbEntity
  8
0
  6
Continuous
 62
     7
370
    25
100
AcDbLine
 10
-29.965996538
 20
150.0318512195
 30
0.0
 11
-33.4493172289
 21
149.7896836912
 31
0.0
  0
LINE
  5
9A
330
1F
100
AcDbEntity
  8
0
  6
Continuous
 62
     7
370
    25
100
AcDbLine
 10
-33.4493172289
 20
143.1762095905
 30
0.0
 11
-29.965996538
 21
142.9340420621
 31
0.0
  0
ARC
  5
9B
330
1F
100
AcDbEntity
  8
0
  6
Continuous
 62
     7
370
    25
100
AcDbCircle
 10
14.8592092846
 20
149.4548411166
 30
0.0
 40
8.99999513892301
100
AcDbArc
 50
77.1419190681
 51
90.0
  0
ARC
  5
9C
330
1F
100
AcDbEntity
  8
0
  6
Continuous
 62
     7
370
    25
100
AcDbCircle
 10
14.8592092846
 20
149.4548411166
 30
0.0
 40
8.999995138923016
100
AcDbArc
 50
90.0
 51
125.1719294169
  0
SPLINE
  5
9D
330
1F
100
AcDbEntity
  8
0
  6
Continuous
 62
     7
370
    25
100
AcDbSpline
210
0.0
220
0.0
230
1.0
 70
     8
 71
     3
 72
    17
 73
    13
 74
     0
 42
0.00000001
 43
0.00000001
 40
0.0
 40
0.0
 40
0.0
 40
0.0
 40
0.167118617241693
 40
0.4636760807227361
 40
0.5849232052480482
 40
0.6274220697414155
 40
0.6628640065761371
 40
0.715737679638898
 40
0.7809525427187044
 40
0.8632301617523919
 40
0.9536469871410553
 40
1.0
 40
1.0
 40
1.0
 40
1.0
 10
284.3857662084692
 20
143.4216308793015
 30
0.0
 10
284.4662112651845
 20
143.427364572357
 30
0.0
 10
284.6894087115668
 20
143.4432728916572
 30
0.0
 10
284.8704151236372
 20
143.4600523369641
 30
0.0
 10
284.9537715775433
 20
143.4700618101901
 30
0.0
 10
285.014050178821
 20
143.4819553036866
 30
0.0
 10
285.0781369226142
 20
143.500557927312
 30
0.0
 10
285.1668839202087
 20
143.5416514200367
 30
0.0
 10
285.270070134964
 20
143.6222701108489
 30
0.0
 10
285.3593207699226
 20
143.7502765051474
 30
0.0
 10
285.4076917176255
 20
143.8908698921131
 30
0.0
 10
285.3959337396379
 20
143.9797881067524
 30
0.0
 10
285.3919488134887
 20
144.0099236044569
 30
0.0
  0
SPLINE
  5
9E
330
1F
100
AcDbEntity
  8
0
  6
Continuous
 62
     7
370
    25
100
AcDbSpline
210
0.0
220
0.0
230
1.0
 70
     8
 71
     3
 72
    17
 73
    13
 74
     0
 42
0.00000001
 43
0.00000001
 40
0.0
 40
0.0
 40
0.0
 40
0.0
 40
0.0758638560574038
 40
0.1944512688327572
 40
0.2935017512999625
 40
0.3774713485266745
 40
0.4456791619301756
 40
0.4955544323599035
 40
0.5407951418500359
 40
0.6072804462002959
 40
0.7683374253552987
 40
1.0
 40
1.0
 40
1.0
 40
1.0
 10
285.3888139273458
 20
149.5478076340099
 30
0.0
 10
285.3866291098024
 20
149.5794409586594
 30
0.0
 10
285.3810290709224
 20
149.6605222592307
 30
0.0
 10
285.319150231541
 20
149.7698811489867
 30
0.0
 10
285.2363019352871
 20
149.8634727605507
 30
0.0
 10
285.1510433514216
 20
149.922743859474
 30
0.0
 10
285.0776615133207
 20
149.9558038768704
 30
0.0
 10
285.0258085747214
 20
149.9715475720771
 30
0.0
 10
284.9889969276215
 20
149.9799210134283
 30
0.0
 10
284.9454593303398
 20
149.9873971421764
 30
0.0
 10
284.8943408526606
 20
149.9942911956377
 30
0.0
 10
284.8038006977924
 20
150.001748954542
 30
0.0
 10
284.7503916806386
 20
150.0061482354337
 30
0.0
  0
LINE
  5
9F
330
1F
100
AcDbEntity
  8
0
  6
Continuous
 62
     7
370
    25
100
AcDbLine
 10
284.3857662085
 20
150.03510498
 30
0.0
 11
280.9024455176
 21
150.2772725084
 31
0.0
  0
LINE
  5
A0
330
1F
100
AcDbEntity
  8
0
  6
Continuous
 62
     7
370
    25
100
AcDbLine
 10
280.9024455176
 20
143.1794633509
 30
0.0
 11
284.3857662085
 21
143.4216308793
 31
0.0
  0
ARC
  5
A1
330
1F
100
AcDbEntity
  8
0
  6
Continuous
 62
     7
370
    25
100
AcDbCircle
 10
236.077239695
 20
143.7564734538
 30
0.0
 40
8.999995138923026
100
AcDbArc
 50
257.1419190681
 51
270.0
  0
ARC
  5
A2
330
1F
100
AcDbEntity
  8
0
  6
Continuous
 62
     7
370
    25
100
AcDbCircle
 10
236.077239695
 20
143.7564734538
 30
0.0
 40
8.999995138923028
100
AcDbArc
 50
270.0
 51
305.1719294169
  0
LINE
  5
A3
330
1F
100
AcDbEntity
  8
0
  6
Continuous
 62
     7
370
    25
100
AcDbLine
 10
117.8305711008
 20
157.7048293611
 30
0.0
 11
117.1191022219
 21
157.4783679296
 31
0.0
  0
LINE
  5
A4
330
1F
100
AcDbEntity
  8
0
  6
Continuous
 62
     7
370
    25
100
AcDbLine
 10
118.4305337175
 20
157.8957982102
 30
0.0
 11
118.3150999738
 21
157.8590555056
 31
0.0
  0
LINE
  5
A5
330
1F
100
AcDbEntity
  8
0
  6
Continuous
 62
     7
370
    25
100
AcDbLine
 10
132.6213490057
 20
157.8590555056
 30
0.0
 11
132.5059152621
 21
157.8957982102
 31
0.0
  0
LINE
  5
A6
330
1F
100
AcDbEntity
  8
0
  6
Continuous
 62
     7
370
    25
100
AcDbLine
 10
133.8173467577
 20
157.4783679296
 30
0.0
 11
133.1058778788
 21
157.7048293611
 31
0.0
  0
SPLINE
  5
A7
330
1F
100
AcDbEntity
  8
0
  6
Continuous
 62
     7
370
    25
100
AcDbSpline
210
0.0
220
0.0
230
1.0
 70
     8
 71
     3
 72
    10
 73
     6
 74
     0
 42
0.00000001
 43
0.00000001
 40
0.0
 40
0.0
 40
0.0
 40
0.0
 40
0.4337223872793796
 40
0.8861468431131873
 40
1.0
 40
1.0
 40
1.0
 40
1.0
 10
133.1613150681992
 20
157.592656448643
 30
0.0
 10
133.0418256243747
 20
157.6327704825665
 30
0.0
 10
132.7976943631441
 20
157.7147282637841
 30
0.0
 10
132.7370266686819
 20
157.7489441881209
 30
0.0
 10
132.7538559372901
 20
157.7399632488262
 30
0.0
 10
132.7572395521746
 20
157.7381575827226
 30
0.0
  0
LINE
  5
A8
330
1F
100
AcDbEntity
  8
0
  6
Continuous
 62
     7
370
    25
100
AcDbLine
 10
133.015293977
 20
157.589838476
 30
0.0
 11
132.5479595828
 21
157.8403712976
 31
0.0
  0
LWPOLYLINE
  5
A9
330
1F
100
AcDbEntity
  8
0
  6
Continuous
 62
     7
370
    25
100
AcDbPolyline
 90
       10
 70
   128
 43
0.0
 10
118.4516901617
 20
157.8907218123
 10
118.2071424059
 20
157.759247862
 10
117.9333265462
 20
157.5972854784
 10
117.9241631815
 20
157.5916809805
 10
117.9217321216
 20
157.5901920617
 10
117.9214277456
 20
157.5900055844
 10
117.9212754867
 20
157.5899122974
 10
117.9211993558
 20
157.5898656517
 10
117.9211612902
 20
157.5898423284
 10
117.9211602717
 20
157.5898417044
  0
LINE
  5
AA
330
1F
100
AcDbEntity
  8
0
  6
Continuous
 62
     7
370
    25
100
AcDbLine
 10
5.4682244898
 20
164.5783679296
 30
0.0
 11
5.4682244898
 21
154.3120259108
 31
0.0
  0
LINE
  5
AB
330
1F
100
AcDbEntity
  8
0
  6
Continuous
 62
     7
370
    25
100
AcDbLine
 10
40.4682244898
 20
162.8571337057
 30
0.0
 11
40.4682244898
 21
164.5783679296
 31
0.0
  0
LINE
  5
AC
330
1F
100
AcDbEntity
  8
0
  6
Continuous
 62
     7
370
    25
100
AcDbLine
 10
210.4682244898
 20
164.5783679296
 30
0.0
 11
210.4682244898
 21
162.8571337057
 31
0.0
  0
LINE
  5
AD
330
1F
100
AcDbEntity
  8
0
  6
Continuous
 62
     7
370
    25
100
AcDbLine
 10
245.4682244898
 20
154.5574471996
 30
0.0
 11
245.4682244898
 21
164.5783679296
 31
0.0
  0
SPLINE
  5
AE
330
1F
100
AcDbEntity
  8
0
  6
Continuous
 62
     7
370
    25
100
AcDbSpline
210
0.0
220
0.0
230
1.0
 70
     8
 71
     3
 72
     9
 73
     5
 74
     0
 42
0.00000001
 43
0.00000001
 40
0.0
 40
0.0
 40
0.0
 40
0.0
 40
0.4987463974916292
 40
1.0
 40
1.0
 40
1.0
 40
1.0
 10
242.7014756376099
 20
167.6527787590207
 30
0.0
 10
242.8774397594755
 20
167.7544342592968
 30
0.0
 10
243.2302525772733
 20
167.9582562834505
 30
0.0
 10
243.5829395818838
 20
168.1620176222036
 30
0.0
 10
243.7597252135027
 20
168.2641537273055
 30
0.0
  0
SPLINE
  5
AF
330
1F
100
AcDbEntity
  8
0
  6
Continuous
 62
     7
370
    25
100
AcDbSpline
210
0.0
220
0.0
230
1.0
 70
     8
 71
     3
 72
     9
 73
     5
 74
     0
 42
0.00000001
 43
0.00000001
 40
0.0
 40
0.0
 40
0.0
 40
0.0
 40
0.3237592092526426
 40
1.0
 40
1.0
 40
1.0
 40
1.0
 10
212.4583552767782
 20
169.0783679296472
 30
0.0
 10
212.5411634272724
 20
169.0305261999856
 30
0.0
 10
212.7969342227515
 20
168.8827567210203
 30
0.0
 10
213.0527780796878
 20
168.7349560238006
 30
0.0
 10
213.2257901318103
 20
168.6350071634398
 30
0.0
  0
SPLINE
  5
B0
330
1F
100
AcDbEntity
  8
0
  6
Continuous
 62
     7
370
    25
100
AcDbSpline
210
0.0
220
0.0
230
1.0
 70
     8
 71
     3
 72
     9
 73
     5
 74
     0
 42
0.00000001
 43
0.00000001
 40
0.0
 40
0.0
 40
0.0
 40
0.0
 40
0.5056457376285837
 40
1.0
 40
1.0
 40
1.0
 40
1.0
 10
212.1767202067102
 20
167.2872328210232
 30
0.0
 10
212.3535056090096
 20
167.1850967648037
 30
0.0
 10
212.7031286536507
 20
166.9831054324957
 30
0.0
 10
213.0528766842984
 20
166.7810540799812
 30
0.0
 10
213.2257761140051
 20
166.6811691326477
 30
0.0
  0
SPLINE
  5
B1
330
1F
100
AcDbEntity
  8
0
  6
Continuous
 62
     7
370
    25
100
AcDbSpline
210
0.0
220
0.0
230
1.0
 70
     8
 71
     3
 72
     9
 73
     5
 74
     0
 42
0.00000001
 43
0.00000001
 40
0.0
 40
0.0
 40
0.0
 40
0.0
 40
0.4987463974915867
 40
1.0
 40
1.0
 40
1.0
 40
1.0
 10
37.70147563760991
 20
167.6527787590207
 30
0.0
 10
37.87743975947544
 20
167.7544342592968
 30
0.0
 10
38.23025257727335
 20
167.9582562834504
 30
0.0
 10
38.58293958188381
 20
168.1620176222035
 30
0.0
 10
38.75972521350273
 20
168.2641537273055
 30
0.0
  0
SPLINE
  5
B2
330
1F
100
AcDbEntity
  8
0
  6
Continuous
 62
     7
370
    25
100
AcDbSpline
210
0.0
220
0.0
230
1.0
 70
     8
 71
     3
 72
     9
 73
     5
 74
     0
 42
0.00000001
 43
0.00000001
 40
0.0
 40
0.0
 40
0.0
 40
0.0
 40
0.3237592092526919
 40
1.0
 40
1.0
 40
1.0
 40
1.0
 10
7.458355276778184
 20
169.0783679296472
 30
0.0
 10
7.541163427272402
 20
169.0305261999856
 30
0.0
 10
7.796934222751434
 20
168.8827567210203
 30
0.0
 10
8.052778079687837
 20
168.7349560238006
 30
0.0
 10
8.225790131810351
 20
168.6350071634397
 30
0.0
  0
SPLINE
  5
B3
330
1F
100
AcDbEntity
  8
0
  6
Continuous
 62
     7
370
    25
100
AcDbSpline
210
0.0
220
0.0
230
1.0
 70
     8
 71
     3
 72
     9
 73
     5
 74
     0
 42
0.00000001
 43
0.00000001
 40
0.0
 40
0.0
 40
0.0
 40
0.0
 40
0.5056457376285678
 40
1.0
 40
1.0
 40
1.0
 40
1.0
 10
7.176720206710202
 20
167.2872328210232
 30
0.0
 10
7.353505609009659
 20
167.1850967648037
 30
0.0
 10
7.703128653650692
 20
166.9831054324957
 30
0.0
 10
8.052876684298383
 20
166.7810540799811
 30
0.0
 10
8.225776114005088
 20
166.6811691326477
 30
0.0
  0
SPLINE
  5
B4
330
1F
100
AcDbEntity
  8
0
  6
Continuous
 62
     7
370
    25
100
AcDbSpline
210
0.0
220
0.0
230
1.0
 70
     8
 71
     3
 72
     9
 73
     5
 74
     0
 42
0.00000001
 43
0.00000001
 40
0.0
 40
0.0
 40
0.0
 40
0.0
 40
0.5042387999633181
 40
1.0
 40
1.0
 40
1.0
 40
1.0
 10
243.7581526060546
 20
168.5300388130602
 30
0.0
 10
243.5820922531671
 20
168.6317512082073
 30
0.0
 10
243.2329315917894
 20
168.8334659416917
 30
0.0
 10
242.883764072175
 20
169.0351900144778
 30
0.0
 10
242.7106603636371
 20
169.1351969828784
 30
0.0
  0
SPLINE
  5
B5
330
1F
100
AcDbEntity
  8
0
  6
Continuous
 62
     7
370
    25
100
AcDbSpline
210
0.0
220
0.0
230
1.0
 70
     8
 71
     3
 72
     9
 73
     5
 74
     0
 42
0.00000001
 43
0.00000001
 40
0.0
 40
0.0
 40
0.0
 40
0.0
 40
0.5039410827081632
 40
1.0
 40
1.0
 40
1.0
 40
1.0
 10
243.7581526060546
 20
166.576192659214
 30
0.0
 10
243.5821960805038
 20
166.6778428244611
 30
0.0
 10
243.2330351734287
 20
166.8795532400929
 30
0.0
 10
242.883864560572
 20
167.0812835212829
 30
0.0
 10
242.7106553644082
 20
167.181353626155
 30
0.0
  0
SPLINE
  5
B6
330
1F
100
AcDbEntity
  8
0
  6
Continuous
 62
     7
370
    25
100
AcDbSpline
210
0.0
220
0.0
230
1.0
 70
     8
 71
     3
 72
     9
 73
     5
 74
     0
 42
0.00000001
 43
0.00000001
 40
0.0
 40
0.0
 40
0.0
 40
0.0
 40
0.5008951237974192
 40
1.0
 40
1.0
 40
1.0
 40
1.0
 10
213.2365680446335
 20
168.1645013843581
 30
0.0
 10
213.0598725729445
 20
168.0624194069709
 30
0.0
 10
212.7071131562638
 20
167.8586203030522
 30
0.0
 10
212.3543611825231
 20
167.6548306900403
 30
0.0
 10
212.178300952339
 20
167.5531183004667
 30
0.0
  0
SPLINE
  5
B7
330
1F
100
AcDbEntity
  8
0
  6
Continuous
 62
     7
370
    25
100
AcDbSpline
210
0.0
220
0.0
230
1.0
 70
     8
 71
     3
 72
     9
 73
     5
 74
     0
 42
0.00000001
 43
0.00000001
 40
0.0
 40
0.0
 40
0.0
 40
0.0
 40
0.5011873997784111
 40
1.0
 40
1.0
 40
1.0
 40
1.0
 10
213.2365680446335
 20
166.2106552305119
 30
0.0
 10
213.0597687058845
 20
166.1085110204613
 30
0.0
 10
212.7070077649129
 20
165.9047065950194
 30
0.0
 10
212.3542573193297
 20
165.7009223138133
 30
0.0
 10
212.178300952339
 20
165.5992721466206
 30
0.0
  0
SPLINE
  5
B8
330
1F
100
AcDbEntity
  8
0
  6
Continuous
 62
     7
370
    25
100
AcDbSpline
210
0.0
220
0.0
230
1.0
 70
     8
 71
     3
 72
     9
 73
     5
 74
     0
 42
0.00000001
 43
0.00000001
 40
0.0
 40
0.0
 40
0.0
 40
0.0
 40
0.5042387999633297
 40
1.0
 40
1.0
 40
1.0
 40
1.0
 10
38.75815260605459
 20
168.5300388130601
 30
0.0
 10
38.58209225316713
 20
168.6317512082072
 30
0.0
 10
38.23293159178946
 20
168.8334659416917
 30
0.0
 10
37.88376407217499
 20
169.0351900144777
 30
0.0
 10
37.71066036363711
 20
169.1351969828783
 30
0.0
  0
SPLINE
  5
B9
330
1F
100
AcDbEntity
  8
0
  6
Continuous
 62
     7
370
    25
100
AcDbSpline
210
0.0
220
0.0
230
1.0
 70
     8
 71
     3
 72
     9
 73
     5
 74
     0
 42
0.00000001
 43
0.00000001
 40
0.0
 40
0.0
 40
0.0
 40
0.0
 40
0.5039410827082154
 40
1.0
 40
1.0
 40
1.0
 40
1.0
 10
38.75815260605459
 20
166.576192659214
 30
0.0
 10
38.58219608050378
 20
166.677842824461
 30
0.0
 10
38.23303517342869
 20
166.8795532400928
 30
0.0
 10
37.88386456057199
 20
167.0812835212828
 30
0.0
 10
37.7106553644082
 20
167.1813536261549
 30
0.0
  0
SPLINE
  5
BA
330
1F
100
AcDbEntity
  8
0
  6
Continuous
 62
     7
370
    25
100
AcDbSpline
210
0.0
220
0.0
230
1.0
 70
     8
 71
     3
 72
     9
 73
     5
 74
     0
 42
0.00000001
 43
0.00000001
 40
0.0
 40
0.0
 40
0.0
 40
0.0
 40
0.500895123797433
 40
1.0
 40
1.0
 40
1.0
 40
1.0
 10
8.236568044633492
 20
168.164501384358
 30
0.0
 10
8.05987257294448
 20
168.0624194069709
 30
0.0
 10
7.707113156263823
 20
167.8586203030522
 30
0.0
 10
7.354361182523098
 20
167.6548306900403
 30
0.0
 10
7.17830095233904
 20
167.5531183004667
 30
0.0
  0
SPLINE
  5
BB
330
1F
100
AcDbEntity
  8
0
  6
Continuous
 62
     7
370
    25
100
AcDbSpline
210
0.0
220
0.0
230
1.0
 70
     8
 71
     3
 72
     9
 73
     5
 74
     0
 42
0.00000001
 43
0.00000001
 40
0.0
 40
0.0
 40
0.0
 40
0.0
 40
0.5011873997783731
 40
1.0
 40
1.0
 40
1.0
 40
1.0
 10
8.236568044633492
 20
166.2106552305119
 30
0.0
 10
8.059768705884554
 20
166.1085110204613
 30
0.0
 10
7.70700776491294
 20
165.9047065950193
 30
0.0
 10
7.354257319329719
 20
165.7009223138132
 30
0.0
 10
7.17830095233904
 20
165.5992721466205
 30
0.0
  0
LINE
  5
BC
330
1F
100
AcDbEntity
  8
0
  6
Continuous
 62
     7
370
    25
100
AcDbLine
 10
7.1682244898
 20
165.5878631247
 30
0.0
 11
7.1682244898
 21
164.5783679296
 31
0.0
  0
LINE
  5
BD
330
1F
100
AcDbEntity
  8
0
  6
Continuous
 62
     7
370
    25
100
AcDbLine
 10
7.1682244898
 20
167.5417092785
 30
0.0
 11
7.1682244898
 21
167.2974775356
 31
0.0
  0
LINE
  5
BE
330
1F
100
AcDbEntity
  8
0
  6
Continuous
 62
     7
370
    25
100
AcDbLine
 10
38.7682244898
 20
168.2746391654
 30
0.0
 11
38.7682244898
 21
168.5188714618
 31
0.0
  0
LINE
  5
BF
330
1F
100
AcDbEntity
  8
0
  6
Continuous
 62
     7
370
    25
100
AcDbLine
 10
38.7682244898
 20
164.5783679296
 30
0.0
 11
38.7682244898
 21
166.5650253079
 31
0.0
  0
LINE
  5
C0
330
1F
100
AcDbEntity
  8
0
  6
Continuous
 62
     7
370
    25
100
AcDbLine
 10
212.1682244898
 20
165.5878631247
 30
0.0
 11
212.1682244898
 21
164.5783679296
 31
0.0
  0
LINE
  5
C1
330
1F
100
AcDbEntity
  8
0
  6
Continuous
 62
     7
370
    25
100
AcDbLine
 10
212.1682244898
 20
167.5417092785
 30
0.0
 11
212.1682244898
 21
167.2974775356
 31
0.0
  0
LINE
  5
C2
330
1F
100
AcDbEntity
  8
0
  6
Continuous
 62
     7
370
    25
100
AcDbLine
 10
243.7682244898
 20
168.2746391654
 30
0.0
 11
243.7682244898
 21
168.5188714618
 31
0.0
  0
LINE
  5
C3
330
1F
100
AcDbEntity
  8
0
  6
Continuous
 62
     7
370
    25
100
AcDbLine
 10
243.7682244898
 20
164.5783679296
 30
0.0
 11
243.7682244898
 21
166.5650253079
 31
0.0
  0
LINE
  5
C4
330
1F
100
AcDbEntity
  8
0
  6
Continuous
 62
     7
370
    25
100
AcDbLine
 10
213.225776114
 20
166.6868856625
 30
0.0
 11
213.225776114
 21
166.2044203627
 31
0.0
  0
LINE
  5
C5
330
1F
100
AcDbEntity
  8
0
  6
Continuous
 62
     7
370
    25
100
AcDbLine
 10
213.2257901318
 20
168.6413246415
 30
0.0
 11
213.2257901318
 21
168.1582747054
 31
0.0
  0
LINE
  5
C6
330
1F
100
AcDbEntity
  8
0
  6
Continuous
 62
     7
370
    25
100
AcDbLine
 10
242.7106553644
 20
167.175989096
 30
0.0
 11
242.7106553644
 21
167.6580819927
 31
0.0
  0
LINE
  5
C7
330
1F
100
AcDbEntity
  8
0
  6
Continuous
 62
     7
370
    25
100
AcDbLine
 10
8.225776114
 20
166.6868856625
 30
0.0
 11
8.225776114
 21
166.2044203627
 31
0.0
  0
LINE
  5
C8
330
1F
100
AcDbEntity
  8
0
  6
Continuous
 62
     7
370
    25
100
AcDbLine
 10
8.2257901318
 20
168.6413246415
 30
0.0
 11
8.2257901318
 21
168.1582747054
 31
0.0
  0
LINE
  5
C9
330
1F
100
AcDbEntity
  8
0
  6
Continuous
 62
     7
370
    25
100
AcDbLine
 10
37.7106553644
 20
167.175989096
 30
0.0
 11
37.7106553644
 21
167.6580819927
 31
0.0
  0
LWPOLYLINE
  5
CA
330
1F
100
AcDbEntity
  8
0
  6
Continuous
 62
     7
370
    25
100
AcDbPolyline
 90
        3
 70
   128
 43
0.0
 10
239.896172709
 20
134.8731326222
 10
239.9337820272
 20
134.9082687594
 10
241.470746263
 20
136.5458971453
  0
LINE
  5
CB
330
1F
100
AcDbEntity
  8
0
  6
Continuous
 62
     7
370
    25
100
AcDbLine
 10
9.9830669147
 20
135.9465444248
 30
0.0
 11
10.8461381308
 21
135.0567585907
 31
0.0
  0
LINE
  5
CC
330
1F
100
AcDbEntity
  8
0
  6
Continuous
 62
     7
370
    25
100
AcDbLine
 10
134.0682244898
 20
61.4648497063
 30
0.0
 11
134.0682244898
 21
146.7283679296
 31
0.0
  0
LINE
  5
CD
330
1F
100
AcDbEntity
  8
0
  6
Continuous
 62
     7
370
    25
100
AcDbLine
 10
116.8682244898
 20
146.7283679296
 30
0.0
 11
116.8682244898
 21
61.4648497063
 31
0.0
  0
LINE
  5
CE
330
1F
100
AcDbEntity
  8
0
  6
Continuous
 62
     7
370
    25
100
AcDbLine
 10
116.8682244898
 20
61.4648497063
 30
0.0
 11
116.8682244898
 21
61.2912015286
 31
0.0
  0
LINE
  5
CF
330
1F
100
AcDbEntity
  8
0
  6
Continuous
 62
     7
370
    25
100
AcDbLine
 10
134.0682244898
 20
61.2912015286
 30
0.0
 11
134.0682244898
 21
61.4648497063
 31
0.0
  0
LINE
  5
D0
330
1F
100
AcDbEntity
  8
0
  6
Continuous
 62
     7
370
    25
100
AcDbLine
 10
136.2682244898
 20
60.7702569956
 30
0.0
 11
136.2682244898
 21
60.7891210121
 31
0.0
  0
LINE
  5
D1
330
1F
100
AcDbEntity
  8
0
  6
Continuous
 62
     7
370
    25
100
AcDbLine
 10
137.0182244898
 20
58.5030114628
 30
0.0
 11
137.0182244898
 21
60.7702569956
 31
0.0
  0
LINE
  5
D2
330
1F
100
AcDbEntity
  8
0
  6
Continuous
 62
     7
370
    25
100
AcDbLine
 10
113.9182244898
 20
60.7702569956
 30
0.0
 11
113.9182244898
 21
58.5030114628
 31
0.0
  0
LINE
  5
D3
330
1F
100
AcDbEntity
  8
0
  6
Continuous
 62
     7
370
    25
100
AcDbLine
 10
118.4929750518
 20
49.4369804419
 30
0.0
 11
118.8251297869
 21
49.1891321626
 31
0.0
  0
LINE
  5
D4
330
1F
100
AcDbEntity
  8
0
  6
Continuous
 62
     7
370
    25
100
AcDbLine
 10
132.1113191927
 20
49.1891321626
 30
0.0
 11
132.4434739278
 21
49.4369804419
 31
0.0
  0
SPLINE
  5
D5
330
1F
100
AcDbEntity
  8
0
  6
Continuous
 62
     7
370
    25
100
AcDbSpline
210
0.0
220
0.0
230
1.0
 70
     8
 71
     3
 72
    12
 73
     8
 74
     0
 42
0.00000001
 43
0.00000001
 40
0.0
 40
0.0
 40
0.0
 40
0.0
 40
0.1820499033062394
 40
0.3656406087374416
 40
0.6149613348991656
 40
0.8710066969717201
 40
1.0
 40
1.0
 40
1.0
 40
1.0
 10
217.9182244897959
 20
183.3617871759162
 30
0.0
 10
219.1147410093623
 20
183.6807510608041
 30
0.0
 10
221.5179009157025
 20
184.3213784213113
 30
0.0
 10
225.6642402111189
 20
184.9313794025863
 30
0.0
 10
230.3685909769804
 20
184.9649332767736
 30
0.0
 10
234.6464356408057
 20
184.280051338377
 30
0.0
 10
237.1720938837011
 20
183.5922201736915
 30
0.0
 10
238.0182244897959
 20
183.3617871759162
 30
0.0
  0
LINE
  5
D6
330
1F
100
AcDbEntity
  8
0
  6
Continuous
 62
     7
370
    25
100
AcDbLine
 10
238.0182244898
 20
170.6949486834
 30
0.0
 11
238.0182244898
 21
183.3617871759
 31
0.0
  0
SPLINE
  5
D7
330
1F
100
AcDbEntity
  8
0
  6
Continuous
 62
     7
370
    25
100
AcDbSpline
210
0.0
220
0.0
230
1.0
 70
     8
 71
     3
 72
    12
 73
     8
 74
     0
 42
0.00000001
 43
0.00000001
 40
0.0
 40
0.0
 40
0.0
 40
0.0
 40
0.1289937508738277
 40
0.3786272441489033
 40
0.6343574588057701
 40
0.816265630254775
 40
1.0
 40
1.0
 40
1.0
 40
1.0
 10
238.0182244897959
 20
170.6949486833781
 30
0.0
 10
237.1720802391929
 20
170.4645102447271
 30
0.0
 10
234.6884462368633
 20
169.7881187886965
 30
0.0
 10
230.4130979701829
 20
169.0959833044835
 30
0.0
 10
225.718855850568
 20
169.1187856797374
 30
0.0
 10
221.5292188803525
 20
169.7330208247939
 30
0.0
 10
219.1258904205827
 20
170.3732402072517
 30
0.0
 10
217.918224489796
 20
170.6949486833781
 30
0.0
  0
LINE
  5
D8
330
1F
100
AcDbEntity
  8
0
  6
Continuous
 62
     7
370
    25
100
AcDbLine
 10
217.9182244898
 20
170.6949486834
 30
0.0
 11
217.9182244898
 21
183.3617871759
 31
0.0
  0
SPLINE
  5
D9
330
1F
100
AcDbEntity
  8
0
  6
Continuous
 62
     7
370
    25
100
AcDbSpline
210
0.0
220
0.0
230
1.0
 70
     8
 71
     3
 72
    11
 73
     7
 74
     0
 42
0.00000001
 43
0.00000001
 40
0.0
 40
0.0
 40
0.0
 40
0.0
 40
0.2646093757676103
 40
0.5349569643242569
 40
0.7653478824379781
 40
1.0
 40
1.0
 40
1.0
 40
1.0
 10
238.0182244897959
 20
183.3617871759162
 30
0.0
 10
238.8905086545934
 20
183.8108516629853
 30
0.0
 10
240.6539929887162
 20
184.7187188694719
 30
0.0
 10
243.266799854339
 20
185.0508124607789
 30
0.0
 10
245.7644354813049
 20
184.5633089819577
 30
0.0
 10
247.2956180671889
 20
183.7647335658975
 30
0.0
 10
248.0682244897959
 20
183.3617871759162
 30
0.0
  0
SPLINE
  5
DA
330
1F
100
AcDbEntity
  8
0
  6
Continuous
 62
     7
370
    25
100
AcDbSpline
210
0.0
220
0.0
230
1.0
 70
     8
 71
     3
 72
    11
 73
     7
 74
     0
 42
0.00000001
 43
0.00000001
 40
0.0
 40
0.0
 40
0.0
 40
0.0
 40
0.2646093757676105
 40
0.5349569643242568
 40
0.7653478824379781
 40
1.0
 40
1.0
 40
1.0
 40
1.0
 10
207.8682244897959
 20
183.3617871759162
 30
0.0
 10
208.7405086545934
 20
183.8108516629853
 30
0.0
 10
210.5039929887162
 20
184.7187188694719
 30
0.0
 10
213.116799854339
 20
185.0508124607789
 30
0.0
 10
215.6144354813049
 20
184.5633089819577
 30
0.0
 10
217.1456180671889
 20
183.7647335658975
 30
0.0
 10
217.9182244897959
 20
183.3617871759162
 30
0.0
  0
LINE
  5
DB
330
1F
100
AcDbEntity
  8
0
  6
Continuous
 62
     7
370
    25
100
AcDbLine
 10
210.6682244898
 20
184.9783679296
 30
0.0
 11
245.2682244898
 21
184.9783679296
 31
0.0
  0
SPLINE
  5
DC
330
1F
100
AcDbEntity
  8
0
  6
Continuous
 62
     7
370
    25
100
AcDbSpline
210
0.0
220
0.0
230
1.0
 70
     8
 71
     3
 72
    11
 73
     7
 74
     0
 42
0.00000001
 43
0.00000001
 40
0.0
 40
0.0
 40
0.0
 40
0.0
 40
0.2646093757676101
 40
0.5349569643242565
 40
0.7653478824379778
 40
1.0
 40
1.0
 40
1.0
 40
1.0
 10
217.9182244897959
 20
170.6949486833781
 30
0.0
 10
217.0459403249985
 20
170.245884196309
 30
0.0
 10
215.2824559908756
 20
169.3380169898225
 30
0.0
 10
212.6696491252529
 20
169.0059233985154
 30
0.0
 10
210.172013498287
 20
169.4934268773366
 30
0.0
 10
208.640830912403
 20
170.2920022933968
 30
0.0
 10
207.8682244897959
 20
170.6949486833781
 30
0.0
  0
LINE
  5
DD
330
1F
100
AcDbEntity
  8
0
  6
Continuous
 62
     7
370
    25
100
AcDbLine
 10
207.8682244898
 20
170.6949486834
 30
0.0
 11
207.8682244898
 21
183.3617871759
 31
0.0
  0
LINE
  5
DE
330
1F
100
AcDbEntity
  8
0
  6
Continuous
 62
     7
370
    25
100
AcDbLine
 10
248.0682244898
 20
170.6949486834
 30
0.0
 11
248.0682244898
 21
183.3617871759
 31
0.0
  0
SPLINE
  5
DF
330
1F
100
AcDbEntity
  8
0
  6
Continuous
 62
     7
370
    25
100
AcDbSpline
210
0.0
220
0.0
230
1.0
 70
     8
 71
     3
 72
    11
 73
     7
 74
     0
 42
0.00000001
 43
0.00000001
 40
0.0
 40
0.0
 40
0.0
 40
0.0
 40
0.26460937576761
 40
0.5349569643242564
 40
0.7653478824379778
 40
1.0
 40
1.0
 40
1.0
 40
1.0
 10
248.0682244897959
 20
170.6949486833781
 30
0.0
 10
247.1959403249985
 20
170.245884196309
 30
0.0
 10
245.4324559908757
 20
169.3380169898225
 30
0.0
 10
242.8196491252529
 20
169.0059233985154
 30
0.0
 10
240.322013498287
 20
169.4934268773366
 30
0.0
 10
238.790830912403
 20
170.2920022933968
 30
0.0
 10
238.0182244897959
 20
170.6949486833781
 30
0.0
  0
LINE
  5
E0
330
1F
100
AcDbEntity
  8
0
  6
Continuous
 62
     7
370
    25
100
AcDbLine
 10
227.9682244898
 20
169.0783679296
 30
0.0
 11
210.6682244898
 21
169.0783679296
 31
0.0
  0
LINE
  5
E1
330
1F
100
AcDbEntity
  8
0
  6
Continuous
 62
     7
370
    25
100
AcDbLine
 10
245.2682244898
 20
169.0783679296
 30
0.0
 11
227.9682244898
 21
169.0783679296
 31
0.0
  0
SPLINE
  5
E2
330
1F
100
AcDbEntity
  8
0
  6
Continuous
 62
     7
370
    25
100
AcDbSpline
210
0.0
220
0.0
230
1.0
 70
     8
 71
     3
 72
    12
 73
     8
 74
     0
 42
0.00000001
 43
0.00000001
 40
0.0
 40
0.0
 40
0.0
 40
0.0
 40
0.1820499033062395
 40
0.3656406087374414
 40
0.6149613348991652
 40
0.8710066969717195
 40
1.0
 40
1.0
 40
1.0
 40
1.0
 10
12.91822448979585
 20
170.6949486833781
 30
0.0
 10
12.31996623001265
 20
170.3759847984902
 30
0.0
 10
11.11838627684256
 20
169.735357437983
 30
0.0
 10
9.045216629134378
 20
169.1253564567081
 30
0.0
 10
6.693041246203624
 20
169.0918025825208
 30
0.0
 10
4.554118914291028
 20
169.7766845209173
 30
0.0
 10
3.291289792843252
 20
170.4645156856028
 30
0.0
 10
2.868224489795873
 20
170.6949486833781
 30
0.0
  0
SPLINE
  5
E3
330
1F
100
AcDbEntity
  8
0
  6
Continuous
 62
     7
370
    25
100
AcDbSpline
210
0.0
220
0.0
230
1.0
 70
     8
 71
     3
 72
    11
 73
     7
 74
     0
 42
0.00000001
 43
0.00000001
 40
0.0
 40
0.0
 40
0.0
 40
0.0
 40
0.2646093757676106
 40
0.534956964324257
 40
0.7653478824379782
 40
1.0
 40
1.0
 40
1.0
 40
1.0
 10
33.01822448979588
 20
170.6949486833781
 30
0.0
 10
31.27365616020089
 20
170.245884196309
 30
0.0
 10
27.74668749195533
 20
169.3380169898225
 30
0.0
 10
22.5210737607097
 20
169.0059233985154
 30
0.0
 10
17.52580250677795
 20
169.4934268773366
 30
0.0
 10
14.46343733500999
 20
170.2920022933968
 30
0.0
 10
12.91822448979586
 20
170.6949486833781
 30
0.0
  0
SPLINE
  5
E4
330
1F
100
AcDbEntity
  8
0
  6
Continuous
 62
     7
370
    25
100
AcDbSpline
210
0.0
220
0.0
230
1.0
 70
     8
 71
     3
 72
    11
 73
     7
 74
     0
 42
0.00000001
 43
0.00000001
 40
0.0
 40
0.0
 40
0.0
 40
0.0
 40
0.2646093757676103
 40
0.5349569643242565
 40
0.7653478824379778
 40
1.0
 40
1.0
 40
1.0
 40
1.0
 10
43.0682244897959
 20
170.6949486833781
 30
0.0
 10
42.19594032499839
 20
170.245884196309
 30
0.0
 10
40.43245599087564
 20
169.3380169898224
 30
0.0
 10
37.81964912525282
 20
169.0059233985154
 30
0.0
 10
35.32201349828693
 20
169.4934268773366
 30
0.0
 10
33.79083091240295
 20
170.2920022933968
 30
0.0
 10
33.01822448979588
 20
170.6949486833781
 30
0.0
  0
LINE
  5
E5
330
1F
100
AcDbEntity
  8
0
  6
Continuous
 62
     7
370
    25
100
AcDbLine
 10
40.2682244898
 20
169.0783679296
 30
0.0
 11
5.6682244898
 21
169.0783679296
 31
0.0
  0
SPLINE
  5
E6
330
1F
100
AcDbEntity
  8
0
  6
Continuous
 62
     7
370
    25
100
AcDbSpline
210
0.0
220
0.0
230
1.0
 70
     8
 71
     3
 72
    11
 73
     7
 74
     0
 42
0.00000001
 43
0.00000001
 40
0.0
 40
0.0
 40
0.0
 40
0.0
 40
0.2646093757676099
 40
0.5349569643242563
 40
0.7653478824379775
 40
0.9999999999999999
 40
0.9999999999999999
 40
0.9999999999999999
 40
0.9999999999999999
 10
12.91822448979586
 20
183.3617871759162
 30
0.0
 10
14.66279281939086
 20
183.8108516629853
 30
0.0
 10
18.18976148763643
 20
184.7187188694719
 30
0.0
 10
23.415375218882
 20
185.0508124607789
 30
0.0
 10
28.41064647281381
 20
184.5633089819577
 30
0.0
 10
31.47301164458175
 20
183.7647335658975
 30
0.0
 10
33.01822448979588
 20
183.3617871759162
 30
0.0
  0
LINE
  5
E7
330
1F
100
AcDbEntity
  8
0
  6
Continuous
 62
     7
370
    25
100
AcDbLine
 10
33.0182244898
 20
170.6949486834
 30
0.0
 11
33.0182244898
 21
183.3617871759
 31
0.0
  0
LINE
  5
E8
330
1F
100
AcDbEntity
  8
0
  6
Continuous
 62
     7
370
    25
100
AcDbLine
 10
12.9182244898
 20
170.6949486834
 30
0.0
 11
12.9182244898
 21
183.3617871759
 31
0.0
  0
SPLINE
  5
E9
330
1F
100
AcDbEntity
  8
0
  6
Continuous
 62
     7
370
    25
100
AcDbSpline
210
0.0
220
0.0
230
1.0
 70
     8
 71
     3
 72
    11
 73
     7
 74
     0
 42
0.00000001
 43
0.00000001
 40
0.0
 40
0.0
 40
0.0
 40
0.0
 40
0.26460937576761
 40
0.5349569643242565
 40
0.7653478824379777
 40
1.0
 40
1.0
 40
1.0
 40
1.0
 10
33.01822448979588
 20
183.3617871759162
 30
0.0
 10
33.89050865459338
 20
183.8108516629853
 30
0.0
 10
35.65399298871613
 20
184.7187188694719
 30
0.0
 10
38.26679985433898
 20
185.0508124607789
 30
0.0
 10
40.76443548130484
 20
184.5633089819577
 30
0.0
 10
42.29561806718883
 20
183.7647335658975
 30
0.0
 10
43.06822448979592
 20
183.3617871759162
 30
0.0
  0
SPLINE
  5
EA
330
1F
100
AcDbEntity
  8
0
  6
Continuous
 62
     7
370
    25
100
AcDbSpline
210
0.0
220
0.0
230
1.0
 70
     8
 71
     3
 72
    12
 73
     8
 74
     0
 42
0.00000001
 43
0.00000001
 40
0.0
 40
0.0
 40
0.0
 40
0.0
 40
0.128993750873828
 40
0.3786272441489033
 40
0.6343574588057701
 40
0.816265630254775
 40
1.0
 40
1.0
 40
1.0
 40
1.0
 10
2.868224489795873
 20
183.3617871759162
 30
0.0
 10
3.291296615097389
 20
183.5922256145672
 30
0.0
 10
4.533113616262213
 20
184.2686170705978
 30
0.0
 10
6.670787749602322
 20
184.9607525548108
 30
0.0
 10
9.017908809409821
 20
184.9379501795569
 30
0.0
 10
11.11272729451761
 20
184.3237150345004
 30
0.0
 10
12.31439152440245
 20
183.6834956520426
 30
0.0
 10
12.91822448979585
 20
183.3617871759162
 30
0.0
  0
LINE
  5
EB
330
1F
100
AcDbEntity
  8
0
  6
Continuous
 62
     7
370
    25
100
AcDbLine
 10
7.9859850043
 20
184.9783679296
 30
0.0
 11
40.2682244898
 21
184.9783679296
 31
0.0
  0
LINE
  5
EC
330
1F
100
AcDbEntity
  8
0
  6
Continuous
 62
     7
370
    25
100
AcDbLine
 10
5.6682244898
 20
184.9783679296
 30
0.0
 11
7.9859850043
 21
184.9783679296
 31
0.0
  0
LINE
  5
ED
330
1F
100
AcDbEntity
  8
0
  6
Continuous
 62
     7
370
    25
100
AcDbLine
 10
43.0682244898
 20
170.6949486834
 30
0.0
 11
43.0682244898
 21
183.3617871759
 31
0.0
  0
LINE
  5
EE
330
1F
100
AcDbEntity
  8
0
  6
Continuous
 62
     7
370
    25
100
AcDbLine
 10
2.8682244898
 20
170.6949486834
 30
0.0
 11
2.8682244898
 21
183.3617871759
 31
0.0
  0
LINE
  5
EF
330
1F
100
AcDbEntity
  8
0
  6
Continuous
 62
     7
370
    25
100
AcDbLine
 10
206.057781774
 20
209.1783679296
 30
0.0
 11
253.2682244898
 21
209.1783679296
 31
0.0
  0
LINE
  5
F0
330
1F
100
AcDbEntity
  8
0
  6
Continuous
 62
     7
370
    25
100
AcDbLine
 10
202.6682244898
 20
209.1783679296
 30
0.0
 11
206.057781774
 21
209.1783679296
 31
0.0
  0
LINE
  5
F1
330
1F
100
AcDbEntity
  8
0
  6
Continuous
 62
     7
370
    25
100
AcDbLine
 10
252.7682244898
 20
205.1783679296
 30
0.0
 11
203.1682244898
 21
205.1783679296
 31
0.0
  0
ARC
  5
F2
330
1F
100
AcDbEntity
  8
0
  6
Continuous
 62
     7
370
    25
100
AcDbCircle
 10
227.9682244898
 20
204.1783679296
 30
0.0
 40
1.0
100
AcDbArc
 50
90.0
 51
180.0
  0
LINE
  5
F3
330
1F
100
AcDbEntity
  8
0
  6
Continuous
 62
     7
370
    25
100
AcDbLine
 10
226.9682244898
 20
204.1783679296
 30
0.0
 11
212.4682244898
 21
204.1783679296
 31
0.0
  0
ELLIPSE
  5
F4
330
1F
100
AcDbEntity
  8
0
  6
Continuous
 62
     7
370
    25
100
AcDbEllipse
 10
210.4682244898
 20
204.1783679296
 30
0.0
 11
-2.0
 21
0.0
 31
0.0
210
0.0
220
0.0
230
1.0
 40
0.5
 41
3.141592653589779
 42
4.712388980384697
  0
SPLINE
  5
F5
330
1F
100
AcDbEntity
  8
0
  6
Continuous
 62
     7
370
    25
100
AcDbSpline
210
0.0
220
0.0
230
1.0
 70
     8
 71
     3
 72
    11
 73
     7
 74
     0
 42
0.00000001
 43
0.00000001
 40
0.0
 40
0.0
 40
0.0
 40
0.0
 40
0.1755702971684292
 40
0.4954273686125939
 40
0.811583119142453
 40
1.0
 40
1.0
 40
1.0
 40
1.0
 10
212.2897548225848
 20
190.726613642048
 30
0.0
 10
212.2933979256198
 20
190.7320484602102
 30
0.0
 10
212.3036780981737
 20
190.7473845261872
 30
0.0
 10
212.4085820216565
 20
190.7562279338769
 30
0.0
 10
212.5923831071562
 20
190.7479134116947
 30
0.0
 10
212.740283229822
 20
190.7324048352607
 30
0.0
 10
212.7955119086239
 20
190.726613642048
 30
0.0
  0
SPLINE
  5
F6
330
1F
100
AcDbEntity
  8
0
  6
Continuous
 62
     7
370
    25
100
AcDbSpline
210
0.0
220
0.0
230
1.0
 70
     8
 71
     3
 72
    10
 73
     6
 74
     0
 42
0.00000001
 43
0.00000001
 40
0.0
 40
0.0
 40
0.0
 40
0.0
 40
0.4999493505749383
 40
0.8818990399724892
 40
1.0
 40
1.0
 40
1.0
 40
1.0
 10
227.4624674037569
 20
190.726613642048
 30
0.0
 10
225.0132530868682
 20
190.5156949156765
 30
0.0
 10
220.6928959301544
 20
190.1436391822602
 30
0.0
 10
215.8009627244262
 20
190.4076055583462
 30
0.0
 10
213.3697183350636
 20
190.6656655504057
 30
0.0
 10
212.7955119086239
 20
190.726613642048
 30
0.0
  0
SPLINE
  5
F7
330
1F
100
AcDbEntity
  8
0
  6
Continuous
 62
     7
370
    25
100
AcDbSpline
210
0.0
220
0.0
230
1.0
 70
     8
 71
     3
 72
    11
 73
     7
 74
     0
 42
0.00000001
 43
0.00000001
 40
0.0
 40
0.0
 40
0.0
 40
0.0
 40
0.1755702971684312
 40
0.4954273686125967
 40
0.8115831191424633
 40
1.0
 40
1.0
 40
1.0
 40
1.0
 10
227.4624674037569
 20
190.726613642048
 30
0.0
 10
227.5176739113543
 20
190.7320484602102
 30
0.0
 10
227.6734566105373
 20
190.7473845261872
 30
0.0
 10
227.9619827332177
 20
190.7562279338768
 30
0.0
 10
228.2555515478336
 20
190.7479134116947
 30
0.0
 10
228.4145926473816
 20
190.7324048352607
 30
0.0
 10
228.473981575835
 20
190.726613642048
 30
0.0
  0
SPLINE
  5
F8
330
1F
100
AcDbEntity
  8
0
  6
Continuous
 62
     7
370
    25
100
AcDbSpline
210
0.0
220
0.0
230
1.0
 70
     8
 71
     3
 72
    10
 73
     6
 74
     0
 42
0.00000001
 43
0.00000001
 40
0.0
 40
0.0
 40
0.0
 40
0.0
 40
0.4993920432232365
 40
0.881801552386203
 40
1.0
 40
1.0
 40
1.0
 40
1.0
 10
243.140937070968
 20
190.726613642048
 30
0.0
 10
240.7064365836931
 20
190.5158554034714
 30
0.0
 10
236.4077170944753
 20
190.143709021732
 30
0.0
 10
231.498850323941
 20
190.4072813008311
 30
0.0
 10
229.0517629105543
 20
190.6656178496048
 30
0.0
 10
228.473981575835
 20
190.726613642048
 30
0.0
  0
SPLINE
  5
F9
330
1F
100
AcDbEntity
  8
0
  6
Continuous
 62
     7
370
    25
100
AcDbSpline
210
0.0
220
0.0
230
1.0
 70
     8
 71
     3
 72
    11
 73
     7
 74
     0
 42
0.00000001
 43
0.00000001
 40
0.0
 40
0.0
 40
0.0
 40
0.0
 40
0.1755702971684328
 40
0.4954273686125973
 40
0.8115831191424563
 40
1.0
 40
1.0
 40
1.0
 40
1.0
 10
243.140937070968
 20
190.726613642048
 30
0.0
 10
243.1925004755304
 20
190.7320484602102
 30
0.0
 10
243.3380030021595
 20
190.7473845261872
 30
0.0
 10
243.5216252013571
 20
190.7562279338769
 30
0.0
 10
243.6313929304733
 20
190.7479134116947
 30
0.0
 10
243.6425339073556
 20
190.7324048352607
 30
0.0
 10
243.6466941570071
 20
190.726613642048
 30
0.0
  0
ARC
  5
FA
330
1F
100
AcDbEntity
  8
0
  6
Continuous
 62
     7
370
    25
100
AcDbCircle
 10
228.1103255193
 20
191.6679474929
 30
0.0
 40
1.142728995301124
100
AcDbArc
 50
178.1004361743
 51
235.4629231257
  0
ARC
  5
FB
330
1F
100
AcDbEntity
  8
0
  6
Continuous
 62
     7
370
    25
100
AcDbCircle
 10
213.4038068577
 20
191.4742290783
 30
0.0
 40
0.9638213452760159
100
AcDbArc
 50
166.0963140214
 51
230.8665827135
  0
SPLINE
  5
FC
330
1F
100
AcDbEntity
  8
0
  6
Continuous
 62
     7
370
    25
100
AcDbSpline
210
0.0
220
0.0
230
1.0
 70
     8
 71
     3
 72
     9
 73
     5
 74
     0
 42
0.00000001
 43
0.00000001
 40
0.0
 40
0.0
 40
0.0
 40
0.0
 40
0.4999999999999595
 40
1.0
 40
1.0
 40
1.0
 40
1.0
 10
212.4682244898129
 20
191.7058261821859
 30
0.0
 10
214.884891156474
 20
191.4866400031869
 30
0.0
 10
219.7182244897964
 20
191.048267645189
 30
0.0
 10
224.5515578231187
 20
191.486640003187
 30
0.0
 10
226.9682244897801
 20
191.7058261821861
 30
0.0
  0
LINE
  5
FD
330
1F
100
AcDbEntity
  8
0
  6
Continuous
 62
     7
370
    25
100
AcDbLine
 10
226.9682244898
 20
191.7058261822
 30
0.0
 11
226.9682244898
 21
204.1783679296
 31
0.0
  0
LINE
  5
FE
330
1F
100
AcDbEntity
  8
0
  6
Continuous
 62
     7
370
    25
100
AcDbLine
 10
212.4682244898
 20
204.1783679296
 30
0.0
 11
212.4682244898
 21
191.7058261822
 31
0.0
  0
ELLIPSE
  5
FF
330
1F
100
AcDbEntity
  8
0
  6
Continuous
 62
     7
370
    25
100
AcDbEllipse
 10
245.4682244898
 20
204.1783679296
 30
0.0
 11
2.0
 21
0.0
 31
0.0
210
0.0
220
0.0
230
1.0
 40
0.5
 41
1.570796326794897
 42
3.141592653589793
  0
LINE
  5
100
330
1F
100
AcDbEntity
  8
0
  6
Continuous
 62
     7
370
    25
100
AcDbLine
 10
243.4682244898
 20
204.1783679296
 30
0.0
 11
228.9682244898
 21
204.1783679296
 31
0.0
  0
ARC
  5
101
330
1F
100
AcDbEntity
  8
0
  6
Continuous
 62
     7
370
    25
100
AcDbCircle
 10
227.9682244898
 20
204.1783679296
 30
0.0
 40
1.0
100
AcDbArc
 50
0.0
 51
90.0
  0
LINE
  5
102
330
1F
100
AcDbEntity
  8
0
  6
Continuous
 62
     7
370
    25
100
AcDbLine
 10
228.9682244898
 20
204.1783679296
 30
0.0
 11
226.9682244898
 21
204.1783679296
 31
0.0
  0
SPLINE
  5
103
330
1F
100
AcDbEntity
  8
0
  6
Continuous
 62
     7
370
    25
100
AcDbSpline
210
0.0
220
0.0
230
1.0
 70
     8
 71
     3
 72
    11
 73
     7
 74
     0
 42
0.00000001
 43
0.00000001
 40
0.0
 40
0.0
 40
0.0
 40
0.0
 40
0.1883467346483229
 40
0.5045742105936664
 40
0.8244987390895728
 40
1.0
 40
1.0
 40
1.0
 40
1.0
 10
228.9682244898129
 20
191.7058261821859
 30
0.0
 10
228.8507972133318
 20
191.7116176273839
 30
0.0
 10
228.5362137115618
 20
191.7271327033125
 30
0.0
 10
227.9558876148413
 20
191.7354368594117
 30
0.0
 10
227.3855205923597
 20
191.7266039818577
 30
0.0
 10
227.077380905729
 20
191.7112612440748
 30
0.0
 10
226.9682244897801
 20
191.7058261821861
 30
0.0
  0
ARC
  5
104
330
1F
100
AcDbEntity
  8
0
  6
Continuous
 62
     7
370
    25
100
AcDbCircle
 10
227.8261234604
 20
191.6679474929
 30
0.0
 40
1.142728995198422
100
AcDbArc
 50
304.5370768714
 51
1.8995638284
  0
LINE
  5
105
330
1F
100
AcDbEntity
  8
0
  6
Continuous
 62
     7
370
    25
100
AcDbLine
 10
228.9682244898
 20
204.1783679296
 30
0.0
 11
228.9682244898
 21
191.7058261822
 31
0.0
  0
ARC
  5
106
330
1F
100
AcDbEntity
  8
0
  6
Continuous
 62
     7
370
    25
100
AcDbCircle
 10
242.5326421219
 20
191.4742290783
 30
0.0
 40
0.9638213452588326
100
AcDbArc
 50
309.1334172848
 51
13.9036859786
  0
SPLINE
  5
107
330
1F
100
AcDbEntity
  8
0
  6
Continuous
 62
     7
370
    25
100
AcDbSpline
210
0.0
220
0.0
230
1.0
 70
     8
 71
     3
 72
     9
 73
     5
 74
     0
 42
0.00000001
 43
0.00000001
 40
0.0
 40
0.0
 40
0.0
 40
0.0
 40
0.5005562931490408
 40
1.0
 40
1.0
 40
1.0
 40
1.0
 10
228.9682244898129
 20
191.7058261821859
 30
0.0
 10
231.3875909738279
 20
191.4864775380623
 30
0.0
 10
236.2209464168182
 20
191.0482677959698
 30
0.0
 10
241.0542576240779
 20
191.4868026894197
 30
0.0
 10
243.4682244897959
 20
191.7058261821878
 30
0.0
  0
LINE
  5
108
330
1F
100
AcDbEntity
  8
0
  6
Continuous
 62
     7
370
    25
100
AcDbLine
 10
243.4682244898
 20
191.7058261822
 30
0.0
 11
243.4682244898
 21
204.1783679296
 31
0.0
  0
LINE
  5
109
330
1F
100
AcDbEntity
  8
0
  6
Continuous
 62
     7
370
    25
100
AcDbLine
 10
212.4682244898
 20
204.1783679296
 30
0.0
 11
211.4682244898
 21
204.1783679296
 31
0.0
  0
ARC
  5
10A
330
1F
100
AcDbEntity
  8
0
  6
Continuous
 62
     7
370
    25
100
AcDbCircle
 10
210.4682244898
 20
204.1783679296
 30
0.0
 40
1.0
100
AcDbArc
 50
0.0
 51
90.0
  0
LINE
  5
10B
330
1F
100
AcDbEntity
  8
0
  6
Continuous
 62
     7
370
    25
100
AcDbLine
 10
244.4682244898
 20
204.1783679296
 30
0.0
 11
243.4682244898
 21
204.1783679296
 31
0.0
  0
ARC
  5
10C
330
1F
100
AcDbEntity
  8
0
  6
Continuous
 62
     7
370
    25
100
AcDbCircle
 10
245.4682244898
 20
204.1783679296
 30
0.0
 40
1.0
100
AcDbArc
 50
90.0
 51
180.0
  0
SPLINE
  5
10D
330
1F
100
AcDbEntity
  8
0
  6
Continuous
 62
     7
370
    25
100
AcDbSpline
210
0.0
220
0.0
230
1.0
 70
     8
 71
     3
 72
    11
 73
     7
 74
     0
 42
0.00000001
 43
0.00000001
 40
0.0
 40
0.0
 40
0.0
 40
0.0
 40
0.1883467346499922
 40
0.5045742105980939
 40
0.8244987390967867
 40
1.0
 40
1.0
 40
1.0
 40
1.0
 10
212.4682244898129
 20
191.7058261821859
 30
0.0
 10
212.358470403017
 20
191.7116176273839
 30
0.0
 10
212.0644431038027
 20
191.7271327033125
 30
0.0
 10
211.7003887473135
 20
191.7354368594118
 30
0.0
 10
211.4937770496612
 20
191.7266039818573
 30
0.0
 10
211.4749085346166
 20
191.7112612440759
 30
0.0
 10
211.4682244897959
 20
191.7058261821878
 30
0.0
  0
LINE
  5
10E
330
1F
100
AcDbEntity
  8
0
  6
Continuous
 62
     7
370
    25
100
AcDbLine
 10
211.4682244898
 20
191.7058261822
 30
0.0
 11
211.4682244898
 21
204.1783679296
 31
0.0
  0
ARC
  5
10F
330
1F
100
AcDbEntity
  8
0
  6
Continuous
 62
     7
370
    25
100
AcDbCircle
 10
212.4647658953
 20
191.7076688355
 30
0.0
 40
0.996543109046328
100
AcDbArc
 50
180.1059425507
 51
259.8853664806
  0
LINE
  5
110
330
1F
100
AcDbEntity
  8
0
  6
Continuous
 62
     7
370
    25
100
AcDbLine
 10
244.4682244898
 20
204.1783679296
 30
0.0
 11
244.4682244898
 21
191.7058261822
 31
0.0
  0
SPLINE
  5
111
330
1F
100
AcDbEntity
  8
0
  6
Continuous
 62
     7
370
    25
100
AcDbSpline
210
0.0
220
0.0
230
1.0
 70
     8
 71
     3
 72
    11
 73
     7
 74
     0
 42
0.00000001
 43
0.00000001
 40
0.0
 40
0.0
 40
0.0
 40
0.0
 40
0.1883467346499906
 40
0.504574210598094
 40
0.8244987390967878
 40
1.0
 40
1.0
 40
1.0
 40
1.0
 10
244.4682244897959
 20
191.7058261821859
 30
0.0
 10
244.4605513001108
 20
191.7116176273839
 30
0.0
 10
244.4399950975551
 20
191.7271327033125
 30
0.0
 10
244.2237233573236
 20
191.7354368594118
 30
0.0
 10
243.8599680325007
 20
191.7266039818573
 30
0.0
 10
243.570696860919
 20
191.7112612440759
 30
0.0
 10
243.4682244897959
 20
191.7058261821878
 30
0.0
  0
ARC
  5
112
330
1F
100
AcDbEntity
  8
0
  6
Continuous
 62
     7
370
    25
100
AcDbCircle
 10
243.4716830843
 20
191.7076688355
 30
0.0
 40
0.9965431090430097
100
AcDbArc
 50
280.1146335193
 51
359.8940574493
  0
LINE
  5
113
330
1F
100
AcDbEntity
  8
0
  6
Continuous
 62
     7
370
    25
100
AcDbLine
 10
211.4682244898
 20
191.2674538242
 30
0.0
 11
211.4682244898
 21
191.7058261822
 31
0.0
  0
LINE
  5
114
330
1F
100
AcDbEntity
  8
0
  6
Continuous
 62
     7
370
    25
100
AcDbLine
 10
244.4682244898
 20
191.7058261822
 30
0.0
 11
244.4682244898
 21
191.2674538242
 31
0.0
  0
LINE
  5
115
330
1F
100
AcDbEntity
  8
0
  6
Continuous
 62
     7
370
    25
100
AcDbLine
 10
44.8786672055
 20
209.1783679296
 30
0.0
 11
48.2682244898
 21
209.1783679296
 31
0.0
  0
LINE
  5
116
330
1F
100
AcDbEntity
  8
0
  6
Continuous
 62
     7
370
    25
100
AcDbLine
 10
-2.3317755102
 20
209.1783679296
 30
0.0
 11
44.8786672055
 21
209.1783679296
 31
0.0
  0
LINE
  5
117
330
1F
100
AcDbEntity
  8
0
  6
Continuous
 62
     7
370
    25
100
AcDbLine
 10
47.7682244898
 20
205.1783679296
 30
0.0
 11
-1.8317755102
 21
205.1783679296
 31
0.0
  0
ELLIPSE
  5
118
330
1F
100
AcDbEntity
  8
0
  6
Continuous
 62
     7
370
    25
100
AcDbEllipse
 10
40.4682244898
 20
204.1783679296
 30
0.0
 11
2.0
 21
0.0
 31
0.0
210
0.0
220
0.0
230
1.0
 40
0.5
 41
1.570796326794897
 42
3.141592653589793
  0
LINE
  5
119
330
1F
100
AcDbEntity
  8
0
  6
Continuous
 62
     7
370
    25
100
AcDbLine
 10
38.4682244898
 20
204.1783679296
 30
0.0
 11
23.9682244898
 21
204.1783679296
 31
0.0
  0
ARC
  5
11A
330
1F
100
AcDbEntity
  8
0
  6
Continuous
 62
     7
370
    25
100
AcDbCircle
 10
22.9682244898
 20
204.1783679296
 30
0.0
 40
1.0
100
AcDbArc
 50
0.0
 51
90.0
  0
SPLINE
  5
11B
330
1F
100
AcDbEntity
  8
0
  6
Continuous
 62
     7
370
    25
100
AcDbSpline
210
0.0
220
0.0
230
1.0
 70
     8
 71
     3
 72
    11
 73
     7
 74
     0
 42
0.00000001
 43
0.00000001
 40
0.0
 40
0.0
 40
0.0
 40
0.0
 40
0.1755702971684376
 40
0.4954273686126015
 40
0.8115831191424612
 40
1.0
 40
1.0
 40
1.0
 40
1.0
 10
7.28975482258476
 20
190.726613642048
 30
0.0
 10
7.29339792561981
 20
190.7320484602102
 30
0.0
 10
7.303678098173713
 20
190.7473845261872
 30
0.0
 10
7.408582021656465
 20
190.7562279338769
 30
0.0
 10
7.592383107156139
 20
190.7479134116947
 30
0.0
 10
7.740283229821926
 20
190.7324048352607
 30
0.0
 10
7.795511908623834
 20
190.726613642048
 30
0.0
  0
SPLINE
  5
11C
330
1F
100
AcDbEntity
  8
0
  6
Continuous
 62
     7
370
    25
100
AcDbSpline
210
0.0
220
0.0
230
1.0
 70
     8
 71
     3
 72
    10
 73
     6
 74
     0
 42
0.00000001
 43
0.00000001
 40
0.0
 40
0.0
 40
0.0
 40
0.0
 40
0.5005066582626875
 40
0.8819976404752596
 40
1.0
 40
1.0
 40
1.0
 40
1.0
 10
22.46246740375682
 20
190.726613642048
 30
0.0
 10
20.01051433967138
 20
190.5155346121988
 30
0.0
 10
15.68965909953109
 20
190.1435691184188
 30
0.0
 10
10.79777166954711
 20
190.4079302346521
 30
0.0
 10
8.369238551531682
 20
190.6657137945879
 30
0.0
 10
7.79551190862382
 20
190.726613642048
 30
0.0
  0
SPLINE
  5
11D
330
1F
100
AcDbEntity
  8
0
  6
Continuous
 62
     7
370
    25
100
AcDbSpline
210
0.0
220
0.0
230
1.0
 70
     8
 71
     3
 72
    11
 73
     7
 74
     0
 42
0.00000001
 43
0.00000001
 40
0.0
 40
0.0
 40
0.0
 40
0.0
 40
0.1755702971684318
 40
0.4954273686125968
 40
0.8115831191424628
 40
1.0
 40
1.0
 40
1.0
 40
1.0
 10
22.46246740375682
 20
190.726613642048
 30
0.0
 10
22.51767391135422
 20
190.7320484602102
 30
0.0
 10
22.67345661053727
 20
190.7473845261872
 30
0.0
 10
22.96198273321762
 20
190.7562279338768
 30
0.0
 10
23.25555154783357
 20
190.7479134116947
 30
0.0
 10
23.41459264738159
 20
190.7324048352607
 30
0.0
 10
23.47398157583494
 20
190.726613642048
 30
0.0
  0
SPLINE
  5
11E
330
1F
100
AcDbEntity
  8
0
  6
Continuous
 62
     7
370
    25
100
AcDbSpline
210
0.0
220
0.0
230
1.0
 70
     8
 71
     3
 72
    10
 73
     6
 74
     0
 42
0.00000001
 43
0.00000001
 40
0.0
 40
0.0
 40
0.0
 40
0.0
 40
0.4999493505749382
 40
0.8818990399724891
 40
1.0
 40
1.0
 40
1.0
 40
1.0
 10
38.14093707096795
 20
190.726613642048
 30
0.0
 10
35.70370747304263
 20
190.5156949156765
 30
0.0
 10
31.40449108216005
 20
190.1436391822602
 30
0.0
 10
26.49564741261211
 20
190.4076055583462
 30
0.0
 10
24.05128596321936
 20
190.6656655504057
 30
0.0
 10
23.47398157583496
 20
190.726613642048
 30
0.0
  0
SPLINE
  5
11F
330
1F
100
AcDbEntity
  8
0
  6
Continuous
 62
     7
370
    25
100
AcDbSpline
210
0.0
220
0.0
230
1.0
 70
     8
 71
     3
 72
    11
 73
     7
 74
     0
 42
0.00000001
 43
0.00000001
 40
0.0
 40
0.0
 40
0.0
 40
0.0
 40
0.1755702971684234
 40
0.4954273686125955
 40
0.8115831191424592
 40
1.0
 40
1.0
 40
1.0
 40
1.0
 10
38.14093707096795
 20
190.726613642048
 30
0.0
 10
38.19250047553032
 20
190.7320484602102
 30
0.0
 10
38.33800300215945
 20
190.7473845261872
 30
0.0
 10
38.52162520135702
 20
190.7562279338769
 30
0.0
 10
38.63139293047334
 20
190.7479134116947
 30
0.0
 10
38.64253390735558
 20
190.7324048352607
 30
0.0
 10
38.64669415700703
 20
190.726613642048
 30
0.0
  0
ARC
  5
120
330
1F
100
AcDbEntity
  8
0
  6
Continuous
 62
     7
370
    25
100
AcDbCircle
 10
37.5326421219
 20
191.4742290783
 30
0.0
 40
0.9638213452588412
100
AcDbArc
 50
309.1334172848
 51
13.9036859786
  0
ARC
  5
121
330
1F
100
AcDbEntity
  8
0
  6
Continuous
 62
     7
370
    25
100
AcDbCircle
 10
22.8261234604
 20
191.6679474929
 30
0.0
 40
1.142728995198294
100
AcDbArc
 50
304.5370768714
 51
1.8995638284
  0
SPLINE
  5
122
330
1F
100
AcDbEntity
  8
0
  6
Continuous
 62
     7
370
    25
100
AcDbSpline
210
0.0
220
0.0
230
1.0
 70
     8
 71
     3
 72
     9
 73
     5
 74
     0
 42
0.00000001
 43
0.00000001
 40
0.0
 40
0.0
 40
0.0
 40
0.0
 40
0.4999999999994117
 40
1.0
 40
1.0
 40
1.0
 40
1.0
 10
23.96822448981288
 20
191.7058261821859
 30
0.0
 10
26.38489115647388
 20
191.4866400031869
 30
0.0
 10
31.21822448980158
 20
191.0482676451885
 30
0.0
 10
36.05155782312924
 20
191.4866400031879
 30
0.0
 10
38.46822448979592
 20
191.7058261821878
 30
0.0
  0
LINE
  5
123
330
1F
100
AcDbEntity
  8
0
  6
Continuous
 62
     7
370
    25
100
AcDbLine
 10
38.4682244898
 20
191.7058261822
 30
0.0
 11
38.4682244898
 21
204.1783679296
 31
0.0
  0
LINE
  5
124
330
1F
100
AcDbEntity
  8
0
  6
Continuous
 62
     7
370
    25
100
AcDbLine
 10
23.9682244898
 20
204.1783679296
 30
0.0
 11
23.9682244898
 21
191.7058261822
 31
0.0
  0
ARC
  5
125
330
1F
100
AcDbEntity
  8
0
  6
Continuous
 62
     7
370
    25
100
AcDbCircle
 10
22.9682244898
 20
204.1783679296
 30
0.0
 40
1.0
100
AcDbArc
 50
90.0
 51
180.0
  0
LINE
  5
126
330
1F
100
AcDbEntity
  8
0
  6
Continuous
 62
     7
370
    25
100
AcDbLine
 10
21.9682244898
 20
204.1783679296
 30
0.0
 11
7.4682244898
 21
204.1783679296
 31
0.0
  0
ELLIPSE
  5
127
330
1F
100
AcDbEntity
  8
0
  6
Continuous
 62
     7
370
    25
100
AcDbEllipse
 10
5.4682244898
 20
204.1783679296
 30
0.0
 11
2.000000000000002
 21
0.0
 31
0.0
210
0.0
220
0.0
230
1.0
 40
0.5
 41
0.0
 42
1.570796326794897
  0
LINE
  5
128
330
1F
100
AcDbEntity
  8
0
  6
Continuous
 62
     7
370
    25
100
AcDbLine
 10
23.9682244898
 20
204.1783679296
 30
0.0
 11
21.9682244898
 21
204.1783679296
 31
0.0
  0
ARC
  5
129
330
1F
100
AcDbEntity
  8
0
  6
Continuous
 62
     7
370
    25
100
AcDbCircle
 10
23.1103255193
 20
191.6679474929
 30
0.0
 40
1.142728995306175
100
AcDbArc
 50
178.1004361745
 51
235.4629231257
  0
SPLINE
  5
12A
330
1F
100
AcDbEntity
  8
0
  6
Continuous
 62
     7
370
    25
100
AcDbSpline
210
0.0
220
0.0
230
1.0
 70
     8
 71
     3
 72
    11
 73
     7
 74
     0
 42
0.00000001
 43
0.00000001
 40
0.0
 40
0.0
 40
0.0
 40
0.0
 40
0.1883467346482276
 40
0.504574210593379
 40
0.8244987390890842
 40
1.0
 40
1.0
 40
1.0
 40
1.0
 10
23.96822448981288
 20
191.7058261821859
 30
0.0
 10
23.85079721333178
 20
191.7116176273839
 30
0.0
 10
23.5362137115618
 20
191.7271327033126
 30
0.0
 10
22.95588761484124
 20
191.7354368594116
 30
0.0
 10
22.38552059235921
 20
191.7266039818577
 30
0.0
 10
22.07738090572821
 20
191.7112612440747
 30
0.0
 10
21.968224489779
 20
191.7058261821859
 30
0.0
  0
LINE
  5
12B
330
1F
100
AcDbEntity
  8
0
  6
Continuous
 62
     7
370
    25
100
AcDbLine
 10
21.9682244898
 20
191.7058261822
 30
0.0
 11
21.9682244898
 21
204.1783679296
 31
0.0
  0
ARC
  5
12C
330
1F
100
AcDbEntity
  8
0
  6
Continuous
 62
     7
370
    25
100
AcDbCircle
 10
8.4038068577
 20
191.4742290783
 30
0.0
 40
0.963821345276088
100
AcDbArc
 50
166.0963140214
 51
230.8665827135
  0
SPLINE
  5
12D
330
1F
100
AcDbEntity
  8
0
  6
Continuous
 62
     7
370
    25
100
AcDbSpline
210
0.0
220
0.0
230
1.0
 70
     8
 71
     3
 72
     9
 73
     5
 74
     0
 42
0.00000001
 43
0.00000001
 40
0.0
 40
0.0
 40
0.0
 40
0.0
 40
0.4994437068503679
 40
1.0
 40
1.0
 40
1.0
 40
1.0
 10
7.468224489812922
 20
191.7058261821859
 30
0.0
 10
9.882191355525288
 20
191.4868026894188
 30
0.0
 10
14.71550256277937
 20
191.0482677959703
 30
0.0
 10
19.548858005764
 20
191.4864775380623
 30
0.0
 10
21.968224489779
 20
191.7058261821859
 30
0.0
  0
LINE
  5
12E
330
1F
100
AcDbEntity
  8
0
  6
Continuous
 62
     7
370
    25
100
AcDbLine
 10
7.4682244898
 20
204.1783679296
 30
0.0
 11
7.4682244898
 21
191.7058261822
 31
0.0
  0
SPLINE
  5
12F
330
1F
100
AcDbEntity
  8
0
  6
Continuous
 62
     7
370
    25
100
AcDbSpline
210
0.0
220
0.0
230
1.0
 70
     8
 71
     3
 72
    33
 73
    29
 74
     0
 42
0.00000001
 43
0.00000001
 40
0.0
 40
0.0
 40
0.0
 40
0.0
 40
0.0470651230400128
 40
0.0879721838314564
 40
0.1295901402155708
 40
0.1704972010070149
 40
0.2084737427427457
 40
0.2471515828812222
 40
0.2853868158533454
 40
0.2939968648639428
 40
0.3349039256553868
 40
0.3765218820395012
 40
0.4174289428309452
 40
0.4583360036223889
 40
0.4999539600065033
 40
0.5408610207979473
 40
0.5817680815893909
 40
0.6233860379735053
 40
0.6642930987649494
 40
0.705200159556393
 40
0.7468181159405076
 40
0.7877251767319514
 40
0.8286322375233952
 40
0.8702501939075097
 40
0.9111572546989536
 40
0.9520643154903972
 40
0.9936822718745116
 40
1.0
 40
1.0
 40
1.0
 40
1.0
 10
13.07017626378862
 20
190.3540943133421
 30
0.0
 10
13.12033260227437
 20
189.731353361531
 30
0.0
 10
13.21408275832581
 20
188.5673516984411
 30
0.0
 10
14.30385705159223
 20
189.0656954530295
 30
0.0
 10
15.88486018476019
 20
189.0187587569087
 30
0.0
 10
17.91355045868776
 20
189.1077083219523
 30
0.0
 10
20.19941570998459
 20
189.1584456994231
 30
0.0
 10
22.59806984687347
 20
189.2207658679521
 30
0.0
 10
24.4023394472629
 20
189.2641556212192
 30
0.0
 10
26.18938905694196
 20
189.3063765512981
 30
0.0
 10
27.9760977073379
 20
189.3520927456762
 30
0.0
 10
30.04945612430895
 20
189.4172822843394
 30
0.0
 10
31.63927670791547
 20
189.4783812569307
 30
0.0
 10
32.6413076477216
 20
189.5393998301489
 30
0.0
 10
32.98264333958824
 20
189.604833361342
 30
0.0
 10
32.63945202739397
 20
189.6658676776236
 30
0.0
 10
31.6411163279119
 20
189.7269035423456
 30
0.0
 10
30.04926673756493
 20
189.792332374399
 30
0.0
 10
27.97441701825587
 20
189.8533679549311
 30
0.0
 10
25.56045906580356
 20
189.9144034104205
 30
0.0
 10
22.96786009282108
 20
189.9798326219478
 30
0.0
 10
20.37702746368448
 20
190.0408671132629
 30
0.0
 10
17.96052977804714
 20
190.101906558798
 30
0.0
 10
15.88959970996175
 20
190.1673207354732
 30
0.0
 10
14.28679427720736
 20
190.228410605699
 30
0.0
 10
13.33440715908185
 20
190.2892429638779
 30
0.0
 10
12.95367017321997
 20
190.3368886369519
 30
0.0
 10
13.1009247898486
 20
190.3607949895957
 30
0.0
 10
13.12033234901044
 20
190.3639457495781
 30
0.0
  0
LINE
  5
130
330
1F
100
AcDbEntity
  8
0
  6
Continuous
 62
     7
370
    25
100
AcDbLine
 10
39.4682244898
 20
204.1783679296
 30
0.0
 11
38.4682244898
 21
204.1783679296
 31
0.0
  0
ARC
  5
131
330
1F
100
AcDbEntity
  8
0
  6
Continuous
 62
     7
370
    25
100
AcDbCircle
 10
40.4682244898
 20
204.1783679296
 30
0.0
 40
1.0
100
AcDbArc
 50
90.0
 51
180.0
  0
LINE
  5
132
330
1F
100
AcDbEntity
  8
0
  6
Continuous
 62
     7
370
    25
100
AcDbLine
 10
7.4682244898
 20
204.1783679296
 30
0.0
 11
6.4682244898
 21
204.1783679296
 31
0.0
  0
ARC
  5
133
330
1F
100
AcDbEntity
  8
0
  6
Continuous
 62
     7
370
    25
100
AcDbCircle
 10
5.4682244898
 20
204.1783679296
 30
0.0
 40
1.000000000000001
100
AcDbArc
 50
0.0
 51
90.0
  0
LINE
  5
134
330
1F
100
AcDbEntity
  8
0
  6
Continuous
 62
     7
370
    25
100
AcDbLine
 10
39.4682244898
 20
204.1783679296
 30
0.0
 11
39.4682244898
 21
191.7058261822
 31
0.0
  0
SPLINE
  5
135
330
1F
100
AcDbEntity
  8
0
  6
Continuous
 62
     7
370
    25
100
AcDbSpline
210
0.0
220
0.0
230
1.0
 70
     8
 71
     3
 72
    11
 73
     7
 74
     0
 42
0.00000001
 43
0.00000001
 40
0.0
 40
0.0
 40
0.0
 40
0.0
 40
0.1883467346499919
 40
0.5045742105980949
 40
0.8244987390967885
 40
1.0
 40
1.0
 40
1.0
 40
1.0
 10
39.46822448979588
 20
191.7058261821859
 30
0.0
 10
39.46055130011074
 20
191.7116176273839
 30
0.0
 10
39.4399950975551
 20
191.7271327033125
 30
0.0
 10
39.22372335732361
 20
191.7354368594119
 30
0.0
 10
38.85996803250064
 20
191.7266039818573
 30
0.0
 10
38.57069686091901
 20
191.7112612440759
 30
0.0
 10
38.46822448979592
 20
191.7058261821878
 30
0.0
  0
ARC
  5
136
330
1F
100
AcDbEntity
  8
0
  6
Continuous
 62
     7
370
    25
100
AcDbCircle
 10
38.4716830843
 20
191.7076688355
 30
0.0
 40
0.9965431090430376
100
AcDbArc
 50
280.1146335193
 51
359.8940574493
  0
SPLINE
  5
137
330
1F
100
AcDbEntity
  8
0
  6
Continuous
 62
     7
370
    25
100
AcDbSpline
210
0.0
220
0.0
230
1.0
 70
     8
 71
     3
 72
    11
 73
     7
 74
     0
 42
0.00000001
 43
0.00000001
 40
0.0
 40
0.0
 40
0.0
 40
0.0
 40
0.1883467346500106
 40
0.5045742105981007
 40
0.8244987390967872
 40
1.0
 40
1.0
 40
1.0
 40
1.0
 10
7.468224489812922
 20
191.7058261821859
 30
0.0
 10
7.358470403016987
 20
191.7116176273839
 30
0.0
 10
7.064443103802665
 20
191.7271327033125
 30
0.0
 10
6.700388747313476
 20
191.7354368594119
 30
0.0
 10
6.493777049661128
 20
191.7266039818573
 30
0.0
 10
6.474908534616561
 20
191.7112612440759
 30
0.0
 10
6.468224489795893
 20
191.7058261821878
 30
0.0
  0
ARC
  5
138
330
1F
100
AcDbEntity
  8
0
  6
Continuous
 62
     7
370
    25
100
AcDbCircle
 10
7.4647658953
 20
191.7076688355
 30
0.0
 40
0.9965431090463587
100
AcDbArc
 50
180.1059425507
 51
259.8853664806
  0
LINE
  5
139
330
1F
100
AcDbEntity
  8
0
  6
Continuous
 62
     7
370
    25
100
AcDbLine
 10
6.4682244898
 20
191.7058261822
 30
0.0
 11
6.4682244898
 21
204.1783679296
 31
0.0
  0
LINE
  5
13A
330
1F
100
AcDbEntity
  8
0
  6
Continuous
 62
     7
370
    25
100
AcDbLine
 10
39.4682244898
 20
191.7058261822
 30
0.0
 11
39.4682244898
 21
191.2674538242
 31
0.0
  0
LINE
  5
13B
330
1F
100
AcDbEntity
  8
0
  6
Continuous
 62
     7
370
    25
100
AcDbLine
 10
6.4682244898
 20
191.2674538242
 30
0.0
 11
6.4682244898
 21
191.7058261822
 31
0.0
  0
SPLINE
  5
13C
330
1F
100
AcDbEntity
  8
0
  6
Continuous
 62
     7
370
    25
100
AcDbSpline
210
0.0
220
0.0
230
1.0
 70
    24
 71
     3
 72
    10
 73
     6
 74
     0
 42
0.00000001
 43
0.00000001
 40
0.0
 40
0.0
 40
0.0
 40
0.0
 40
0.3516701239084279
 40
0.929931518617137
 40
1.0
 40
1.0
 40
1.0
 40
1.0
 10
227.2804255305839
 20
137.2283679296472
 30
0.0
 10
226.884037724901
 20
137.2283679296472
 30
0.0
 10
225.8358579420884
 20
137.2283679296472
 30
0.0
 10
224.7473914811331
 20
137.2283679296472
 30
0.0
 10
224.0623146616924
 20
137.2283679296472
 30
0.0
 10
223.9882747413695
 20
137.2283679296472
 30
0.0
  0
ARC
  5
13D
330
1F
100
AcDbEntity
  8
0
  6
Continuous
 62
     7
370
    25
100
AcDbCircle
 10
227.9682244898
 20
146.7283679296
 30
0.0
 40
10.29999999999999
100
AcDbArc
 50
232.7308609266
 51
247.2691390734
  0
SPLINE
  5
13E
330
1F
100
AcDbEntity
  8
0
  6
Continuous
 62
     7
370
    25
100
AcDbSpline
210
0.0
220
0.0
230
1.0
 70
    24
 71
     3
 72
    11
 73
     7
 74
     0
 42
0.00000001
 43
0.00000001
 40
0.0
 40
0.0
 40
0.0
 40
0.0
 40
0.2431641197380915
 40
0.4936284730588943
 40
0.7421706076863293
 40
1.0
 40
1.0
 40
1.0
 40
1.0
 10
221.730958028057
 20
138.5316303417244
 30
0.0
 10
221.4171990263603
 20
139.0750768739952
 30
0.0
 10
220.7802614013404
 20
140.178285201782
 30
0.0
 10
219.7698724323337
 20
141.9283302315085
 30
0.0
 10
218.7381653044978
 20
143.7152993954514
 30
0.0
 10
218.0840595615995
 20
144.8482437756737
 30
0.0
 10
217.7510082796305
 20
145.42510551757
 30
0.0
  0
ARC
  5
13F
330
1F
100
AcDbEntity
  8
0
  6
Continuous
 62
     7
370
    25
100
AcDbCircle
 10
227.9682244898
 20
146.7283679296
 30
0.0
 40
10.30000000000001
100
AcDbArc
 50
172.7308609266
 51
187.2691390734
  0
SPLINE
  5
140
330
1F
100
AcDbEntity
  8
0
  6
Continuous
 62
     7
370
    25
100
AcDbSpline
210
0.0
220
0.0
230
1.0
 70
    24
 71
     3
 72
    11
 73
     7
 74
     0
 42
0.00000001
 43
0.00000001
 40
0.0
 40
0.0
 40
0.0
 40
0.0
 40
0.2431641197380907
 40
0.4936284730588934
 40
0.7421706076863288
 40
1.0
 40
1.0
 40
1.0
 40
1.0
 10
217.7510082796305
 20
148.0316303417244
 30
0.0
 10
218.0647672813273
 20
148.5750768739952
 30
0.0
 10
218.7017049063472
 20
149.678285201782
 30
0.0
 10
219.7120938753538
 20
151.4283302315085
 30
0.0
 10
220.7438010031898
 20
153.2152993954514
 30
0.0
 10
221.397906746088
 20
154.3482437756738
 30
0.0
 10
221.730958028057
 20
154.92510551757
 30
0.0
  0
ARC
  5
141
330
1F
100
AcDbEntity
  8
0
  6
Continuous
 62
     7
370
    25
100
AcDbCircle
 10
227.9682244898
 20
146.7283679296
 30
0.0
 40
10.30000000000001
100
AcDbArc
 50
112.7308609266
 51
127.2691390734
  0
SPLINE
  5
142
330
1F
100
AcDbEntity
  8
0
  6
Continuous
 62
     7
370
    25
100
AcDbSpline
210
0.0
220
0.0
230
1.0
 70
    24
 71
     3
 72
    10
 73
     6
 74
     0
 42
0.00000001
 43
0.00000001
 40
0.0
 40
0.0
 40
0.0
 40
0.0
 40
0.0794608146347193
 40
0.735235288242773
 40
1.0
 40
1.0
 40
1.0
 40
1.0
 10
223.9882747413695
 20
156.2283679296472
 30
0.0
 10
224.0623199184932
 20
156.2283679296472
 30
0.0
 10
224.7474453780778
 20
156.2283679296472
 30
0.0
 10
225.7054839871015
 20
156.2283679296472
 30
0.0
 10
226.6195570882701
 20
156.2283679296472
 30
0.0
 10
226.8824620302905
 20
156.2283679296472
 30
0.0
  0
ARC
  5
143
330
1F
100
AcDbEntity
  8
0
  6
Continuous
 62
     7
370
    25
100
AcDbCircle
 10
22.9682244898
 20
146.7283679296
 30
0.0
 40
10.3
100
AcDbArc
 50
292.7308609266
 51
307.2691390734
  0
SPLINE
  5
144
330
1F
100
AcDbEntity
  8
0
  6
Continuous
 62
     7
370
    25
100
AcDbSpline
210
0.0
220
0.0
230
1.0
 70
    24
 71
     3
 72
    10
 73
     6
 74
     0
 42
0.00000001
 43
0.00000001
 40
0.0
 40
0.0
 40
0.0
 40
0.0
 40
0.0995002977140804
 40
0.8777987074209384
 40
1.0
 40
1.0
 40
1.0
 40
1.0
 10
26.94817423822238
 20
137.2283679296472
 30
0.0
 10
26.87294797496853
 20
137.2283679296472
 30
0.0
 10
26.20929652702918
 20
137.2283679296472
 30
0.0
 10
25.43583691541237
 20
137.2283679296472
 30
0.0
 10
24.71246038641391
 20
137.2283679296472
 30
0.0
 10
24.61429539353212
 20
137.2283679296472
 30
0.0
  0
SPLINE
  5
145
330
1F
100
AcDbEntity
  8
0
  6
Continuous
 62
     7
370
    25
100
AcDbSpline
210
0.0
220
0.0
230
1.0
 70
    24
 71
     3
 72
    11
 73
     7
 74
     0
 42
0.00000001
 43
0.00000001
 40
0.0
 40
0.0
 40
0.0
 40
0.0
 40
0.0053048136747014
 40
0.4723053339084898
 40
0.9401847189630732
 40
1.0
 40
1.0
 40
1.0
 40
1.0
 10
23.01807864978204
 20
156.2283679296472
 30
0.0
 10
23.02516234590808
 20
156.2283679296472
 30
0.0
 10
23.65584754415806
 20
156.2283679296472
 30
0.0
 10
24.92140252680179
 20
156.2283679296471
 30
0.0
 10
26.20948886527855
 20
156.2283679296472
 30
0.0
 10
26.87296755721809
 20
156.2283679296472
 30
0.0
 10
26.94817423822236
 20
156.2283679296472
 30
0.0
  0
ARC
  5
146
330
1F
100
AcDbEntity
  8
0
  6
Continuous
 62
     7
370
    25
100
AcDbCircle
 10
22.9682244898
 20
146.7283679296
 30
0.0
 40
10.30000000000001
100
AcDbArc
 50
52.7308609266
 51
67.2691390734
  0
SPLINE
  5
147
330
1F
100
AcDbEntity
  8
0
  6
Continuous
 62
     7
370
    25
100
AcDbSpline
210
0.0
220
0.0
230
1.0
 70
    24
 71
     3
 72
    11
 73
     7
 74
     0
 42
0.00000001
 43
0.00000001
 40
0.0
 40
0.0
 40
0.0
 40
0.0
 40
0.2431641197380914
 40
0.4936284730588929
 40
0.742170607686329
 40
1.0
 40
1.0
 40
1.0
 40
1.0
 10
29.20549095153484
 20
154.92510551757
 30
0.0
 10
29.51924995323159
 20
154.3816589852991
 30
0.0
 10
30.15618757825152
 20
153.2784506575124
 30
0.0
 10
31.1665765472581
 20
151.5284056277858
 30
0.0
 10
32.19828367509409
 20
149.7414364638429
 30
0.0
 10
32.85238941799233
 20
148.6084920836206
 30
0.0
 10
33.18544069996132
 20
148.0316303417243
 30
0.0
  0
ARC
  5
148
330
1F
100
AcDbEntity
  8
0
  6
Continuous
 62
     7
370
    25
100
AcDbCircle
 10
22.9682244898
 20
146.7283679296
 30
0.0
 40
10.3
100
AcDbArc
 50
352.7308609266
 51
7.2691390734
  0
SPLINE
  5
149
330
1F
100
AcDbEntity
  8
0
  6
Continuous
 62
     7
370
    25
100
AcDbSpline
210
0.0
220
0.0
230
1.0
 70
    24
 71
     3
 72
    11
 73
     7
 74
     0
 42
0.00000001
 43
0.00000001
 40
0.0
 40
0.0
 40
0.0
 40
0.0
 40
0.2431641197380913
 40
0.4936284730588938
 40
0.742170607686329
 40
1.0
 40
1.0
 40
1.0
 40
1.0
 10
33.18544069996132
 20
145.42510551757
 30
0.0
 10
32.87168169826457
 20
144.8816589852991
 30
0.0
 10
32.23474407324463
 20
143.7784506575124
 30
0.0
 10
31.22435510423804
 20
142.0284056277858
 30
0.0
 10
30.19264797640202
 20
140.2414364638429
 30
0.0
 10
29.53854223350383
 20
139.1084920836206
 30
0.0
 10
29.20549095153484
 20
138.5316303417244
 30
0.0
  0
ARC
  5
14A
330
1F
100
AcDbEntity
  8
0
  6
Continuous
 62
     7
370
    25
100
AcDbCircle
 10
22.9682244898
 20
146.7283679296
 30
0.0
 40
10.575
100
AcDbArc
 50
264.5490172093
 51
30.0
  0
ARC
  5
14B
330
1F
100
AcDbEntity
  8
0
  6
Continuous
 62
     7
370
    25
100
AcDbCircle
 10
22.9682244898
 20
146.7283679296
 30
0.0
 40
10.57500000000002
100
AcDbArc
 50
30.0
 51
101.0490866707
  0
ARC
  5
14C
330
1F
100
AcDbEntity
  8
0
  6
Continuous
 62
     7
370
    25
100
AcDbCircle
 10
22.9682244898
 20
146.7283679296
 30
0.0
 40
14.875
100
AcDbArc
 50
235.1611835908
 51
30.0
  0
ARC
  5
14D
330
1F
100
AcDbEntity
  8
0
  6
Continuous
 62
     7
370
    25
100
AcDbCircle
 10
22.9682244898
 20
146.7283679296
 30
0.0
 40
14.875
100
AcDbArc
 50
30.0
 51
128.4167037132
  0
ARC
  5
14E
330
1F
100
AcDbEntity
  8
0
  6
Continuous
 62
     7
370
    25
100
AcDbCircle
 10
22.9682244898
 20
146.7283679296
 30
0.0
 40
16.19999999999999
100
AcDbArc
 50
225.9729863763
 51
138.1420914366
  0
SPLINE
  5
14F
330
1F
100
AcDbEntity
  8
0
  6
Continuous
 62
     7
370
    25
100
AcDbSpline
210
0.0
220
0.0
230
1.0
 70
     8
 71
     3
 72
     9
 73
     5
 74
     0
 42
0.00000001
 43
0.00000001
 40
0.0
 40
0.0
 40
0.0
 40
0.0
 40
0.5850553834534097
 40
1.0
 40
1.0
 40
1.0
 40
1.0
 10
11.8418138418811
 20
133.499876477711
 30
0.0
 10
12.10158876168994
 20
133.113329952147
 30
0.0
 10
12.54560641737831
 20
132.4526292108217
 30
0.0
 10
13.21745760941116
 20
131.9744703786956
 30
0.0
 10
13.49623864466559
 20
131.7760609454507
 30
0.0
  0
LINE
  5
150
330
1F
100
AcDbEntity
  8
0
  6
Continuous
 62
     7
370
    25
100
AcDbLine
 10
10.5398090544
 20
135.7550149213
 30
0.0
 11
11.8418138419
 21
133.4998764777
 31
0.0
  0
SPLINE
  5
151
330
1F
100
AcDbEntity
  8
0
  6
Continuous
 62
     7
370
    25
100
AcDbSpline
210
0.0
220
0.0
230
1.0
 70
    24
 71
     3
 72
     9
 73
     5
 74
     0
 42
0.00000001
 43
0.00000001
 40
0.0
 40
0.0
 40
0.0
 40
0.0
 40
0.7733177039816819
 40
1.0
 40
1.0
 40
1.0
 40
1.0
 10
11.8418138418819
 20
159.9568593815848
 30
0.0
 10
11.39682424797606
 20
159.1861147961004
 30
0.0
 10
10.82139504001324
 20
158.1894421717496
 30
0.0
 10
10.22027727739024
 20
157.1482756655545
 30
0.0
 10
10.08401452278146
 20
156.9122616513928
 30
0.0
  0
SPLINE
  5
152
330
1F
100
AcDbEntity
  8
0
  6
Continuous
 62
     7
370
    25
100
AcDbSpline
210
0.0
220
0.0
230
1.0
 70
     8
 71
     3
 72
     9
 73
     5
 74
     0
 42
0.00000001
 43
0.00000001
 40
0.0
 40
0.0
 40
0.0
 40
0.0
 40
0.584191749740925
 40
1.0
 40
1.0
 40
1.0
 40
1.0
 10
13.49623864466559
 20
161.6806749138436
 30
0.0
 10
13.10858237921503
 20
161.3913990103439
 30
0.0
 10
12.44500528210184
 20
160.8962261435103
 30
0.0
 10
12.01896493369335
 20
160.2327416908991
 30
0.0
 10
11.8418138418819
 20
159.9568593815848
 30
0.0
  0
ARC
  5
153
330
1F
100
AcDbEntity
  8
0
  6
Continuous
 62
     7
370
    25
100
AcDbCircle
 10
22.9682244898
 20
146.7283679296
 30
0.0
 40
17.70000000000002
100
AcDbArc
 50
117.6465635726
 51
122.3534364274
  0
SPLINE
  5
154
330
1F
100
AcDbEntity
  8
0
  6
Continuous
 62
     7
370
    25
100
AcDbSpline
210
0.0
220
0.0
230
1.0
 70
     8
 71
     3
 72
     9
 73
     5
 74
     0
 42
0.00000001
 43
0.00000001
 40
0.0
 40
0.0
 40
0.0
 40
0.0
 40
0.5850553834536162
 40
1.0
 40
1.0
 40
1.0
 40
1.0
 10
17.07522016262966
 20
162.9783679296472
 30
0.0
 10
16.61057359184234
 20
162.9466695126085
 30
0.0
 10
15.81638113771179
 20
162.892489313716
 30
0.0
 10
15.06635784603085
 20
162.5497285299159
 30
0.0
 10
14.75513971886343
 20
162.4075017879149
 30
0.0
  0
SPLINE
  5
155
330
1F
100
AcDbEntity
  8
0
  6
Continuous
 62
     7
370
    25
100
AcDbSpline
210
0.0
220
0.0
230
1.0
 70
    24
 71
     3
 72
    11
 73
     7
 74
     0
 42
0.00000001
 43
0.00000001
 40
0.0
 40
0.0
 40
0.0
 40
0.0
 40
0.2328716322111479
 40
0.4710265024313248
 40
0.7311421212560302
 40
0.9999999999999999
 40
0.9999999999999999
 40
0.9999999999999999
 40
0.9999999999999999
 10
28.86122881696215
 20
162.9783679296472
 30
0.0
 10
27.96737238664171
 20
162.9783679296472
 30
0.0
 10
26.15938030082239
 20
162.9783679296472
 30
0.0
 10
23.23170756025943
 20
162.9783679296472
 30
0.0
 10
20.14460864978147
 20
162.9783679296472
 30
0.0
 10
18.10956062879532
 20
162.9783679296472
 30
0.0
 10
17.07522016262966
 20
162.9783679296472
 30
0.0
  0
SPLINE
  5
156
330
1F
100
AcDbEntity
  8
0
  6
Continuous
 62
     7
370
    25
100
AcDbSpline
210
0.0
220
0.0
230
1.0
 70
     8
 71
     3
 72
     9
 73
     5
 74
     0
 42
0.00000001
 43
0.00000001
 40
0.0
 40
0.0
 40
0.0
 40
0.0
 40
0.5841917497409234
 40
1.0
 40
1.0
 40
1.0
 40
1.0
 10
31.1813092607284
 20
162.4075017879149
 30
0.0
 10
30.73696084686966
 20
162.5985840099814
 30
0.0
 10
29.97634001637042
 20
162.9256722000342
 30
0.0
 10
29.18872545118885
 20
162.9628917384875
 30
0.0
 10
28.86122881696215
 20
162.9783679296472
 30
0.0
  0
ARC
  5
157
330
1F
100
AcDbEntity
  8
0
  6
Continuous
 62
     7
370
    25
100
AcDbCircle
 10
22.9682244898
 20
146.7283679296
 30
0.0
 40
17.70000000000002
100
AcDbArc
 50
57.6465635726
 51
62.3534364274
  0
SPLINE
  5
158
330
1F
100
AcDbEntity
  8
0
  6
Continuous
 62
     7
370
    25
100
AcDbSpline
210
0.0
220
0.0
230
1.0
 70
     8
 71
     3
 72
     9
 73
     5
 74
     0
 42
0.00000001
 43
0.00000001
 40
0.0
 40
0.0
 40
0.0
 40
0.0
 40
0.5850553834536193
 40
1.0
 40
1.0
 40
1.0
 40
1.0
 10
34.09463513770991
 20
159.9568593815848
 30
0.0
 10
33.83486021790101
 20
160.3434059071486
 30
0.0
 10
33.39084256221273
 20
161.0041066484733
 30
0.0
 10
32.71899137018033
 20
161.482265480599
 30
0.0
 10
32.44021033492621
 20
161.6806749138436
 30
0.0
  0
SPLINE
  5
159
330
1F
100
AcDbEntity
  8
0
  6
Continuous
 62
     7
370
    25
100
AcDbSpline
210
0.0
220
0.0
230
1.0
 70
    24
 71
     3
 72
    11
 73
     7
 74
     0
 42
0.00000001
 43
0.00000001
 40
0.0
 40
0.0
 40
0.0
 40
0.0
 40
0.2556279644380972
 40
0.5185037642963867
 40
0.7560467972580103
 40
1.0
 40
1.0
 40
1.0
 40
1.0
 10
39.98763946487615
 20
149.7498764777096
 30
0.0
 10
39.49634638660795
 20
150.600821050677
 30
0.0
 10
38.49983056716397
 20
152.3268370805002
 30
0.0
 10
36.97961966071078
 20
154.9599196086974
 30
0.0
 10
35.48790393916259
 20
157.5436470288681
 30
0.0
 10
34.56316177565613
 20
159.1453474399625
 30
0.0
 10
34.09463513770991
 20
159.9568593815848
 30
0.0
  0
SPLINE
  5
15A
330
1F
100
AcDbEntity
  8
0
  6
Continuous
 62
     7
370
    25
100
AcDbSpline
210
0.0
220
0.0
230
1.0
 70
     8
 71
     3
 72
     9
 73
     5
 74
     0
 42
0.00000001
 43
0.00000001
 40
0.0
 40
0.0
 40
0.0
 40
0.0
 40
0.5841917497409242
 40
1.0
 40
1.0
 40
1.0
 40
1.0
 10
40.65329510585872
 20
147.4551948037184
 30
0.0
 10
40.59660295745054
 20
147.9355529292847
 30
0.0
 10
40.49955922406452
 20
148.757813986171
 30
0.0
 10
40.13798500729139
 20
149.4585179772355
 30
0.0
 10
39.98763946487615
 20
149.7498764777096
 30
0.0
  0
ARC
  5
15B
330
1F
100
AcDbEntity
  8
0
  6
Continuous
 62
     7
370
    25
100
AcDbCircle
 10
22.9682244898
 20
146.7283679296
 30
0.0
 40
17.70000000000001
100
AcDbArc
 50
357.6465635726
 51
2.3534364274
  0
SPLINE
  5
15C
330
1F
100
AcDbEntity
  8
0
  6
Continuous
 62
     7
370
    25
100
AcDbSpline
210
0.0
220
0.0
230
1.0
 70
     8
 71
     3
 72
     9
 73
     5
 74
     0
 42
0.00000001
 43
0.00000001
 40
0.0
 40
0.0
 40
0.0
 40
0.0
 40
0.5850553834536182
 40
0.9999999999999999
 40
0.9999999999999999
 40
0.9999999999999999
 40
0.9999999999999999
 10
39.98763946487615
 20
143.7068593815848
 30
0.0
 10
40.19251111585459
 20
144.1251043241872
 30
0.0
 10
40.54268591429687
 20
144.8399852644044
 30
0.0
 10
40.62085801394541
 20
145.6609048803302
 30
0.0
 10
40.6532951058587
 20
146.0015410555759
 30
0.0
  0
SPLINE
  5
15D
330
1F
100
AcDbEntity
  8
0
  6
Continuous
 62
     7
370
    25
100
AcDbSpline
210
0.0
220
0.0
230
1.0
 70
    24
 71
     3
 72
    11
 73
     7
 74
     0
 42
0.00000001
 43
0.00000001
 40
0.0
 40
0.0
 40
0.0
 40
0.0
 40
0.2328716322111471
 40
0.471026502431323
 40
0.7311421212560296
 40
1.0
 40
1.0
 40
1.0
 40
1.0
 10
34.0946351377099
 20
133.4998764777096
 30
0.0
 10
34.54156335287012
 20
134.2739788537031
 30
0.0
 10
35.44555939577975
 20
135.8397459298639
 30
0.0
 10
36.90939576606127
 20
138.3751848971586
 30
0.0
 10
38.45294522130023
 20
141.0486909776278
 30
0.0
 10
39.47046923179333
 20
142.8110942617231
 30
0.0
 10
39.98763946487615
 20
143.7068593815848
 30
0.0
  0
SPLINE
  5
15E
330
1F
100
AcDbEntity
  8
0
  6
Continuous
 62
     7
370
    25
100
AcDbSpline
210
0.0
220
0.0
230
1.0
 70
     8
 71
     3
 72
     9
 73
     5
 74
     0
 42
0.00000001
 43
0.00000001
 40
0.0
 40
0.0
 40
0.0
 40
0.0
 40
0.5841917497409237
 40
1.0
 40
1.0
 40
1.0
 40
1.0
 10
32.44021033492622
 20
131.7760609454507
 30
0.0
 10
32.82786660037677
 20
132.0653368489504
 30
0.0
 10
33.49144369748998
 20
132.560509715784
 30
0.0
 10
33.91748404589843
 20
133.2239941683952
 30
0.0
 10
34.0946351377099
 20
133.4998764777096
 30
0.0
  0
ARC
  5
15F
330
1F
100
AcDbEntity
  8
0
  6
Continuous
 62
     7
370
    25
100
AcDbCircle
 10
22.9682244898
 20
146.7283679296
 30
0.0
 40
17.70000000000001
100
AcDbArc
 50
297.6465635726
 51
302.3534364274
  0
SPLINE
  5
160
330
1F
100
AcDbEntity
  8
0
  6
Continuous
 62
     7
370
    25
100
AcDbSpline
210
0.0
220
0.0
230
1.0
 70
     8
 71
     3
 72
     9
 73
     5
 74
     0
 42
0.00000001
 43
0.00000001
 40
0.0
 40
0.0
 40
0.0
 40
0.0
 40
0.5850553834536171
 40
1.0
 40
1.0
 40
1.0
 40
1.0
 10
28.86122881696214
 20
130.4783679296471
 30
0.0
 10
29.32587538774944
 20
130.5100663466858
 30
0.0
 10
30.12006784188
 20
130.5642465455784
 30
0.0
 10
30.87009113356095
 20
130.9070073293784
 30
0.0
 10
31.18130926072836
 20
131.0492340713794
 30
0.0
  0
SPLINE
  5
161
330
1F
100
AcDbEntity
  8
0
  6
Continuous
 62
     7
370
    25
100
AcDbSpline
210
0.0
220
0.0
230
1.0
 70
    24
 71
     3
 72
    11
 73
     7
 74
     0
 42
0.00000001
 43
0.00000001
 40
0.0
 40
0.0
 40
0.0
 40
0.0
 40
0.2328716322111485
 40
0.471026502431326
 40
0.7311421212560308
 40
1.0
 40
1.0
 40
1.0
 40
1.0
 10
17.07522016262968
 20
130.4783679296471
 30
0.0
 10
17.96907659295013
 20
130.4783679296472
 30
0.0
 10
19.77706867876947
 20
130.4783679296472
 30
0.0
 10
22.70474141933235
 20
130.4783679296471
 30
0.0
 10
25.79184032981037
 20
130.4783679296472
 30
0.0
 10
27.82688835079653
 20
130.4783679296472
 30
0.0
 10
28.86122881696214
 20
130.4783679296471
 30
0.0
  0
SPLINE
  5
162
330
1F
100
AcDbEntity
  8
0
  6
Continuous
 62
     7
370
    25
100
AcDbSpline
210
0.0
220
0.0
230
1.0
 70
     8
 71
     3
 72
     9
 73
     5
 74
     0
 42
0.00000001
 43
0.00000001
 40
0.0
 40
0.0
 40
0.0
 40
0.0
 40
0.5841917497409266
 40
1.0
 40
1.0
 40
1.0
 40
1.0
 10
14.75513971886344
 20
131.0492340713794
 30
0.0
 10
15.19948813272218
 20
130.8581518493129
 30
0.0
 10
15.96010896322142
 20
130.5310636592601
 30
0.0
 10
16.74772352840296
 20
130.4938441208069
 30
0.0
 10
17.07522016262968
 20
130.4783679296471
 30
0.0
  0
ARC
  5
163
330
1F
100
AcDbEntity
  8
0
  6
Continuous
 62
     7
370
    25
100
AcDbCircle
 10
22.9682244898
 20
146.7283679296
 30
0.0
 40
17.70000000000001
100
AcDbArc
 50
237.6465635726
 51
242.3534364274
  0
LWPOLYLINE
  5
164
330
1F
100
AcDbEntity
  8
0
  6
Continuous
 62
     7
370
    25
100
AcDbPolyline
 90
        3
 70
   128
 43
0.0
 10
220.3514696067
 20
140.6416984749
 10
219.5244768029
 20
141.8533679296
 10
218.8955270614
 20
143.1578411655
  0
ARC
  5
165
330
1F
100
AcDbEntity
  8
0
  6
Continuous
 62
     7
370
    25
100
AcDbCircle
 10
227.9682244898
 20
146.7283679296
 30
0.0
 40
14.87500000000001
100
AcDbArc
 50
53.3837470415
 51
306.6156955593
  0
ARC
  5
166
330
1F
100
AcDbEntity
  8
0
  6
Continuous
 62
     7
370
    25
100
AcDbCircle
 10
227.9682244898
 20
146.7283679296
 30
0.0
 40
10.57499999999999
100
AcDbArc
 50
81.6509017607
 51
278.3490982393
  0
ARC
  5
167
330
1F
100
AcDbEntity
  8
0
  6
Continuous
 62
     7
370
    25
100
AcDbCircle
 10
227.9682244898
 20
146.7283679296
 30
0.0
 40
16.19999999999997
100
AcDbArc
 50
210.0
 51
316.0742282651
  0
ARC
  5
168
330
1F
100
AcDbEntity
  8
0
  6
Continuous
 62
     7
370
    25
100
AcDbCircle
 10
227.9682244898
 20
146.7283679296
 30
0.0
 40
16.2
100
AcDbArc
 50
43.9250761661
 51
210.0
  0
SPLINE
  5
169
330
1F
100
AcDbEntity
  8
0
  6
Continuous
 62
     7
370
    25
100
AcDbSpline
210
0.0
220
0.0
230
1.0
 70
     8
 71
     3
 72
     9
 73
     5
 74
     0
 42
0.00000001
 43
0.00000001
 40
0.0
 40
0.0
 40
0.0
 40
0.0
 40
0.5850553834534097
 40
1.0
 40
1.0
 40
1.0
 40
1.0
 10
216.8418138418811
 20
133.499876477711
 30
0.0
 10
217.10158876169
 20
133.113329952147
 30
0.0
 10
217.5456064173783
 20
132.4526292108217
 30
0.0
 10
218.2174576094112
 20
131.9744703786956
 30
0.0
 10
218.4962386446656
 20
131.7760609454507
 30
0.0
  0
SPLINE
  5
16A
330
1F
100
AcDbEntity
  8
0
  6
Continuous
 62
     7
370
    25
100
AcDbSpline
210
0.0
220
0.0
230
1.0
 70
    24
 71
     3
 72
    11
 73
     7
 74
     0
 42
0.00000001
 43
0.00000001
 40
0.0
 40
0.0
 40
0.0
 40
0.0
 40
0.2379053903768482
 40
0.4814905141303176
 40
0.7366519444348056
 40
0.9999999999999999
 40
0.9999999999999999
 40
0.9999999999999999
 40
0.9999999999999999
 10
210.9488095147155
 20
143.706859381585
 30
0.0
 10
211.4055416254907
 20
142.9157761602741
 30
0.0
 10
212.3299098312243
 20
141.3147234630423
 30
0.0
 10
213.806235923744
 20
138.7576516622586
 30
0.0
 10
215.3383693082075
 20
136.1039187963953
 30
0.0
 10
216.335418272854
 20
134.3769793319937
 30
0.0
 10
216.8418138418811
 20
133.499876477711
 30
0.0
  0
SPLINE
  5
16B
330
1F
100
AcDbEntity
  8
0
  6
Continuous
 62
     7
370
    25
100
AcDbSpline
210
0.0
220
0.0
230
1.0
 70
     8
 71
     3
 72
     9
 73
     5
 74
     0
 42
0.00000001
 43
0.00000001
 40
0.0
 40
0.0
 40
0.0
 40
0.0
 40
0.5841917497409942
 40
1.0
 40
1.0
 40
1.0
 40
1.0
 10
210.2831538737331
 20
146.001541055576
 30
0.0
 10
210.3398460221413
 20
145.5211829300097
 30
0.0
 10
210.4368897555273
 20
144.6989218731235
 30
0.0
 10
210.7984639723003
 20
143.998217882059
 30
0.0
 10
210.9488095147155
 20
143.706859381585
 30
0.0
  0
ARC
  5
16C
330
1F
100
AcDbEntity
  8
0
  6
Continuous
 62
     7
370
    25
100
AcDbCircle
 10
227.9682244898
 20
146.7283679296
 30
0.0
 40
17.7
100
AcDbArc
 50
177.6465635726
 51
182.3534364274
  0
SPLINE
  5
16D
330
1F
100
AcDbEntity
  8
0
  6
Continuous
 62
     7
370
    25
100
AcDbSpline
210
0.0
220
0.0
230
1.0
 70
     8
 71
     3
 72
     9
 73
     5
 74
     0
 42
0.00000001
 43
0.00000001
 40
0.0
 40
0.0
 40
0.0
 40
0.0
 40
0.5850553834536183
 40
1.0
 40
1.0
 40
1.0
 40
1.0
 10
210.9488095147157
 20
149.7498764777096
 30
0.0
 10
210.7439378637372
 20
149.3316315351071
 30
0.0
 10
210.393763065295
 20
148.6167505948899
 30
0.0
 10
210.3155909656464
 20
147.7958309789641
 30
0.0
 10
210.2831538737331
 20
147.4551948037184
 30
0.0
  0
SPLINE
  5
16E
330
1F
100
AcDbEntity
  8
0
  6
Continuous
 62
     7
370
    25
100
AcDbSpline
210
0.0
220
0.0
230
1.0
 70
    24
 71
     3
 72
    11
 73
     7
 74
     0
 42
0.00000001
 43
0.00000001
 40
0.0
 40
0.0
 40
0.0
 40
0.0
 40
0.2328716322111468
 40
0.4710265024313225
 40
0.7311421212560294
 40
1.0
 40
1.0
 40
1.0
 40
1.0
 10
216.841813841882
 20
159.9568593815848
 30
0.0
 10
216.3948856267217
 20
159.1827570055912
 30
0.0
 10
215.4908895838121
 20
157.6169899294304
 30
0.0
 10
214.0270532135305
 20
155.0815509621357
 30
0.0
 10
212.4835037582916
 20
152.4080448816665
 30
0.0
 10
211.4659797477985
 20
150.6456415975713
 30
0.0
 10
210.9488095147157
 20
149.7498764777096
 30
0.0
  0
SPLINE
  5
16F
330
1F
100
AcDbEntity
  8
0
  6
Continuous
 62
     7
370
    25
100
AcDbSpline
210
0.0
220
0.0
230
1.0
 70
     8
 71
     3
 72
     9
 73
     5
 74
     0
 42
0.00000001
 43
0.00000001
 40
0.0
 40
0.0
 40
0.0
 40
0.0
 40
0.584191749740925
 40
1.0
 40
1.0
 40
1.0
 40
1.0
 10
218.4962386446656
 20
161.6806749138436
 30
0.0
 10
218.1085823792151
 20
161.3913990103439
 30
0.0
 10
217.4450052821018
 20
160.8962261435103
 30
0.0
 10
217.0189649336934
 20
160.2327416908991
 30
0.0
 10
216.8418138418819
 20
159.9568593815848
 30
0.0
  0
ARC
  5
170
330
1F
100
AcDbEntity
  8
0
  6
Continuous
 62
     7
370
    25
100
AcDbCircle
 10
227.9682244898
 20
146.7283679296
 30
0.0
 40
17.70000000000001
100
AcDbArc
 50
117.6465635726
 51
122.3534364274
  0
SPLINE
  5
171
330
1F
100
AcDbEntity
  8
0
  6
Continuous
 62
     7
370
    25
100
AcDbSpline
210
0.0
220
0.0
230
1.0
 70
     8
 71
     3
 72
     9
 73
     5
 74
     0
 42
0.00000001
 43
0.00000001
 40
0.0
 40
0.0
 40
0.0
 40
0.0
 40
0.5850553834536162
 40
1.0
 40
1.0
 40
1.0
 40
1.0
 10
222.0752201626297
 20
162.9783679296472
 30
0.0
 10
221.6105735918424
 20
162.9466695126085
 30
0.0
 10
220.8163811377119
 20
162.892489313716
 30
0.0
 10
220.0663578460309
 20
162.5497285299159
 30
0.0
 10
219.7551397188635
 20
162.4075017879149
 30
0.0
  0
SPLINE
  5
172
330
1F
100
AcDbEntity
  8
0
  6
Continuous
 62
     7
370
    25
100
AcDbSpline
210
0.0
220
0.0
230
1.0
 70
    24
 71
     3
 72
    11
 73
     7
 74
     0
 42
0.00000001
 43
0.00000001
 40
0.0
 40
0.0
 40
0.0
 40
0.0
 40
0.2328716322111479
 40
0.4710265024313248
 40
0.7311421212560302
 40
0.9999999999999999
 40
0.9999999999999999
 40
0.9999999999999999
 40
0.9999999999999999
 10
233.8612288169622
 20
162.9783679296472
 30
0.0
 10
232.9673723866417
 20
162.9783679296472
 30
0.0
 10
231.1593803008224
 20
162.9783679296472
 30
0.0
 10
228.2317075602595
 20
162.9783679296472
 30
0.0
 10
225.1446086497815
 20
162.9783679296472
 30
0.0
 10
223.1095606287953
 20
162.9783679296472
 30
0.0
 10
222.0752201626297
 20
162.9783679296472
 30
0.0
  0
SPLINE
  5
173
330
1F
100
AcDbEntity
  8
0
  6
Continuous
 62
     7
370
    25
100
AcDbSpline
210
0.0
220
0.0
230
1.0
 70
     8
 71
     3
 72
     9
 73
     5
 74
     0
 42
0.00000001
 43
0.00000001
 40
0.0
 40
0.0
 40
0.0
 40
0.0
 40
0.5841917497409234
 40
1.0
 40
1.0
 40
1.0
 40
1.0
 10
236.1813092607284
 20
162.4075017879149
 30
0.0
 10
235.7369608468697
 20
162.5985840099814
 30
0.0
 10
234.9763400163705
 20
162.9256722000342
 30
0.0
 10
234.1887254511889
 20
162.9628917384875
 30
0.0
 10
233.8612288169622
 20
162.9783679296472
 30
0.0
  0
ARC
  5
174
330
1F
100
AcDbEntity
  8
0
  6
Continuous
 62
     7
370
    25
100
AcDbCircle
 10
227.9682244898
 20
146.7283679296
 30
0.0
 40
17.70000000000003
100
AcDbArc
 50
57.6465635726
 51
62.3534364274
  0
SPLINE
  5
175
330
1F
100
AcDbEntity
  8
0
  6
Continuous
 62
     7
370
    25
100
AcDbSpline
210
0.0
220
0.0
230
1.0
 70
     8
 71
     3
 72
     9
 73
     5
 74
     0
 42
0.00000001
 43
0.00000001
 40
0.0
 40
0.0
 40
0.0
 40
0.0
 40
0.5850553834536193
 40
1.0
 40
1.0
 40
1.0
 40
1.0
 10
239.0946351377099
 20
159.9568593815848
 30
0.0
 10
238.8348602179011
 20
160.3434059071486
 30
0.0
 10
238.3908425622127
 20
161.0041066484733
 30
0.0
 10
237.7189913701804
 20
161.482265480599
 30
0.0
 10
237.4402103349262
 20
161.6806749138436
 30
0.0
  0
SPLINE
  5
176
330
1F
100
AcDbEntity
  8
0
  6
Continuous
 62
     7
370
    25
100
AcDbSpline
210
0.0
220
0.0
230
1.0
 70
    24
 71
     3
 72
     9
 73
     5
 74
     0
 42
0.00000001
 43
0.00000001
 40
0.0
 40
0.0
 40
0.0
 40
0.0
 40
0.0516032513629046
 40
1.0
 40
1.0
 40
1.0
 40
1.0
 10
240.5898249591349
 20
157.3671146439169
 30
0.0
 10
240.5633730141983
 20
157.412930756506
 30
0.0
 10
240.0507707219409
 20
158.300783970772
 30
0.0
 10
239.5600413133131
 20
159.1507522392836
 30
0.0
 10
239.0946351377099
 20
159.9568593815848
 30
0.0
  0
SPLINE
  5
177
330
1F
100
AcDbEntity
  8
0
  6
Continuous
 62
     7
370
    25
100
AcDbSpline
210
0.0
220
0.0
230
1.0
 70
    24
 71
     3
 72
     9
 73
     5
 74
     0
 42
0.00000001
 43
0.00000001
 40
0.0
 40
0.0
 40
0.0
 40
0.0
 40
0.8799105205113189
 40
1.0
 40
1.0
 40
1.0
 40
1.0
 10
239.09463513771
 20
133.4998764777096
 30
0.0
 10
239.538918894802
 20
134.2693985179706
 30
0.0
 10
240.0438381414021
 20
135.1439443068013
 30
0.0
 10
240.5713340178359
 20
136.0575939655677
 30
0.0
 10
240.6346807230692
 20
136.167313677524
 30
0.0
  0
SPLINE
  5
178
330
1F
100
AcDbEntity
  8
0
  6
Continuous
 62
     7
370
    25
100
AcDbSpline
210
0.0
220
0.0
230
1.0
 70
     8
 71
     3
 72
     9
 73
     5
 74
     0
 42
0.00000001
 43
0.00000001
 40
0.0
 40
0.0
 40
0.0
 40
0.0
 40
0.5841917497409237
 40
1.0
 40
1.0
 40
1.0
 40
1.0
 10
237.4402103349262
 20
131.7760609454507
 30
0.0
 10
237.8278666003768
 20
132.0653368489504
 30
0.0
 10
238.49144369749
 20
132.560509715784
 30
0.0
 10
238.9174840458984
 20
133.2239941683952
 30
0.0
 10
239.09463513771
 20
133.4998764777096
 30
0.0
  0
ARC
  5
179
330
1F
100
AcDbEntity
  8
0
  6
Continuous
 62
     7
370
    25
100
AcDbCircle
 10
227.9682244898
 20
146.7283679296
 30
0.0
 40
17.70000000000002
100
AcDbArc
 50
297.6465635726
 51
302.3534364274
  0
SPLINE
  5
17A
330
1F
100
AcDbEntity
  8
0
  6
Continuous
 62
     7
370
    25
100
AcDbSpline
210
0.0
220
0.0
230
1.0
 70
     8
 71
     3
 72
     9
 73
     5
 74
     0
 42
0.00000001
 43
0.00000001
 40
0.0
 40
0.0
 40
0.0
 40
0.0
 40
0.5850553834536171
 40
1.0
 40
1.0
 40
1.0
 40
1.0
 10
233.8612288169622
 20
130.4783679296471
 30
0.0
 10
234.3258753877494
 20
130.5100663466858
 30
0.0
 10
235.12006784188
 20
130.5642465455784
 30
0.0
 10
235.870091133561
 20
130.9070073293784
 30
0.0
 10
236.1813092607284
 20
131.0492340713794
 30
0.0
  0
SPLINE
  5
17B
330
1F
100
AcDbEntity
  8
0
  6
Continuous
 62
     7
370
    25
100
AcDbSpline
210
0.0
220
0.0
230
1.0
 70
    24
 71
     3
 72
    11
 73
     7
 74
     0
 42
0.00000001
 43
0.00000001
 40
0.0
 40
0.0
 40
0.0
 40
0.0
 40
0.2328716322111485
 40
0.471026502431326
 40
0.7311421212560308
 40
1.0
 40
1.0
 40
1.0
 40
1.0
 10
222.0752201626297
 20
130.4783679296471
 30
0.0
 10
222.9690765929501
 20
130.4783679296472
 30
0.0
 10
224.7770686787694
 20
130.4783679296472
 30
0.0
 10
227.7047414193324
 20
130.4783679296471
 30
0.0
 10
230.7918403298103
 20
130.4783679296472
 30
0.0
 10
232.8268883507965
 20
130.4783679296472
 30
0.0
 10
233.8612288169622
 20
130.4783679296471
 30
0.0
  0
SPLINE
  5
17C
330
1F
100
AcDbEntity
  8
0
  6
Continuous
 62
     7
370
    25
100
AcDbSpline
210
0.0
220
0.0
230
1.0
 70
     8
 71
     3
 72
     9
 73
     5
 74
     0
 42
0.00000001
 43
0.00000001
 40
0.0
 40
0.0
 40
0.0
 40
0.0
 40
0.5841917497409266
 40
1.0
 40
1.0
 40
1.0
 40
1.0
 10
219.7551397188635
 20
131.0492340713794
 30
0.0
 10
220.1994881327222
 20
130.8581518493129
 30
0.0
 10
220.9601089632214
 20
130.5310636592601
 30
0.0
 10
221.747723528403
 20
130.4938441208069
 30
0.0
 10
222.0752201626297
 20
130.4783679296471
 30
0.0
  0
ARC
  5
17D
330
1F
100
AcDbEntity
  8
0
  6
Continuous
 62
     7
370
    25
100
AcDbCircle
 10
227.9682244898
 20
146.7283679296
 30
0.0
 40
17.70000000000001
100
AcDbArc
 50
237.6465635726
 51
242.3534364274
  0
SPLINE
  5
17E
330
1F
100
AcDbEntity
  8
0
  6
Continuous
 62
     7
370
    25
100
AcDbSpline
210
0.0
220
0.0
230
1.0
 70
     8
 71
     3
 72
    11
 73
     7
 74
     0
 42
0.00000001
 43
0.00000001
 40
0.0
 40
0.0
 40
0.0
 40
0.0
 40
0.2200386424382255
 40
0.6637869905998169
 40
0.8890365590789576
 40
1.0
 40
1.0
 40
1.0
 40
1.0
 10
16.29063434520403
 20
140.7080496226962
 30
0.0
 10
16.0864128822025
 20
140.973068233955
 30
0.0
 10
15.47034131931894
 20
141.7725455642598
 30
0.0
 10
14.94679196830179
 20
143.0357148347876
 30
0.0
 10
14.69516276854069
 20
144.2022846481117
 30
0.0
 10
14.71586996326295
 20
144.7135644467711
 30
0.0
 10
14.72270414728903
 20
144.8823067742434
 30
0.0
  0
SPLINE
  5
17F
330
1F
100
AcDbEntity
  8
0
  6
Continuous
 62
     7
370
    25
100
AcDbSpline
210
0.0
220
0.0
230
1.0
 70
     8
 71
     3
 72
     9
 73
     5
 74
     0
 42
0.00000001
 43
0.00000001
 40
0.0
 40
0.0
 40
0.0
 40
0.0
 40
0.9209630919903056
 40
1.0
 40
1.0
 40
1.0
 40
1.0
 10
14.6505919819567
 20
141.0283728983297
 30
0.0
 10
15.16501351982952
 20
140.9715458394111
 30
0.0
 10
15.72358263334425
 20
140.9098418912151
 30
0.0
 10
16.24909914501364
 20
140.7228304303272
 30
0.0
 10
16.29063434520404
 20
140.7080496226962
 30
0.0
  0
SPLINE
  5
180
330
1F
100
AcDbEntity
  8
0
  6
Continuous
 62
     7
370
    25
100
AcDbSpline
210
0.0
220
0.0
230
1.0
 70
     8
 71
     3
 72
    10
 73
     6
 74
     0
 42
0.00000001
 43
0.00000001
 40
0.0
 40
0.0
 40
0.0
 40
0.0
 40
0.2596150688488836
 40
0.629760644481066
 40
0.9999999999999999
 40
0.9999999999999999
 40
0.9999999999999999
 40
0.9999999999999999
 10
-32.52456897198053
 20
143.6199304673188
 30
0.0
 10
-28.44674875325748
 20
143.3201763302204
 30
0.0
 10
-18.55498591989221
 20
142.5930484350563
 30
0.0
 10
-2.825413237219021
 20
141.7672015651661
 30
0.0
 10
8.82476502404564
 20
141.2746699159004
 30
0.0
 10
14.6505919819567
 20
141.0283728983297
 30
0.0
  0
SPLINE
  5
181
330
1F
100
AcDbEntity
  8
0
  6
Continuous
 62
     7
370
    25
100
AcDbSpline
210
0.0
220
0.0
230
1.0
 70
     8
 71
     3
 72
    11
 73
     7
 74
     0
 42
0.00000001
 43
0.00000001
 40
0.0
 40
0.0
 40
0.0
 40
0.0
 40
0.0614641195413916
 40
0.4999988937835375
 40
0.9375097801832794
 40
1.0
 40
1.0
 40
1.0
 40
1.0
 10
-32.52456897198034
 20
149.3459628143207
 30
0.0
 10
-32.53623816818271
 20
149.2295058418687
 30
0.0
 10
-32.63116485445197
 20
148.2821505745374
 30
0.0
 10
-32.71486768171827
 20
146.4849063760892
 30
0.0
 10
-32.63129775819804
 20
144.6857083518483
 30
0.0
 10
-32.53642605315285
 20
143.7383335274153
 30
0.0
 10
-32.52456897198053
 20
143.6199304673188
 30
0.0
  0
SPLINE
  5
182
330
1F
100
AcDbEntity
  8
0
  6
Continuous
 62
     7
370
    25
100
AcDbSpline
210
0.0
220
0.0
230
1.0
 70
     8
 71
     3
 72
    11
 73
     7
 74
     0
 42
0.00000001
 43
0.00000001
 40
0.0
 40
0.0
 40
0.0
 40
0.0
 40
0.2594589277291888
 40
0.6296002946237422
 40
0.8147836738016292
 40
1.0
 40
1.0
 40
1.0
 40
1.0
 10
14.6505919819567
 20
151.9375203833079
 30
0.0
 10
10.56759133261176
 20
151.772021796887
 30
0.0
 10
0.6598250658072929
 20
151.3704246744354
 30
0.0
 10
-12.15531189315372
 20
150.6921718584121
 30
0.0
 10
-23.7995841594133
 20
150.0147509661999
 30
0.0
 10
-29.61606824254592
 20
149.5689054175876
 30
0.0
 10
-32.52456897198034
 20
149.3459628143207
 30
0.0
  0
SPLINE
  5
183
330
1F
100
AcDbEntity
  8
0
  6
Continuous
 62
     7
370
    25
100
AcDbSpline
210
0.0
220
0.0
230
1.0
 70
     8
 71
     3
 72
     9
 73
     5
 74
     0
 42
0.00000001
 43
0.00000001
 40
0.0
 40
0.0
 40
0.0
 40
0.0
 40
0.0790369080192139
 40
1.0
 40
1.0
 40
1.0
 40
1.0
 10
16.29063434520324
 20
152.2578436589412
 30
0.0
 10
16.24909914500784
 20
152.2430628513085
 30
0.0
 10
15.72358263333869
 20
152.0560513904206
 30
0.0
 10
15.16501351982406
 20
151.9943474422253
 30
0.0
 10
14.65059198195669
 20
151.9375203833079
 30
0.0
  0
SPLINE
  5
184
330
1F
100
AcDbEntity
  8
0
  6
Continuous
 62
     7
370
    25
100
AcDbSpline
210
0.0
220
0.0
230
1.0
 70
     8
 71
     3
 72
    11
 73
     7
 74
     0
 42
0.00000001
 43
0.00000001
 40
0.0
 40
0.0
 40
0.0
 40
0.0
 40
0.0728838064943292
 40
0.4140719411596028
 40
0.9209668754550567
 40
1.0
 40
1.0
 40
1.0
 40
1.0
 10
14.72270414729276
 20
148.0835865073794
 30
0.0
 10
14.71498899815515
 20
148.1940329416184
 30
0.0
 10
14.67115722079054
 20
148.8215079819494
 30
0.0
 10
15.01564893222861
 20
150.2045000124144
 30
0.0
 10
15.65533828171481
 20
151.474431530192
 30
0.0
 10
16.21512703114775
 20
152.164732196365
 30
0.0
 10
16.29063434520324
 20
152.2578436589412
 30
0.0
  0
SPLINE
  5
185
330
1F
100
AcDbEntity
  8
0
  6
Continuous
 62
     7
370
    25
100
AcDbSpline
210
0.0
220
0.0
230
1.0
 70
     8
 71
     3
 72
    10
 73
     6
 74
     0
 42
0.00000001
 43
0.00000001
 40
0.0
 40
0.0
 40
0.0
 40
0.0
 40
0.3880207377811385
 40
0.9790637766506849
 40
1.0
 40
1.0
 40
1.0
 40
1.0
 10
14.72270414728905
 20
144.8823067742434
 30
0.0
 10
14.79601867804839
 20
145.2931466360992
 30
0.0
 10
14.98100776337175
 20
146.3297882059475
 30
0.0
 10
14.88530083754068
 20
147.4235575275188
 30
0.0
 10
14.72808268629286
 20
148.0617533962382
 30
0.0
 10
14.72270414729276
 20
148.0835865073794
 30
0.0
  0
ARC
  5
186
330
1F
100
AcDbEntity
  8
0
  6
Continuous
 62
     7
370
    25
100
AcDbCircle
 10
22.9682244898
 20
146.4829466408
 30
0.0
 40
8.399443654264553
100
AcDbArc
 50
190.985757993
 51
169.0142420071
  0
SPLINE
  5
187
330
1F
100
AcDbEntity
  8
0
  6
Continuous
 62
     7
370
    25
100
AcDbSpline
210
0.0
220
0.0
230
1.0
 70
     8
 71
     3
 72
     9
 73
     5
 74
     0
 42
0.00000001
 43
0.00000001
 40
0.0
 40
0.0
 40
0.0
 40
0.0
 40
0.681792342127431
 40
1.0
 40
1.0
 40
1.0
 40
1.0
 10
16.29063434520324
 20
152.2578436589412
 30
0.0
 10
16.43289790584629
 20
152.4477540140464
 30
0.0
 10
16.6415590360067
 20
152.7262997579199
 30
0.0
 10
16.8709848698871
 20
152.959204130863
 30
0.0
 10
16.94398992714162
 20
153.0333160858854
 30
0.0
  0
ARC
  5
188
330
1F
100
AcDbEntity
  8
0
  6
Continuous
 62
     7
370
    25
100
AcDbCircle
 10
22.9682244898
 20
146.4829466408
 30
0.0
 40
8.899367501836327
100
AcDbArc
 50
227.3959191961
 51
132.6040808039
  0
LINE
  5
189
330
1F
100
AcDbEntity
  8
0
  6
Continuous
 62
     7
370
    25
100
AcDbLine
 10
16.9439899271
 20
139.9325771958
 30
0.0
 11
16.2906343452
 21
140.7080496227
 31
0.0
  0
SPLINE
  5
18A
330
1F
100
AcDbEntity
  8
0
  6
Continuous
 62
     7
370
    25
100
AcDbSpline
210
0.0
220
0.0
230
1.0
 70
     8
 71
     3
 72
    10
 73
     6
 74
     0
 42
0.00000001
 43
0.00000001
 40
0.0
 40
0.0
 40
0.0
 40
0.0
 40
0.3702896688583036
 40
0.7405318123903298
 40
1.0
 40
1.0
 40
1.0
 40
1.0
 10
-32.53608843515873
 20
149.7888223951539
 30
0.0
 10
-26.71602458894035
 20
150.1090134096802
 30
0.0
 10
-15.07664388043678
 20
150.7493543433858
 30
0.0
 10
0.6422245263380394
 20
151.6185886752491
 30
0.0
 10
10.53939834234779
 20
152.1673296768582
 30
0.0
 10
14.61746666281194
 20
152.3934349606901
 30
0.0
  0
ARC
  5
18B
330
1F
100
AcDbEntity
  8
0
  6
Continuous
 62
     7
370
    25
100
AcDbCircle
 10
7.4023774554
 20
151.640048594
 30
0.0
 40
7.254316183395949
100
AcDbArc
 50
2.3501399449
 51
5.9611177313
  0
ARC
  5
18C
330
1F
100
AcDbEntity
  8
0
  6
Continuous
 62
     7
370
    25
100
AcDbCircle
 10
-28.275565894
 20
149.6780655712
 30
0.0
 40
4.261961918894682
100
AcDbArc
 50
178.5108705386
 51
184.4691613065
  0
SPLINE
  5
18D
330
1F
100
AcDbEntity
  8
0
  6
Continuous
 62
     7
370
    25
100
AcDbSpline
210
0.0
220
0.0
230
1.0
 70
     8
 71
     3
 72
    10
 73
     6
 74
     0
 42
0.00000001
 43
0.00000001
 40
0.0
 40
0.0
 40
0.0
 40
0.0
 40
0.3702717503651152
 40
0.7405122151371749
 40
1.0
 40
1.0
 40
1.0
 40
1.0
 10
14.61746666281195
 20
140.5724583209476
 30
0.0
 10
8.797794601142744
 20
140.8949868066155
 30
0.0
 10
-2.841057797154073
 20
141.5400165263586
 30
0.0
 10
-18.56019738110873
 20
142.4088310138376
 30
0.0
 10
-28.45769480480742
 20
142.9528859246044
 30
0.0
 10
-32.53608843515538
 20
143.1770708864835
 30
0.0
  0
ARC
  5
18E
330
1F
100
AcDbEntity
  8
0
  6
Continuous
 62
     7
370
    25
100
AcDbCircle
 10
-28.275565891
 20
143.2878277104
 30
0.0
 40
4.261961921817536
100
AcDbArc
 50
175.530838696
 51
181.4891294598
  0
ARC
  5
18F
330
1F
100
AcDbEntity
  8
0
  6
Continuous
 62
     7
370
    25
100
AcDbCircle
 10
7.4023774553
 20
141.3258446876
 30
0.0
 40
7.254316183450468
100
AcDbArc
 50
354.0388822687
 51
357.6498600551
  0
SPLINE
  5
190
330
1F
100
AcDbEntity
  8
0
  6
Continuous
 62
     7
370
    25
100
AcDbSpline
210
0.0
220
0.0
230
1.0
 70
     8
 71
     3
 72
    12
 73
     8
 74
     0
 42
0.00000001
 43
0.00000001
 40
0.0
 40
0.0
 40
0.0
 40
0.0
 40
0.1224290494151355
 40
0.342352244977047
 40
0.5614228816909439
 40
0.780722953853349
 40
1.0
 40
1.0
 40
1.0
 40
1.0
 10
-34.46029640482804
 20
143.730604836975
 30
0.0
 10
-34.45129232896396
 20
143.7282461525341
 30
0.0
 10
-34.42611394523287
 20
143.7216504882093
 30
0.0
 10
-34.2101262615882
 20
143.7046425204701
 30
0.0
 10
-33.77422813185921
 20
143.6791315463157
 30
0.0
 10
-33.19030251842894
 20
143.6495793637564
 30
0.0
 10
-32.74647238686082
 20
143.6298130868774
 30
0.0
 10
-32.52456897198053
 20
143.6199304673188
 30
0.0
  0
SPLINE
  5
191
330
1F
100
AcDbEntity
  8
0
  6
Continuous
 62
     7
370
    25
100
AcDbSpline
210
0.0
220
0.0
230
1.0
 70
     8
 71
     3
 72
    11
 73
     7
 74
     0
 42
0.00000001
 43
0.00000001
 40
0.0
 40
0.0
 40
0.0
 40
0.0
 40
0.0800485240044433
 40
0.5000005853538798
 40
0.9209248322279645
 40
1.0
 40
1.0
 40
1.0
 40
1.0
 10
-34.46029640482804
 20
143.730604836975
 30
0.0
 10
-34.46001016041389
 20
143.8768492620757
 30
0.0
 10
-34.4582222152093
 20
144.7903239209088
 30
0.0
 10
-34.45698651837939
 20
146.4847335086673
 30
0.0
 10
-34.45822421647413
 20
148.177360360522
 30
0.0
 10
-34.46001343844215
 20
149.0908237361658
 30
0.0
 10
-34.46029640482804
 20
149.2352884446571
 30
0.0
  0
SPLINE
  5
192
330
1F
100
AcDbEntity
  8
0
  6
Continuous
 62
     7
370
    25
100
AcDbSpline
210
0.0
220
0.0
230
1.0
 70
     8
 71
     3
 72
    12
 73
     8
 74
     0
 42
0.00000001
 43
0.00000001
 40
0.0
 40
0.0
 40
0.0
 40
0.0
 40
0.1130367476169193
 40
0.3328594693547965
 40
0.5544127937944973
 40
0.7774207483513236
 40
1.0
 40
1.0
 40
1.0
 40
1.0
 10
-32.52456897198034
 20
149.3459628143207
 30
0.0
 10
-32.63863981196721
 20
149.3409475686193
 30
0.0
 10
-32.97454437457506
 20
149.3261791675635
 30
0.0
 10
-33.50861223096987
 20
149.3005869634542
 30
0.0
 10
-34.02513786885702
 20
149.2727117005832
 30
0.0
 10
-34.38203258601155
 20
149.2492698269927
 30
0.0
 10
-34.43422520352993
 20
149.239945915233
 30
0.0
 10
-34.46029640482806
 20
149.2352884446571
 30
0.0
  0
SPLINE
  5
193
330
1F
100
AcDbEntity
  8
0
  6
Continuous
 62
     7
370
    25
100
AcDbSpline
210
0.0
220
0.0
230
1.0
 70
     8
 71
     3
 72
     9
 73
     5
 74
     0
 42
0.00000001
 43
0.00000001
 40
0.0
 40
0.0
 40
0.0
 40
0.0
 40
0.500010612381544
 40
1.0
 40
1.0
 40
1.0
 40
1.0
 10
17.44359777598457
 20
139.5007455065059
 30
0.0
 10
17.01387640916369
 20
139.7885860445992
 30
0.0
 10
16.15445191660311
 20
140.3642549023507
 30
0.0
 10
15.12978783132488
 20
140.5030581634374
 30
0.0
 10
14.61746666281195
 20
140.5724583209476
 30
0.0
  0
SPLINE
  5
194
330
1F
100
AcDbEntity
  8
0
  6
Continuous
 62
     7
370
    25
100
AcDbSpline
210
0.0
220
0.0
230
1.0
 70
     8
 71
     3
 72
     9
 73
     5
 74
     0
 42
0.00000001
 43
0.00000001
 40
0.0
 40
0.0
 40
0.0
 40
0.0
 40
0.9838702326459385
 40
1.0
 40
1.0
 40
1.0
 40
1.0
 10
16.94398992714163
 20
139.9325771957522
 30
0.0
 10
17.10533074207619
 20
139.7877447827333
 30
0.0
 10
17.26931661092462
 20
139.6405379578765
 30
0.0
 10
17.44083128420672
 20
139.5029645338299
 30
0.0
 10
17.44359777598457
 20
139.5007455065059
 30
0.0
  0
SPLINE
  5
195
330
1F
100
AcDbEntity
  8
0
  6
Continuous
 62
     7
370
    25
100
AcDbSpline
210
0.0
220
0.0
230
1.0
 70
     8
 71
     3
 72
     9
 73
     5
 74
     0
 42
0.00000001
 43
0.00000001
 40
0.0
 40
0.0
 40
0.0
 40
0.0
 40
0.5055561057107305
 40
1.0
 40
1.0
 40
1.0
 40
1.0
 10
14.61746666281194
 20
152.3934349606901
 30
0.0
 10
15.13552618014498
 20
152.4640909949601
 30
0.0
 10
16.1602581762203
 20
152.6038500315375
 30
0.0
 10
17.0189987449819
 20
153.1801833063332
 30
0.0
 10
17.44359777598457
 20
153.4651477751317
 30
0.0
  0
SPLINE
  5
196
330
1F
100
AcDbEntity
  8
0
  6
Continuous
 62
     7
370
    25
100
AcDbSpline
210
0.0
220
0.0
230
1.0
 70
     8
 71
     3
 72
     9
 73
     5
 74
     0
 42
0.00000001
 43
0.00000001
 40
0.0
 40
0.0
 40
0.0
 40
0.0
 40
0.0161297673533178
 40
0.9999999999999999
 40
0.9999999999999999
 40
0.9999999999999999
 40
0.9999999999999999
 10
17.44359777598457
 20
153.4651477751317
 30
0.0
 10
17.44083128420679
 20
153.4629287478078
 30
0.0
 10
17.26931661092089
 20
153.3253553237582
 30
0.0
 10
17.1053307420744
 20
153.1781484989029
 30
0.0
 10
16.9439899271416
 20
153.0333160858854
 30
0.0
  0
SPLINE
  5
197
330
1F
100
AcDbEntity
  8
0
  6
Continuous
 62
     7
370
    25
100
AcDbSpline
210
0.0
220
0.0
230
1.0
 70
     8
 71
     3
 72
    12
 73
     8
 74
     0
 42
0.00000001
 43
0.00000001
 40
0.0
 40
0.0
 40
0.0
 40
0.0
 40
0.2230315344150414
 40
0.4461337558340381
 40
0.6675099896776929
 40
0.8870667292264895
 40
1.0
 40
1.0
 40
1.0
 40
1.0
 10
-33.98794213974355
 20
149.7344515157055
 30
0.0
 10
-33.96840835361761
 20
149.7325612684108
 30
0.0
 10
-33.92933459038108
 20
149.7287801747314
 30
0.0
 10
-33.661745408325
 20
149.735723011002
 30
0.0
 10
-33.27421632449984
 20
149.7513118334919
 30
0.0
 10
-32.87349421203675
 20
149.7706491135561
 30
0.0
 10
-32.62163478977897
 20
149.7842147147326
 30
0.0
 10
-32.53608843515876
 20
149.7888223951539
 30
0.0
  0
ARC
  5
198
330
1F
100
AcDbEntity
  8
0
  6
Continuous
 62
     7
370
    25
100
AcDbCircle
 10
-33.9601965172
 20
149.2351218593
 30
0.0
 40
0.500099915346926
100
AcDbArc
 50
93.1804119247
 51
179.9809145383
  0
SPLINE
  5
199
330
1F
100
AcDbEntity
  8
0
  6
Continuous
 62
     7
370
    25
100
AcDbSpline
210
0.0
220
0.0
230
1.0
 70
     8
 71
     3
 72
    12
 73
     8
 74
     0
 42
0.00000001
 43
0.00000001
 40
0.0
 40
0.0
 40
0.0
 40
0.0
 40
0.2190444340109328
 40
0.4380981679380335
 40
0.6571027493691862
 40
0.8772791087290023
 40
1.0
 40
1.0
 40
1.0
 40
1.0
 10
-32.53608843515538
 20
143.1770708864835
 30
0.0
 10
-32.70250617592618
 20
143.1858996994333
 30
0.0
 10
-33.03534872302535
 20
143.2035577001755
 30
0.0
 10
-33.47350716566849
 20
143.2230761895846
 30
0.0
 10
-33.80047299242806
 20
143.2343819732169
 30
0.0
 10
-33.96231686944218
 20
143.2362058412935
 30
0.0
 10
-33.98118820185444
 20
143.2326974119687
 30
0.0
 10
-33.98794213974352
 20
143.2314417659321
 30
0.0
  0
ARC
  5
19A
330
1F
100
AcDbEntity
  8
0
  6
Continuous
 62
     7
370
    25
100
AcDbCircle
 10
-33.9601965172
 20
143.7307714223
 30
0.0
 40
0.500099915347075
100
AcDbArc
 50
180.0190854624
 51
266.8195880753
  0
LINE
  5
19B
330
1F
100
AcDbEntity
  8
0
  6
Continuous
 62
     7
370
    25
100
AcDbLine
 10
14.6174666628
 20
152.3934349607
 30
0.0
 11
14.5904804811
 21
152.4647252361
 31
0.0
  0
LINE
  5
19C
330
1F
100
AcDbEntity
  8
0
  6
Continuous
 62
     7
370
    25
100
AcDbLine
 10
-33.9926325004
 20
149.7388899688
 30
0.0
 11
-33.9879421397
 21
149.7344515157
 31
0.0
  0
ELLIPSE
  5
19D
330
1F
100
AcDbEntity
  8
0
  6
Continuous
 62
     7
370
    25
100
AcDbEllipse
 10
-32.4928609577
 20
149.8221824188
 30
0.0
 11
1.499999304622801
 21
0.08287263343871132
 31
0.0
210
0.0
220
0.0
230
1.0
 40
0.0174284859
 41
2.255125316695996
 42
3.158083049609862
  0
LINE
  5
19E
330
1F
100
AcDbEntity
  8
0
  6
Continuous
 62
     7
370
    25
100
AcDbLine
 10
-29.9772462887
 20
150.0309420068
 30
0.0
 11
-33.4422094981
 21
149.7900507278
 31
0.0
  0
LINE
  5
19F
330
1F
100
AcDbEntity
  8
0
  6
Continuous
 62
     7
370
    25
100
AcDbLine
 10
-29.9772462887
 20
150.0308436156
 30
0.0
 11
-29.9772462887
 21
150.0309420068
 31
0.0
  0
ELLIPSE
  5
1A0
330
1F
100
AcDbEntity
  8
0
  6
Continuous
 62
     7
370
    25
100
AcDbEllipse
 10
-20.5277598677
 20
150.360489667
 30
0.0
 11
14.49999327802043
 21
0.8011021232406961
 31
0.0
210
0.0
220
0.0
230
1.0
 40
0.0174284859
 41
1.543516838852419
 42
2.279642175407988
  0
ELLIPSE
  5
1A1
330
1F
100
AcDbEntity
  8
0
  6
Continuous
 62
     7
370
    25
100
AcDbEllipse
 10
-19.2067499522
 20
151.3107732163
 30
0.0
 11
35.70262504606015
 21
1.972514619921924
 31
0.0
210
0.0
220
0.0
230
1.0
 40
0.0174284859
 41
4.685109492442214
 42
5.167309992307974
  0
ELLIPSE
  5
1A2
330
1F
100
AcDbEntity
  8
0
  6
Continuous
 62
     7
370
    25
100
AcDbEllipse
 10
-0.1865224801
 20
151.683169276
 30
0.0
 11
7.49999652311402
 21
0.4143631671934429
 31
0.0
210
0.0
220
0.0
230
1.0
 40
0.0174284859
 41
1.834826681007952
 42
2.025717338717997
  0
LINE
  5
1A3
330
1F
100
AcDbEntity
  8
0
  6
Continuous
 62
     7
370
    25
100
AcDbLine
 10
-2.1311748812
 20
151.5508248248
 30
0.0
 11
-2.1507931385
 21
151.7012153694
 31
0.0
  0
SPLINE
  5
1A4
330
1F
100
AcDbEntity
  8
0
  6
Continuous
 62
     7
370
    25
100
AcDbSpline
210
0.0
220
0.0
230
1.0
 70
     8
 71
     3
 72
    10
 73
     6
 74
     0
 42
0.00000001
 43
0.00000001
 40
0.0
 40
0.0
 40
0.0
 40
0.0
 40
0.0186368637457253
 40
0.3939469944633057
 40
1.0
 40
1.0
 40
1.0
 40
1.0
 10
-1.947403595457836
 20
151.551311192094
 30
0.0
 10
-1.949859802706483
 20
151.5512234416146
 30
0.0
 10
-2.001779239183516
 20
151.5493685674217
 30
0.0
 10
-2.105778087661464
 20
151.5466885860435
 30
0.0
 10
-2.121478745010702
 20
151.5492456674411
 30
0.0
 10
-2.131174881154302
 20
151.550824824849
 30
0.0
  0
LINE
  5
1A5
330
1F
100
AcDbEntity
  8
0
  6
Continuous
 62
     7
370
    25
100
AcDbLine
 10
14.5904804811
 20
152.4647252361
 30
0.0
 11
-1.9474035955
 21
151.5513111921
 31
0.0
  0
LINE
  5
1A6
330
1F
100
AcDbEntity
  8
0
  6
Continuous
 62
     7
370
    25
100
AcDbLine
 10
-1.9494693274
 20
141.3983784407
 30
0.0
 11
14.5844390961
 21
140.4851839785
 31
0.0
  0
SPLINE
  5
1A7
330
1F
100
AcDbEntity
  8
0
  6
Continuous
 62
     7
370
    25
100
AcDbSpline
210
0.0
220
0.0
230
1.0
 70
     8
 71
     3
 72
    11
 73
     7
 74
     0
 42
0.00000001
 43
0.00000001
 40
0.0
 40
0.0
 40
0.0
 40
0.0
 40
0.4177469294495429
 40
0.8392770662410927
 40
0.981783206881995
 40
1.0
 40
1.0
 40
1.0
 40
1.0
 10
-2.13317476802613
 20
141.3997278860021
 30
0.0
 10
-2.128537739994246
 20
141.4008110771858
 30
0.0
 10
-2.119221689992817
 20
141.4029872691688
 30
0.0
 10
-2.043725224242871
 20
141.4017850922775
 30
0.0
 10
-1.973465023670712
 20
141.3993145649374
 30
0.0
 10
-1.951912187013155
 20
141.3984737419805
 30
0.0
 10
-1.94946932738313
 20
141.398378440722
 30
0.0
  0
LINE
  5
1A8
330
1F
100
AcDbEntity
  8
0
  6
Continuous
 62
     7
370
    25
100
AcDbLine
 10
-2.1507931385
 20
141.2646779122
 30
0.0
 11
-2.133174768
 21
141.399727886
 31
0.0
  0
ELLIPSE
  5
1A9
330
1F
100
AcDbEntity
  8
0
  6
Continuous
 62
     7
370
    25
100
AcDbEllipse
 10
-0.1865224801
 20
141.2827240056
 30
0.0
 11
7.499996523114019
 21
-0.4143631671934713
 31
0.0
210
0.0
220
0.0
230
1.0
 40
0.0174284859
 41
4.257467968461691
 42
4.44835862617176
  0
ELLIPSE
  5
1AA
330
1F
100
AcDbEntity
  8
0
  6
Continuous
 62
     7
370
    25
100
AcDbEllipse
 10
-19.2067499522
 20
141.6551200653
 30
0.0
 11
35.70262504606012
 21
-1.972514619921952
 31
0.0
210
0.0
220
0.0
230
1.0
 40
0.0174284859
 41
1.115875314871781
 42
1.598075814737375
  0
ELLIPSE
  5
1AB
330
1F
100
AcDbEntity
  8
0
  6
Continuous
 62
     7
370
    25
100
AcDbEllipse
 10
-20.5277598677
 20
142.6054036146
 30
0.0
 11
14.49999327802043
 21
-0.8011021232406961
 31
0.0
210
0.0
220
0.0
230
1.0
 40
0.0174284859
 41
4.003543131771808
 42
4.739668468327171
  0
LINE
  5
1AC
330
1F
100
AcDbEntity
  8
0
  6
Continuous
 62
     7
370
    25
100
AcDbLine
 10
-29.9772462887
 20
142.9349512748
 30
0.0
 11
-29.9772462887
 21
142.9350496661
 31
0.0
  0
LINE
  5
1AD
330
1F
100
AcDbEntity
  8
0
  6
Continuous
 62
     7
370
    25
100
AcDbLine
 10
-33.4422094981
 20
143.1758425538
 30
0.0
 11
-29.9772462887
 21
142.9349512748
 31
0.0
  0
ELLIPSE
  5
1AE
330
1F
100
AcDbEntity
  8
0
  6
Continuous
 62
     7
370
    25
100
AcDbEllipse
 10
-32.4928609577
 20
143.1437108629
 30
0.0
 11
1.499999304622801
 21
-0.08287263343865447
 31
0.0
210
0.0
220
0.0
230
1.0
 40
0.0174284859
 41
3.623465822562041
 42
4.02805999048182
  0
LINE
  5
1AF
330
1F
100
AcDbEntity
  8
0
  6
Continuous
 62
     7
370
    25
100
AcDbLine
 10
-33.9879421397
 20
143.2314417659
 30
0.0
 11
-33.9926325004
 21
143.2270033129
 31
0.0
  0
LINE
  5
1B0
330
1F
100
AcDbEntity
  8
0
  6
Continuous
 62
     7
370
    25
100
AcDbLine
 10
14.5844390961
 20
140.4851839785
 30
0.0
 11
14.6174666628
 21
140.5724583209
 31
0.0
  0
SPLINE
  5
1B1
330
1F
100
AcDbEntity
  8
0
  6
Continuous
 62
     7
370
    25
100
AcDbSpline
210
0.0
220
0.0
230
1.0
 70
     8
 71
     3
 72
     9
 73
     5
 74
     0
 42
0.00000001
 43
0.00000001
 40
0.0
 40
0.0
 40
0.0
 40
0.0
 40
0.5001021276704695
 40
1.0
 40
1.0
 40
1.0
 40
1.0
 10
17.41037890992908
 20
153.5308392220919
 30
0.0
 10
16.98143113422178
 20
153.2443135880034
 30
0.0
 10
16.12371077677122
 20
152.6713793447055
 30
0.0
 10
15.10148764815612
 20
152.5336005582514
 30
0.0
 10
14.59048048111536
 20
152.4647252360508
 30
0.0
  0
LINE
  5
1B2
330
1F
100
AcDbEntity
  8
0
  6
Continuous
 62
     7
370
    25
100
AcDbLine
 10
17.4103789099
 20
153.5308392221
 30
0.0
 11
17.443597776
 21
153.4651477751
 31
0.0
  0
SPLINE
  5
1B3
330
1F
100
AcDbEntity
  8
0
  6
Continuous
 62
     7
370
    25
100
AcDbSpline
210
0.0
220
0.0
230
1.0
 70
     8
 71
     3
 72
     9
 73
     5
 74
     0
 42
0.00000001
 43
0.00000001
 40
0.0
 40
0.0
 40
0.0
 40
0.0
 40
0.400722737156528
 40
1.0
 40
1.0
 40
1.0
 40
1.0
 10
14.5844390960637
 20
140.4851839785075
 30
0.0
 10
14.99312521947296
 20
140.4367767164418
 30
0.0
 10
16.0129977785128
 20
140.315976827698
 30
0.0
 10
16.88207382233872
 20
139.7558695543443
 30
0.0
 10
17.40289133508555
 20
139.4202100006702
 30
0.0
  0
LINE
  5
1B4
330
1F
100
AcDbEntity
  8
0
  6
Continuous
 62
     7
370
    25
100
AcDbLine
 10
17.443597776
 20
139.5007455065
 30
0.0
 11
17.4028913351
 21
139.4202100007
 31
0.0
  0
ARC
  5
1B5
330
1F
100
AcDbEntity
  8
0
  6
Continuous
 62
     7
370
    25
100
AcDbCircle
 10
22.9682244898
 20
146.4829466408
 30
0.0
 40
8.975658044222111
100
AcDbArc
 50
65.1648853947
 51
128.2586979829
  0
LWPOLYLINE
  5
1B6
330
1F
100
AcDbEntity
  8
0
  6
Continuous
 62
     7
370
    25
100
AcDbPolyline
 90
        3
 70
   128
 43
0.0
 10
26.903537914
 20
154.7336063641
 10
26.7989563499
 20
154.6673539529
 10
26.7380758072
 20
154.6285379865
  0
ARC
  5
1B7
330
1F
100
AcDbEntity
  8
0
  6
Continuous
 62
     7
370
    25
100
AcDbCircle
 10
22.9682244898
 20
146.4829466408
 30
0.0
 40
9.141120151092144
100
AcDbArc
 50
295.4997164176
 51
64.5002794289
  0
LWPOLYLINE
  5
1B8
330
1F
100
AcDbEntity
  8
0
  6
Continuous
 62
     7
370
    25
100
AcDbPolyline
 90
        3
 70
   128
 43
0.0
 10
26.7543687176
 20
138.3269492244
 10
26.7989563499
 20
138.2985393288
 10
26.9035379143
 20
138.2322869173
  0
ARC
  5
1B9
330
1F
100
AcDbEntity
  8
0
  6
Continuous
 62
     7
370
    25
100
AcDbCircle
 10
22.9682244898
 20
146.4829466408
 30
0.0
 40
8.991950954660771
100
AcDbArc
 50
231.762407147
 51
294.9014811666
  0
LINE
  5
1BA
330
1F
100
AcDbEntity
  8
0
  6
Continuous
 62
     7
370
    25
100
AcDbLine
 10
-34.4649867655
 20
143.7261663839
 30
0.0
 11
-34.4602964048
 21
143.730604837
 31
0.0
  0
LINE
  5
1BB
330
1F
100
AcDbEntity
  8
0
  6
Continuous
 62
     7
370
    25
100
AcDbLine
 10
-34.4649867655
 20
149.2397268977
 30
0.0
 11
-34.4649867655
 21
143.7261663839
 31
0.0
  0
LINE
  5
1BC
330
1F
100
AcDbEntity
  8
0
  6
Continuous
 62
     7
370
    25
100
AcDbLine
 10
-34.4602964048
 20
149.2352884447
 30
0.0
 11
-34.4649867655
 21
149.2397268977
 31
0.0
  0
ARC
  5
1BD
330
1F
100
AcDbEntity
  8
0
  6
Continuous
 62
     7
370
    25
100
AcDbCircle
 10
-33.9648868779
 20
143.7263329693
 30
0.0
 40
0.5000999153469134
100
AcDbArc
 50
180.0190854617
 51
266.8195880753
  0
ARC
  5
1BE
330
1F
100
AcDbEntity
  8
0
  6
Continuous
 62
     7
370
    25
100
AcDbCircle
 10
-33.9648868779
 20
149.2395603124
 30
0.0
 40
0.5000999153469419
100
AcDbArc
 50
93.1804119247
 51
179.9809145383
  0
LINE
  5
1BF
330
1F
100
AcDbEntity
  8
0
  6
Continuous
 62
     7
370
    25
100
AcDbLine
 10
-33.4422094981
 20
143.1758425538
 30
0.0
 11
-33.4493172289
 21
143.1762095905
 31
0.0
  0
LINE
  5
1C0
330
1F
100
AcDbEntity
  8
0
  6
Continuous
 62
     7
370
    25
100
AcDbLine
 10
-33.4422094981
 20
149.7900507278
 30
0.0
 11
-33.4493172289
 21
149.7896836912
 31
0.0
  0
SPLINE
  5
1C1
330
1F
100
AcDbEntity
  8
0
  6
Continuous
 62
     7
370
    25
100
AcDbSpline
210
0.0
220
0.0
230
1.0
 70
     8
 71
     3
 72
    12
 73
     8
 74
     0
 42
0.00000001
 43
0.00000001
 40
0.0
 40
0.0
 40
0.0
 40
0.0
 40
0.1662426524176545
 40
0.3368059756191297
 40
0.6054181071254586
 40
0.8801435087136193
 40
1.0
 40
1.0
 40
1.0
 40
1.0
 10
16.84616524248535
 20
158.1596070224898
 30
0.0
 10
17.48384676302148
 20
158.0041218470068
 30
0.0
 10
18.77578323982208
 20
157.6891104136515
 30
0.0
 10
20.95996962217142
 20
157.026145308653
 30
0.0
 10
23.32194396573127
 20
156.1739503918476
 30
0.0
 10
25.28748152762375
 20
155.3313217132356
 30
0.0
 10
26.40125651241941
 20
154.7934636205404
 30
0.0
 10
26.73957199057692
 20
154.6300861697131
 30
0.0
  0
LINE
  5
1C2
330
1F
100
AcDbEntity
  8
0
  6
Continuous
 62
     7
370
    25
100
AcDbLine
 10
16.8461652425
 20
158.1596070225
 30
0.0
 11
16.8620233194
 21
158.2290805541
 31
0.0
  0
ARC
  5
1C3
330
1F
100
AcDbEntity
  8
0
  6
Continuous
 62
     7
370
    25
100
AcDbCircle
 10
6.1402450829
 20
111.2574457418
 30
0.0
 40
48.17977797259052
100
AcDbArc
 50
64.4718479123
 51
77.1419190681
  0
LWPOLYLINE
  5
1C4
330
1F
100
AcDbEntity
  8
0
  6
Continuous
 62
     7
370
    25
100
AcDbPolyline
 90
        3
 70
   128
 43
0.0
 10
26.7395719906
 20
154.6300861697
 10
26.7989598409
 20
154.6676098733
 10
26.9035379138
 20
154.7336079032
  0
SPLINE
  5
1C5
330
1F
100
AcDbEntity
  8
0
  6
Continuous
 62
     7
370
    25
100
AcDbSpline
210
0.0
220
0.0
230
1.0
 70
     8
 71
     3
 72
    11
 73
     7
 74
     0
 42
0.00000001
 43
0.00000001
 40
0.0
 40
0.0
 40
0.0
 40
0.0
 40
0.1345990676765959
 40
0.4126978815969493
 40
0.6969472592954598
 40
1.0
 40
1.0
 40
1.0
 40
1.0
 10
26.73885441361988
 20
154.6293446036392
 30
0.0
 10
26.30954839337153
 20
154.8202284888003
 30
0.0
 10
24.99324146664736
 20
155.4055027882201
 30
0.0
 10
22.61743141576404
 20
156.0279706722438
 30
0.0
 10
19.56374203088298
 20
156.4044733547441
 30
0.0
 10
17.37271212252227
 20
156.4316146830769
 30
0.0
 10
16.2421226049843
 20
156.4456198325219
 30
0.0
  0
ARC
  5
1C6
330
1F
100
AcDbEntity
  8
0
  6
Continuous
 62
     7
370
    25
100
AcDbCircle
 10
20.734653598
 20
155.825795788
 30
0.0
 40
4.53508727251813
100
AcDbArc
 50
149.0284626407
 51
172.1446266983
  0
LINE
  5
1C7
330
1F
100
AcDbEntity
  8
0
  6
Continuous
 62
     7
370
    25
100
AcDbLine
 10
26.7395719906
 20
154.6300861697
 30
0.0
 11
26.7388544136
 21
154.6293446036
 31
0.0
  0
LINE
  5
1C8
330
1F
100
AcDbEntity
  8
0
  6
Continuous
 62
     7
370
    25
100
AcDbLine
 10
17.4103789099
 20
153.5308392221
 30
0.0
 11
15.2125069898
 21
156.3179560964
 31
0.0
  0
ARC
  5
1C9
330
1F
100
AcDbEntity
  8
0
  6
Continuous
 62
     7
370
    25
100
AcDbCircle
 10
22.9682244898
 20
146.4829466408
 30
0.0
 40
12.52511736202728
100
AcDbArc
 50
127.8583068702
 51
128.2586979829
  0
LINE
  5
1CA
330
1F
100
AcDbEntity
  8
0
  6
Continuous
 62
     7
370
    25
100
AcDbLine
 10
16.242122605
 20
156.4456198325
 30
0.0
 11
15.2814242561
 21
156.3719135788
 31
0.0
  0
LINE
  5
1CB
330
1F
100
AcDbEntity
  8
0
  6
Continuous
 62
     7
370
    25
100
AcDbLine
 10
26.7380758072
 20
154.6285379865
 30
0.0
 11
26.7388544136
 21
154.6293446036
 31
0.0
  0
LINE
  5
1CC
330
1F
100
AcDbEntity
  8
0
  6
Continuous
 62
     7
370
    25
100
AcDbLine
 10
12.2946539293
 20
155.8927920918
 30
0.0
 11
14.3947364454
 21
156.0087830405
 31
0.0
  0
LINE
  5
1CD
330
1F
100
AcDbEntity
  8
0
  6
Continuous
 62
     7
370
    25
100
AcDbLine
 10
14.5904804811
 20
152.4647252361
 30
0.0
 11
14.3947364454
 21
156.0087830405
 31
0.0
  0
SPLINE
  5
1CE
330
1F
100
AcDbEntity
  8
0
  6
Continuous
 62
     7
370
    25
100
AcDbSpline
210
0.0
220
0.0
230
1.0
 70
     8
 71
     3
 72
    17
 73
    13
 74
     0
 42
0.00000001
 43
0.00000001
 40
0.0
 40
0.0
 40
0.0
 40
0.0
 40
0.2859834379244701
 40
0.5215922644122236
 40
0.7592399016809376
 40
0.8521492405060495
 40
0.9266708633836008
 40
0.9605058393195364
 40
0.9835417153308592
 40
0.9930790992390831
 40
0.9972256067114874
 40
1.0
 40
1.0
 40
1.0
 40
1.0
 10
10.85398556723638
 20
155.368648409804
 30
0.0
 10
9.625207383489014
 20
154.8367802857836
 30
0.0
 10
7.384094401658298
 20
153.866730057736
 30
0.0
 10
4.045145714756393
 20
152.8244993869513
 30
0.0
 10
1.542490348049583
 20
152.2066808260246
 30
0.0
 10
-0.2278159359865861
 20
151.8527055168065
 30
0.0
 10
-1.092936771323882
 20
151.6980044821937
 30
0.0
 10
-1.618524200599242
 20
151.6095044913619
 30
0.0
 10
-1.852186314256654
 20
151.5703927285393
 30
0.0
 10
-1.929836473745866
 20
151.5560729617774
 30
0.0
 10
-1.945918127946034
 20
151.55233920946
 30
0.0
 10
-1.946978515921988
 20
151.5516053682651
 30
0.0
 10
-1.947403595457836
 20
151.551311192094
 30
0.0
  0
LINE
  5
1CF
330
1F
100
AcDbEntity
  8
0
  6
Continuous
 62
     7
370
    25
100
AcDbLine
 10
12.2946539293
 20
155.8927920918
 30
0.0
 11
10.8539855672
 21
155.3686484098
 31
0.0
  0
ARC
  5
1D0
330
1F
100
AcDbEntity
  8
0
  6
Continuous
 62
     7
370
    25
100
AcDbCircle
 10
5.0505527761
 20
151.759546029
 30
0.0
 40
6.834138728220388
100
AcDbArc
 50
31.8771071303
 51
46.9488007428
  0
SPLINE
  5
1D1
330
1F
100
AcDbEntity
  8
0
  6
Continuous
 62
     7
370
    25
100
AcDbSpline
210
0.0
220
0.0
230
1.0
 70
     8
 71
     3
 72
    10
 73
     6
 74
     0
 42
0.00000001
 43
0.00000001
 40
0.0
 40
0.0
 40
0.0
 40
0.0
 40
0.5975855365574454
 40
0.9790563563181981
 40
1.0
 40
1.0
 40
1.0
 40
1.0
 10
-2.057428915145515
 20
151.5604380894333
 30
0.0
 10
-2.059948054498884
 20
151.556698791707
 30
0.0
 10
-2.064075295279466
 20
151.5505725001834
 30
0.0
 10
-1.98970416872421
 20
151.5501959413269
 30
0.0
 10
-1.949496216619689
 20
151.5512560203273
 30
0.0
 10
-1.947403595457836
 20
151.551311192094
 30
0.0
  0
SPLINE
  5
1D2
330
1F
100
AcDbEntity
  8
0
  6
Continuous
 62
     7
370
    25
100
AcDbSpline
210
0.0
220
0.0
230
1.0
 70
     8
 71
     3
 72
    14
 73
    10
 74
     0
 42
0.00000001
 43
0.00000001
 40
0.0
 40
0.0
 40
0.0
 40
0.0
 40
0.0129036569231464
 40
0.0519665716781148
 40
0.1318891824261205
 40
0.2280032005552176
 40
0.4679440229400844
 40
0.7079115564493632
 40
1.0
 40
1.0
 40
1.0
 40
1.0
 10
-2.057428915145543
 20
151.5604380894333
 30
0.0
 10
-2.023960338681158
 20
151.5682830634946
 30
0.0
 10
-1.889173185848469
 20
151.5998769294272
 30
0.0
 10
-1.44989974085602
 20
151.702258976721
 30
0.0
 10
-0.6384723226300626
 20
151.904660485538
 30
0.0
 10
1.015004859190496
 20
152.3717111663041
 30
0.0
 10
3.35929493143422
 20
153.2091682256945
 30
0.0
 10
6.504389107931358
 20
154.6541084660448
 30
0.0
 10
8.57768778212388
 20
156.0094793488395
 30
0.0
 10
9.71588866487104
 20
156.7535517559893
 30
0.0
  0
LWPOLYLINE
  5
1D3
330
1F
100
AcDbEntity
  8
0
  6
Continuous
 62
     7
370
    25
100
AcDbPolyline
 90
        4
 70
   128
 43
0.0
 10
-2.0769557292
 20
151.7115336657
 10
-2.0747110936
 20
151.6941755188
 10
-2.0657360596
 20
151.6247427727
 10
-2.0574289151
 20
151.5604380894
  0
LINE
  5
1D4
330
1F
100
AcDbEntity
  8
0
  6
Continuous
 62
     7
370
    25
100
AcDbLine
 10
-0.2888314454
 20
152.141061169
 30
0.0
 11
-2.0769557292
 21
151.7115336657
 31
0.0
  0
ARC
  5
1D5
330
1F
100
AcDbEntity
  8
0
  6
Continuous
 62
     7
370
    25
100
AcDbCircle
 10
-8.474389844
 20
182.5667547628
 30
0.0
 40
31.50755777528335
100
AcDbArc
 50
285.0579972479
 51
305.1719294169
  0
LINE
  5
1D6
330
1F
100
AcDbEntity
  8
0
  6
Continuous
 62
     7
370
    25
100
AcDbLine
 10
9.7158886649
 20
156.753551756
 30
0.0
 11
9.6749687787
 21
156.811619769
 31
0.0
  0
SPLINE
  5
1D7
330
1F
100
AcDbEntity
  8
0
  6
Continuous
 62
     7
370
    25
100
AcDbSpline
210
0.0
220
0.0
230
1.0
 70
     8
 71
     3
 72
     9
 73
     5
 74
     0
 42
0.00000001
 43
0.00000001
 40
0.0
 40
0.0
 40
0.0
 40
0.0
 40
0.4998978730609624
 40
1.0
 40
1.0
 40
1.0
 40
1.0
 10
14.39473644541013
 20
156.0087830404948
 30
0.0
 10
14.54293136130591
 20
156.028749378497
 30
0.0
 10
14.83938174423786
 20
156.0686902125717
 30
0.0
 10
15.08811497301452
 20
156.2348561551423
 30
0.0
 10
15.2125069897661
 20
156.3179560964466
 30
0.0
  0
ARC
  5
1D8
330
1F
100
AcDbEntity
  8
0
  6
Continuous
 62
     7
370
    25
100
AcDbCircle
 10
-2.15876423
 20
152.0501395293
 30
0.0
 40
0.5000763403764699
100
AcDbArc
 50
273.1626296399
 51
281.6913635618
  0
ARC
  5
1D9
330
1F
100
AcDbEntity
  8
0
  6
Continuous
 62
     7
370
    25
100
AcDbCircle
 10
6.1402450829
 20
181.7084475398
 30
0.0
 40
48.10950076354639
100
AcDbArc
 50
282.8580809319
 51
283.1066633214
  0
SPLINE
  5
1DA
330
1F
100
AcDbEntity
  8
0
  6
Continuous
 62
     7
370
    25
100
AcDbSpline
210
0.0
220
0.0
230
1.0
 70
     8
 71
     3
 72
    13
 73
     9
 74
     0
 42
0.00000001
 43
0.00000001
 40
0.0
 40
0.0
 40
0.0
 40
0.0
 40
0.0460329529079886
 40
0.2492425848193727
 40
0.477522557027288
 40
0.7051721168687837
 40
0.8526808263814667
 40
0.9999999999999999
 40
0.9999999999999999
 40
0.9999999999999999
 40
0.9999999999999999
 10
26.75560296426709
 20
138.3256748807163
 30
0.0
 10
26.62726831222873
 20
138.2631659122797
 30
0.0
 10
25.93240825274318
 20
137.9247149574024
 30
0.0
 10
24.57274501816659
 20
137.3067375333734
 30
0.0
 10
22.5647724013482
 20
136.4962652066603
 30
0.0
 10
20.55026213944505
 20
135.8036404053956
 30
0.0
 10
18.68797885819965
 20
135.2534066036975
 30
0.0
 10
17.59560929496105
 20
134.9858904925916
 30
0.0
 10
17.04977563895397
 20
134.8522184260313
 30
0.0
  0
LWPOLYLINE
  5
1DB
330
1F
100
AcDbEntity
  8
0
  6
Continuous
 62
     7
370
    25
100
AcDbPolyline
 90
        3
 70
   128
 43
0.0
 10
26.7556029643
 20
138.3256748807
 10
26.7989598409
 20
138.2982834084
 10
26.903537914
 20
138.2322853783
  0
ARC
  5
1DC
330
1F
100
AcDbEntity
  8
0
  6
Continuous
 62
     7
370
    25
100
AcDbCircle
 10
6.1402450829
 20
181.7084475398
 30
0.0
 40
48.17977797259054
100
AcDbArc
 50
282.8580809319
 51
295.5281512988
  0
LINE
  5
1DD
330
1F
100
AcDbEntity
  8
0
  6
Continuous
 62
     7
370
    25
100
AcDbLine
 10
16.8463840475
 20
134.8053276842
 30
0.0
 11
16.8620233194
 21
134.7368127276
 31
0.0
  0
LINE
  5
1DE
330
1F
100
AcDbEntity
  8
0
  6
Continuous
 62
     7
370
    25
100
AcDbLine
 10
16.5963155611
 20
136.7998209552
 30
0.0
 11
17.049775639
 21
134.852218426
 31
0.0
  0
SPLINE
  5
1DF
330
1F
100
AcDbEntity
  8
0
  6
Continuous
 62
     7
370
    25
100
AcDbSpline
210
0.0
220
0.0
230
1.0
 70
     8
 71
     3
 72
    13
 73
     9
 74
     0
 42
0.00000001
 43
0.00000001
 40
0.0
 40
0.0
 40
0.0
 40
0.0
 40
0.2574896950994368
 40
0.4890886589321025
 40
0.7206004760683485
 40
0.9447506334961274
 40
0.9460032291293288
 40
1.0
 40
1.0
 40
1.0
 40
1.0
 10
16.596315561067
 20
136.7998209552453
 30
0.0
 10
17.51504113705482
 20
136.7717579911305
 30
0.0
 10
19.26011392419295
 20
136.7184538094652
 30
0.0
 10
21.75467917010647
 20
136.8830179283032
 30
0.0
 10
24.07032897610724
 20
137.2963919233133
 30
0.0
 10
25.54743757771141
 20
137.7959491098767
 30
0.0
 10
26.41869902225198
 20
138.1701919648066
 30
0.0
 10
26.58874543107489
 20
138.2491723832917
 30
0.0
 10
26.75493660313018
 20
138.3263621834664
 30
0.0
  0
LINE
  5
1E0
330
1F
100
AcDbEntity
  8
0
  6
Continuous
 62
     7
370
    25
100
AcDbLine
 10
26.7549366031
 20
138.3263621835
 30
0.0
 11
26.7556029643
 21
138.3256748807
 31
0.0
  0
LINE
  5
1E1
330
1F
100
AcDbEntity
  8
0
  6
Continuous
 62
     7
370
    25
100
AcDbLine
 10
14.5844390961
 20
140.4851839785
 30
0.0
 11
14.4410772671
 21
137.8895360091
 31
0.0
  0
LINE
  5
1E2
330
1F
100
AcDbEntity
  8
0
  6
Continuous
 62
     7
370
    25
100
AcDbLine
 10
14.4410772671
 20
137.8895360091
 30
0.0
 11
10.4909962453
 21
138.1077053627
 31
0.0
  0
SPLINE
  5
1E3
330
1F
100
AcDbEntity
  8
0
  6
Continuous
 62
     7
370
    25
100
AcDbSpline
210
0.0
220
0.0
230
1.0
 70
     8
 71
     3
 72
    17
 73
    13
 74
     0
 42
0.00000001
 43
0.00000001
 40
0.0
 40
0.0
 40
0.0
 40
0.0
 40
0.0068264277560524
 40
0.0088450004853825
 40
0.0223994102884413
 40
0.0309598270239207
 40
0.0563228448230685
 40
0.1198844474831642
 40
0.1957493698893793
 40
0.5558716060100608
 40
0.776984075093909
 40
1.0
 40
1.0
 40
1.0
 40
1.0
 10
-1.94946932738313
 20
141.398378440722
 30
0.0
 10
-1.945849182213938
 20
141.3973402576773
 30
0.0
 10
-1.94115856115662
 20
141.395995084204
 30
0.0
 10
-1.897625848524931
 20
141.3884050961256
 30
0.0
 10
-1.823093924565589
 20
141.3766535893946
 30
0.0
 10
-1.656261686281885
 20
141.3509346938138
 30
0.0
 10
-1.274685440030343
 20
141.2924201211926
 30
0.0
 10
-0.591785913724524
 20
141.1832230652322
 30
0.0
 10
1.513229887307593
 20
140.8160516495956
 30
0.0
 10
4.321356155710291
 20
140.1828847472397
 30
0.0
 10
7.720921840967787
 20
139.1704388707643
 30
0.0
 10
9.565003640929964
 20
138.4629605743969
 30
0.0
 10
10.49099624529018
 20
138.1077053627274
 30
0.0
  0
LINE
  5
1E4
330
1F
100
AcDbEntity
  8
0
  6
Continuous
 62
     7
370
    25
100
AcDbLine
 10
10.4909962453
 20
138.1077053627
 30
0.0
 11
9.3615208278
 21
136.4575335731
 31
0.0
  0
SPLINE
  5
1E5
330
1F
100
AcDbEntity
  8
0
  6
Continuous
 62
     7
370
    25
100
AcDbSpline
210
0.0
220
0.0
230
1.0
 70
     8
 71
     3
 72
    15
 73
    11
 74
     0
 42
0.00000001
 43
0.00000001
 40
0.0
 40
0.0
 40
0.0
 40
0.0
 40
0.2255198391625378
 40
0.4515645943751951
 40
0.6337799820516978
 40
0.8158790324473548
 40
0.8946729146060253
 40
0.9638048440471934
 40
0.9940832206369723
 40
0.9999999999999999
 40
0.9999999999999999
 40
0.9999999999999999
 40
0.9999999999999999
 10
9.361520827798245
 20
136.4575335730886
 30
0.0
 10
8.516072286944274
 20
137.0025412424301
 30
0.0
 10
6.823207353936503
 20
138.0938251314726
 30
0.0
 10
4.346891160256952
 20
139.3109285210652
 30
0.0
 10
2.018480245545864
 20
140.2418283295004
 30
0.0
 10
0.278000755723401
 20
140.7976188743139
 30
0.0
 10
-0.9796681006462304
 20
141.1341717012783
 30
0.0
 10
-1.623800998558522
 20
141.2895188076027
 30
0.0
 10
-1.951746288640727
 20
141.3650722058702
 30
0.0
 10
-2.044283732264756
 20
141.3865929139203
 30
0.0
 10
-2.059410718800114
 20
141.390110878629
 30
0.0
  0
SPLINE
  5
1E6
330
1F
100
AcDbEntity
  8
0
  6
Continuous
 62
     7
370
    25
100
AcDbSpline
210
0.0
220
0.0
230
1.0
 70
     8
 71
     3
 72
    11
 73
     7
 74
     0
 42
0.00000001
 43
0.00000001
 40
0.0
 40
0.0
 40
0.0
 40
0.0
 40
0.019556121229571
 40
0.168189199674442
 40
0.5898876540792781
 40
1.0
 40
1.0
 40
1.0
 40
1.0
 10
-1.94946932738313
 20
141.398378440722
 30
0.0
 10
-1.951428040531111
 20
141.3984365544377
 30
0.0
 10
-1.968273630353762
 20
141.3989363518784
 30
0.0
 10
-2.020174194113211
 20
141.3997827692919
 30
0.0
 10
-2.069458826178566
 20
141.3976934707699
 30
0.0
 10
-2.06272884110223
 20
141.3926148295864
 30
0.0
 10
-2.059410718800142
 20
141.390110878629
 30
0.0
  0
LINE
  5
1E7
330
1F
100
AcDbEntity
  8
0
  6
Continuous
 62
     7
370
    25
100
AcDbLine
 10
17.4028913351
 20
139.4202100007
 30
0.0
 11
15.7939343418
 21
137.3783484997
 31
0.0
  0
LINE
  5
1E8
330
1F
100
AcDbEntity
  8
0
  6
Continuous
 62
     7
370
    25
100
AcDbLine
 10
26.7549366031
 20
138.3263621835
 30
0.0
 11
26.7543687176
 21
138.3269492244
 31
0.0
  0
ARC
  5
1E9
330
1F
100
AcDbEntity
  8
0
  6
Continuous
 62
     7
370
    25
100
AcDbCircle
 10
22.9682244898
 20
146.4829466408
 30
0.0
 40
11.5915549620674
100
AcDbArc
 50
231.762407147
 51
236.6533814372
  0
LWPOLYLINE
  5
1EA
330
1F
100
AcDbEntity
  8
0
  6
Continuous
 62
     7
370
    25
100
AcDbPolyline
 90
        4
 70
   128
 43
0.0
 10
-2.0594107188
 20
141.3901108786
 10
-2.0616529651
 20
141.3727526236
 10
-2.070625448
 20
141.303319762
 10
-2.0769557292
 20
141.2543596159
  0
ARC
  5
1EB
330
1F
100
AcDbEntity
  8
0
  6
Continuous
 62
     7
370
    25
100
AcDbCircle
 10
-8.474389844
 20
110.3991385188
 30
0.0
 40
31.5778349843275
100
AcDbArc
 50
54.8280705831
 51
55.6099480104
  0
LINE
  5
1EC
330
1F
100
AcDbEntity
  8
0
  6
Continuous
 62
     7
370
    25
100
AcDbLine
 10
9.7154506935
 20
136.2117200154
 30
0.0
 11
9.6749687787
 21
136.1542735126
 31
0.0
  0
ARC
  5
1ED
330
1F
100
AcDbEntity
  8
0
  6
Continuous
 62
     7
370
    25
100
AcDbCircle
 10
-8.474389844
 20
110.3991385188
 30
0.0
 40
31.5075577752834
100
AcDbArc
 50
54.8280705831
 51
74.9420027521
  0
LINE
  5
1EE
330
1F
100
AcDbEntity
  8
0
  6
Continuous
 62
     7
370
    25
100
AcDbLine
 10
-2.0769557292
 20
141.2543596159
 30
0.0
 11
-0.2888314454
 21
140.8248321126
 31
0.0
  0
LINE
  5
1EF
330
1F
100
AcDbEntity
  8
0
  6
Continuous
 62
     7
370
    25
100
AcDbLine
 10
-2.1507931385
 20
151.7012153694
 30
0.0
 11
-2.0769557292
 21
151.7115336657
 31
0.0
  0
SPLINE
  5
1F0
330
1F
100
AcDbEntity
  8
0
  6
Continuous
 62
     7
370
    25
100
AcDbSpline
210
0.0
220
0.0
230
1.0
 70
     8
 71
     3
 72
    10
 73
     6
 74
     0
 42
0.00000001
 43
0.00000001
 40
0.0
 40
0.0
 40
0.0
 40
0.0
 40
0.0490769085761659
 40
0.599580584366531
 40
1.0
 40
1.0
 40
1.0
 40
1.0
 10
15.79393434182706
 20
137.3783484996939
 30
0.0
 10
15.77498680345798
 20
137.3929712352953
 30
0.0
 10
15.54350164155144
 20
137.5716195774844
 30
0.0
 10
15.09762786673416
 20
137.8056715709057
 30
0.0
 10
14.63562128984969
 20
137.8646859439233
 30
0.0
 10
14.44107726709608
 20
137.8895360090556
 30
0.0
  0
ARC
  5
1F1
330
1F
100
AcDbEntity
  8
0
  6
Continuous
 62
     7
370
    25
100
AcDbCircle
 10
-2.1607641198
 20
140.9004131816
 30
0.0
 40
0.5000763405164483
100
AcDbArc
 50
78.306520338
 51
86.8373700345
  0
SPLINE
  5
1F2
330
1F
100
AcDbEntity
  8
0
  6
Continuous
 62
     7
370
    25
100
AcDbSpline
210
0.0
220
0.0
230
1.0
 70
     8
 71
     3
 72
     9
 73
     5
 74
     0
 42
0.00000001
 43
0.00000001
 40
0.0
 40
0.0
 40
0.0
 40
0.0
 40
0.8458911907785723
 40
1.0
 40
1.0
 40
1.0
 40
1.0
 10
-2.076955729210655
 20
141.2543596159427
 30
0.0
 10
-2.097796325321755
 20
141.2581744229351
 30
0.0
 10
-2.122433768456639
 20
141.2626842310924
 30
0.0
 10
-2.147006295632886
 20
141.2644116948434
 30
0.0
 10
-2.150793138535556
 20
141.264677912225
 30
0.0
  0
LINE
  5
1F3
330
1F
100
AcDbEntity
  8
0
  6
Continuous
 62
     7
370
    25
100
AcDbLine
 10
-20.1462133362
 20
142.3309337655
 30
0.0
 11
-20.1457553164
 21
142.330908679
 31
0.0
  0
LINE
  5
1F4
330
1F
100
AcDbEntity
  8
0
  6
Continuous
 62
     7
370
    25
100
AcDbLine
 10
9.7158886649
 20
156.753551756
 30
0.0
 11
11.5546295142
 21
157.7505179917
 31
0.0
  0
LINE
  5
1F5
330
1F
100
AcDbEntity
  8
0
  6
Continuous
 62
     7
370
    25
100
AcDbLine
 10
12.2946539293
 20
155.8927920918
 30
0.0
 11
11.5546295142
 21
157.7505179917
 31
0.0
  0
LINE
  5
1F6
330
1F
100
AcDbEntity
  8
0
  6
Continuous
 62
     7
370
    25
100
AcDbLine
 10
15.2814242561
 20
156.3719135788
 30
0.0
 11
15.4032580027
 21
158.3678940877
 31
0.0
  0
LINE
  5
1F7
330
1F
100
AcDbEntity
  8
0
  6
Continuous
 62
     7
370
    25
100
AcDbLine
 10
15.4032580027
 20
158.3678940877
 30
0.0
 11
16.8461652425
 21
158.1596070225
 31
0.0
  0
ARC
  5
1F8
330
1F
100
AcDbEntity
  8
0
  6
Continuous
 62
     7
370
    25
100
AcDbCircle
 10
-8.474389844
 20
110.3991385188
 30
0.0
 40
33.5775303746403
100
AcDbArc
 50
54.8280705831
 51
55.6099480104
  0
ARC
  5
1F9
330
1F
100
AcDbEntity
  8
0
  6
Continuous
 62
     7
370
    25
100
AcDbCircle
 10
6.1402450829
 20
181.7084475398
 30
0.0
 40
46.10980537323363
100
AcDbArc
 50
282.8580809319
 51
283.1066633214
  0
ARC
  5
1FA
330
1F
100
AcDbEntity
  8
0
  6
Continuous
 62
     7
370
    25
100
AcDbCircle
 10
14.8592092846
 20
143.511052165
 30
0.0
 40
6.929946387144317
100
AcDbArc
 50
234.8280705831
 51
282.8580809319
  0
ARC
  5
1FB
330
1F
100
AcDbEntity
  8
0
  6
Continuous
 62
     7
370
    25
100
AcDbCircle
 10
14.8592092846
 20
149.4548411166
 30
0.0
 40
6.929946387144271
100
AcDbArc
 50
86.5070253286
 51
111.7198462835
  0
LINE
  5
1FC
330
1F
100
AcDbEntity
  8
0
  6
Continuous
 62
     7
370
    25
100
AcDbLine
 10
10.8673390446
 20
137.8463254358
 30
0.0
 11
9.7154506935
 21
136.2117200154
 31
0.0
  0
ARC
  5
1FD
330
1F
100
AcDbEntity
  8
0
  6
Continuous
 62
     7
370
    25
100
AcDbCircle
 10
14.8592092846
 20
149.4548411166
 30
0.0
 40
8.929641777457077
100
AcDbArc
 50
86.5070253286
 51
111.7198462835
  0
LINE
  5
1FE
330
1F
100
AcDbEntity
  8
0
  6
Continuous
 62
     7
370
    25
100
AcDbLine
 10
16.4013780425
 20
136.7548792505
 30
0.0
 11
16.8463840475
 21
134.8053276842
 31
0.0
  0
ARC
  5
1FF
330
1F
100
AcDbEntity
  8
0
  6
Continuous
 62
     7
370
    25
100
AcDbCircle
 10
14.8592092846
 20
143.511052165
 30
0.0
 40
8.929641777457109
100
AcDbArc
 50
234.8280705831
 51
282.8580809319
  0
ARC
  5
200
330
1F
100
AcDbEntity
  8
0
  6
Continuous
 62
     7
370
    25
100
AcDbCircle
 10
14.8592092846
 20
149.4548411166
 30
0.0
 40
8.999918986501255
100
AcDbArc
 50
77.1419190681
 51
125.1719294169
  0
ARC
  5
201
330
1F
100
AcDbEntity
  8
0
  6
Continuous
 62
     7
370
    25
100
AcDbCircle
 10
14.8592092846
 20
143.511052165
 30
0.0
 40
8.999918986501244
100
AcDbArc
 50
234.8280705831
 51
282.8580809319
  0
SPLINE
  5
202
330
1F
100
AcDbEntity
  8
0
  6
Continuous
 62
     7
370
    25
100
AcDbSpline
210
0.0
220
0.0
230
1.0
 70
     8
 71
     3
 72
    11
 73
     7
 74
     0
 42
0.00000001
 43
0.00000001
 40
0.0
 40
0.0
 40
0.0
 40
0.0
 40
0.2200386424382255
 40
0.6637869905998169
 40
0.8890365590789576
 40
1.0
 40
1.0
 40
1.0
 40
1.0
 10
234.6458146343878
 20
152.5032649477698
 30
0.0
 10
234.8500360973893
 20
152.238246336511
 30
0.0
 10
235.4661076602729
 20
151.4387690062062
 30
0.0
 10
235.98965701129
 20
150.1755997356784
 30
0.0
 10
236.2412862110511
 20
149.0090299223543
 30
0.0
 10
236.2205790163289
 20
148.4977501236949
 30
0.0
 10
236.2137448323028
 20
148.3290077962226
 30
0.0
  0
SPLINE
  5
203
330
1F
100
AcDbEntity
  8
0
  6
Continuous
 62
     7
370
    25
100
AcDbSpline
210
0.0
220
0.0
230
1.0
 70
     8
 71
     3
 72
     9
 73
     5
 74
     0
 42
0.00000001
 43
0.00000001
 40
0.0
 40
0.0
 40
0.0
 40
0.0
 40
0.9209630919903056
 40
1.0
 40
1.0
 40
1.0
 40
1.0
 10
236.2858569976351
 20
152.1829416721363
 30
0.0
 10
235.7714354597623
 20
152.2397687310549
 30
0.0
 10
235.2128663462476
 20
152.3014726792508
 30
0.0
 10
234.6873498345782
 20
152.4884841401388
 30
0.0
 10
234.6458146343878
 20
152.5032649477698
 30
0.0
  0
SPLINE
  5
204
330
1F
100
AcDbEntity
  8
0
  6
Continuous
 62
     7
370
    25
100
AcDbSpline
210
0.0
220
0.0
230
1.0
 70
     8
 71
     3
 72
    10
 73
     6
 74
     0
 42
0.00000001
 43
0.00000001
 40
0.0
 40
0.0
 40
0.0
 40
0.0
 40
0.2596150688488836
 40
0.629760644481066
 40
0.9999999999999999
 40
0.9999999999999999
 40
0.9999999999999999
 40
0.9999999999999999
 10
283.4610179515723
 20
149.5913841031472
 30
0.0
 10
279.3831977328493
 20
149.8911382402456
 30
0.0
 10
269.491434899484
 20
150.6182661354097
 30
0.0
 10
253.7618622168108
 20
151.4441130052999
 30
0.0
 10
242.1116839555462
 20
151.9366446545656
 30
0.0
 10
236.2858569976351
 20
152.1829416721363
 30
0.0
  0
SPLINE
  5
205
330
1F
100
AcDbEntity
  8
0
  6
Continuous
 62
     7
370
    25
100
AcDbSpline
210
0.0
220
0.0
230
1.0
 70
     8
 71
     3
 72
    11
 73
     7
 74
     0
 42
0.00000001
 43
0.00000001
 40
0.0
 40
0.0
 40
0.0
 40
0.0
 40
0.0614641195413916
 40
0.4999988937835375
 40
0.9375097801832794
 40
1.0
 40
1.0
 40
1.0
 40
1.0
 10
283.4610179515722
 20
143.8653517561453
 30
0.0
 10
283.4726871477745
 20
143.9818087285973
 30
0.0
 10
283.5676138340438
 20
144.9291639959286
 30
0.0
 10
283.6513166613101
 20
146.7264081943768
 30
0.0
 10
283.5677467377898
 20
148.5256062186176
 30
0.0
 10
283.4728750327446
 20
149.4729810430507
 30
0.0
 10
283.4610179515723
 20
149.5913841031472
 30
0.0
  0
SPLINE
  5
206
330
1F
100
AcDbEntity
  8
0
  6
Continuous
 62
     7
370
    25
100
AcDbSpline
210
0.0
220
0.0
230
1.0
 70
     8
 71
     3
 72
    11
 73
     7
 74
     0
 42
0.00000001
 43
0.00000001
 40
0.0
 40
0.0
 40
0.0
 40
0.0
 40
0.2594589277291888
 40
0.6296002946237422
 40
0.8147836738016292
 40
1.0
 40
1.0
 40
1.0
 40
1.0
 10
236.2858569976351
 20
141.2737941871581
 30
0.0
 10
240.3688576469801
 20
141.439292773579
 30
0.0
 10
250.2766239137845
 20
141.8408898960305
 30
0.0
 10
263.0917608727456
 20
142.519142712054
 30
0.0
 10
274.7360331390051
 20
143.1965636042661
 30
0.0
 10
280.5525172221377
 20
143.6424091528784
 30
0.0
 10
283.4610179515722
 20
143.8653517561453
 30
0.0
  0
SPLINE
  5
207
330
1F
100
AcDbEntity
  8
0
  6
Continuous
 62
     7
370
    25
100
AcDbSpline
210
0.0
220
0.0
230
1.0
 70
     8
 71
     3
 72
     9
 73
     5
 74
     0
 42
0.00000001
 43
0.00000001
 40
0.0
 40
0.0
 40
0.0
 40
0.0
 40
0.0790369080192139
 40
1.0
 40
1.0
 40
1.0
 40
1.0
 10
234.6458146343886
 20
140.9534709115247
 30
0.0
 10
234.687349834584
 20
140.9682517191575
 30
0.0
 10
235.2128663462532
 20
141.1552631800454
 30
0.0
 10
235.7714354597678
 20
141.2169671282407
 30
0.0
 10
236.2858569976352
 20
141.2737941871581
 30
0.0
  0
SPLINE
  5
208
330
1F
100
AcDbEntity
  8
0
  6
Continuous
 62
     7
370
    25
100
AcDbSpline
210
0.0
220
0.0
230
1.0
 70
     8
 71
     3
 72
    11
 73
     7
 74
     0
 42
0.00000001
 43
0.00000001
 40
0.0
 40
0.0
 40
0.0
 40
0.0
 40
0.0728838064943292
 40
0.4140719411596028
 40
0.9209668754550567
 40
1.0
 40
1.0
 40
1.0
 40
1.0
 10
236.2137448322991
 20
145.1277280630866
 30
0.0
 10
236.2214599814367
 20
145.0172816288476
 30
0.0
 10
236.2652917588013
 20
144.3898065885166
 30
0.0
 10
235.9208000473632
 20
143.0068145580516
 30
0.0
 10
235.281110697877
 20
141.736883040274
 30
0.0
 10
234.7213219484441
 20
141.046582374101
 30
0.0
 10
234.6458146343886
 20
140.9534709115247
 30
0.0
  0
SPLINE
  5
209
330
1F
100
AcDbEntity
  8
0
  6
Continuous
 62
     7
370
    25
100
AcDbSpline
210
0.0
220
0.0
230
1.0
 70
     8
 71
     3
 72
    10
 73
     6
 74
     0
 42
0.00000001
 43
0.00000001
 40
0.0
 40
0.0
 40
0.0
 40
0.0
 40
0.3880207377811385
 40
0.9790637766506849
 40
1.0
 40
1.0
 40
1.0
 40
1.0
 10
236.2137448323028
 20
148.3290077962226
 30
0.0
 10
236.1404303015434
 20
147.9181679343668
 30
0.0
 10
235.9554412162201
 20
146.8815263645185
 30
0.0
 10
236.0511481420511
 20
145.7877570429472
 30
0.0
 10
236.208366293299
 20
145.1495611742278
 30
0.0
 10
236.2137448322991
 20
145.1277280630866
 30
0.0
  0
ARC
  5
20A
330
1F
100
AcDbEntity
  8
0
  6
Continuous
 62
     7
370
    25
100
AcDbCircle
 10
227.9682244898
 20
146.7283679296
 30
0.0
 40
8.399443654264553
100
AcDbArc
 50
10.985757993
 51
349.0142420071
  0
SPLINE
  5
20B
330
1F
100
AcDbEntity
  8
0
  6
Continuous
 62
     7
370
    25
100
AcDbSpline
210
0.0
220
0.0
230
1.0
 70
     8
 71
     3
 72
     9
 73
     5
 74
     0
 42
0.00000001
 43
0.00000001
 40
0.0
 40
0.0
 40
0.0
 40
0.0
 40
0.681792342127431
 40
1.0
 40
1.0
 40
1.0
 40
1.0
 10
234.6458146343886
 20
140.9534709115247
 30
0.0
 10
234.5035510737455
 20
140.7635605564196
 30
0.0
 10
234.2948899435851
 20
140.485014812546
 30
0.0
 10
234.0654641097047
 20
140.2521104396031
 30
0.0
 10
233.9924590524502
 20
140.1779984845806
 30
0.0
  0
ARC
  5
20C
330
1F
100
AcDbEntity
  8
0
  6
Continuous
 62
     7
370
    25
100
AcDbCircle
 10
227.9682244898
 20
146.7283679296
 30
0.0
 40
8.899367501836315
100
AcDbArc
 50
47.3959191961
 51
312.6040808039
  0
LINE
  5
20D
330
1F
100
AcDbEntity
  8
0
  6
Continuous
 62
     7
370
    25
100
AcDbLine
 10
233.9924590525
 20
153.2787373747
 30
0.0
 11
234.6458146344
 21
152.5032649478
 31
0.0
  0
SPLINE
  5
20E
330
1F
100
AcDbEntity
  8
0
  6
Continuous
 62
     7
370
    25
100
AcDbSpline
210
0.0
220
0.0
230
1.0
 70
     8
 71
     3
 72
    10
 73
     6
 74
     0
 42
0.00000001
 43
0.00000001
 40
0.0
 40
0.0
 40
0.0
 40
0.0
 40
0.3702896688583036
 40
0.7405318123903298
 40
1.0
 40
1.0
 40
1.0
 40
1.0
 10
283.4725374147505
 20
143.422492175312
 30
0.0
 10
277.6524735685322
 20
143.1023011607857
 30
0.0
 10
266.0130928600286
 20
142.4619602270802
 30
0.0
 10
250.2942244532538
 20
141.5927258952169
 30
0.0
 10
240.397050637244
 20
141.0439848936078
 30
0.0
 10
236.3189823167799
 20
140.8178796097759
 30
0.0
  0
ARC
  5
20F
330
1F
100
AcDbEntity
  8
0
  6
Continuous
 62
     7
370
    25
100
AcDbCircle
 10
243.5340715242
 20
141.5712659765
 30
0.0
 40
7.254316183417003
100
AcDbArc
 50
182.3501399449
 51
185.9611177313
  0
ARC
  5
210
330
1F
100
AcDbEntity
  8
0
  6
Continuous
 62
     7
370
    25
100
AcDbCircle
 10
279.2120148735
 20
143.5332489993
 30
0.0
 40
4.261961918913206
100
AcDbArc
 50
358.5108705386
 51
4.4691613064
  0
SPLINE
  5
211
330
1F
100
AcDbEntity
  8
0
  6
Continuous
 62
     7
370
    25
100
AcDbSpline
210
0.0
220
0.0
230
1.0
 70
     8
 71
     3
 72
    10
 73
     6
 74
     0
 42
0.00000001
 43
0.00000001
 40
0.0
 40
0.0
 40
0.0
 40
0.0
 40
0.3702717503651152
 40
0.7405122151371749
 40
1.0
 40
1.0
 40
1.0
 40
1.0
 10
236.3189823167799
 20
152.6388562495184
 30
0.0
 10
242.1386543784491
 20
152.3163277638505
 30
0.0
 10
253.7775067767459
 20
151.6712980441074
 30
0.0
 10
269.4966463607006
 20
150.8024835566284
 30
0.0
 10
279.3941437843993
 20
150.2584286458616
 30
0.0
 10
283.4725374147472
 20
150.0342436839825
 30
0.0
  0
ARC
  5
212
330
1F
100
AcDbEntity
  8
0
  6
Continuous
 62
     7
370
    25
100
AcDbCircle
 10
279.2120148707
 20
149.92348686
 30
0.0
 40
4.261961921783098
100
AcDbArc
 50
355.530838696
 51
1.4891294598
  0
ARC
  5
213
330
1F
100
AcDbEntity
  8
0
  6
Continuous
 62
     7
370
    25
100
AcDbCircle
 10
243.5340715243
 20
151.8854698828
 30
0.0
 40
7.254316183437911
100
AcDbArc
 50
174.0388822687
 51
177.6498600551
  0
SPLINE
  5
214
330
1F
100
AcDbEntity
  8
0
  6
Continuous
 62
     7
370
    25
100
AcDbSpline
210
0.0
220
0.0
230
1.0
 70
     8
 71
     3
 72
    12
 73
     8
 74
     0
 42
0.00000001
 43
0.00000001
 40
0.0
 40
0.0
 40
0.0
 40
0.0
 40
0.1224290494151355
 40
0.342352244977047
 40
0.5614228816909439
 40
0.780722953853349
 40
1.0
 40
1.0
 40
1.0
 40
1.0
 10
285.3967453844198
 20
149.480709733491
 30
0.0
 10
285.3877413085558
 20
149.4830684179319
 30
0.0
 10
285.3625629248247
 20
149.4896640822567
 30
0.0
 10
285.14657524118
 20
149.5066720499959
 30
0.0
 10
284.710677111451
 20
149.5321830241503
 30
0.0
 10
284.1267514980208
 20
149.5617352067096
 30
0.0
 10
283.6829213664527
 20
149.5815014835886
 30
0.0
 10
283.4610179515723
 20
149.5913841031472
 30
0.0
  0
SPLINE
  5
215
330
1F
100
AcDbEntity
  8
0
  6
Continuous
 62
     7
370
    25
100
AcDbSpline
210
0.0
220
0.0
230
1.0
 70
     8
 71
     3
 72
    11
 73
     7
 74
     0
 42
0.00000001
 43
0.00000001
 40
0.0
 40
0.0
 40
0.0
 40
0.0
 40
0.0800485240044433
 40
0.5000005853538798
 40
0.9209248322279645
 40
1.0
 40
1.0
 40
1.0
 40
1.0
 10
285.3967453844198
 20
149.480709733491
 30
0.0
 10
285.3964591400057
 20
149.3344653083903
 30
0.0
 10
285.3946711948011
 20
148.4209906495572
 30
0.0
 10
285.3934354979713
 20
146.7265810617987
 30
0.0
 10
285.3946731960659
 20
145.033954209944
 30
0.0
 10
285.3964624180339
 20
144.1204908343001
 30
0.0
 10
285.3967453844198
 20
143.9760261258089
 30
0.0
  0
SPLINE
  5
216
330
1F
100
AcDbEntity
  8
0
  6
Continuous
 62
     7
370
    25
100
AcDbSpline
210
0.0
220
0.0
230
1.0
 70
     8
 71
     3
 72
    12
 73
     8
 74
     0
 42
0.00000001
 43
0.00000001
 40
0.0
 40
0.0
 40
0.0
 40
0.0
 40
0.1130367476169193
 40
0.3328594693547965
 40
0.5544127937944973
 40
0.7774207483513236
 40
1.0
 40
1.0
 40
1.0
 40
1.0
 10
283.4610179515722
 20
143.8653517561453
 30
0.0
 10
283.575088791559
 20
143.8703670018467
 30
0.0
 10
283.9109933541669
 20
143.8851354029025
 30
0.0
 10
284.4450612105617
 20
143.9107276070118
 30
0.0
 10
284.9615868484489
 20
143.9386028698828
 30
0.0
 10
285.3184815656033
 20
143.9620447434733
 30
0.0
 10
285.3706741831218
 20
143.971368655233
 30
0.0
 10
285.3967453844199
 20
143.9760261258089
 30
0.0
  0
SPLINE
  5
217
330
1F
100
AcDbEntity
  8
0
  6
Continuous
 62
     7
370
    25
100
AcDbSpline
210
0.0
220
0.0
230
1.0
 70
     8
 71
     3
 72
     9
 73
     5
 74
     0
 42
0.00000001
 43
0.00000001
 40
0.0
 40
0.0
 40
0.0
 40
0.0
 40
0.500010612381544
 40
1.0
 40
1.0
 40
1.0
 40
1.0
 10
233.4928512036072
 20
153.7105690639601
 30
0.0
 10
233.9225725704281
 20
153.4227285258668
 30
0.0
 10
234.7819970629887
 20
152.8470596681153
 30
0.0
 10
235.806661148267
 20
152.7082564070286
 30
0.0
 10
236.3189823167799
 20
152.6388562495184
 30
0.0
  0
SPLINE
  5
218
330
1F
100
AcDbEntity
  8
0
  6
Continuous
 62
     7
370
    25
100
AcDbSpline
210
0.0
220
0.0
230
1.0
 70
     8
 71
     3
 72
     9
 73
     5
 74
     0
 42
0.00000001
 43
0.00000001
 40
0.0
 40
0.0
 40
0.0
 40
0.0
 40
0.9838702326459385
 40
1.0
 40
1.0
 40
1.0
 40
1.0
 10
233.9924590524502
 20
153.2787373747138
 30
0.0
 10
233.8311182375156
 20
153.4235697877327
 30
0.0
 10
233.6671323686672
 20
153.5707766125895
 30
0.0
 10
233.4956176953851
 20
153.7083500366361
 30
0.0
 10
233.4928512036072
 20
153.7105690639601
 30
0.0
  0
SPLINE
  5
219
330
1F
100
AcDbEntity
  8
0
  6
Continuous
 62
     7
370
    25
100
AcDbSpline
210
0.0
220
0.0
230
1.0
 70
     8
 71
     3
 72
     9
 73
     5
 74
     0
 42
0.00000001
 43
0.00000001
 40
0.0
 40
0.0
 40
0.0
 40
0.0
 40
0.5055561057107305
 40
1.0
 40
1.0
 40
1.0
 40
1.0
 10
236.3189823167799
 20
140.8178796097759
 30
0.0
 10
235.8009227994469
 20
140.7472235755059
 30
0.0
 10
234.7761908033715
 20
140.6074645389285
 30
0.0
 10
233.9174502346099
 20
140.0311312641327
 30
0.0
 10
233.4928512036072
 20
139.7461667953343
 30
0.0
  0
SPLINE
  5
21A
330
1F
100
AcDbEntity
  8
0
  6
Continuous
 62
     7
370
    25
100
AcDbSpline
210
0.0
220
0.0
230
1.0
 70
     8
 71
     3
 72
     9
 73
     5
 74
     0
 42
0.00000001
 43
0.00000001
 40
0.0
 40
0.0
 40
0.0
 40
0.0
 40
0.0161297673533178
 40
0.9999999999999999
 40
0.9999999999999999
 40
0.9999999999999999
 40
0.9999999999999999
 10
233.4928512036072
 20
139.7461667953343
 30
0.0
 10
233.4956176953851
 20
139.7483858226582
 30
0.0
 10
233.6671323686709
 20
139.8859592467078
 30
0.0
 10
233.8311182375174
 20
140.033166071563
 30
0.0
 10
233.9924590524502
 20
140.1779984845806
 30
0.0
  0
SPLINE
  5
21B
330
1F
100
AcDbEntity
  8
0
  6
Continuous
 62
     7
370
    25
100
AcDbSpline
210
0.0
220
0.0
230
1.0
 70
     8
 71
     3
 72
    12
 73
     8
 74
     0
 42
0.00000001
 43
0.00000001
 40
0.0
 40
0.0
 40
0.0
 40
0.0
 40
0.2230315344150414
 40
0.4461337558340381
 40
0.6675099896776929
 40
0.8870667292264895
 40
1.0
 40
1.0
 40
1.0
 40
1.0
 10
284.9243911193354
 20
143.4768630547605
 30
0.0
 10
284.9048573332095
 20
143.4787533020552
 30
0.0
 10
284.865783569973
 20
143.4825343957346
 30
0.0
 10
284.5981943879169
 20
143.475591559464
 30
0.0
 10
284.2106653040917
 20
143.4600027369741
 30
0.0
 10
283.8099431916286
 20
143.4406654569099
 30
0.0
 10
283.5580837693708
 20
143.4270998557334
 30
0.0
 10
283.4725374147506
 20
143.422492175312
 30
0.0
  0
ARC
  5
21C
330
1F
100
AcDbEntity
  8
0
  6
Continuous
 62
     7
370
    25
100
AcDbCircle
 10
284.8966454968
 20
143.9761927112
 30
0.0
 40
0.5000999153468566
100
AcDbArc
 50
273.1804119247
 51
359.9809145383
  0
SPLINE
  5
21D
330
1F
100
AcDbEntity
  8
0
  6
Continuous
 62
     7
370
    25
100
AcDbSpline
210
0.0
220
0.0
230
1.0
 70
     8
 71
     3
 72
    12
 73
     8
 74
     0
 42
0.00000001
 43
0.00000001
 40
0.0
 40
0.0
 40
0.0
 40
0.0
 40
0.2190444340109328
 40
0.4380981679380335
 40
0.6571027493691862
 40
0.8772791087290023
 40
1.0
 40
1.0
 40
1.0
 40
1.0
 10
283.4725374147472
 20
150.0342436839825
 30
0.0
 10
283.638955155518
 20
150.0254148710327
 30
0.0
 10
283.9717977026172
 20
150.0077568702905
 30
0.0
 10
284.4099561452603
 20
149.9882383808814
 30
0.0
 10
284.7369219720199
 20
149.9769325972491
 30
0.0
 10
284.898765849034
 20
149.9751087291725
 30
0.0
 10
284.9176371814463
 20
149.9786171584973
 30
0.0
 10
284.9243911193353
 20
149.9798728045338
 30
0.0
  0
ARC
  5
21E
330
1F
100
AcDbEntity
  8
0
  6
Continuous
 62
     7
370
    25
100
AcDbCircle
 10
284.8966454968
 20
149.4805431481
 30
0.0
 40
0.500099915346926
100
AcDbArc
 50
0.0190854623
 51
86.8195880753
  0
LINE
  5
21F
330
1F
100
AcDbEntity
  8
0
  6
Continuous
 62
     7
370
    25
100
AcDbLine
 10
236.3189823168
 20
140.8178796098
 30
0.0
 11
236.3459684985
 21
140.7465893344
 31
0.0
  0
LINE
  5
220
330
1F
100
AcDbEntity
  8
0
  6
Continuous
 62
     7
370
    25
100
AcDbLine
 10
284.92908148
 20
143.4724246017
 30
0.0
 11
284.9243911193
 21
143.4768630548
 31
0.0
  0
ELLIPSE
  5
221
330
1F
100
AcDbEntity
  8
0
  6
Continuous
 62
     7
370
    25
100
AcDbEllipse
 10
283.4293099373
 20
143.3891321517
 30
0.0
 11
1.499999304622861
 21
0.08287263343871132
 31
0.0
210
0.0
220
0.0
230
1.0
 40
0.0174284859
 41
5.396717970286828
 42
6.299675703201077
  0
LINE
  5
222
330
1F
100
AcDbEntity
  8
0
  6
Continuous
 62
     7
370
    25
100
AcDbLine
 10
280.9136952682
 20
143.1803725637
 30
0.0
 11
284.3786584777
 21
143.4212638427
 31
0.0
  0
LINE
  5
223
330
1F
100
AcDbEntity
  8
0
  6
Continuous
 62
     7
370
    25
100
AcDbLine
 10
280.9136952682
 20
143.1804709549
 30
0.0
 11
280.9136952682
 21
143.1803725637
 31
0.0
  0
ELLIPSE
  5
224
330
1F
100
AcDbEntity
  8
0
  6
Continuous
 62
     7
370
    25
100
AcDbEllipse
 10
271.4642088473
 20
142.8508249034
 30
0.0
 11
14.49999327802044
 21
0.8011021232406962
 31
0.0
210
0.0
220
0.0
230
1.0
 40
0.0174284859
 41
4.685109492442217
 42
5.421234828998107
  0
ELLIPSE
  5
225
330
1F
100
AcDbEntity
  8
0
  6
Continuous
 62
     7
370
    25
100
AcDbEllipse
 10
270.1431989318
 20
141.9005413542
 30
0.0
 11
35.70262504606018
 21
1.972514619921924
 31
0.0
210
0.0
220
0.0
230
1.0
 40
0.0174284859
 41
1.543516838852416
 42
2.025717338718044
  0
ELLIPSE
  5
226
330
1F
100
AcDbEntity
  8
0
  6
Continuous
 62
     7
370
    25
100
AcDbEllipse
 10
251.1229714597
 20
141.5281452944
 30
0.0
 11
7.499996523114021
 21
0.4143631671934713
 31
0.0
210
0.0
220
0.0
230
1.0
 40
0.0174284859
 41
4.976419334597789
 42
5.167309992307914
  0
LINE
  5
227
330
1F
100
AcDbEntity
  8
0
  6
Continuous
 62
     7
370
    25
100
AcDbLine
 10
253.0676238607
 20
141.6604897456
 30
0.0
 11
253.0872421181
 21
141.5100992011
 31
0.0
  0
SPLINE
  5
228
330
1F
100
AcDbEntity
  8
0
  6
Continuous
 62
     7
370
    25
100
AcDbSpline
210
0.0
220
0.0
230
1.0
 70
     8
 71
     3
 72
    10
 73
     6
 74
     0
 42
0.00000001
 43
0.00000001
 40
0.0
 40
0.0
 40
0.0
 40
0.0
 40
0.0186368637457253
 40
0.3939469944633057
 40
1.0
 40
1.0
 40
1.0
 40
1.0
 10
252.8838525750496
 20
141.660003378372
 30
0.0
 10
252.8863087822983
 20
141.6600911288513
 30
0.0
 10
252.9382282187753
 20
141.6619460030442
 30
0.0
 10
253.0422270672533
 20
141.6646259844225
 30
0.0
 10
253.0579277246026
 20
141.6620689030248
 30
0.0
 10
253.0676238607461
 20
141.660489745617
 30
0.0
  0
LINE
  5
229
330
1F
100
AcDbEntity
  8
0
  6
Continuous
 62
     7
370
    25
100
AcDbLine
 10
236.3459684985
 20
140.7465893344
 30
0.0
 11
252.883852575
 21
141.6600033784
 31
0.0
  0
LINE
  5
22A
330
1F
100
AcDbEntity
  8
0
  6
Continuous
 62
     7
370
    25
100
AcDbLine
 10
252.885918307
 20
151.8129361297
 30
0.0
 11
236.3520098835
 21
152.726130592
 31
0.0
  0
SPLINE
  5
22B
330
1F
100
AcDbEntity
  8
0
  6
Continuous
 62
     7
370
    25
100
AcDbSpline
210
0.0
220
0.0
230
1.0
 70
     8
 71
     3
 72
    11
 73
     7
 74
     0
 42
0.00000001
 43
0.00000001
 40
0.0
 40
0.0
 40
0.0
 40
0.0
 40
0.4177469294495429
 40
0.8392770662410927
 40
0.981783206881995
 40
1.0
 40
1.0
 40
1.0
 40
1.0
 10
253.069623747618
 20
151.8115866844639
 30
0.0
 10
253.0649867195861
 20
151.8105034932802
 30
0.0
 10
253.0556706695847
 20
151.8083273012971
 30
0.0
 10
252.9801742038347
 20
151.8095294781886
 30
0.0
 10
252.9099140032626
 20
151.8120000055285
 30
0.0
 10
252.888361166605
 20
151.8128408284855
 30
0.0
 10
252.8859183069749
 20
151.812936129744
 30
0.0
  0
LINE
  5
22C
330
1F
100
AcDbEntity
  8
0
  6
Continuous
 62
     7
370
    25
100
AcDbLine
 10
253.0872421181
 20
151.9466366582
 30
0.0
 11
253.0696237476
 21
151.8115866845
 31
0.0
  0
ELLIPSE
  5
22D
330
1F
100
AcDbEntity
  8
0
  6
Continuous
 62
     7
370
    25
100
AcDbEllipse
 10
251.1229714597
 20
151.9285905649
 30
0.0
 11
7.499996523114079
 21
-0.4143631671934714
 31
0.0
210
0.0
220
0.0
230
1.0
 40
0.0174284859
 41
1.115875314871739
 42
1.306765972581855
  0
ELLIPSE
  5
22E
330
1F
100
AcDbEntity
  8
0
  6
Continuous
 62
     7
370
    25
100
AcDbEllipse
 10
270.1431989318
 20
151.5561945051
 30
0.0
 11
35.70262504606018
 21
-1.972514619921953
 31
0.0
210
0.0
220
0.0
230
1.0
 40
0.0174284859
 41
4.257467968461727
 42
4.739668468327171
  0
ELLIPSE
  5
22F
330
1F
100
AcDbEntity
  8
0
  6
Continuous
 62
     7
370
    25
100
AcDbEllipse
 10
271.4642088473
 20
150.6059109559
 30
0.0
 11
14.49999327802044
 21
-0.8011021232406962
 31
0.0
210
0.0
220
0.0
230
1.0
 40
0.0174284859
 41
0.8619504781817532
 42
1.598075814737373
  0
LINE
  5
230
330
1F
100
AcDbEntity
  8
0
  6
Continuous
 62
     7
370
    25
100
AcDbLine
 10
280.9136952682
 20
150.2763632956
 30
0.0
 11
280.9136952682
 21
150.2762649044
 31
0.0
  0
LINE
  5
231
330
1F
100
AcDbEntity
  8
0
  6
Continuous
 62
     7
370
    25
100
AcDbLine
 10
284.3786584777
 20
150.0354720166
 30
0.0
 11
280.9136952682
 21
150.2763632956
 31
0.0
  0
ELLIPSE
  5
232
330
1F
100
AcDbEntity
  8
0
  6
Continuous
 62
     7
370
    25
100
AcDbEllipse
 10
283.4293099373
 20
150.0676037076
 30
0.0
 11
1.499999304622861
 21
-0.08287263343871132
 31
0.0
210
0.0
220
0.0
230
1.0
 40
0.0174284859
 41
0.4818731689741853
 42
0.8864673368936031
  0
LINE
  5
233
330
1F
100
AcDbEntity
  8
0
  6
Continuous
 62
     7
370
    25
100
AcDbLine
 10
284.9243911193
 20
149.9798728045
 30
0.0
 11
284.92908148
 21
149.9843112576
 31
0.0
  0
LINE
  5
234
330
1F
100
AcDbEntity
  8
0
  6
Continuous
 62
     7
370
    25
100
AcDbLine
 10
236.3520098835
 20
152.726130592
 30
0.0
 11
236.3189823168
 21
152.6388562495
 31
0.0
  0
SPLINE
  5
235
330
1F
100
AcDbEntity
  8
0
  6
Continuous
 62
     7
370
    25
100
AcDbSpline
210
0.0
220
0.0
230
1.0
 70
     8
 71
     3
 72
     9
 73
     5
 74
     0
 42
0.00000001
 43
0.00000001
 40
0.0
 40
0.0
 40
0.0
 40
0.0
 40
0.5001021276704695
 40
1.0
 40
1.0
 40
1.0
 40
1.0
 10
233.5260700696628
 20
139.6804753483741
 30
0.0
 10
233.95501784537
 20
139.9670009824626
 30
0.0
 10
234.8127382028206
 20
140.5399352257604
 30
0.0
 10
235.8349613314357
 20
140.6777140122146
 30
0.0
 10
236.3459684984765
 20
140.7465893344152
 30
0.0
  0
LINE
  5
236
330
1F
100
AcDbEntity
  8
0
  6
Continuous
 62
     7
370
    25
100
AcDbLine
 10
233.5260700697
 20
139.6804753484
 30
0.0
 11
233.4928512036
 21
139.7461667953
 31
0.0
  0
SPLINE
  5
237
330
1F
100
AcDbEntity
  8
0
  6
Continuous
 62
     7
370
    25
100
AcDbSpline
210
0.0
220
0.0
230
1.0
 70
     8
 71
     3
 72
     9
 73
     5
 74
     0
 42
0.00000001
 43
0.00000001
 40
0.0
 40
0.0
 40
0.0
 40
0.0
 40
0.400722737156528
 40
1.0
 40
1.0
 40
1.0
 40
1.0
 10
236.3520098835281
 20
152.7261305919586
 30
0.0
 10
235.9433237601189
 20
152.7745378540242
 30
0.0
 10
234.923451201079
 20
152.895337742768
 30
0.0
 10
234.0543751572531
 20
153.4554450161216
 30
0.0
 10
233.5335576445063
 20
153.7911045697957
 30
0.0
  0
LINE
  5
238
330
1F
100
AcDbEntity
  8
0
  6
Continuous
 62
     7
370
    25
100
AcDbLine
 10
233.4928512036
 20
153.710569064
 30
0.0
 11
233.5335576445
 21
153.7911045698
 31
0.0
  0
ARC
  5
239
330
1F
100
AcDbEntity
  8
0
  6
Continuous
 62
     7
370
    25
100
AcDbCircle
 10
227.9682244898
 20
146.7283679296
 30
0.0
 40
8.975658044222099
100
AcDbArc
 50
245.1648853947
 51
308.2586979829
  0
LWPOLYLINE
  5
23A
330
1F
100
AcDbEntity
  8
0
  6
Continuous
 62
     7
370
    25
100
AcDbPolyline
 90
        3
 70
   128
 43
0.0
 10
224.0329110655
 20
138.4777082064
 10
224.1374926297
 20
138.5439606176
 10
224.1983731724
 20
138.5827765839
  0
ARC
  5
23B
330
1F
100
AcDbEntity
  8
0
  6
Continuous
 62
     7
370
    25
100
AcDbCircle
 10
227.9682244898
 20
146.7283679296
 30
0.0
 40
9.141120151092133
100
AcDbArc
 50
115.4997164176
 51
244.500279429
  0
LWPOLYLINE
  5
23C
330
1F
100
AcDbEntity
  8
0
  6
Continuous
 62
     7
370
    25
100
AcDbPolyline
 90
        3
 70
   128
 43
0.0
 10
224.182080262
 20
154.8843653461
 10
224.1374926297
 20
154.9127752417
 10
224.0329110652
 20
154.9790276531
  0
ARC
  5
23D
330
1F
100
AcDbEntity
  8
0
  6
Continuous
 62
     7
370
    25
100
AcDbCircle
 10
227.9682244898
 20
146.7283679296
 30
0.0
 40
8.991950954660751
100
AcDbArc
 50
51.762407147
 51
114.9014811666
  0
LINE
  5
23E
330
1F
100
AcDbEntity
  8
0
  6
Continuous
 62
     7
370
    25
100
AcDbLine
 10
285.4014357451
 20
149.4851481866
 30
0.0
 11
285.3967453844
 21
149.4807097335
 31
0.0
  0
LINE
  5
23F
330
1F
100
AcDbEntity
  8
0
  6
Continuous
 62
     7
370
    25
100
AcDbLine
 10
285.4014357451
 20
143.9715876727
 30
0.0
 11
285.4014357451
 21
149.4851481866
 31
0.0
  0
LINE
  5
240
330
1F
100
AcDbEntity
  8
0
  6
Continuous
 62
     7
370
    25
100
AcDbLine
 10
285.3967453844
 20
143.9760261258
 30
0.0
 11
285.4014357451
 21
143.9715876727
 31
0.0
  0
ARC
  5
241
330
1F
100
AcDbEntity
  8
0
  6
Continuous
 62
     7
370
    25
100
AcDbCircle
 10
284.9013358575
 20
149.4849816012
 30
0.0
 40
0.500099915346926
100
AcDbArc
 50
0.0190854617
 51
86.8195880753
  0
ARC
  5
242
330
1F
100
AcDbEntity
  8
0
  6
Continuous
 62
     7
370
    25
100
AcDbCircle
 10
284.9013358575
 20
143.9717542581
 30
0.0
 40
0.500099915346926
100
AcDbArc
 50
273.1804119247
 51
359.9809145383
  0
LINE
  5
243
330
1F
100
AcDbEntity
  8
0
  6
Continuous
 62
     7
370
    25
100
AcDbLine
 10
284.3786584777
 20
143.4212638427
 30
0.0
 11
284.3857662085
 21
143.4216308793
 31
0.0
  0
LINE
  5
244
330
1F
100
AcDbEntity
  8
0
  6
Continuous
 62
     7
370
    25
100
AcDbLine
 10
284.3786584777
 20
150.0354720166
 30
0.0
 11
284.3857662085
 21
150.03510498
 31
0.0
  0
SPLINE
  5
245
330
1F
100
AcDbEntity
  8
0
  6
Continuous
 62
     7
370
    25
100
AcDbSpline
210
0.0
220
0.0
230
1.0
 70
     8
 71
     3
 72
    12
 73
     8
 74
     0
 42
0.00000001
 43
0.00000001
 40
0.0
 40
0.0
 40
0.0
 40
0.0
 40
0.1662426524176545
 40
0.3368059756191297
 40
0.6054181071254586
 40
0.8801435087136193
 40
1.0
 40
1.0
 40
1.0
 40
1.0
 10
234.0902837371065
 20
135.0517075479762
 30
0.0
 10
233.4526022165703
 20
135.2071927234592
 30
0.0
 10
232.1606657397697
 20
135.5222041568144
 30
0.0
 10
229.9764793574204
 20
136.1851692618129
 30
0.0
 10
227.6145050138605
 20
137.0373641786184
 30
0.0
 10
225.6489674519681
 20
137.8799928572304
 30
0.0
 10
224.5351924671724
 20
138.4178509499256
 30
0.0
 10
224.1968769890149
 20
138.5812284007529
 30
0.0
  0
LINE
  5
246
330
1F
100
AcDbEntity
  8
0
  6
Continuous
 62
     7
370
    25
100
AcDbLine
 10
234.0902837371
 20
135.051707548
 30
0.0
 11
234.0744256602
 21
134.9822340164
 31
0.0
  0
ARC
  5
247
330
1F
100
AcDbEntity
  8
0
  6
Continuous
 62
     7
370
    25
100
AcDbCircle
 10
244.7962038967
 20
181.9538688287
 30
0.0
 40
48.17977797259051
100
AcDbArc
 50
244.4718479123
 51
257.1419190681
  0
LWPOLYLINE
  5
248
330
1F
100
AcDbEntity
  8
0
  6
Continuous
 62
     7
370
    25
100
AcDbPolyline
 90
        3
 70
   128
 43
0.0
 10
224.196876989
 20
138.5812284008
 10
224.1374891387
 20
138.5437046972
 10
224.0329110658
 20
138.4777066673
  0
SPLINE
  5
249
330
1F
100
AcDbEntity
  8
0
  6
Continuous
 62
     7
370
    25
100
AcDbSpline
210
0.0
220
0.0
230
1.0
 70
     8
 71
     3
 72
    11
 73
     7
 74
     0
 42
0.00000001
 43
0.00000001
 40
0.0
 40
0.0
 40
0.0
 40
0.0
 40
0.1345990676765959
 40
0.4126978815969493
 40
0.6969472592954598
 40
1.0
 40
1.0
 40
1.0
 40
1.0
 10
224.1975945659719
 20
138.5819699668268
 30
0.0
 10
224.6269005862203
 20
138.3910860816657
 30
0.0
 10
225.9432075129445
 20
137.8058117822459
 30
0.0
 10
228.3190175638278
 20
137.1833438982222
 30
0.0
 10
231.3727069487088
 20
136.8068412157219
 30
0.0
 10
233.5637368570696
 20
136.7796998873891
 30
0.0
 10
234.6943263746075
 20
136.765694737944
 30
0.0
  0
ARC
  5
24A
330
1F
100
AcDbEntity
  8
0
  6
Continuous
 62
     7
370
    25
100
AcDbCircle
 10
230.2017953816
 20
137.3855187825
 30
0.0
 40
4.53508727251794
100
AcDbArc
 50
329.0284626407
 51
352.1446266983
  0
LINE
  5
24B
330
1F
100
AcDbEntity
  8
0
  6
Continuous
 62
     7
370
    25
100
AcDbLine
 10
224.196876989
 20
138.5812284008
 30
0.0
 11
224.197594566
 21
138.5819699668
 31
0.0
  0
LINE
  5
24C
330
1F
100
AcDbEntity
  8
0
  6
Continuous
 62
     7
370
    25
100
AcDbLine
 10
233.5260700697
 20
139.6804753484
 30
0.0
 11
235.7239419898
 21
136.893358474
 31
0.0
  0
ARC
  5
24D
330
1F
100
AcDbEntity
  8
0
  6
Continuous
 62
     7
370
    25
100
AcDbCircle
 10
227.9682244898
 20
146.7283679296
 30
0.0
 40
12.5251173620273
100
AcDbArc
 50
307.8583068702
 51
308.2586979829
  0
LINE
  5
24E
330
1F
100
AcDbEntity
  8
0
  6
Continuous
 62
     7
370
    25
100
AcDbLine
 10
234.6943263746
 20
136.7656947379
 30
0.0
 11
235.6550247235
 21
136.8394009917
 31
0.0
  0
LINE
  5
24F
330
1F
100
AcDbEntity
  8
0
  6
Continuous
 62
     7
370
    25
100
AcDbLine
 10
224.1983731724
 20
138.5827765839
 30
0.0
 11
224.197594566
 21
138.5819699668
 31
0.0
  0
LINE
  5
250
330
1F
100
AcDbEntity
  8
0
  6
Continuous
 62
     7
370
    25
100
AcDbLine
 10
238.6417950503
 20
137.3185224787
 30
0.0
 11
236.5417125342
 21
137.20253153
 31
0.0
  0
LINE
  5
251
330
1F
100
AcDbEntity
  8
0
  6
Continuous
 62
     7
370
    25
100
AcDbLine
 10
236.3459684985
 20
140.7465893344
 30
0.0
 11
236.5417125342
 21
137.20253153
 31
0.0
  0
SPLINE
  5
252
330
1F
100
AcDbEntity
  8
0
  6
Continuous
 62
     7
370
    25
100
AcDbSpline
210
0.0
220
0.0
230
1.0
 70
     8
 71
     3
 72
    17
 73
    13
 74
     0
 42
0.00000001
 43
0.00000001
 40
0.0
 40
0.0
 40
0.0
 40
0.0
 40
0.2859834379244701
 40
0.5215922644122236
 40
0.7592399016809376
 40
0.8521492405060495
 40
0.9266708633836008
 40
0.9605058393195364
 40
0.9835417153308592
 40
0.9930790992390831
 40
0.9972256067114874
 40
1.0
 40
1.0
 40
1.0
 40
1.0
 10
240.0824634123555
 20
137.842666160662
 30
0.0
 10
241.3112415961028
 20
138.3745342846824
 30
0.0
 10
243.5523545779335
 20
139.34458451273
 30
0.0
 10
246.8913032648354
 20
140.3868151835147
 30
0.0
 10
249.3939586315422
 20
141.0046337444413
 30
0.0
 10
251.1642649155784
 20
141.3586090536595
 30
0.0
 10
252.0293857509157
 20
141.5133100882723
 30
0.0
 10
252.554973180191
 20
141.6018100791041
 30
0.0
 10
252.7886352938485
 20
141.6409218419267
 30
0.0
 10
252.8662854533377
 20
141.6552416086886
 30
0.0
 10
252.8823671075379
 20
141.6589753610059
 30
0.0
 10
252.8834274955138
 20
141.659709202201
 30
0.0
 10
252.8838525750496
 20
141.660003378372
 30
0.0
  0
LINE
  5
253
330
1F
100
AcDbEntity
  8
0
  6
Continuous
 62
     7
370
    25
100
AcDbLine
 10
238.6417950503
 20
137.3185224787
 30
0.0
 11
240.0824634124
 21
137.8426661607
 31
0.0
  0
ARC
  5
254
330
1F
100
AcDbEntity
  8
0
  6
Continuous
 62
     7
370
    25
100
AcDbCircle
 10
245.8858962035
 20
141.4517685415
 30
0.0
 40
6.834138728221406
100
AcDbArc
 50
211.8771071303
 51
226.9488007428
  0
SPLINE
  5
255
330
1F
100
AcDbEntity
  8
0
  6
Continuous
 62
     7
370
    25
100
AcDbSpline
210
0.0
220
0.0
230
1.0
 70
     8
 71
     3
 72
    10
 73
     6
 74
     0
 42
0.00000001
 43
0.00000001
 40
0.0
 40
0.0
 40
0.0
 40
0.0
 40
0.5975855365574454
 40
0.9790563563181981
 40
1.0
 40
1.0
 40
1.0
 40
1.0
 10
252.9938778947374
 20
141.6508764810326
 30
0.0
 10
252.9963970340907
 20
141.654615778759
 30
0.0
 10
253.0005242748713
 20
141.6607420702825
 30
0.0
 10
252.926153148316
 20
141.6611186291391
 30
0.0
 10
252.8859451962115
 20
141.6600585501386
 30
0.0
 10
252.8838525750496
 20
141.660003378372
 30
0.0
  0
SPLINE
  5
256
330
1F
100
AcDbEntity
  8
0
  6
Continuous
 62
     7
370
    25
100
AcDbSpline
210
0.0
220
0.0
230
1.0
 70
     8
 71
     3
 72
    14
 73
    10
 74
     0
 42
0.00000001
 43
0.00000001
 40
0.0
 40
0.0
 40
0.0
 40
0.0
 40
0.0129036569231464
 40
0.0519665716781148
 40
0.1318891824261205
 40
0.2280032005552176
 40
0.4679440229400844
 40
0.7079115564493632
 40
1.0
 40
1.0
 40
1.0
 40
1.0
 10
252.9938778947374
 20
141.6508764810326
 30
0.0
 10
252.960409318273
 20
141.6430315069713
 30
0.0
 10
252.8256221654403
 20
141.6114376410388
 30
0.0
 10
252.3863487204478
 20
141.509055593745
 30
0.0
 10
251.5749213022219
 20
141.306654084928
 30
0.0
 10
249.9214441204014
 20
140.8396034041619
 30
0.0
 10
247.5771540481576
 20
140.0021463447715
 30
0.0
 10
244.4320598716605
 20
138.5572061044211
 30
0.0
 10
242.358761197468
 20
137.2018352216264
 30
0.0
 10
241.2205603147208
 20
136.4577628144767
 30
0.0
  0
LWPOLYLINE
  5
257
330
1F
100
AcDbEntity
  8
0
  6
Continuous
 62
     7
370
    25
100
AcDbPolyline
 90
        4
 70
   128
 43
0.0
 10
253.0134047088
 20
141.4997809048
 10
253.0111600732
 20
141.5171390516
 10
253.0021850392
 20
141.5865717978
 10
252.9938778947
 20
141.650876481
  0
LINE
  5
258
330
1F
100
AcDbEntity
  8
0
  6
Continuous
 62
     7
370
    25
100
AcDbLine
 10
251.225280425
 20
141.0702534015
 30
0.0
 11
253.0134047088
 21
141.4997809048
 31
0.0
  0
ARC
  5
259
330
1F
100
AcDbEntity
  8
0
  6
Continuous
 62
     7
370
    25
100
AcDbCircle
 10
259.4108388236
 20
110.6445598076
 30
0.0
 40
31.50755777528335
100
AcDbArc
 50
105.0579972479
 51
125.1719294169
  0
LINE
  5
25A
330
1F
100
AcDbEntity
  8
0
  6
Continuous
 62
     7
370
    25
100
AcDbLine
 10
241.2205603147
 20
136.4577628145
 30
0.0
 11
241.2614802009
 21
136.3996948014
 31
0.0
  0
SPLINE
  5
25B
330
1F
100
AcDbEntity
  8
0
  6
Continuous
 62
     7
370
    25
100
AcDbSpline
210
0.0
220
0.0
230
1.0
 70
     8
 71
     3
 72
     9
 73
     5
 74
     0
 42
0.00000001
 43
0.00000001
 40
0.0
 40
0.0
 40
0.0
 40
0.0
 40
0.4998978730609624
 40
1.0
 40
1.0
 40
1.0
 40
1.0
 10
236.5417125341817
 20
137.2025315299713
 30
0.0
 10
236.3935176182859
 20
137.182565191969
 30
0.0
 10
236.097067235354
 20
137.1426243578943
 30
0.0
 10
235.8483340065773
 20
136.9764584153237
 30
0.0
 10
235.7239419898257
 20
136.8933584740194
 30
0.0
  0
ARC
  5
25C
330
1F
100
AcDbEntity
  8
0
  6
Continuous
 62
     7
370
    25
100
AcDbCircle
 10
253.0952132096
 20
141.1611750412
 30
0.0
 40
0.5000763403763878
100
AcDbArc
 50
93.1626296399
 51
101.6913635618
  0
ARC
  5
25D
330
1F
100
AcDbEntity
  8
0
  6
Continuous
 62
     7
370
    25
100
AcDbCircle
 10
244.7962038967
 20
111.5028670306
 30
0.0
 40
48.10950076354636
100
AcDbArc
 50
102.8580809319
 51
103.1066633214
  0
SPLINE
  5
25E
330
1F
100
AcDbEntity
  8
0
  6
Continuous
 62
     7
370
    25
100
AcDbSpline
210
0.0
220
0.0
230
1.0
 70
     8
 71
     3
 72
    13
 73
     9
 74
     0
 42
0.00000001
 43
0.00000001
 40
0.0
 40
0.0
 40
0.0
 40
0.0
 40
0.0460329529079886
 40
0.2492425848193727
 40
0.477522557027288
 40
0.7051721168687837
 40
0.8526808263814667
 40
0.9999999999999999
 40
0.9999999999999999
 40
0.9999999999999999
 40
0.9999999999999999
 10
224.1808460153247
 20
154.8856396897496
 30
0.0
 10
224.3091806673631
 20
154.9481486581863
 30
0.0
 10
225.0040407268486
 20
155.2865996130636
 30
0.0
 10
226.3637039614252
 20
155.9045770370926
 30
0.0
 10
228.3716765782436
 20
156.7150493638057
 30
0.0
 10
230.3861868401468
 20
157.4076741650704
 30
0.0
 10
232.2484701213922
 20
157.9579079667685
 30
0.0
 10
233.3408396846308
 20
158.2254240778744
 30
0.0
 10
233.8866733406378
 20
158.3590961444347
 30
0.0
  0
LWPOLYLINE
  5
25F
330
1F
100
AcDbEntity
  8
0
  6
Continuous
 62
     7
370
    25
100
AcDbPolyline
 90
        3
 70
   128
 43
0.0
 10
224.1808460153
 20
154.8856396897
 10
224.1374891387
 20
154.9130311621
 10
224.0329110655
 20
154.9790291922
  0
ARC
  5
260
330
1F
100
AcDbEntity
  8
0
  6
Continuous
 62
     7
370
    25
100
AcDbCircle
 10
244.7962038967
 20
111.5028670306
 30
0.0
 40
48.1797779725905
100
AcDbArc
 50
102.8580809319
 51
115.5281512988
  0
LINE
  5
261
330
1F
100
AcDbEntity
  8
0
  6
Continuous
 62
     7
370
    25
100
AcDbLine
 10
234.0900649321
 20
158.4059868862
 30
0.0
 11
234.0744256602
 21
158.4745018429
 31
0.0
  0
LINE
  5
262
330
1F
100
AcDbEntity
  8
0
  6
Continuous
 62
     7
370
    25
100
AcDbLine
 10
234.3401334185
 20
156.4114936152
 30
0.0
 11
233.8866733406
 21
158.3590961444
 31
0.0
  0
SPLINE
  5
263
330
1F
100
AcDbEntity
  8
0
  6
Continuous
 62
     7
370
    25
100
AcDbSpline
210
0.0
220
0.0
230
1.0
 70
     8
 71
     3
 72
    13
 73
     9
 74
     0
 42
0.00000001
 43
0.00000001
 40
0.0
 40
0.0
 40
0.0
 40
0.0
 40
0.2574896950994368
 40
0.4890886589321025
 40
0.7206004760683485
 40
0.9447506334961274
 40
0.9460032291293288
 40
1.0
 40
1.0
 40
1.0
 40
1.0
 10
234.3401334185248
 20
156.4114936152207
 30
0.0
 10
233.421407842537
 20
156.4395565793355
 30
0.0
 10
231.6763350553989
 20
156.4928607610008
 30
0.0
 10
229.1817698094854
 20
156.3282966421628
 30
0.0
 10
226.8661200034846
 20
155.9149226471526
 30
0.0
 10
225.3890114018804
 20
155.4153654605894
 30
0.0
 10
224.5177499573399
 20
155.0411226056594
 30
0.0
 10
224.3477035485169
 20
154.9621421871742
 30
0.0
 10
224.1815123764617
 20
154.8849523869996
 30
0.0
  0
LINE
  5
264
330
1F
100
AcDbEntity
  8
0
  6
Continuous
 62
     7
370
    25
100
AcDbLine
 10
224.1815123765
 20
154.884952387
 30
0.0
 11
224.1808460153
 21
154.8856396897
 31
0.0
  0
LINE
  5
265
330
1F
100
AcDbEntity
  8
0
  6
Continuous
 62
     7
370
    25
100
AcDbLine
 10
240.4454527343
 20
155.1036092077
 30
0.0
 11
241.5749281518
 21
156.7537809974
 31
0.0
  0
SPLINE
  5
266
330
1F
100
AcDbEntity
  8
0
  6
Continuous
 62
     7
370
    25
100
AcDbSpline
210
0.0
220
0.0
230
1.0
 70
     8
 71
     3
 72
    15
 73
    11
 74
     0
 42
0.00000001
 43
0.00000001
 40
0.0
 40
0.0
 40
0.0
 40
0.0
 40
0.2255198391625378
 40
0.4515645943751951
 40
0.6337799820516978
 40
0.8158790324473548
 40
0.8946729146060253
 40
0.9638048440471934
 40
0.9940832206369723
 40
0.9999999999999999
 40
0.9999999999999999
 40
0.9999999999999999
 40
0.9999999999999999
 10
241.5749281517936
 20
156.7537809973774
 30
0.0
 10
242.4203766926476
 20
156.208773328036
 30
0.0
 10
244.1132416256553
 20
155.1174894389934
 30
0.0
 10
246.5895578193349
 20
153.9003860494008
 30
0.0
 10
248.917968734046
 20
152.9694862409656
 30
0.0
 10
250.6584482238684
 20
152.4136956961521
 30
0.0
 10
251.9161170802381
 20
152.0771428691877
 30
0.0
 10
252.5602499781504
 20
151.9217957628632
 30
0.0
 10
252.8881952682326
 20
151.8462423645958
 30
0.0
 10
252.9807327118566
 20
151.8247216565457
 30
0.0
 10
252.9958596983919
 20
151.821203691837
 30
0.0
  0
SPLINE
  5
267
330
1F
100
AcDbEntity
  8
0
  6
Continuous
 62
     7
370
    25
100
AcDbSpline
210
0.0
220
0.0
230
1.0
 70
     8
 71
     3
 72
    11
 73
     7
 74
     0
 42
0.00000001
 43
0.00000001
 40
0.0
 40
0.0
 40
0.0
 40
0.0
 40
0.019556121229571
 40
0.168189199674442
 40
0.5898876540792781
 40
1.0
 40
1.0
 40
1.0
 40
1.0
 10
252.8859183069749
 20
151.812936129744
 30
0.0
 10
252.8878770201229
 20
151.8128780160282
 30
0.0
 10
252.9047226099456
 20
151.8123782185875
 30
0.0
 10
252.9566231737051
 20
151.8115318011741
 30
0.0
 10
253.0059078057704
 20
151.8136210996961
 30
0.0
 10
252.999177820694
 20
151.8186997408796
 30
0.0
 10
252.995859698392
 20
151.821203691837
 30
0.0
  0
SPLINE
  5
268
330
1F
100
AcDbEntity
  8
0
  6
Continuous
 62
     7
370
    25
100
AcDbSpline
210
0.0
220
0.0
230
1.0
 70
     8
 71
     3
 72
    17
 73
    13
 74
     0
 42
0.00000001
 43
0.00000001
 40
0.0
 40
0.0
 40
0.0
 40
0.0
 40
0.0068264277560524
 40
0.0088450004853825
 40
0.0223994102884413
 40
0.0309598270239207
 40
0.0563228448230685
 40
0.1198844474831642
 40
0.1957493698893793
 40
0.5558716060100608
 40
0.776984075093909
 40
1.0
 40
1.0
 40
1.0
 40
1.0
 10
252.8859183069749
 20
151.812936129744
 30
0.0
 10
252.8822981618057
 20
151.8139743127887
 30
0.0
 10
252.8776075407484
 20
151.815319486262
 30
0.0
 10
252.8340748281168
 20
151.8229094743404
 30
0.0
 10
252.7595429041574
 20
151.8346609810714
 30
0.0
 10
252.5927106658737
 20
151.8603798766522
 30
0.0
 10
252.2111344196222
 20
151.9188944492734
 30
0.0
 10
251.5282348933163
 20
152.0280915052338
 30
0.0
 10
249.4232190922842
 20
152.3952629208704
 30
0.0
 10
246.6150928238816
 20
153.0284298232262
 30
0.0
 10
243.2155271386241
 20
154.0408756997017
 30
0.0
 10
241.3714453386619
 20
154.7483539960691
 30
0.0
 10
240.4454527343017
 20
155.1036092077386
 30
0.0
  0
LINE
  5
269
330
1F
100
AcDbEntity
  8
0
  6
Continuous
 62
     7
370
    25
100
AcDbLine
 10
236.3520098835
 20
152.726130592
 30
0.0
 11
236.4953717125
 21
155.3217785614
 31
0.0
  0
LINE
  5
26A
330
1F
100
AcDbEntity
  8
0
  6
Continuous
 62
     7
370
    25
100
AcDbLine
 10
236.4953717125
 20
155.3217785614
 30
0.0
 11
240.4454527343
 21
155.1036092077
 31
0.0
  0
LINE
  5
26B
330
1F
100
AcDbEntity
  8
0
  6
Continuous
 62
     7
370
    25
100
AcDbLine
 10
233.5335576445
 20
153.7911045698
 30
0.0
 11
235.1425146378
 21
155.8329660708
 31
0.0
  0
LINE
  5
26C
330
1F
100
AcDbEntity
  8
0
  6
Continuous
 62
     7
370
    25
100
AcDbLine
 10
224.1815123765
 20
154.884952387
 30
0.0
 11
224.182080262
 21
154.8843653461
 31
0.0
  0
ARC
  5
26D
330
1F
100
AcDbEntity
  8
0
  6
Continuous
 62
     7
370
    25
100
AcDbCircle
 10
227.9682244898
 20
146.7283679296
 30
0.0
 40
11.5915549620674
100
AcDbArc
 50
51.762407147
 51
56.6533814372
  0
LWPOLYLINE
  5
26E
330
1F
100
AcDbEntity
  8
0
  6
Continuous
 62
     7
370
    25
100
AcDbPolyline
 90
        4
 70
   128
 43
0.0
 10
252.9958596984
 20
151.8212036918
 10
252.9981019447
 20
151.8385619468
 10
253.0070744276
 20
151.9079948085
 10
253.0134047088
 20
151.9569549545
  0
ARC
  5
26F
330
1F
100
AcDbEntity
  8
0
  6
Continuous
 62
     7
370
    25
100
AcDbCircle
 10
259.4108388236
 20
182.8121760517
 30
0.0
 40
31.57783498432752
100
AcDbArc
 50
234.8280705831
 51
235.6099480104
  0
LINE
  5
270
330
1F
100
AcDbEntity
  8
0
  6
Continuous
 62
     7
370
    25
100
AcDbLine
 10
241.2209982861
 20
156.9995945551
 30
0.0
 11
241.2614802009
 21
157.0570410579
 31
0.0
  0
ARC
  5
271
330
1F
100
AcDbEntity
  8
0
  6
Continuous
 62
     7
370
    25
100
AcDbCircle
 10
259.4108388236
 20
182.8121760517
 30
0.0
 40
31.50755777528337
100
AcDbArc
 50
234.8280705831
 51
254.9420027521
  0
LINE
  5
272
330
1F
100
AcDbEntity
  8
0
  6
Continuous
 62
     7
370
    25
100
AcDbLine
 10
253.0134047088
 20
151.9569549545
 30
0.0
 11
251.225280425
 21
152.3864824578
 31
0.0
  0
LINE
  5
273
330
1F
100
AcDbEntity
  8
0
  6
Continuous
 62
     7
370
    25
100
AcDbLine
 10
253.0872421181
 20
141.5100992011
 30
0.0
 11
253.0134047088
 21
141.4997809048
 31
0.0
  0
SPLINE
  5
274
330
1F
100
AcDbEntity
  8
0
  6
Continuous
 62
     7
370
    25
100
AcDbSpline
210
0.0
220
0.0
230
1.0
 70
     8
 71
     3
 72
    10
 73
     6
 74
     0
 42
0.00000001
 43
0.00000001
 40
0.0
 40
0.0
 40
0.0
 40
0.0
 40
0.0490769085761659
 40
0.599580584366531
 40
1.0
 40
1.0
 40
1.0
 40
1.0
 10
235.1425146377647
 20
155.832966070772
 30
0.0
 10
235.1614621761339
 20
155.8183433351707
 30
0.0
 10
235.3929473380404
 20
155.6396949929816
 30
0.0
 10
235.8388211128577
 20
155.4056429995603
 30
0.0
 10
236.3008276897421
 20
155.3466286265427
 30
0.0
 10
236.4953717124957
 20
155.3217785614104
 30
0.0
  0
ARC
  5
275
330
1F
100
AcDbEntity
  8
0
  6
Continuous
 62
     7
370
    25
100
AcDbCircle
 10
253.0972130993
 20
152.3109013888
 30
0.0
 40
0.5000763405141392
100
AcDbArc
 50
258.3065203379
 51
266.8373700345
  0
SPLINE
  5
276
330
1F
100
AcDbEntity
  8
0
  6
Continuous
 62
     7
370
    25
100
AcDbSpline
210
0.0
220
0.0
230
1.0
 70
     8
 71
     3
 72
     9
 73
     5
 74
     0
 42
0.00000001
 43
0.00000001
 40
0.0
 40
0.0
 40
0.0
 40
0.0
 40
0.8458911907785723
 40
1.0
 40
1.0
 40
1.0
 40
1.0
 10
253.0134047088025
 20
151.9569549545232
 30
0.0
 10
253.0342453049136
 20
151.9531401475309
 30
0.0
 10
253.0588827480484
 20
151.9486303393736
 30
0.0
 10
253.0834552752247
 20
151.9469028756226
 30
0.0
 10
253.0872421181274
 20
151.9466366582409
 30
0.0
  0
LINE
  5
277
330
1F
100
AcDbEntity
  8
0
  6
Continuous
 62
     7
370
    25
100
AcDbLine
 10
271.0826623158
 20
150.880380805
 30
0.0
 11
271.082204296
 21
150.8804058914
 31
0.0
  0
LINE
  5
278
330
1F
100
AcDbEntity
  8
0
  6
Continuous
 62
     7
370
    25
100
AcDbLine
 10
241.2205603147
 20
136.4577628145
 30
0.0
 11
239.3818194654
 21
135.4607965788
 31
0.0
  0
LINE
  5
279
330
1F
100
AcDbEntity
  8
0
  6
Continuous
 62
     7
370
    25
100
AcDbLine
 10
238.6417950503
 20
137.3185224787
 30
0.0
 11
239.3818194654
 21
135.4607965788
 31
0.0
  0
LINE
  5
27A
330
1F
100
AcDbEntity
  8
0
  6
Continuous
 62
     7
370
    25
100
AcDbLine
 10
235.6550247235
 20
136.8394009917
 30
0.0
 11
235.5331909769
 21
134.8434204827
 31
0.0
  0
LINE
  5
27B
330
1F
100
AcDbEntity
  8
0
  6
Continuous
 62
     7
370
    25
100
AcDbLine
 10
235.5331909769
 20
134.8434204827
 30
0.0
 11
234.0902837371
 21
135.051707548
 31
0.0
  0
ARC
  5
27C
330
1F
100
AcDbEntity
  8
0
  6
Continuous
 62
     7
370
    25
100
AcDbCircle
 10
259.4108388236
 20
182.8121760517
 30
0.0
 40
33.57753037464033
100
AcDbArc
 50
234.8280705831
 51
235.6099480104
  0
LINE
  5
27D
330
1F
100
AcDbEntity
  8
0
  6
Continuous
 62
     7
370
    25
100
AcDbLine
 10
240.069109935
 20
155.3649891346
 30
0.0
 11
241.2209982861
 21
156.9995945551
 31
0.0
  0
ARC
  5
27E
330
1F
100
AcDbEntity
  8
0
  6
Continuous
 62
     7
370
    25
100
AcDbCircle
 10
236.077239695
 20
143.7564734538
 30
0.0
 40
6.929946387144299
100
AcDbArc
 50
266.5070253286
 51
291.7198462835
  0
ARC
  5
27F
330
1F
100
AcDbEntity
  8
0
  6
Continuous
 62
     7
370
    25
100
AcDbCircle
 10
236.077239695
 20
143.7564734538
 30
0.0
 40
8.929641777457054
100
AcDbArc
 50
266.5070253286
 51
291.7198462835
  0
ARC
  5
280
330
1F
100
AcDbEntity
  8
0
  6
Continuous
 62
     7
370
    25
100
AcDbCircle
 10
244.7962038967
 20
111.5028670306
 30
0.0
 40
46.10980537323361
100
AcDbArc
 50
102.8580809319
 51
103.1066633214
  0
LINE
  5
281
330
1F
100
AcDbEntity
  8
0
  6
Continuous
 62
     7
370
    25
100
AcDbLine
 10
234.5350709371
 20
156.45643532
 30
0.0
 11
234.0900649321
 21
158.4059868862
 31
0.0
  0
ARC
  5
282
330
1F
100
AcDbEntity
  8
0
  6
Continuous
 62
     7
370
    25
100
AcDbCircle
 10
236.077239695
 20
149.7002624055
 30
0.0
 40
6.92994638714429
100
AcDbArc
 50
54.8280705831
 51
102.8580809319
  0
ARC
  5
283
330
1F
100
AcDbEntity
  8
0
  6
Continuous
 62
     7
370
    25
100
AcDbCircle
 10
236.077239695
 20
149.7002624055
 30
0.0
 40
8.929641777457075
100
AcDbArc
 50
54.8280705831
 51
102.8580809319
  0
ARC
  5
284
330
1F
100
AcDbEntity
  8
0
  6
Continuous
 62
     7
370
    25
100
AcDbCircle
 10
236.077239695
 20
143.7564734538
 30
0.0
 40
8.99991898650124
100
AcDbArc
 50
257.1419190681
 51
305.1719294169
  0
ARC
  5
285
330
1F
100
AcDbEntity
  8
0
  6
Continuous
 62
     7
370
    25
100
AcDbCircle
 10
236.077239695
 20
149.7002624055
 30
0.0
 40
8.999918986501225
100
AcDbArc
 50
54.8280705831
 51
102.8580809319
  0
CIRCLE
  5
286
330
1F
100
AcDbEntity
  8
0
  6
Continuous
 62
     7
370
    25
100
AcDbCircle
 10
227.9682244898
 20
146.7283679296
 30
0.0
 40
5.074569253689162
  0
CIRCLE
  5
287
330
1F
100
AcDbEntity
  8
0
  6
Continuous
 62
     7
370
    25
100
AcDbCircle
 10
227.9682244898
 20
146.7283679296
 30
0.0
 40
5.328914336627605
  0
CIRCLE
  5
288
330
1F
100
AcDbEntity
  8
0
  6
Continuous
 62
     7
370
    25
100
AcDbCircle
 10
227.9682244898
 20
146.7283679296
 30
0.0
 40
5.925127771161414
  0
CIRCLE
  5
289
330
1F
100
AcDbEntity
  8
0
  6
Continuous
 62
     7
370
    25
100
AcDbCircle
 10
227.9682244898
 20
146.7283679296
 30
0.0
 40
7.149999999999977
  0
CIRCLE
  5
28A
330
1F
100
AcDbEntity
  8
0
  6
Continuous
 62
     7
370
    25
100
AcDbCircle
 10
22.9682244898
 20
146.7283679296
 30
0.0
 40
5.328914336627605
  0
CIRCLE
  5
28B
330
1F
100
AcDbEntity
  8
0
  6
Continuous
 62
     7
370
    25
100
AcDbCircle
 10
22.9682244898
 20
146.7283679296
 30
0.0
 40
5.925127771161414
  0
CIRCLE
  5
28C
330
1F
100
AcDbEntity
  8
0
  6
Continuous
 62
     7
370
    25
100
AcDbCircle
 10
22.9682244898
 20
146.7283679296
 30
0.0
 40
5.074569253689162
  0
CIRCLE
  5
28D
330
1F
100
AcDbEntity
  8
0
  6
Continuous
 62
     7
370
    25
100
AcDbCircle
 10
22.9682244898
 20
146.7283679296
 30
0.0
 40
7.149999999999977
  0
LINE
  5
28E
330
1F
100
AcDbEntity
  8
0
  6
Continuous
 62
     7
370
    25
100
AcDbLine
 10
228.5682244898
 20
144.1283679296
 30
0.0
 11
227.3682244898
 21
144.1283679296
 31
0.0
  0
LINE
  5
28F
330
1F
100
AcDbEntity
  8
0
  6
Continuous
 62
     7
370
    25
100
AcDbLine
 10
228.5682244898
 20
145.3783679296
 30
0.0
 11
228.5682244898
 21
144.1283679296
 31
0.0
  0
SPLINE
  5
290
330
1F
100
AcDbEntity
  8
0
  6
Continuous
 62
     7
370
    25
100
AcDbSpline
210
0.0
220
0.0
230
1.0
 70
     8
 71
     3
 72
    12
 73
     8
 74
     0
 42
0.00000001
 43
0.00000001
 40
0.0
 40
0.0
 40
0.0
 40
0.0
 40
0.213353439547616
 40
0.4267919313634489
 40
0.6383539739091507
 40
0.8490950351927565
 40
1.0
 40
1.0
 40
1.0
 40
1.0
 10
229.3182244897959
 20
146.1283679296472
 30
0.0
 10
229.2347307016388
 20
146.1202663695312
 30
0.0
 10
229.0677098409487
 20
146.1040600196532
 30
0.0
 10
228.8438730793511
 20
145.9766588946373
 30
0.0
 10
228.6747873584739
 20
145.7892648787316
 30
0.0
 10
228.5821257722639
 20
145.5782888534403
 30
0.0
 10
228.5723172972997
 20
145.4372285318213
 30
0.0
 10
228.5682244897959
 20
145.3783679296472
 30
0.0
  0
LINE
  5
291
330
1F
100
AcDbEntity
  8
0
  6
Continuous
 62
     7
370
    25
100
AcDbLine
 10
230.5682244898
 20
146.1283679296
 30
0.0
 11
229.3182244898
 21
146.1283679296
 31
0.0
  0
LINE
  5
292
330
1F
100
AcDbEntity
  8
0
  6
Continuous
 62
     7
370
    25
100
AcDbLine
 10
230.5682244898
 20
147.3283679296
 30
0.0
 11
230.5682244898
 21
146.1283679296
 31
0.0
  0
LINE
  5
293
330
1F
100
AcDbEntity
  8
0
  6
Continuous
 62
     7
370
    25
100
AcDbLine
 10
229.3182244898
 20
147.3283679296
 30
0.0
 11
230.5682244898
 21
147.3283679296
 31
0.0
  0
LINE
  5
294
330
1F
100
AcDbEntity
  8
0
  6
Continuous
 62
     7
370
    25
100
AcDbLine
 10
228.5682244898
 20
149.3283679296
 30
0.0
 11
228.5682244898
 21
148.0783679296
 31
0.0
  0
LINE
  5
295
330
1F
100
AcDbEntity
  8
0
  6
Continuous
 62
     7
370
    25
100
AcDbLine
 10
227.3682244898
 20
149.3283679296
 30
0.0
 11
228.5682244898
 21
149.3283679296
 31
0.0
  0
LINE
  5
296
330
1F
100
AcDbEntity
  8
0
  6
Continuous
 62
     7
370
    25
100
AcDbLine
 10
227.3682244898
 20
148.0783679296
 30
0.0
 11
227.3682244898
 21
149.3283679296
 31
0.0
  0
SPLINE
  5
297
330
1F
100
AcDbEntity
  8
0
  6
Continuous
 62
     7
370
    25
100
AcDbSpline
210
0.0
220
0.0
230
1.0
 70
     8
 71
     3
 72
    12
 73
     8
 74
     0
 42
0.00000001
 43
0.00000001
 40
0.0
 40
0.0
 40
0.0
 40
0.0
 40
0.213353439547616
 40
0.426791931363449
 40
0.6383539739091509
 40
0.8490950351927566
 40
0.9999999999999999
 40
0.9999999999999999
 40
0.9999999999999999
 40
0.9999999999999999
 10
226.6182244897959
 20
147.3283679296472
 30
0.0
 10
226.701718277953
 20
147.3364694897632
 30
0.0
 10
226.8687391386431
 20
147.3526758396411
 30
0.0
 10
227.0925759002408
 20
147.480076964657
 30
0.0
 10
227.261661621118
 20
147.6674709805627
 30
0.0
 10
227.354323207328
 20
147.8784470058541
 30
0.0
 10
227.3641316822922
 20
148.019507327473
 30
0.0
 10
227.3682244897959
 20
148.0783679296472
 30
0.0
  0
LINE
  5
298
330
1F
100
AcDbEntity
  8
0
  6
Continuous
 62
     7
370
    25
100
AcDbLine
 10
225.3682244898
 20
147.3283679296
 30
0.0
 11
226.6182244898
 21
147.3283679296
 31
0.0
  0
LINE
  5
299
330
1F
100
AcDbEntity
  8
0
  6
Continuous
 62
     7
370
    25
100
AcDbLine
 10
225.3682244898
 20
146.1283679296
 30
0.0
 11
225.3682244898
 21
147.3283679296
 31
0.0
  0
LINE
  5
29A
330
1F
100
AcDbEntity
  8
0
  6
Continuous
 62
     7
370
    25
100
AcDbLine
 10
226.6182244898
 20
146.1283679296
 30
0.0
 11
225.3682244898
 21
146.1283679296
 31
0.0
  0
SPLINE
  5
29B
330
1F
100
AcDbEntity
  8
0
  6
Continuous
 62
     7
370
    25
100
AcDbSpline
210
0.0
220
0.0
230
1.0
 70
     8
 71
     3
 72
    12
 73
     8
 74
     0
 42
0.00000001
 43
0.00000001
 40
0.0
 40
0.0
 40
0.0
 40
0.0
 40
0.2133534395476114
 40
0.4267919313634442
 40
0.638353973909146
 40
0.8490950351927519
 40
1.0
 40
1.0
 40
1.0
 40
1.0
 10
227.3682244897959
 20
145.3783679296472
 30
0.0
 10
227.3601229296799
 20
145.4618617178043
 30
0.0
 10
227.343916579802
 20
145.6288825784944
 30
0.0
 10
227.216515454786
 20
145.852719340092
 30
0.0
 10
227.0291214388803
 20
146.0218050609692
 30
0.0
 10
226.818145413589
 20
146.1144666471792
 30
0.0
 10
226.6770850919701
 20
146.1242751221434
 30
0.0
 10
226.6182244897959
 20
146.1283679296472
 30
0.0
  0
LINE
  5
29C
330
1F
100
AcDbEntity
  8
0
  6
Continuous
 62
     7
370
    25
100
AcDbLine
 10
227.3682244898
 20
144.1283679296
 30
0.0
 11
227.3682244898
 21
145.3783679296
 31
0.0
  0
CIRCLE
  5
29D
330
1F
100
AcDbEntity
  8
0
  6
Continuous
 62
     7
370
    25
100
AcDbCircle
 10
227.9682244898
 20
146.7283679296
 30
0.0
 40
4.197433366238897
  0
SPLINE
  5
29E
330
1F
100
AcDbEntity
  8
0
  6
Continuous
 62
     7
370
    25
100
AcDbSpline
210
0.0
220
0.0
230
1.0
 70
     8
 71
     3
 72
    12
 73
     8
 74
     0
 42
0.00000001
 43
0.00000001
 40
0.0
 40
0.0
 40
0.0
 40
0.0
 40
0.2133534395476115
 40
0.4267919313634443
 40
0.638353973909146
 40
0.849095035192752
 40
1.0
 40
1.0
 40
1.0
 40
1.0
 10
228.5682244897959
 20
148.0783679296472
 30
0.0
 10
228.5763260499119
 20
147.99487414149
 30
0.0
 10
228.5925323997899
 20
147.8278532807999
 30
0.0
 10
228.7199335248058
 20
147.6040165192024
 30
0.0
 10
228.9073275407115
 20
147.4349307983251
 30
0.0
 10
229.1183035660029
 20
147.3422692121151
 30
0.0
 10
229.2593638876218
 20
147.3324607371509
 30
0.0
 10
229.3182244897959
 20
147.3283679296472
 30
0.0
  0
CIRCLE
  5
29F
330
1F
100
AcDbEntity
  8
0
  6
Continuous
 62
     7
370
    25
100
AcDbCircle
 10
227.9682244898
 20
146.7283679296
 30
0.0
 40
4.5
  0
LINE
  5
2A0
330
1F
100
AcDbEntity
  8
0
  6
Continuous
 62
     7
370
    25
100
AcDbLine
 10
22.3682244898
 20
149.3283679296
 30
0.0
 11
23.5682244898
 21
149.3283679296
 31
0.0
  0
LINE
  5
2A1
330
1F
100
AcDbEntity
  8
0
  6
Continuous
 62
     7
370
    25
100
AcDbLine
 10
22.3682244898
 20
148.0783679296
 30
0.0
 11
22.3682244898
 21
149.3283679296
 31
0.0
  0
LINE
  5
2A2
330
1F
100
AcDbEntity
  8
0
  6
Continuous
 62
     7
370
    25
100
AcDbLine
 10
20.3682244898
 20
147.3283679296
 30
0.0
 11
21.6182244898
 21
147.3283679296
 31
0.0
  0
LINE
  5
2A3
330
1F
100
AcDbEntity
  8
0
  6
Continuous
 62
     7
370
    25
100
AcDbLine
 10
20.3682244898
 20
146.1283679296
 30
0.0
 11
20.3682244898
 21
147.3283679296
 31
0.0
  0
LINE
  5
2A4
330
1F
100
AcDbEntity
  8
0
  6
Continuous
 62
     7
370
    25
100
AcDbLine
 10
21.6182244898
 20
146.1283679296
 30
0.0
 11
20.3682244898
 21
146.1283679296
 31
0.0
  0
LINE
  5
2A5
330
1F
100
AcDbEntity
  8
0
  6
Continuous
 62
     7
370
    25
100
AcDbLine
 10
22.3682244898
 20
144.1283679296
 30
0.0
 11
22.3682244898
 21
145.3783679296
 31
0.0
  0
LINE
  5
2A6
330
1F
100
AcDbEntity
  8
0
  6
Continuous
 62
     7
370
    25
100
AcDbLine
 10
23.5682244898
 20
144.1283679296
 30
0.0
 11
22.3682244898
 21
144.1283679296
 31
0.0
  0
LINE
  5
2A7
330
1F
100
AcDbEntity
  8
0
  6
Continuous
 62
     7
370
    25
100
AcDbLine
 10
23.5682244898
 20
145.3783679296
 30
0.0
 11
23.5682244898
 21
144.1283679296
 31
0.0
  0
LINE
  5
2A8
330
1F
100
AcDbEntity
  8
0
  6
Continuous
 62
     7
370
    25
100
AcDbLine
 10
25.5682244898
 20
146.1283679296
 30
0.0
 11
24.3182244898
 21
146.1283679296
 31
0.0
  0
LINE
  5
2A9
330
1F
100
AcDbEntity
  8
0
  6
Continuous
 62
     7
370
    25
100
AcDbLine
 10
25.5682244898
 20
147.3283679296
 30
0.0
 11
25.5682244898
 21
146.1283679296
 31
0.0
  0
LINE
  5
2AA
330
1F
100
AcDbEntity
  8
0
  6
Continuous
 62
     7
370
    25
100
AcDbLine
 10
24.3182244898
 20
147.3283679296
 30
0.0
 11
25.5682244898
 21
147.3283679296
 31
0.0
  0
LINE
  5
2AB
330
1F
100
AcDbEntity
  8
0
  6
Continuous
 62
     7
370
    25
100
AcDbLine
 10
23.5682244898
 20
149.3283679296
 30
0.0
 11
23.5682244898
 21
148.0783679296
 31
0.0
  0
CIRCLE
  5
2AC
330
1F
100
AcDbEntity
  8
0
  6
Continuous
 62
     7
370
    25
100
AcDbCircle
 10
22.9682244898
 20
146.7283679296
 30
0.0
 40
4.197433366238901
  0
SPLINE
  5
2AD
330
1F
100
AcDbEntity
  8
0
  6
Continuous
 62
     7
370
    25
100
AcDbSpline
210
0.0
220
0.0
230
1.0
 70
     8
 71
     3
 72
    12
 73
     8
 74
     0
 42
0.00000001
 43
0.00000001
 40
0.0
 40
0.0
 40
0.0
 40
0.0
 40
0.213353439547616
 40
0.426791931363449
 40
0.6383539739091509
 40
0.8490950351927566
 40
0.9999999999999999
 40
0.9999999999999999
 40
0.9999999999999999
 40
0.9999999999999999
 10
24.31822448979591
 20
146.1283679296472
 30
0.0
 10
24.23473070163879
 20
146.1202663695312
 30
0.0
 10
24.06770984094869
 20
146.1040600196532
 30
0.0
 10
23.84387307935107
 20
145.9766588946373
 30
0.0
 10
23.67478735847385
 20
145.7892648787316
 30
0.0
 10
23.58212577226386
 20
145.5782888534403
 30
0.0
 10
23.57231729729967
 20
145.4372285318213
 30
0.0
 10
23.5682244897959
 20
145.3783679296472
 30
0.0
  0
SPLINE
  5
2AE
330
1F
100
AcDbEntity
  8
0
  6
Continuous
 62
     7
370
    25
100
AcDbSpline
210
0.0
220
0.0
230
1.0
 70
     8
 71
     3
 72
    12
 73
     8
 74
     0
 42
0.00000001
 43
0.00000001
 40
0.0
 40
0.0
 40
0.0
 40
0.0
 40
0.213353439547616
 40
0.4267919313634489
 40
0.6383539739091507
 40
0.8490950351927565
 40
1.0
 40
1.0
 40
1.0
 40
1.0
 10
21.6182244897959
 20
147.3283679296472
 30
0.0
 10
21.70171827795305
 20
147.3364694897632
 30
0.0
 10
21.86873913864315
 20
147.3526758396411
 30
0.0
 10
22.09257590024077
 20
147.480076964657
 30
0.0
 10
22.26166162111794
 20
147.6674709805627
 30
0.0
 10
22.35432320732797
 20
147.8784470058541
 30
0.0
 10
22.36413168229216
 20
148.019507327473
 30
0.0
 10
22.36822448979589
 20
148.0783679296472
 30
0.0
  0
SPLINE
  5
2AF
330
1F
100
AcDbEntity
  8
0
  6
Continuous
 62
     7
370
    25
100
AcDbSpline
210
0.0
220
0.0
230
1.0
 70
     8
 71
     3
 72
    12
 73
     8
 74
     0
 42
0.00000001
 43
0.00000001
 40
0.0
 40
0.0
 40
0.0
 40
0.0
 40
0.2133534395476115
 40
0.4267919313634443
 40
0.638353973909146
 40
0.849095035192752
 40
1.0
 40
1.0
 40
1.0
 40
1.0
 10
22.3682244897959
 20
145.3783679296471
 30
0.0
 10
22.3601229296799
 20
145.4618617178043
 30
0.0
 10
22.34391657980196
 20
145.6288825784944
 30
0.0
 10
22.21651545478605
 20
145.852719340092
 30
0.0
 10
22.02912143888035
 20
146.0218050609692
 30
0.0
 10
21.81814541358898
 20
146.1144666471792
 30
0.0
 10
21.67708509197006
 20
146.1242751221434
 30
0.0
 10
21.61822448979589
 20
146.1283679296472
 30
0.0
  0
SPLINE
  5
2B0
330
1F
100
AcDbEntity
  8
0
  6
Continuous
 62
     7
370
    25
100
AcDbSpline
210
0.0
220
0.0
230
1.0
 70
     8
 71
     3
 72
    12
 73
     8
 74
     0
 42
0.00000001
 43
0.00000001
 40
0.0
 40
0.0
 40
0.0
 40
0.0
 40
0.2133534395476114
 40
0.4267919313634442
 40
0.638353973909146
 40
0.8490950351927519
 40
1.0
 40
1.0
 40
1.0
 40
1.0
 10
23.5682244897959
 20
148.0783679296472
 30
0.0
 10
23.5763260499119
 20
147.99487414149
 30
0.0
 10
23.59253239978984
 20
147.8278532807999
 30
0.0
 10
23.71993352480578
 20
147.6040165192023
 30
0.0
 10
23.9073275407115
 20
147.4349307983251
 30
0.0
 10
24.11830356600279
 20
147.3422692121151
 30
0.0
 10
24.25936388762175
 20
147.3324607371509
 30
0.0
 10
24.31822448979591
 20
147.3283679296472
 30
0.0
  0
CIRCLE
  5
2B1
330
1F
100
AcDbEntity
  8
0
  6
Continuous
 62
     7
370
    25
100
AcDbCircle
 10
22.9682244898
 20
146.7283679296
 30
0.0
 40
4.500000000000004
  0
SPLINE
  5
2B2
330
1F
100
AcDbEntity
  8
0
  6
Continuous
 62
     7
370
    25
100
AcDbSpline
210
0.0
220
0.0
230
1.0
 70
     8
 71
     3
 72
    13
 73
     9
 74
     0
 42
0.00000001
 43
0.00000001
 40
0.0
 40
0.0
 40
0.0
 40
0.0
 40
0.0816740351997872
 40
0.3133885133630537
 40
0.5501373365065235
 40
0.7716207997955135
 40
0.8858154527643046
 40
1.0
 40
1.0
 40
1.0
 40
1.0
 10
216.5273125923939
 20
134.0446086208667
 30
0.0
 10
216.1812483449893
 20
134.1152768866522
 30
0.0
 10
214.8533776238116
 20
134.3864355566295
 30
0.0
 10
211.903078429982
 20
134.886363951423
 30
0.0
 10
207.5897995726314
 20
135.4537722490123
 30
0.0
 10
203.4061326500725
 20
135.7969286378238
 30
0.0
 10
199.8545644956619
 20
135.9538964910809
 30
0.0
 10
197.94711760046
 20
135.9702110240966
 30
0.0
 10
196.9934363549273
 20
135.9783679296472
 30
0.0
  0
SPLINE
  5
2B3
330
1F
100
AcDbEntity
  8
0
  6
Continuous
 62
     7
370
    25
100
AcDbSpline
210
0.0
220
0.0
230
1.0
 70
     8
 71
     3
 72
    15
 73
    11
 74
     0
 42
0.00000001
 43
0.00000001
 40
0.0
 40
0.0
 40
0.0
 40
0.0
 40
0.1250000000000001
 40
0.2500000000000003
 40
0.3749999999999999
 40
0.4999999999999999
 40
0.6250000000000001
 40
0.75
 40
0.875
 40
1.0
 40
1.0
 40
1.0
 40
1.0
 10
196.9934363549273
 20
135.9783679296472
 30
0.0
 10
196.7514414708739
 20
136.0183763307612
 30
0.0
 10
196.2674517027671
 20
136.0983931329892
 30
0.0
 10
195.5693793126401
 20
136.7376165302708
 30
0.0
 10
194.9259803200773
 20
137.7311184768327
 30
0.0
 10
194.3622286883058
 20
139.0783271467673
 30
0.0
 10
193.898860468256
 20
140.7173931274487
 30
0.0
 10
193.5571485724911
 20
142.5880278915565
 30
0.0
 10
193.3372896787482
 20
144.6176214966598
 30
0.0
 10
193.3097681491961
 20
146.024785785318
 30
0.0
 10
193.2960073844201
 20
146.7283679296472
 30
0.0
  0
SPLINE
  5
2B4
330
1F
100
AcDbEntity
  8
0
  6
Continuous
 62
     7
370
    25
100
AcDbSpline
210
0.0
220
0.0
230
1.0
 70
     8
 71
     3
 72
    15
 73
    11
 74
     0
 42
0.00000001
 43
0.00000001
 40
0.0
 40
0.0
 40
0.0
 40
0.0
 40
0.125
 40
0.2500000000000002
 40
0.3749999999999999
 40
0.5
 40
0.6250000000000001
 40
0.75
 40
0.8750000000000001
 40
1.0
 40
1.0
 40
1.0
 40
1.0
 10
53.94301262466451
 20
135.9783679296472
 30
0.0
 10
54.18500750871792
 20
136.0183763307612
 30
0.0
 10
54.66899727682473
 20
136.0983931329892
 30
0.0
 10
55.36706966695171
 20
136.7376165302708
 30
0.0
 10
56.01046865951451
 20
137.7311184768327
 30
0.0
 10
56.57422029128605
 20
139.0783271467673
 30
0.0
 10
57.03758851133581
 20
140.7173931274487
 30
0.0
 10
57.37930040710078
 20
142.5880278915565
 30
0.0
 10
57.59915930084355
 20
144.6176214966598
 30
0.0
 10
57.62668083039567
 20
146.024785785318
 30
0.0
 10
57.64044159517173
 20
146.7283679296472
 30
0.0
  0
SPLINE
  5
2B5
330
1F
100
AcDbEntity
  8
0
  6
Continuous
 62
     7
370
    25
100
AcDbSpline
210
0.0
220
0.0
230
1.0
 70
     8
 71
     3
 72
    12
 73
     8
 74
     0
 42
0.00000001
 43
0.00000001
 40
0.0
 40
0.0
 40
0.0
 40
0.0
 40
0.0816943905593281
 40
0.3160896066408858
 40
0.5502749347050708
 40
0.7752197784800914
 40
1.0
 40
1.0
 40
1.0
 40
1.0
 10
34.40927050845953
 20
134.0448409257062
 30
0.0
 10
34.75525385367074
 20
134.1153851975423
 30
0.0
 10
36.09392274811201
 20
134.388333082737
 30
0.0
 10
39.05169159371543
 20
134.8912671532415
 30
0.0
 10
43.39147870291522
 20
135.4535483905228
 30
0.0
 10
48.37004488104356
 20
135.8821833164332
 30
0.0
 10
52.08581009649765
 20
135.9463142169666
 30
0.0
 10
53.9430126246645
 20
135.9783679296472
 30
0.0
  0
SPLINE
  5
2B6
330
1F
100
AcDbEntity
  8
0
  6
Continuous
 62
     7
370
    25
100
AcDbSpline
210
0.0
220
0.0
230
1.0
 70
     8
 71
     3
 72
    15
 73
    11
 74
     0
 42
0.00000001
 43
0.00000001
 40
0.0
 40
0.0
 40
0.0
 40
0.0
 40
0.125
 40
0.2500000000000002
 40
0.3749999999999999
 40
0.5
 40
0.6250000000000001
 40
0.75
 40
0.8750000000000001
 40
1.0
 40
1.0
 40
1.0
 40
1.0
 10
196.9934363549273
 20
157.4783679296471
 30
0.0
 10
196.7514414708739
 20
157.4383595285332
 30
0.0
 10
196.2674517027671
 20
157.3583427263052
 30
0.0
 10
195.5693793126401
 20
156.7191193290236
 30
0.0
 10
194.9259803200773
 20
155.7256173824616
 30
0.0
 10
194.3622286883058
 20
154.378408712527
 30
0.0
 10
193.898860468256
 20
152.7393427318457
 30
0.0
 10
193.5571485724911
 20
150.8687079677378
 30
0.0
 10
193.3372896787483
 20
148.8391143626346
 30
0.0
 10
193.3097681491961
 20
147.4319500739763
 30
0.0
 10
193.2960073844201
 20
146.7283679296472
 30
0.0
  0
SPLINE
  5
2B7
330
1F
100
AcDbEntity
  8
0
  6
Continuous
 62
     7
370
    25
100
AcDbSpline
210
0.0
220
0.0
230
1.0
 70
     8
 71
     3
 72
    11
 73
     7
 74
     0
 42
0.00000001
 43
0.00000001
 40
0.0
 40
0.0
 40
0.0
 40
0.0
 40
0.0912332330611974
 40
0.538651583587331
 40
0.7693359990803981
 40
1.0
 40
1.0
 40
1.0
 40
1.0
 10
208.2731197132243
 20
158.1165606627875
 30
0.0
 10
207.9721226333939
 20
158.0832329053179
 30
0.0
 10
206.1950009830298
 20
157.8864619619226
 30
0.0
 10
203.4050554225331
 20
157.6601342395364
 30
0.0
 10
199.8547580166118
 20
157.5027806203219
 30
0.0
 10
197.9471821055403
 20
157.4865052531448
 30
0.0
 10
196.9934363549273
 20
157.4783679296472
 30
0.0
  0
SPLINE
  5
2B8
330
1F
100
AcDbEntity
  8
0
  6
Continuous
 62
     7
370
    25
100
AcDbSpline
210
0.0
220
0.0
230
1.0
 70
     8
 71
     3
 72
    10
 73
     6
 74
     0
 42
0.00000001
 43
0.00000001
 40
0.0
 40
0.0
 40
0.0
 40
0.0
 40
0.184012014902094
 40
0.5902523693614864
 40
1.0
 40
1.0
 40
1.0
 40
1.0
 10
214.639493901956
 20
159.0475970648056
 30
0.0
 10
214.2068566048258
 20
158.9700819661616
 30
0.0
 10
212.8190929316706
 20
158.7214380357085
 30
0.0
 10
210.6223270616787
 20
158.3776721890587
 30
0.0
 10
209.0584294754192
 20
158.2038468832811
 30
0.0
 10
208.2731197132243
 20
158.1165606627875
 30
0.0
  0
SPLINE
  5
2B9
330
1F
100
AcDbEntity
  8
0
  6
Continuous
 62
     7
370
    25
100
AcDbSpline
210
0.0
220
0.0
230
1.0
 70
     8
 71
     3
 72
     9
 73
     5
 74
     0
 42
0.00000001
 43
0.00000001
 40
0.0
 40
0.0
 40
0.0
 40
0.0
 40
0.5895181626039666
 40
1.0
 40
1.0
 40
1.0
 40
1.0
 10
216.5271784711323
 20
159.4118949335881
 30
0.0
 10
216.185332449009
 20
159.3414891428137
 30
0.0
 10
215.6054588440749
 20
159.2220597592244
 30
0.0
 10
214.9206113568487
 20
159.0983696202993
 30
0.0
 10
214.639493901956
 20
159.0475970648056
 30
0.0
  0
SPLINE
  5
2BA
330
1F
100
AcDbEntity
  8
0
  6
Continuous
 62
     7
370
    25
100
AcDbSpline
210
0.0
220
0.0
230
1.0
 70
     8
 71
     3
 72
    10
 73
     6
 74
     0
 42
0.00000001
 43
0.00000001
 40
0.0
 40
0.0
 40
0.0
 40
0.0
 40
0.184012014902094
 40
0.5902523693614864
 40
1.0
 40
1.0
 40
1.0
 40
1.0
 10
36.29695507763579
 20
159.0475970648056
 30
0.0
 10
36.72959237476596
 20
158.9700819661616
 30
0.0
 10
38.11735604792118
 20
158.7214380357085
 30
0.0
 10
40.3141219179131
 20
158.3776721890587
 30
0.0
 10
41.87801950417263
 20
158.2038468832811
 30
0.0
 10
42.66332926636754
 20
158.1165606627875
 30
0.0
  0
SPLINE
  5
2BB
330
1F
100
AcDbEntity
  8
0
  6
Continuous
 62
     7
370
    25
100
AcDbSpline
210
0.0
220
0.0
230
1.0
 70
     8
 71
     3
 72
    11
 73
     7
 74
     0
 42
0.00000001
 43
0.00000001
 40
0.0
 40
0.0
 40
0.0
 40
0.0
 40
0.0912332330611974
 40
0.538651583587331
 40
0.7693359990803981
 40
1.0
 40
1.0
 40
1.0
 40
1.0
 10
42.66332926636754
 20
158.1165606627875
 30
0.0
 10
42.96432634619789
 20
158.0832329053179
 30
0.0
 10
44.74144799656206
 20
157.8864619619226
 30
0.0
 10
47.5313935570587
 20
157.6601342395364
 30
0.0
 10
51.08169096298003
 20
157.5027806203219
 30
0.0
 10
52.98926687405153
 20
157.4865052531448
 30
0.0
 10
53.9430126246645
 20
157.4783679296472
 30
0.0
  0
SPLINE
  5
2BC
330
1F
100
AcDbEntity
  8
0
  6
Continuous
 62
     7
370
    25
100
AcDbSpline
210
0.0
220
0.0
230
1.0
 70
     8
 71
     3
 72
    15
 73
    11
 74
     0
 42
0.00000001
 43
0.00000001
 40
0.0
 40
0.0
 40
0.0
 40
0.0
 40
0.1250000000000001
 40
0.2500000000000003
 40
0.3749999999999999
 40
0.4999999999999999
 40
0.6250000000000001
 40
0.75
 40
0.875
 40
1.0
 40
1.0
 40
1.0
 40
1.0
 10
53.94301262466451
 20
157.4783679296471
 30
0.0
 10
54.18500750871792
 20
157.4383595285332
 30
0.0
 10
54.66899727682474
 20
157.3583427263052
 30
0.0
 10
55.36706966695171
 20
156.7191193290236
 30
0.0
 10
56.01046865951449
 20
155.7256173824616
 30
0.0
 10
56.57422029128605
 20
154.378408712527
 30
0.0
 10
57.03758851133582
 20
152.7393427318457
 30
0.0
 10
57.37930040710074
 20
150.8687079677378
 30
0.0
 10
57.59915930084357
 20
148.8391143626346
 30
0.0
 10
57.62668083039567
 20
147.4319500739763
 30
0.0
 10
57.64044159517173
 20
146.7283679296472
 30
0.0
  0
SPLINE
  5
2BD
330
1F
100
AcDbEntity
  8
0
  6
Continuous
 62
     7
370
    25
100
AcDbSpline
210
0.0
220
0.0
230
1.0
 70
     8
 71
     3
 72
     9
 73
     5
 74
     0
 42
0.00000001
 43
0.00000001
 40
0.0
 40
0.0
 40
0.0
 40
0.0
 40
0.5895181626039666
 40
1.0
 40
1.0
 40
1.0
 40
1.0
 10
34.40927050845953
 20
159.4118949335881
 30
0.0
 10
34.75111653058283
 20
159.3414891428137
 30
0.0
 10
35.33099013551691
 20
159.2220597592244
 30
0.0
 10
36.01583762274311
 20
159.0983696202993
 30
0.0
 10
36.29695507763579
 20
159.0475970648056
 30
0.0
  0
SPLINE
  5
2BE
330
1F
100
AcDbEntity
  8
0
  6
Continuous
 62
     7
370
    25
100
AcDbSpline
210
0.0
220
0.0
230
1.0
 70
     8
 71
     3
 72
    12
 73
     8
 74
     0
 42
0.00000001
 43
0.00000001
 40
0.0
 40
0.0
 40
0.0
 40
0.0
 40
0.2263704091572606
 40
0.4566753283870454
 40
0.6830457375443061
 40
0.9094161467015667
 40
0.9999999999999999
 40
0.9999999999999999
 40
0.9999999999999999
 40
0.9999999999999999
 10
116.6725617265444
 20
146.7283679296472
 30
0.0
 10
116.7304855826192
 20
147.4909758193396
 30
0.0
 10
116.8473400606091
 20
149.029446371884
 30
0.0
 10
117.7677697996797
 20
151.1831512739327
 30
0.0
 10
119.1854712090786
 20
152.9967891711581
 30
0.0
 10
120.6169397012112
 20
154.2044686293927
 30
0.0
 10
121.6170139366054
 20
154.5809518756289
 30
0.0
 10
121.9028298682941
 20
154.6885487979172
 30
0.0
  0
SPLINE
  5
2BF
330
1F
100
AcDbEntity
  8
0
  6
Continuous
 62
     7
370
    25
100
AcDbSpline
210
0.0
220
0.0
230
1.0
 70
     8
 71
     3
 72
    11
 73
     7
 74
     0
 42
0.00000001
 43
0.00000001
 40
0.0
 40
0.0
 40
0.0
 40
0.0
 40
0.0563294701066451
 40
0.2817592215943044
 40
0.6396384082159853
 40
1.0
 40
1.0
 40
1.0
 40
1.0
 10
116.8501505436783
 20
148.4869141770056
 30
0.0
 10
116.8421360109461
 20
148.4545763035283
 30
0.0
 10
116.8020474303187
 20
148.2928227127037
 30
0.0
 10
116.7308409998174
 20
147.9210415649266
 30
0.0
 10
116.660202630016
 20
147.366472387202
 30
0.0
 10
116.6505114797568
 20
146.9415589483249
 30
0.0
 10
116.6456491572061
 20
146.7283679296472
 30
0.0
  0
SPLINE
  5
2C0
330
1F
100
AcDbEntity
  8
0
  6
Continuous
 62
     7
370
    25
100
AcDbSpline
210
0.0
220
0.0
230
1.0
 70
     8
 71
     3
 72
    12
 73
     8
 74
     0
 42
0.00000001
 43
0.00000001
 40
0.0
 40
0.0
 40
0.0
 40
0.0
 40
0.2173737697110545
 40
0.4315466041247534
 40
0.6239867412441961
 40
0.81977165147543
 40
0.9999999999999999
 40
0.9999999999999999
 40
0.9999999999999999
 40
0.9999999999999999
 10
116.8501505436783
 20
148.4869141770056
 30
0.0
 10
117.0947938542221
 20
149.3171577807207
 30
0.0
 10
117.5804779826582
 20
150.9654192441706
 30
0.0
 10
119.1171827856957
 20
152.9667976392734
 30
0.0
 10
121.0174880504756
 20
154.425479939047
 30
0.0
 10
123.1201336629781
 20
155.3346732918764
 30
0.0
 10
124.6103160361193
 20
155.4499679947206
 30
0.0
 10
125.324581030392
 20
155.5052303382773
 30
0.0
  0
LINE
  5
2C1
330
1F
100
AcDbEntity
  8
0
  6
Continuous
 62
     7
370
    25
100
AcDbLine
 10
116.6725617265
 20
146.7283679296
 30
0.0
 11
116.8501505437
 21
148.486914177
 31
0.0
  0
ARC
  5
2C2
330
1F
100
AcDbEntity
  8
0
  6
Continuous
 62
     7
370
    25
100
AcDbCircle
 10
125.4682244898
 20
146.7283679296
 30
0.0
 40
12.70021735268363
100
AcDbArc
 50
0.0
 51
227.3783734
  0
ARC
  5
2C3
330
1F
100
AcDbEntity
  8
0
  6
Continuous
 62
     7
370
    25
100
AcDbCircle
 10
125.4682244898
 20
146.7283679296
 30
0.0
 40
12.70021735268364
100
AcDbArc
 50
312.6216266
 51
0.0
  0
ARC
  5
2C4
330
1F
100
AcDbEntity
  8
0
  6
Continuous
 62
     7
370
    25
100
AcDbCircle
 10
125.4682244898
 20
146.7283679296
 30
0.0
 40
13.20021735268358
100
AcDbArc
 50
310.6551252424
 51
0.0
  0
ARC
  5
2C5
330
1F
100
AcDbEntity
  8
0
  6
Continuous
 62
     7
370
    25
100
AcDbCircle
 10
125.4682244898
 20
146.7283679296
 30
0.0
 40
13.20021735268358
100
AcDbArc
 50
0.0
 51
228.8620263048
  0
LINE
  5
2C6
330
1F
100
AcDbEntity
  8
0
  6
Continuous
 62
     7
370
    25
100
AcDbLine
 10
116.8682244898
 20
146.7283679296
 30
0.0
 11
116.6456491572
 21
146.7283679296
 31
0.0
  0
SPLINE
  5
2C7
330
1F
100
AcDbEntity
  8
0
  6
Continuous
 62
     7
370
    25
100
AcDbSpline
210
0.0
220
0.0
230
1.0
 70
     8
 71
     3
 72
     9
 73
     5
 74
     0
 42
0.00000001
 43
0.00000001
 40
0.0
 40
0.0
 40
0.0
 40
0.0
 40
0.4862237301013019
 40
1.0
 40
1.0
 40
1.0
 40
1.0
 10
119.332884012929
 20
152.597594854037
 30
0.0
 10
118.7754109413728
 20
152.0259263739202
 30
0.0
 10
117.6288748160378
 20
150.850195029015
 30
0.0
 10
117.1144498723758
 20
149.289012640968
 30
0.0
 10
116.8501505436783
 20
148.4869141770056
 30
0.0
  0
LINE
  5
2C8
330
1F
100
AcDbEntity
  8
0
  6
Continuous
 62
     7
370
    25
100
AcDbLine
 10
223.7402175468
 20
164.5783679296
 30
0.0
 11
227.9682244898
 21
164.5783679296
 31
0.0
  0
LINE
  5
2C9
330
1F
100
AcDbEntity
  8
0
  6
Continuous
 62
     7
370
    25
100
AcDbLine
 10
27.1962314328
 20
164.5783679296
 30
0.0
 11
22.9682244898
 21
164.5783679296
 31
0.0
  0
LINE
  5
2CA
330
1F
100
AcDbEntity
  8
0
  6
Continuous
 62
     7
370
    25
100
AcDbLine
 10
227.9682244898
 20
164.5783679296
 30
0.0
 11
234.9845172572
 21
164.5783679296
 31
0.0
  0
LINE
  5
2CB
330
1F
100
AcDbEntity
  8
0
  6
Continuous
 62
     7
370
    25
100
AcDbLine
 10
22.9682244898
 20
164.5783679296
 30
0.0
 11
15.9519317224
 21
164.5783679296
 31
0.0
  0
LINE
  5
2CC
330
1F
100
AcDbEntity
  8
0
  6
Continuous
 62
     7
370
    25
100
AcDbLine
 10
219.3267256037
 20
164.5783679296
 30
0.0
 11
223.7402175468
 21
164.5783679296
 31
0.0
  0
LINE
  5
2CD
330
1F
100
AcDbEntity
  8
0
  6
Continuous
 62
     7
370
    25
100
AcDbLine
 10
31.6097233759
 20
164.5783679296
 30
0.0
 11
27.1962314328
 21
164.5783679296
 31
0.0
  0
SPLINE
  5
2CE
330
1F
100
AcDbEntity
  8
0
  6
Continuous
 62
     7
370
    25
100
AcDbSpline
210
0.0
220
0.0
230
1.0
 70
     8
 71
     3
 72
    16
 73
    12
 74
     0
 42
0.00000001
 43
0.00000001
 40
0.0
 40
0.0
 40
0.0
 40
0.0
 40
0.0035272558700165
 40
0.0097730933313386
 40
0.0320386080468225
 40
0.1391744664190855
 40
0.3526176884172983
 40
0.5664480436827237
 40
0.7447071355090967
 40
0.9219574117008817
 40
1.0
 40
1.0
 40
1.0
 40
1.0
 10
114.9426945976397
 20
154.749551673624
 30
0.0
 10
114.9415479083116
 20
154.7487714042974
 30
0.0
 10
114.9383707353935
 20
154.7466094843138
 30
0.0
 10
114.899304596695
 20
154.6996234154538
 30
0.0
 10
114.679157044976
 20
154.4219118021858
 30
0.0
 10
114.0297979321795
 20
153.5608263478168
 30
0.0
 10
113.1123992349368
 20
152.0939539218369
 30
0.0
 10
112.2139076064573
 20
150.3079372450407
 30
0.0
 10
111.5237649918351
 20
148.6294278760722
 30
0.0
 10
110.9590663643605
 20
147.4295242899245
 30
0.0
 10
110.5029808332458
 20
146.892527057338
 30
0.0
 10
110.3635562731237
 20
146.7283679296472
 30
0.0
  0
SPLINE
  5
2CF
330
1F
100
AcDbEntity
  8
0
  6
Continuous
 62
     7
370
    25
100
AcDbSpline
210
0.0
220
0.0
230
1.0
 70
     8
 71
     3
 72
    16
 73
    12
 74
     0
 42
0.00000001
 43
0.00000001
 40
0.0
 40
0.0
 40
0.0
 40
0.0
 40
0.0035272558700165
 40
0.0097730933313386
 40
0.0320386080468225
 40
0.1391744664190855
 40
0.3526176884172983
 40
0.5664480436827237
 40
0.7447071355090967
 40
0.9219574117008817
 40
1.0
 40
1.0
 40
1.0
 40
1.0
 10
114.9426945976397
 20
138.7071841856703
 30
0.0
 10
114.9415479083116
 20
138.707964454997
 30
0.0
 10
114.9383707353935
 20
138.7101263749805
 30
0.0
 10
114.899304596695
 20
138.7571124438405
 30
0.0
 10
114.679157044976
 20
139.0348240571086
 30
0.0
 10
114.0297979321795
 20
139.8959095114775
 30
0.0
 10
113.1123992349368
 20
141.3627819374574
 30
0.0
 10
112.2139076064573
 20
143.1487986142536
 30
0.0
 10
111.5237649918351
 20
144.8273079832221
 30
0.0
 10
110.9590663643605
 20
146.0272115693698
 30
0.0
 10
110.5029808332458
 20
146.5642088019563
 30
0.0
 10
110.3635562731237
 20
146.7283679296472
 30
0.0
  0
SPLINE
  5
2D0
330
1F
100
AcDbEntity
  8
0
  6
Continuous
 62
     7
370
    25
100
AcDbSpline
210
0.0
220
0.0
230
1.0
 70
     8
 71
     3
 72
     9
 73
     5
 74
     0
 42
0.00000001
 43
0.00000001
 40
0.0
 40
0.0
 40
0.0
 40
0.0
 40
0.6463885952508506
 40
1.0
 40
1.0
 40
1.0
 40
1.0
 10
116.1344149781335
 20
137.3945584179847
 30
0.0
 10
115.8546619940897
 20
137.6662158319483
 30
0.0
 10
115.4218681822879
 20
138.0864853354009
 30
0.0
 10
115.0678717672407
 20
138.5450355870401
 30
0.0
 10
114.9426945976397
 20
138.7071841856703
 30
0.0
  0
SPLINE
  5
2D1
330
1F
100
AcDbEntity
  8
0
  6
Continuous
 62
     7
370
    25
100
AcDbSpline
210
0.0
220
0.0
230
1.0
 70
     8
 71
     3
 72
     9
 73
     5
 74
     0
 42
0.00000001
 43
0.00000001
 40
0.0
 40
0.0
 40
0.0
 40
0.0
 40
0.6463885952508506
 40
1.0
 40
1.0
 40
1.0
 40
1.0
 10
134.8020340014583
 20
137.3945584179847
 30
0.0
 10
135.0817869855022
 20
137.6662158319483
 30
0.0
 10
135.514580797304
 20
138.0864853354009
 30
0.0
 10
135.8685772123511
 20
138.5450355870401
 30
0.0
 10
135.9937543819521
 20
138.7071841856703
 30
0.0
  0
SPLINE
  5
2D2
330
1F
100
AcDbEntity
  8
0
  6
Continuous
 62
     7
370
    25
100
AcDbSpline
210
0.0
220
0.0
230
1.0
 70
     8
 71
     3
 72
     9
 73
     5
 74
     0
 42
0.00000001
 43
0.00000001
 40
0.0
 40
0.0
 40
0.0
 40
0.0
 40
0.6463885952508506
 40
1.0
 40
1.0
 40
1.0
 40
1.0
 10
134.8020340014583
 20
156.0621774413096
 30
0.0
 10
135.0817869855022
 20
155.790520027346
 30
0.0
 10
135.514580797304
 20
155.3702505238934
 30
0.0
 10
135.8685772123511
 20
154.9117002722542
 30
0.0
 10
135.9937543819521
 20
154.749551673624
 30
0.0
  0
LINE
  5
2D3
330
1F
100
AcDbEntity
  8
0
  6
Continuous
 62
     7
370
    25
100
AcDbLine
 10
137.8646468804
 20
142.1919136259
 30
0.0
 11
137.9987164989
 21
142.6639336208
 31
0.0
  0
SPLINE
  5
2D4
330
1F
100
AcDbEntity
  8
0
  6
Continuous
 62
     7
370
    25
100
AcDbSpline
210
0.0
220
0.0
230
1.0
 70
     8
 71
     3
 72
    10
 73
     6
 74
     0
 42
0.00000001
 43
0.00000001
 40
0.0
 40
0.0
 40
0.0
 40
0.0
 40
0.3720491415245878
 40
0.8498181467042282
 40
1.0
 40
1.0
 40
1.0
 40
1.0
 10
138.6481209903714
 20
146.5936276585414
 30
0.0
 10
138.6422548729632
 20
147.1851683622493
 30
0.0
 10
138.6288557477728
 20
148.5363393996699
 30
0.0
 10
138.2680631644656
 20
150.0980337388764
 30
0.0
 10
137.9425073845072
 20
151.0396286952182
 30
0.0
 10
137.8646468804162
 20
151.264822233357
 30
0.0
  0
SPLINE
  5
2D5
330
1F
100
AcDbEntity
  8
0
  6
Continuous
 62
     7
370
    25
100
AcDbSpline
210
0.0
220
0.0
230
1.0
 70
     8
 71
     3
 72
    16
 73
    12
 74
     0
 42
0.00000001
 43
0.00000001
 40
0.0
 40
0.0
 40
0.0
 40
0.0
 40
0.0035272558700165
 40
0.0097730933313386
 40
0.0320386080468225
 40
0.1391744664190855
 40
0.3526176884172983
 40
0.5664480436827237
 40
0.7447071355090967
 40
0.9219574117008817
 40
1.0
 40
1.0
 40
1.0
 40
1.0
 10
135.9937543819521
 20
154.749551673624
 30
0.0
 10
135.9949010712802
 20
154.7487714042974
 30
0.0
 10
135.9980782441983
 20
154.7466094843138
 30
0.0
 10
136.0371443828968
 20
154.6996234154538
 30
0.0
 10
136.2572919346158
 20
154.4219118021858
 30
0.0
 10
136.9066510474123
 20
153.5608263478168
 30
0.0
 10
137.824049744655
 20
152.0939539218369
 30
0.0
 10
138.7225413731345
 20
150.3079372450407
 30
0.0
 10
139.4126839877567
 20
148.6294278760722
 30
0.0
 10
139.9773826152314
 20
147.4295242899245
 30
0.0
 10
140.433468146346
 20
146.892527057338
 30
0.0
 10
140.5728927064681
 20
146.7283679296472
 30
0.0
  0
SPLINE
  5
2D6
330
1F
100
AcDbEntity
  8
0
  6
Continuous
 62
     7
370
    25
100
AcDbSpline
210
0.0
220
0.0
230
1.0
 70
     8
 71
     3
 72
    16
 73
    12
 74
     0
 42
0.00000001
 43
0.00000001
 40
0.0
 40
0.0
 40
0.0
 40
0.0
 40
0.0035272558700165
 40
0.0097730933313386
 40
0.0320386080468225
 40
0.1391744664190855
 40
0.3526176884172983
 40
0.5664480436827237
 40
0.7447071355090967
 40
0.9219574117008817
 40
1.0
 40
1.0
 40
1.0
 40
1.0
 10
135.9937543819521
 20
138.7071841856703
 30
0.0
 10
135.9949010712802
 20
138.707964454997
 30
0.0
 10
135.9980782441983
 20
138.7101263749805
 30
0.0
 10
136.0371443828968
 20
138.7571124438405
 30
0.0
 10
136.2572919346158
 20
139.0348240571086
 30
0.0
 10
136.9066510474123
 20
139.8959095114775
 30
0.0
 10
137.824049744655
 20
141.3627819374574
 30
0.0
 10
138.7225413731345
 20
143.1487986142536
 30
0.0
 10
139.4126839877567
 20
144.8273079832221
 30
0.0
 10
139.9773826152314
 20
146.0272115693698
 30
0.0
 10
140.433468146346
 20
146.5642088019563
 30
0.0
 10
140.5728927064681
 20
146.7283679296472
 30
0.0
  0
SPLINE
  5
2D7
330
1F
100
AcDbEntity
  8
0
  6
Continuous
 62
     7
370
    25
100
AcDbSpline
210
0.0
220
0.0
230
1.0
 70
     8
 71
     3
 72
     9
 73
     5
 74
     0
 42
0.00000001
 43
0.00000001
 40
0.0
 40
0.0
 40
0.0
 40
0.0
 40
0.6463885952508506
 40
1.0
 40
1.0
 40
1.0
 40
1.0
 10
116.1344149781335
 20
156.0621774413096
 30
0.0
 10
115.8546619940897
 20
155.790520027346
 30
0.0
 10
115.4218681822879
 20
155.3702505238934
 30
0.0
 10
115.0678717672407
 20
154.9117002722542
 30
0.0
 10
114.9426945976397
 20
154.749551673624
 30
0.0
  0
SPLINE
  5
2D8
330
1F
100
AcDbEntity
  8
0
  6
Continuous
 62
     7
370
    25
100
AcDbSpline
210
0.0
220
0.0
230
1.0
 70
     8
 71
     3
 72
     9
 73
     5
 74
     0
 42
0.00000001
 43
0.00000001
 40
0.0
 40
0.0
 40
0.0
 40
0.0
 40
0.673253769858657
 40
1.0
 40
1.0
 40
1.0
 40
1.0
 10
34.02125051827805
 20
163.9691356080477
 30
0.0
 10
33.4978937435915
 20
164.0932380563124
 30
0.0
 10
32.72053935195341
 20
164.2775704044118
 30
0.0
 10
31.88329108941147
 20
164.5042886105026
 30
0.0
 10
31.60972337593351
 20
164.5783679296471
 30
0.0
  0
LWPOLYLINE
  5
2D9
330
1F
100
AcDbEntity
  8
0
  6
Continuous
 62
     7
370
    25
100
AcDbPolyline
 90
        9
 70
   128
 43
0.0
 10
34.0212505183
 20
163.969135608
 10
33.9768370092
 20
163.0708734639
 10
34.0386593654
 20
162.2024099183
 10
34.204666716
 20
161.3925550427
 10
34.4693519979
 20
160.6681746473
 10
34.8239346447
 20
160.0532990452
 10
35.2566518697
 20
159.5683258802
 10
35.7531488801
 20
159.2293434632
 10
36.2969550776
 20
159.0475970648
  0
SPLINE
  5
2DA
330
1F
100
AcDbEntity
  8
0
  6
Continuous
 62
     7
370
    25
100
AcDbSpline
210
0.0
220
0.0
230
1.0
 70
     8
 71
     3
 72
     9
 73
     5
 74
     0
 42
0.00000001
 43
0.00000001
 40
0.0
 40
0.0
 40
0.0
 40
0.0
 40
0.673253769858657
 40
1.0
 40
1.0
 40
1.0
 40
1.0
 10
216.9151984613138
 20
163.9691356080477
 30
0.0
 10
217.4385552360003
 20
164.0932380563124
 30
0.0
 10
218.2159096276384
 20
164.2775704044118
 30
0.0
 10
219.0531578901804
 20
164.5042886105026
 30
0.0
 10
219.3267256036583
 20
164.5783679296471
 30
0.0
  0
LWPOLYLINE
  5
2DB
330
1F
100
AcDbEntity
  8
0
  6
Continuous
 62
     7
370
    25
100
AcDbPolyline
 90
        9
 70
   128
 43
0.0
 10
216.9151984613
 20
163.969135608
 10
216.9596119704
 20
163.0708734639
 10
216.8977896142
 20
162.2024099183
 10
216.7317822636
 20
161.3925550427
 10
216.4670969816
 20
160.6681746473
 10
216.1125143349
 20
160.0532990452
 10
215.6797971099
 20
159.5683258802
 10
215.1833000995
 20
159.2293434632
 10
214.639493902
 20
159.0475970648
  0
SPLINE
  5
2DC
330
1F
100
AcDbEntity
  8
0
  6
Continuous
 62
     7
370
    25
100
AcDbSpline
210
0.0
220
0.0
230
1.0
 70
     8
 71
     3
 72
    10
 73
     6
 74
     0
 42
0.00000001
 43
0.00000001
 40
0.0
 40
0.0
 40
0.0
 40
0.0
 40
0.822194138410185
 40
0.9999856333282495
 40
1.0
 40
1.0
 40
1.0
 40
1.0
 10
112.0061165410378
 20
156.5433415785318
 30
0.0
 10
112.7844063731448
 20
156.8153997970066
 30
0.0
 10
113.7309938204567
 20
157.1462879622152
 30
0.0
 10
114.6905151774504
 20
157.3088260532068
 30
0.0
 10
114.8616683760606
 20
157.3349081068205
 30
0.0
 10
114.8616822051988
 20
157.3349102142443
 30
0.0
  0
SPLINE
  5
2DD
330
1F
100
AcDbEntity
  8
0
  6
Continuous
 62
     7
370
    25
100
AcDbSpline
210
0.0
220
0.0
230
1.0
 70
     8
 71
     3
 72
    12
 73
     8
 74
     0
 42
0.00000001
 43
0.00000001
 40
0.0
 40
0.0
 40
0.0
 40
0.0
 40
0.0000206621589184
 40
0.4795408755309411
 40
0.8727800731105155
 40
0.9633922424496167
 40
1.0
 40
1.0
 40
1.0
 40
1.0
 10
114.8616822051988
 20
157.3349102142443
 30
0.0
 10
114.8616957261754
 20
157.3349123230102
 30
0.0
 10
115.1754993795734
 20
157.3838539374008
 30
0.0
 10
115.7712843482891
 20
157.447826321867
 30
0.0
 10
116.4755016090772
 20
157.4745905791695
 30
0.0
 10
116.8690610802071
 20
157.4782175023131
 30
0.0
 10
116.9662434099434
 20
157.4783343162356
 30
0.0
 10
116.9942077961221
 20
157.4783679296472
 30
0.0
  0
SPLINE
  5
2DE
330
1F
100
AcDbEntity
  8
0
  6
Continuous
 62
     7
370
    25
100
AcDbSpline
210
0.0
220
0.0
230
1.0
 70
     8
 71
     3
 72
    10
 73
     6
 74
     0
 42
0.00000001
 43
0.00000001
 40
0.0
 40
0.0
 40
0.0
 40
0.0
 40
0.822194138410185
 40
0.9999856333282495
 40
1.0
 40
1.0
 40
1.0
 40
1.0
 10
138.930332438554
 20
156.5433415785318
 30
0.0
 10
138.152042606447
 20
156.8153997970066
 30
0.0
 10
137.2054551591351
 20
157.1462879622152
 30
0.0
 10
136.2459338021415
 20
157.3088260532068
 30
0.0
 10
136.0747806035312
 20
157.3349081068205
 30
0.0
 10
136.0747667743931
 20
157.3349102142443
 30
0.0
  0
SPLINE
  5
2DF
330
1F
100
AcDbEntity
  8
0
  6
Continuous
 62
     7
370
    25
100
AcDbSpline
210
0.0
220
0.0
230
1.0
 70
     8
 71
     3
 72
    12
 73
     8
 74
     0
 42
0.00000001
 43
0.00000001
 40
0.0
 40
0.0
 40
0.0
 40
0.0
 40
0.0000206621589184
 40
0.4795408755309411
 40
0.8727800731105155
 40
0.9633922424496167
 40
1.0
 40
1.0
 40
1.0
 40
1.0
 10
136.0747667743931
 20
157.3349102142443
 30
0.0
 10
136.0747532534165
 20
157.3349123230102
 30
0.0
 10
135.7609496000184
 20
157.3838539374008
 30
0.0
 10
135.1651646313028
 20
157.447826321867
 30
0.0
 10
134.4609473705146
 20
157.4745905791695
 30
0.0
 10
134.0673878993847
 20
157.4782175023131
 30
0.0
 10
133.9702055696484
 20
157.4783343162356
 30
0.0
 10
133.9422411834697
 20
157.4783679296472
 30
0.0
  0
SPLINE
  5
2E0
330
1F
100
AcDbEntity
  8
0
  6
Continuous
 62
     7
370
    25
100
AcDbSpline
210
0.0
220
0.0
230
1.0
 70
     8
 71
     3
 72
    11
 73
     7
 74
     0
 42
0.00000001
 43
0.00000001
 40
0.0
 40
0.0
 40
0.0
 40
0.0
 40
0.03663637134736
 40
0.1273193660626557
 40
0.999979321690877
 40
1.0
 40
1.0
 40
1.0
 40
1.0
 10
116.9942077961225
 20
135.9783679296472
 30
0.0
 10
116.9662431285399
 20
135.9784016895659
 30
0.0
 10
116.8690598208642
 20
135.9785190126331
 30
0.0
 10
116.1135609491532
 20
135.9854444332556
 30
0.0
 10
115.4323175284303
 20
136.0328279042475
 30
0.0
 10
114.861695726175
 20
136.1218235362842
 30
0.0
 10
114.8616822051988
 20
136.1218256450501
 30
0.0
  0
SPLINE
  5
2E1
330
1F
100
AcDbEntity
  8
0
  6
Continuous
 62
     7
370
    25
100
AcDbSpline
210
0.0
220
0.0
230
1.0
 70
     8
 71
     3
 72
    10
 73
     6
 74
     0
 42
0.00000001
 43
0.00000001
 40
0.0
 40
0.0
 40
0.0
 40
0.0
 40
0.0000143666717489
 40
0.1778058615897024
 40
1.0
 40
1.0
 40
1.0
 40
1.0
 10
114.8616822051988
 20
136.1218256450501
 30
0.0
 10
114.8616683760605
 20
136.1218277524738
 30
0.0
 10
114.6905151755429
 20
136.1479098060445
 30
0.0
 10
113.730993824661
 20
136.3104478971741
 30
0.0
 10
112.7844063750419
 20
136.6413360623305
 30
0.0
 10
112.0061165410378
 20
136.9133942807625
 30
0.0
  0
SPLINE
  5
2E2
330
1F
100
AcDbEntity
  8
0
  6
Continuous
 62
     7
370
    25
100
AcDbSpline
210
0.0
220
0.0
230
1.0
 70
     8
 71
     3
 72
    10
 73
     6
 74
     0
 42
0.00000001
 43
0.00000001
 40
0.0
 40
0.0
 40
0.0
 40
0.0
 40
0.0000143666717489
 40
0.1778058615897024
 40
1.0
 40
1.0
 40
1.0
 40
1.0
 10
136.074766774393
 20
136.1218256450501
 30
0.0
 10
136.0747806035313
 20
136.1218277524738
 30
0.0
 10
136.2459338040489
 20
136.1479098060445
 30
0.0
 10
137.2054551549308
 20
136.3104478971741
 30
0.0
 10
138.1520426045499
 20
136.6413360623305
 30
0.0
 10
138.930332438554
 20
136.9133942807625
 30
0.0
  0
SPLINE
  5
2E3
330
1F
100
AcDbEntity
  8
0
  6
Continuous
 62
     7
370
    25
100
AcDbSpline
210
0.0
220
0.0
230
1.0
 70
     8
 71
     3
 72
    11
 73
     7
 74
     0
 42
0.00000001
 43
0.00000001
 40
0.0
 40
0.0
 40
0.0
 40
0.0
 40
0.03663637134736
 40
0.1273193660626557
 40
0.999979321690877
 40
1.0
 40
1.0
 40
1.0
 40
1.0
 10
133.9422411834693
 20
135.9783679296472
 30
0.0
 10
133.9702058510519
 20
135.9784016895659
 30
0.0
 10
134.0673891587277
 20
135.9785190126331
 30
0.0
 10
134.8228880304386
 20
135.9854444332556
 30
0.0
 10
135.5041314511616
 20
136.0328279042475
 30
0.0
 10
136.0747532534169
 20
136.1218235362842
 30
0.0
 10
136.074766774393
 20
136.1218256450501
 30
0.0
  0
SPLINE
  5
2E4
330
1F
100
AcDbEntity
  8
0
  6
Continuous
 62
     7
370
    25
100
AcDbSpline
210
0.0
220
0.0
230
1.0
 70
     8
 71
     3
 72
    10
 73
     6
 74
     0
 42
0.00000001
 43
0.00000001
 40
0.0
 40
0.0
 40
0.0
 40
0.0
 40
0.4063719965825439
 40
0.9791213808051908
 40
1.0
 40
1.0
 40
1.0
 40
1.0
 10
106.9480386643393
 20
145.8629979843657
 30
0.0
 10
107.4839634581236
 20
145.9269785654397
 30
0.0
 10
108.7752321196225
 20
146.081134746015
 30
0.0
 10
109.8127543150105
 20
146.4504241212247
 30
0.0
 10
110.34484209835
 20
146.7189244465014
 30
0.0
 10
110.3635562731237
 20
146.7283679296472
 30
0.0
  0
SPLINE
  5
2E5
330
1F
100
AcDbEntity
  8
0
  6
Continuous
 62
     7
370
    25
100
AcDbSpline
210
0.0
220
0.0
230
1.0
 70
     8
 71
     3
 72
    15
 73
    11
 74
     0
 42
0.00000001
 43
0.00000001
 40
0.0
 40
0.0
 40
0.0
 40
0.0
 40
0.0990110802544208
 40
0.1983006474008752
 40
0.2566299098280661
 40
0.5046434852919341
 40
0.6453599175472318
 40
0.78560972067837
 40
0.939418270108351
 40
0.9999999999999999
 40
0.9999999999999999
 40
0.9999999999999999
 40
0.9999999999999999
 10
112.0061165410378
 20
136.9133942807625
 30
0.0
 10
111.6937437710826
 20
137.0400911809876
 30
0.0
 10
111.0681196252459
 20
137.2938413397957
 30
0.0
 10
110.4623145297658
 20
137.7681229530961
 30
0.0
 10
109.6540384508836
 20
138.649156510023
 30
0.0
 10
109.050143050642
 20
139.9205386193975
 30
0.0
 10
108.5468174125538
 20
141.7586366457254
 30
0.0
 10
108.1005079734199
 20
143.4307760350551
 30
0.0
 10
107.5673213732088
 20
144.8691823723691
 30
0.0
 10
107.0844787983829
 20
145.6440409016418
 30
0.0
 10
106.9480386643393
 20
145.8629979843657
 30
0.0
  0
SPLINE
  5
2E6
330
1F
100
AcDbEntity
  8
0
  6
Continuous
 62
     7
370
    25
100
AcDbSpline
210
0.0
220
0.0
230
1.0
 70
     8
 71
     3
 72
    10
 73
     6
 74
     0
 42
0.00000001
 43
0.00000001
 40
0.0
 40
0.0
 40
0.0
 40
0.0
 40
0.4063719965825439
 40
0.9791213808051908
 40
1.0
 40
1.0
 40
1.0
 40
1.0
 10
143.9884103152526
 20
145.8629979843657
 30
0.0
 10
143.4524855214683
 20
145.9269785654397
 30
0.0
 10
142.1612168599693
 20
146.081134746015
 30
0.0
 10
141.1236946645813
 20
146.4504241212247
 30
0.0
 10
140.5916068812419
 20
146.7189244465014
 30
0.0
 10
140.5728927064681
 20
146.7283679296472
 30
0.0
  0
SPLINE
  5
2E7
330
1F
100
AcDbEntity
  8
0
  6
Continuous
 62
     7
370
    25
100
AcDbSpline
210
0.0
220
0.0
230
1.0
 70
     8
 71
     3
 72
    15
 73
    11
 74
     0
 42
0.00000001
 43
0.00000001
 40
0.0
 40
0.0
 40
0.0
 40
0.0
 40
0.0990110802544208
 40
0.1983006474008752
 40
0.2566299098280661
 40
0.5046434852919341
 40
0.6453599175472318
 40
0.78560972067837
 40
0.939418270108351
 40
0.9999999999999999
 40
0.9999999999999999
 40
0.9999999999999999
 40
0.9999999999999999
 10
138.930332438554
 20
136.9133942807625
 30
0.0
 10
139.2427052085092
 20
137.0400911809876
 30
0.0
 10
139.8683293543459
 20
137.2938413397957
 30
0.0
 10
140.474134449826
 20
137.7681229530961
 30
0.0
 10
141.2824105287083
 20
138.649156510023
 30
0.0
 10
141.8863059289498
 20
139.9205386193975
 30
0.0
 10
142.389631567038
 20
141.7586366457254
 30
0.0
 10
142.8359410061719
 20
143.4307760350551
 30
0.0
 10
143.369127606383
 20
144.8691823723691
 30
0.0
 10
143.8519701812089
 20
145.6440409016418
 30
0.0
 10
143.9884103152526
 20
145.8629979843657
 30
0.0
  0
SPLINE
  5
2E8
330
1F
100
AcDbEntity
  8
0
  6
Continuous
 62
     7
370
    25
100
AcDbSpline
210
0.0
220
0.0
230
1.0
 70
     8
 71
     3
 72
    15
 73
    11
 74
     0
 42
0.00000001
 43
0.00000001
 40
0.0
 40
0.0
 40
0.0
 40
0.0
 40
0.0624730969543656
 40
0.214395130956148
 40
0.3546356936311372
 40
0.4953428546861005
 40
0.7433400896024795
 40
0.8454851286459084
 40
0.9473869628760744
 40
1.0
 40
1.0
 40
1.0
 40
1.0
 10
143.9884103152602
 20
147.5937378749175
 30
0.0
 10
143.8479259231276
 20
147.819726037989
 30
0.0
 10
143.3658116832885
 20
148.5952720598493
 30
0.0
 10
142.8341141441155
 20
150.0331330592077
 30
0.0
 10
142.3896419600226
 20
151.6981423474182
 30
0.0
 10
141.886128272601
 20
153.5360213754292
 30
0.0
 10
141.2242066306345
 20
154.9330928312368
 30
0.0
 10
140.27951303657
 20
155.8694291715827
 30
0.0
 10
139.6016640278033
 20
156.2926776475336
 30
0.0
 10
139.1008589218617
 20
156.4796698560481
 30
0.0
 10
138.930332438554
 20
156.5433415785318
 30
0.0
  0
SPLINE
  5
2E9
330
1F
100
AcDbEntity
  8
0
  6
Continuous
 62
     7
370
    25
100
AcDbSpline
210
0.0
220
0.0
230
1.0
 70
     8
 71
     3
 72
    10
 73
     6
 74
     0
 42
0.00000001
 43
0.00000001
 40
0.0
 40
0.0
 40
0.0
 40
0.0
 40
0.0208786192184336
 40
0.5936280034167067
 40
1.0
 40
1.0
 40
1.0
 40
1.0
 10
140.5728927064681
 20
146.7283679296472
 30
0.0
 10
140.5916068812638
 20
146.7378114128006
 30
0.0
 10
141.1236946646235
 20
147.0063117379906
 30
0.0
 10
142.1612168599957
 20
147.3756011133134
 30
0.0
 10
143.4524855214715
 20
147.5297572938556
 30
0.0
 10
143.9884103152602
 20
147.5937378749175
 30
0.0
  0
SPLINE
  5
2EA
330
1F
100
AcDbEntity
  8
0
  6
Continuous
 62
     7
370
    25
100
AcDbSpline
210
0.0
220
0.0
230
1.0
 70
     8
 71
     3
 72
    10
 73
     6
 74
     0
 42
0.00000001
 43
0.00000001
 40
0.0
 40
0.0
 40
0.0
 40
0.0
 40
0.0208786192184336
 40
0.5936280034167067
 40
1.0
 40
1.0
 40
1.0
 40
1.0
 10
110.3635562731237
 20
146.7283679296472
 30
0.0
 10
110.344842098328
 20
146.7378114128006
 30
0.0
 10
109.8127543149683
 20
147.0063117379906
 30
0.0
 10
108.7752321195961
 20
147.3756011133134
 30
0.0
 10
107.4839634581203
 20
147.5297572938556
 30
0.0
 10
106.9480386643317
 20
147.5937378749175
 30
0.0
  0
SPLINE
  5
2EB
330
1F
100
AcDbEntity
  8
0
  6
Continuous
 62
     7
370
    25
100
AcDbSpline
210
0.0
220
0.0
230
1.0
 70
     8
 71
     3
 72
    15
 73
    11
 74
     0
 42
0.00000001
 43
0.00000001
 40
0.0
 40
0.0
 40
0.0
 40
0.0
 40
0.0624711033423166
 40
0.2143882892796961
 40
0.3520181159550226
 40
0.4953499144949071
 40
0.7433392354403172
 40
0.8438693769909705
 40
0.9473886418385375
 40
1.0
 40
1.0
 40
1.0
 40
1.0
 10
106.9480386643317
 20
147.5937378749175
 30
0.0
 10
107.088487945519
 20
147.8197397533212
 30
0.0
 10
107.5704816916407
 20
148.5953328434493
 30
0.0
 10
108.1001106583272
 20
150.0219081009766
 30
0.0
 10
108.5391443639893
 20
151.6906550456548
 30
0.0
 10
109.0495081315588
 20
153.5276010620476
 30
0.0
 10
109.7101542233769
 20
154.9272702638848
 30
0.0
 10
110.6527058916024
 20
155.8683572559193
 30
0.0
 10
111.3295971642111
 20
156.2904769569365
 30
0.0
 10
111.8356065025788
 20
156.4796095438998
 30
0.0
 10
112.0061165410378
 20
156.5433415785318
 30
0.0
  0
ARC
  5
2EC
330
1F
100
AcDbEntity
  8
0
  6
Continuous
 62
     7
370
    25
100
AcDbCircle
 10
207.5143225285
 20
162.7628516417
 30
0.0
 40
4.70784377696906
100
AcDbArc
 50
279.2752330304
 51
3.919444943
  0
SPLINE
  5
2ED
330
1F
100
AcDbEntity
  8
0
  6
Continuous
 62
     7
370
    25
100
AcDbSpline
210
0.0
220
0.0
230
1.0
 70
     8
 71
     3
 72
    10
 73
     6
 74
     0
 42
0.00000001
 43
0.00000001
 40
0.0
 40
0.0
 40
0.0
 40
0.0
 40
0.4002088599189572
 40
0.8141959364606278
 40
1.0
 40
1.0
 40
1.0
 40
1.0
 10
212.2111553107509
 20
163.0846510261305
 30
0.0
 10
212.705385449017
 20
163.1496897126134
 30
0.0
 10
213.7108608658635
 20
163.2820062091992
 30
0.0
 10
215.4092234468646
 20
163.6195286798047
 30
0.0
 10
216.5590146710057
 20
163.8864487642257
 30
0.0
 10
216.9151984613138
 20
163.9691356080477
 30
0.0
  0
SPLINE
  5
2EE
330
1F
100
AcDbEntity
  8
0
  6
Continuous
 62
     7
370
    25
100
AcDbSpline
210
0.0
220
0.0
230
1.0
 70
     8
 71
     3
 72
    10
 73
     6
 74
     0
 42
0.00000001
 43
0.00000001
 40
0.0
 40
0.0
 40
0.0
 40
0.0
 40
0.4002088599189572
 40
0.8141959364606278
 40
1.0
 40
1.0
 40
1.0
 40
1.0
 10
38.72529366884095
 20
163.0846510261305
 30
0.0
 10
38.23106353057483
 20
163.1496897126134
 30
0.0
 10
37.22558811372836
 20
163.2820062091992
 30
0.0
 10
35.52722553272721
 20
163.6195286798047
 30
0.0
 10
34.37743430858617
 20
163.8864487642257
 30
0.0
 10
34.02125051827805
 20
163.9691356080477
 30
0.0
  0
ARC
  5
2EF
330
1F
100
AcDbEntity
  8
0
  6
Continuous
 62
     7
370
    25
100
AcDbCircle
 10
43.4221264511
 20
162.7628516417
 30
0.0
 40
4.707843776969094
100
AcDbArc
 50
176.080555057
 51
260.7247669696
  0
SPLINE
  5
2F0
330
1F
100
AcDbEntity
  8
0
  6
Continuous
 62
     7
370
    25
100
AcDbSpline
210
0.0
220
0.0
230
1.0
 70
     8
 71
     3
 72
    10
 73
     6
 74
     0
 42
0.00000001
 43
0.00000001
 40
0.0
 40
0.0
 40
0.0
 40
0.0
 40
0.3644327143101643
 40
0.7393133379813291
 40
1.0
 40
1.0
 40
1.0
 40
1.0
 10
40.46822448979591
 20
162.8571337056682
 30
0.0
 10
40.42142100966298
 20
162.8625572353725
 30
0.0
 10
40.32647224198245
 20
162.8735597817736
 30
0.0
 10
39.6703886761047
 20
162.9513512486827
 30
0.0
 10
39.00018636344388
 20
163.0458791198873
 30
0.0
 10
38.72529366884095
 20
163.0846510261305
 30
0.0
  0
LINE
  5
2F1
330
1F
100
AcDbEntity
  8
0
  6
Continuous
 62
     7
370
    25
100
AcDbLine
 10
15.9519317224
 20
164.5783679296
 30
0.0
 11
5.4682244898
 21
164.5783679296
 31
0.0
  0
LINE
  5
2F2
330
1F
100
AcDbEntity
  8
0
  6
Continuous
 62
     7
370
    25
100
AcDbLine
 10
40.4682244898
 20
164.5783679296
 30
0.0
 11
31.6097233759
 21
164.5783679296
 31
0.0
  0
SPLINE
  5
2F3
330
1F
100
AcDbEntity
  8
0
  6
Continuous
 62
     7
370
    25
100
AcDbSpline
210
0.0
220
0.0
230
1.0
 70
     8
 71
     3
 72
    10
 73
     6
 74
     0
 42
0.00000001
 43
0.00000001
 40
0.0
 40
0.0
 40
0.0
 40
0.0
 40
0.3644327143101643
 40
0.7393133379813291
 40
1.0
 40
1.0
 40
1.0
 40
1.0
 10
210.4682244897959
 20
162.8571337056682
 30
0.0
 10
210.5150279699289
 20
162.8625572353725
 30
0.0
 10
210.6099767376094
 20
162.8735597817736
 30
0.0
 10
211.2660603034871
 20
162.9513512486827
 30
0.0
 10
211.936262616148
 20
163.0458791198873
 30
0.0
 10
212.2111553107509
 20
163.0846510261305
 30
0.0
  0
LINE
  5
2F4
330
1F
100
AcDbEntity
  8
0
  6
Continuous
 62
     7
370
    25
100
AcDbLine
 10
234.9845172572
 20
164.5783679296
 30
0.0
 11
245.4682244898
 21
164.5783679296
 31
0.0
  0
LINE
  5
2F5
330
1F
100
AcDbEntity
  8
0
  6
Continuous
 62
     7
370
    25
100
AcDbLine
 10
210.4682244898
 20
164.5783679296
 30
0.0
 11
219.3267256037
 21
164.5783679296
 31
0.0
  0
SPLINE
  5
2F6
330
1F
100
AcDbEntity
  8
0
  6
Continuous
 62
     7
370
    25
100
AcDbSpline
210
0.0
220
0.0
230
1.0
 70
     8
 71
     3
 72
    14
 73
    10
 74
     0
 42
0.00000001
 43
0.00000001
 40
0.0
 40
0.0
 40
0.0
 40
0.0
 40
0.0775874509216356
 40
0.2380689796925639
 40
0.3974394589781019
 40
0.556586478420722
 40
0.7171454215330912
 40
0.8754637309214426
 40
1.0
 40
1.0
 40
1.0
 40
1.0
 10
228.0406610130348
 20
169.1308820165792
 30
0.0
 10
227.4405881300596
 20
169.1184924677385
 30
0.0
 10
225.59932723936
 20
169.0804764327186
 30
0.0
 10
222.589800588812
 20
169.0137442615996
 30
0.0
 10
219.3054073964223
 20
168.9361624681135
 30
0.0
 10
216.555684237729
 20
168.8590919858074
 30
0.0
 10
214.5575272911545
 20
168.7785793255143
 30
0.0
 10
213.3834189461095
 20
168.7090173342142
 30
0.0
 10
213.3306168784897
 20
168.6619313244536
 30
0.0
 10
213.3073689871647
 20
168.6412001204082
 30
0.0
  0
SPLINE
  5
2F7
330
1F
100
AcDbEntity
  8
0
  6
Continuous
 62
     7
370
    25
100
AcDbSpline
210
0.0
220
0.0
230
1.0
 70
     8
 71
     3
 72
    20
 73
    16
 74
     0
 42
0.00000001
 43
0.00000001
 40
0.0
 40
0.0
 40
0.0
 40
0.0
 40
0.0467053052147077
 40
0.1269356768893559
 40
0.2082566777875781
 40
0.28903192820642
 40
0.3696695569844121
 40
0.4510385057644767
 40
0.5312691196366315
 40
0.612588865226843
 40
0.6933671828817978
 40
0.7740018283355461
 40
0.8553717010536286
 40
0.9356025681312367
 40
0.9999999999999999
 40
0.9999999999999999
 40
0.9999999999999999
 40
0.9999999999999999
 10
242.5865894461334
 20
167.652911459324
 30
0.0
 10
242.5764006035812
 20
167.6375720868685
 30
0.0
 10
242.548709367647
 20
167.5958827409421
 30
0.0
 10
241.4784513453148
 20
167.5315025080683
 30
0.0
 10
239.5440907777763
 20
167.4512109121689
 30
0.0
 10
236.8353059007788
 20
167.3735811312165
 30
0.0
 10
233.5815319975866
 20
167.296564668068
 30
0.0
 10
229.9784230274447
 20
167.2160232606645
 30
0.0
 10
226.2414692955515
 20
167.1408470882736
 30
0.0
 10
222.6194753570152
 20
167.0605836141329
 30
0.0
 10
219.3311006925352
 20
166.9829348409771
 30
0.0
 10
216.576226923106
 20
166.9059309391299
 30
0.0
 10
214.5707157659999
 20
166.8253928304645
 30
0.0
 10
213.3853557731793
 20
166.7554211987528
 30
0.0
 10
213.3284464563824
 20
166.7079162156051
 30
0.0
 10
213.3031069213272
 20
166.6867640694624
 30
0.0
  0
SPLINE
  5
2F8
330
1F
100
AcDbEntity
  8
0
  6
Continuous
 62
     7
370
    25
100
AcDbSpline
210
0.0
220
0.0
230
1.0
 70
     8
 71
     3
 72
    20
 73
    16
 74
     0
 42
0.00000001
 43
0.00000001
 40
0.0
 40
0.0
 40
0.0
 40
0.0
 40
0.0492954137071312
 40
0.1294900006585551
 40
0.2107948819156823
 40
0.2914895374865834
 40
0.3721394942123257
 40
0.4534596237414161
 40
0.5336542877149117
 40
0.6149580246225443
 40
0.695655851385004
 40
0.7763026648728896
 40
0.857623828353516
 40
0.937818580352118
 40
1.0
 40
1.0
 40
1.0
 40
1.0
 10
243.6391691442329
 20
168.2640415107288
 30
0.0
 10
243.6235058486816
 20
168.247846785374
 30
0.0
 10
243.5823612472123
 20
168.2053062153868
 30
0.0
 10
242.4063269307347
 20
168.1401146331207
 30
0.0
 10
240.3097290723578
 20
168.0597256552676
 30
0.0
 10
237.3894951631673
 20
167.9823071217588
 30
0.0
 10
233.8899444563145
 20
167.9050836306464
 30
0.0
 10
230.0214428942885
 20
167.8246265252872
 30
0.0
 10
226.0162510062449
 20
167.7494617388737
 30
0.0
 10
222.1410723785492
 20
167.6690976943083
 30
0.0
 10
218.6288235060281
 20
167.5916605009707
 30
0.0
 10
215.6934008059641
 20
167.5144501257972
 30
0.0
 10
213.5666347935109
 20
167.4339956107579
 30
0.0
 10
212.3263972243009
 20
167.3647192226543
 30
0.0
 10
212.2793138175198
 20
167.3179176646484
 30
0.0
 10
212.2587505937608
 20
167.2974775356234
 30
0.0
  0
SPLINE
  5
2F9
330
1F
100
AcDbEntity
  8
0
  6
Continuous
 62
     7
370
    25
100
AcDbSpline
210
0.0
220
0.0
230
1.0
 70
     8
 71
     3
 72
    13
 73
     9
 74
     0
 42
0.00000001
 43
0.00000001
 40
0.0
 40
0.0
 40
0.0
 40
0.0
 40
0.1456674500854468
 40
0.3243652381006684
 40
0.5028124666658672
 40
0.682842846877228
 40
0.8603608653762483
 40
0.9999999999999999
 40
0.9999999999999999
 40
0.9999999999999999
 40
0.9999999999999999
 10
20.5577431903306
 20
169.0783679296472
 30
0.0
 10
19.56966248268096
 20
169.0568657229572
 30
0.0
 10
17.36945211439717
 20
169.0089856482487
 30
0.0
 10
14.30852453150014
 20
168.9361066082866
 30
0.0
 10
11.55484066579349
 20
168.8591071028238
 30
0.0
 10
9.557751370661894
 20
168.7785753099544
 30
0.0
 10
8.383376888039127
 20
168.7090180879052
 30
0.0
 10
8.330604021658944
 20
168.6619315548512
 30
0.0
 10
8.307368987164637
 20
168.6412001204082
 30
0.0
  0
SPLINE
  5
2FA
330
1F
100
AcDbEntity
  8
0
  6
Continuous
 62
     7
370
    25
100
AcDbSpline
210
0.0
220
0.0
230
1.0
 70
     8
 71
     3
 72
    20
 73
    16
 74
     0
 42
0.00000001
 43
0.00000001
 40
0.0
 40
0.0
 40
0.0
 40
0.0
 40
0.0467053052147066
 40
0.1269356768893554
 40
0.2082566777875779
 40
0.2890319282064195
 40
0.3696695569844123
 40
0.4510385057644761
 40
0.5312691196366316
 40
0.6125888652268424
 40
0.6933671828817982
 40
0.7740018283355469
 40
0.8553717010536295
 40
0.9356025681312379
 40
1.0
 40
1.0
 40
1.0
 40
1.0
 10
37.58658944613342
 20
167.6529114593239
 30
0.0
 10
37.57640060358126
 20
167.6375720868685
 30
0.0
 10
37.54870936764705
 20
167.595882740942
 30
0.0
 10
36.47845134531467
 20
167.5315025080682
 30
0.0
 10
34.54409077777634
 20
167.4512109121688
 30
0.0
 10
31.83530590077881
 20
167.3735811312165
 30
0.0
 10
28.58153199758653
 20
167.296564668068
 30
0.0
 10
24.97842302744471
 20
167.2160232606645
 30
0.0
 10
21.24146929555152
 20
167.1408470882735
 30
0.0
 10
17.61947535701523
 20
167.0605836141329
 30
0.0
 10
14.33110069253521
 20
166.982934840977
 30
0.0
 10
11.57622692310605
 20
166.9059309391298
 30
0.0
 10
9.570715765999992
 20
166.8253928304644
 30
0.0
 10
8.38535577317931
 20
166.7554211987528
 30
0.0
 10
8.328446456382407
 20
166.7079162156051
 30
0.0
 10
8.303106921327213
 20
166.6867640694624
 30
0.0
  0
SPLINE
  5
2FB
330
1F
100
AcDbEntity
  8
0
  6
Continuous
 62
     7
370
    25
100
AcDbSpline
210
0.0
220
0.0
230
1.0
 70
     8
 71
     3
 72
    20
 73
    16
 74
     0
 42
0.00000001
 43
0.00000001
 40
0.0
 40
0.0
 40
0.0
 40
0.0
 40
0.0492954137071312
 40
0.1294900006585549
 40
0.2107948819156824
 40
0.2914895374865835
 40
0.3721394942123261
 40
0.4534596237414162
 40
0.5336542877149119
 40
0.6149580246225441
 40
0.6956558513850035
 40
0.7763026648728902
 40
0.8576238283535161
 40
0.937818580352118
 40
1.0
 40
1.0
 40
1.0
 40
1.0
 10
38.63916914423286
 20
168.2640415107287
 30
0.0
 10
38.62350584868162
 20
168.247846785374
 30
0.0
 10
38.58236124721233
 20
168.2053062153868
 30
0.0
 10
37.40632693073473
 20
168.1401146331207
 30
0.0
 10
35.30972907235784
 20
168.0597256552676
 30
0.0
 10
32.38949516316732
 20
167.9823071217588
 30
0.0
 10
28.8899444563145
 20
167.9050836306463
 30
0.0
 10
25.02144289428854
 20
167.8246265252871
 30
0.0
 10
21.01625100624494
 20
167.7494617388737
 30
0.0
 10
17.14107237854921
 20
167.6690976943083
 30
0.0
 10
13.62882350602813
 20
167.5916605009706
 30
0.0
 10
10.69340080596407
 20
167.5144501257971
 30
0.0
 10
8.5666347935109
 20
167.4339956107579
 30
0.0
 10
7.32639722430102
 20
167.3647192226543
 30
0.0
 10
7.279313817519798
 20
167.3179176646484
 30
0.0
 10
7.258750593760813
 20
167.2974775356234
 30
0.0
  0
SPLINE
  5
2FC
330
1F
100
AcDbEntity
  8
0
  6
Continuous
 62
     7
370
    25
100
AcDbSpline
210
0.0
220
0.0
230
1.0
 70
     8
 71
     3
 72
    20
 73
    16
 74
     0
 42
0.00000001
 43
0.00000001
 40
0.0
 40
0.0
 40
0.0
 40
0.0
 40
0.0601614705731077
 40
0.1394963570041153
 40
0.2199354071480279
 40
0.2997494301906061
 40
0.3795507309717567
 40
0.4599940911317563
 40
0.53932899933373
 40
0.6197669537721789
 40
0.6995841488052377
 40
0.7793822868139798
 40
0.8598267062736493
 40
0.9391616471320567
 40
1.0
 40
1.0
 40
1.0
 40
1.0
 10
243.6732903589423
 20
168.5188714617697
 30
0.0
 10
243.6568973799055
 20
168.4988770834053
 30
0.0
 10
243.6188869916237
 20
168.4525161331854
 30
0.0
 10
242.3981864917586
 20
168.3836682389343
 30
0.0
 10
240.2864984750269
 20
168.3032749503303
 30
0.0
 10
237.3625301949696
 20
168.2259210180024
 30
0.0
 10
233.858369539929
 20
168.1486280142666
 30
0.0
 10
229.9877274009102
 20
168.068200652042
 30
0.0
 10
225.9824776635574
 20
167.9930372409052
 30
0.0
 10
222.1095632107852
 20
167.9126411422286
 30
0.0
 10
218.6013485585015
 20
167.8352757942792
 30
0.0
 10
215.6716474448894
 20
167.7579941602346
 30
0.0
 10
213.552414379304
 20
167.6775697504085
 30
0.0
 10
212.3219688401249
 20
167.608508159695
 30
0.0
 10
212.2794462738112
 20
167.5619266837132
 30
0.0
 10
212.2609905264611
 20
167.5417092785459
 30
0.0
  0
SPLINE
  5
2FD
330
1F
100
AcDbEntity
  8
0
  6
Continuous
 62
     7
370
    25
100
AcDbSpline
210
0.0
220
0.0
230
1.0
 70
     8
 71
     3
 72
    20
 73
    16
 74
     0
 42
0.00000001
 43
0.00000001
 40
0.0
 40
0.0
 40
0.0
 40
0.0
 40
0.0601614705731077
 40
0.1394963570041153
 40
0.2199354071480278
 40
0.299749430190606
 40
0.3795507309717566
 40
0.4599940911317562
 40
0.5393289993337298
 40
0.6197669537721787
 40
0.6995841488052374
 40
0.7793822868139796
 40
0.8598267062736491
 40
0.9391616471320564
 40
1.0
 40
1.0
 40
1.0
 40
1.0
 10
243.6732903589424
 20
166.5650253079235
 30
0.0
 10
243.6568973799055
 20
166.5450309295591
 30
0.0
 10
243.6188869916237
 20
166.4986699793392
 30
0.0
 10
242.3981864917585
 20
166.4298220850882
 30
0.0
 10
240.2864984750269
 20
166.3494287964841
 30
0.0
 10
237.3625301949696
 20
166.2720748641563
 30
0.0
 10
233.858369539929
 20
166.1947818604204
 30
0.0
 10
229.9877274009102
 20
166.1143544981959
 30
0.0
 10
225.9824776635574
 20
166.039191087059
 30
0.0
 10
222.1095632107852
 20
165.9587949883825
 30
0.0
 10
218.6013485585015
 20
165.881429640433
 30
0.0
 10
215.6716474448894
 20
165.8041480063884
 30
0.0
 10
213.552414379304
 20
165.7237235965623
 30
0.0
 10
212.3219688401249
 20
165.6546620058489
 30
0.0
 10
212.2794462738112
 20
165.608080529867
 30
0.0
 10
212.2609905264611
 20
165.5878631246998
 30
0.0
  0
SPLINE
  5
2FE
330
1F
100
AcDbEntity
  8
0
  6
Continuous
 62
     7
370
    25
100
AcDbSpline
210
0.0
220
0.0
230
1.0
 70
     8
 71
     3
 72
    20
 73
    16
 74
     0
 42
0.00000001
 43
0.00000001
 40
0.0
 40
0.0
 40
0.0
 40
0.0
 40
0.0069327926237894
 40
0.0916740377128098
 40
0.1775748630459899
 40
0.26287642664223
 40
0.348064860093189
 40
0.4340048224471654
 40
0.5187462652381231
 40
0.6046458034177772
 40
0.6899506441699992
 40
0.7751358694072937
 40
0.861076846654806
 40
0.945818498776565
 40
1.0
 40
1.0
 40
1.0
 40
1.0
 10
242.4826173008827
 20
169.0783679296472
 30
0.0
 10
242.4778610409575
 20
169.0762246779293
 30
0.0
 10
242.4149678353739
 20
169.0478839284692
 30
0.0
 10
241.4293782629541
 20
168.9963752402221
 30
0.0
 10
239.5337112205948
 20
168.9158700769318
 30
0.0
 10
236.8072888605269
 20
168.8383582481279
 30
0.0
 10
233.5529436690021
 20
168.7612610539792
 30
0.0
 10
229.946776720488
 20
168.6807502576347
 30
0.0
 10
226.2100246964852
 20
168.6055779890069
 30
0.0
 10
222.5898686472243
 20
168.5252811431889
 30
0.0
 10
219.3057798526198
 20
168.4477000050376
 30
0.0
 10
216.5541515631738
 20
168.3706364592153
 30
0.0
 10
214.5633311855517
 20
168.2900953409307
 30
0.0
 10
213.4270726870218
 20
168.2242834652824
 30
0.0
 10
213.3685215089674
 20
168.1811174701811
 30
0.0
 10
213.3456859293754
 20
168.1642822748946
 30
0.0
  0
SPLINE
  5
2FF
330
1F
100
AcDbEntity
  8
0
  6
Continuous
 62
     7
370
    25
100
AcDbSpline
210
0.0
220
0.0
230
1.0
 70
     8
 71
     3
 72
    20
 73
    16
 74
     0
 42
0.00000001
 43
0.00000001
 40
0.0
 40
0.0
 40
0.0
 40
0.0
 40
0.0586430183425418
 40
0.1389133548943732
 40
0.2202748622565348
 40
0.3010903522512491
 40
0.3817681450427958
 40
0.4631776266861157
 40
0.5434482055815706
 40
0.6248084569358499
 40
0.7056270158474759
 40
0.7863018236846102
 40
0.8677122297659154
 40
0.9479830620195796
 40
1.0
 40
1.0
 40
1.0
 40
1.0
 10
242.6159451463995
 20
167.1760988503846
 30
0.0
 10
242.6080535673894
 20
167.1568291897697
 30
0.0
 10
242.5893600255715
 20
167.111183292281
 30
0.0
 10
241.4847628230668
 20
167.0430163886317
 30
0.0
 10
239.5424081265931
 20
166.962756145174
 30
0.0
 10
236.8357610560224
 20
166.8851179744827
 30
0.0
 10
233.5814193132335
 20
166.8081037580544
 30
0.0
 10
229.9784543598155
 20
166.727561783234
 30
0.0
 10
226.2414986896003
 20
166.6523856201155
 30
0.0
 10
222.6193690406637
 20
166.5721226809773
 30
0.0
 10
219.3315344642074
 20
166.4944717907372
 30
0.0
 10
216.5746308945095
 20
166.4174757886962
 30
0.0
 10
214.5767201753046
 20
166.3369081361911
 30
0.0
 10
213.4316626179781
 20
166.2708739032437
 30
0.0
 10
213.3691379844987
 20
166.2274847414098
 30
0.0
 10
213.3445526431918
 20
166.2104236681439
 30
0.0
  0
SPLINE
  5
300
330
1F
100
AcDbEntity
  8
0
  6
Continuous
 62
     7
370
    25
100
AcDbSpline
210
0.0
220
0.0
230
1.0
 70
     8
 71
     3
 72
    20
 73
    16
 74
     0
 42
0.00000001
 43
0.00000001
 40
0.0
 40
0.0
 40
0.0
 40
0.0
 40
0.0601614705731077
 40
0.1394963570041153
 40
0.2199354071480276
 40
0.299749430190606
 40
0.3795507309717569
 40
0.4599940911317567
 40
0.5393289993337301
 40
0.6197669537721785
 40
0.6995841488052373
 40
0.77938228681398
 40
0.8598267062736493
 40
0.9391616471320567
 40
1.0
 40
1.0
 40
1.0
 40
1.0
 10
38.67329035894235
 20
168.5188714617696
 30
0.0
 10
38.65689737990551
 20
168.4988770834052
 30
0.0
 10
38.61888699162375
 20
168.4525161331853
 30
0.0
 10
37.39818649175857
 20
168.3836682389343
 30
0.0
 10
35.28649847502692
 20
168.3032749503302
 30
0.0
 10
32.36253019496959
 20
168.2259210180023
 30
0.0
 10
28.85836953992903
 20
168.1486280142665
 30
0.0
 10
24.98772740091018
 20
168.068200652042
 30
0.0
 10
20.98247766355747
 20
167.9930372409051
 30
0.0
 10
17.10956321078526
 20
167.9126411422286
 30
0.0
 10
13.60134855850152
 20
167.8352757942791
 30
0.0
 10
10.67164744488938
 20
167.7579941602345
 30
0.0
 10
8.552414379304027
 20
167.6775697504085
 30
0.0
 10
7.32196884012494
 20
167.608508159695
 30
0.0
 10
7.279446273811232
 20
167.5619266837132
 30
0.0
 10
7.260990526461147
 20
167.5417092785459
 30
0.0
  0
SPLINE
  5
301
330
1F
100
AcDbEntity
  8
0
  6
Continuous
 62
     7
370
    25
100
AcDbSpline
210
0.0
220
0.0
230
1.0
 70
     8
 71
     3
 72
    20
 73
    16
 74
     0
 42
0.00000001
 43
0.00000001
 40
0.0
 40
0.0
 40
0.0
 40
0.0
 40
0.0601614705731077
 40
0.1394963570041153
 40
0.2199354071480275
 40
0.299749430190606
 40
0.3795507309717567
 40
0.4599940911317565
 40
0.5393289993337299
 40
0.6197669537721783
 40
0.6995841488052371
 40
0.7793822868139797
 40
0.8598267062736491
 40
0.9391616471320564
 40
1.0
 40
1.0
 40
1.0
 40
1.0
 10
38.67329035894233
 20
166.5650253079235
 30
0.0
 10
38.65689737990547
 20
166.5450309295591
 30
0.0
 10
38.61888699162368
 20
166.4986699793392
 30
0.0
 10
37.39818649175861
 20
166.4298220850881
 30
0.0
 10
35.2864984750269
 20
166.3494287964841
 30
0.0
 10
32.36253019496962
 20
166.2720748641562
 30
0.0
 10
28.85836953992901
 20
166.1947818604204
 30
0.0
 10
24.98772740091018
 20
166.1143544981958
 30
0.0
 10
20.98247766355746
 20
166.039191087059
 30
0.0
 10
17.10956321078526
 20
165.9587949883824
 30
0.0
 10
13.60134855850154
 20
165.881429640433
 30
0.0
 10
10.67164744488931
 20
165.8041480063884
 30
0.0
 10
8.552414379304096
 20
165.7237235965623
 30
0.0
 10
7.321968840124899
 20
165.6546620058488
 30
0.0
 10
7.279446273811232
 20
165.608080529867
 30
0.0
 10
7.260990526461147
 20
165.5878631246998
 30
0.0
  0
SPLINE
  5
302
330
1F
100
AcDbEntity
  8
0
  6
Continuous
 62
     7
370
    25
100
AcDbSpline
210
0.0
220
0.0
230
1.0
 70
     8
 71
     3
 72
    20
 73
    16
 74
     0
 42
0.00000001
 43
0.00000001
 40
0.0
 40
0.0
 40
0.0
 40
0.0
 40
0.0069327926238518
 40
0.0916740377128666
 40
0.1775748630460416
 40
0.2628764266422763
 40
0.3480648600932298
 40
0.4340048224472006
 40
0.5187462652381528
 40
0.604645803417801
 40
0.689950644170018
 40
0.775135869407307
 40
0.8610768466548142
 40
0.9458184987765672
 40
1.0
 40
1.0
 40
1.0
 40
1.0
 10
37.4826173008829
 20
169.0783679296472
 30
0.0
 10
37.47786104095766
 20
169.0762246779293
 30
0.0
 10
37.41496783537426
 20
169.0478839284692
 30
0.0
 10
36.42937826295417
 20
168.9963752402221
 30
0.0
 10
34.53371122059483
 20
168.9158700769317
 30
0.0
 10
31.80728886052686
 20
168.8383582481279
 30
0.0
 10
28.55294366900206
 20
168.7612610539791
 30
0.0
 10
24.94677672048799
 20
168.6807502576347
 30
0.0
 10
21.21002469648524
 20
168.6055779890068
 30
0.0
 10
17.58986864722434
 20
168.5252811431889
 30
0.0
 10
14.30577985261976
 20
168.4477000050375
 30
0.0
 10
11.55415156317387
 20
168.3706364592153
 30
0.0
 10
9.563331185551652
 20
168.2900953409307
 30
0.0
 10
8.42707268702181
 20
168.2242834652824
 30
0.0
 10
8.368521508967413
 20
168.1811174701811
 30
0.0
 10
8.345685929375401
 20
168.1642822748946
 30
0.0
  0
SPLINE
  5
303
330
1F
100
AcDbEntity
  8
0
  6
Continuous
 62
     7
370
    25
100
AcDbSpline
210
0.0
220
0.0
230
1.0
 70
     8
 71
     3
 72
    20
 73
    16
 74
     0
 42
0.00000001
 43
0.00000001
 40
0.0
 40
0.0
 40
0.0
 40
0.0
 40
0.0586430183425439
 40
0.1389133548943752
 40
0.2202748622565359
 40
0.3010903522512511
 40
0.381768145042797
 40
0.4631776266861168
 40
0.5434482055815709
 40
0.624808456935851
 40
0.7056270158474766
 40
0.7863018236846104
 40
0.8677122297659158
 40
0.9479830620195797
 40
1.0
 40
1.0
 40
1.0
 40
1.0
 10
37.61594514639952
 20
167.1760988503845
 30
0.0
 10
37.6080535673894
 20
167.1568291897696
 30
0.0
 10
37.58936002557154
 20
167.111183292281
 30
0.0
 10
36.48476282306682
 20
167.0430163886317
 30
0.0
 10
34.54240812659314
 20
166.962756145174
 30
0.0
 10
31.83576105602238
 20
166.8851179744827
 30
0.0
 10
28.58141931323348
 20
166.8081037580543
 30
0.0
 10
24.97845435981554
 20
166.7275617832339
 30
0.0
 10
21.24149868960033
 20
166.6523856201154
 30
0.0
 10
17.61936904066369
 20
166.5721226809773
 30
0.0
 10
14.33153446420747
 20
166.4944717907372
 30
0.0
 10
11.57463089450953
 20
166.4174757886962
 30
0.0
 10
9.57672017530449
 20
166.3369081361911
 30
0.0
 10
8.43166261797805
 20
166.2708739032437
 30
0.0
 10
8.369137984498717
 20
166.2274847414097
 30
0.0
 10
8.344552643191768
 20
166.2104236681439
 30
0.0
  0
ARC
  5
304
330
1F
100
AcDbEntity
  8
0
  6
Continuous
 62
     7
370
    25
100
AcDbCircle
 10
124.3407325172
 20
146.7283679297
 30
0.0
 40
17.41420869871999
100
AcDbArc
 50
177.151609029
 51
182.8483909715
  0
ARC
  5
305
330
1F
100
AcDbEntity
  8
0
  6
Continuous
 62
     7
370
    25
100
AcDbCircle
 10
126.5957164624
 20
146.7283679297
 30
0.0
 40
17.41420869872194
100
AcDbArc
 50
357.1516090285
 51
2.848390971
  0
SPLINE
  5
306
330
1F
100
AcDbEntity
  8
0
  6
Continuous
 62
     7
370
    25
100
AcDbSpline
210
0.0
220
0.0
230
1.0
 70
    24
 71
     3
 72
    10
 73
     6
 74
     0
 42
0.00000001
 43
0.00000001
 40
0.0
 40
0.0
 40
0.0
 40
0.0
 40
0.3294727588569358
 40
0.6629978812425853
 40
1.0
 40
1.0
 40
1.0
 40
1.0
 10
53.94301262466444
 20
157.4783679296472
 30
0.0
 10
55.43656358024959
 20
157.4783679296472
 30
0.0
 10
58.44203548183029
 20
157.4783679296472
 30
0.0
 10
63.15564661900486
 20
157.4783679296471
 30
0.0
 10
66.35225558670321
 20
157.4783679296472
 30
0.0
 10
67.95884802449422
 20
157.4783679296472
 30
0.0
  0
SPLINE
  5
307
330
1F
100
AcDbEntity
  8
0
  6
Continuous
 62
     7
370
    25
100
AcDbSpline
210
0.0
220
0.0
230
1.0
 70
    24
 71
     3
 72
    15
 73
    11
 74
     0
 42
0.00000001
 43
0.00000001
 40
0.0
 40
0.0
 40
0.0
 40
0.0
 40
0.1250000000000002
 40
0.2500000000000003
 40
0.3749999999999998
 40
0.5
 40
0.6250000000000001
 40
0.7499999999999997
 40
0.8749999999999999
 40
1.0
 40
1.0
 40
1.0
 40
1.0
 10
67.95884802449422
 20
157.4783679296472
 30
0.0
 10
67.95884802449422
 20
157.4383595285332
 30
0.0
 10
67.9588480244942
 20
157.3583427263052
 30
0.0
 10
67.95884802449423
 20
156.7191193290236
 30
0.0
 10
67.95884802449422
 20
155.7256173824616
 30
0.0
 10
67.9588480244942
 20
154.378408712527
 30
0.0
 10
67.95884802449422
 20
152.7393427318457
 30
0.0
 10
67.95884802449422
 20
150.8687079677378
 30
0.0
 10
67.95884802449422
 20
148.8391143626346
 30
0.0
 10
67.95884802449423
 20
147.4319500739763
 30
0.0
 10
67.95884802449422
 20
146.7283679296472
 30
0.0
  0
SPLINE
  5
308
330
1F
100
AcDbEntity
  8
0
  6
Continuous
 62
     7
370
    25
100
AcDbSpline
210
0.0
220
0.0
230
1.0
 70
    24
 71
     3
 72
     9
 73
     5
 74
     0
 42
0.00000001
 43
0.00000001
 40
0.0
 40
0.0
 40
0.0
 40
0.0
 40
0.5056315204548575
 40
1.0
 40
1.0
 40
1.0
 40
1.0
 10
67.95884802449422
 20
146.7283679296472
 30
0.0
 10
66.17894718689205
 20
146.7283679296472
 30
0.0
 10
62.65879315060689
 20
146.7283679296472
 30
0.0
 10
59.30061769112269
 20
146.7283679296472
 30
0.0
 10
57.64044159517168
 20
146.7283679296472
 30
0.0
  0
SPLINE
  5
309
330
1F
100
AcDbEntity
  8
0
  6
Continuous
 62
     7
370
    25
100
AcDbSpline
210
0.0
220
0.0
230
1.0
 70
    24
 71
     3
 72
    10
 73
     6
 74
     0
 42
0.00000001
 43
0.00000001
 40
0.0
 40
0.0
 40
0.0
 40
0.0
 40
0.3294727588569358
 40
0.6629978812425853
 40
1.0
 40
1.0
 40
1.0
 40
1.0
 10
196.9934363549274
 20
135.9783679296472
 30
0.0
 10
195.4998853993422
 20
135.9783679296472
 30
0.0
 10
192.4944134977615
 20
135.9783679296472
 30
0.0
 10
187.780802360587
 20
135.9783679296472
 30
0.0
 10
184.5841933928886
 20
135.9783679296472
 30
0.0
 10
182.9776009550976
 20
135.9783679296472
 30
0.0
  0
SPLINE
  5
30A
330
1F
100
AcDbEntity
  8
0
  6
Continuous
 62
     7
370
    25
100
AcDbSpline
210
0.0
220
0.0
230
1.0
 70
    24
 71
     3
 72
    15
 73
    11
 74
     0
 42
0.00000001
 43
0.00000001
 40
0.0
 40
0.0
 40
0.0
 40
0.0
 40
0.1250000000000002
 40
0.2500000000000003
 40
0.3749999999999998
 40
0.5
 40
0.6250000000000001
 40
0.7499999999999997
 40
0.8749999999999999
 40
1.0
 40
1.0
 40
1.0
 40
1.0
 10
182.9776009550976
 20
135.9783679296472
 30
0.0
 10
182.9776009550976
 20
136.0183763307612
 30
0.0
 10
182.9776009550976
 20
136.0983931329892
 30
0.0
 10
182.9776009550976
 20
136.7376165302708
 30
0.0
 10
182.9776009550976
 20
137.7311184768327
 30
0.0
 10
182.9776009550976
 20
139.0783271467673
 30
0.0
 10
182.9776009550976
 20
140.7173931274487
 30
0.0
 10
182.9776009550976
 20
142.5880278915565
 30
0.0
 10
182.9776009550976
 20
144.6176214966598
 30
0.0
 10
182.9776009550976
 20
146.024785785318
 30
0.0
 10
182.9776009550976
 20
146.7283679296472
 30
0.0
  0
SPLINE
  5
30B
330
1F
100
AcDbEntity
  8
0
  6
Continuous
 62
     7
370
    25
100
AcDbSpline
210
0.0
220
0.0
230
1.0
 70
    24
 71
     3
 72
     9
 73
     5
 74
     0
 42
0.00000001
 43
0.00000001
 40
0.0
 40
0.0
 40
0.0
 40
0.0
 40
0.5056315204548575
 40
1.0
 40
1.0
 40
1.0
 40
1.0
 10
182.9776009550976
 20
146.7283679296472
 30
0.0
 10
184.7575017926998
 20
146.7283679296472
 30
0.0
 10
188.2776558289849
 20
146.7283679296472
 30
0.0
 10
191.6358312884691
 20
146.7283679296472
 30
0.0
 10
193.2960073844202
 20
146.7283679296472
 30
0.0
  0
SPLINE
  5
30C
330
1F
100
AcDbEntity
  8
0
  6
Continuous
 62
     7
370
    25
100
AcDbSpline
210
0.0
220
0.0
230
1.0
 70
    24
 71
     3
 72
    15
 73
    11
 74
     0
 42
0.00000001
 43
0.00000001
 40
0.0
 40
0.0
 40
0.0
 40
0.0
 40
0.1250000000000001
 40
0.2500000000000002
 40
0.3750000000000002
 40
0.5000000000000001
 40
0.6250000000000001
 40
0.7500000000000001
 40
0.8750000000000001
 40
1.0
 40
1.0
 40
1.0
 40
1.0
 10
182.9776009550976
 20
157.4783679296472
 30
0.0
 10
182.9776009550976
 20
157.4383595285332
 30
0.0
 10
182.9776009550976
 20
157.3583427263052
 30
0.0
 10
182.9776009550976
 20
156.7191193290236
 30
0.0
 10
182.9776009550976
 20
155.7256173824616
 30
0.0
 10
182.9776009550976
 20
154.378408712527
 30
0.0
 10
182.9776009550976
 20
152.7393427318457
 30
0.0
 10
182.9776009550976
 20
150.8687079677378
 30
0.0
 10
182.9776009550976
 20
148.8391143626346
 30
0.0
 10
182.9776009550976
 20
147.4319500739763
 30
0.0
 10
182.9776009550976
 20
146.7283679296472
 30
0.0
  0
SPLINE
  5
30D
330
1F
100
AcDbEntity
  8
0
  6
Continuous
 62
     7
370
    25
100
AcDbSpline
210
0.0
220
0.0
230
1.0
 70
    24
 71
     3
 72
    10
 73
     6
 74
     0
 42
0.00000001
 43
0.00000001
 40
0.0
 40
0.0
 40
0.0
 40
0.0
 40
0.3294727588569358
 40
0.6629978812425853
 40
1.0
 40
1.0
 40
1.0
 40
1.0
 10
196.9934363549274
 20
157.4783679296472
 30
0.0
 10
195.4998853993422
 20
157.4783679296472
 30
0.0
 10
192.4944134977615
 20
157.4783679296472
 30
0.0
 10
187.780802360587
 20
157.4783679296471
 30
0.0
 10
184.5841933928886
 20
157.4783679296472
 30
0.0
 10
182.9776009550976
 20
157.4783679296472
 30
0.0
  0
SPLINE
  5
30E
330
1F
100
AcDbEntity
  8
0
  6
Continuous
 62
     7
370
    25
100
AcDbSpline
210
0.0
220
0.0
230
1.0
 70
    24
 71
     3
 72
    15
 73
    11
 74
     0
 42
0.00000001
 43
0.00000001
 40
0.0
 40
0.0
 40
0.0
 40
0.0
 40
0.1250000000000001
 40
0.2500000000000002
 40
0.3750000000000002
 40
0.5000000000000001
 40
0.6250000000000001
 40
0.7500000000000001
 40
0.8750000000000001
 40
1.0
 40
1.0
 40
1.0
 40
1.0
 10
67.95884802449422
 20
135.9783679296472
 30
0.0
 10
67.95884802449423
 20
136.0183763307612
 30
0.0
 10
67.9588480244942
 20
136.0983931329892
 30
0.0
 10
67.95884802449422
 20
136.7376165302708
 30
0.0
 10
67.95884802449422
 20
137.7311184768327
 30
0.0
 10
67.95884802449423
 20
139.0783271467673
 30
0.0
 10
67.95884802449423
 20
140.7173931274487
 30
0.0
 10
67.95884802449422
 20
142.5880278915565
 30
0.0
 10
67.95884802449422
 20
144.6176214966598
 30
0.0
 10
67.9588480244942
 20
146.024785785318
 30
0.0
 10
67.95884802449422
 20
146.7283679296472
 30
0.0
  0
SPLINE
  5
30F
330
1F
100
AcDbEntity
  8
0
  6
Continuous
 62
     7
370
    25
100
AcDbSpline
210
0.0
220
0.0
230
1.0
 70
    24
 71
     3
 72
    10
 73
     6
 74
     0
 42
0.00000001
 43
0.00000001
 40
0.0
 40
0.0
 40
0.0
 40
0.0
 40
0.3294727588569358
 40
0.6629978812425853
 40
1.0
 40
1.0
 40
1.0
 40
1.0
 10
53.94301262466444
 20
135.9783679296472
 30
0.0
 10
55.43656358024959
 20
135.9783679296472
 30
0.0
 10
58.44203548183029
 20
135.9783679296472
 30
0.0
 10
63.15564661900486
 20
135.9783679296472
 30
0.0
 10
66.35225558670321
 20
135.9783679296472
 30
0.0
 10
67.95884802449422
 20
135.9783679296472
 30
0.0
  0
ARC
  5
310
330
1F
100
AcDbEntity
  8
0
  6
Continuous
 62
     7
370
    25
100
AcDbCircle
 10
138.8499472704
 20
133.2184850262
 30
0.0
 40
3.695783567042528
100
AcDbArc
 50
71.647830712
 51
88.7536894373
  0
SPLINE
  5
311
330
1F
100
AcDbEntity
  8
0
  6
Continuous
 62
     7
370
    25
100
AcDbSpline
210
0.0
220
0.0
230
1.0
 70
     8
 71
     3
 72
    12
 73
     8
 74
     0
 42
0.00000001
 43
0.00000001
 40
0.0
 40
0.0
 40
0.0
 40
0.0
 40
0.0083795365781655
 40
0.0958567924053454
 40
0.1830705552997304
 40
0.3564922358642273
 40
1.0
 40
1.0
 40
1.0
 40
1.0
 10
146.3231396612851
 20
146.7283679296472
 30
0.0
 10
146.3171254589968
 20
146.7246837500135
 30
0.0
 10
146.2483266495567
 20
146.6825389799493
 30
0.0
 10
146.1128019371255
 20
146.6088291084031
 30
0.0
 10
145.848586357879
 20
146.4824187233498
 30
0.0
 10
145.1455260024406
 20
146.1886787342048
 30
0.0
 10
144.4982664899677
 20
146.0065016488047
 30
0.0
 10
143.9884103152526
 20
145.8629979843657
 30
0.0
  0
SPLINE
  5
312
330
1F
100
AcDbEntity
  8
0
  6
Continuous
 62
     7
370
    25
100
AcDbSpline
210
0.0
220
0.0
230
1.0
 70
     8
 71
     3
 72
    15
 73
    11
 74
     0
 42
0.00000001
 43
0.00000001
 40
0.0
 40
0.0
 40
0.0
 40
0.0
 40
0.0036485798162417
 40
0.1286295316796514
 40
0.2540378621445279
 40
0.3806706696312049
 40
0.5073284665321668
 40
0.740740258662956
 40
0.8704591342197606
 40
0.9999999999999999
 40
0.9999999999999999
 40
0.9999999999999999
 40
0.9999999999999999
 10
146.3231396612851
 20
146.7283679296472
 30
0.0
 10
146.3167299418876
 20
146.7117912955422
 30
0.0
 10
146.0907573043592
 20
146.1273872838074
 30
0.0
 10
145.8267623171615
 20
144.9097439285481
 30
0.0
 10
145.4908597849489
 20
143.1532368713621
 30
0.0
 10
144.9434992060394
 20
141.535729883889
 30
0.0
 10
144.0969475909948
 20
139.6775172699292
 30
0.0
 10
142.9567798594986
 20
138.2082468129653
 30
0.0
 10
141.4796544247994
 20
137.2042783943753
 30
0.0
 10
140.5020543094082
 20
136.8855518728923
 30
0.0
 10
140.0135898656749
 20
136.7262980322184
 30
0.0
  0
SPLINE
  5
313
330
1F
100
AcDbEntity
  8
0
  6
Continuous
 62
     7
370
    25
100
AcDbSpline
210
0.0
220
0.0
230
1.0
 70
     8
 71
     3
 72
    12
 73
     8
 74
     0
 42
0.00000001
 43
0.00000001
 40
0.0
 40
0.0
 40
0.0
 40
0.0
 40
0.0083795365781655
 40
0.0958567924053454
 40
0.1830705552997304
 40
0.3564922358642273
 40
1.0
 40
1.0
 40
1.0
 40
1.0
 10
104.6133093183067
 20
146.7283679296472
 30
0.0
 10
104.619323520595
 20
146.7246837500135
 30
0.0
 10
104.6881223300351
 20
146.6825389799493
 30
0.0
 10
104.8236470424663
 20
146.6088291084031
 30
0.0
 10
105.0878626217129
 20
146.4824187233498
 30
0.0
 10
105.7909229771512
 20
146.1886787342048
 30
0.0
 10
106.4381824896241
 20
146.0065016488047
 30
0.0
 10
106.9480386643393
 20
145.8629979843657
 30
0.0
  0
ARC
  5
314
330
1F
100
AcDbEntity
  8
0
  6
Continuous
 62
     7
370
    25
100
AcDbCircle
 10
112.0865017092
 20
133.2184850262
 30
0.0
 40
3.695783567042643
100
AcDbArc
 50
91.2463105627
 51
108.352169288
  0
SPLINE
  5
315
330
1F
100
AcDbEntity
  8
0
  6
Continuous
 62
     7
370
    25
100
AcDbSpline
210
0.0
220
0.0
230
1.0
 70
     8
 71
     3
 72
    15
 73
    11
 74
     0
 42
0.00000001
 43
0.00000001
 40
0.0
 40
0.0
 40
0.0
 40
0.0
 40
0.0036485798162417
 40
0.1286295316796514
 40
0.2540378621445279
 40
0.3806706696312049
 40
0.5073284665321668
 40
0.740740258662956
 40
0.8704591342197606
 40
0.9999999999999999
 40
0.9999999999999999
 40
0.9999999999999999
 40
0.9999999999999999
 10
104.6133093183067
 20
146.7283679296472
 30
0.0
 10
104.6197190377043
 20
146.7117912955422
 30
0.0
 10
104.8456916752326
 20
146.1273872838074
 30
0.0
 10
105.1096866624303
 20
144.9097439285481
 30
0.0
 10
105.4455891946429
 20
143.1532368713621
 30
0.0
 10
105.9929497735524
 20
141.535729883889
 30
0.0
 10
106.839501388597
 20
139.6775172699292
 30
0.0
 10
107.9796691200932
 20
138.2082468129653
 30
0.0
 10
109.4567945547925
 20
137.2042783943753
 30
0.0
 10
110.4343946701836
 20
136.8855518728923
 30
0.0
 10
110.9228591139169
 20
136.7262980322184
 30
0.0
  0
SPLINE
  5
316
330
1F
100
AcDbEntity
  8
0
  6
Continuous
 62
     7
370
    25
100
AcDbSpline
210
0.0
220
0.0
230
1.0
 70
     8
 71
     3
 72
    12
 73
     8
 74
     0
 42
0.00000001
 43
0.00000001
 40
0.0
 40
0.0
 40
0.0
 40
0.0
 40
0.6435077641343194
 40
0.8169294446995046
 40
0.904143207594223
 40
0.9916204634217569
 40
1.0
 40
1.0
 40
1.0
 40
1.0
 10
106.9480386643317
 20
147.5937378749175
 30
0.0
 10
106.4381824896179
 20
147.4502342104845
 30
0.0
 10
105.790922977146
 20
147.2680571250918
 30
0.0
 10
105.0878626217143
 20
146.9743171359422
 30
0.0
 10
104.823647042464
 20
146.8479067508953
 30
0.0
 10
104.6881223300409
 20
146.7741968793357
 30
0.0
 10
104.6193235205955
 20
146.7320521092801
 30
0.0
 10
104.6133093183067
 20
146.7283679296472
 30
0.0
  0
SPLINE
  5
317
330
1F
100
AcDbEntity
  8
0
  6
Continuous
 62
     7
370
    25
100
AcDbSpline
210
0.0
220
0.0
230
1.0
 70
     8
 71
     3
 72
    14
 73
    10
 74
     0
 42
0.00000001
 43
0.00000001
 40
0.0
 40
0.0
 40
0.0
 40
0.0
 40
0.1295424565523162
 40
0.2592629250671713
 40
0.492677583513227
 40
0.6193369357819514
 40
0.745971298329519
 40
0.8732827443772521
 40
1.0
 40
1.0
 40
1.0
 40
1.0
 10
110.9228591139169
 20
156.7304378270759
 30
0.0
 10
110.434380608574
 20
156.5711884814576
 30
0.0
 10
109.4567523506408
 20
156.2524709562626
 30
0.0
 10
107.9798945329066
 20
155.2484169889223
 30
0.0
 10
106.8382056402518
 20
153.7796327994719
 30
0.0
 10
105.9953769086273
 20
151.9202300964453
 30
0.0
 10
105.433592615357
 20
150.2983333746787
 30
0.0
 10
105.1399888458279
 20
148.5097235829941
 30
0.0
 10
104.7885951829148
 20
147.3212264888947
 30
0.0
 10
104.6133093183067
 20
146.7283679296472
 30
0.0
  0
ARC
  5
318
330
1F
100
AcDbEntity
  8
0
  6
Continuous
 62
     7
370
    25
100
AcDbCircle
 10
112.0865017092
 20
160.2382508331
 30
0.0
 40
3.695783567042329
100
AcDbArc
 50
251.647830712
 51
268.7536894373
  0
ARC
  5
319
330
1F
100
AcDbEntity
  8
0
  6
Continuous
 62
     7
370
    25
100
AcDbCircle
 10
138.8499472704
 20
160.2382508331
 30
0.0
 40
3.69578356704213
100
AcDbArc
 50
271.2463105627
 51
288.352169288
  0
SPLINE
  5
31A
330
1F
100
AcDbEntity
  8
0
  6
Continuous
 62
     7
370
    25
100
AcDbSpline
210
0.0
220
0.0
230
1.0
 70
     8
 71
     3
 72
    14
 73
    10
 74
     0
 42
0.00000001
 43
0.00000001
 40
0.0
 40
0.0
 40
0.0
 40
0.0
 40
0.1295424565523162
 40
0.2592629250671713
 40
0.492677583513227
 40
0.6193369357819514
 40
0.745971298329519
 40
0.8732827443772521
 40
1.0
 40
1.0
 40
1.0
 40
1.0
 10
140.0135898656749
 20
156.7304378270759
 30
0.0
 10
140.5020683710178
 20
156.5711884814576
 30
0.0
 10
141.4796966289511
 20
156.2524709562626
 30
0.0
 10
142.9565544466852
 20
155.2484169889223
 30
0.0
 10
144.0982433393401
 20
153.7796327994719
 30
0.0
 10
144.9410720709645
 20
151.9202300964453
 30
0.0
 10
145.5028563642349
 20
150.2983333746787
 30
0.0
 10
145.7964601337639
 20
148.5097235829941
 30
0.0
 10
146.1478537966771
 20
147.3212264888947
 30
0.0
 10
146.3231396612851
 20
146.7283679296472
 30
0.0
  0
SPLINE
  5
31B
330
1F
100
AcDbEntity
  8
0
  6
Continuous
 62
     7
370
    25
100
AcDbSpline
210
0.0
220
0.0
230
1.0
 70
     8
 71
     3
 72
    12
 73
     8
 74
     0
 42
0.00000001
 43
0.00000001
 40
0.0
 40
0.0
 40
0.0
 40
0.0
 40
0.6435077641343194
 40
0.8169294446995046
 40
0.904143207594223
 40
0.9916204634217569
 40
1.0
 40
1.0
 40
1.0
 40
1.0
 10
143.9884103152602
 20
147.5937378749175
 30
0.0
 10
144.4982664899739
 20
147.4502342104845
 30
0.0
 10
145.1455260024459
 20
147.2680571250918
 30
0.0
 10
145.8485863578775
 20
146.9743171359422
 30
0.0
 10
146.1128019371278
 20
146.8479067508953
 30
0.0
 10
146.248326649551
 20
146.7741968793357
 30
0.0
 10
146.3171254589963
 20
146.7320521092801
 30
0.0
 10
146.3231396612851
 20
146.7283679296472
 30
0.0
  0
SPLINE
  5
31C
330
1F
100
AcDbEntity
  8
0
  6
Continuous
 62
     7
370
    25
100
AcDbSpline
210
0.0
220
0.0
230
1.0
 70
     8
 71
     3
 72
    12
 73
     8
 74
     0
 42
0.00000001
 43
0.00000001
 40
0.0
 40
0.0
 40
0.0
 40
0.0
 40
0.0076459561920847
 40
0.0517852607019933
 40
0.2624649853232489
 40
0.5160145221727878
 40
1.0
 40
1.0
 40
1.0
 40
1.0
 10
116.9942077961227
 20
157.4783679296472
 30
0.0
 10
116.977881894726
 20
157.4783608141848
 30
0.0
 10
116.867308274006
 20
157.4783126219035
 30
0.0
 10
116.3091835000643
 20
157.475348673619
 30
0.0
 10
115.2466840532036
 20
157.4423730231207
 30
0.0
 10
113.3392218565661
 20
157.2776563225206
 30
0.0
 10
111.8802597337032
 20
156.9472543329135
 30
0.0
 10
110.9228591139169
 20
156.7304378270759
 30
0.0
  0
SPLINE
  5
31D
330
1F
100
AcDbEntity
  8
0
  6
Continuous
 62
     7
370
    25
100
AcDbSpline
210
0.0
220
0.0
230
1.0
 70
     8
 71
     3
 72
    12
 73
     8
 74
     0
 42
0.00000001
 43
0.00000001
 40
0.0
 40
0.0
 40
0.0
 40
0.0
 40
0.4839854778272128
 40
0.7375350146767514
 40
0.9482147392980034
 40
0.9923540438079157
 40
1.0
 40
1.0
 40
1.0
 40
1.0
 10
110.9228591139169
 20
136.7262980322184
 30
0.0
 10
111.8802597337032
 20
136.5094815263809
 30
0.0
 10
113.339221856566
 20
136.1790795367737
 30
0.0
 10
115.2466840532037
 20
136.0143628361736
 30
0.0
 10
116.309183500064
 20
135.9813871856753
 30
0.0
 10
116.8673082740061
 20
135.9784232373908
 30
0.0
 10
116.977881894726
 20
135.9783750451095
 30
0.0
 10
116.9942077961227
 20
135.9783679296472
 30
0.0
  0
LINE
  5
31E
330
1F
100
AcDbEntity
  8
0
  6
Continuous
 62
     7
370
    25
100
AcDbLine
 10
67.9588480245
 20
135.9783679296
 30
0.0
 11
116.8682244898
 21
135.9783679296
 31
0.0
  0
LINE
  5
31F
330
1F
100
AcDbEntity
  8
0
  6
Continuous
 62
     7
370
    25
100
AcDbLine
 10
67.9588480245
 20
157.4783679296
 30
0.0
 11
116.9942077961
 21
157.4783679296
 31
0.0
  0
LINE
  5
320
330
1F
100
AcDbEntity
  8
0
  6
Continuous
 62
     7
370
    25
100
AcDbLine
 10
182.9776009551
 20
135.9783679296
 30
0.0
 11
134.0682244898
 21
135.9783679296
 31
0.0
  0
SPLINE
  5
321
330
1F
100
AcDbEntity
  8
0
  6
Continuous
 62
     7
370
    25
100
AcDbSpline
210
0.0
220
0.0
230
1.0
 70
     8
 71
     3
 72
    12
 73
     8
 74
     0
 42
0.00000001
 43
0.00000001
 40
0.0
 40
0.0
 40
0.0
 40
0.0
 40
0.4839854778272128
 40
0.7375350146767514
 40
0.9482147392980034
 40
0.9923540438079157
 40
1.0
 40
1.0
 40
1.0
 40
1.0
 10
140.0135898656749
 20
136.7262980322184
 30
0.0
 10
139.0561892458887
 20
136.5094815263809
 30
0.0
 10
137.5972271230258
 20
136.1790795367737
 30
0.0
 10
135.6897649263882
 20
136.0143628361736
 30
0.0
 10
134.6272654795278
 20
135.9813871856753
 30
0.0
 10
134.0691407055857
 20
135.9784232373908
 30
0.0
 10
133.9585670848659
 20
135.9783750451095
 30
0.0
 10
133.9422411834692
 20
135.9783679296472
 30
0.0
  0
SPLINE
  5
322
330
1F
100
AcDbEntity
  8
0
  6
Continuous
 62
     7
370
    25
100
AcDbSpline
210
0.0
220
0.0
230
1.0
 70
     8
 71
     3
 72
    12
 73
     8
 74
     0
 42
0.00000001
 43
0.00000001
 40
0.0
 40
0.0
 40
0.0
 40
0.0
 40
0.0076459561920847
 40
0.0517852607019933
 40
0.2624649853232489
 40
0.5160145221727878
 40
1.0
 40
1.0
 40
1.0
 40
1.0
 10
133.9422411834692
 20
157.4783679296472
 30
0.0
 10
133.9585670848659
 20
157.4783608141848
 30
0.0
 10
134.0691407055858
 20
157.4783126219035
 30
0.0
 10
134.6272654795276
 20
157.475348673619
 30
0.0
 10
135.6897649263882
 20
157.4423730231207
 30
0.0
 10
137.5972271230257
 20
157.2776563225206
 30
0.0
 10
139.0561892458886
 20
156.9472543329135
 30
0.0
 10
140.0135898656749
 20
156.7304378270759
 30
0.0
  0
LINE
  5
323
330
1F
100
AcDbEntity
  8
0
  6
Continuous
 62
     7
370
    25
100
AcDbLine
 10
182.9776009551
 20
157.4783679296
 30
0.0
 11
133.9422411835
 21
157.4783679296
 31
0.0
  0
ARC
  5
324
330
1F
100
AcDbEntity
  8
0
  6
Continuous
 62
     7
370
    25
100
AcDbCircle
 10
205.4682244898
 20
162.8571337057
 30
0.0
 40
5.0
100
AcDbArc
 50
275.1180625961
 51
0.0
  0
ARC
  5
325
330
1F
100
AcDbEntity
  8
0
  6
Continuous
 62
     7
370
    25
100
AcDbCircle
 10
45.4682244898
 20
162.8571337057
 30
0.0
 40
5.000000000000007
100
AcDbArc
 50
180.0
 51
264.8819374039
  0
ARC
  5
326
330
1F
100
AcDbEntity
  8
0
  6
Continuous
 62
     7
370
    25
100
AcDbCircle
 10
35.8671132873
 20
129.2428406036
 30
0.0
 40
5.000000000000003
100
AcDbArc
 50
100.968694682
 51
108.2613620338
  0
ARC
  5
327
330
1F
100
AcDbEntity
  8
0
  6
Continuous
 62
     7
370
    25
100
AcDbCircle
 10
215.0693356923
 20
129.2428406036
 30
0.0
 40
5.000000000000005
100
AcDbArc
 50
71.7386379662
 51
79.031305318
  0
ARC
  5
328
330
1F
100
AcDbEntity
  8
0
  6
Continuous
 62
     7
370
    25
100
AcDbCircle
 10
125.4682244898
 20
146.7283679296
 30
0.0
 40
8.600000000000023
100
AcDbArc
 50
0.0
 51
90.0
  0
ARC
  5
329
330
1F
100
AcDbEntity
  8
0
  6
Continuous
 62
     7
370
    25
100
AcDbCircle
 10
125.4682244898
 20
146.7283679296
 30
0.0
 40
8.599999999999994
100
AcDbArc
 50
90.0
 51
180.0
  0
ARC
  5
32A
330
1F
100
AcDbEntity
  8
0
  6
Continuous
 62
     7
370
    25
100
AcDbCircle
 10
125.6415640248
 20
61.3086000599
 30
0.0
 40
8.426678426352003
100
AcDbArc
 50
306.4267257716
 51
359.8817015356
  0
ARC
  5
32B
330
1F
100
AcDbEntity
  8
0
  6
Continuous
 62
     7
370
    25
100
AcDbCircle
 10
125.2954042869
 20
61.3087209789
 30
0.0
 40
8.427198007907506
100
AcDbArc
 50
180.11911329
 51
233.8401656467
  0
SPLINE
  5
32C
330
1F
100
AcDbEntity
  8
0
  6
Continuous
 62
     7
370
    25
100
AcDbSpline
210
0.0
220
0.0
230
1.0
 70
     8
 71
     3
 72
    10
 73
     6
 74
     0
 42
0.00000001
 43
0.00000001
 40
0.0
 40
0.0
 40
0.0
 40
0.0
 40
0.1203924806617626
 40
0.7397035313310747
 40
1.0
 40
1.0
 40
1.0
 40
1.0
 10
136.2111759805601
 20
61.75086891971671
 30
0.0
 10
136.2096490677747
 20
61.7457812769365
 30
0.0
 10
136.2002675617771
 20
61.71452228708949
 30
0.0
 10
136.1825792289306
 20
61.64622224951044
 30
0.0
 10
136.165449044498
 20
61.57648276852762
 30
0.0
 10
136.1603798216715
 20
61.55584522254542
 30
0.0
  0
SPLINE
  5
32D
330
1F
100
AcDbEntity
  8
0
  6
Continuous
 62
     7
370
    25
100
AcDbSpline
210
0.0
220
0.0
230
1.0
 70
     8
 71
     3
 72
     9
 73
     5
 74
     0
 42
0.00000001
 43
0.00000001
 40
0.0
 40
0.0
 40
0.0
 40
0.0
 40
0.4353595993595625
 40
1.0
 40
1.0
 40
1.0
 40
1.0
 10
136.1603798216678
 20
61.55584522254478
 30
0.0
 10
136.1518888663439
 20
61.14391826746851
 30
0.0
 10
136.1323855515293
 20
60.19774192110512
 30
0.0
 10
135.9517383610058
 20
59.24542279796292
 30
0.0
 10
135.849737658974
 20
58.70770494673437
 30
0.0
  0
SPLINE
  5
32E
330
1F
100
AcDbEntity
  8
0
  6
Continuous
 62
     7
370
    25
100
AcDbSpline
210
0.0
220
0.0
230
1.0
 70
     8
 71
     3
 72
    27
 73
    23
 74
     0
 42
0.00000001
 43
0.00000001
 40
0.0
 40
0.0
 40
0.0
 40
0.0
 40
0.031532312124372
 40
0.0776025669849609
 40
0.1250088307406583
 40
0.1710802144346707
 40
0.2184797097065677
 40
0.2646953121022989
 40
0.3122464967724133
 40
0.3585390319849128
 40
0.4061722090320279
 40
0.4525237484526353
 40
0.5002117706983784
 40
0.5466898818508101
 40
0.5945158116937724
 40
0.6833314280429069
 40
0.7721468585852724
 40
0.8187682949425005
 40
0.8667387716580339
 40
0.9134204915132607
 40
0.9614533239229568
 40
1.0
 40
1.0
 40
1.0
 40
1.0
 10
135.8497392248304
 20
58.70771217259187
 30
0.0
 10
135.7551891517148
 20
58.32164646907348
 30
0.0
 10
135.5224967835358
 20
57.37151983390277
 30
0.0
 10
134.8862637575439
 20
55.91801022069989
 30
0.0
 10
133.9263829039125
 20
54.43015640927065
 30
0.0
 10
132.7113523232414
 20
53.11189392130576
 30
0.0
 10
131.3028844552043
 20
52.02053808591549
 30
0.0
 10
129.712961290204
 20
51.16789688115463
 30
0.0
 10
128.0138174217115
 20
50.593975440811
 30
0.0
 10
126.2242566343074
 20
50.30609099390784
 30
0.0
 10
124.4262930648702
 20
50.31816606053631
 30
0.0
 10
122.6393322879169
 20
50.62881113445687
 30
0.0
 10
120.944316509479
 20
51.2248554986421
 30
0.0
 10
119.3592444719108
 20
52.10140020853262
 30
0.0
 10
117.5379896509108
 20
53.55261970164322
 30
0.0
 10
115.7779659889957
 20
55.85060772860717
 30
0.0
 10
114.8453471448531
 20
58.56138041948376
 30
0.0
 10
114.6479485831887
 20
60.86099592336738
 30
0.0
 10
114.7978888933924
 20
62.63580494927901
 30
0.0
 10
115.2595764574015
 20
64.37136559254456
 30
0.0
 10
115.9375526411513
 20
65.91722457547257
 30
0.0
 10
116.5815194615175
 20
66.80103903877855
 30
0.0
 10
116.8682244897958
 20
67.19452833462596
 30
0.0
  0
ARC
  5
32F
330
1F
100
AcDbEntity
  8
0
  6
Continuous
 62
     7
370
    25
100
AcDbCircle
 10
125.7387952372
 20
60.7819345266
 30
0.0
 40
10.52924289011356
100
AcDbArc
 50
358.6611723649
 51
37.7138392888
  0
LINE
  5
330
330
1F
100
AcDbEntity
  8
0
  6
Continuous
 62
     7
370
    25
100
AcDbLine
 10
136.2651636992
 20
60.53592062
 30
0.0
 11
136.2111759806
 21
61.7508689197
 31
0.0
  0
LINE
  5
331
330
1F
100
AcDbEntity
  8
0
  6
Continuous
 62
     7
370
    25
100
AcDbLine
 10
125.6595626938
 20
50.1165710123
 30
0.0
 11
126.0912736806
 21
50.1198540627
 31
0.0
  0
ELLIPSE
  5
332
330
1F
100
AcDbEntity
  8
0
  6
Continuous
 62
     7
370
    25
100
AcDbEllipse
 10
125.4682244898
 20
61.8531132132
 30
0.0
 11
-7.600099860430858
 21
8.462404065368894
 31
0.0
210
0.0
220
0.0
230
1.0
 40
0.9067436949
 41
3.721514450840327
 42
3.907970575270606
  0
LINE
  5
333
330
1F
100
AcDbEntity
  8
0
  6
Continuous
 62
     7
370
    25
100
AcDbLine
 10
136.2111759806
 20
61.7508689197
 30
0.0
 11
136.1581252939
 21
61.5060605246
 31
0.0
  0
ARC
  5
334
330
1F
100
AcDbEntity
  8
0
  6
Continuous
 62
     7
370
    25
100
AcDbCircle
 10
125.2047857978
 20
60.754576121
 30
0.0
 40
11.28657220101455
100
AcDbArc
 50
137.6145454074
 51
179.9203967146
  0
LWPOLYLINE
  5
335
330
1F
100
AcDbEntity
  8
0
  6
Continuous
 62
     7
370
    25
100
AcDbPolyline
 90
       27
 70
   128
 43
0.0
 10
134.0682244898
 20
68.3630225857
 10
134.1135236312
 20
68.3129652653
 10
135.2301699778
 20
66.849554327
 10
136.0939870641
 20
65.2286927811
 10
136.6826024811
 20
63.4923600902
 10
136.9807713987
 20
61.6855263591
 10
136.9807713987
 20
59.8549876322
 10
136.6826024811
 20
58.0481539011
 10
136.0939870641
 20
56.3118212102
 10
135.2301699778
 20
54.6909596643
 10
134.1135236312
 20
53.227548726
 10
132.7729685779
 20
51.9594899699
 10
131.2432244898
 20
50.9196254516
 10
129.5639109351
 20
50.134887116
 10
127.7785212529
 20
49.6255992738
 10
125.9332960981
 20
49.4049522126
 10
124.0760258328
 20
49.4786605754
 10
122.2548127816
 20
49.8448153542
 10
120.5168254056
 20
50.4939333327
 10
118.9070766651
 20
51.4092026961
 10
117.4672582068
 20
52.5669184488
 10
116.2346605725
 20
53.9370963608
 10
115.2412073935
 20
55.4842495439
 10
114.5126285853
 20
57.1683075435
 10
114.0677939563
 20
58.9456541418
 10
113.9182244898
 20
60.7702569956
 10
113.9182244898
 20
60.7702569956
  0
ARC
  5
336
330
1F
100
AcDbEntity
  8
0
  6
Continuous
 62
     7
370
    25
100
AcDbCircle
 10
125.2016591998
 20
60.7613918445
 30
0.0
 40
10.53343844056677
100
AcDbArc
 50
142.2922651485
 51
179.9517787275
  0
ARC
  5
337
330
1F
100
AcDbEntity
  8
0
  6
Continuous
 62
     7
370
    25
100
AcDbCircle
 10
125.4585791004
 20
60.877919253
 30
0.0
 40
10.79089170474562
100
AcDbArc
 50
180.5716576046
 51
7.7834035755
  0
ARC
  5
338
330
1F
100
AcDbEntity
  8
0
  6
Continuous
 62
     7
370
    25
100
AcDbCircle
 10
125.4682244898
 20
58.6434988906
 30
0.0
 40
11.55085437174954
100
AcDbArc
 50
180.6968779012
 51
359.3031220988
  0
ARC
  5
339
330
1F
100
AcDbEntity
  8
0
  6
Continuous
 62
     7
370
    25
100
AcDbCircle
 10
125.4682244898
 20
58.1164289885
 30
0.0
 40
11.12777317565191
100
AcDbArc
 50
233.3458537433
 51
306.6541462567
  0
LINE
  5
33A
330
1F
100
AcDbEntity
  8
0
  6
Continuous
 62
     8
370
    25
100
AcDbLine
 10
205.6247690722
 20
208.6783679296
 30
0.0
 11
202.1682244898
 21
208.6783679296
 31
0.0
  0
LINE
  5
33B
330
1F
100
AcDbEntity
  8
0
  6
Continuous
 62
     8
370
    25
100
AcDbLine
 10
253.7682244898
 20
208.6783679296
 30
0.0
 11
205.6247690722
 21
208.6783679296
 31
0.0
  0
LINE
  5
33C
330
1F
100
AcDbEntity
  8
0
  6
Continuous
 62
     8
370
    25
100
AcDbLine
 10
202.1682244898
 20
206.1783679296
 30
0.0
 11
253.7682244898
 21
206.1783679296
 31
0.0
  0
LINE
  5
33D
330
1F
100
AcDbEntity
  8
0
  6
Continuous
 62
     8
370
    25
100
AcDbLine
 10
212.2897548226
 20
190.726613642
 30
0.0
 11
212.2653876065
 21
190.288241284
 31
0.0
  0
SPLINE
  5
33E
330
1F
100
AcDbEntity
  8
0
  6
Continuous
 62
     8
370
    25
100
AcDbSpline
210
0.0
220
0.0
230
1.0
 70
     8
 71
     3
 72
     9
 73
     5
 74
     0
 42
0.00000001
 43
0.00000001
 40
0.0
 40
0.0
 40
0.0
 40
0.0
 40
0.763822004504346
 40
1.0
 40
1.0
 40
1.0
 40
1.0
 10
243.6710613731106
 20
190.2882412840481
 30
0.0
 10
243.6677176408984
 20
190.3368019759513
 30
0.0
 10
243.6633400081614
 20
190.4003779028254
 30
0.0
 10
243.6498744302147
 20
190.6642846706301
 30
0.0
 10
243.6466941570071
 20
190.726613642048
 30
0.0
  0
LINE
  5
33F
330
1F
100
AcDbEntity
  8
0
  6
Continuous
 62
     8
370
    25
100
AcDbLine
 10
216.0195307306
 20
189.8934945752
 30
0.0
 11
241.7653876065
 21
189.8934945752
 31
0.0
  0
LINE
  5
340
330
1F
100
AcDbEntity
  8
0
  6
Continuous
 62
     8
370
    25
100
AcDbLine
 10
214.1710613731
 20
189.8934945752
 30
0.0
 11
216.0195307306
 21
189.8934945752
 31
0.0
  0
LINE
  5
341
330
1F
100
AcDbEntity
  8
0
  6
Continuous
 62
     8
370
    25
100
AcDbLine
 10
216.7098942406
 20
188.9142820351
 30
0.0
 11
214.9682244898
 21
188.9142820351
 31
0.0
  0
LINE
  5
342
330
1F
100
AcDbEntity
  8
0
  6
Continuous
 62
     8
370
    25
100
AcDbLine
 10
240.9682244898
 20
188.9142820351
 30
0.0
 11
216.7098942406
 21
188.9142820351
 31
0.0
  0
LINE
  5
343
330
1F
100
AcDbEntity
  8
0
  6
Continuous
 62
     8
370
    25
100
AcDbLine
 10
45.3116799074
 20
208.6783679296
 30
0.0
 11
-2.8317755102
 21
208.6783679296
 31
0.0
  0
LINE
  5
344
330
1F
100
AcDbEntity
  8
0
  6
Continuous
 62
     8
370
    25
100
AcDbLine
 10
48.7682244898
 20
208.6783679296
 30
0.0
 11
45.3116799074
 21
208.6783679296
 31
0.0
  0
LINE
  5
345
330
1F
100
AcDbEntity
  8
0
  6
Continuous
 62
     8
370
    25
100
AcDbLine
 10
-2.8317755102
 20
206.1783679296
 30
0.0
 11
48.7682244898
 21
206.1783679296
 31
0.0
  0
LINE
  5
346
330
1F
100
AcDbEntity
  8
0
  6
Continuous
 62
     8
370
    25
100
AcDbLine
 10
7.2897548226
 20
190.726613642
 30
0.0
 11
7.2653876065
 21
190.288241284
 31
0.0
  0
SPLINE
  5
347
330
1F
100
AcDbEntity
  8
0
  6
Continuous
 62
     8
370
    25
100
AcDbSpline
210
0.0
220
0.0
230
1.0
 70
     8
 71
     3
 72
     9
 73
     5
 74
     0
 42
0.00000001
 43
0.00000001
 40
0.0
 40
0.0
 40
0.0
 40
0.0
 40
0.7638220045043461
 40
1.0
 40
1.0
 40
1.0
 40
1.0
 10
38.67106137311059
 20
190.2882412840481
 30
0.0
 10
38.66771764089841
 20
190.3368019759513
 30
0.0
 10
38.66334000816138
 20
190.4003779028255
 30
0.0
 10
38.64987443021466
 20
190.6642846706301
 30
0.0
 10
38.64669415700701
 20
190.726613642048
 30
0.0
  0
LINE
  5
348
330
1F
100
AcDbEntity
  8
0
  6
Continuous
 62
     8
370
    25
100
AcDbLine
 10
34.916918249
 20
189.8934945752
 30
0.0
 11
36.7653876065
 21
189.8934945752
 31
0.0
  0
LINE
  5
349
330
1F
100
AcDbEntity
  8
0
  6
Continuous
 62
     8
370
    25
100
AcDbLine
 10
9.1710613731
 20
189.8934945752
 30
0.0
 11
34.916918249
 21
189.8934945752
 31
0.0
  0
LINE
  5
34A
330
1F
100
AcDbEntity
  8
0
  6
Continuous
 62
     8
370
    25
100
AcDbLine
 10
34.226554739
 20
188.9142820351
 30
0.0
 11
9.9682244898
 21
188.9142820351
 31
0.0
  0
LINE
  5
34B
330
1F
100
AcDbEntity
  8
0
  6
Continuous
 62
     8
370
    25
100
AcDbLine
 10
35.9682244898
 20
188.9142820351
 30
0.0
 11
34.226554739
 21
188.9142820351
 31
0.0
  0
ELLIPSE
  5
34C
330
1F
100
AcDbEntity
  8
0
  6
Continuous
 62
     8
370
    25
100
AcDbEllipse
 10
-32.4928609577
 20
143.1437108629
 30
0.0
 11
1.499999304622801
 21
-0.08287263343865447
 31
0.0
210
0.0
220
0.0
230
1.0
 40
0.0174284859
 41
3.125102257566263
 42
3.623465822562041
  0
ELLIPSE
  5
34D
330
1F
100
AcDbEntity
  8
0
  6
Continuous
 62
     8
370
    25
100
AcDbEllipse
 10
283.4293099373
 20
150.0676037076
 30
0.0
 11
1.499999304622861
 21
-0.08287263343871132
 31
0.0
210
0.0
220
0.0
230
1.0
 40
0.0174284859
 41
6.266694911158866
 42
6.765058476153763
  0
SPLINE
  5
34E
330
1F
100
AcDbEntity
  8
0
  6
Continuous
 62
     8
370
    25
100
AcDbSpline
210
0.0
220
0.0
230
1.0
 70
     8
 71
     3
 72
    14
 73
    10
 74
     0
 42
0.00000001
 43
0.00000001
 40
0.0
 40
0.0
 40
0.0
 40
0.0
 40
0.1603170109637752
 40
0.3206654994593633
 40
0.4893747733724194
 40
0.6583160208514752
 40
0.8050966106078798
 40
0.9519807089473754
 40
1.0
 40
1.0
 40
1.0
 40
1.0
 10
193.2960073844201
 20
146.7283679296472
 30
0.0
 10
194.8010806694884
 20
146.6898702167268
 30
0.0
 10
197.8115227540682
 20
146.6128672320315
 30
0.0
 10
201.9162680586721
 20
145.981759436975
 30
0.0
 10
205.5313478032435
 20
144.9094599874853
 30
0.0
 10
208.4861591839278
 20
143.3776189764482
 30
0.0
 10
210.9268782973533
 20
141.4109487956802
 30
0.0
 10
212.6161400330281
 20
139.7094269298783
 30
0.0
 10
213.722496116264
 20
138.6833687219101
 30
0.0
 10
213.9950744174133
 20
138.4305737967987
 30
0.0
  0
SPLINE
  5
34F
330
1F
100
AcDbEntity
  8
0
  6
Continuous
 62
     8
370
    25
100
AcDbSpline
210
0.0
220
0.0
230
1.0
 70
     8
 71
     3
 72
    14
 73
    10
 74
     0
 42
0.00000001
 43
0.00000001
 40
0.0
 40
0.0
 40
0.0
 40
0.0
 40
0.1576470041825304
 40
0.3205799398557724
 40
0.4869561438668318
 40
0.658160121392066
 40
0.8044044309322934
 40
0.9517409373998034
 40
0.9999999999999999
 40
0.9999999999999999
 40
0.9999999999999999
 40
0.9999999999999999
 10
57.64044159517172
 20
146.7283679296472
 30
0.0
 10
56.15819992522375
 20
146.6915185433241
 30
0.0
 10
53.14401676413143
 20
146.6165842043405
 30
0.0
 10
49.06269613838803
 20
145.9885891715579
 30
0.0
 10
45.40749484239484
 20
144.9211234981372
 30
0.0
 10
42.46891007508069
 20
143.3843207180914
 30
0.0
 10
40.00967295525229
 20
141.4249803480975
 30
0.0
 10
38.32038609444333
 20
139.7103234575571
 30
0.0
 10
37.21223623336409
 20
138.6802936609488
 30
0.0
 10
36.9388237334229
 20
138.4261556317925
 30
0.0
  0
SPLINE
  5
350
330
1F
100
AcDbEntity
  8
0
  6
Continuous
 62
     8
370
    25
100
AcDbSpline
210
0.0
220
0.0
230
1.0
 70
     8
 71
     3
 72
    14
 73
    10
 74
     0
 42
0.00000001
 43
0.00000001
 40
0.0
 40
0.0
 40
0.0
 40
0.0
 40
0.1576470041825304
 40
0.3205799398557724
 40
0.4869561438668318
 40
0.658160121392066
 40
0.8044044309322934
 40
0.9517409373998034
 40
0.9999999999999999
 40
0.9999999999999999
 40
0.9999999999999999
 40
0.9999999999999999
 10
193.2960073844201
 20
146.7283679296472
 30
0.0
 10
194.7782490543681
 20
146.7652173159702
 30
0.0
 10
197.7924322154604
 20
146.8401516549538
 30
0.0
 10
201.8737528412038
 20
147.4681466877364
 30
0.0
 10
205.528954137197
 20
148.5356123611571
 30
0.0
 10
208.4675389045111
 20
150.0724151412029
 30
0.0
 10
210.9267760243395
 20
152.0317555111968
 30
0.0
 10
212.6160628851485
 20
153.7464124017372
 30
0.0
 10
213.7242127462277
 20
154.7764421983455
 30
0.0
 10
213.997625246169
 20
155.0305802275019
 30
0.0
  0
SPLINE
  5
351
330
1F
100
AcDbEntity
  8
0
  6
Continuous
 62
     8
370
    25
100
AcDbSpline
210
0.0
220
0.0
230
1.0
 70
     8
 71
     3
 72
    14
 73
    10
 74
     0
 42
0.00000001
 43
0.00000001
 40
0.0
 40
0.0
 40
0.0
 40
0.0
 40
0.1576470041825305
 40
0.3205799398557727
 40
0.4869561438668322
 40
0.6581601213920666
 40
0.8044044309322941
 40
0.9517409373998043
 40
0.9999999999999999
 40
0.9999999999999999
 40
0.9999999999999999
 40
0.9999999999999999
 10
57.64044159517172
 20
146.7283679296472
 30
0.0
 10
56.15819992522375
 20
146.7652173159702
 30
0.0
 10
53.14401676413144
 20
146.8401516549538
 30
0.0
 10
49.062696138388
 20
147.4681466877364
 30
0.0
 10
45.40749484239487
 20
148.5356123611571
 30
0.0
 10
42.46891007508065
 20
150.0724151412029
 30
0.0
 10
40.00967295525232
 20
152.0317555111968
 30
0.0
 10
38.32038609444334
 20
153.7464124017372
 30
0.0
 10
37.21223623336412
 20
154.7764421983455
 30
0.0
 10
36.93882373342291
 20
155.0305802275018
 30
0.0
  0
LINE
  5
352
330
1F
100
AcDbEntity
  8
0
  6
Continuous
 62
     8
370
    25
100
AcDbLine
 10
227.9682244898
 20
164.5783679296
 30
0.0
 11
227.9682244898
 21
162.9752047154
 31
0.0
  0
ARC
  5
353
330
1F
100
AcDbEntity
  8
0
  6
Continuous
 62
     8
370
    25
100
AcDbCircle
 10
204.1841104499
 20
160.162107955
 30
0.0
 40
20.04855797683695
100
AcDbArc
 50
8.0467381216
 51
12.7253726916
  0
LINE
  5
354
330
1F
100
AcDbEntity
  8
0
  6
Continuous
 62
     8
370
    25
100
AcDbLine
 10
22.9682244898
 20
164.5783679296
 30
0.0
 11
22.9682244898
 21
162.9752047154
 31
0.0
  0
ARC
  5
355
330
1F
100
AcDbEntity
  8
0
  6
Continuous
 62
     8
370
    25
100
AcDbCircle
 10
46.7523385297
 20
160.162107955
 30
0.0
 40
20.04855797684025
100
AcDbArc
 50
167.2746273084
 51
171.9532618784
  0
ARC
  5
356
330
1F
100
AcDbEntity
  8
0
  6
Continuous
 62
     8
370
    25
100
AcDbCircle
 10
245.1622792466
 20
160.1875585308
 30
0.0
 40
11.0844957616774
100
AcDbArc
 50
156.6640494734
 51
165.7471376012
  0
ARC
  5
357
330
1F
100
AcDbEntity
  8
0
  6
Continuous
 62
     8
370
    25
100
AcDbCircle
 10
5.7952897611
 20
160.1952793117
 30
0.0
 40
11.06204509859694
100
AcDbArc
 50
14.1249713685
 51
23.3425641992
  0
ARC
  5
358
330
1F
100
AcDbEntity
  8
0
  6
Continuous
 62
     8
370
    25
100
AcDbCircle
 10
210.7175439419
 20
163.1109119437
 30
0.0
 40
8.733351931266178
100
AcDbArc
 50
354.139565541
 51
9.6732379804
  0
ARC
  5
359
330
1F
100
AcDbEntity
  8
0
  6
Continuous
 62
     8
370
    25
100
AcDbCircle
 10
40.2189050377
 20
163.1109119437
 30
0.0
 40
8.733351931265462
100
AcDbArc
 50
170.3267620196
 51
185.860434459
  0
SPLINE
  5
35A
330
1F
100
AcDbEntity
  8
0
  6
Continuous
 62
     8
370
    25
100
AcDbSpline
210
0.0
220
0.0
230
1.0
 70
     8
 71
     3
 72
    12
 73
     8
 74
     0
 42
0.00000001
 43
0.00000001
 40
0.0
 40
0.0
 40
0.0
 40
0.0
 40
0.1919023149113671
 40
0.386853775224027
 40
0.682238727090093
 40
0.983394890701266
 40
1.0
 40
1.0
 40
1.0
 40
1.0
 10
234.9845172571906
 20
164.5783679296472
 30
0.0
 10
235.5204995228329
 20
164.1988015036037
 30
0.0
 10
236.6009803029249
 20
163.4336377017442
 30
0.0
 10
238.2349405829609
 20
161.8394763091443
 30
0.0
 10
239.8167670293616
 20
159.7739912347972
 30
0.0
 10
240.8747695313016
 20
158.0711587845847
 30
0.0
 10
241.2640643609932
 20
157.0944852934486
 30
0.0
 10
241.2844075675057
 20
157.0434477018599
 30
0.0
  0
SPLINE
  5
35B
330
1F
100
AcDbEntity
  8
0
  6
Continuous
 62
     8
370
    25
100
AcDbSpline
210
0.0
220
0.0
230
1.0
 70
     8
 71
     3
 72
    12
 73
     8
 74
     0
 42
0.00000001
 43
0.00000001
 40
0.0
 40
0.0
 40
0.0
 40
0.0
 40
0.1878983797354787
 40
0.3759448052366495
 40
0.6656831224663412
 40
0.955673353375849
 40
1.0
 40
1.0
 40
1.0
 40
1.0
 10
15.95193172240124
 20
164.5783679296472
 30
0.0
 10
15.41200664085535
 20
164.1958244991369
 30
0.0
 10
14.33173106897487
 20
163.4304362308601
 30
0.0
 10
12.69264767521662
 20
161.8287157623598
 30
0.0
 10
11.11067126001089
 20
159.7697207947469
 30
0.0
 10
10.01657038940547
 20
157.9768148719593
 30
0.0
 10
9.600078941911367
 20
156.9170138182795
 30
0.0
 10
9.544856874299207
 20
156.776496153886
 30
0.0
  0
SPLINE
  5
35C
330
1F
100
AcDbEntity
  8
0
  6
Continuous
 62
     8
370
    25
100
AcDbSpline
210
0.0
220
0.0
230
1.0
 70
     8
 71
     3
 72
     9
 73
     5
 74
     0
 42
0.00000001
 43
0.00000001
 40
0.0
 40
0.0
 40
0.0
 40
0.0
 40
0.4613133896586756
 40
1.0
 40
1.0
 40
1.0
 40
1.0
 10
114.9426945976396
 20
154.7495516736239
 30
0.0
 10
114.8349993409391
 20
154.5993713864836
 30
0.0
 10
114.6015457731156
 20
154.2738220083236
 30
0.0
 10
114.4260655374603
 20
153.9057421324045
 30
0.0
 10
114.3315366841332
 20
153.7074624317107
 30
0.0
  0
SPLINE
  5
35D
330
1F
100
AcDbEntity
  8
0
  6
Continuous
 62
     8
370
    25
100
AcDbSpline
210
0.0
220
0.0
230
1.0
 70
     8
 71
     3
 72
     9
 73
     5
 74
     0
 42
0.00000001
 43
0.00000001
 40
0.0
 40
0.0
 40
0.0
 40
0.0
 40
0.4781265472719076
 40
1.0
 40
1.0
 40
1.0
 40
1.0
 10
114.9426945976396
 20
138.7071841856704
 30
0.0
 10
114.8348494579474
 20
138.8572545153871
 30
0.0
 10
114.6092917257789
 20
139.1711260846881
 30
0.0
 10
114.4396687132465
 20
139.5260325812423
 30
0.0
 10
114.3511469660342
 20
139.7112488599947
 30
0.0
  0
SPLINE
  5
35E
330
1F
100
AcDbEntity
  8
0
  6
Continuous
 62
     8
370
    25
100
AcDbSpline
210
0.0
220
0.0
230
1.0
 70
     8
 71
     3
 72
    12
 73
     8
 74
     0
 42
0.00000001
 43
0.00000001
 40
0.0
 40
0.0
 40
0.0
 40
0.0
 40
0.2485168059465683
 40
0.3963846998274413
 40
0.5459434121833647
 40
0.8736828304055584
 40
1.0
 40
1.0
 40
1.0
 40
1.0
 10
112.0061165410378
 20
156.5433415785318
 30
0.0
 10
112.6597225067602
 20
156.6227142913655
 30
0.0
 10
113.7022250592194
 20
156.7493138942827
 30
0.0
 10
114.8175397363972
 20
156.8860297658302
 30
0.0
 10
116.0210164185037
 20
157.1124868361826
 30
0.0
 10
117.1956318786992
 20
157.403216751868
 30
0.0
 10
117.7119135716431
 20
157.5799477600675
 30
0.0
 10
117.8555415773058
 20
157.6291137920871
 30
0.0
  0
SPLINE
  5
35F
330
1F
100
AcDbEntity
  8
0
  6
Continuous
 62
     8
370
    25
100
AcDbSpline
210
0.0
220
0.0
230
1.0
 70
     8
 71
     3
 72
     9
 73
     5
 74
     0
 42
0.00000001
 43
0.00000001
 40
0.0
 40
0.0
 40
0.0
 40
0.0
 40
0.3715339947326882
 40
1.0
 40
1.0
 40
1.0
 40
1.0
 10
118.3349404911654
 20
157.821559500417
 30
0.0
 10
118.2364161334078
 20
157.7707834394505
 30
0.0
 10
117.971233514443
 20
157.6341174501027
 30
0.0
 10
117.6494590728023
 20
157.4011288679266
 30
0.0
 10
117.4472347748673
 20
157.2547034644136
 30
0.0
  0
SPLINE
  5
360
330
1F
100
AcDbEntity
  8
0
  6
Continuous
 62
     8
370
    25
100
AcDbSpline
210
0.0
220
0.0
230
1.0
 70
     8
 71
     3
 72
    12
 73
     8
 74
     0
 42
0.00000001
 43
0.00000001
 40
0.0
 40
0.0
 40
0.0
 40
0.0
 40
0.2485168059465668
 40
0.3963846998274388
 40
0.5459434121833614
 40
0.8736828304055532
 40
1.0
 40
1.0
 40
1.0
 40
1.0
 10
138.930332438554
 20
156.5433415785318
 30
0.0
 10
138.2767264728316
 20
156.6227142913655
 30
0.0
 10
137.2342239203724
 20
156.7493138942827
 30
0.0
 10
136.1189092431947
 20
156.8860297658302
 30
0.0
 10
134.9154325610882
 20
157.1124868361826
 30
0.0
 10
133.7408171008926
 20
157.403216751868
 30
0.0
 10
133.2245354079487
 20
157.5799477600675
 30
0.0
 10
133.080907402286
 20
157.6291137920872
 30
0.0
  0
SPLINE
  5
361
330
1F
100
AcDbEntity
  8
0
  6
Continuous
 62
     8
370
    25
100
AcDbSpline
210
0.0
220
0.0
230
1.0
 70
     8
 71
     3
 72
     9
 73
     5
 74
     0
 42
0.00000001
 43
0.00000001
 40
0.0
 40
0.0
 40
0.0
 40
0.0
 40
0.3715339947326892
 40
1.0
 40
1.0
 40
1.0
 40
1.0
 10
132.6015084884264
 20
157.821559500417
 30
0.0
 10
132.7000328461841
 20
157.7707834394505
 30
0.0
 10
132.9652154651488
 20
157.6341174501027
 30
0.0
 10
133.2869899067895
 20
157.4011288679266
 30
0.0
 10
133.4892142047245
 20
157.2547034644136
 30
0.0
  0
SPLINE
  5
362
330
1F
100
AcDbEntity
  8
0
  6
Continuous
 62
     8
370
    25
100
AcDbSpline
210
0.0
220
0.0
230
1.0
 70
     8
 71
     3
 72
    11
 73
     7
 74
     0
 42
0.00000001
 43
0.00000001
 40
0.0
 40
0.0
 40
0.0
 40
0.0
 40
0.3215332951352351
 40
0.5128461159448126
 40
0.7063465330164933
 40
1.0
 40
1.0
 40
1.0
 40
1.0
 10
112.0061165410378
 20
136.9133942807625
 30
0.0
 10
112.660538291039
 20
136.8339984629908
 30
0.0
 10
113.7043420207172
 20
136.7073620076607
 30
0.0
 10
114.8128735134206
 20
136.5708382519227
 30
0.0
 10
115.8489806156286
 20
136.3801301172307
 30
0.0
 10
116.4848975437153
 20
136.2109638741213
 30
0.0
 10
116.8682244897958
 20
136.1089914678415
 30
0.0
  0
SPLINE
  5
363
330
1F
100
AcDbEntity
  8
0
  6
Continuous
 62
     8
370
    25
100
AcDbSpline
210
0.0
220
0.0
230
1.0
 70
     8
 71
     3
 72
    11
 73
     7
 74
     0
 42
0.00000001
 43
0.00000001
 40
0.0
 40
0.0
 40
0.0
 40
0.0
 40
0.3215332951352214
 40
0.512846115944791
 40
0.7063465330164634
 40
1.0
 40
1.0
 40
1.0
 40
1.0
 10
138.930332438554
 20
136.9133942807625
 30
0.0
 10
138.2759106885529
 20
136.8339984629908
 30
0.0
 10
137.2321069588747
 20
136.7073620076607
 30
0.0
 10
136.1235754661712
 20
136.5708382519227
 30
0.0
 10
135.0874683639632
 20
136.3801301172307
 30
0.0
 10
134.4515514358764
 20
136.2109638741213
 30
0.0
 10
134.0682244897958
 20
136.1089914678415
 30
0.0
  0
ARC
  5
364
330
1F
100
AcDbEntity
  8
0
  6
Continuous
 62
     8
370
    25
100
AcDbCircle
 10
125.5419986307
 20
61.5215985736
 30
0.0
 40
8.526414711627925
100
AcDbArc
 50
269.5042465332
 51
359.6186562933
  0
ARC
  5
365
330
1F
100
AcDbEntity
  8
0
  6
Continuous
 62
     8
370
    25
100
AcDbCircle
 10
125.4002456292
 20
61.5274832554
 30
0.0
 40
8.532251032707538
100
AcDbArc
 50
180.4206006406
 51
270.4564965329
  0
ARC
  5
366
330
1F
100
AcDbEntity
  8
0
  6
Continuous
 62
     8
370
    25
100
AcDbCircle
 10
125.4762530018
 20
61.5036388456
 30
0.0
 40
8.681787705029146
100
AcDbArc
 50
269.9470155303
 51
306.5402321507
  0
ARC
  5
367
330
1F
100
AcDbEntity
  8
0
  6
Continuous
 62
     8
370
    25
100
AcDbCircle
 10
125.4602820059
 20
61.5040790515
 30
0.0
 40
8.682227831600859
100
AcDbArc
 50
233.7223766365
 51
270.0524140665
  0
ARC
  5
368
330
1F
100
AcDbEntity
  8
0
  6
Continuous
 62
     8
370
    25
100
AcDbCircle
 10
125.6039078554
 20
60.9530435513
 30
0.0
 40
9.911222534764365
100
AcDbArc
 50
269.2156036233
 51
31.3490926584
  0
ARC
  5
369
330
1F
100
AcDbEntity
  8
0
  6
Continuous
 62
     8
370
    25
100
AcDbCircle
 10
125.3387871213
 20
60.9566087559
 30
0.0
 40
9.914703896286708
100
AcDbArc
 50
148.6872808136
 51
270.7480229046
  0
LINE
  5
36A
330
1F
100
AcDbEntity
  8
0
  6
Continuous
 62
     8
370
    25
100
AcDbLine
 10
135.8246523421
 20
58.6147558108
 30
0.0
 11
136.0303624604
 21
58.5504355502
 31
0.0
  0
ENDSEC
  0
SECTION
  2
OBJECTS
  0
DICTIONARY
  5
C
330
0
100
AcDbDictionary
281
     1
  3
ACAD_GROUP
350
D
  3
ACAD_LAYOUT
350
1A
  3
ACAD_MLINESTYLE
350
17
  3
ACAD_PLOTSETTINGS
350
19
  3
ACAD_PLOTSTYLENAME
350
E
  3
ACAD_SCALELIST
350
47
  3
DWGPROPS
350
36B
  0
DICTIONARY
  5
D
102
{ACAD_REACTORS
330
C
102
}
330
C
100
AcDbDictionary
281
     1
  0
DICTIONARY
  5
1A
102
{ACAD_REACTORS
330
C
102
}
330
C
100
AcDbDictionary
281
     1
  3
Layout1
350
1E
  3
Layout2
350
26
  3
Model
350
22
  0
DICTIONARY
  5
17
102
{ACAD_REACTORS
330
C
102
}
330
C
100
AcDbDictionary
281
     1
  3
Standard
350
18
  0
DICTIONARY
  5
19
102
{ACAD_REACTORS
330
C
102
}
330
C
100
AcDbDictionary
281
     1
  0
ACDBDICTIONARYWDFLT
  5
E
102
{ACAD_REACTORS
330
C
102
}
330
C
100
AcDbDictionary
281
     1
  3
Normal
350
F
100
AcDbDictionaryWithDefault
340
F
  0
DICTIONARY
  5
47
102
{ACAD_REACTORS
330
C
102
}
330
C
100
AcDbDictionary
281
     1
  3
A0
350
48
  3
A1
350
49
  3
A2
350
4A
  3
A3
350
4B
  3
A4
350
4C
  3
A5
350
4D
  3
A6
350
4E
  3
A7
350
4F
  3
A8
350
50
  3
A9
350
51
  3
B0
350
52
  3
B1
350
53
  3
B2
350
54
  3
B3
350
55
  3
B4
350
56
  3
B5
350
57
  3
B6
350
58
  3
B7
350
59
  3
B8
350
5A
  3
B9
350
5B
  3
C0
350
5C
  3
C1
350
5D
  3
C2
350
5E
  3
C3
350
5F
  3
C4
350
60
  3
C5
350
61
  3
C6
350
62
  3
C7
350
63
  3
C8
350
64
  3
C9
350
65
  3
D0
350
66
  3
D1
350
67
  3
D2
350
68
  0
XRECORD
  5
36B
102
{ACAD_REACTORS
330
C
102
}
330
C
100
AcDbXrecord
280
     1
  1
DWGPROPS COOKIE
  2

  3

  4

  6

  7

  8
vishesh
  9

300
=
301
=
302
=
303
=
304
=
305
=
306
=
307
=
308
=
309
=
 40
0.0
 41
2460383.437110301
 42
2460383.437110857
  1

 90
        0
  0
LAYOUT
  5
1E
102
{ACAD_REACTORS
330
1A
102
}
330
1A
100
AcDbPlotSettings
  1

  2
none_device
  4

  6

 40
0.0
 41
0.0
 42
0.0
 43
0.0
 44
0.0
 45
0.0
 46
0.0
 47
0.0
 48
0.0
 49
0.0
140
0.0
141
0.0
142
1.0
143
1.0
 70
   688
 72
     1
 73
     0
 74
     5
  7

 75
    16
147
1.0
148
0.0
149
0.0
100
AcDbLayout
  1
Layout1
 70
     1
 71
     1
 10
0.0
 20
0.0
 11
420.0
 21
297.0
 12
0.0
 22
0.0
 32
0.0
 14
1.0000000000E+20
 24
1.0000000000E+20
 34
1.0000000000E+20
 15
-1.0000000000E+20
 25
-1.0000000000E+20
 35
-1.0000000000E+20
146
0.0
 13
0.0
 23
0.0
 33
0.0
 16
1.0
 26
0.0
 36
0.0
 17
0.0
 27
1.0
 37
0.0
 76
     0
330
1B
  0
LAYOUT
  5
26
102
{ACAD_REACTORS
330
1A
102
}
330
1A
100
AcDbPlotSettings
  1

  2
none_device
  4

  6

 40
0.0
 41
0.0
 42
0.0
 43
0.0
 44
0.0
 45
0.0
 46
0.0
 47
0.0
 48
0.0
 49
0.0
140
0.0
141
0.0
142
1.0
143
1.0
 70
   688
 72
     1
 73
     0
 74
     5
  7

 75
    16
147
1.0
148
0.0
149
0.0
100
AcDbLayout
  1
Layout2
 70
     1
 71
     2
 10
0.0
 20
0.0
 11
0.0
 21
0.0
 12
0.0
 22
0.0
 32
0.0
 14
0.0
 24
0.0
 34
0.0
 15
0.0
 25
0.0
 35
0.0
146
0.0
 13
0.0
 23
0.0
 33
0.0
 16
1.0
 26
0.0
 36
0.0
 17
0.0
 27
1.0
 37
0.0
 76
     0
330
23
  0
LAYOUT
  5
22
102
{ACAD_REACTORS
330
1A
102
}
330
1A
100
AcDbPlotSettings
  1

  2
none_device
  4
Letter_(8.50_x_11.00_Inches)
  6

 40
6.35
 41
6.35
 42
6.35000508
 43
6.35000508
 44
215.9
 45
279.4
 46
0.0
 47
0.0
 48
0.0
 49
0.0
140
0.0
141
0.0
142
1.0
143
1.0
 70
  1712
 72
     1
 73
     0
 74
     0
  7

 75
     0
147
1.0
148
0.0
149
0.0
100
AcDbLayout
  1
Model
 70
     1
 71
     0
 10
0.0
 20
0.0
 11
279.4
 21
215.9
 12
0.0
 22
0.0
 32
0.0
 14
0.0
 24
0.0
 34
0.0
 15
279.4
 25
215.9
 35
0.0
146
0.0
 13
0.0
 23
0.0
 33
0.0
 16
1.0
 26
0.0
 36
0.0
 17
0.0
 27
1.0
 37
0.0
 76
     0
330
1F
331
29
  0
MLINESTYLE
  5
18
102
{ACAD_REACTORS
330
17
102
}
330
17
100
AcDbMlineStyle
  2
Standard
 70
     0
  3

 62
   256
 51
90.0
 52
90.0
 71
     2
 49
0.5
 62
   256
  6
BYLAYER
 49
-0.5
 62
   256
  6
BYLAYER
  0
ACDBPLACEHOLDER
  5
F
102
{ACAD_REACTORS
330
E
102
}
330
E
  0
SCALE
  5
48
102
{ACAD_REACTORS
330
47
102
}
330
47
100
AcDbScale
 70
     0
300
1:1
140
1.0
141
1.0
290
     1
  0
SCALE
  5
49
102
{ACAD_REACTORS
330
47
102
}
330
47
100
AcDbScale
 70
     0
300
1:2
140
1.0
141
2.0
290
     0
  0
SCALE
  5
4A
102
{ACAD_REACTORS
330
47
102
}
330
47
100
AcDbScale
 70
     0
300
1:4
140
1.0
141
4.0
290
     0
  0
SCALE
  5
4B
102
{ACAD_REACTORS
330
47
102
}
330
47
100
AcDbScale
 70
     0
300
1:5
140
1.0
141
5.0
290
     0
  0
SCALE
  5
4C
102
{ACAD_REACTORS
330
47
102
}
330
47
100
AcDbScale
 70
     0
300
1:8
140
1.0
141
8.0
290
     0
  0
SCALE
  5
4D
102
{ACAD_REACTORS
330
47
102
}
330
47
100
AcDbScale
 70
     0
300
1:10
140
1.0
141
10.0
290
     0
  0
SCALE
  5
4E
102
{ACAD_REACTORS
330
47
102
}
330
47
100
AcDbScale
 70
     0
300
1:16
140
1.0
141
16.0
290
     0
  0
SCALE
  5
4F
102
{ACAD_REACTORS
330
47
102
}
330
47
100
AcDbScale
 70
     0
300
1:20
140
1.0
141
20.0
290
     0
  0
SCALE
  5
50
102
{ACAD_REACTORS
330
47
102
}
330
47
100
AcDbScale
 70
     0
300
1:30
140
1.0
141
30.0
290
     0
  0
SCALE
  5
51
102
{ACAD_REACTORS
330
47
102
}
330
47
100
AcDbScale
 70
     0
300
1:40
140
1.0
141
40.0
290
     0
  0
SCALE
  5
52
102
{ACAD_REACTORS
330
47
102
}
330
47
100
AcDbScale
 70
     0
300
1:50
140
1.0
141
50.0
290
     0
  0
SCALE
  5
53
102
{ACAD_REACTORS
330
47
102
}
330
47
100
AcDbScale
 70
     0
300
1:100
140
1.0
141
100.0
290
     0
  0
SCALE
  5
54
102
{ACAD_REACTORS
330
47
102
}
330
47
100
AcDbScale
 70
     0
300
2:1
140
2.0
141
1.0
290
     0
  0
SCALE
  5
55
102
{ACAD_REACTORS
330
47
102
}
330
47
100
AcDbScale
 70
     0
300
4:1
140
4.0
141
1.0
290
     0
  0
SCALE
  5
56
102
{ACAD_REACTORS
330
47
102
}
330
47
100
AcDbScale
 70
     0
300
8:1
140
8.0
141
1.0
290
     0
  0
SCALE
  5
57
102
{ACAD_REACTORS
330
47
102
}
330
47
100
AcDbScale
 70
     0
300
10:1
140
10.0
141
1.0
290
     0
  0
SCALE
  5
58
102
{ACAD_REACTORS
330
47
102
}
330
47
100
AcDbScale
 70
     0
300
100:1
140
100.0
141
1.0
290
     0
  0
SCALE
  5
59
102
{ACAD_REACTORS
330
47
102
}
330
47
100
AcDbScale
 70
     0
300
1/128" = 1'-0"
140
0.0078125
141
12.0
290
     0
  0
SCALE
  5
5A
102
{ACAD_REACTORS
330
47
102
}
330
47
100
AcDbScale
 70
     0
300
1/64" = 1'-0"
140
0.015625
141
12.0
290
     0
  0
SCALE
  5
5B
102
{ACAD_REACTORS
330
47
102
}
330
47
100
AcDbScale
 70
     0
300
1/32" = 1'-0"
140
0.03125
141
12.0
290
     0
  0
SCALE
  5
5C
102
{ACAD_REACTORS
330
47
102
}
330
47
100
AcDbScale
 70
     0
300
1/16" = 1'-0"
140
0.0625
141
12.0
290
     0
  0
SCALE
  5
5D
102
{ACAD_REACTORS
330
47
102
}
330
47
100
AcDbScale
 70
     0
300
3/32" = 1'-0"
140
0.09375
141
12.0
290
     0
  0
SCALE
  5
5E
102
{ACAD_REACTORS
330
47
102
}
330
47
100
AcDbScale
 70
     0
300
1/8" = 1'-0"
140
0.125
141
12.0
290
     0
  0
SCALE
  5
5F
102
{ACAD_REACTORS
330
47
102
}
330
47
100
AcDbScale
 70
     0
300
3/16" = 1'-0"
140
0.1875
141
12.0
290
     0
  0
SCALE
  5
60
102
{ACAD_REACTORS
330
47
102
}
330
47
100
AcDbScale
 70
     0
300
1/4" = 1'-0"
140
0.25
141
12.0
290
     0
  0
SCALE
  5
61
102
{ACAD_REACTORS
330
47
102
}
330
47
100
AcDbScale
 70
     0
300
3/8" = 1'-0"
140
0.375
141
12.0
290
     0
  0
SCALE
  5
62
102
{ACAD_REACTORS
330
47
102
}
330
47
100
AcDbScale
 70
     0
300
1/2" = 1'-0"
140
0.5
141
12.0
290
     0
  0
SCALE
  5
63
102
{ACAD_REACTORS
330
47
102
}
330
47
100
AcDbScale
 70
     0
300
3/4" = 1'-0"
140
0.75
141
12.0
290
     0
  0
SCALE
  5
64
102
{ACAD_REACTORS
330
47
102
}
330
47
100
AcDbScale
 70
     0
300
1" = 1'-0"
140
1.0
141
12.0
290
     0
  0
SCALE
  5
65
102
{ACAD_REACTORS
330
47
102
}
330
47
100
AcDbScale
 70
     0
300
1-1/2" = 1'-0"
140
1.5
141
12.0
290
     0
  0
SCALE
  5
66
102
{ACAD_REACTORS
330
47
102
}
330
47
100
AcDbScale
 70
     0
300
3" = 1'-0"
140
3.0
141
12.0
290
     0
  0
SCALE
  5
67
102
{ACAD_REACTORS
330
47
102
}
330
47
100
AcDbScale
 70
     0
300
6" = 1'-0"
140
6.0
141
12.0
290
     0
  0
SCALE
  5
68
102
{ACAD_REACTORS
330
47
102
}
330
47
100
AcDbScale
 70
     0
300
1'-0" = 1'-0"
140
12.0
141
12.0
290
     0
  0
ENDSEC
  0
EOF
