  0
SECTION
  2
HEADER
  9
$ACADVER
  1
AC1015
  9
$ACADMAINTVER
 70
     6
  9
$DWGCODEPAGE
  3
ANSI_1252
  9
$INSBASE
 10
0.0
 20
0.0
 30
0.0
  9
$EXTMIN
 10
0.0
 20
0.0
 30
0.0
  9
$EXTMAX
 10
279.4
 20
215.9
 30
0.0
  9
$LIMMIN
 10
0.0
 20
0.0
  9
$LIMMAX
 10
279.4
 20
215.9
  9
$ORTHOMODE
 70
     0
  9
$REGENMODE
 70
     1
  9
$FILLMODE
 70
     1
  9
$QTEXTMODE
 70
     0
  9
$MIRRTEXT
 70
     1
  9
$LTSCALE
 40
1.0
  9
$ATTMODE
 70
     1
  9
$TEXTSIZE
 40
3.5277777778
  9
$TRACEWID
 40
1.0
  9
$TEXTSTYLE
  7
Standard
  9
$CLAYER
  8
0
  9
$CELTYPE
  6
ByLayer
  9
$CECOLOR
 62
   256
  9
$CELTSCALE
 40
1.0
  9
$DISPSILH
 70
     0
  9
$DIMSCALE
 40
1.0
  9
$DIMASZ
 40
3.556
  9
$DIMEXO
 40
1.0
  9
$DIMDLI
 40
3.75
  9
$DIMRND
 40
0.0
  9
$DIMDLE
 40
0.0
  9
$DIMEXE
 40
1.0
  9
$DIMTP
 40
0.0
  9
$DIMTM
 40
0.0
  9
$DIMTXT
 40
3.5277777778
  9
$DIMCEN
 40
2.5
  9
$DIMTSZ
 40
0.0
  9
$DIMTOL
 70
     0
  9
$DIMLIM
 70
     0
  9
$DIMTIH
 70
     1
  9
$DIMTOH
 70
     1
  9
$DIMSE1
 70
     0
  9
$DIMSE2
 70
     0
  9
$DIMTAD
 70
     1
  9
$DIMZIN
 70
     0
  9
$DIMBLK
  1

  9
$DIMASO
 70
     1
  9
$DIMSHO
 70
     1
  9
$DIMPOST
  1

  9
$DIMAPOST
  1

  9
$DIMALT
 70
     0
  9
$DIMALTD
 70
     3
  9
$DIMALTF
 40
0.0393700787
  9
$DIMLFAC
 40
2.0
  9
$DIMTOFL
 70
     1
  9
$DIMTVP
 40
0.0
  9
$DIMTIX
 70
     0
  9
$DIMSOXD
 70
     0
  9
$DIMSAH
 70
     0
  9
$DIMBLK1
  1

  9
$DIMBLK2
  1

  9
$DIMSTYLE
  2
ISO-25
  9
$DIMCLRD
 70
     0
  9
$DIMCLRE
 70
     0
  9
$DIMCLRT
 70
     0
  9
$DIMTFAC
 40
1.0
  9
$DIMGAP
 40
1.524
  9
$DIMJUST
 70
     0
  9
$DIMSD1
 70
     0
  9
$DIMSD2
 70
     0
  9
$DIMTOLJ
 70
     0
  9
$DIMTZIN
 70
     0
  9
$DIMALTZ
 70
     0
  9
$DIMALTTZ
 70
     0
  9
$DIMUPT
 70
     0
  9
$DIMDEC
 70
     2
  9
$DIMTDEC
 70
     2
  9
$DIMALTU
 70
     2
  9
$DIMALTTD
 70
     3
  9
$DIMTXSTY
  7
Standard
  9
$DIMAUNIT
 70
     0
  9
$DIMADEC
 70
     2
  9
$DIMALTRND
 40
0.0
  9
$DIMAZIN
 70
     0
  9
$DIMDSEP
 70
    44
  9
$DIMATFIT
 70
     3
  9
$DIMFRAC
 70
     0
  9
$DIMLDRBLK
  1

  9
$DIMLUNIT
 70
     2
  9
$DIMLWD
 70
    -2
  9
$DIMLWE
 70
    -2
  9
$DIMTMOVE
 70
     0
  9
$LUNITS
 70
     2
  9
$LUPREC
 70
     2
  9
$SKETCHINC
 40
1.0
  9
$FILLETRAD
 40
10.0
  9
$AUNITS
 70
     0
  9
$AUPREC
 70
     2
  9
$MENU
  1
.
  9
$ELEVATION
 40
0.0
  9
$PELEVATION
 40
0.0
  9
$THICKNESS
 40
0.0
  9
$LIMCHECK
 70
     0
  9
$CHAMFERA
 40
0.0
  9
$CHAMFERB
 40
0.0
  9
$CHAMFERC
 40
0.0
  9
$CHAMFERD
 40
0.0
  9
$SKPOLY
 70
     0
  9
$TDCREATE
 40
2460383.738914016
  9
$TDUCREATE
 40
2460383.50974735
  9
$TDUPDATE
 40
2460383.738914664
  9
$TDUUPDATE
 40
2460383.509747998
  9
$TDINDWG
 40
0.0000000116
  9
$TDUSRTIMER
 40
0.0000000116
  9
$USRTIMER
 70
     1
  9
$ANGBASE
 50
0.0
  9
$ANGDIR
 70
     0
  9
$PDMODE
 70
     0
  9
$PDSIZE
 40
-1.0
  9
$PLINEWID
 40
0.0
  9
$SPLFRAME
 70
     0
  9
$SPLINETYPE
 70
     6
  9
$SPLINESEGS
 70
     8
  9
$HANDSEED
  5
237
  9
$SURFTAB1
 70
     6
  9
$SURFTAB2
 70
     6
  9
$SURFTYPE
 70
     6
  9
$SURFU
 70
     6
  9
$SURFV
 70
     6
  9
$UCSBASE
  2

  9
$UCSNAME
  2

  9
$UCSORG
 10
0.0
 20
0.0
 30
0.0
  9
$UCSXDIR
 10
1.0
 20
0.0
 30
0.0
  9
$UCSYDIR
 10
0.0
 20
1.0
 30
0.0
  9
$UCSORTHOREF
  2

  9
$UCSORTHOVIEW
 70
     0
  9
$UCSORGTOP
 10
0.0
 20
0.0
 30
0.0
  9
$UCSORGBOTTOM
 10
0.0
 20
0.0
 30
0.0
  9
$UCSORGLEFT
 10
0.0
 20
0.0
 30
0.0
  9
$UCSORGRIGHT
 10
0.0
 20
0.0
 30
0.0
  9
$UCSORGFRONT
 10
0.0
 20
0.0
 30
0.0
  9
$UCSORGBACK
 10
0.0
 20
0.0
 30
0.0
  9
$PUCSBASE
  2

  9
$PUCSNAME
  2

  9
$PUCSORG
 10
0.0
 20
0.0
 30
0.0
  9
$PUCSXDIR
 10
1.0
 20
0.0
 30
0.0
  9
$PUCSYDIR
 10
0.0
 20
1.0
 30
0.0
  9
$PUCSORTHOREF
  2

  9
$PUCSORTHOVIEW
 70
     0
  9
$PUCSORGTOP
 10
0.0
 20
0.0
 30
0.0
  9
$PUCSORGBOTTOM
 10
0.0
 20
0.0
 30
0.0
  9
$PUCSORGLEFT
 10
0.0
 20
0.0
 30
0.0
  9
$PUCSORGRIGHT
 10
0.0
 20
0.0
 30
0.0
  9
$PUCSORGFRONT
 10
0.0
 20
0.0
 30
0.0
  9
$PUCSORGBACK
 10
0.0
 20
0.0
 30
0.0
  9
$USERI1
 70
     0
  9
$USERI2
 70
     0
  9
$USERI3
 70
     0
  9
$USERI4
 70
     0
  9
$USERI5
 70
     0
  9
$USERR1
 40
0.0
  9
$USERR2
 40
0.0
  9
$USERR3
 40
0.0
  9
$USERR4
 40
0.0
  9
$USERR5
 40
0.0
  9
$WORLDVIEW
 70
     1
  9
$SHADEDGE
 70
     3
  9
$SHADEDIF
 70
    70
  9
$TILEMODE
 70
     1
  9
$MAXACTVP
 70
    64
  9
$PINSBASE
 10
0.0
 20
0.0
 30
0.0
  9
$PLIMCHECK
 70
     0
  9
$PEXTMIN
 10
1.0000000000E+20
 20
1.0000000000E+20
 30
1.0000000000E+20
  9
$PEXTMAX
 10
-1.0000000000E+20
 20
-1.0000000000E+20
 30
-1.0000000000E+20
  9
$PLIMMIN
 10
0.0
 20
0.0
  9
$PLIMMAX
 10
420.0
 20
297.0
  9
$UNITMODE
 70
     0
  9
$VISRETAIN
 70
     1
  9
$PLINEGEN
 70
     0
  9
$PSLTSCALE
 70
     1
  9
$TREEDEPTH
 70
  3020
  9
$CMLSTYLE
  2
Standard
  9
$CMLJUST
 70
     0
  9
$CMLSCALE
 40
20.0
  9
$PROXYGRAPHICS
 70
     1
  9
$MEASUREMENT
 70
     1
  9
$CELWEIGHT
370
    -1
  9
$ENDCAPS
280
     0
  9
$JOINSTYLE
280
     0
  9
$LWDISPLAY
290
     1
  9
$INSUNITS
 70
     4
  9
$HYPERLINKBASE
  1

  9
$STYLESHEET
  1

  9
$XEDIT
290
     1
  9
$CEPSNTYPE
380
     0
  9
$PSTYLEMODE
290
     1
  9
$FINGERPRINTGUID
  2
{046ad134-3599-4b7e-bc9c-a244ff4760ad}
  9
$VERSIONGUID
  2
{FAEB1C32-E019-11D5-929B-00C0DF256EC4}
  9
$EXTNAMES
290
     1
  9
$PSVPSCALE
 40
0.0
  9
$OLESTARTUP
290
     0
  0
ENDSEC
  0
SECTION
  2
CLASSES
  0
CLASS
  1
ACDBDICTIONARYWDFLT
  2
AcDbDictionaryWithDefault
  3
ObjectDBX Classes
 90
        0
280
     0
281
     0
  0
CLASS
  1
VISUALSTYLE
  2
AcDbVisualStyle
  3
ObjectDBX Classes
 90
     4095
280
     0
281
     0
  0
CLASS
  1
MATERIAL
  2
AcDbMaterial
  3
ObjectDBX Classes
 90
     1153
280
     0
281
     0
  0
CLASS
  1
SCALE
  2
AcDbScale
  3
ObjectDBX Classes
 90
     1153
280
     0
281
     0
  0
CLASS
  1
TABLESTYLE
  2
AcDbTableStyle
  3
ObjectDBX Classes
 90
     4095
280
     0
281
     0
  0
CLASS
  1
MLEADERSTYLE
  2
AcDbMLeaderStyle
  3
ACDB_MLEADERSTYLE_CLASS
 90
     4095
280
     0
281
     0
  0
CLASS
  1
SUN
  2
AcDbSun
  3
SCENEOE
 90
     1153
280
     0
281
     0
  0
CLASS
  1
ACDBPLACEHOLDER
  2
AcDbPlaceHolder
  3
ObjectDBX Classes
 90
        0
280
     0
281
     0
  0
CLASS
  1
LAYOUT
  2
AcDbLayout
  3
ObjectDBX Classes
 90
        0
280
     0
281
     0
  0
ENDSEC
  0
SECTION
  2
TABLES
  0
TABLE
  2
VPORT
  5
8
330
0
100
AcDbSymbolTable
 70
     1
  0
VPORT
  5
29
330
8
100
AcDbSymbolTableRecord
100
AcDbViewportTableRecord
  2
*Active
 70
     0
 10
0.0
 20
0.0
 11
1.0
 21
1.0
 12
139.7
 22
107.95
 13
0.0
 23
0.0
 14
10.0
 24
10.0
 15
10.0
 25
10.0
 16
0.0
 26
0.0
 36
1.0
 17
0.0
 27
0.0
 37
0.0
 40
215.9
 41
1.2941176471
 42
50.0
 43
0.0
 44
0.0
 50
0.0
 51
0.0
 71
     0
 72
  2000
 73
     1
 74
     3
 75
     0
 76
     0
 77
     0
 78
     0
281
     0
 65
     1
110
0.0
120
0.0
130
0.0
111
1.0
121
0.0
131
0.0
112
0.0
122
1.0
132
0.0
 79
     0
146
0.0
  0
ENDTAB
  0
TABLE
  2
LTYPE
  5
5
330
0
100
AcDbSymbolTable
 70
     6
  0
LTYPE
  5
14
330
5
100
AcDbSymbolTableRecord
100
AcDbLinetypeTableRecord
  2
ByBlock
 70
     0
  3

 72
    65
 73
     0
 40
0.0
  0
LTYPE
  5
15
330
5
100
AcDbSymbolTableRecord
100
AcDbLinetypeTableRecord
  2
ByLayer
 70
     0
  3

 72
    65
 73
     0
 40
0.0
  0
LTYPE
  5
16
330
5
100
AcDbSymbolTableRecord
100
AcDbLinetypeTableRecord
  2
Continuous
 70
     0
  3
Solid line
 72
    65
 73
     0
 40
0.0
  0
LTYPE
  5
6E
330
5
100
AcDbSymbolTableRecord
100
AcDbLinetypeTableRecord
  2
HIDDEN
 70
     0
  3
Hidden __ __ __ __ __ __ __ __ __ __ __ __ __ __
 72
    65
 73
     2
 40
1.905
 49
1.27
 74
     0
 49
-0.635
 74
     0
  0
LTYPE
  5
6F
330
5
100
AcDbSymbolTableRecord
100
AcDbLinetypeTableRecord
  2
PHANTOM
 70
     0
  3
Phantom ______  __  __  ______  __  __  ______
 72
    65
 73
     6
 40
12.7
 49
6.35
 74
     0
 49
-1.27
 74
     0
 49
1.27
 74
     0
 49
-1.27
 74
     0
 49
1.27
 74
     0
 49
-1.27
 74
     0
  0
LTYPE
  5
70
330
5
100
AcDbSymbolTableRecord
100
AcDbLinetypeTableRecord
  2
CENTER
 70
     0
  3
Center ____ _ ____ _ ____ _ ____ _ ____ _ ____
 72
    65
 73
     4
 40
10.16
 49
6.35
 74
     0
 49
-1.27
 74
     0
 49
1.27
 74
     0
 49
-1.27
 74
     0
  0
LTYPE
  5
71
330
5
100
AcDbSymbolTableRecord
100
AcDbLinetypeTableRecord
  2
CENTERX2
 70
     0
  3
Center (2x) ________  __  ________  __  _____
 72
    65
 73
     4
 40
20.32
 49
12.7
 74
     0
 49
-2.54
 74
     0
 49
2.54
 74
     0
 49
-2.54
 74
     0
  0
LTYPE
  5
72
330
5
100
AcDbSymbolTableRecord
100
AcDbLinetypeTableRecord
  2
DOT2
 70
     0
  3
Dot (.5x) ........................................
 72
    65
 73
     2
 40
0.635
 49
0.0
 74
     0
 49
-0.635
 74
     0
  0
ENDTAB
  0
TABLE
  2
LAYER
  5
2
330
0
100
AcDbSymbolTable
 70
     4
  0
LAYER
  5
10
330
2
100
AcDbSymbolTableRecord
100
AcDbLayerTableRecord
  2
0
 70
     0
 62
     7
  6
Continuous
370
    -3
390
F
  0
LAYER
  5
73
330
2
100
AcDbSymbolTableRecord
100
AcDbLayerTableRecord
  2
FORMAT
 70
     0
 62
     7
  6
Continuous
370
    -3
390
F
  0
LAYER
  5
74
330
2
100
AcDbSymbolTableRecord
100
AcDbLayerTableRecord
  2
OUT_LINE
 70
     0
 62
     7
  6
Continuous
370
    50
390
F
  0
LAYER
  5
75
330
2
100
AcDbSymbolTableRecord
100
AcDbLayerTableRecord
  2
WATERMARK
 70
     0
 62
   254
  6
Continuous
370
    -3
390
F
  0
ENDTAB
  0
TABLE
  2
STYLE
  5
3
330
0
100
AcDbSymbolTable
 70
     1
  0
STYLE
  5
11
330
3
100
AcDbSymbolTableRecord
100
AcDbTextStyleTableRecord
  2
Standard
 70
     0
 40
0.0
 41
1.0
 50
0.0
 71
     0
 42
3.5277777778
  3
txt
  4

  0
ENDTAB
  0
TABLE
  2
VIEW
  5
6
330
0
100
AcDbSymbolTable
 70
     0
  0
ENDTAB
  0
TABLE
  2
UCS
  5
7
330
0
100
AcDbSymbolTable
 70
     0
  0
ENDTAB
  0
TABLE
  2
APPID
  5
9
330
0
100
AcDbSymbolTable
 70
     1
  0
APPID
  5
12
330
9
100
AcDbSymbolTableRecord
100
AcDbRegAppTableRecord
  2
ACAD
 70
     0
  0
ENDTAB
  0
TABLE
  2
DIMSTYLE
  5
A
330
0
100
AcDbSymbolTable
 70
     1
100
AcDbDimStyleTable
  0
DIMSTYLE
105
27
330
A
100
AcDbSymbolTableRecord
100
AcDbDimStyleTableRecord
  2
ISO-25
 70
     0
 41
2.5
 42
0.625
 43
3.75
 44
1.25
 73
     0
 74
     0
 77
     1
 78
     8
140
2.5
141
2.5
143
0.0393700787
147
0.625
171
     3
172
     1
178
     0
271
     2
272
     2
274
     3
278
    44
283
     0
284
     8
340
11
  0
ENDTAB
  0
TABLE
  2
BLOCK_RECORD
  5
1
330
0
100
AcDbSymbolTable
 70
     7
  0
BLOCK_RECORD
  5
1F
330
1
100
AcDbSymbolTableRecord
100
AcDbBlockTableRecord
  2
*Model_Space
340
22
  0
BLOCK_RECORD
  5
1B
330
1
100
AcDbSymbolTableRecord
100
AcDbBlockTableRecord
  2
*Paper_Space
340
1E
  0
BLOCK_RECORD
  5
23
330
1
100
AcDbSymbolTableRecord
100
AcDbBlockTableRecord
  2
*Paper_Space0
340
26
  0
BLOCK_RECORD
  5
76
330
1
100
AcDbSymbolTableRecord
100
AcDbBlockTableRecord
  2
Block6
340
0
  0
BLOCK_RECORD
  5
7B
330
1
100
AcDbSymbolTableRecord
100
AcDbBlockTableRecord
  2
Block4
340
0
  0
BLOCK_RECORD
  5
7F
330
1
100
AcDbSymbolTableRecord
100
AcDbBlockTableRecord
  2
Block5
340
0
  0
BLOCK_RECORD
  5
8D
330
1
100
AcDbSymbolTableRecord
100
AcDbBlockTableRecord
  2
Block2
340
0
  0
BLOCK_RECORD
  5
98
330
1
100
AcDbSymbolTableRecord
100
AcDbBlockTableRecord
  2
Block3
340
0
  0
BLOCK_RECORD
  5
A5
330
1
100
AcDbSymbolTableRecord
100
AcDbBlockTableRecord
  2
Block7
340
0
  0
ENDTAB
  0
ENDSEC
  0
SECTION
  2
BLOCKS
  0
BLOCK
  5
20
330
1F
100
AcDbEntity
  8
0
100
AcDbBlockBegin
  2
*Model_Space
 70
     0
 10
0.0
 20
0.0
 30
0.0
  3
*Model_Space
  1

  0
ENDBLK
  5
21
330
1F
100
AcDbEntity
  8
0
100
AcDbBlockEnd
  0
BLOCK
  5
1C
330
1B
100
AcDbEntity
 67
     1
  8
0
100
AcDbBlockBegin
  2
*Paper_Space
 70
     0
 10
0.0
 20
0.0
 30
0.0
  3
*Paper_Space
  1

  0
ENDBLK
  5
1D
330
1B
100
AcDbEntity
 67
     1
  8
0
100
AcDbBlockEnd
  0
BLOCK
  5
24
330
23
100
AcDbEntity
  8
0
100
AcDbBlockBegin
  2
*Paper_Space0
 70
     0
 10
0.0
 20
0.0
 30
0.0
  3
*Paper_Space0
  1

  0
ENDBLK
  5
25
330
23
100
AcDbEntity
  8
0
100
AcDbBlockEnd
  0
BLOCK
  5
77
330
76
100
AcDbEntity
  8
0
100
AcDbBlockBegin
  2
Block6
 70
     0
 10
0.0
 20
0.0
 30
0.0
  3
Block6
  1

  0
LINE
  5
79
330
76
100
AcDbEntity
  8
FORMAT
100
AcDbLine
 10
253.5616893058
 20
55.3714964458
 30
0.0
 11
250.6928867464
 21
53.8486167051
 31
0.0
  0
LINE
  5
7A
330
76
100
AcDbEntity
  8
FORMAT
100
AcDbLine
 10
250.6928867464
 20
53.8486167051
 30
0.0
 11
253.5616893058
 21
53.8486167051
 31
0.0
  0
ENDBLK
  5
78
330
76
100
AcDbEntity
  8
0
100
AcDbBlockEnd
  0
BLOCK
  5
7C
330
7B
100
AcDbEntity
  8
0
100
AcDbBlockBegin
  2
Block4
 70
     0
 10
0.0
 20
0.0
 30
0.0
  3
Block4
  1

  0
LINE
  5
7E
330
7B
100
AcDbEntity
  8
FORMAT
100
AcDbLine
 10
250.0093082872
 20
64.7263291389
 30
0.0
 11
290.0093082872
 21
64.7263291389
 31
0.0
  0
ENDBLK
  5
7D
330
7B
100
AcDbEntity
  8
0
100
AcDbBlockEnd
  0
BLOCK
  5
80
330
7F
100
AcDbEntity
  8
0
100
AcDbBlockBegin
  2
Block5
 70
     0
 10
0.0
 20
0.0
 30
0.0
  3
Block5
  1

  0
LINE
  5
82
330
7F
100
AcDbEntity
  8
FORMAT
100
AcDbLine
 10
251.0883122991
 20
64.4632252413
 30
0.0
 11
250.3611798328
 21
64.9733337839
 31
0.0
  0
LINE
  5
83
330
7F
100
AcDbEntity
  8
FORMAT
100
AcDbLine
 10
250.3611798328
 20
64.9733337839
 30
0.0
 11
251.0883122991
 21
65.4834423266
 31
0.0
  0
LINE
  5
84
330
7F
100
AcDbEntity
  8
FORMAT
100
AcDbLine
 10
250.3611798328
 20
65.6106440044
 30
0.0
 11
250.3611798328
 21
64.3360235634
 31
0.0
  0
LINE
  5
85
330
7F
100
AcDbEntity
  8
FORMAT
100
AcDbLine
 10
251.0883122991
 20
65.4834423266
 30
0.0
 11
251.0883122991
 21
64.4632252413
 31
0.0
  0
LINE
  5
86
330
7F
100
AcDbEntity
  8
FORMAT
  6
Continuous
 62
     7
370
    18
100
AcDbLine
 10
254.0738326611
 20
65.4834423266
 30
0.0
 11
254.0738326611
 21
64.4632252413
 31
0.0
  0
LINE
  5
87
330
7F
100
AcDbEntity
  8
FORMAT
100
AcDbLine
 10
251.0883122991
 20
64.9733337839
 30
0.0
 11
254.0738326611
 21
64.9733337839
 31
0.0
  0
LINE
  5
88
330
7F
100
AcDbEntity
  8
FORMAT
100
AcDbLine
 10
254.0738326611
 20
64.9733337839
 30
0.0
 11
254.0738326611
 21
64.4632252413
 31
0.0
  0
LINE
  5
89
330
7F
100
AcDbEntity
  8
FORMAT
  6
Continuous
 62
     7
370
    18
100
AcDbLine
 10
254.0738326611
 20
64.4632252413
 30
0.0
 11
254.8009651274
 21
64.9733337839
 31
0.0
  0
LINE
  5
8A
330
7F
100
AcDbEntity
  8
FORMAT
  6
Continuous
 62
     7
370
    18
100
AcDbLine
 10
254.8009651274
 20
64.9733337839
 30
0.0
 11
254.0738326611
 21
65.4834423266
 31
0.0
  0
LINE
  5
8B
330
7F
100
AcDbEntity
  8
FORMAT
100
AcDbLine
 10
254.0738326611
 20
65.4834423266
 30
0.0
 11
254.0738326611
 21
64.9733337839
 31
0.0
  0
LINE
  5
8C
330
7F
100
AcDbEntity
  8
FORMAT
100
AcDbLine
 10
254.8009651274
 20
65.6106440044
 30
0.0
 11
254.8009651274
 21
64.3360235634
 31
0.0
  0
ENDBLK
  5
81
330
7F
100
AcDbEntity
  8
0
100
AcDbBlockEnd
  0
BLOCK
  5
8E
330
8D
100
AcDbEntity
  8
0
100
AcDbBlockBegin
  2
Block2
 70
     0
 10
0.0
 20
0.0
 30
0.0
  3
Block2
  1

  0
CIRCLE
  5
90
330
8D
100
AcDbEntity
  8
FORMAT
100
AcDbCircle
 10
48.741006851
 20
68.2700462855
 30
0.0
 40
7.000000000000013
  0
CIRCLE
  5
91
330
8D
100
AcDbEntity
  8
FORMAT
100
AcDbCircle
 10
48.741006851
 20
68.2700462855
 30
0.0
 40
3.32888862482043
  0
LINE
  5
92
330
8D
100
AcDbEntity
  8
FORMAT
100
AcDbLine
 10
60.4734604481
 20
71.6747664277
 30
0.0
 11
76.4734604481
 21
75.1747664277
 31
0.0
  0
LINE
  5
93
330
8D
100
AcDbEntity
  8
FORMAT
100
AcDbLine
 10
76.4734604481
 20
75.1747664277
 30
0.0
 11
76.4734604481
 21
61.3653261433
 31
0.0
  0
LINE
  5
94
330
8D
100
AcDbEntity
  8
FORMAT
100
AcDbLine
 10
76.4734604481
 20
61.3653261433
 30
0.0
 11
60.4734604481
 21
64.8653261433
 31
0.0
  0
LINE
  5
95
330
8D
100
AcDbEntity
  8
FORMAT
100
AcDbLine
 10
60.4734604481
 20
64.8653261433
 30
0.0
 11
60.4734604481
 21
71.6747664277
 31
0.0
  0
LINE
  5
96
330
8D
100
AcDbEntity
  8
FORMAT
  6
CENTERX2
100
AcDbLine
 10
76.4734604481
 20
68.2700462855
 30
0.0
 11
39.8388877958
 21
68.2700462855
 31
0.0
  0
LINE
  5
97
330
8D
100
AcDbEntity
  8
FORMAT
100
AcDbLine
 10
48.741006851
 20
76.8424572275
 30
0.0
 11
48.741006851
 21
59.6976353435
 31
0.0
  0
ENDBLK
  5
8F
330
8D
100
AcDbEntity
  8
0
100
AcDbBlockEnd
  0
BLOCK
  5
99
330
98
100
AcDbEntity
  8
0
100
AcDbBlockBegin
  2
Block3
 70
     0
 10
0.0
 20
0.0
 30
0.0
  3
Block3
  1

  0
ARC
  5
9B
330
98
100
AcDbEntity
  8
FORMAT
100
AcDbCircle
 10
253.5616893058
 20
61.9516976285
 30
0.0
 40
0.5251511718353873
100
AcDbArc
 50
349.3356822367
 51
90.0
  0
LINE
  5
9C
330
98
100
AcDbEntity
  8
FORMAT
100
AcDbLine
 10
250.6928867464
 20
62.4768488003
 30
0.0
 11
250.6928867464
 21
61.2321831396
 31
0.0
  0
LINE
  5
9D
330
98
100
AcDbEntity
  8
FORMAT
100
AcDbLine
 10
250.6928867464
 20
61.2321831396
 30
0.0
 11
251.7250485138
 21
61.2321831396
 31
0.0
  0
LINE
  5
9E
330
98
100
AcDbEntity
  8
FORMAT
100
AcDbLine
 10
251.7250485138
 20
61.2321831396
 30
0.0
 11
251.7250485138
 21
61.85451597
 31
0.0
  0
LINE
  5
9F
330
98
100
AcDbEntity
  8
FORMAT
100
AcDbLine
 10
251.7250485138
 20
61.85451597
 30
0.0
 11
251.2089676301
 21
62.4768488003
 31
0.0
  0
LINE
  5
A0
330
98
100
AcDbEntity
  8
FORMAT
100
AcDbLine
 10
251.2089676301
 20
62.4768488003
 30
0.0
 11
250.6928867464
 21
62.4768488003
 31
0.0
  0
LINE
  5
A1
330
98
100
AcDbEntity
  8
0
  6
Continuous
 62
     7
370
    18
100
AcDbLine
 10
253.0456084221
 20
61.2321831396
 30
0.0
 11
254.0777701895
 21
61.2321831396
 31
0.0
  0
LINE
  5
A2
330
98
100
AcDbEntity
  8
0
  6
Continuous
 62
     7
370
    18
100
AcDbLine
 10
254.0777701895
 20
61.2321831396
 30
0.0
 11
254.0777701895
 21
61.85451597
 31
0.0
  0
LINE
  5
A3
330
98
100
AcDbEntity
  8
0
  6
Continuous
 62
     7
370
    18
100
AcDbLine
 10
253.0456084221
 20
62.4768488003
 30
0.0
 11
253.0456084221
 21
61.2321831396
 31
0.0
  0
LINE
  5
A4
330
98
100
AcDbEntity
  8
0
  6
Continuous
 62
     7
370
    18
100
AcDbLine
 10
253.5616893058
 20
62.4768488003
 30
0.0
 11
253.0456084221
 21
62.4768488003
 31
0.0
  0
ENDBLK
  5
9A
330
98
100
AcDbEntity
  8
0
100
AcDbBlockEnd
  0
BLOCK
  5
A6
330
A5
100
AcDbEntity
  8
0
100
AcDbBlockBegin
  2
Block7
 70
     0
 10
0.0
 20
0.0
 30
0.0
  3
Block7
  1

  0
LINE
  5
A8
330
A5
100
AcDbEntity
  8
FORMAT
100
AcDbLine
 10
221.8284763776
 20
80.2705155621
 30
0.0
 11
222.3963943455
 21
79.286852787
 31
0.0
  0
LINE
  5
A9
330
A5
100
AcDbEntity
  8
FORMAT
100
AcDbLine
 10
222.3963943455
 20
79.286852787
 30
0.0
 11
222.9643123135
 21
80.2705155621
 31
0.0
  0
LINE
  5
AA
330
A5
100
AcDbEntity
  8
FORMAT
100
AcDbLine
 10
221.8284763776
 20
80.2705155621
 30
0.0
 11
222.9643123135
 21
80.2705155621
 31
0.0
  0
LINE
  5
AB
330
A5
100
AcDbEntity
  8
FORMAT
100
AcDbLine
 10
222.9643123135
 20
80.2705155621
 30
0.0
 11
223.3725273771
 21
80.9775647926
 31
0.0
  0
LINE
  5
AC
330
A5
100
AcDbEntity
  8
FORMAT
100
AcDbLine
 10
223.3725273771
 20
80.9775647926
 30
0.0
 11
224.1023154201
 21
80.9775647926
 31
0.0
  0
ENDBLK
  5
A7
330
A5
100
AcDbEntity
  8
0
100
AcDbBlockEnd
  0
ENDSEC
  0
SECTION
  2
ENTITIES
  0
LINE
  5
AD
330
1F
100
AcDbEntity
  8
0
  6
Continuous
 62
     7
370
    25
100
AcDbLine
 10
130.0839409254
 20
-46.6897623777
 30
0.0
 11
130.0839409254
 21
-44.7723212619
 31
0.0
  0
LINE
  5
AE
330
1F
100
AcDbEntity
  8
0
  6
Continuous
 62
     7
370
    25
100
AcDbLine
 10
106.9839409254
 20
-44.7723212619
 30
0.0
 11
106.9839409254
 21
-46.6897623777
 31
0.0
  0
LINE
  5
AF
330
1F
100
AcDbEntity
  8
0
  6
Continuous
 62
     7
370
    25
100
AcDbLine
 10
114.8106844332
 20
-57.5046483531
 30
0.0
 11
114.9879823614
 21
-57.5643705554
 31
0.0
  0
LINE
  5
B0
330
1F
100
AcDbEntity
  8
0
  6
Continuous
 62
     7
370
    25
100
AcDbLine
 10
122.0798994893
 20
-57.5643705554
 30
0.0
 11
122.2571974175
 21
-57.5046483531
 31
0.0
  0
LINE
  5
B1
330
1F
100
AcDbEntity
  8
0
  6
Continuous
 62
     7
370
    25
100
AcDbLine
 10
127.1339409254
 20
-44.1848945351
 30
0.0
 11
127.1339409254
 21
168.6365386479
 31
0.0
  0
LINE
  5
B2
330
1F
100
AcDbEntity
  8
0
  6
Continuous
 62
     7
370
    25
100
AcDbLine
 10
109.9339409254
 20
168.6365386479
 30
0.0
 11
109.9339409254
 21
-44.1848945351
 31
0.0
  0
LINE
  5
B3
330
1F
100
AcDbEntity
  8
0
  6
Continuous
 62
     7
370
    25
100
AcDbLine
 10
109.9339409254
 20
-44.1848945351
 30
0.0
 11
109.9339409254
 21
-44.3317512168
 31
0.0
  0
LINE
  5
B4
330
1F
100
AcDbEntity
  8
0
  6
Continuous
 62
     7
370
    25
100
AcDbLine
 10
127.1339409254
 20
-44.3317512168
 30
0.0
 11
127.1339409254
 21
-44.1848945351
 31
0.0
  0
LINE
  5
B5
330
1F
100
AcDbEntity
  8
0
  6
Continuous
 62
     7
370
    25
100
AcDbLine
 10
129.3339409254
 20
-44.7723212619
 30
0.0
 11
129.3339409254
 21
-44.7563677005
 31
0.0
  0
ARC
  5
B6
330
1F
100
AcDbEntity
  8
0
  6
Continuous
 62
     7
370
    25
100
AcDbCircle
 10
192.5267063376
 20
168.6365386479
 30
0.0
 40
10.62999999999998
100
AcDbArc
 50
14.157651444
 51
20.4937008693
  0
ARC
  5
B7
330
1F
100
AcDbEntity
  8
0
  6
Continuous
 62
     7
370
    25
100
AcDbCircle
 10
192.5267063376
 20
168.6365386479
 30
0.0
 40
10.62999999999997
100
AcDbArc
 50
339.5062991307
 51
345.842348556
  0
SPLINE
  5
B8
330
1F
100
AcDbEntity
  8
0
  6
Continuous
 62
     7
370
    25
100
AcDbSpline
210
0.0
220
0.0
230
1.0
 70
     8
 71
     3
 72
    18
 73
    14
 74
     0
 42
0.00000001
 43
0.00000001
 40
0.0
 40
0.0
 40
0.0
 40
0.0
 40
0.1558562140192015
 40
0.3054591627168399
 40
0.4079826683847915
 40
0.4452203793828851
 40
0.4617350401234739
 40
0.4776738128964806
 40
0.5106853744392675
 40
0.5498893620094786
 40
0.6589115341801004
 40
0.8178126288519569
 40
1.0
 40
1.0
 40
1.0
 40
1.0
 10
200.4528197722226
 20
163.4340369856
 30
0.0
 10
200.537342673637
 20
163.7367567333173
 30
0.0
 10
200.7029972473664
 20
164.3300505025614
 30
0.0
 10
201.077774488009
 20
165.3804962771706
 30
0.0
 10
201.3886153050559
 20
166.414005000285
 30
0.0
 10
201.5451288814534
 20
167.2569607394431
 30
0.0
 10
201.598192990394
 20
167.691901488001
 30
0.0
 10
201.633698911655
 20
168.1213649591091
 30
0.0
 10
201.644190407491
 20
168.7029346301471
 30
0.0
 10
201.5738968033814
 20
169.7096388311567
 30
0.0
 10
201.3148370455381
 20
170.9622230069727
 30
0.0
 10
200.8593440425518
 20
172.4131264426826
 30
0.0
 10
200.5901754930639
 20
173.3543877777086
 30
0.0
 10
200.4464030840231
 20
173.8571486312
 30
0.0
  0
SPLINE
  5
B9
330
1F
100
AcDbEntity
  8
0
  6
Continuous
 62
     7
370
    25
100
AcDbSpline
210
0.0
220
0.0
230
1.0
 70
     8
 71
     3
 72
     9
 73
     5
 74
     0
 42
0.00000001
 43
0.00000001
 40
0.0
 40
0.0
 40
0.0
 40
0.0
 40
0.2217253967957298
 40
0.9999999999999999
 40
0.9999999999999999
 40
0.9999999999999999
 40
0.9999999999999999
 10
190.1455271668739
 20
165.0094049986007
 30
0.0
 10
190.139501878316
 20
164.9924153826853
 30
0.0
 10
190.1123273252653
 20
164.9157908003829
 30
0.0
 10
190.1521315842006
 20
164.8321794476676
 30
0.0
 10
190.1831102280293
 20
164.7671068553097
 30
0.0
  0
LINE
  5
BA
330
1F
100
AcDbEntity
  8
0
  6
Continuous
 62
     7
370
    25
100
AcDbLine
 10
190.183110228
 20
172.5059704406
 30
0.0
 11
190.1591398177
 21
172.2657208826
 31
0.0
  0
LINE
  5
BB
330
1F
100
AcDbEntity
  8
0
  6
Continuous
 62
     7
370
    25
100
AcDbLine
 10
190.1287470027
 20
172.268402793
 30
0.0
 11
190.1287470027
 21
165.0046745029
 31
0.0
  0
ARC
  5
BC
330
1F
100
AcDbEntity
  8
0
  6
Continuous
 62
     7
370
    25
100
AcDbCircle
 10
186.2339409254
 20
157.1646490332
 30
0.0
 40
0.5000000000000063
100
AcDbArc
 50
180.0
 51
271.0
  0
ARC
  5
BD
330
1F
100
AcDbEntity
  8
0
  6
Continuous
 62
     7
370
    25
100
AcDbCircle
 10
186.2339409254
 20
180.1084282627
 30
0.0
 40
0.5
100
AcDbArc
 50
89.0
 51
180.0
  0
LINE
  5
BE
330
1F
100
AcDbEntity
  8
0
  6
Continuous
 62
     7
370
    25
100
AcDbLine
 10
190.2688457382
 20
180.5380749012
 30
0.0
 11
186.2426671286
 21
180.6083521103
 31
0.0
  0
LINE
  5
BF
330
1F
100
AcDbEntity
  8
0
  6
Continuous
 62
     7
370
    25
100
AcDbLine
 10
186.2426671286
 20
156.6647251856
 30
0.0
 11
190.2688457382
 21
156.7350023947
 31
0.0
  0
ARC
  5
C0
330
1F
100
AcDbEntity
  8
0
  6
Continuous
 62
     7
370
    25
100
AcDbCircle
 10
190.2339409254
 20
158.734697785
 30
0.0
 40
2.000000000000026
100
AcDbArc
 50
271.0
 51
0.0
  0
ARC
  5
C1
330
1F
100
AcDbEntity
  8
0
  6
Continuous
 62
     7
370
    25
100
AcDbCircle
 10
190.2339409254
 20
178.5383795109
 30
0.0
 40
1.999999999999972
100
AcDbArc
 50
0.0
 51
89.0
  0
ARC
  5
C2
330
1F
100
AcDbEntity
  8
0
  6
Continuous
 62
     7
370
    25
100
AcDbCircle
 10
200.0839409254
 20
160.2370949937
 30
0.0
 40
0.5000000000000048
100
AcDbArc
 50
271.0
 51
0.0
  0
ARC
  5
C3
330
1F
100
AcDbEntity
  8
0
  6
Continuous
 62
     7
370
    25
100
AcDbCircle
 10
200.0839409254
 20
177.0359823022
 30
0.0
 40
0.5
100
AcDbArc
 50
0.0
 51
89.0
  0
ARC
  5
C4
330
1F
100
AcDbEntity
  8
0
  6
Continuous
 62
     7
370
    25
100
AcDbCircle
 10
195.7839409254
 20
181.16165601
 30
0.0
 40
3.550000000000013
100
AcDbArc
 50
241.8464790807
 51
269.0
  0
ARC
  5
C5
330
1F
100
AcDbEntity
  8
0
  6
Continuous
 62
     7
370
    25
100
AcDbCircle
 10
194.8339409254
 20
157.0449836859
 30
0.0
 40
2.600000000000017
100
AcDbArc
 50
91.0
 51
120.5908421204
  0
SPLINE
  5
C6
330
1F
100
AcDbEntity
  8
0
  6
Continuous
 62
     7
370
    25
100
AcDbSpline
210
0.0
220
0.0
230
1.0
 70
     8
 71
     3
 72
    12
 73
     8
 74
     0
 42
0.00000001
 43
0.00000001
 40
0.0
 40
0.0
 40
0.0
 40
0.0
 40
0.0993572612460881
 40
0.4018116387846741
 40
0.6605402722315347
 40
0.8699317636848758
 40
1.0
 40
1.0
 40
1.0
 40
1.0
 10
194.0802423537751
 20
178.0530714614616
 30
0.0
 10
193.9646585306317
 20
178.1148923506022
 30
0.0
 10
193.497224899594
 20
178.3649027923673
 30
0.0
 10
192.8706340695781
 20
178.7367941517728
 30
0.0
 10
192.3098999200568
 20
179.1088857732426
 30
0.0
 10
192.0288943315511
 20
179.3507262773502
 30
0.0
 10
192.0159419784237
 20
179.3662238332627
 30
0.0
 10
192.0109791224805
 20
179.3721619154557
 30
0.0
  0
SPLINE
  5
C7
330
1F
100
AcDbEntity
  8
0
  6
Continuous
 62
     7
370
    25
100
AcDbSpline
210
0.0
220
0.0
230
1.0
 70
     8
 71
     3
 72
    10
 73
     6
 74
     0
 42
0.00000001
 43
0.00000001
 40
0.0
 40
0.0
 40
0.0
 40
0.0
 40
0.2438104372696867
 40
0.6657444047975208
 40
1.0
 40
1.0
 40
1.0
 40
1.0
 10
192.2131275614286
 20
158.3941812538018
 30
0.0
 10
192.2758904523641
 20
158.4472635365195
 30
0.0
 10
192.4472696760643
 20
158.5922090651398
 30
0.0
 10
192.8976600566162
 20
158.9054972797739
 30
0.0
 10
193.3259220712227
 20
159.1655078851241
 30
0.0
 10
193.5152251000532
 20
159.2804393836977
 30
0.0
  0
LINE
  5
C8
330
1F
100
AcDbEntity
  8
0
  6
Continuous
 62
     7
370
    25
100
AcDbLine
 10
194.7885646686
 20
159.6445876933
 30
0.0
 11
200.0926671286
 21
159.7371711461
 31
0.0
  0
LINE
  5
C9
330
1F
100
AcDbEntity
  8
0
  6
Continuous
 62
     7
370
    25
100
AcDbLine
 10
200.0926671286
 20
177.5359061498
 30
0.0
 11
195.7219848825
 21
177.6121966922
 31
0.0
  0
LINE
  5
CA
330
1F
100
AcDbEntity
  8
0
  6
Continuous
 62
     7
370
    25
100
AcDbLine
 10
200.5839409254
 20
161.4865386479
 30
0.0
 11
202.1889459149
 21
162.7114108768
 31
0.0
  0
LINE
  5
CB
330
1F
100
AcDbEntity
  8
0
  6
Continuous
 62
     7
370
    25
100
AcDbLine
 10
202.1889459149
 20
174.5616664191
 30
0.0
 11
200.5839409254
 21
175.7865386479
 31
0.0
  0
ARC
  5
CC
330
1F
100
AcDbEntity
  8
0
  6
Continuous
 62
     7
370
    25
100
AcDbCircle
 10
201.7339409254
 20
163.3076243113
 30
0.0
 40
0.7500000000000014
100
AcDbArc
 50
307.3493490446
 51
0.0
  0
ARC
  5
CD
330
1F
100
AcDbEntity
  8
0
  6
Continuous
 62
     7
370
    25
100
AcDbCircle
 10
201.7339409254
 20
173.9654529846
 30
0.0
 40
0.7500000000000014
100
AcDbArc
 50
0.0
 51
52.6506509554
  0
LINE
  5
CE
330
1F
100
AcDbEntity
  8
0
  6
Continuous
 62
     7
370
    25
100
AcDbLine
 10
176.6144287302
 20
159.1365386479
 30
0.0
 11
177.8339409254
 21
160.3865386479
 31
0.0
  0
LINE
  5
CF
330
1F
100
AcDbEntity
  8
0
  6
Continuous
 62
     7
370
    25
100
AcDbLine
 10
177.8339409254
 20
176.8865386479
 30
0.0
 11
176.6144287302
 21
178.1365386479
 31
0.0
  0
LINE
  5
D0
330
1F
100
AcDbEntity
  8
0
  6
Continuous
 62
     7
370
    25
100
AcDbLine
 10
170.5728254731
 20
159.2365386479
 30
0.0
 11
171.0390008512
 21
159.2365386479
 31
0.0
  0
SPLINE
  5
D1
330
1F
100
AcDbEntity
  8
0
  6
Continuous
 62
     7
370
    25
100
AcDbSpline
210
0.0
220
0.0
230
1.0
 70
     8
 71
     3
 72
     9
 73
     5
 74
     0
 42
0.00000001
 43
0.00000001
 40
0.0
 40
0.0
 40
0.0
 40
0.0
 40
0.5017550341705622
 40
1.0
 40
1.0
 40
1.0
 40
1.0
 10
170.9342463885118
 20
159.2441512854107
 30
0.0
 10
171.0081133587897
 20
159.3720230887127
 30
0.0
 10
171.1553305569189
 20
159.6268721576678
 30
0.0
 10
171.3026071945803
 20
159.8816602595253
 30
0.0
 10
171.3759870378794
 20
160.008607148629
 30
0.0
  0
SPLINE
  5
D2
330
1F
100
AcDbEntity
  8
0
  6
Continuous
 62
     7
370
    25
100
AcDbSpline
210
0.0
220
0.0
230
1.0
 70
     8
 71
     3
 72
     9
 73
     5
 74
     0
 42
0.00000001
 43
0.00000001
 40
0.0
 40
0.0
 40
0.0
 40
0.0
 40
0.4988337438989723
 40
1.0
 40
1.0
 40
1.0
 40
1.0
 10
170.670432598724
 20
177.264468197968
 30
0.0
 10
170.5969716913077
 20
177.391572347394
 30
0.0
 10
170.4497063783357
 20
177.6463749764874
 30
0.0
 10
170.3024777930673
 20
177.901209743421
 30
0.0
 10
170.2286917941974
 20
178.0289243294895
 30
0.0
  0
SPLINE
  5
D3
330
1F
100
AcDbEntity
  8
0
  6
Continuous
 62
     7
370
    25
100
AcDbSpline
210
0.0
220
0.0
230
1.0
 70
     8
 71
     3
 72
     9
 73
     5
 74
     0
 42
0.00000001
 43
0.00000001
 40
0.0
 40
0.0
 40
0.0
 40
0.0
 40
0.5011016814587623
 40
1.0
 40
1.0
 40
1.0
 40
1.0
 10
170.1224384595658
 20
160.0086279612238
 30
0.0
 10
170.1962306195683
 20
159.8809403315233
 30
0.0
 10
170.3434904726738
 20
159.6261265194266
 30
0.0
 10
170.4907304940117
 20
159.3712923812899
 30
0.0
 10
170.5641882930792
 20
159.2441560582665
 30
0.0
  0
SPLINE
  5
D4
330
1F
100
AcDbEntity
  8
0
  6
Continuous
 62
     7
370
    25
100
AcDbSpline
210
0.0
220
0.0
230
1.0
 70
     8
 71
     3
 72
     9
 73
     5
 74
     0
 42
0.00000001
 43
0.00000001
 40
0.0
 40
0.0
 40
0.0
 40
0.0
 40
0.3558179474155745
 40
1.0
 40
1.0
 40
1.0
 40
1.0
 10
171.1716295548119
 20
177.8591170165963
 30
0.0
 10
171.1308752450925
 20
177.7885826591871
 30
0.0
 10
171.0163382746684
 20
177.5903510693486
 30
0.0
 10
170.9017858279264
 20
177.3921350851462
 30
0.0
 10
170.8279931976555
 20
177.2644479055876
 30
0.0
  0
LINE
  5
D5
330
1F
100
AcDbEntity
  8
0
  6
Continuous
 62
     7
370
    25
100
AcDbLine
 10
171.5339409254
 20
177.5365386479
 30
0.0
 11
171.2047938211
 21
177.8656857522
 31
0.0
  0
SPLINE
  5
D6
330
1F
100
AcDbEntity
  8
0
  6
Continuous
 62
     7
370
    25
100
AcDbSpline
210
0.0
220
0.0
230
1.0
 70
     8
 71
     3
 72
     9
 73
     5
 74
     0
 42
0.00000001
 43
0.00000001
 40
0.0
 40
0.0
 40
0.0
 40
0.0
 40
0.5112090479899531
 40
1.0
 40
1.0
 40
1.0
 40
1.0
 10
170.837262825035
 20
177.272750198854
 30
0.0
 10
170.808030227747
 20
177.272745920604
 30
0.0
 10
170.7508469728671
 20
177.2727375517186
 30
0.0
 10
170.6936190173359
 20
177.2727457390653
 30
0.0
 10
170.6656465104703
 20
177.2727497409662
 30
0.0
  0
LINE
  5
D7
330
1F
100
AcDbEntity
  8
0
  6
Continuous
 62
     7
370
    25
100
AcDbLine
 10
171.5339409254
 20
160.5115386479
 30
0.0
 11
173.0339409254
 21
160.5115386479
 31
0.0
  0
LINE
  5
D8
330
1F
100
AcDbEntity
  8
0
  6
Continuous
 62
     7
370
    25
100
AcDbLine
 10
173.0339409254
 20
176.7615386479
 30
0.0
 11
171.5339409254
 21
176.7615386479
 31
0.0
  0
ARC
  5
D9
330
1F
100
AcDbEntity
  8
0
  6
Continuous
 62
     7
370
    25
100
AcDbCircle
 10
162.6339409254
 20
162.8955502759
 30
0.0
 40
9.134011627907
100
AcDbArc
 50
270.0
 51
328.0464183091
  0
ARC
  5
DA
330
1F
100
AcDbEntity
  8
0
  6
Continuous
 62
     7
370
    25
100
AcDbCircle
 10
162.6339409254
 20
174.37752702
 30
0.0
 40
9.134011627906984
100
AcDbArc
 50
31.9535816909
 51
90.0
  0
SPLINE
  5
DB
330
1F
100
AcDbEntity
  8
0
  6
Continuous
 62
     7
370
    25
100
AcDbSpline
210
0.0
220
0.0
230
1.0
 70
     8
 71
     3
 72
     9
 73
     5
 74
     0
 42
0.00000001
 43
0.00000001
 40
0.0
 40
0.0
 40
0.0
 40
0.0
 40
0.6222983036771451
 40
1.0
 40
1.0
 40
1.0
 40
1.0
 10
154.6244651954664
 20
183.3197590039501
 30
0.0
 10
154.5577494714118
 20
183.204238025829
 30
0.0
 10
154.4505408808364
 20
183.0186020094064
 30
0.0
 10
154.3433305270782
 20
182.8329669526414
 30
0.0
 10
154.3028369946004
 20
182.7628522768043
 30
0.0
  0
LINE
  5
DC
330
1F
100
AcDbEntity
  8
0
  6
Continuous
 62
     7
370
    25
100
AcDbLine
 10
153.8799710844
 20
154.1429118206
 30
0.0
 11
153.9893178652
 21
153.9535742137
 31
0.0
  0
LINE
  5
DD
330
1F
100
AcDbEntity
  8
0
  6
Continuous
 62
     7
370
    25
100
AcDbLine
 10
153.9940695202
 20
153.9491464122
 30
0.0
 11
154.1528195202
 21
153.9491464122
 31
0.0
  0
LINE
  5
DE
330
1F
100
AcDbEntity
  8
0
  6
Continuous
 62
     7
370
    25
100
AcDbLine
 10
185.7339409254
 20
174.2865386479
 30
0.0
 11
177.8339409254
 21
174.2865386479
 31
0.0
  0
LINE
  5
DF
330
1F
100
AcDbEntity
  8
0
  6
Continuous
 62
     7
370
    25
100
AcDbLine
 10
177.8339409254
 20
162.9865386479
 30
0.0
 11
185.7339409254
 21
162.9865386479
 31
0.0
  0
LINE
  5
E0
330
1F
100
AcDbEntity
  8
0
  6
Continuous
 62
     7
370
    25
100
AcDbLine
 10
132.5308920743
 20
152.4365386479
 30
0.0
 11
149.7339409254
 21
152.4365386479
 31
0.0
  0
LINE
  5
E1
330
1F
100
AcDbEntity
  8
0
  6
Continuous
 62
     7
370
    25
100
AcDbLine
 10
149.7339409254
 20
184.8365386479
 30
0.0
 11
132.5130119358
 21
184.8365386479
 31
0.0
  0
SPLINE
  5
E2
330
1F
100
AcDbEntity
  8
0
  6
Continuous
 62
     7
370
    25
100
AcDbSpline
210
0.0
220
0.0
230
1.0
 70
     8
 71
     3
 72
     9
 73
     5
 74
     0
 42
0.00000001
 43
0.00000001
 40
0.0
 40
0.0
 40
0.0
 40
0.0
 40
0.5022789970715524
 40
0.9999999999999999
 40
0.9999999999999999
 40
0.9999999999999999
 40
0.9999999999999999
 10
153.3401508553399
 20
154.1419362800088
 30
0.0
 10
153.4181259683184
 20
154.2769680680847
 30
0.0
 10
153.5733685992729
 20
154.5458062812357
 30
0.0
 10
153.7286719562447
 20
154.8146370415776
 30
0.0
 10
153.8059696988349
 20
154.9484397572329
 30
0.0
  0
SPLINE
  5
E3
330
1F
100
AcDbEntity
  8
0
  6
Continuous
 62
     7
370
    25
100
AcDbSpline
210
0.0
220
0.0
230
1.0
 70
     8
 71
     3
 72
     9
 73
     5
 74
     0
 42
0.00000001
 43
0.00000001
 40
0.0
 40
0.0
 40
0.0
 40
0.0
 40
0.5018878356540979
 40
1.0
 40
1.0
 40
1.0
 40
1.0
 10
151.8401508553399
 20
154.1419362800088
 30
0.0
 10
151.9180534445945
 20
154.27686248145
 30
0.0
 10
152.0732725667177
 20
154.5456998428207
 30
0.0
 10
152.2285984318366
 20
154.8145300254427
 30
0.0
 10
152.3059681346899
 20
154.94843760955
 30
0.0
  0
SPLINE
  5
E4
330
1F
100
AcDbEntity
  8
0
  6
Continuous
 62
     7
370
    25
100
AcDbSpline
210
0.0
220
0.0
230
1.0
 70
     8
 71
     3
 72
     9
 73
     5
 74
     0
 42
0.00000001
 43
0.00000001
 40
0.0
 40
0.0
 40
0.0
 40
0.0
 40
0.501510996466117
 40
1.0
 40
1.0
 40
1.0
 40
1.0
 10
150.3401508553399
 20
154.1419362800088
 30
0.0
 10
150.4179796337051
 20
154.2767602993518
 30
0.0
 10
150.5731682116498
 20
154.5455959186962
 30
0.0
 10
150.7285254595039
 20
154.8144297186749
 30
0.0
 10
150.8059693391785
 20
154.9484404117426
 30
0.0
  0
LINE
  5
E5
330
1F
100
AcDbEntity
  8
0
  6
Continuous
 62
     7
370
    25
100
AcDbLine
 10
154.3213338936
 20
182.7308229226
 30
0.0
 11
154.09015249
 21
183.1311381892
 31
0.0
  0
SPLINE
  5
E6
330
1F
100
AcDbEntity
  8
0
  6
Continuous
 62
     7
370
    25
100
AcDbSpline
210
0.0
220
0.0
230
1.0
 70
     8
 71
     3
 72
     9
 73
     5
 74
     0
 42
0.00000001
 43
0.00000001
 40
0.0
 40
0.0
 40
0.0
 40
0.0
 40
0.5016435549345866
 40
1.0
 40
1.0
 40
1.0
 40
1.0
 10
153.0592712332427
 20
182.3189221775573
 30
0.0
 10
152.9808008731333
 20
182.4547347904089
 30
0.0
 10
152.8243743441017
 20
182.7254700794715
 30
0.0
 10
152.6680551619224
 20
182.9962121389285
 30
0.0
 10
152.590152489996
 20
183.1311381892092
 30
0.0
  0
SPLINE
  5
E7
330
1F
100
AcDbEntity
  8
0
  6
Continuous
 62
     7
370
    25
100
AcDbSpline
210
0.0
220
0.0
230
1.0
 70
     8
 71
     3
 72
     9
 73
     5
 74
     0
 42
0.00000001
 43
0.00000001
 40
0.0
 40
0.0
 40
0.0
 40
0.0
 40
0.502016030313312
 40
1.0
 40
1.0
 40
1.0
 40
1.0
 10
151.5592712332427
 20
182.3189221775573
 30
0.0
 10
151.4807269909626
 20
182.4548370155326
 30
0.0
 10
151.3242693530836
 20
182.7255750592768
 30
0.0
 10
151.167981390178
 20
182.996314358321
 30
0.0
 10
151.090152489996
 20
183.1311381892092
 30
0.0
  0
LINE
  5
E8
330
1F
100
AcDbEntity
  8
0
  6
Continuous
 62
     7
370
    25
100
AcDbLine
 10
154.1711869058
 20
154.9540240453
 30
0.0
 11
154.3511330698
 21
154.6425037884
 31
0.0
  0
SPLINE
  5
E9
330
1F
100
AcDbEntity
  8
0
  6
Continuous
 62
     7
370
    25
100
AcDbSpline
210
0.0
220
0.0
230
1.0
 70
     8
 71
     3
 72
     9
 73
     5
 74
     0
 42
0.00000001
 43
0.00000001
 40
0.0
 40
0.0
 40
0.0
 40
0.0
 40
0.4981726380348059
 40
1.0
 40
1.0
 40
1.0
 40
1.0
 10
152.6711869057963
 20
154.9540240453104
 30
0.0
 10
152.7491034668781
 20
154.8191605088724
 30
0.0
 10
152.9055082051816
 20
154.5484440420465
 30
0.0
 10
153.0618507130187
 20
154.277680884644
 30
0.0
 10
153.1403076612895
 20
154.1418045236472
 30
0.0
  0
SPLINE
  5
EA
330
1F
100
AcDbEntity
  8
0
  6
Continuous
 62
     7
370
    25
100
AcDbSpline
210
0.0
220
0.0
230
1.0
 70
     8
 71
     3
 72
     9
 73
     5
 74
     0
 42
0.00000001
 43
0.00000001
 40
0.0
 40
0.0
 40
0.0
 40
0.0
 40
0.4977054804244463
 40
0.9999999999999999
 40
0.9999999999999999
 40
0.9999999999999999
 40
0.9999999999999999
 10
151.1711869057963
 20
154.9540240453103
 30
0.0
 10
151.2490365604061
 20
154.8192995189483
 30
0.0
 10
151.4054536738832
 20
154.5486082534086
 30
0.0
 10
151.5617838637002
 20
154.277819986221
 30
0.0
 10
151.6403076612895
 20
154.1418045236472
 30
0.0
  0
SPLINE
  5
EB
330
1F
100
AcDbEntity
  8
0
  6
Continuous
 62
     7
370
    25
100
AcDbSpline
210
0.0
220
0.0
230
1.0
 70
     8
 71
     3
 72
     9
 73
     5
 74
     0
 42
0.00000001
 43
0.00000001
 40
0.0
 40
0.0
 40
0.0
 40
0.0
 40
0.5048333721705174
 40
0.9999999999999999
 40
0.9999999999999999
 40
0.9999999999999999
 40
0.9999999999999999
 10
153.8903084752468
 20
183.1312741623752
 30
0.0
 10
153.8119185453157
 20
182.9955315033772
 30
0.0
 10
153.6566397261005
 20
182.7266454382297
 30
0.0
 10
153.5013217904875
 20
182.457774859099
 30
0.0
 10
153.4244135320685
 20
182.3246391211082
 30
0.0
  0
SPLINE
  5
EC
330
1F
100
AcDbEntity
  8
0
  6
Continuous
 62
     7
370
    25
100
AcDbSpline
210
0.0
220
0.0
230
1.0
 70
     8
 71
     3
 72
     9
 73
     5
 74
     0
 42
0.00000001
 43
0.00000001
 40
0.0
 40
0.0
 40
0.0
 40
0.0
 40
0.5018269838139369
 40
1.0
 40
1.0
 40
1.0
 40
1.0
 10
152.3903084752468
 20
183.1312741623752
 30
0.0
 10
152.3118515158643
 20
182.9953978779783
 30
0.0
 10
152.1555088680732
 20
182.7246346691842
 30
0.0
 10
151.999104341526
 20
182.4539183760032
 30
0.0
 10
151.9211878267908
 20
182.3190548236986
 30
0.0
  0
LINE
  5
ED
330
1F
100
AcDbEntity
  8
0
  6
Continuous
 62
     7
370
    25
100
AcDbLine
 10
153.146304832
 20
154.1365386479
 30
0.0
 11
153.1839409254
 21
154.1365386479
 31
0.0
  0
LINE
  5
EE
330
1F
100
AcDbEntity
  8
0
  6
Continuous
 62
     7
370
    25
100
AcDbLine
 10
151.646304832
 20
154.1365386479
 30
0.0
 11
151.8340746824
 21
154.1365386479
 31
0.0
  0
LINE
  5
EF
330
1F
100
AcDbEntity
  8
0
  6
Continuous
 62
     7
370
    25
100
AcDbLine
 10
149.7339409254
 20
154.1365386479
 30
0.0
 11
150.3340746824
 21
154.1365386479
 31
0.0
  0
LINE
  5
F0
330
1F
100
AcDbEntity
  8
0
  6
Continuous
 62
     7
370
    25
100
AcDbLine
 10
151.0839443803
 20
183.1365386479
 30
0.0
 11
149.7339409254
 21
183.1365386479
 31
0.0
  0
LINE
  5
F1
330
1F
100
AcDbEntity
  8
0
  6
Continuous
 62
     7
370
    25
100
AcDbLine
 10
152.5839443803
 20
183.1365386479
 30
0.0
 11
152.3962513891
 21
183.1365386479
 31
0.0
  0
LINE
  5
F2
330
1F
100
AcDbEntity
  8
0
  6
Continuous
 62
     7
370
    25
100
AcDbLine
 10
151.9278147286
 20
182.3246377881
 30
0.0
 11
151.5559688235
 21
182.3246377881
 31
0.0
  0
LINE
  5
F3
330
1F
100
AcDbEntity
  8
0
  6
Continuous
 62
     7
370
    25
100
AcDbLine
 10
153.4276177975
 20
182.3246391211
 30
0.0
 11
153.0559684674
 21
182.3246391211
 31
0.0
  0
LINE
  5
F4
330
1F
100
AcDbEntity
  8
0
  6
Continuous
 62
     7
370
    25
100
AcDbLine
 10
153.8028220536
 20
154.9484397572
 30
0.0
 11
154.1744126068
 21
154.9484397572
 31
0.0
  0
LINE
  5
F5
330
1F
100
AcDbEntity
  8
0
  6
Continuous
 62
     7
370
    25
100
AcDbLine
 10
152.3026575154
 20
154.9484376096
 30
0.0
 11
152.6744141283
 21
154.9484376096
 31
0.0
  0
LINE
  5
F6
330
1F
100
AcDbEntity
  8
0
  6
Continuous
 62
     7
370
    25
100
AcDbLine
 10
150.8025422764
 20
154.9484404117
 30
0.0
 11
151.1744128814
 21
154.9484404117
 31
0.0
  0
ARC
  5
F7
330
1F
100
AcDbEntity
  8
0
  6
Continuous
 62
     7
370
    25
100
AcDbCircle
 10
118.3487703464
 20
-44.7847442617
 30
0.0
 40
11.36483621089093
100
AcDbArc
 50
137.7677859272
 51
179.9373694799
  0
ARC
  5
F8
330
1F
100
AcDbEntity
  8
0
  6
Continuous
 62
     7
370
    25
100
AcDbCircle
 10
118.4956202617
 20
-44.7551220267
 30
0.0
 40
11.51169218472653
100
AcDbArc
 50
180.0856037443
 51
41.3753612174
  0
ARC
  5
F9
330
1F
100
AcDbEntity
  8
0
  6
Continuous
 62
     7
370
    25
100
AcDbCircle
 10
118.3454926291
 20
-44.7793856283
 30
0.0
 40
10.6115540551639
100
AcDbArc
 50
142.4365392071
 51
179.9618568208
  0
ARC
  5
FA
330
1F
100
AcDbEntity
  8
0
  6
Continuous
 62
     7
370
    25
100
AcDbCircle
 10
118.5222810403
 20
-44.7022842195
 30
0.0
 40
10.78856745002172
100
AcDbArc
 50
180.3719543995
 51
13.2028304009
  0
LWPOLYLINE
  5
FB
330
1F
100
AcDbEntity
  8
0
  6
Continuous
 62
     7
370
    25
100
AcDbPolyline
 90
       20
 70
   128
 43
0.0
 10
106.9839409254
 20
-46.6897623777
 10
107.1594113781
 20
-48.6736532794
 10
107.6804911553
 20
-50.59726466
 10
108.5313475117
 20
-52.402148561
 10
109.6861276073
 20
-54.0334644984
 10
111.1097440335
 20
-55.441645763
 10
112.7589409254
 20
-56.5839054796
 10
114.58360827
 20
-57.4255366648
 10
116.5283044733
 20
-57.9409667807
 10
118.5339409254
 20
-58.1145347443
 10
120.5395773774
 20
-57.9409667807
 10
122.4842735808
 20
-57.4255366648
 10
124.3089409254
 20
-56.5839054796
 10
125.9581378172
 20
-55.441645763
 10
127.3817542434
 20
-54.0334644984
 10
128.5365343391
 20
-52.402148561
 10
129.3873906954
 20
-50.59726466
 10
129.9084704727
 20
-48.6736532794
 10
130.0839409254
 20
-46.6897623777
 10
130.0839409254
 20
-46.6897623777
  0
ARC
  5
FC
330
1F
100
AcDbEntity
  8
0
  6
Continuous
 62
     7
370
    25
100
AcDbCircle
 10
118.5339409254
 20
-47.0343649849
 30
0.0
 40
11.11102333051456
100
AcDbArc
 50
251.3891493208
 51
288.6108506792
  0
ARC
  5
FD
330
1F
100
AcDbEntity
  8
0
  6
Continuous
 62
     7
370
    25
100
AcDbCircle
 10
118.5339409254
 20
168.6365386479
 30
0.0
 40
8.599999999999994
100
AcDbArc
 50
0.0
 51
90.0
  0
ARC
  5
FE
330
1F
100
AcDbEntity
  8
0
  6
Continuous
 62
     7
370
    25
100
AcDbCircle
 10
118.5339409254
 20
168.6365386479
 30
0.0
 40
8.599999999999994
100
AcDbArc
 50
90.0
 51
180.0
  0
ARC
  5
FF
330
1F
100
AcDbEntity
  8
0
  6
Continuous
 62
     7
370
    25
100
AcDbCircle
 10
118.581881179
 20
-44.2864628386
 30
0.0
 40
8.5521796603599
100
AcDbArc
 50
269.6788200558
 51
359.6965866989
  0
ARC
  5
100
330
1F
100
AcDbEntity
  8
0
  6
Continuous
 62
     7
370
    25
100
AcDbCircle
 10
118.4860006718
 20
-44.2864628386
 30
0.0
 40
8.552179660359872
100
AcDbArc
 50
180.3034133011
 51
270.3211799442
  0
SPLINE
  5
101
330
1F
100
AcDbEntity
  8
0
  6
Continuous
 62
     7
370
    25
100
AcDbSpline
210
0.0
220
0.0
230
1.0
 70
     8
 71
     3
 72
    10
 73
     6
 74
     0
 42
0.00000001
 43
0.00000001
 40
0.0
 40
0.0
 40
0.0
 40
0.0
 40
0.2157678280198594
 40
0.9149182642890074
 40
1.0
 40
1.0
 40
1.0
 40
1.0
 10
129.2768924161313
 20
-43.79520623451231
 30
0.0
 10
129.2740618149876
 20
-43.80539836408369
 30
0.0
 10
129.2620592439412
 20
-43.84861595394583
 30
0.0
 10
129.2431891504796
 20
-43.92572525812204
 30
0.0
 10
129.2277691776979
 20
-43.99033195419864
 30
0.0
 10
129.2260962572341
 20
-43.9973411665686
 30
0.0
  0
SPLINE
  5
102
330
1F
100
AcDbEntity
  8
0
  6
Continuous
 62
     7
370
    25
100
AcDbSpline
210
0.0
220
0.0
230
1.0
 70
     8
 71
     3
 72
     9
 73
     5
 74
     0
 42
0.00000001
 43
0.00000001
 40
0.0
 40
0.0
 40
0.0
 40
0.0
 40
0.6744029794901452
 40
1.0
 40
1.0
 40
1.0
 40
1.0
 10
129.2260962572396
 20
-43.99734116656927
 30
0.0
 10
129.2029858104816
 20
-44.64203548870875
 30
0.0
 10
129.1687178023903
 20
-45.59798370030603
 30
0.0
 10
128.9776614678283
 20
-46.55223375887917
 30
0.0
 10
128.9154540945454
 20
-46.86293473477181
 30
0.0
  0
SPLINE
  5
103
330
1F
100
AcDbEntity
  8
0
  6
Continuous
 62
     7
370
    25
100
AcDbSpline
210
0.0
220
0.0
230
1.0
 70
     8
 71
     3
 72
    19
 73
    15
 74
     0
 42
0.00000001
 43
0.00000001
 40
0.0
 40
0.0
 40
0.0
 40
0.0
 40
0.0317355442705363
 40
0.1254801971740203
 40
0.2192216577941349
 40
0.3132585416738025
 40
0.4074542458100787
 40
0.5017654244255262
 40
0.5963399832143333
 40
0.685728034221983
 40
0.7751158982253032
 40
0.8699800726109996
 40
0.9649669391901936
 40
1.0
 40
1.0
 40
1.0
 40
1.0
 10
128.9154556604017
 20
-46.86292747699942
 30
0.0
 10
128.8204448264421
 20
-47.25032086536628
 30
0.0
 10
128.4447784103477
 20
-48.78204814068253
 30
0.0
 10
127.09448401191
 20
-51.26345343896708
 30
0.0
 10
124.4383360681439
 20
-53.71353263341831
 30
0.0
 10
121.09842777009
 20
-55.16095549021181
 30
0.0
 10
117.4599924168984
 20
-55.43427342306782
 30
0.0
 10
113.9290578279111
 20
-54.50424652246953
 30
0.0
 10
110.9593252163701
 20
-52.50439157451252
 30
0.0
 10
108.8472934939115
 20
-49.72640179189384
 30
0.0
 10
107.7026754191265
 20
-46.41976970543831
 30
0.0
 10
107.755108250997
 20
-42.89518178732603
 30
0.0
 10
108.5694642571091
 20
-40.0777043880619
 30
0.0
 10
109.654091160314
 20
-38.84352888658242
 30
0.0
 10
109.9463371338273
 20
-38.51098797334272
 30
0.0
  0
ARC
  5
104
330
1F
100
AcDbEntity
  8
0
  6
Continuous
 62
     7
370
    25
100
AcDbCircle
 10
118.7274617932
 20
-44.761485101
 30
0.0
 40
10.60634630153691
100
AcDbArc
 50
358.6536831118
 51
37.5718291997
  0
LINE
  5
105
330
1F
100
AcDbEntity
  8
0
  6
Continuous
 62
     7
370
    25
100
AcDbLine
 10
129.3308801347
 20
-45.0106865126
 30
0.0
 11
129.2768924161
 21
-43.7952062345
 31
0.0
  0
ELLIPSE
  5
106
330
1F
100
AcDbEntity
  8
0
  6
Continuous
 62
     7
370
    25
100
AcDbEllipse
 10
118.5339409254
 20
-43.8565346813
 30
0.0
 11
-7.47783520084353
 21
8.46591729516849
 31
0.0
210
0.0
220
0.0
230
1.0
 40
0.9204473321
 41
3.737325233268411
 42
3.923781357698696
  0
LINE
  5
107
330
1F
100
AcDbEntity
  8
0
  6
Continuous
 62
     7
370
    25
100
AcDbLine
 10
129.2768924161
 20
-43.7952062345
 30
0.0
 11
129.2224409301
 21
-44.0475885847
 31
0.0
  0
LINE
  5
108
330
1F
100
AcDbEntity
  8
0
  6
Continuous
 62
     7
370
    25
100
AcDbLine
 10
202.8338349387
 20
166.0365386479
 30
0.0
 11
202.8163564774
 21
166.0365386479
 31
0.0
  0
LINE
  5
109
330
1F
100
AcDbEntity
  8
0
  6
Continuous
 62
     7
370
    25
100
AcDbLine
 10
202.8163564774
 20
171.2365386479
 30
0.0
 11
202.8338349387
 21
171.2365386479
 31
0.0
  0
ARC
  5
10A
330
1F
100
AcDbEntity
  8
0
  6
Continuous
 62
     7
370
    25
100
AcDbCircle
 10
192.5267063376
 20
168.6365386479
 30
0.0
 40
10.6130532835749
100
AcDbArc
 50
7.3079276166
 51
14.1807309007
  0
SPLINE
  5
10B
330
1F
100
AcDbEntity
  8
0
  6
Continuous
 62
     7
370
    25
100
AcDbSpline
210
0.0
220
0.0
230
1.0
 70
     8
 71
     3
 72
    12
 73
     8
 74
     0
 42
0.00000001
 43
0.00000001
 40
0.0
 40
0.0
 40
0.0
 40
0.0
 40
0.2133534395476195
 40
0.4267919313634604
 40
0.6383539739091532
 40
0.8490950351927729
 40
0.9999999999999999
 40
0.9999999999999999
 40
0.9999999999999999
 40
0.9999999999999999
 10
203.0535482191669
 20
169.2365386479448
 30
0.0
 10
203.0632073628942
 20
169.2446402080608
 30
0.0
 10
203.0825295009176
 20
169.2608465579388
 30
0.0
 10
203.0948425709258
 20
169.3882476829546
 30
0.0
 10
203.092505130629
 20
169.5756416988604
 30
0.0
 10
203.0773876116153
 20
169.7866177241516
 30
0.0
 10
203.0605669992343
 20
169.9276780457706
 30
0.0
 10
203.0535482191669
 20
169.9865386479448
 30
0.0
  0
LINE
  5
10C
330
1F
100
AcDbEntity
  8
0
  6
Continuous
 62
     7
370
    25
100
AcDbLine
 10
202.8163564774
 20
169.2365386479
 30
0.0
 11
203.0535482192
 21
169.2365386479
 31
0.0
  0
ARC
  5
10D
330
1F
100
AcDbEntity
  8
0
  6
Continuous
 62
     7
370
    25
100
AcDbCircle
 10
192.5267063376
 20
168.6365386479
 30
0.0
 40
10.30712860111874
100
AcDbArc
 50
356.6628035549
 51
3.3371964451
  0
LINE
  5
10E
330
1F
100
AcDbEntity
  8
0
  6
Continuous
 62
     7
370
    25
100
AcDbLine
 10
203.0535482192
 20
168.0365386479
 30
0.0
 11
202.8163564774
 21
168.0365386479
 31
0.0
  0
SPLINE
  5
10F
330
1F
100
AcDbEntity
  8
0
  6
Continuous
 62
     7
370
    25
100
AcDbSpline
210
0.0
220
0.0
230
1.0
 70
     8
 71
     3
 72
    12
 73
     8
 74
     0
 42
0.00000001
 43
0.00000001
 40
0.0
 40
0.0
 40
0.0
 40
0.0
 40
0.2133534395476153
 40
0.4267919313634484
 40
0.6383539739091478
 40
0.8490950351927498
 40
1.0
 40
1.0
 40
1.0
 40
1.0
 10
203.0535482191669
 20
167.2865386479448
 30
0.0
 10
203.0632073628942
 20
167.3700324361019
 30
0.0
 10
203.0825295009176
 20
167.5370532967921
 30
0.0
 10
203.0948425709258
 20
167.7608900583896
 30
0.0
 10
203.0925051306291
 20
167.9299757792668
 30
0.0
 10
203.0773876116152
 20
168.0226373654768
 30
0.0
 10
203.0605669992343
 20
168.0324458404411
 30
0.0
 10
203.0535482191669
 20
168.0365386479448
 30
0.0
  0
ARC
  5
110
330
1F
100
AcDbEntity
  8
0
  6
Continuous
 62
     7
370
    25
100
AcDbCircle
 10
192.5267063376
 20
168.6365386479
 30
0.0
 40
10.6130532835749
100
AcDbArc
 50
345.8192690993
 51
352.6920723834
  0
LINE
  5
111
330
1F
100
AcDbEntity
  8
0
  6
Continuous
 62
     7
370
    25
100
AcDbLine
 10
198.1537597918
 20
165.879758391
 30
0.0
 11
198.4224703744
 21
165.8841968441
 31
0.0
  0
LINE
  5
112
330
1F
100
AcDbEntity
  8
0
  6
Continuous
 62
     7
370
    25
100
AcDbLine
 10
198.1537597918
 20
171.3933189049
 30
0.0
 11
198.1537597918
 21
165.879758391
 31
0.0
  0
LINE
  5
113
330
1F
100
AcDbEntity
  8
0
  6
Continuous
 62
     7
370
    25
100
AcDbLine
 10
198.4224703744
 20
171.3888804518
 30
0.0
 11
198.1537597918
 21
171.3933189049
 31
0.0
  0
SPLINE
  5
114
330
1F
100
AcDbEntity
  8
0
  6
Continuous
 62
     7
370
    25
100
AcDbSpline
210
0.0
220
0.0
230
1.0
 70
     8
 71
     3
 72
    11
 73
     7
 74
     0
 42
0.00000001
 43
0.00000001
 40
0.0
 40
0.0
 40
0.0
 40
0.0
 40
0.0800485240044427
 40
0.5000005853538806
 40
0.9209248322279652
 40
1.0
 40
1.0
 40
1.0
 40
1.0
 10
198.4224703743762
 20
165.884196844101
 30
0.0
 10
198.4388693058802
 20
166.0304412692016
 30
0.0
 10
198.5413006180523
 20
166.9439159280346
 30
0.0
 10
198.6120936420216
 20
168.6383255157933
 30
0.0
 10
198.5411859656623
 20
170.330952367648
 30
0.0
 10
198.4386815077663
 20
171.2444157432918
 30
0.0
 10
198.4224703743768
 20
171.3888804517831
 30
0.0
  0
SPLINE
  5
115
330
1F
100
AcDbEntity
  8
0
  6
Continuous
 62
     7
370
    25
100
AcDbSpline
210
0.0
220
0.0
230
1.0
 70
     8
 71
     3
 72
    12
 73
     8
 74
     0
 42
0.00000001
 43
0.00000001
 40
0.0
 40
0.0
 40
0.0
 40
0.0
 40
0.1224290494151363
 40
0.342352244977049
 40
0.5614228816909438
 40
0.7807229538533524
 40
1.0
 40
1.0
 40
1.0
 40
1.0
 10
198.4224703743762
 20
165.884196844101
 30
0.0
 10
198.5462338977687
 20
165.8818381596601
 30
0.0
 10
198.8923177747744
 20
165.8752424953353
 30
0.0
 10
199.4333680088719
 20
165.858234527596
 30
0.0
 10
199.9469881680811
 20
165.8327235534417
 30
0.0
 10
200.3034686324412
 20
165.8031713708823
 30
0.0
 10
200.3592428761967
 20
165.7834050940033
 30
0.0
 10
200.387128533955
 20
165.7735224744448
 30
0.0
  0
SPLINE
  5
116
330
1F
100
AcDbEntity
  8
0
  6
Continuous
 62
     7
370
    25
100
AcDbSpline
210
0.0
220
0.0
230
1.0
 70
     8
 71
     3
 72
    12
 73
     8
 74
     0
 42
0.00000001
 43
0.00000001
 40
0.0
 40
0.0
 40
0.0
 40
0.0
 40
0.113036747616928
 40
0.3328594693547964
 40
0.5544127937944966
 40
0.7774207483513222
 40
1.0
 40
1.0
 40
1.0
 40
1.0
 10
200.3871285339548
 20
171.4995548214467
 30
0.0
 10
200.3780600219037
 20
171.4945395757453
 30
0.0
 10
200.3513559617394
 20
171.4797711746895
 30
0.0
 10
200.1382134140753
 20
171.4541789705801
 30
0.0
 10
199.6957540977804
 20
171.4263037077092
 30
0.0
 10
199.0999510089793
 20
171.4028618341187
 30
0.0
 10
198.6481523595824
 20
171.393537922359
 30
0.0
 10
198.4224703743768
 20
171.3888804517831
 30
0.0
  0
SPLINE
  5
117
330
1F
100
AcDbEntity
  8
0
  6
Continuous
 62
     7
370
    25
100
AcDbSpline
210
0.0
220
0.0
230
1.0
 70
     8
 71
     3
 72
    11
 73
     7
 74
     0
 42
0.00000001
 43
0.00000001
 40
0.0
 40
0.0
 40
0.0
 40
0.0
 40
0.0614641195413895
 40
0.4999988937835385
 40
0.9375097801832812
 40
0.9999999999999999
 40
0.9999999999999999
 40
0.9999999999999999
 40
0.9999999999999999
 10
200.3871285339548
 20
171.4995548214467
 30
0.0
 10
200.3992874310097
 20
171.3830978489946
 30
0.0
 10
200.4981977403489
 20
170.4357425816636
 30
0.0
 10
200.5632792649603
 20
168.6384983832152
 30
0.0
 10
200.4983069569697
 20
166.8393003589744
 30
0.0
 10
200.3994799494729
 20
165.8919255345412
 30
0.0
 10
200.387128533955
 20
165.7735224744448
 30
0.0
  0
SPLINE
  5
118
330
1F
100
AcDbEntity
  8
0
  6
Continuous
 62
     7
370
    25
100
AcDbSpline
210
0.0
220
0.0
230
1.0
 70
     8
 71
     3
 72
    12
 73
     8
 74
     0
 42
0.00000001
 43
0.00000001
 40
0.0
 40
0.0
 40
0.0
 40
0.0
 40
0.2230315344150378
 40
0.4461337558340359
 40
0.6675099896777024
 40
0.8870667292265013
 40
1.0
 40
1.0
 40
1.0
 40
1.0
 10
198.4224703743768
 20
171.8880435228315
 30
0.0
 10
198.5923128517498
 20
171.8861532755367
 30
0.0
 10
198.9320516359057
 20
171.8823721818573
 30
0.0
 10
199.3803238634106
 20
171.889315018128
 30
0.0
 10
199.7129600013075
 20
171.9049038406179
 30
0.0
 10
199.8728560292895
 20
171.9242411206821
 30
0.0
 10
199.8925910698991
 20
171.9378067218585
 30
0.0
 10
199.8992942568092
 20
171.9424144022799
 30
0.0
  0
ARC
  5
119
330
1F
100
AcDbEntity
  8
0
  6
Continuous
 62
     7
370
    25
100
AcDbCircle
 10
199.8899703555
 20
171.4420256258
 30
0.0
 40
0.5004756365192046
100
AcDbArc
 50
6.6006859565
 51
88.9325132694
  0
ARC
  5
11A
330
1F
100
AcDbEntity
  8
0
  6
Continuous
 62
     7
370
    25
100
AcDbCircle
 10
190.3170629672
 20
171.6384619873
 30
0.0
 40
8.109249051473007
100
AcDbArc
 50
358.2363068264
 51
1.7636931736
  0
SPLINE
  5
11B
330
1F
100
AcDbEntity
  8
0
  6
Continuous
 62
     7
370
    25
100
AcDbSpline
210
0.0
220
0.0
230
1.0
 70
     8
 71
     3
 72
    12
 73
     8
 74
     0
 42
0.00000001
 43
0.00000001
 40
0.0
 40
0.0
 40
0.0
 40
0.0
 40
0.2190444340109338
 40
0.4380981679380299
 40
0.6571027493691834
 40
0.8772791087290026
 40
1.0
 40
1.0
 40
1.0
 40
1.0
 10
199.8992942568092
 20
165.3306628936095
 30
0.0
 10
199.8785463734116
 20
165.3394917065592
 30
0.0
 10
199.8370497257283
 20
165.3571497073015
 30
0.0
 10
199.5692429653814
 20
165.3766681967106
 30
0.0
 10
199.1829487695568
 20
165.3879739803429
 30
0.0
 10
198.7759492487867
 20
165.3897978484195
 30
0.0
 10
198.515635220438
 20
165.3862894190947
 30
0.0
 10
198.4224703743783
 20
165.3850337730581
 30
0.0
  0
ARC
  5
11C
330
1F
100
AcDbEntity
  8
0
  6
Continuous
 62
     7
370
    25
100
AcDbCircle
 10
190.3170629703
 20
165.6346153085
 30
0.0
 40
8.10924904840817
100
AcDbArc
 50
358.236306826
 51
1.7636931745
  0
ARC
  5
11D
330
1F
100
AcDbEntity
  8
0
  6
Continuous
 62
     7
370
    25
100
AcDbCircle
 10
199.8899703555
 20
165.8310516701
 30
0.0
 40
0.5004756365188123
100
AcDbArc
 50
271.0674867306
 51
353.3993140438
  0
ELLIPSE
  5
11E
330
1F
100
AcDbEntity
  8
0
  6
Continuous
 62
     7
370
    25
100
AcDbEllipse
 10
198.1188549789
 20
165.796465941
 30
0.0
 11
1.999999704111531
 21
0.0262675638983012
 31
0.0
210
0.0
220
0.0
230
1.0
 40
0.0414165792
 41
1.552799077927835
 42
2.455756810842288
  0
LINE
  5
11F
330
1F
100
AcDbEntity
  8
0
  6
Continuous
 62
     7
370
    25
100
AcDbLine
 10
196.570386288
 20
165.828597632
 30
0.0
 11
196.570386288
 21
171.4444796639
 31
0.0
  0
ELLIPSE
  5
120
330
1F
100
AcDbEntity
  8
0
  6
Continuous
 62
     7
370
    25
100
AcDbEllipse
 10
198.1188549789
 20
171.4766113549
 30
0.0
 11
1.999999704111531
 21
-0.02626756389832963
 31
0.0
210
0.0
220
0.0
230
1.0
 40
0.0414165792
 41
3.827428496337709
 42
4.730386229251747
  0
ELLIPSE
  5
121
330
1F
100
AcDbEntity
  8
0
  6
Continuous
 62
     7
370
    25
100
AcDbEllipse
 10
198.1275811821
 20
165.29730287
 30
0.0
 11
1.499999296945703
 21
0.0263027027370697
 31
0.0
210
0.0
220
0.0
230
1.0
 40
0.0552146892
 41
1.552374837086637
 42
2.45533257000029
  0
ARC
  5
122
330
1F
100
AcDbEntity
  8
0
  6
Continuous
 62
     7
370
    25
100
AcDbCircle
 10
197.0451966237
 20
165.7985927107
 30
0.0
 40
0.4757574488748316
100
AcDbArc
 50
176.3840879997
 51
260.4457404449
  0
ARC
  5
123
330
1F
100
AcDbEntity
  8
0
  6
Continuous
 62
     7
370
    25
100
AcDbCircle
 10
190.0483523845
 20
165.6301768555
 30
0.0
 40
8.109249051647575
100
AcDbArc
 50
358.2363068264
 51
1.7636931736
  0
ELLIPSE
  5
124
330
1F
100
AcDbEntity
  8
0
  6
Continuous
 62
     7
370
    25
100
AcDbEllipse
 10
198.1275811821
 20
171.9757744259
 30
0.0
 11
1.499999296945703
 21
-0.02630270273701285
 31
0.0
210
0.0
220
0.0
230
1.0
 40
0.0552146892
 41
3.827852737178512
 42
4.730810470092954
  0
ARC
  5
125
330
1F
100
AcDbEntity
  8
0
  6
Continuous
 62
     7
370
    25
100
AcDbCircle
 10
190.0483523845
 20
171.6429004404
 30
0.0
 40
8.109249051647577
100
AcDbArc
 50
358.2363068264
 51
1.7636931736
  0
ARC
  5
126
330
1F
100
AcDbEntity
  8
0
  6
Continuous
 62
     7
370
    25
100
AcDbCircle
 10
197.0451966237
 20
171.4744845852
 30
0.0
 40
0.4757574488748791
100
AcDbArc
 50
99.5542595551
 51
183.6159120003
  0
LINE
  5
127
330
1F
100
AcDbEntity
  8
0
  6
Continuous
 62
     7
370
    25
100
AcDbLine
 10
198.1537597918
 20
171.8924819759
 30
0.0
 11
198.4224703744
 21
171.8880435228
 31
0.0
  0
LINE
  5
128
330
1F
100
AcDbEntity
  8
0
  6
Continuous
 62
     7
370
    25
100
AcDbLine
 10
198.4224703744
 20
165.3850337731
 30
0.0
 11
198.1537597918
 21
165.38059532
 31
0.0
  0
LINE
  5
129
330
1F
100
AcDbEntity
  8
0
  6
Continuous
 62
     7
370
    25
100
AcDbLine
 10
199.8852469149
 20
174.5470269678
 30
0.0
 11
195.7219848825
 21
174.6183172432
 31
0.0
  0
SPLINE
  5
12A
330
1F
100
AcDbEntity
  8
0
  6
Continuous
 62
     7
370
    25
100
AcDbSpline
210
0.0
220
0.0
230
1.0
 70
     8
 71
     3
 72
    10
 73
     6
 74
     0
 42
0.00000001
 43
0.00000001
 40
0.0
 40
0.0
 40
0.0
 40
0.0
 40
0.3702896688583041
 40
0.7405318123903298
 40
1.0
 40
1.0
 40
1.0
 40
1.0
 10
199.8992942568092
 20
171.9424144022799
 30
0.0
 10
199.9713989486293
 20
172.2626054168063
 30
0.0
 10
200.1155990778959
 20
172.9029463505118
 30
0.0
 10
200.055201755915
 20
173.7721806823751
 30
0.0
 10
199.934840864451
 20
174.3209216839842
 30
0.0
 10
199.8852469149431
 20
174.547026967816
 30
0.0
  0
LINE
  5
12B
330
1F
100
AcDbEntity
  8
0
  6
Continuous
 62
     7
370
    25
100
AcDbLine
 10
194.1337902914
 20
172.1845340139
 30
0.0
 11
196.9662296639
 21
171.9436427349
 31
0.0
  0
LINE
  5
12C
330
1F
100
AcDbEntity
  8
0
  6
Continuous
 62
     7
370
    25
100
AcDbLine
 10
194.1394185425
 20
172.1844356227
 30
0.0
 11
194.1337902914
 21
172.1845340139
 31
0.0
  0
ELLIPSE
  5
12D
330
1F
100
AcDbEntity
  8
0
  6
Continuous
 62
     7
370
    25
100
AcDbEllipse
 10
205.137473206
 20
172.5140816742
 30
0.0
 11
14.49999320380851
 21
-0.2542594597913136
 31
0.0
210
0.0
220
0.0
230
1.0
 40
0.0552146892
 41
3.116244259334473
 42
3.852369595890205
  0
ELLIPSE
  5
12E
330
1F
100
AcDbEntity
  8
0
  6
Continuous
 62
     7
370
    25
100
AcDbEllipse
 10
154.9522148511
 20
173.4643652234
 30
0.0
 11
35.70262486333175
 21
-0.6260506459064175
 31
0.0
210
0.0
220
0.0
230
1.0
 40
0.0552146892
 41
0.0609777977008662
 42
0.456852105610284
  0
ELLIPSE
  5
12F
330
1F
100
AcDbEntity
  8
0
  6
Continuous
 62
     7
370
    25
100
AcDbEllipse
 10
193.7426671286
 20
173.8367612832
 30
0.0
 11
7.499996484728541
 21
-0.1315135136851779
 31
0.0
210
0.0
220
0.0
230
1.0
 40
0.0552146892
 41
3.407554101490233
 42
3.598444759200364
  0
LINE
  5
130
330
1F
100
AcDbEntity
  8
0
  6
Continuous
 62
     7
370
    25
100
AcDbLine
 10
195.1691991024
 20
173.704416832
 30
0.0
 11
186.5044601144
 21
173.8548073765
 31
0.0
  0
SPLINE
  5
131
330
1F
100
AcDbEntity
  8
0
  6
Continuous
 62
     7
370
    25
100
AcDbSpline
210
0.0
220
0.0
230
1.0
 70
     8
 71
     3
 72
    10
 73
     6
 74
     0
 42
0.00000001
 43
0.00000001
 40
0.0
 40
0.0
 40
0.0
 40
0.0
 40
0.0186368637457412
 40
0.3939469944633169
 40
1.0
 40
1.0
 40
1.0
 40
1.0
 10
195.7219848825148
 20
173.7049031992199
 30
0.0
 10
195.7192443080622
 20
173.7048154487406
 30
0.0
 10
195.6613139028477
 20
173.7029605745476
 30
0.0
 10
195.4860421312703
 20
173.7002805931696
 30
0.0
 10
195.2901652844316
 20
173.7028376745671
 30
0.0
 10
195.1691991024383
 20
173.704416831975
 30
0.0
  0
LINE
  5
132
330
1F
100
AcDbEntity
  8
0
  6
Continuous
 62
     7
370
    25
100
AcDbLine
 10
195.7219848825
 20
174.6183172432
 30
0.0
 11
195.7219848825
 21
173.7049031992
 31
0.0
  0
LINE
  5
133
330
1F
100
AcDbEntity
  8
0
  6
Continuous
 62
     7
370
    25
100
AcDbLine
 10
194.7885646686
 20
163.5519704478
 30
0.0
 11
194.7885646686
 21
162.6387759856
 31
0.0
  0
SPLINE
  5
134
330
1F
100
AcDbEntity
  8
0
  6
Continuous
 62
     7
370
    25
100
AcDbSpline
210
0.0
220
0.0
230
1.0
 70
     8
 71
     3
 72
    11
 73
     7
 74
     0
 42
0.00000001
 43
0.00000001
 40
0.0
 40
0.0
 40
0.0
 40
0.0
 40
0.4177469294495267
 40
0.8392770662410766
 40
0.9817832068819585
 40
1.0
 40
1.0
 40
1.0
 40
1.0
 10
194.2853573813256
 20
163.553319893128
 30
0.0
 10
194.3619691617162
 20
163.5544030843118
 30
0.0
 10
194.5158865354968
 20
163.5565792762948
 30
0.0
 10
194.6856423496024
 20
163.5553770994034
 30
0.0
 10
194.7663015279306
 20
163.5529065720633
 30
0.0
 10
194.7862981902167
 20
163.5520657491065
 30
0.0
 10
194.7885646686303
 20
163.551970447848
 30
0.0
  0
LINE
  5
135
330
1F
100
AcDbEntity
  8
0
  6
Continuous
 62
     7
370
    25
100
AcDbLine
 10
186.5044601144
 20
163.4182699194
 30
0.0
 11
194.2853573813
 21
163.5533198931
 31
0.0
  0
ELLIPSE
  5
136
330
1F
100
AcDbEntity
  8
0
  6
Continuous
 62
     7
370
    25
100
AcDbEllipse
 10
193.7426671286
 20
163.4363160127
 30
0.0
 11
7.499996484728541
 21
0.1315135136851779
 31
0.0
210
0.0
220
0.0
230
1.0
 40
0.0552146892
 41
2.684740547979428
 42
2.87563120568953
  0
ELLIPSE
  5
137
330
1F
100
AcDbEntity
  8
0
  6
Continuous
 62
     7
370
    25
100
AcDbEllipse
 10
154.9522148511
 20
163.8087120725
 30
0.0
 11
35.70262486333175
 21
0.6260506459064459
 31
0.0
210
0.0
220
0.0
230
1.0
 40
0.0552146892
 41
5.826333201569498
 42
6.308533701434875
  0
ELLIPSE
  5
138
330
1F
100
AcDbEntity
  8
0
  6
Continuous
 62
     7
370
    25
100
AcDbEllipse
 10
205.137473206
 20
164.7589956217
 30
0.0
 11
14.49999320380851
 21
0.2542594597913421
 31
0.0
210
0.0
220
0.0
230
1.0
 40
0.0552146892
 41
2.430815711289508
 42
3.166941047845333
  0
LINE
  5
139
330
1F
100
AcDbEntity
  8
0
  6
Continuous
 62
     7
370
    25
100
AcDbLine
 10
194.1337902914
 20
165.088543282
 30
0.0
 11
194.1394185425
 21
165.0886416732
 31
0.0
  0
LINE
  5
13A
330
1F
100
AcDbEntity
  8
0
  6
Continuous
 62
     7
370
    25
100
AcDbLine
 10
196.9662296639
 20
165.329434561
 30
0.0
 11
194.1337902914
 21
165.088543282
 31
0.0
  0
SPLINE
  5
13B
330
1F
100
AcDbEntity
  8
0
  6
Continuous
 62
     7
370
    25
100
AcDbSpline
210
0.0
220
0.0
230
1.0
 70
     8
 71
     3
 72
    10
 73
     6
 74
     0
 42
0.00000001
 43
0.00000001
 40
0.0
 40
0.0
 40
0.0
 40
0.0
 40
0.3702717503651155
 40
0.7405122151371749
 40
1.0
 40
1.0
 40
1.0
 40
1.0
 10
199.8852469149454
 20
162.7260503280736
 30
0.0
 10
199.9480898722325
 20
163.0485788137415
 30
0.0
 10
200.0737704769789
 20
163.6936085334846
 30
0.0
 10
200.1092947759039
 20
164.5624230209635
 30
0.0
 10
199.9605758435169
 20
165.1064779317303
 30
0.0
 10
199.8992942568092
 20
165.3306628936095
 30
0.0
  0
LINE
  5
13C
330
1F
100
AcDbEntity
  8
0
  6
Continuous
 62
     7
370
    25
100
AcDbLine
 10
194.7885646686
 20
162.6387759856
 30
0.0
 11
199.8852469149
 21
162.7260503281
 31
0.0
  0
ELLIPSE
  5
13D
330
1F
100
AcDbEntity
  8
0
  6
Continuous
 62
     7
370
    25
100
AcDbEllipse
 10
194.1250640881
 20
165.587706353
 30
0.0
 11
1.053482645954574
 21
0.05394483169985165
 31
0.0
210
0.0
220
0.0
230
1.0
 40
0.4730658061
 41
4.355668081128916
 42
4.696450681123549
  0
ELLIPSE
  5
13E
330
1F
100
AcDbEntity
  8
0
  6
Continuous
 62
     7
370
    25
100
AcDbEllipse
 10
194.1250640881
 20
165.587706353
 30
0.0
 11
1.053482645954574
 21
0.05394483169985165
 31
0.0
210
0.0
220
0.0
230
1.0
 40
0.4730658061
 41
3.147041256077335
 42
4.355668081128916
  0
LINE
  5
13F
330
1F
100
AcDbEntity
  8
0
  6
Continuous
 62
     7
370
    25
100
AcDbLine
 10
193.0717361243
 20
165.5310469339
 30
0.0
 11
196.570386288
 21
165.828597632
 31
0.0
  0
ELLIPSE
  5
140
330
1F
100
AcDbEntity
  8
0
  6
Continuous
 62
     7
370
    25
100
AcDbEllipse
 10
194.1250640881
 20
171.6853709429
 30
0.0
 11
1.053482645954574
 21
-0.05394483169985165
 31
0.0
210
0.0
220
0.0
230
1.0
 40
0.4730658061
 41
1.586734626056019
 42
1.927517226050919
  0
LINE
  5
141
330
1F
100
AcDbEntity
  8
0
  6
Continuous
 62
     7
370
    25
100
AcDbLine
 10
196.570386288
 20
171.4444796639
 30
0.0
 11
193.0717361243
 21
171.742030362
 31
0.0
  0
ELLIPSE
  5
142
330
1F
100
AcDbEntity
  8
0
  6
Continuous
 62
     7
370
    25
100
AcDbEllipse
 10
194.1250640881
 20
171.6853709429
 30
0.0
 11
1.053482645954574
 21
-0.05394483169985165
 31
0.0
210
0.0
220
0.0
230
1.0
 40
0.4730658061
 41
1.927517226050919
 42
3.136144051102169
  0
ELLIPSE
  5
143
330
1F
100
AcDbEntity
  8
0
  6
Continuous
 62
     7
370
    25
100
AcDbEllipse
 10
193.479264786
 20
165.5764167039
 30
0.0
 11
0.01755356269839581
 21
0.4999218664536329
 31
0.0
210
0.0
220
0.0
230
1.0
 40
0.8168249212
 41
1.61375658386705
 42
1.690310629085516
  0
LINE
  5
144
330
1F
100
AcDbEntity
  8
0
  6
Continuous
 62
     7
370
    25
100
AcDbLine
 10
193.070539036
 20
165.5692714959
 30
0.0
 11
193.070539036
 21
171.7038058
 31
0.0
  0
ELLIPSE
  5
145
330
1F
100
AcDbEntity
  8
0
  6
Continuous
 62
     7
370
    25
100
AcDbEllipse
 10
193.479264786
 20
171.696660592
 30
0.0
 11
-0.01755356269833896
 21
0.499921866453576
 31
0.0
210
0.0
220
0.0
230
1.0
 40
0.8168249212
 41
1.451282024504354
 42
1.527836069722885
  0
SPLINE
  5
146
330
1F
100
AcDbEntity
  8
0
  6
Continuous
 62
     7
370
    25
100
AcDbSpline
210
0.0
220
0.0
230
1.0
 70
     8
 71
     3
 72
     9
 73
     5
 74
     0
 42
0.00000001
 43
0.00000001
 40
0.0
 40
0.0
 40
0.0
 40
0.0
 40
0.9209630919903067
 40
1.0
 40
1.0
 40
1.0
 40
1.0
 10
200.3746157845641
 20
163.1819649054557
 30
0.0
 10
200.3635369259393
 20
163.1251378465371
 30
0.0
 10
200.3515072814063
 20
163.0634338983411
 30
0.0
 10
200.3417078180187
 20
162.8764224374532
 30
0.0
 10
200.3409332987324
 20
162.8616416298222
 30
0.0
  0
SPLINE
  5
147
330
1F
100
AcDbEntity
  8
0
  6
Continuous
 62
     7
370
    25
100
AcDbSpline
210
0.0
220
0.0
230
1.0
 70
     8
 71
     3
 72
    10
 73
     6
 74
     0
 42
0.00000001
 43
0.00000001
 40
0.0
 40
0.0
 40
0.0
 40
0.0
 40
0.2977219707220505
 40
0.7221983723418893
 40
1.0
 40
1.0
 40
1.0
 40
1.0
 10
200.387128533955
 20
165.7735224744448
 30
0.0
 10
200.42342770283
 20
165.4740968689516
 30
0.0
 10
200.5114803266097
 20
164.7477659085586
 30
0.0
 10
200.499894985512
 20
164.0206964075471
 30
0.0
 10
200.4356621910287
 20
163.6101045167769
 30
0.0
 10
200.4102534866231
 20
163.447685801106
 30
0.0
  0
SPLINE
  5
148
330
1F
100
AcDbEntity
  8
0
  6
Continuous
 62
     7
370
    25
100
AcDbSpline
210
0.0
220
0.0
230
1.0
 70
     8
 71
     3
 72
    10
 73
     6
 74
     0
 42
0.00000001
 43
0.00000001
 40
0.0
 40
0.0
 40
0.0
 40
0.0
 40
0.1569313940387108
 40
0.57832506224034
 40
1.0
 40
1.0
 40
1.0
 40
1.0
 10
200.4182602414096
 20
173.848641821588
 30
0.0
 10
200.4364355317659
 20
173.7588324580553
 30
0.0
 10
200.5034152842301
 20
173.4278661394742
 30
0.0
 10
200.5004827710742
 20
172.7287402983542
 30
0.0
 10
200.4249216827077
 20
171.9093744343186
 30
0.0
 10
200.3871285339548
 20
171.4995548214467
 30
0.0
  0
SPLINE
  5
149
330
1F
100
AcDbEntity
  8
0
  6
Continuous
 62
     7
370
    25
100
AcDbSpline
210
0.0
220
0.0
230
1.0
 70
     8
 71
     3
 72
     9
 73
     5
 74
     0
 42
0.00000001
 43
0.00000001
 40
0.0
 40
0.0
 40
0.0
 40
0.0
 40
0.0790369080192132
 40
1.0
 40
1.0
 40
1.0
 40
1.0
 10
200.3409332987323
 20
174.4114356660672
 30
0.0
 10
200.3417078180187
 20
174.3966548584345
 30
0.0
 10
200.3515072814069
 20
174.2096433975466
 30
0.0
 10
200.3635369259397
 20
174.1479394493512
 30
0.0
 10
200.3746157845641
 20
174.0911123904338
 30
0.0
  0
ARC
  5
14A
330
1F
100
AcDbEntity
  8
0
  6
Continuous
 62
     7
370
    25
100
AcDbCircle
 10
199.8773731198
 20
174.0479791248
 30
0.0
 40
0.499109954095676
100
AcDbArc
 50
4.9577065176
 51
89.0960830536
  0
ARC
  5
14B
330
1F
100
AcDbEntity
  8
0
  6
Continuous
 62
     7
370
    25
100
AcDbCircle
 10
199.8773731198
 20
163.2250981711
 30
0.0
 40
0.4991099540953659
100
AcDbArc
 50
270.9039169467
 51
355.0422934825
  0
SPLINE
  5
14C
330
1F
100
AcDbEntity
  8
0
  6
Continuous
 62
     7
370
    25
100
AcDbSpline
210
0.0
220
0.0
230
1.0
 70
     8
 71
     3
 72
     9
 73
     5
 74
     0
 42
0.00000001
 43
0.00000001
 40
0.0
 40
0.0
 40
0.0
 40
0.0
 40
0.0129608462966867
 40
1.0
 40
1.0
 40
1.0
 40
1.0
 10
194.1394185425025
 20
165.08864167319
 30
0.0
 10
194.1378640866059
 20
165.0885758237158
 30
0.0
 10
194.0179293338176
 20
165.0834951775361
 30
0.0
 10
193.8987408985868
 20
165.0927453951039
 30
0.0
 10
193.7810972463454
 20
165.1018757220238
 30
0.0
  0
ELLIPSE
  5
14D
330
1F
100
AcDbEntity
  8
0
  6
Continuous
 62
     7
370
    25
100
AcDbEllipse
 10
205.1287470027
 20
165.2581586928
 30
0.0
 11
14.99999386323825
 21
0.2542085132690772
 31
0.0
210
0.0
220
0.0
230
1.0
 40
0.0533752749
 41
2.501275951618367
 42
3.139211616205855
  0
ARC
  5
14E
330
1F
100
AcDbEntity
  8
0
  6
Continuous
 62
     7
370
    25
100
AcDbCircle
 10
190.6327977338
 20
172.2896212296
 30
0.0
 40
0.4990245038596517
100
AcDbArc
 50
88.8866479152
 51
154.4102041241
  0
SPLINE
  5
14F
330
1F
100
AcDbEntity
  8
0
  6
Continuous
 62
     7
370
    25
100
AcDbSpline
210
0.0
220
0.0
230
1.0
 70
     8
 71
     3
 72
     9
 73
     5
 74
     0
 42
0.00000001
 43
0.00000001
 40
0.0
 40
0.0
 40
0.0
 40
0.0
 40
0.0129608462966765
 40
1.0
 40
1.0
 40
1.0
 40
1.0
 10
194.1394185425025
 20
172.1844356226996
 30
0.0
 10
194.1378640866059
 20
172.1845014721738
 30
0.0
 10
194.0179293338171
 20
172.1895821183532
 30
0.0
 10
193.8987408985865
 20
172.1803319007854
 30
0.0
 10
193.7810972463452
 20
172.1712015738658
 30
0.0
  0
ARC
  5
150
330
1F
100
AcDbEntity
  8
0
  6
Continuous
 62
     7
370
    25
100
AcDbCircle
 10
187.0418402992
 20
173.282272216
 30
0.0
 40
0.4909657463240754
100
AcDbArc
 50
93.8791489177
 51
181.0879611003
  0
ARC
  5
151
330
1F
100
AcDbEntity
  8
0
  6
Continuous
 62
     7
370
    25
100
AcDbCircle
 10
187.0418402992
 20
163.9908050799
 30
0.0
 40
0.4909657463242159
100
AcDbArc
 50
178.9120388997
 51
266.1208510823
  0
LINE
  5
152
330
1F
100
AcDbEntity
  8
0
  6
Continuous
 62
     7
370
    25
100
AcDbLine
 10
186.5509630623
 20
173.2729500715
 30
0.0
 11
186.5509630623
 21
164.0001272244
 31
0.0
  0
ARC
  5
153
330
1F
100
AcDbEntity
  8
0
  6
Continuous
 62
     7
370
    25
100
AcDbCircle
 10
186.5130234441
 20
163.9180335874
 30
0.0
 40
0.4998370280062794
100
AcDbArc
 50
180.0688458087
 51
269.0183467286
  0
ELLIPSE
  5
154
330
1F
100
AcDbEntity
  8
0
  6
Continuous
 62
     7
370
    25
100
AcDbEllipse
 10
193.7339409254
 20
163.9354790838
 30
0.0
 11
7.999997105433749
 21
0.1314648441207851
 31
0.0
210
0.0
220
0.0
230
1.0
 40
0.0517656972
 41
2.684858073900656
 42
2.875748731610825
  0
ELLIPSE
  5
155
330
1F
100
AcDbEntity
  8
0
  6
Continuous
 62
     7
370
    25
100
AcDbEllipse
 10
193.7339409254
 20
173.3375982121
 30
0.0
 11
7.999997105433749
 21
-0.1314648441208135
 31
0.0
210
0.0
220
0.0
230
1.0
 40
0.0517656972
 41
3.407436575569141
 42
3.598327233279079
  0
ARC
  5
156
330
1F
100
AcDbEntity
  8
0
  6
Continuous
 62
     7
370
    25
100
AcDbCircle
 10
186.5130234441
 20
173.3550437084
 30
0.0
 40
0.4998370280062931
100
AcDbArc
 50
90.9816532715
 51
179.9311541913
  0
SPLINE
  5
157
330
1F
100
AcDbEntity
  8
0
  6
Continuous
 62
     7
370
    25
100
AcDbSpline
210
0.0
220
0.0
230
1.0
 70
     8
 71
     3
 72
     9
 73
     5
 74
     0
 42
0.00000001
 43
0.00000001
 40
0.0
 40
0.0
 40
0.0
 40
0.0
 40
0.1533602411230256
 40
1.0
 40
1.0
 40
1.0
 40
1.0
 10
186.0131867768835
 20
163.9174329903994
 30
0.0
 10
186.0109990398042
 20
163.9169352757464
 30
0.0
 10
185.9967336926495
 20
163.9136898801377
 30
0.0
 10
185.9834115350529
 20
163.9049034035183
 30
0.0
 10
185.9721324667575
 20
163.8974644230718
 30
0.0
  0
LINE
  5
158
330
1F
100
AcDbEntity
  8
0
  6
Continuous
 62
     7
370
    25
100
AcDbLine
 10
185.7339409254
 20
163.461182254
 30
0.0
 11
185.9721324668
 21
163.8974644231
 31
0.0
  0
LINE
  5
159
330
1F
100
AcDbEntity
  8
0
  6
Continuous
 62
     7
370
    25
100
AcDbLine
 10
185.7339409254
 20
163.461182254
 30
0.0
 11
185.7339409254
 21
173.8118950419
 31
0.0
  0
LINE
  5
15A
330
1F
100
AcDbEntity
  8
0
  6
Continuous
 62
     7
370
    25
100
AcDbLine
 10
185.9721324668
 20
173.3756128728
 30
0.0
 11
185.7339409254
 21
173.8118950419
 31
0.0
  0
LINE
  5
15B
330
1F
100
AcDbEntity
  8
0
  6
Continuous
 62
     7
370
    25
100
AcDbLine
 10
185.9721324668
 20
173.3756128728
 30
0.0
 11
186.0131867769
 21
173.3556443055
 31
0.0
  0
ARC
  5
15C
330
1F
100
AcDbEntity
  8
0
  6
Continuous
 62
     7
370
    25
100
AcDbCircle
 10
194.8318828386
 20
160.0411945222
 30
0.0
 40
2.597942632774418
100
AcDbArc
 50
90.9553957458
 51
179.9573581589
  0
SPLINE
  5
15D
330
1F
100
AcDbEntity
  8
0
  6
Continuous
 62
     7
370
    25
100
AcDbSpline
210
0.0
220
0.0
230
1.0
 70
     8
 71
     3
 72
    17
 73
    13
 74
     0
 42
0.00000001
 43
0.00000001
 40
0.0
 40
0.0
 40
0.0
 40
0.0
 40
0.006826427756052
 40
0.0088450004853821
 40
0.0223994102884414
 40
0.030959827023921
 40
0.0563228448230676
 40
0.1198844474831655
 40
0.1957493698893794
 40
0.5558716060100611
 40
0.7769840750939091
 40
1.0
 40
1.0
 40
1.0
 40
1.0
 10
194.7885646686303
 20
163.551970447848
 30
0.0
 10
194.7580599529687
 20
163.5509322648033
 30
0.0
 10
194.7185350016362
 20
163.54958709133
 30
0.0
 10
194.6288054832395
 20
163.5419971032516
 30
0.0
 10
194.5485682460926
 20
163.5302455965206
 30
0.0
 10
194.4223240591601
 20
163.5045267009397
 30
0.0
 10
194.219866599748
 20
163.4460121283187
 30
0.0
 10
193.9748493549141
 20
163.3368150723582
 30
0.0
 10
193.3689790380575
 20
162.9696436567216
 30
0.0
 10
192.8235761186345
 20
162.3364767543657
 30
0.0
 10
192.3329526495008
 20
161.3240308778903
 30
0.0
 10
192.2670389981661
 20
160.6165525815229
 30
0.0
 10
192.2339409253672
 20
160.2612973698533
 30
0.0
  0
ARC
  5
15E
330
1F
100
AcDbEntity
  8
0
  6
Continuous
 62
     7
370
    25
100
AcDbCircle
 10
190.400011819
 20
160.4500730158
 30
0.0
 40
1.843619323976489
100
AcDbArc
 50
265.9201895471
 51
354.1229528255
  0
SPLINE
  5
15F
330
1F
100
AcDbEntity
  8
0
  6
Continuous
 62
     7
370
    25
100
AcDbSpline
210
0.0
220
0.0
230
1.0
 70
     8
 71
     3
 72
    14
 73
    10
 74
     0
 42
0.00000001
 43
0.00000001
 40
0.0
 40
0.0
 40
0.0
 40
0.0
 40
0.222585370202701
 40
0.4518071037420552
 40
0.815772842264197
 40
0.894612168116161
 40
0.9637839688025586
 40
0.9940798081854059
 40
1.0
 40
1.0
 40
1.0
 40
1.0
 10
190.2688457382418
 20
158.6111255802146
 30
0.0
 10
190.3240282801112
 20
159.1495139850789
 30
0.0
 10
190.4360386265076
 20
160.2423427979901
 30
0.0
 10
191.2998121855821
 20
161.8079742747412
 30
0.0
 10
192.2967316955941
 20
162.7663215004465
 30
0.0
 10
193.3577381247628
 20
163.2877300151028
 30
0.0
 10
193.8017907398439
 20
163.4431144394663
 30
0.0
 10
194.1337086318138
 20
163.5186641275066
 30
0.0
 10
194.2640505431444
 20
163.5401849090349
 30
0.0
 10
194.2853573813331
 20
163.543702885755
 30
0.0
  0
SPLINE
  5
160
330
1F
100
AcDbEntity
  8
0
  6
Continuous
 62
     7
370
    25
100
AcDbSpline
210
0.0
220
0.0
230
1.0
 70
     8
 71
     3
 72
    11
 73
     7
 74
     0
 42
0.00000001
 43
0.00000001
 40
0.0
 40
0.0
 40
0.0
 40
0.0
 40
0.0195561212296081
 40
0.1681891996744554
 40
0.5898876540792817
 40
1.0
 40
1.0
 40
1.0
 40
1.0
 10
194.7885646686303
 20
163.551970447848
 30
0.0
 10
194.785759121857
 20
163.5520285615637
 30
0.0
 10
194.7616304789173
 20
163.5525283590045
 30
0.0
 10
194.6721453837544
 20
163.5533747764179
 30
0.0
 10
194.5031832076739
 20
163.5512854778959
 30
0.0
 10
194.3572886122734
 20
163.5462068367125
 30
0.0
 10
194.2853573813331
 20
163.543702885755
 30
0.0
  0
ARC
  5
161
330
1F
100
AcDbEntity
  8
0
  6
Continuous
 62
     7
370
    25
100
AcDbCircle
 10
190.5073556494
 20
177.1171138468
 30
0.0
 40
1.800614607762293
100
AcDbArc
 50
13.0024955286
 51
96.2155465251
  0
SPLINE
  5
162
330
1F
100
AcDbEntity
  8
0
  6
Continuous
 62
     7
370
    25
100
AcDbSpline
210
0.0
220
0.0
230
1.0
 70
     8
 71
     3
 72
    16
 73
    12
 74
     0
 42
0.00000001
 43
0.00000001
 40
0.0
 40
0.0
 40
0.0
 40
0.0
 40
0.2861254310575668
 40
0.7591203623085427
 40
0.8520758313858448
 40
0.9266344548631265
 40
0.960486230143373
 40
0.983533543656924
 40
0.9930756629548356
 40
0.9972242292023621
 40
1.0
 40
1.0
 40
1.0
 40
1.0
 10
192.2618029777065
 20
177.52224041693
 30
0.0
 10
192.3837307124534
 20
176.9921731075779
 30
0.0
 10
192.7072176036201
 20
175.5858497114507
 30
0.0
 10
193.6347847410928
 20
174.5680377085663
 30
0.0
 10
194.5655496374872
 20
174.0061174907948
 30
0.0
 10
194.9215109566032
 20
173.8516149749019
 30
0.0
 10
195.2317252354887
 20
173.7630943090714
 30
0.0
 10
195.444375126556
 20
173.7239849254229
 30
0.0
 10
195.6005186348464
 20
173.7096649564531
 30
0.0
 10
195.6764793422754
 20
173.7059312178303
 30
0.0
 10
195.7089630737088
 20
173.7051973757471
 30
0.0
 10
195.7219848825148
 20
173.7049031992199
 30
0.0
  0
SPLINE
  5
163
330
1F
100
AcDbEntity
  8
0
  6
Continuous
 62
     7
370
    25
100
AcDbSpline
210
0.0
220
0.0
230
1.0
 70
     8
 71
     3
 72
    10
 73
     6
 74
     0
 42
0.00000001
 43
0.00000001
 40
0.0
 40
0.0
 40
0.0
 40
0.0
 40
0.5975855365574466
 40
0.9790563563182109
 40
1.0
 40
1.0
 40
1.0
 40
1.0
 10
195.1691991024383
 20
173.7140300965593
 30
0.0
 10
195.28425616606
 20
173.7102907988331
 30
0.0
 10
195.472760309127
 20
173.7041645073097
 30
0.0
 10
195.6533307788266
 20
173.7037879484525
 30
0.0
 10
195.71858854485
 20
173.7048480274534
 30
0.0
 10
195.7219848825148
 20
173.7049031992199
 30
0.0
  0
SPLINE
  5
164
330
1F
100
AcDbEntity
  8
0
  6
Continuous
 62
     7
370
    25
100
AcDbSpline
210
0.0
220
0.0
230
1.0
 70
     8
 71
     3
 72
    14
 73
    10
 74
     0
 42
0.00000001
 43
0.00000001
 40
0.0
 40
0.0
 40
0.0
 40
0.0
 40
0.0129036569231463
 40
0.0519665716781148
 40
0.1318891824261212
 40
0.2280032005552164
 40
0.4679440229400841
 40
0.7079115564493628
 40
1.0
 40
1.0
 40
1.0
 40
1.0
 10
195.1691991024383
 20
173.7140300965593
 30
0.0
 10
195.119447314245
 20
173.7218750706207
 30
0.0
 10
194.9190831940068
 20
173.7534689365532
 30
0.0
 10
194.4892788428748
 20
173.8558509838469
 30
0.0
 10
193.9236438340141
 20
174.058252492664
 30
0.0
 10
193.0014767723992
 20
174.5253031734301
 30
0.0
 10
191.9480853170913
 20
175.3627602328205
 30
0.0
 10
190.832560878582
 20
176.8077004731709
 30
0.0
 10
190.4967554232863
 20
178.1630713559655
 30
0.0
 10
190.3124047214764
 20
178.9071437631152
 30
0.0
  0
ARC
  5
165
330
1F
100
AcDbEntity
  8
0
  6
Continuous
 62
     7
370
    25
100
AcDbCircle
 10
195.7811308454
 20
178.1650150106
 30
0.0
 40
3.547190902441993
100
AcDbArc
 50
180.0426418411
 51
269.0446042542
  0
LINE
  5
166
330
1F
100
AcDbEntity
  8
0
  6
Continuous
 62
     7
370
    25
100
AcDbLine
 10
192.2339409254
 20
178.0463840989
 30
0.0
 11
192.2618029777
 21
177.5222404169
 31
0.0
  0
SPLINE
  5
167
330
1F
100
AcDbEntity
  8
0
  6
Continuous
 62
     7
370
    25
100
AcDbSpline
210
0.0
220
0.0
230
1.0
 70
     8
 71
     3
 72
     9
 73
     5
 74
     0
 42
0.00000001
 43
0.00000001
 40
0.0
 40
0.0
 40
0.0
 40
0.0
 40
0.8458911907784121
 40
1.0
 40
1.0
 40
1.0
 40
1.0
 10
186.4659716986393
 20
163.4079516230687
 30
0.0
 10
186.4765891284659
 20
163.411766430061
 30
0.0
 10
186.4891408962849
 20
163.4162762382183
 30
0.0
 10
186.5024145304302
 20
163.4180037019694
 30
0.0
 10
186.5044601143824
 20
163.418269919351
 30
0.0
  0
ARC
  5
168
330
1F
100
AcDbEntity
  8
0
  6
Continuous
 62
     7
370
    25
100
AcDbCircle
 10
186.4889221032
 20
163.9249632197
 30
0.0
 40
0.5175207359150081
100
AcDbArc
 50
183.0458824723
 51
267.4582801867
  0
LINE
  5
169
330
1F
100
AcDbEntity
  8
0
  6
Continuous
 62
     7
370
    25
100
AcDbLine
 10
186.5044601144
 20
173.8548073765
 30
0.0
 11
186.4659716986
 21
173.8651256728
 31
0.0
  0
ARC
  5
16A
330
1F
100
AcDbEntity
  8
0
  6
Continuous
 62
     7
370
    25
100
AcDbCircle
 10
186.4889221032
 20
173.3481140762
 30
0.0
 40
0.5175207359149503
100
AcDbArc
 50
92.5417198133
 51
176.9541175277
  0
ARC
  5
16B
330
1F
100
AcDbEntity
  8
0
  6
Continuous
 62
     7
370
    25
100
AcDbCircle
 10
195.6133877266
 20
173.7092234643
 30
0.0
 40
0.4442146300373538
100
AcDbArc
 50
179.3800179017
 51
180.6199820983
  0
ARC
  5
16C
330
1F
100
AcDbEntity
  8
0
  6
Continuous
 62
     7
370
    25
100
AcDbCircle
 10
194.7296642443
 20
163.5485113898
 30
0.0
 40
0.4443328821349626
100
AcDbArc
 50
179.3799416242
 51
180.6200584642
  0
LWPOLYLINE
  5
16D
330
1F
100
AcDbEntity
  8
0
  6
Continuous
 62
     7
370
    25
100
AcDbPolyline
 90
        4
 70
   128
 43
0.0
 10
194.2853573813
 20
163.5437028858
 10
193.2855105614
 20
163.5263446308
 10
189.2861232868
 20
163.4569117691
 10
186.4659716986
 20
163.4079516231
  0
LWPOLYLINE
  5
16E
330
1F
100
AcDbEntity
  8
0
  6
Continuous
 62
     7
370
    25
100
AcDbPolyline
 90
        4
 70
   128
 43
0.0
 10
186.4659716986
 20
173.8651256728
 10
187.4658185151
 20
173.847767526
 10
191.465205786
 20
173.7783347798
 10
195.1691991024
 20
173.7140300966
  0
LINE
  5
16F
330
1F
100
AcDbEntity
  8
0
  6
Continuous
 62
     7
370
    25
100
AcDbLine
 10
186.2426671286
 20
174.2946531761
 30
0.0
 11
186.4659716986
 21
173.8651256728
 31
0.0
  0
ARC
  5
170
330
1F
100
AcDbEntity
  8
0
  6
Continuous
 62
     7
370
    25
100
AcDbCircle
 10
186.2258470807
 20
173.802953364
 30
0.0
 40
0.4919874178075802
100
AcDbArc
 50
88.040792198
 51
178.9586143968
  0
LINE
  5
171
330
1F
100
AcDbEntity
  8
0
  6
Continuous
 62
     7
370
    25
100
AcDbLine
 10
186.4659716986
 20
163.4079516231
 30
0.0
 11
186.2426671286
 21
162.9784241198
 31
0.0
  0
ARC
  5
172
330
1F
100
AcDbEntity
  8
0
  6
Continuous
 62
     7
370
    25
100
AcDbCircle
 10
186.2258470807
 20
163.4701239319
 30
0.0
 40
0.4919874178076899
100
AcDbArc
 50
181.0413856032
 51
271.959207802
  0
LINE
  5
173
330
1F
100
AcDbEntity
  8
0
  6
Continuous
 62
     7
370
    25
100
AcDbLine
 10
190.2688457382
 20
158.3653120225
 30
0.0
 11
190.2688457382
 21
158.6111255802
 31
0.0
  0
LINE
  5
174
330
1F
100
AcDbEntity
  8
0
  6
Continuous
 62
     7
370
    25
100
AcDbLine
 10
190.2688457382
 20
158.3653120225
 30
0.0
 11
186.2426671286
 21
158.3078655197
 31
0.0
  0
LINE
  5
175
330
1F
100
AcDbEntity
  8
0
  6
Continuous
 62
     7
370
    25
100
AcDbLine
 10
186.2426671286
 20
162.9784241198
 30
0.0
 11
186.2426671286
 21
158.3078655197
 31
0.0
  0
LINE
  5
176
330
1F
100
AcDbEntity
  8
0
  6
Continuous
 62
     7
370
    25
100
AcDbLine
 10
186.2426671286
 20
178.9652117762
 30
0.0
 11
186.2426671286
 21
174.2946531761
 31
0.0
  0
LINE
  5
177
330
1F
100
AcDbEntity
  8
0
  6
Continuous
 62
     7
370
    25
100
AcDbLine
 10
190.3124047215
 20
178.9071437631
 30
0.0
 11
186.2426671286
 21
178.9652117762
 31
0.0
  0
ARC
  5
178
330
1F
100
AcDbEntity
  8
0
  6
Continuous
 62
     7
370
    25
100
AcDbCircle
 10
186.1941502962
 20
158.7684472691
 30
0.0
 40
0.4631300366780461
100
AcDbArc
 50
186.4380684431
 51
276.013255932
  0
LINE
  5
179
330
1F
100
AcDbEntity
  8
0
  6
Continuous
 62
     7
370
    25
100
AcDbLine
 10
185.7339409254
 20
158.7165168748
 30
0.0
 11
185.7339409254
 21
163.461182254
 31
0.0
  0
LINE
  5
17A
330
1F
100
AcDbEntity
  8
0
  6
Continuous
 62
     7
370
    25
100
AcDbLine
 10
185.7339409254
 20
173.8118950419
 30
0.0
 11
185.7339409254
 21
178.5565604211
 31
0.0
  0
ARC
  5
17B
330
1F
100
AcDbEntity
  8
0
  6
Continuous
 62
     7
370
    25
100
AcDbCircle
 10
186.1941502962
 20
178.5046300268
 30
0.0
 40
0.4631300366780208
100
AcDbArc
 50
83.986744068
 51
173.5619315569
  0
LINE
  5
17C
330
1F
100
AcDbEntity
  8
0
  6
Continuous
 62
     7
370
    25
100
AcDbLine
 10
192.2339409254
 20
160.2612973699
 30
0.0
 11
192.2339409254
 21
159.999917443
 31
0.0
  0
ARC
  5
17D
330
1F
100
AcDbEntity
  8
0
  6
Continuous
 62
     7
370
    25
100
AcDbCircle
 10
190.4066681238
 20
160.1981291926
 30
0.0
 40
1.837991781539985
100
AcDbArc
 50
265.6996216829
 51
353.8090988865
  0
LINE
  5
17E
330
1F
100
AcDbEntity
  8
0
  6
Continuous
 62
     7
370
    25
100
AcDbLine
 10
185.7339409254
 20
157.1646490332
 30
0.0
 11
185.7339409254
 21
158.7165168748
 31
0.0
  0
LINE
  5
17F
330
1F
100
AcDbEntity
  8
0
  6
Continuous
 62
     7
370
    25
100
AcDbLine
 10
185.7339409254
 20
178.5565604211
 30
0.0
 11
185.7339409254
 21
180.1084282627
 31
0.0
  0
LINE
  5
180
330
1F
100
AcDbEntity
  8
0
  6
Continuous
 62
     7
370
    25
100
AcDbLine
 10
190.3124047215
 20
178.9071437631
 30
0.0
 11
190.2688457382
 21
179.9041099988
 31
0.0
  0
LINE
  5
181
330
1F
100
AcDbEntity
  8
0
  6
Continuous
 62
     7
370
    25
100
AcDbLine
 10
192.2339409254
 20
159.999917443
 30
0.0
 11
192.2339409254
 21
158.734697785
 31
0.0
  0
ARC
  5
182
330
1F
100
AcDbEntity
  8
0
  6
Continuous
 62
     7
370
    25
100
AcDbCircle
 10
190.3052314898
 20
177.9744007549
 30
0.0
 40
1.93005225026656
100
AcDbArc
 50
2.1374025298
 51
91.0802160954
  0
LINE
  5
183
330
1F
100
AcDbEntity
  8
0
  6
Continuous
 62
     7
370
    25
100
AcDbLine
 10
192.2339409254
 20
178.5383795109
 30
0.0
 11
192.2339409254
 21
178.0463840989
 31
0.0
  0
LINE
  5
184
330
1F
100
AcDbEntity
  8
0
  6
Continuous
 62
     7
370
    25
100
AcDbLine
 10
200.5839409254
 20
163.864513499
 30
0.0
 11
200.5839409254
 21
160.2370949937
 31
0.0
  0
LINE
  5
185
330
1F
100
AcDbEntity
  8
0
  6
Continuous
 62
     7
370
    25
100
AcDbLine
 10
200.5839409254
 20
177.0359823022
 30
0.0
 11
200.5839409254
 21
173.4764689496
 31
0.0
  0
SPLINE
  5
186
330
1F
100
AcDbEntity
  8
0
  6
Continuous
 62
     7
370
    25
100
AcDbSpline
210
0.0
220
0.0
230
1.0
 70
     8
 71
     3
 72
     9
 73
     5
 74
     0
 42
0.00000001
 43
0.00000001
 40
0.0
 40
0.0
 40
0.0
 40
0.0
 40
0.6817923421274201
 40
1.0
 40
1.0
 40
1.0
 40
1.0
 10
200.3409332987323
 20
174.4114356660672
 30
0.0
 10
200.3072246288199
 20
174.6013460211724
 30
0.0
 10
200.2577833725465
 20
174.8798917650459
 30
0.0
 10
200.1325252290555
 20
175.1127961379889
 30
0.0
 10
200.0926671285858
 20
175.1869080930114
 30
0.0
  0
LINE
  5
187
330
1F
100
AcDbEntity
  8
0
  6
Continuous
 62
     7
370
    25
100
AcDbLine
 10
200.0926671286
 20
162.0861692029
 30
0.0
 11
200.3409332987
 21
162.8616416298
 31
0.0
  0
ARC
  5
188
330
1F
100
AcDbEntity
  8
0
  6
Continuous
 62
     7
370
    25
100
AcDbCircle
 10
195.4296611505
 20
178.894772932
 30
0.0
 40
3.223623274024345
100
AcDbArc
 50
187.544059084
 51
275.2028276603
  0
SPLINE
  5
189
330
1F
100
AcDbEntity
  8
0
  6
Continuous
 62
     7
370
    25
100
AcDbSpline
210
0.0
220
0.0
230
1.0
 70
     8
 71
     3
 72
     9
 73
     5
 74
     0
 42
0.00000001
 43
0.00000001
 40
0.0
 40
0.0
 40
0.0
 40
0.0
 40
0.5001021276704695
 40
1.0
 40
1.0
 40
1.0
 40
1.0
 10
195.7219848825148
 20
175.6844312292178
 30
0.0
 10
195.7204731163342
 20
175.3979055951293
 30
0.0
 10
195.7174502014195
 20
174.8249713518316
 30
0.0
 10
195.7204735279933
 20
174.6871925653774
 30
0.0
 10
195.7219848825148
 20
174.6183172431768
 30
0.0
  0
SPLINE
  5
18A
330
1F
100
AcDbEntity
  8
0
  6
Continuous
 62
     7
370
    25
100
AcDbSpline
210
0.0
220
0.0
230
1.0
 70
     8
 71
     3
 72
     9
 73
     5
 74
     0
 42
0.00000001
 43
0.00000001
 40
0.0
 40
0.0
 40
0.0
 40
0.0
 40
0.400722737156526
 40
1.0
 40
1.0
 40
1.0
 40
1.0
 10
194.7885646686303
 20
162.6387759856334
 30
0.0
 10
194.787620767693
 20
162.5903687235677
 30
0.0
 10
194.7852652713615
 20
162.4695688348239
 30
0.0
 10
194.7873283265764
 20
161.9094615614703
 30
0.0
 10
194.7885646686587
 20
161.5738020077962
 30
0.0
  0
ARC
  5
18B
330
1F
100
AcDbEntity
  8
0
  6
Continuous
 62
     7
370
    25
100
AcDbCircle
 10
194.5747107967
 20
159.2223524857
 30
0.0
 40
2.36115402575951
100
AcDbArc
 50
84.8034992243
 51
172.4658413595
  0
SPLINE
  5
18C
330
1F
100
AcDbEntity
  8
0
  6
Continuous
 62
     7
370
    25
100
AcDbSpline
210
0.0
220
0.0
230
1.0
 70
     8
 71
     3
 72
     9
 73
     5
 74
     0
 42
0.00000001
 43
0.00000001
 40
0.0
 40
0.0
 40
0.0
 40
0.0
 40
0.5000106123815432
 40
1.0
 40
1.0
 40
1.0
 40
1.0
 10
199.8548845060308
 20
161.6543375136319
 30
0.0
 10
199.8500556686028
 20
161.9421780517252
 30
0.0
 10
199.8403981987244
 20
162.5178469094766
 30
0.0
 10
199.8702975544073
 20
162.6566501705634
 30
0.0
 10
199.8852469149454
 20
162.7260503280736
 30
0.0
  0
LINE
  5
18D
330
1F
100
AcDbEntity
  8
0
  6
Continuous
 62
     7
370
    25
100
AcDbLine
 10
199.854884506
 20
161.6543375136
 30
0.0
 11
194.7885646687
 21
161.5738020078
 31
0.0
  0
LINE
  5
18E
330
1F
100
AcDbEntity
  8
0
  6
Continuous
 62
     7
370
    25
100
AcDbLine
 10
195.7219848825
 20
175.6844312292
 30
0.0
 11
199.854884506
 21
175.6187397823
 31
0.0
  0
SPLINE
  5
18F
330
1F
100
AcDbEntity
  8
0
  6
Continuous
 62
     7
370
    25
100
AcDbSpline
210
0.0
220
0.0
230
1.0
 70
     8
 71
     3
 72
     9
 73
     5
 74
     0
 42
0.00000001
 43
0.00000001
 40
0.0
 40
0.0
 40
0.0
 40
0.0
 40
0.5055561057107295
 40
1.0
 40
1.0
 40
1.0
 40
1.0
 10
199.8852469149431
 20
174.547026967816
 30
0.0
 10
199.8700900806626
 20
174.617683002086
 30
0.0
 10
199.8401095619638
 20
174.7574420386634
 30
0.0
 10
199.8499961452765
 20
175.3337753134592
 30
0.0
 10
199.8548845060308
 20
175.6187397822577
 30
0.0
  0
SPLINE
  5
190
330
1F
100
AcDbEntity
  8
0
  6
Continuous
 62
     7
370
    25
100
AcDbSpline
210
0.0
220
0.0
230
1.0
 70
     8
 71
     3
 72
     9
 73
     5
 74
     0
 42
0.00000001
 43
0.00000001
 40
0.0
 40
0.0
 40
0.0
 40
0.0
 40
0.0161297673533279
 40
1.0
 40
1.0
 40
1.0
 40
1.0
 10
199.8548845060308
 20
175.6187397822577
 30
0.0
 10
199.8561743056468
 20
175.6165207549338
 30
0.0
 10
199.9361382374107
 20
175.4789473308836
 30
0.0
 10
200.0150390085394
 20
175.3317405060286
 30
0.0
 10
200.0926671285858
 20
175.1869080930113
 30
0.0
  0
SPLINE
  5
191
330
1F
100
AcDbEntity
  8
0
  6
Continuous
 62
     7
370
    25
100
AcDbSpline
210
0.0
220
0.0
230
1.0
 70
     8
 71
     3
 72
     9
 73
     5
 74
     0
 42
0.00000001
 43
0.00000001
 40
0.0
 40
0.0
 40
0.0
 40
0.0
 40
0.9838702326459478
 40
1.0
 40
1.0
 40
1.0
 40
1.0
 10
200.0926671285858
 20
162.0861692028782
 30
0.0
 10
200.0150390085468
 20
161.9413367898588
 30
0.0
 10
199.9361382374256
 20
161.7941299650015
 30
0.0
 10
199.8561743056471
 20
161.6565565409559
 30
0.0
 10
199.8548845060308
 20
161.6543375136319
 30
0.0
  0
LINE
  5
192
330
1F
100
AcDbEntity
  8
0
  6
Continuous
 62
     7
370
    25
100
AcDbLine
 10
192.2699713255
 20
178.5992118396
 30
0.0
 11
192.2339409254
 21
178.5255055859
 31
0.0
  0
LINE
  5
193
330
1F
100
AcDbEntity
  8
0
  6
Continuous
 62
     7
370
    25
100
AcDbLine
 10
190.4116038863
 20
172.7369315553
 30
0.0
 11
190.6479586506
 21
172.7369315553
 31
0.0
  0
LINE
  5
194
330
1F
100
AcDbEntity
  8
0
  6
Continuous
 62
     7
370
    25
100
AcDbLine
 10
202.4839409254
 20
173.9654529846
 30
0.0
 11
202.4839409254
 21
163.3076243113
 31
0.0
  0
SPLINE
  5
195
330
1F
100
AcDbEntity
  8
0
  6
Continuous
 62
     7
370
    25
100
AcDbSpline
210
0.0
220
0.0
230
1.0
 70
    24
 71
     3
 72
    10
 73
     6
 74
     0
 42
0.00000001
 43
0.00000001
 40
0.0
 40
0.0
 40
0.0
 40
0.0
 40
0.45487205282706
 40
0.941911340686806
 40
1.0
 40
1.0
 40
1.0
 40
1.0
 10
176.6082966294474
 20
159.1365386479448
 30
0.0
 10
176.5762946653108
 20
159.1365386479448
 30
0.0
 10
176.5100276507576
 20
159.1365386479448
 30
0.0
 10
176.1188870018674
 20
159.1365386479447
 30
0.0
 10
175.86138071297
 20
159.1365386479447
 30
0.0
 10
175.8339409253672
 20
159.1365386479448
 30
0.0
  0
LINE
  5
196
330
1F
100
AcDbEntity
  8
0
  6
Continuous
 62
     7
370
    25
100
AcDbLine
 10
175.8339409254
 20
160.43980106
 30
0.0
 11
175.8339409254
 21
159.1365386479
 31
0.0
  0
SPLINE
  5
197
330
1F
100
AcDbEntity
  8
0
  6
Continuous
 62
     7
370
    25
100
AcDbSpline
210
0.0
220
0.0
230
1.0
 70
     8
 71
     3
 72
    11
 73
     7
 74
     0
 42
0.00000001
 43
0.00000001
 40
0.0
 40
0.0
 40
0.0
 40
0.0
 40
0.2431641197380917
 40
0.4936284730588931
 40
0.7421706076863265
 40
1.0
 40
1.0
 40
1.0
 40
1.0
 10
175.8339409253672
 20
160.439801060022
 30
0.0
 10
176.044081248576
 20
160.9832475922928
 30
0.0
 10
176.4706706935376
 20
162.0864559200796
 30
0.0
 10
176.6810551236806
 20
163.8365009498061
 30
0.0
 10
176.4903684300136
 20
165.6234701137491
 30
0.0
 10
176.0554092596188
 20
166.7564144939714
 30
0.0
 10
175.8339409253672
 20
167.3332762358676
 30
0.0
  0
LINE
  5
198
330
1F
100
AcDbEntity
  8
0
  6
Continuous
 62
     7
370
    25
100
AcDbLine
 10
175.8339409254
 20
169.93980106
 30
0.0
 11
175.8339409254
 21
167.3332762359
 31
0.0
  0
SPLINE
  5
199
330
1F
100
AcDbEntity
  8
0
  6
Continuous
 62
     7
370
    25
100
AcDbSpline
210
0.0
220
0.0
230
1.0
 70
     8
 71
     3
 72
    11
 73
     7
 74
     0
 42
0.00000001
 43
0.00000001
 40
0.0
 40
0.0
 40
0.0
 40
0.0
 40
0.2431641197380924
 40
0.4936284730588936
 40
0.7421706076863285
 40
1.0
 40
1.0
 40
1.0
 40
1.0
 10
175.8339409253672
 20
169.939801060022
 30
0.0
 10
176.044081248576
 20
170.4832475922928
 30
0.0
 10
176.4706706935376
 20
171.5864559200795
 30
0.0
 10
176.6810551236805
 20
173.3365009498062
 30
0.0
 10
176.4903684300136
 20
175.123470113749
 30
0.0
 10
176.0554092596189
 20
176.2564144939713
 30
0.0
 10
175.8339409253672
 20
176.8332762358676
 30
0.0
  0
LINE
  5
19A
330
1F
100
AcDbEntity
  8
0
  6
Continuous
 62
     7
370
    25
100
AcDbLine
 10
175.8339409254
 20
178.1365386479
 30
0.0
 11
175.8339409254
 21
176.8332762359
 31
0.0
  0
SPLINE
  5
19B
330
1F
100
AcDbEntity
  8
0
  6
Continuous
 62
     7
370
    25
100
AcDbSpline
210
0.0
220
0.0
230
1.0
 70
    24
 71
     3
 72
    10
 73
     6
 74
     0
 42
0.00000001
 43
0.00000001
 40
0.0
 40
0.0
 40
0.0
 40
0.0
 40
0.0580868486472913
 40
0.5300316269435382
 40
1.0
 40
1.0
 40
1.0
 40
1.0
 10
175.8339409253672
 20
178.1365386479448
 30
0.0
 10
175.8613798608249
 20
178.1365386479448
 30
0.0
 10
176.1117550135645
 20
178.1365386479449
 30
0.0
 10
176.5055420924036
 20
178.1365386479448
 30
0.0
 10
176.5739744916357
 20
178.1365386479448
 30
0.0
 10
176.6081188958042
 20
178.1365386479448
 30
0.0
  0
LINE
  5
19C
330
1F
100
AcDbEntity
  8
0
  6
Continuous
 62
     7
370
    25
100
AcDbLine
 10
177.8339409254
 20
176.8865386479
 30
0.0
 11
177.8339409254
 21
160.3865386479
 31
0.0
  0
LINE
  5
19D
330
1F
100
AcDbEntity
  8
0
  6
Continuous
 62
     7
370
    25
100
AcDbLine
 10
173.2839409254
 20
160.43980106
 30
0.0
 11
173.0339409254
 21
161.0467543251
 31
0.0
  0
LINE
  5
19E
330
1F
100
AcDbEntity
  8
0
  6
Continuous
 62
     7
370
    25
100
AcDbLine
 10
173.0339409254
 20
166.7263229707
 30
0.0
 11
173.0339409254
 21
161.0467543251
 31
0.0
  0
LINE
  5
19F
330
1F
100
AcDbEntity
  8
0
  6
Continuous
 62
     7
370
    25
100
AcDbLine
 10
173.0339409254
 20
166.7263229707
 30
0.0
 11
173.2839409254
 21
167.3332762359
 31
0.0
  0
LINE
  5
1A0
330
1F
100
AcDbEntity
  8
0
  6
Continuous
 62
     7
370
    25
100
AcDbLine
 10
175.8339409254
 20
167.3332762359
 30
0.0
 11
173.2839409254
 21
167.3332762359
 31
0.0
  0
LINE
  5
1A1
330
1F
100
AcDbEntity
  8
0
  6
Continuous
 62
     7
370
    25
100
AcDbLine
 10
173.2839409254
 20
160.43980106
 30
0.0
 11
175.8339409254
 21
160.43980106
 31
0.0
  0
LINE
  5
1A2
330
1F
100
AcDbEntity
  8
0
  6
Continuous
 62
     7
370
    25
100
AcDbLine
 10
173.2839409254
 20
169.93980106
 30
0.0
 11
173.0339409254
 21
170.5467543251
 31
0.0
  0
LINE
  5
1A3
330
1F
100
AcDbEntity
  8
0
  6
Continuous
 62
     7
370
    25
100
AcDbLine
 10
173.0339409254
 20
176.2263229707
 30
0.0
 11
173.0339409254
 21
170.5467543251
 31
0.0
  0
LINE
  5
1A4
330
1F
100
AcDbEntity
  8
0
  6
Continuous
 62
     7
370
    25
100
AcDbLine
 10
173.0339409254
 20
176.2263229707
 30
0.0
 11
173.2839409254
 21
176.8332762359
 31
0.0
  0
LINE
  5
1A5
330
1F
100
AcDbEntity
  8
0
  6
Continuous
 62
     7
370
    25
100
AcDbLine
 10
175.8339409254
 20
176.8332762359
 30
0.0
 11
173.2839409254
 21
176.8332762359
 31
0.0
  0
LINE
  5
1A6
330
1F
100
AcDbEntity
  8
0
  6
Continuous
 62
     7
370
    25
100
AcDbLine
 10
173.2839409254
 20
169.93980106
 30
0.0
 11
175.8339409254
 21
169.93980106
 31
0.0
  0
LINE
  5
1A7
330
1F
100
AcDbEntity
  8
0
  6
Continuous
 62
     7
370
    25
100
AcDbLine
 10
173.2839409254
 20
169.93980106
 30
0.0
 11
173.2839409254
 21
167.3332762359
 31
0.0
  0
LINE
  5
1A8
330
1F
100
AcDbEntity
  8
0
  6
Continuous
 62
     7
370
    25
100
AcDbLine
 10
173.0339409254
 20
166.7263229707
 30
0.0
 11
173.0339409254
 21
170.5467543251
 31
0.0
  0
SPLINE
  5
1A9
330
1F
100
AcDbEntity
  8
0
  6
Continuous
 62
     7
370
    25
100
AcDbSpline
210
0.0
220
0.0
230
1.0
 70
     8
 71
     3
 72
    35
 73
    31
 74
     0
 42
0.00000001
 43
0.00000001
 40
0.0
 40
0.0
 40
0.0
 40
0.0
 40
0.0090244057590596
 40
0.0333720401352694
 40
0.0601759811223379
 40
0.0745399081436057
 40
0.1008045740791161
 40
0.1376609863156994
 40
0.1653685613570518
 40
0.1996204422150976
 40
0.2366544341576811
 40
0.2697116072887939
 40
0.3039654845597429
 40
0.3582540442022722
 40
0.4066904388091909
 40
0.4424693069460136
 40
0.4655764792670231
 40
0.4876873785268994
 40
0.5124095952568491
 40
0.5352758037637345
 40
0.565360791386394
 40
0.617024283386808
 40
0.7002840938089808
 40
0.755642298667969
 40
0.8299093553557934
 40
0.8778165427001835
 40
0.9216707740240978
 40
0.9585666222541054
 40
0.9880575042488776
 40
1.0
 40
1.0
 40
1.0
 40
1.0
 10
170.2287390206093
 20
178.016062491507
 30
0.0
 10
170.2307800862059
 20
178.0166181963375
 30
0.0
 10
170.2383278987517
 20
178.0186731797237
 30
0.0
 10
170.2523130931065
 20
177.9395560772844
 30
0.0
 10
170.2677510811484
 20
177.8247434049029
 30
0.0
 10
170.2839192841685
 20
177.6585678724534
 30
0.0
 10
170.3025599204783
 20
177.4221470160626
 30
0.0
 10
170.3244664650808
 20
177.0611820950995
 30
0.0
 10
170.3481357834403
 20
176.5810768710338
 30
0.0
 10
170.3714463066041
 20
176.0195427079452
 30
0.0
 10
170.3954810055607
 20
175.337216941091
 30
0.0
 10
170.4184712501399
 20
174.5748034088977
 30
0.0
 10
170.4473089211907
 20
173.6066396683735
 30
0.0
 10
170.4802842361653
 20
172.4122036984242
 30
0.0
 10
170.513435826633
 20
171.1182124177093
 30
0.0
 10
170.5389627624658
 20
170.0809042475999
 30
0.0
 10
170.557962236283
 20
169.2879908622317
 30
0.0
 10
170.5737932167642
 20
168.5999550629811
 30
0.0
 10
170.5897513732487
 20
167.9142831324856
 30
0.0
 10
170.6072304327554
 20
167.1547447431271
 30
0.0
 10
170.6322270999576
 20
166.1444411666772
 30
0.0
 10
170.6719814118795
 20
164.6008250568319
 30
0.0
 10
170.7179877071237
 20
162.9732522401754
 30
0.0
 10
170.7657345598137
 20
161.4445389108655
 30
0.0
 10
170.8078415458959
 20
160.4325374570389
 30
0.0
 10
170.8478896909043
 20
159.7685491696103
 30
0.0
 10
170.8786482457328
 20
159.4205149499995
 30
0.0
 10
170.9046806849983
 20
159.2727823686726
 30
0.0
 10
170.9221254137731
 20
159.2111870624742
 30
0.0
 10
170.9317919471648
 20
159.2559712662533
 30
0.0
 10
170.9345781678458
 20
159.2688795829885
 30
0.0
  0
SPLINE
  5
1AA
330
1F
100
AcDbEntity
  8
0
  6
Continuous
 62
     7
370
    25
100
AcDbSpline
210
0.0
220
0.0
230
1.0
 70
     8
 71
     3
 72
    15
 73
    11
 74
     0
 42
0.00000001
 43
0.00000001
 40
0.0
 40
0.0
 40
0.0
 40
0.0
 40
0.0478890380034085
 40
0.1935590801527027
 40
0.3355480626132341
 40
0.4612063989062982
 40
0.6074579278047259
 40
0.7139272803830491
 40
0.8169654676042853
 40
1.0
 40
1.0
 40
1.0
 40
1.0
 10
170.3839409253672
 20
162.3887724295063
 30
0.0
 10
170.3868867300448
 20
162.2915593924987
 30
0.0
 10
170.3987931551368
 20
161.8986413718713
 30
0.0
 10
170.4190772982919
 20
161.3151092738648
 30
0.0
 10
170.4452351208073
 20
160.6756494670947
 30
0.0
 10
170.4718592634794
 20
160.14626103625
 30
0.0
 10
170.4962204659861
 20
159.7628640650988
 30
0.0
 10
170.5190624464973
 20
159.4996225985381
 30
0.0
 10
170.5443761332629
 20
159.2896104603753
 30
0.0
 10
170.5617252149109
 20
159.2575973102132
 30
0.0
 10
170.5728254730941
 20
159.2371147141157
 30
0.0
  0
SPLINE
  5
1AB
330
1F
100
AcDbEntity
  8
0
  6
Continuous
 62
     7
370
    25
100
AcDbSpline
210
0.0
220
0.0
230
1.0
 70
     8
 71
     3
 72
    19
 73
    15
 74
     0
 42
0.00000001
 43
0.00000001
 40
0.0
 40
0.0
 40
0.0
 40
0.0
 40
0.0770505353374608
 40
0.1776836545754067
 40
0.2760982013951022
 40
0.3764958487821196
 40
0.4761449113035559
 40
0.5441919610790388
 40
0.6133582359614277
 40
0.6829756792425107
 40
0.7813646647090063
 40
0.8818435591124951
 40
0.9813245879876362
 40
1.0
 40
1.0
 40
1.0
 40
1.0
 10
170.6707821138074
 20
177.1930744771573
 30
0.0
 10
170.6884829631078
 20
177.1427514428127
 30
0.0
 10
170.7293022978343
 20
177.0267031815968
 30
0.0
 10
170.7978237360445
 20
175.8687573572694
 30
0.0
 10
170.864071794348
 20
174.0081994086497
 30
0.0
 10
170.9369340647099
 20
171.6062738825269
 30
0.0
 10
171.000383208955
 20
169.1929107831141
 30
0.0
 10
171.0534863003697
 20
167.0496742611979
 30
0.0
 10
171.1036307063982
 20
165.248981653755
 30
0.0
 10
171.1609017122185
 20
163.3707680664133
 30
0.0
 10
171.2203356008706
 20
161.592897310052
 30
0.0
 10
171.2936794295466
 20
160.3756408959002
 30
0.0
 10
171.3444289442351
 20
159.8725152896405
 30
0.0
 10
171.3719547334952
 20
160.0447088967359
 30
0.0
 10
171.3763053677182
 20
160.0719252425758
 30
0.0
  0
SPLINE
  5
1AC
330
1F
100
AcDbEntity
  8
0
  6
Continuous
 62
     7
370
    25
100
AcDbSpline
210
0.0
220
0.0
230
1.0
 70
     8
 71
     3
 72
    22
 73
    18
 74
     0
 42
0.00000001
 43
0.00000001
 40
0.0
 40
0.0
 40
0.0
 40
0.0
 40
0.0322559774995884
 40
0.1016689078701324
 40
0.1710818376161172
 40
0.2404947673629131
 40
0.3099076971058066
 40
0.3786936808213667
 40
0.4472621115885804
 40
0.5158305418595421
 40
0.5843989721299286
 40
0.6529534196205115
 40
0.7206773543488654
 40
0.788401288220002
 40
0.8561252217588262
 40
0.9269330641999515
 40
1.0
 40
1.0
 40
1.0
 40
1.0
 10
171.1889134730302
 20
177.8498054042103
 30
0.0
 10
171.1924054464718
 20
177.8532098681474
 30
0.0
 10
171.2034119374742
 20
177.8639405344362
 30
0.0
 10
171.2228673971536
 20
177.6101346705571
 30
0.0
 10
171.2471400367322
 20
177.1081328996416
 30
0.0
 10
171.2714585800229
 20
176.3598219921898
 30
0.0
 10
171.2949258156209
 20
175.4067983641599
 30
0.0
 10
171.3173460755241
 20
174.273345763329
 30
0.0
 10
171.341368787798
 20
172.9922763200206
 30
0.0
 10
171.3656723977994
 20
171.5961773758759
 30
0.0
 10
171.389947639602
 20
170.1222859523662
 30
0.0
 10
171.41281867909
 20
168.6172666365515
 30
0.0
 10
171.435721212432
 20
167.1231428718952
 30
0.0
 10
171.4598782663651
 20
165.6795532130772
 30
0.0
 10
171.4845957433878
 20
164.3045217472893
 30
0.0
 10
171.5096220265194
 20
163.0092421997548
 30
0.0
 10
171.5257502118906
 20
162.2866717796636
 30
0.0
 10
171.5339409253672
 20
161.919713740588
 30
0.0
  0
SPLINE
  5
1AD
330
1F
100
AcDbEntity
  8
0
  6
Continuous
 62
     7
370
    25
100
AcDbSpline
210
0.0
220
0.0
230
1.0
 70
    24
 71
     3
 72
    10
 73
     6
 74
     0
 42
0.00000001
 43
0.00000001
 40
0.0
 40
0.0
 40
0.0
 40
0.0
 40
0.3294562546722005
 40
0.8318642056942908
 40
1.0
 40
1.0
 40
1.0
 40
1.0
 10
171.5339409253672
 20
161.919713740588
 30
0.0
 10
171.5339409253672
 20
161.5499607951874
 30
0.0
 10
171.5339409253672
 20
160.6163490155754
 30
0.0
 10
171.5339409253672
 20
160.0649729166655
 30
0.0
 10
171.5339409253672
 20
160.0193879294111
 30
0.0
 10
171.5339409253672
 20
160.0079577011913
 30
0.0
  0
SPLINE
  5
1AE
330
1F
100
AcDbEntity
  8
0
  6
Continuous
 62
     7
370
    25
100
AcDbSpline
210
0.0
220
0.0
230
1.0
 70
     8
 71
     3
 72
    18
 73
    14
 74
     0
 42
0.00000001
 43
0.00000001
 40
0.0
 40
0.0
 40
0.0
 40
0.0
 40
0.092027071924573
 40
0.1940458328883521
 40
0.2874258845647118
 40
0.3821940119862819
 40
0.4027152769102296
 40
0.5035065921056981
 40
0.604053356250226
 40
0.7060243116249101
 40
0.8057680385526277
 40
0.9076304505758258
 40
0.9999999999999999
 40
0.9999999999999999
 40
0.9999999999999999
 40
0.9999999999999999
 10
170.8376009195598
 20
177.241046223469
 30
0.0
 10
170.8584313898897
 20
177.1858924017181
 30
0.0
 10
170.902353964846
 20
177.0695965220944
 30
0.0
 10
170.9726657238542
 20
175.8977240134602
 30
0.0
 10
171.0360948090998
 20
174.1383650449933
 30
0.0
 10
171.0858648519543
 20
172.5104586084598
 30
0.0
 10
171.1371650857383
 20
170.709723775612
 30
0.0
 10
171.1880564223829
 20
168.7281617850457
 30
0.0
 10
171.2568252149775
 20
166.0197759863187
 30
0.0
 10
171.3305656851754
 20
163.5672566068247
 30
0.0
 10
171.3966999870422
 20
161.6155664283667
 30
0.0
 10
171.4679765145931
 20
160.328960471426
 30
0.0
 10
171.5126810831469
 20
160.1114145223376
 30
0.0
 10
171.5339409253672
 20
160.0079577011913
 30
0.0
  0
LINE
  5
1AF
330
1F
100
AcDbEntity
  8
0
  6
Continuous
 62
     7
370
    25
100
AcDbLine
 10
171.5339409254
 20
177.5365386479
 30
0.0
 11
171.5339409254
 21
161.9197137406
 31
0.0
  0
LINE
  5
1B0
330
1F
100
AcDbEntity
  8
0
  6
Continuous
 62
     7
370
    25
100
AcDbLine
 10
171.5339409254
 20
160.0079577012
 30
0.0
 11
171.5339409254
 21
160.0003310201
 31
0.0
  0
LINE
  5
1B1
330
1F
100
AcDbEntity
  8
0
  6
Continuous
 62
     7
370
    25
100
AcDbLine
 10
173.2839409254
 20
178.1365386479
 30
0.0
 11
173.0339409254
 21
178.1365386479
 31
0.0
  0
LINE
  5
1B2
330
1F
100
AcDbEntity
  8
0
  6
Continuous
 62
     7
370
    25
100
AcDbLine
 10
173.2839409254
 20
178.1365386479
 30
0.0
 11
173.2839409254
 21
176.8332762359
 31
0.0
  0
LINE
  5
1B3
330
1F
100
AcDbEntity
  8
0
  6
Continuous
 62
     7
370
    25
100
AcDbLine
 10
173.0339409254
 20
176.2263229707
 30
0.0
 11
173.0339409254
 21
178.1365386479
 31
0.0
  0
LINE
  5
1B4
330
1F
100
AcDbEntity
  8
0
  6
Continuous
 62
     7
370
    25
100
AcDbLine
 10
173.2839409254
 20
160.43980106
 30
0.0
 11
173.2839409254
 21
159.1365386479
 31
0.0
  0
LINE
  5
1B5
330
1F
100
AcDbEntity
  8
0
  6
Continuous
 62
     7
370
    25
100
AcDbLine
 10
173.0339409254
 20
159.1365386479
 30
0.0
 11
173.2839409254
 21
159.1365386479
 31
0.0
  0
LINE
  5
1B6
330
1F
100
AcDbEntity
  8
0
  6
Continuous
 62
     7
370
    25
100
AcDbLine
 10
173.0339409254
 20
159.1365386479
 30
0.0
 11
173.0339409254
 21
161.0467543251
 31
0.0
  0
LINE
  5
1B7
330
1F
100
AcDbEntity
  8
0
  6
Continuous
 62
     7
370
    25
100
AcDbLine
 10
173.2839409254
 20
178.1365386479
 30
0.0
 11
175.8339409254
 21
178.1365386479
 31
0.0
  0
LINE
  5
1B8
330
1F
100
AcDbEntity
  8
0
  6
Continuous
 62
     7
370
    25
100
AcDbLine
 10
175.8339409254
 20
159.1365386479
 30
0.0
 11
173.2839409254
 21
159.1365386479
 31
0.0
  0
LINE
  5
1B9
330
1F
100
AcDbEntity
  8
0
  6
Continuous
 62
     7
370
    25
100
AcDbLine
 10
161.3839409254
 20
166.125176749
 30
0.0
 11
161.3839409254
 21
171.0802756744
 31
0.0
  0
SPLINE
  5
1BA
330
1F
100
AcDbEntity
  8
0
  6
Continuous
 62
     7
370
    25
100
AcDbSpline
210
0.0
220
0.0
230
1.0
 70
     8
 71
     3
 72
     9
 73
     5
 74
     0
 42
0.00000001
 43
0.00000001
 40
0.0
 40
0.0
 40
0.0
 40
0.0
 40
0.5841917497409244
 40
1.0
 40
1.0
 40
1.0
 40
1.0
 10
154.6839409253672
 20
152.9574047896771
 30
0.0
 10
154.6577729615465
 20
152.7663225676105
 30
0.0
 10
154.6129795117379
 20
152.4392343775577
 30
0.0
 10
154.3703650942239
 20
152.4020148391045
 30
0.0
 10
154.2694840177898
 20
152.3865386479448
 30
0.0
  0
LINE
  5
1BB
330
1F
100
AcDbEntity
  8
0
  6
Continuous
 62
     7
370
    25
100
AcDbLine
 10
154.6839409254
 20
152.9574047897
 30
0.0
 11
154.6839409254
 21
153.6842316637
 31
0.0
  0
LINE
  5
1BC
330
1F
100
AcDbEntity
  8
0
  6
Continuous
 62
     7
370
    25
100
AcDbLine
 10
154.6201745936
 20
154.2248012168
 30
0.0
 11
154.6839409254
 21
153.6842316637
 31
0.0
  0
LINE
  5
1BD
330
1F
100
AcDbEntity
  8
0
  6
Continuous
 62
     7
370
    25
100
AcDbLine
 10
154.6839409254
 20
183.5888456321
 30
0.0
 11
154.6093846258
 21
183.1164006262
 31
0.0
  0
LINE
  5
1BE
330
1F
100
AcDbEntity
  8
0
  6
Continuous
 62
     7
370
    25
100
AcDbLine
 10
154.6839409254
 20
183.5888456321
 30
0.0
 11
154.6839409254
 21
184.3156725062
 31
0.0
  0
SPLINE
  5
1BF
330
1F
100
AcDbEntity
  8
0
  6
Continuous
 62
     7
370
    25
100
AcDbSpline
210
0.0
220
0.0
230
1.0
 70
     8
 71
     3
 72
     9
 73
     5
 74
     0
 42
0.00000001
 43
0.00000001
 40
0.0
 40
0.0
 40
0.0
 40
0.0
 40
0.5850553834536167
 40
1.0
 40
1.0
 40
1.0
 40
1.0
 10
154.2694840177898
 20
184.8865386479448
 30
0.0
 10
154.4060381518141
 20
184.8548402309061
 30
0.0
 10
154.6394419250061
 20
184.8006600320136
 30
0.0
 10
154.6708912127314
 20
184.4578992482136
 30
0.0
 10
154.6839409253672
 20
184.3156725062125
 30
0.0
  0
SPLINE
  5
1C0
330
1F
100
AcDbEntity
  8
0
  6
Continuous
 62
     7
370
    25
100
AcDbSpline
210
0.0
220
0.0
230
1.0
 70
    27
 71
     3
 72
    11
 73
     7
 74
     0
 42
0.00000001
 43
0.00000001
 40
0.0
 40
0.0
 40
0.0
 40
0.0
 40
0.2328716322111443
 40
0.4710265024313165
 40
0.731142121256025
 40
0.9999999999999999
 40
0.9999999999999999
 40
0.9999999999999999
 40
0.9999999999999999
 10
154.2694840177898
 20
184.8865386479448
 30
0.0
 10
153.9990872831171
 20
184.8865386479448
 30
0.0
 10
153.4521592309862
 20
184.8865386479448
 30
0.0
 10
153.1509349130026
 20
184.8865386479447
 30
0.0
 10
153.3585866784123
 20
184.8865386479449
 30
0.0
 10
153.9625245101926
 20
184.8865386479448
 30
0.0
 10
154.2694840177898
 20
184.8865386479448
 30
0.0
  0
SPLINE
  5
1C1
330
1F
100
AcDbEntity
  8
0
  6
Continuous
 62
     7
370
    25
100
AcDbSpline
210
0.0
220
0.0
230
1.0
 70
     8
 71
     3
 72
     9
 73
     5
 74
     0
 42
0.00000001
 43
0.00000001
 40
0.0
 40
0.0
 40
0.0
 40
0.0
 40
0.5841917497409198
 40
1.0
 40
1.0
 40
1.0
 40
1.0
 10
154.6839409253672
 20
184.3156725062125
 30
0.0
 10
154.6577729615465
 20
184.506754728279
 30
0.0
 10
154.6129795117379
 20
184.8338429183318
 30
0.0
 10
154.3703650942239
 20
184.8710624567852
 30
0.0
 10
154.2694840177898
 20
184.8865386479448
 30
0.0
  0
LINE
  5
1C2
330
1F
100
AcDbEntity
  8
0
  6
Continuous
 62
     7
370
    25
100
AcDbLine
 10
154.6839409254
 20
184.3156725062
 30
0.0
 11
154.6839409254
 21
183.5888456321
 31
0.0
  0
SPLINE
  5
1C3
330
1F
100
AcDbEntity
  8
0
  6
Continuous
 62
     7
370
    25
100
AcDbSpline
210
0.0
220
0.0
230
1.0
 70
     8
 71
     3
 72
     9
 73
     5
 74
     0
 42
0.00000001
 43
0.00000001
 40
0.0
 40
0.0
 40
0.0
 40
0.0
 40
0.5850553834536177
 40
1.0
 40
1.0
 40
1.0
 40
1.0
 10
154.2694840177898
 20
181.8650300998824
 30
0.0
 10
154.4060381518141
 20
182.2515766254462
 30
0.0
 10
154.6394419250061
 20
182.9122773667709
 30
0.0
 10
154.6708912127314
 20
183.3904361988966
 30
0.0
 10
154.6839409253672
 20
183.5888456321413
 30
0.0
  0
SPLINE
  5
1C4
330
1F
100
AcDbEntity
  8
0
  6
Continuous
 62
     7
370
    25
100
AcDbSpline
210
0.0
220
0.0
230
1.0
 70
     8
 71
     3
 72
    11
 73
     7
 74
     0
 42
0.00000001
 43
0.00000001
 40
0.0
 40
0.0
 40
0.0
 40
0.0
 40
0.2328716322111458
 40
0.4710265024313195
 40
0.7311421212560275
 40
1.0
 40
1.0
 40
1.0
 40
1.0
 10
154.2694840177898
 20
171.6580471960072
 30
0.0
 10
153.999087283117
 20
172.4321495720008
 30
0.0
 10
153.4521592309862
 20
173.9979166481615
 30
0.0
 10
153.1509349130026
 20
176.5333556154562
 30
0.0
 10
153.3585866784123
 20
179.2068616959254
 30
0.0
 10
153.9625245101926
 20
180.9692649800207
 30
0.0
 10
154.2694840177898
 20
181.8650300998824
 30
0.0
  0
SPLINE
  5
1C5
330
1F
100
AcDbEntity
  8
0
  6
Continuous
 62
     7
370
    25
100
AcDbSpline
210
0.0
220
0.0
230
1.0
 70
     8
 71
     3
 72
     9
 73
     5
 74
     0
 42
0.00000001
 43
0.00000001
 40
0.0
 40
0.0
 40
0.0
 40
0.0
 40
0.5841917497409279
 40
1.0
 40
1.0
 40
1.0
 40
1.0
 10
154.6839409253672
 20
169.363365522016
 30
0.0
 10
154.6577729615465
 20
169.8437236475823
 30
0.0
 10
154.6129795117379
 20
170.6659847044687
 30
0.0
 10
154.3703650942239
 20
171.3666886955331
 30
0.0
 10
154.2694840177898
 20
171.6580471960072
 30
0.0
  0
LINE
  5
1C6
330
1F
100
AcDbEntity
  8
0
  6
Continuous
 62
     7
370
    25
100
AcDbLine
 10
154.6839409254
 20
169.363365522
 30
0.0
 11
154.6839409254
 21
167.9097117739
 31
0.0
  0
SPLINE
  5
1C7
330
1F
100
AcDbEntity
  8
0
  6
Continuous
 62
     7
370
    25
100
AcDbSpline
210
0.0
220
0.0
230
1.0
 70
     8
 71
     3
 72
     9
 73
     5
 74
     0
 42
0.00000001
 43
0.00000001
 40
0.0
 40
0.0
 40
0.0
 40
0.0
 40
0.5850553834536233
 40
1.0
 40
1.0
 40
1.0
 40
1.0
 10
154.2694840177898
 20
165.6150300998824
 30
0.0
 10
154.4060381518141
 20
166.0332750424849
 30
0.0
 10
154.6394419250061
 20
166.748155982702
 30
0.0
 10
154.6708912127314
 20
167.5690755986279
 30
0.0
 10
154.6839409253672
 20
167.9097117738735
 30
0.0
  0
SPLINE
  5
1C8
330
1F
100
AcDbEntity
  8
0
  6
Continuous
 62
     7
370
    25
100
AcDbSpline
210
0.0
220
0.0
230
1.0
 70
     8
 71
     3
 72
    11
 73
     7
 74
     0
 42
0.00000001
 43
0.00000001
 40
0.0
 40
0.0
 40
0.0
 40
0.0
 40
0.2556279644381
 40
0.5185037642963928
 40
0.7560467972580126
 40
1.0
 40
1.0
 40
1.0
 40
1.0
 10
154.2694840177898
 20
155.4080471960072
 30
0.0
 10
153.9758580576878
 20
156.2589917689747
 30
0.0
 10
153.3802809425523
 20
157.9850077987978
 30
0.0
 10
153.1483919809257
 20
160.6180903269951
 30
0.0
 10
153.4313624393864
 20
163.2018177471657
 30
0.0
 10
153.9876415729507
 20
164.8035181582601
 30
0.0
 10
154.2694840177898
 20
165.6150300998824
 30
0.0
  0
SPLINE
  5
1C9
330
1F
100
AcDbEntity
  8
0
  6
Continuous
 62
     7
370
    25
100
AcDbSpline
210
0.0
220
0.0
230
1.0
 70
     8
 71
     3
 72
     9
 73
     5
 74
     0
 42
0.00000001
 43
0.00000001
 40
0.0
 40
0.0
 40
0.0
 40
0.0
 40
0.5841917497409169
 40
1.0
 40
1.0
 40
1.0
 40
1.0
 10
154.6839409253672
 20
153.6842316637483
 30
0.0
 10
154.6577729615465
 20
153.973507567248
 30
0.0
 10
154.6129795117379
 20
154.4686804340816
 30
0.0
 10
154.3703650942239
 20
155.1321648866928
 30
0.0
 10
154.2694840177898
 20
155.4080471960072
 30
0.0
  0
LINE
  5
1CA
330
1F
100
AcDbEntity
  8
0
  6
Continuous
 62
     7
370
    25
100
AcDbLine
 10
154.6839409254
 20
153.6842316637
 30
0.0
 11
154.6839409254
 21
152.9574047897
 31
0.0
  0
SPLINE
  5
1CB
330
1F
100
AcDbEntity
  8
0
  6
Continuous
 62
     7
370
    25
100
AcDbSpline
210
0.0
220
0.0
230
1.0
 70
     8
 71
     3
 72
     9
 73
     5
 74
     0
 42
0.00000001
 43
0.00000001
 40
0.0
 40
0.0
 40
0.0
 40
0.0
 40
0.5850553834536151
 40
1.0
 40
1.0
 40
1.0
 40
1.0
 10
154.2694840177898
 20
152.3865386479448
 30
0.0
 10
154.4060381518141
 20
152.4182370649834
 30
0.0
 10
154.6394419250061
 20
152.4724172638759
 30
0.0
 10
154.6708912127314
 20
152.8151780476761
 30
0.0
 10
154.6839409253672
 20
152.9574047896771
 30
0.0
  0
SPLINE
  5
1CC
330
1F
100
AcDbEntity
  8
0
  6
Continuous
 62
     7
370
    25
100
AcDbSpline
210
0.0
220
0.0
230
1.0
 70
    27
 71
     3
 72
    11
 73
     7
 74
     0
 42
0.00000001
 43
0.00000001
 40
0.0
 40
0.0
 40
0.0
 40
0.0
 40
0.2328716322111445
 40
0.4710265024313164
 40
0.7311421212560258
 40
0.9999999999999999
 40
0.9999999999999999
 40
0.9999999999999999
 40
0.9999999999999999
 10
154.2694840177898
 20
152.3865386479448
 30
0.0
 10
153.9990872831171
 20
152.3865386479448
 30
0.0
 10
153.4521592309862
 20
152.3865386479448
 30
0.0
 10
153.1509349130026
 20
152.3865386479448
 30
0.0
 10
153.3585866784123
 20
152.3865386479448
 30
0.0
 10
153.9625245101926
 20
152.3865386479448
 30
0.0
 10
154.2694840177898
 20
152.3865386479448
 30
0.0
  0
LINE
  5
1CD
330
1F
100
AcDbEntity
  8
0
  6
Continuous
 62
     7
370
    25
100
AcDbLine
 10
153.1839409254
 20
184.8365386479
 30
0.0
 11
153.1839409254
 21
152.4365386479
 31
0.0
  0
LINE
  5
1CE
330
1F
100
AcDbEntity
  8
0
  6
Continuous
 62
     7
370
    25
100
AcDbLine
 10
154.2694840178
 20
171.658047196
 30
0.0
 11
161.5483978329
 21
171.658047196
 31
0.0
  0
LINE
  5
1CF
330
1F
100
AcDbEntity
  8
0
  6
Continuous
 62
     7
370
    25
100
AcDbLine
 10
161.5483978329
 20
181.8650300999
 30
0.0
 11
154.2694840178
 21
181.8650300999
 31
0.0
  0
SPLINE
  5
1D0
330
1F
100
AcDbEntity
  8
0
  6
Continuous
 62
     7
370
    25
100
AcDbSpline
210
0.0
220
0.0
230
1.0
 70
     8
 71
     3
 72
    11
 73
     7
 74
     0
 42
0.00000001
 43
0.00000001
 40
0.0
 40
0.0
 40
0.0
 40
0.0
 40
0.2328716322111457
 40
0.4710265024313227
 40
0.7311421212560276
 40
0.9999999999999999
 40
0.9999999999999999
 40
0.9999999999999999
 40
0.9999999999999999
 10
161.5483978329445
 20
181.8650300998824
 30
0.0
 10
161.8187945676173
 20
181.0909277238888
 30
0.0
 10
162.3657226197481
 20
179.5251606477281
 30
0.0
 10
162.6669469377318
 20
176.9897216804333
 30
0.0
 10
162.459295172322
 20
174.3162155999642
 30
0.0
 10
161.8553573405418
 20
172.5538123158689
 30
0.0
 10
161.5483978329445
 20
171.6580471960072
 30
0.0
  0
LINE
  5
1D1
330
1F
100
AcDbEntity
  8
0
  6
Continuous
 62
     7
370
    25
100
AcDbLine
 10
170.3839409254
 20
158.0615386479
 30
0.0
 11
170.3839409254
 21
179.2115386479
 31
0.0
  0
LINE
  5
1D2
330
1F
100
AcDbEntity
  8
0
  6
Continuous
 62
     7
370
    25
100
AcDbLine
 10
161.1339409254
 20
169.363365522
 30
0.0
 11
154.6839409254
 21
169.363365522
 31
0.0
  0
SPLINE
  5
1D3
330
1F
100
AcDbEntity
  8
0
  6
Continuous
 62
     7
370
    25
100
AcDbSpline
210
0.0
220
0.0
230
1.0
 70
     8
 71
     3
 72
     9
 73
     5
 74
     0
 42
0.00000001
 43
0.00000001
 40
0.0
 40
0.0
 40
0.0
 40
0.0
 40
0.5850553834536166
 40
1.0
 40
1.0
 40
1.0
 40
1.0
 10
161.5483978329445
 20
171.6580471960072
 30
0.0
 10
161.4118436989202
 20
171.2398022534047
 30
0.0
 10
161.1784399257283
 20
170.5249213131875
 30
0.0
 10
161.146990638003
 20
169.7040016972617
 30
0.0
 10
161.1339409253672
 20
169.363365522016
 30
0.0
  0
LINE
  5
1D4
330
1F
100
AcDbEntity
  8
0
  6
Continuous
 62
     7
370
    25
100
AcDbLine
 10
154.6839409254
 20
167.9097117739
 30
0.0
 11
161.1339409254
 21
167.9097117739
 31
0.0
  0
LINE
  5
1D5
330
1F
100
AcDbEntity
  8
0
  6
Continuous
 62
     7
370
    25
100
AcDbLine
 10
161.1339409254
 20
167.9097117739
 30
0.0
 11
161.1339409254
 21
169.363365522
 31
0.0
  0
LINE
  5
1D6
330
1F
100
AcDbEntity
  8
0
  6
Continuous
 62
     7
370
    25
100
AcDbLine
 10
161.5483978329
 20
165.6150300999
 30
0.0
 11
154.2694840178
 21
165.6150300999
 31
0.0
  0
SPLINE
  5
1D7
330
1F
100
AcDbEntity
  8
0
  6
Continuous
 62
     7
370
    25
100
AcDbSpline
210
0.0
220
0.0
230
1.0
 70
     8
 71
     3
 72
     9
 73
     5
 74
     0
 42
0.00000001
 43
0.00000001
 40
0.0
 40
0.0
 40
0.0
 40
0.0
 40
0.5841917497409954
 40
1.0
 40
1.0
 40
1.0
 40
1.0
 10
161.1339409253672
 20
167.9097117738735
 30
0.0
 10
161.1601088891878
 20
167.4293536483073
 30
0.0
 10
161.2049023389964
 20
166.6070925914212
 30
0.0
 10
161.4475167565104
 20
165.9063886003566
 30
0.0
 10
161.5483978329445
 20
165.6150300998826
 30
0.0
  0
LINE
  5
1D8
330
1F
100
AcDbEntity
  8
0
  6
Continuous
 62
     7
370
    25
100
AcDbLine
 10
154.2694840178
 20
155.408047196
 30
0.0
 11
161.5483978329
 21
155.408047196
 31
0.0
  0
SPLINE
  5
1D9
330
1F
100
AcDbEntity
  8
0
  6
Continuous
 62
     7
370
    25
100
AcDbSpline
210
0.0
220
0.0
230
1.0
 70
     8
 71
     3
 72
    11
 73
     7
 74
     0
 42
0.00000001
 43
0.00000001
 40
0.0
 40
0.0
 40
0.0
 40
0.0
 40
0.2379053903768484
 40
0.4814905141303192
 40
0.7366519444348066
 40
1.0
 40
1.0
 40
1.0
 40
1.0
 10
161.5483978329445
 20
165.6150300998827
 30
0.0
 10
161.8239832679175
 20
164.8239468785718
 30
0.0
 10
162.381733441471
 20
163.2228941813399
 30
0.0
 10
162.6682966661273
 20
160.6658223805561
 30
0.0
 10
162.4434162599293
 20
158.012089514693
 30
0.0
 10
161.8498611430115
 20
156.2851500502914
 30
0.0
 10
161.5483978329451
 20
155.4080471960086
 30
0.0
  0
LINE
  5
1DA
330
1F
100
AcDbEntity
  8
0
  6
Continuous
 62
     7
370
    25
100
AcDbLine
 10
154.6839409254
 20
183.5888456321
 30
0.0
 11
161.1339409254
 21
183.5888456321
 31
0.0
  0
SPLINE
  5
1DB
330
1F
100
AcDbEntity
  8
0
  6
Continuous
 62
     7
370
    25
100
AcDbSpline
210
0.0
220
0.0
230
1.0
 70
     8
 71
     3
 72
     9
 73
     5
 74
     0
 42
0.00000001
 43
0.00000001
 40
0.0
 40
0.0
 40
0.0
 40
0.0
 40
0.5841917497409204
 40
1.0
 40
1.0
 40
1.0
 40
1.0
 10
161.1339409253672
 20
183.5888456321413
 30
0.0
 10
161.1601088891878
 20
183.2995697286416
 30
0.0
 10
161.2049023389965
 20
182.804396861808
 30
0.0
 10
161.4475167565104
 20
182.1409124091968
 30
0.0
 10
161.5483978329445
 20
181.8650300998824
 30
0.0
  0
LINE
  5
1DC
330
1F
100
AcDbEntity
  8
0
  6
Continuous
 62
     7
370
    25
100
AcDbLine
 10
161.1339409254
 20
153.6842316637
 30
0.0
 11
154.6839409254
 21
153.6842316637
 31
0.0
  0
SPLINE
  5
1DD
330
1F
100
AcDbEntity
  8
0
  6
Continuous
 62
     7
370
    25
100
AcDbSpline
210
0.0
220
0.0
230
1.0
 70
     8
 71
     3
 72
     9
 73
     5
 74
     0
 42
0.00000001
 43
0.00000001
 40
0.0
 40
0.0
 40
0.0
 40
0.0
 40
0.585055383453416
 40
1.0
 40
1.0
 40
1.0
 40
1.0
 10
161.5483978329451
 20
155.4080471960086
 30
0.0
 10
161.4118436989206
 20
155.0215006704446
 30
0.0
 10
161.1784399257284
 20
154.3607999291193
 30
0.0
 10
161.146990638003
 20
153.8826410969933
 30
0.0
 10
161.1339409253672
 20
153.6842316637483
 30
0.0
  0
LINE
  5
1DE
330
1F
100
AcDbEntity
  8
0
  6
Continuous
 62
     7
370
    25
100
AcDbLine
 10
161.1339409254
 20
184.3156725062
 30
0.0
 11
154.6839409254
 21
184.3156725062
 31
0.0
  0
LINE
  5
1DF
330
1F
100
AcDbEntity
  8
0
  6
Continuous
 62
     7
370
    25
100
AcDbLine
 10
161.1339409254
 20
183.5888456321
 30
0.0
 11
161.1339409254
 21
184.3156725062
 31
0.0
  0
LINE
  5
1E0
330
1F
100
AcDbEntity
  8
0
  6
Continuous
 62
     7
370
    25
100
AcDbLine
 10
154.6839409254
 20
152.9574047897
 30
0.0
 11
161.1339409254
 21
152.9574047897
 31
0.0
  0
LINE
  5
1E1
330
1F
100
AcDbEntity
  8
0
  6
Continuous
 62
     7
370
    25
100
AcDbLine
 10
161.1339409254
 20
152.9574047897
 30
0.0
 11
161.1339409254
 21
153.6842316637
 31
0.0
  0
LINE
  5
1E2
330
1F
100
AcDbEntity
  8
0
  6
Continuous
 62
     7
370
    25
100
AcDbLine
 10
154.2694840178
 20
184.8865386479
 30
0.0
 11
161.5483978329
 21
184.8865386479
 31
0.0
  0
SPLINE
  5
1E3
330
1F
100
AcDbEntity
  8
0
  6
Continuous
 62
     7
370
    25
100
AcDbSpline
210
0.0
220
0.0
230
1.0
 70
     8
 71
     3
 72
     9
 73
     5
 74
     0
 42
0.00000001
 43
0.00000001
 40
0.0
 40
0.0
 40
0.0
 40
0.0
 40
0.585055383453618
 40
1.0
 40
1.0
 40
1.0
 40
1.0
 10
161.5483978329445
 20
184.8865386479448
 30
0.0
 10
161.4118436989202
 20
184.8548402309061
 30
0.0
 10
161.1784399257283
 20
184.8006600320136
 30
0.0
 10
161.146990638003
 20
184.4578992482136
 30
0.0
 10
161.1339409253672
 20
184.3156725062125
 30
0.0
  0
LINE
  5
1E4
330
1F
100
AcDbEntity
  8
0
  6
Continuous
 62
     7
370
    25
100
AcDbLine
 10
161.5483978329
 20
152.3865386479
 30
0.0
 11
154.2694840178
 21
152.3865386479
 31
0.0
  0
SPLINE
  5
1E5
330
1F
100
AcDbEntity
  8
0
  6
Continuous
 62
     7
370
    25
100
AcDbSpline
210
0.0
220
0.0
230
1.0
 70
     8
 71
     3
 72
     9
 73
     5
 74
     0
 42
0.00000001
 43
0.00000001
 40
0.0
 40
0.0
 40
0.0
 40
0.0
 40
0.5841917497409275
 40
1.0
 40
1.0
 40
1.0
 40
1.0
 10
161.1339409253672
 20
152.9574047896771
 30
0.0
 10
161.1601088891878
 20
152.7663225676105
 30
0.0
 10
161.2049023389965
 20
152.4392343775577
 30
0.0
 10
161.4475167565104
 20
152.4020148391045
 30
0.0
 10
161.5483978329445
 20
152.3865386479448
 30
0.0
  0
LINE
  5
1E6
330
1F
100
AcDbEntity
  8
0
  6
Continuous
 62
     7
370
    25
100
AcDbLine
 10
128.4839409254
 20
178.9201752175
 30
0.0
 11
128.4839409254
 21
178.837518993
 31
0.0
  0
LINE
  5
1E7
330
1F
100
AcDbEntity
  8
0
  6
Continuous
 62
     7
370
    25
100
AcDbLine
 10
128.3339409254
 20
178.9817066021
 30
0.0
 11
128.3339409254
 21
179.0925903058
 31
0.0
  0
LINE
  5
1E8
330
1F
100
AcDbEntity
  8
0
  6
Continuous
 62
     7
370
    25
100
AcDbLine
 10
190.1679529027
 20
172.354052278
 30
0.0
 11
192.4001580923
 21
172.354052278
 31
0.0
  0
LINE
  5
1E9
330
1F
100
AcDbEntity
  8
0
  6
Continuous
 62
     7
370
    25
100
AcDbLine
 10
190.3348405008
 20
172.689943687
 30
0.0
 11
190.7037155085
 21
172.689943687
 31
0.0
  0
ARC
  5
1EA
330
1F
100
AcDbEntity
  8
0
  6
Continuous
 62
     7
370
    25
100
AcDbCircle
 10
118.5339409254
 20
168.6365386479
 30
0.0
 40
9.59999999999995
100
AcDbArc
 50
333.6156702506
 51
90.0
  0
ARC
  5
1EB
330
1F
100
AcDbEntity
  8
0
  6
Continuous
 62
     7
370
    25
100
AcDbCircle
 10
118.5339409254
 20
168.6365386479
 30
0.0
 40
9.599999999999964
100
AcDbArc
 50
90.0
 51
207.1808037905
  0
LINE
  5
1EC
330
1F
100
AcDbEntity
  8
0
  6
Continuous
 62
     7
370
    25
100
AcDbLine
 10
126.8387525246
 20
170.8703927839
 30
0.0
 11
126.5883571051
 21
171.5448044878
 31
0.0
  0
SPLINE
  5
1ED
330
1F
100
AcDbEntity
  8
0
  6
Continuous
 62
     7
370
    25
100
AcDbSpline
210
0.0
220
0.0
230
1.0
 70
     8
 71
     3
 72
    17
 73
    13
 74
     0
 42
0.00000001
 43
0.00000001
 40
0.0
 40
0.0
 40
0.0
 40
0.0
 40
0.0315745786373295
 40
0.1396983941247984
 40
0.2479157802996042
 40
0.3574424434008153
 40
0.4669454678949869
 40
0.5775126283427056
 40
0.6884345876604181
 40
0.79990632211484
 40
0.9122376873042581
 40
1.0
 40
1.0
 40
1.0
 40
1.0
 10
126.4768107469279
 20
171.8452419703694
 30
0.0
 10
126.3855504055019
 20
172.1123172698837
 30
0.0
 10
125.9817786468693
 20
173.2939637735822
 30
0.0
 10
124.5575782246554
 20
175.0796123489461
 30
0.0
 10
122.1472694242235
 20
176.7667064559326
 30
0.0
 10
119.2683389584127
 20
177.5478990720136
 30
0.0
 10
116.2817730712761
 20
177.3383040456542
 30
0.0
 10
113.5157833398481
 20
176.1555574674568
 30
0.0
 10
111.2775721758269
 20
174.1093701561117
 30
0.0
 10
109.8547461494221
 20
171.438591450972
 30
0.0
 10
109.323675103103
 20
168.6207079146788
 30
0.0
 10
109.7478814314758
 20
166.8719155097719
 30
0.0
 10
109.9339409253672
 20
166.1048844496128
 30
0.0
  0
SPLINE
  5
1EE
330
1F
100
AcDbEntity
  8
0
  6
Continuous
 62
     7
370
    25
100
AcDbSpline
210
0.0
220
0.0
230
1.0
 70
     8
 71
     3
 72
     9
 73
     5
 74
     0
 42
0.00000001
 43
0.00000001
 40
0.0
 40
0.0
 40
0.0
 40
0.0
 40
0.435497244078861
 40
1.0
 40
1.0
 40
1.0
 40
1.0
 10
127.1339409253672
 20
165.1551832081504
 30
0.0
 10
127.3930400252273
 20
165.8104583052773
 30
0.0
 10
127.9879900585122
 20
167.3151178778377
 30
0.0
 10
127.8797097850999
 20
168.9362565510722
 30
0.0
 10
127.8185852723467
 20
169.8513937998435
 30
0.0
  0
SPLINE
  5
1EF
330
1F
100
AcDbEntity
  8
0
  6
Continuous
 62
     7
370
    25
100
AcDbSpline
210
0.0
220
0.0
230
1.0
 70
     8
 71
     3
 72
     9
 73
     5
 74
     0
 42
0.00000001
 43
0.00000001
 40
0.0
 40
0.0
 40
0.0
 40
0.0
 40
0.4635163892605574
 40
1.0
 40
1.0
 40
1.0
 40
1.0
 10
127.8185852723469
 20
169.8513937998419
 30
0.0
 10
127.8410842592883
 20
169.2184744780024
 30
0.0
 10
127.889624046581
 20
167.8530010308837
 30
0.0
 10
127.3977976997642
 20
166.5758159594643
 30
0.0
 10
127.1339409253672
 20
165.8906271007667
 30
0.0
  0
ARC
  5
1F0
330
1F
100
AcDbEntity
  8
0
  6
Continuous
 62
     7
370
    25
100
AcDbCircle
 10
118.5339409254
 20
168.6365386479
 30
0.0
 40
14.25000000000003
100
AcDbArc
 50
307.1216104192
 51
90.0
  0
ARC
  5
1F1
330
1F
100
AcDbEntity
  8
0
  6
Continuous
 62
     7
370
    25
100
AcDbCircle
 10
118.5339409254
 20
168.6365386479
 30
0.0
 40
14.25
100
AcDbArc
 50
90.0
 51
232.8783895808
  0
LINE
  5
1F2
330
1F
100
AcDbEntity
  8
0
  6
Continuous
 62
     7
370
    25
100
AcDbLine
 10
110.0818359536
 20
168.2859047
 30
0.0
 11
110.101660321
 21
169.8789556647
 31
0.0
  0
LINE
  5
1F3
330
1F
100
AcDbEntity
  8
0
  6
Continuous
 62
     7
370
    25
100
AcDbLine
 10
117.1209042858
 20
177.0423514178
 30
0.0
 11
119.1653497409
 21
177.1083256196
 31
0.0
  0
SPLINE
  5
1F4
330
1F
100
AcDbEntity
  8
0
  6
Continuous
 62
     7
370
    25
100
AcDbSpline
210
0.0
220
0.0
230
1.0
 70
     8
 71
     3
 72
    23
 73
    19
 74
     0
 42
0.00000001
 43
0.00000001
 40
0.0
 40
0.0
 40
0.0
 40
0.0
 40
0.139857068623884
 40
0.2211081927176876
 40
0.3037640389347351
 40
0.3494719552904375
 40
0.3961493386098296
 40
0.4500910497350846
 40
0.4734091100585245
 40
0.5255771268257814
 40
0.5554722718599405
 40
0.5911810186469326
 40
0.6281365214732901
 40
0.6459855791692686
 40
0.7099403157304784
 40
0.7755420113157603
 40
0.8866419887065693
 40
1.0
 40
1.0
 40
1.0
 40
1.0
 10
129.7645832940365
 20
182.6599531389364
 30
0.0
 10
131.9465497666799
 20
182.099147775993
 30
0.0
 10
135.3961477604302
 20
181.2125378857179
 30
0.0
 10
139.7932502094579
 20
179.1679507257564
 30
0.0
 10
142.6377097550399
 20
177.3488027395962
 30
0.0
 10
144.7594312131832
 20
175.443425278265
 30
0.0
 10
146.3026796164534
 20
173.5777915699043
 30
0.0
 10
147.2700800850896
 20
171.6897493334737
 30
0.0
 10
147.8161273263227
 20
169.5358839977036
 30
0.0
 10
147.8219109328818
 20
167.6670441530375
 30
0.0
 10
147.2920528387208
 20
165.7123080881098
 30
0.0
 10
146.534847143528
 20
164.1433850899332
 30
0.0
 10
145.658973964503
 20
162.9145255067965
 30
0.0
 10
144.370996276918
 20
161.4470730126377
 30
0.0
 10
142.5540043248473
 20
159.8700427489914
 30
0.0
 10
139.2839071963275
 20
157.811180037193
 30
0.0
 10
135.0418792211971
 20
155.9367326274098
 30
0.0
 10
131.5354401254163
 20
155.057276073831
 30
0.0
 10
129.7645832940365
 20
154.6131241569532
 30
0.0
  0
ARC
  5
1F5
330
1F
100
AcDbEntity
  8
0
  6
Continuous
 62
     7
370
    25
100
AcDbCircle
 10
126.0343477051
 20
187.886243661
 30
0.0
 40
6.420963336612936
100
AcDbArc
 50
251.5783948517
 51
305.5171355296
  0
LINE
  5
1F6
330
1F
100
AcDbEntity
  8
0
  6
Continuous
 62
     7
370
    25
100
AcDbLine
 10
132.5467887394
 20
184.8352080323
 30
0.0
 11
132.5130119358
 21
184.8131610515
 31
0.0
  0
LINE
  5
1F7
330
1F
100
AcDbEntity
  8
0
  6
Continuous
 62
     7
370
    25
100
AcDbLine
 10
132.5308920743
 20
152.4402911723
 30
0.0
 11
132.5467887394
 21
152.4378692636
 31
0.0
  0
LINE
  5
1F8
330
1F
100
AcDbEntity
  8
0
  6
Continuous
 62
     7
370
    25
100
AcDbLine
 10
149.7339409254
 20
152.4365386479
 30
0.0
 11
149.7339409254
 21
184.8365386479
 31
0.0
  0
LINE
  5
1F9
330
1F
100
AcDbEntity
  8
0
  6
Continuous
 62
     7
370
    25
100
AcDbLine
 10
124.0052795152
 20
181.7943102691
 30
0.0
 11
125.0091018288
 21
184.2083565821
 31
0.0
  0
ARC
  5
1FA
330
1F
100
AcDbEntity
  8
0
  6
Continuous
 62
     7
370
    25
100
AcDbCircle
 10
132.6836489513
 20
199.7017915174
 30
0.0
 40
17.29003179958724
100
AcDbArc
 50
243.6488590876
 51
260.280235246
  0
SPLINE
  5
1FB
330
1F
100
AcDbEntity
  8
0
  6
Continuous
 62
     7
370
    25
100
AcDbSpline
210
0.0
220
0.0
230
1.0
 70
     8
 71
     3
 72
    18
 73
    14
 74
     0
 42
0.00000001
 43
0.00000001
 40
0.0
 40
0.0
 40
0.0
 40
0.0
 40
0.06351783138304
 40
0.1565090173640055
 40
0.2512441947415194
 40
0.3450932751290165
 40
0.4374124556468258
 40
0.5318533641539448
 40
0.6262897571762182
 40
0.7186055133308135
 40
0.8124620255992662
 40
0.9071956869623996
 40
1.0
 40
1.0
 40
1.0
 40
1.0
 10
153.1839409253672
 20
156.9536706866493
 30
0.0
 10
153.1713866270472
 20
157.4081617824485
 30
0.0
 10
153.1404526223596
 20
158.5280355762381
 30
0.0
 10
153.0916431741483
 20
161.005874621734
 30
0.0
 10
153.0330350514175
 20
164.118122473636
 30
0.0
 10
152.976270994651
 20
167.4977085869839
 30
0.0
 10
152.9231265304325
 20
170.9282515068058
 30
0.0
 10
152.8650912537678
 20
174.24361591132
 30
0.0
 10
152.8070633562165
 20
177.2446409108093
 30
0.0
 10
152.7539319378662
 20
179.7684789073262
 30
0.0
 10
152.6971337549923
 20
181.6693469110634
 30
0.0
 10
152.6386305760897
 20
182.9057017338782
 30
0.0
 10
152.602047659947
 20
183.059621630189
 30
0.0
 10
152.5839443802652
 20
183.1357898317791
 30
0.0
  0
SPLINE
  5
1FC
330
1F
100
AcDbEntity
  8
0
  6
Continuous
 62
     7
370
    25
100
AcDbSpline
210
0.0
220
0.0
230
1.0
 70
     8
 71
     3
 72
    21
 73
    17
 74
     0
 42
0.00000001
 43
0.00000001
 40
0.0
 40
0.0
 40
0.0
 40
0.0
 40
0.0246117580046765
 40
0.0997689425453789
 40
0.1756295506349549
 40
0.2500876465066033
 40
0.3245527473596352
 40
0.4004143944967137
 40
0.4755664765171512
 40
0.549493451589123
 40
0.6251194553060138
 40
0.7007418431314534
 40
0.774666076055883
 40
0.849824109347498
 40
0.9256845424967933
 40
1.0
 40
1.0
 40
1.0
 40
1.0
 10
151.8340746823581
 20
154.2232383771556
 30
0.0
 10
151.8281255087843
 20
154.1993640788683
 30
0.0
 10
151.8040092812329
 20
154.1025845845434
 30
0.0
 10
151.7596614889334
 20
154.7515689603912
 30
0.0
 10
151.701121633057
 20
156.153205999466
 30
0.0
 10
151.646366852613
 20
158.2955670842313
 30
0.0
 10
151.5915911489089
 20
160.9899699720689
 30
0.0
 10
151.5330489616538
 20
164.1223749756712
 30
0.0
 10
151.4762673523403
 20
167.4965950952008
 30
0.0
 10
151.4231275244928
 20
170.9285554012285
 30
0.0
 10
151.3650909846787
 20
174.2435336480119
 30
0.0
 10
151.3070634264746
 20
177.2446623894166
 30
0.0
 10
151.2539319188859
 20
179.7684731048611
 30
0.0
 10
151.1971337601458
 20
181.669348486521
 30
0.0
 10
151.1386305748271
 20
182.9057013478661
 30
0.0
 10
151.102047659529
 20
183.0596215024038
 30
0.0
 10
151.0839443802652
 20
183.1357898317791
 30
0.0
  0
SPLINE
  5
1FD
330
1F
100
AcDbEntity
  8
0
  6
Continuous
 62
     7
370
    25
100
AcDbSpline
210
0.0
220
0.0
230
1.0
 70
     8
 71
     3
 72
    19
 73
    15
 74
     0
 42
0.00000001
 43
0.00000001
 40
0.0
 40
0.0
 40
0.0
 40
0.0
 40
0.0307628319011562
 40
0.1247036155603486
 40
0.2195236253351725
 40
0.3125906011499183
 40
0.4056663326604064
 40
0.5004876411658472
 40
0.5944220470614865
 40
0.6868251621363146
 40
0.7813519342286122
 40
0.8758741867306852
 40
0.9682738743289441
 40
1.0
 40
1.0
 40
1.0
 40
1.0
 10
150.3340746823581
 20
154.2232383771557
 30
0.0
 10
150.3281255087849
 20
154.1993640802825
 30
0.0
 10
150.3040092812361
 20
154.1025845916901
 30
0.0
 10
150.259661488886
 20
154.7515688549061
 30
0.0
 10
150.2011216332292
 20
156.1532063825478
 30
0.0
 10
150.1463668519851
 20
158.2955656872914
 30
0.0
 10
150.0915911512722
 20
160.9899752297285
 30
0.0
 10
150.0330489526851
 20
164.1223550224534
 30
0.0
 10
149.9762673852155
 20
167.4966682345029
 30
0.0
 10
149.9231274028247
 20
170.9282847195767
 30
0.0
 10
149.8650914506422
 20
174.2445703026926
 30
0.0
 10
149.8070617053072
 20
177.2408332126757
 30
0.0
 10
149.7657059069392
 20
179.219484497447
 30
0.0
 10
149.7411553292018
 20
180.1336381975441
 30
0.0
 10
149.7348802870162
 20
180.3672927002462
 30
0.0
  0
LINE
  5
1FE
330
1F
100
AcDbEntity
  8
0
  6
Continuous
 62
     7
370
    25
100
AcDbLine
 10
149.7344694046
 20
180.3672103903
 30
0.0
 11
150.2036303916
 21
179.7104523358
 31
0.0
  0
SPLINE
  5
1FF
330
1F
100
AcDbEntity
  8
0
  6
Continuous
 62
     7
370
    25
100
AcDbSpline
210
0.0
220
0.0
230
1.0
 70
     8
 71
     3
 72
    37
 73
    33
 74
     0
 42
0.00000001
 43
0.00000001
 40
0.0
 40
0.0
 40
0.0
 40
0.0
 40
0.0352090858901807
 40
0.0688883651579085
 40
0.1018480641694617
 40
0.1355298818787715
 40
0.1687936032200383
 40
0.2020650354006282
 40
0.2357442118557606
 40
0.2687039127684461
 40
0.302385830740281
 40
0.3356492566594151
 40
0.3689209849350375
 40
0.4026000584795181
 40
0.4355597614395773
 40
0.4692417795758341
 40
0.5025049102138056
 40
0.5357769344933353
 40
0.569455905029111
 40
0.6024156101827833
 40
0.6360977283853573
 40
0.6693605638831424
 40
0.7026328840754495
 40
0.7363117515044671
 40
0.7692714589979941
 40
0.8029536771687783
 40
0.8362162176673583
 40
0.8694888336813068
 40
0.903167597905516
 40
0.9361273078851384
 40
0.9698096259260246
 40
1.0
 40
1.0
 40
1.0
 40
1.0
 10
153.802837723013
 20
154.952150001468
 30
0.0
 10
154.4154250344091
 20
155.0707393901508
 30
0.0
 10
155.6139832284555
 20
155.3027655534234
 30
0.0
 10
155.0517986779874
 20
157.4019211809616
 30
0.0
 10
155.1064873876916
 20
160.4670232413035
 30
0.0
 10
154.9940831100847
 20
164.346447336856
 30
0.0
 10
154.9293834884094
 20
168.649997779222
 30
0.0
 10
154.8531368753074
 20
172.954081556531
 30
0.0
 10
154.7753453063166
 20
176.8238839807348
 30
0.0
 10
154.7046501214886
 20
179.9041341680996
 30
0.0
 10
154.6262153883011
 20
181.8753239042676
 30
0.0
 10
154.5524613165607
 20
182.5501660218967
 30
0.0
 10
154.4786355997404
 20
181.8662056976991
 30
0.0
 10
154.40019122019
 20
179.886588775146
 30
0.0
 10
154.3296691720861
 20
176.7997896009947
 30
0.0
 10
154.2511861807871
 20
172.9258281509702
 30
0.0
 10
154.1774477287896
 20
168.6206364770788
 30
0.0
 10
154.1036155435087
 20
164.3170723489335
 30
0.0
 10
154.0251734430711
 20
160.4474490236775
 30
0.0
 10
153.9546511324181
 20
157.3676985463776
 30
0.0
 10
153.8761668638084
 20
155.397102707212
 30
0.0
 10
153.802431504497
 20
154.7229135997553
 30
0.0
 10
153.7285962025325
 20
155.4075272122546
 30
0.0
 10
153.6501554822163
 20
157.3877358442381
 30
0.0
 10
153.5796331292756
 20
160.4750392885248
 30
0.0
 10
153.5011475864547
 20
164.3491571437817
 30
0.0
 10
153.4274150886638
 20
168.6549463803323
 30
0.0
 10
153.35357758946
 20
172.9565699980081
 30
0.0
 10
153.2751347892579
 20
176.8327697815789
 30
0.0
 10
153.2046251712679
 20
179.8867054239844
 30
0.0
 10
153.1285048859775
 20
181.8889305473475
 30
0.0
 10
153.0814750026354
 20
182.1433973268111
 30
0.0
 10
153.0592456316203
 20
182.2636748195397
 30
0.0
  0
SPLINE
  5
200
330
1F
100
AcDbEntity
  8
0
  6
Continuous
 62
     7
370
    25
100
AcDbSpline
210
0.0
220
0.0
230
1.0
 70
     8
 71
     3
 72
    18
 73
    14
 74
     0
 42
0.00000001
 43
0.00000001
 40
0.0
 40
0.0
 40
0.0
 40
0.0
 40
0.0004268679557563
 40
0.1010233730816048
 40
0.2028441756441406
 40
0.3024920089134989
 40
0.4043253976885043
 40
0.5048851966034649
 40
0.6054825949910452
 40
0.7073030843465398
 40
0.806950926900693
 40
0.9087846164286439
 40
1.0
 40
1.0
 40
1.0
 40
1.0
 10
152.3026693090463
 20
154.9512514501053
 30
0.0
 10
152.3025642421329
 20
154.9503148601082
 30
0.0
 10
152.2776989088469
 20
154.7286597102548
 30
0.0
 10
152.2286412701498
 20
155.5124392000694
 30
0.0
 10
152.1500514633469
 20
157.3630249084573
 30
0.0
 10
152.0795699172953
 20
160.4858952196483
 30
0.0
 10
152.0010679360416
 20
164.3512078229674
 30
0.0
 10
151.9273508174614
 20
168.6597140776307
 30
0.0
 10
151.8535000392937
 20
172.9604468437687
 30
0.0
 10
151.7750630414504
 20
176.8362554991471
 30
0.0
 10
151.7045529885232
 20
179.8891709902009
 30
0.0
 10
151.6284431280163
 20
181.8899706902693
 30
0.0
 10
151.5814319829997
 20
182.1435856080973
 30
0.0
 10
151.5592192908796
 20
182.2634182580951
 30
0.0
  0
SPLINE
  5
201
330
1F
100
AcDbEntity
  8
0
  6
Continuous
 62
     7
370
    25
100
AcDbSpline
210
0.0
220
0.0
230
1.0
 70
     8
 71
     3
 72
    16
 73
    12
 74
     0
 42
0.00000001
 43
0.00000001
 40
0.0
 40
0.0
 40
0.0
 40
0.0
 40
0.0004455311838612
 40
0.1251224841077741
 40
0.2513107677203485
 40
0.3748076238711413
 40
0.5010145495876629
 40
0.6256371775690428
 40
0.7503152361749484
 40
0.8765031301504658
 40
1.0
 40
1.0
 40
1.0
 40
1.0
 10
150.8025521428582
 20
154.9508117868504
 30
0.0
 10
150.8024636660458
 20
154.9500250302706
 30
0.0
 10
150.7776159360842
 20
154.7290731839839
 30
0.0
 10
150.7285632995235
 20
155.5138911524312
 30
0.0
 10
150.6499793041925
 20
157.3654429571766
 30
0.0
 10
150.5794997798426
 20
160.4895757499478
 30
0.0
 10
150.5009834342391
 20
164.3543872254465
 30
0.0
 10
150.4273124145307
 20
168.6670620515122
 30
0.0
 10
150.3533231286901
 20
172.9528052272957
 30
0.0
 10
150.2753643210772
 20
176.8834120195037
 30
0.0
 10
150.2273693476534
 20
178.7748960333574
 30
0.0
 10
150.2036304983318
 20
179.7104451293569
 30
0.0
  0
SPLINE
  5
202
330
1F
100
AcDbEntity
  8
0
  6
Continuous
 62
     7
370
    25
100
AcDbSpline
210
0.0
220
0.0
230
1.0
 70
     8
 71
     3
 72
    17
 73
    13
 74
     0
 42
0.00000001
 43
0.00000001
 40
0.0
 40
0.0
 40
0.0
 40
0.0
 40
0.0919508287866222
 40
0.1937743752999922
 40
0.2934236401496276
 40
0.3952573213245363
 40
0.4958221549963374
 40
0.5964174630565224
 40
0.6982406974143212
 40
0.7978899697864807
 40
0.8997239530266743
 40
0.9999999999999999
 40
0.9999999999999999
 40
0.9999999999999999
 40
0.9999999999999999
 10
154.1710350148068
 20
155.006108667357
 30
0.0
 10
154.1486234115761
 20
155.130334868982
 30
0.0
 10
154.1013938816979
 20
155.3921253817315
 30
0.0
 10
154.025143807811
 20
157.407386596379
 30
0.0
 10
153.954636165177
 20
160.4696944978498
 30
0.0
 10
153.8761465575528
 20
164.3506088797759
 30
0.0
 10
153.8024154127962
 20
168.6545022685818
 30
0.0
 10
153.7285765909999
 20
172.9569490807876
 30
0.0
 10
153.6501376828035
 20
176.8317413224242
 30
0.0
 10
153.5796139902941
 20
179.8904204150192
 30
0.0
 10
153.5012067849348
 20
181.9364037404625
 30
0.0
 10
153.452009363491
 20
182.1946234783638
 30
0.0
 10
153.4276002684131
 20
182.3227381223518
 30
0.0
  0
SPLINE
  5
203
330
1F
100
AcDbEntity
  8
0
  6
Continuous
 62
     7
370
    25
100
AcDbSpline
210
0.0
220
0.0
230
1.0
 70
     8
 71
     3
 72
    17
 73
    13
 74
     0
 42
0.00000001
 43
0.00000001
 40
0.0
 40
0.0
 40
0.0
 40
0.0
 40
0.0920389609113999
 40
0.1938935066147276
 40
0.2935743655603988
 40
0.3954415067955753
 40
0.4960346259179892
 40
0.5966653722925188
 40
0.6985196045543463
 40
0.7982004727954874
 40
0.9000679150037507
 40
1.0
 40
1.0
 40
1.0
 40
1.0
 10
152.6710080834809
 20
155.0058536555639
 30
0.0
 10
152.6485799519007
 20
155.1305286764492
 30
0.0
 10
152.6013318187641
 20
155.3931748074716
 30
0.0
 10
152.5250717212653
 20
157.4098739955973
 30
0.0
 10
152.4545642263021
 20
160.4731512541675
 30
0.0
 10
152.3760691962457
 20
164.3546337788852
 30
0.0
 10
152.3023504904245
 20
168.6587480887126
 30
0.0
 10
152.2284992016285
 20
172.9609617221542
 30
0.0
 10
152.1500657697085
 20
176.8352239336484
 30
0.0
 10
152.079542127268
 20
179.8927758211877
 30
0.0
 10
152.0012256072269
 20
181.9357345034888
 30
0.0
 10
151.9521232491742
 20
182.1929329074067
 30
0.0
 10
151.92780752809
 20
182.3202987794544
 30
0.0
  0
SPLINE
  5
204
330
1F
100
AcDbEntity
  8
0
  6
Continuous
 62
     7
370
    25
100
AcDbSpline
210
0.0
220
0.0
230
1.0
 70
     8
 71
     3
 72
    15
 73
    11
 74
     0
 42
0.00000001
 43
0.00000001
 40
0.0
 40
0.0
 40
0.0
 40
0.0
 40
0.1153735800446503
 40
0.2429679970767419
 40
0.3678409997054941
 40
0.4954542742810516
 40
0.6214655818976192
 40
0.7475329606201702
 40
0.8751269835085224
 40
1.0
 40
1.0
 40
1.0
 40
1.0
 10
151.1709811029724
 20
155.0055988402409
 30
0.0
 10
151.1485364935145
 20
155.1307275636599
 30
0.0
 10
151.1012698506395
 20
155.3942391517907
 30
0.0
 10
151.0249991361511
 20
157.4123009445258
 30
0.0
 10
150.9544941535132
 20
160.4768354088123
 30
0.0
 10
150.875984689972
 20
164.3577964792416
 30
0.0
 10
150.8023118617877
 20
168.6661671673826
 30
0.0
 10
150.7283230338408
 20
172.9530605976293
 30
0.0
 10
150.6503641095188
 20
176.8833609557242
 30
0.0
 10
150.6023691506841
 20
178.7748834213777
 30
0.0
 10
150.578630308177
 20
179.710451551886
 30
0.0
  0
LINE
  5
205
330
1F
100
AcDbEntity
  8
0
  6
Continuous
 62
     7
370
    25
100
AcDbLine
 10
150.5786304032
 20
179.7104528831
 30
0.0
 11
151.0473802428
 21
180.367294616
 31
0.0
  0
SPLINE
  5
206
330
1F
100
AcDbEntity
  8
0
  6
Continuous
 62
     7
370
    25
100
AcDbSpline
210
0.0
220
0.0
230
1.0
 70
     8
 71
     3
 72
    21
 73
    17
 74
     0
 42
0.00000001
 43
0.00000001
 40
0.0
 40
0.0
 40
0.0
 40
0.0
 40
0.0407370019080147
 40
0.1163784515492284
 40
0.1920142175021194
 40
0.2659517693122273
 40
0.3411258270392999
 40
0.417000370159832
 40
0.4914691680621305
 40
0.5659519656591075
 40
0.6418285874497864
 40
0.716992437311386
 40
0.7909346980969427
 40
0.8866316053687001
 40
0.9814257525928665
 40
1.0
 40
1.0
 40
1.0
 40
1.0
 10
153.1398445304474
 20
154.2387080735315
 30
0.0
 10
153.1300450139931
 20
154.2413776174726
 30
0.0
 10
153.1020495185597
 20
154.2490040351192
 30
0.0
 10
153.0525227013339
 20
155.1412739086279
 30
0.0
 10
152.9945118101201
 20
156.7983402969363
 30
0.0
 10
152.9413788668571
 20
159.1400105303107
 30
0.0
 10
152.884577310168
 20
161.9965617837609
 30
0.0
 10
152.8260365962155
 20
165.2335077145174
 30
0.0
 10
152.7712932095969
 20
168.6465826013118
 30
0.0
 10
152.7165052030553
 20
172.0589643802034
 30
0.0
 10
152.6579683949533
 20
175.2949287660167
 30
0.0
 10
152.6011718339514
 20
178.1466688266027
 30
0.0
 10
152.5433746452814
 20
180.7021101496225
 30
0.0
 10
152.4740517312991
 20
182.4932153057128
 30
0.0
 10
152.42213519107
 20
183.3080628105901
 30
0.0
 10
152.3941954206509
 20
183.0701376111907
 30
0.0
 10
152.38961777615
 20
183.0311560102568
 30
0.0
  0
SPLINE
  5
207
330
1F
100
AcDbEntity
  8
0
  6
Continuous
 62
     7
370
    25
100
AcDbSpline
210
0.0
220
0.0
230
1.0
 70
     8
 71
     3
 72
    18
 73
    14
 74
     0
 42
0.00000001
 43
0.00000001
 40
0.0
 40
0.0
 40
0.0
 40
0.0
 40
0.0514197086447507
 40
0.1470145204108676
 40
0.2426021491957234
 40
0.336043594081567
 40
0.4310477212129334
 40
0.5269371138918308
 40
0.6210499416031665
 40
0.7151804619708954
 40
0.8110724816497029
 40
0.9060637081957016
 40
1.0
 40
1.0
 40
1.0
 40
1.0
 10
151.6398081049965
 20
154.2387981799265
 30
0.0
 10
151.6300205661505
 20
154.2414808995275
 30
0.0
 10
151.6020369317162
 20
154.2491510856477
 30
0.0
 10
151.5525225997527
 20
155.1413032618607
 30
0.0
 10
151.4945118150511
 20
156.7983296341306
 30
0.0
 10
151.4413789443842
 20
159.1400243640319
 30
0.0
 10
151.3845769870563
 20
161.9965160732756
 30
0.0
 10
151.3260378116612
 20
165.233676736632
 30
0.0
 10
151.2712887662536
 20
168.6459654489588
 30
0.0
 10
151.2165219309968
 20
172.0612875813153
 30
0.0
 10
151.1579049144263
 20
175.2861125536367
 30
0.0
 10
151.1013073688259
 20
178.1839584457131
 30
0.0
 10
151.0652889114143
 20
179.6422298084238
 30
0.0
 10
151.0473802427603
 20
180.3672941370805
 30
0.0
  0
ELLIPSE
  5
208
330
1F
100
AcDbEntity
  8
0
  6
Continuous
 62
     7
370
    25
100
AcDbEllipse
 10
158.1143796172
 20
168.6365386479
 30
0.0
 11
-7.401257687792878
 21
14.35777723298276
 31
0.0
210
0.0
220
0.0
230
1.0
 40
0.2737224856
 41
0.1519163654195885
 42
0.4881424368787678
  0
ELLIPSE
  5
209
330
1F
100
AcDbEntity
  8
0
  6
Continuous
 62
     7
370
    25
100
AcDbEllipse
 10
142.675804169
 20
168.6365386479
 30
0.0
 11
7.392868934794819
 21
14.35826292490984
 31
0.0
210
0.0
220
0.0
230
1.0
 40
0.2735670702
 41
5.794804357670531
 42
6.131028995319403
  0
LINE
  5
20A
330
1F
100
AcDbEntity
  8
0
  6
Continuous
 62
     7
370
    25
100
AcDbLine
 10
150.2036185117
 20
182.5223721919
 30
0.0
 11
150.5786185233
 21
182.5223721917
 31
0.0
  0
LINE
  5
20B
330
1F
100
AcDbEntity
  8
0
  6
Continuous
 62
     7
370
    25
100
AcDbLine
 10
150.2036303916
 20
179.7104523358
 30
0.0
 11
150.5786304032
 21
179.7104528831
 31
0.0
  0
LINE
  5
20C
330
1F
100
AcDbEntity
  8
0
  6
Continuous
 62
     7
370
    25
100
AcDbLine
 10
150.2036185117
 20
182.5223721919
 30
0.0
 11
150.2036303916
 21
179.7104523358
 31
0.0
  0
LINE
  5
20D
330
1F
100
AcDbEntity
  8
0
  6
Continuous
 62
     7
370
    25
100
AcDbLine
 10
150.5786185233
 20
182.5223721917
 30
0.0
 11
150.5786304033
 21
179.7104483406
 31
0.0
  0
ARC
  5
20E
330
1F
100
AcDbEntity
  8
0
  6
Continuous
 62
     7
370
    25
100
AcDbCircle
 10
132.5411629553
 20
137.4512662824
 30
0.0
 40
14.98660403711789
100
AcDbArc
 50
89.9784918789
 51
111.1495615478
  0
SPLINE
  5
20F
330
1F
100
AcDbEntity
  8
0
  6
Continuous
 62
     7
370
    25
100
AcDbSpline
210
0.0
220
0.0
230
1.0
 70
     8
 71
     3
 72
    10
 73
     6
 74
     0
 42
0.00000001
 43
0.00000001
 40
0.0
 40
0.0
 40
0.0
 40
0.0
 40
0.275785417752133
 40
0.560018797457451
 40
1.0
 40
1.0
 40
1.0
 40
1.0
 10
125.009101828791
 20
184.2083565821254
 30
0.0
 10
125.2347910750585
 20
184.5298441110425
 30
0.0
 10
125.6930829649052
 20
185.1826670949739
 30
0.0
 10
126.1944457020887
 20
185.9811850572417
 30
0.0
 10
126.3228148836436
 20
186.0867535397838
 30
0.0
 10
126.4008028560683
 20
186.1508894313249
 30
0.0
  0
ARC
  5
210
330
1F
100
AcDbEntity
  8
0
  6
Continuous
 62
     7
370
    25
100
AcDbCircle
 10
132.5411499157
 20
199.8216811217
 30
0.0
 40
14.98647415023411
100
AcDbArc
 50
245.8123806786
 51
270.02155816
  0
ARC
  5
211
330
1F
100
AcDbEntity
  8
0
  6
Continuous
 62
     7
370
    25
100
AcDbCircle
 10
118.5339409254
 20
168.6365386479
 30
0.0
 40
19.20000000000001
100
AcDbArc
 50
65.8119747904
 51
243.3899021893
  0
LINE
  5
212
330
1F
100
AcDbEntity
  8
0
  6
Continuous
 62
     7
370
    25
100
AcDbLine
 10
126.4008028561
 20
186.1508894313
 30
0.0
 11
126.4008235903
 21
186.1508801182
 31
0.0
  0
ARC
  5
213
330
1F
100
AcDbEntity
  8
0
  6
Continuous
 62
     7
370
    25
100
AcDbCircle
 10
118.5339409254
 20
168.6365386479
 30
0.0
 40
25.37499999999999
100
AcDbArc
 50
39.6743748818
 51
250.1891397038
  0
ARC
  5
214
330
1F
100
AcDbEntity
  8
0
  6
Continuous
 62
     7
370
    25
100
AcDbCircle
 10
118.5339409254
 20
168.6365386479
 30
0.0
 40
25.37500000000004
100
AcDbArc
 50
289.8108602962
 51
320.3256251182
  0
ARC
  5
215
330
1F
100
AcDbEntity
  8
0
  6
Continuous
 62
     8
370
    25
100
AcDbCircle
 10
118.581881179
 20
-44.1396061569
 30
0.0
 40
8.5521796603599
100
AcDbArc
 50
269.6788200558
 51
359.6965866989
  0
ARC
  5
216
330
1F
100
AcDbEntity
  8
0
  6
Continuous
 62
     8
370
    25
100
AcDbCircle
 10
118.4860006718
 20
-44.1396061569
 30
0.0
 40
8.55217966035987
100
AcDbArc
 50
180.3034133011
 51
270.3211799442
  0
ARC
  5
217
330
1F
100
AcDbEntity
  8
0
  6
Continuous
 62
     8
370
    25
100
AcDbCircle
 10
118.6301789596
 20
-44.6168181248
 30
0.0
 40
9.955997552053281
100
AcDbArc
 50
269.4461510226
 51
31.3357400043
  0
ARC
  5
218
330
1F
100
AcDbEntity
  8
0
  6
Continuous
 62
     8
370
    25
100
AcDbCircle
 10
118.4377028912
 20
-44.6168181248
 30
0.0
 40
9.955997552053287
100
AcDbArc
 50
148.6642599957
 51
270.5538489774
  0
LINE
  5
219
330
1F
100
AcDbEntity
  8
0
  6
Continuous
 62
     8
370
    25
100
AcDbLine
 10
128.771072675
 20
-46.9051804572
 30
0.0
 11
129.0960788959
 21
-47.0019628284
 31
0.0
  0
ELLIPSE
  5
21A
330
1F
100
AcDbEntity
  8
0
  6
Continuous
 62
     8
370
    25
100
AcDbEllipse
 10
154.9522148511
 20
173.4643652234
 30
0.0
 11
35.70262486333175
 21
-0.6260506459064175
 31
0.0
210
0.0
220
0.0
230
1.0
 40
0.0552146892
 41
6.257836912924514
 42
6.344163104880447
  0
ARC
  5
21B
330
1F
100
AcDbEntity
  8
0
  6
Continuous
 62
     8
370
    25
100
AcDbCircle
 10
190.632797793
 20
164.9834562934
 30
0.0
 40
0.4990247297582679
100
AcDbArc
 50
205.6099242454
 51
271.1133447788
  0
ELLIPSE
  5
21C
330
1F
100
AcDbEntity
  8
0
  6
Continuous
 62
     8
370
    25
100
AcDbEllipse
 10
205.1287470027
 20
172.0149186031
 30
0.0
 11
14.99999386323825
 21
-0.2542085132690772
 31
0.0
210
0.0
220
0.0
230
1.0
 40
0.0533752749
 41
3.142300805938025
 42
3.781909355561447
  0
ELLIPSE
  5
21D
330
1F
100
AcDbEntity
  8
0
  6
Continuous
 62
     8
370
    25
100
AcDbEllipse
 10
154.9434886479
 20
172.9652021524
 30
0.0
 11
35.20262413736901
 21
-0.6261054031506035
 31
0.0
210
0.0
220
0.0
230
1.0
 40
0.0559984374
 41
6.279995344131915
 42
6.740065190006135
  0
ELLIPSE
  5
21E
330
1F
100
AcDbEntity
  8
0
  6
Continuous
 62
     8
370
    25
100
AcDbEllipse
 10
154.9434886479
 20
164.3078751435
 30
0.0
 11
35.20262413736901
 21
0.6261054031506035
 31
0.0
210
0.0
220
0.0
230
1.0
 40
0.0559984374
 41
5.826305424353235
 42
6.282671429672352
  0
LINE
  5
21F
330
1F
100
AcDbEntity
  8
0
  6
Continuous
 62
     8
370
    25
100
AcDbLine
 10
186.2426671286
 20
158.3078655197
 30
0.0
 11
186.2426671286
 21
156.6647251856
 31
0.0
  0
LINE
  5
220
330
1F
100
AcDbEntity
  8
0
  6
Continuous
 62
     8
370
    25
100
AcDbLine
 10
186.2426671286
 20
180.6083521103
 30
0.0
 11
186.2426671286
 21
178.9652117762
 31
0.0
  0
LINE
  5
221
330
1F
100
AcDbEntity
  8
0
  6
Continuous
 62
     8
370
    25
100
AcDbLine
 10
190.2688457382
 20
179.9041099988
 30
0.0
 11
190.2688457382
 21
180.5380749012
 31
0.0
  0
LINE
  5
222
330
1F
100
AcDbEntity
  8
0
  6
Continuous
 62
     8
370
    25
100
AcDbLine
 10
190.2688457382
 20
156.7350023947
 30
0.0
 11
190.2688457382
 21
158.3653120225
 31
0.0
  0
LINE
  5
223
330
1F
100
AcDbEntity
  8
0
  6
Continuous
 62
     8
370
    25
100
AcDbLine
 10
200.0926671286
 20
175.186908093
 30
0.0
 11
200.0926671286
 21
177.5359061498
 31
0.0
  0
LINE
  5
224
330
1F
100
AcDbEntity
  8
0
  6
Continuous
 62
     8
370
    25
100
AcDbLine
 10
200.0926671286
 20
159.7371711461
 30
0.0
 11
200.0926671286
 21
162.0861692029
 31
0.0
  0
LINE
  5
225
330
1F
100
AcDbEntity
  8
0
  6
Continuous
 62
     8
370
    25
100
AcDbLine
 10
195.7219848825
 20
177.6121966922
 30
0.0
 11
195.7219848825
 21
175.6844312292
 31
0.0
  0
SPLINE
  5
226
330
1F
100
AcDbEntity
  8
0
  6
Continuous
 62
     8
370
    25
100
AcDbSpline
210
0.0
220
0.0
230
1.0
 70
     8
 71
     3
 72
    10
 73
     6
 74
     0
 42
0.00000001
 43
0.00000001
 40
0.0
 40
0.0
 40
0.0
 40
0.0
 40
0.0551125353459253
 40
0.5124302691102054
 40
1.0
 40
1.0
 40
1.0
 40
1.0
 10
194.0960286834513
 20
178.016927049055
 30
0.0
 10
194.048709984341
 20
178.0498107310528
 30
0.0
 10
193.608745944094
 20
178.355559575843
 30
0.0
 10
192.8083261096351
 20
178.5292967418247
 30
0.0
 10
192.453212750107
 20
178.5754146291366
 30
0.0
 10
192.2699713254746
 20
178.5992118396479
 30
0.0
  0
LWPOLYLINE
  5
227
330
1F
100
AcDbEntity
  8
0
  6
Continuous
 62
     8
370
    25
100
AcDbPolyline
 90
        3
 70
   128
 43
0.0
 10
192.2699713255
 20
178.5992118396
 10
192.2023626401
 20
178.9456414173
 10
192.164876565
 20
179.0594241808
  0
LINE
  5
228
330
1F
100
AcDbEntity
  8
0
  6
Continuous
 62
     8
370
    25
100
AcDbLine
 10
194.7885646687
 20
161.5738020078
 30
0.0
 11
194.7885646686
 21
159.6445876933
 31
0.0
  0
SPLINE
  5
229
330
1F
100
AcDbEntity
  8
0
  6
Continuous
 62
     8
370
    25
100
AcDbSpline
210
0.0
220
0.0
230
1.0
 70
     8
 71
     3
 72
    10
 73
     6
 74
     0
 42
0.00000001
 43
0.00000001
 40
0.0
 40
0.0
 40
0.0
 40
0.0
 40
0.421724640328784
 40
0.7981219975484394
 40
0.9999999999999999
 40
0.9999999999999999
 40
0.9999999999999999
 40
0.9999999999999999
 10
192.2339409253672
 20
158.9534129623713
 30
0.0
 10
192.3053587767548
 20
158.9289623584921
 30
0.0
 10
192.4405184348806
 20
158.88268912012
 30
0.0
 10
192.9991194973713
 20
158.9813060149621
 30
0.0
 10
193.3666541945607
 20
159.222549788224
 30
0.0
 10
193.4949618757706
 20
159.3067688548597
 30
0.0
  0
LINE
  5
22A
330
1F
100
AcDbEntity
  8
0
  6
Continuous
 62
     8
370
    25
100
AcDbLine
 10
202.1889459149
 20
162.7114108768
 30
0.0
 11
202.1889459149
 21
174.5616664191
 31
0.0
  0
LINE
  5
22B
330
1F
100
AcDbEntity
  8
0
  6
Continuous
 62
     8
370
    25
100
AcDbLine
 10
162.1339409254
 20
173.7303012314
 30
0.0
 11
162.1339409254
 21
163.6263486917
 31
0.0
  0
LINE
  5
22C
330
1F
100
AcDbEntity
  8
0
  6
Continuous
 62
     8
370
    25
100
AcDbLine
 10
162.4693628266
 20
161.4615386479
 30
0.0
 11
162.4693628266
 21
175.8115386479
 31
0.0
  0
ARC
  5
22D
330
1F
100
AcDbEntity
  8
0
  6
Continuous
 62
     8
370
    25
100
AcDbCircle
 10
118.5339409254
 20
168.6365386479
 30
0.0
 40
13.25
100
AcDbArc
 50
90.0
 51
229.5294884505
  0
ARC
  5
22E
330
1F
100
AcDbEntity
  8
0
  6
Continuous
 62
     8
370
    25
100
AcDbCircle
 10
118.5339409254
 20
168.6365386479
 30
0.0
 40
13.25
100
AcDbArc
 50
310.4705115495
 51
90.0
  0
ARC
  5
22F
330
1F
100
AcDbEntity
  8
0
  6
Continuous
 62
     8
370
    25
100
AcDbCircle
 10
125.212878779
 20
147.3245381872
 30
0.0
 40
8.593107670125645
100
AcDbArc
 50
58.0153206858
 51
77.0818735329
  0
SPLINE
  5
230
330
1F
100
AcDbEntity
  8
0
  6
Continuous
 62
     8
370
    25
100
AcDbSpline
210
0.0
220
0.0
230
1.0
 70
     8
 71
     3
 72
    10
 73
     6
 74
     0
 42
0.00000001
 43
0.00000001
 40
0.0
 40
0.0
 40
0.0
 40
0.0
 40
0.4132973569192814
 40
0.868298422884954
 40
1.0
 40
1.0
 40
1.0
 40
1.0
 10
132.5130119357582
 20
184.8131610514867
 30
0.0
 10
132.3658341612447
 20
184.7385988600147
 30
0.0
 10
132.0566276605153
 20
184.5819507901006
 30
0.0
 10
130.8914608826102
 20
183.5455083755571
 30
0.0
 10
129.9711683215998
 20
182.8222977048601
 30
0.0
 10
129.7645832940365
 20
182.6599531389364
 30
0.0
  0
SPLINE
  5
231
330
1F
100
AcDbEntity
  8
0
  6
Continuous
 62
     8
370
    25
100
AcDbSpline
210
0.0
220
0.0
230
1.0
 70
     8
 71
     3
 72
    12
 73
     8
 74
     0
 42
0.00000001
 43
0.00000001
 40
0.0
 40
0.0
 40
0.0
 40
0.0
 40
0.2298983238880666
 40
0.4658043110208699
 40
0.696965569363813
 40
0.934894851466782
 40
0.9999999999999999
 40
0.9999999999999999
 40
0.9999999999999999
 40
0.9999999999999999
 10
129.7645832940365
 20
154.6131241569532
 30
0.0
 10
130.1192073467878
 20
154.3311677970583
 30
0.0
 10
130.8377224267137
 20
153.759887042429
 30
0.0
 10
131.6234250080928
 20
153.0869964673204
 30
0.0
 10
132.1941423139698
 20
152.6193943684309
 30
0.0
 10
132.4536509539175
 20
152.4448839023024
 30
0.0
 10
132.5172320527039
 20
152.4411033924377
 30
0.0
 10
132.5308920743446
 20
152.4402911723354
 30
0.0
  0
ARC
  5
232
330
1F
100
AcDbEntity
  8
0
  6
Continuous
 62
     8
370
    25
100
AcDbCircle
 10
118.5339409254
 20
168.6365386479
 30
0.0
 40
16.8644366197183
100
AcDbArc
 50
67.4212070912
 51
239.3395775105
  0
ARC
  5
233
330
1F
100
AcDbEntity
  8
0
  6
Continuous
 62
     8
370
    25
100
AcDbCircle
 10
132.5905014035
 20
137.9476965372
 30
0.0
 40
16.90332188984035
100
AcDbArc
 50
99.6239699431
 51
108.8329440928
  0
ARC
  5
234
330
1F
100
AcDbEntity
  8
0
  6
Continuous
 62
     8
370
    25
100
AcDbCircle
 10
118.5339409254
 20
168.6365386479
 30
0.0
 40
24.76305823079827
100
AcDbArc
 50
290.3217412557
 51
319.140960131
  0
ARC
  5
235
330
1F
100
AcDbEntity
  8
0
  6
Continuous
 62
     8
370
    25
100
AcDbCircle
 10
118.5339409254
 20
168.6365386479
 30
0.0
 40
24.76305823079827
100
AcDbArc
 50
40.859039869
 51
249.6782587443
  0
ENDSEC
  0
SECTION
  2
OBJECTS
  0
DICTIONARY
  5
C
330
0
100
AcDbDictionary
281
     1
  3
ACAD_GROUP
350
D
  3
ACAD_LAYOUT
350
1A
  3
ACAD_MLINESTYLE
350
17
  3
ACAD_PLOTSETTINGS
350
19
  3
ACAD_PLOTSTYLENAME
350
E
  3
ACAD_SCALELIST
350
47
  3
DWGPROPS
350
236
  0
DICTIONARY
  5
D
102
{ACAD_REACTORS
330
C
102
}
330
C
100
AcDbDictionary
281
     1
  0
DICTIONARY
  5
1A
102
{ACAD_REACTORS
330
C
102
}
330
C
100
AcDbDictionary
281
     1
  3
Layout1
350
1E
  3
Layout2
350
26
  3
Model
350
22
  0
DICTIONARY
  5
17
102
{ACAD_REACTORS
330
C
102
}
330
C
100
AcDbDictionary
281
     1
  3
Standard
350
18
  0
DICTIONARY
  5
19
102
{ACAD_REACTORS
330
C
102
}
330
C
100
AcDbDictionary
281
     1
  0
ACDBDICTIONARYWDFLT
  5
E
102
{ACAD_REACTORS
330
C
102
}
330
C
100
AcDbDictionary
281
     1
  3
Normal
350
F
100
AcDbDictionaryWithDefault
340
F
  0
DICTIONARY
  5
47
102
{ACAD_REACTORS
330
C
102
}
330
C
100
AcDbDictionary
281
     1
  3
A0
350
48
  3
A1
350
49
  3
A2
350
4A
  3
A3
350
4B
  3
A4
350
4C
  3
A5
350
4D
  3
A6
350
4E
  3
A7
350
4F
  3
A8
350
50
  3
A9
350
51
  3
B0
350
52
  3
B1
350
53
  3
B2
350
54
  3
B3
350
55
  3
B4
350
56
  3
B5
350
57
  3
B6
350
58
  3
B7
350
59
  3
B8
350
5A
  3
B9
350
5B
  3
C0
350
5C
  3
C1
350
5D
  3
C2
350
5E
  3
C3
350
5F
  3
C4
350
60
  3
C5
350
61
  3
C6
350
62
  3
C7
350
63
  3
C8
350
64
  3
C9
350
65
  3
D0
350
66
  3
D1
350
67
  3
D2
350
68
  0
XRECORD
  5
236
102
{ACAD_REACTORS
330
C
102
}
330
C
100
AcDbXrecord
280
     1
  1
DWGPROPS COOKIE
  2

  3

  4

  6

  7

  8
DS-1
  9

300
=
301
=
302
=
303
=
304
=
305
=
306
=
307
=
308
=
309
=
 40
0.0
 41
2460383.50974735
 42
2460383.509747998
  1

 90
        0
  0
LAYOUT
  5
1E
102
{ACAD_REACTORS
330
1A
102
}
330
1A
100
AcDbPlotSettings
  1

  2
none_device
  4

  6

 40
0.0
 41
0.0
 42
0.0
 43
0.0
 44
0.0
 45
0.0
 46
0.0
 47
0.0
 48
0.0
 49
0.0
140
0.0
141
0.0
142
1.0
143
1.0
 70
   688
 72
     1
 73
     0
 74
     5
  7

 75
    16
147
1.0
148
0.0
149
0.0
100
AcDbLayout
  1
Layout1
 70
     1
 71
     1
 10
0.0
 20
0.0
 11
420.0
 21
297.0
 12
0.0
 22
0.0
 32
0.0
 14
1.0000000000E+20
 24
1.0000000000E+20
 34
1.0000000000E+20
 15
-1.0000000000E+20
 25
-1.0000000000E+20
 35
-1.0000000000E+20
146
0.0
 13
0.0
 23
0.0
 33
0.0
 16
1.0
 26
0.0
 36
0.0
 17
0.0
 27
1.0
 37
0.0
 76
     0
330
1B
  0
LAYOUT
  5
26
102
{ACAD_REACTORS
330
1A
102
}
330
1A
100
AcDbPlotSettings
  1

  2
none_device
  4

  6

 40
0.0
 41
0.0
 42
0.0
 43
0.0
 44
0.0
 45
0.0
 46
0.0
 47
0.0
 48
0.0
 49
0.0
140
0.0
141
0.0
142
1.0
143
1.0
 70
   688
 72
     1
 73
     0
 74
     5
  7

 75
    16
147
1.0
148
0.0
149
0.0
100
AcDbLayout
  1
Layout2
 70
     1
 71
     2
 10
0.0
 20
0.0
 11
0.0
 21
0.0
 12
0.0
 22
0.0
 32
0.0
 14
0.0
 24
0.0
 34
0.0
 15
0.0
 25
0.0
 35
0.0
146
0.0
 13
0.0
 23
0.0
 33
0.0
 16
1.0
 26
0.0
 36
0.0
 17
0.0
 27
1.0
 37
0.0
 76
     0
330
23
  0
LAYOUT
  5
22
102
{ACAD_REACTORS
330
1A
102
}
330
1A
100
AcDbPlotSettings
  1

  2
none_device
  4
Letter_(8.50_x_11.00_Inches)
  6

 40
6.35
 41
6.35
 42
6.35000508
 43
6.35000508
 44
215.9
 45
279.4
 46
0.0
 47
0.0
 48
0.0
 49
0.0
140
0.0
141
0.0
142
1.0
143
1.0
 70
  1712
 72
     1
 73
     0
 74
     0
  7

 75
     0
147
1.0
148
0.0
149
0.0
100
AcDbLayout
  1
Model
 70
     1
 71
     0
 10
0.0
 20
0.0
 11
279.4
 21
215.9
 12
0.0
 22
0.0
 32
0.0
 14
0.0
 24
0.0
 34
0.0
 15
279.4
 25
215.9
 35
0.0
146
0.0
 13
0.0
 23
0.0
 33
0.0
 16
1.0
 26
0.0
 36
0.0
 17
0.0
 27
1.0
 37
0.0
 76
     0
330
1F
331
29
  0
MLINESTYLE
  5
18
102
{ACAD_REACTORS
330
17
102
}
330
17
100
AcDbMlineStyle
  2
Standard
 70
     0
  3

 62
   256
 51
90.0
 52
90.0
 71
     2
 49
0.5
 62
   256
  6
BYLAYER
 49
-0.5
 62
   256
  6
BYLAYER
  0
ACDBPLACEHOLDER
  5
F
102
{ACAD_REACTORS
330
E
102
}
330
E
  0
SCALE
  5
48
102
{ACAD_REACTORS
330
47
102
}
330
47
100
AcDbScale
 70
     0
300
1:1
140
1.0
141
1.0
290
     1
  0
SCALE
  5
49
102
{ACAD_REACTORS
330
47
102
}
330
47
100
AcDbScale
 70
     0
300
1:2
140
1.0
141
2.0
290
     0
  0
SCALE
  5
4A
102
{ACAD_REACTORS
330
47
102
}
330
47
100
AcDbScale
 70
     0
300
1:4
140
1.0
141
4.0
290
     0
  0
SCALE
  5
4B
102
{ACAD_REACTORS
330
47
102
}
330
47
100
AcDbScale
 70
     0
300
1:5
140
1.0
141
5.0
290
     0
  0
SCALE
  5
4C
102
{ACAD_REACTORS
330
47
102
}
330
47
100
AcDbScale
 70
     0
300
1:8
140
1.0
141
8.0
290
     0
  0
SCALE
  5
4D
102
{ACAD_REACTORS
330
47
102
}
330
47
100
AcDbScale
 70
     0
300
1:10
140
1.0
141
10.0
290
     0
  0
SCALE
  5
4E
102
{ACAD_REACTORS
330
47
102
}
330
47
100
AcDbScale
 70
     0
300
1:16
140
1.0
141
16.0
290
     0
  0
SCALE
  5
4F
102
{ACAD_REACTORS
330
47
102
}
330
47
100
AcDbScale
 70
     0
300
1:20
140
1.0
141
20.0
290
     0
  0
SCALE
  5
50
102
{ACAD_REACTORS
330
47
102
}
330
47
100
AcDbScale
 70
     0
300
1:30
140
1.0
141
30.0
290
     0
  0
SCALE
  5
51
102
{ACAD_REACTORS
330
47
102
}
330
47
100
AcDbScale
 70
     0
300
1:40
140
1.0
141
40.0
290
     0
  0
SCALE
  5
52
102
{ACAD_REACTORS
330
47
102
}
330
47
100
AcDbScale
 70
     0
300
1:50
140
1.0
141
50.0
290
     0
  0
SCALE
  5
53
102
{ACAD_REACTORS
330
47
102
}
330
47
100
AcDbScale
 70
     0
300
1:100
140
1.0
141
100.0
290
     0
  0
SCALE
  5
54
102
{ACAD_REACTORS
330
47
102
}
330
47
100
AcDbScale
 70
     0
300
2:1
140
2.0
141
1.0
290
     0
  0
SCALE
  5
55
102
{ACAD_REACTORS
330
47
102
}
330
47
100
AcDbScale
 70
     0
300
4:1
140
4.0
141
1.0
290
     0
  0
SCALE
  5
56
102
{ACAD_REACTORS
330
47
102
}
330
47
100
AcDbScale
 70
     0
300
8:1
140
8.0
141
1.0
290
     0
  0
SCALE
  5
57
102
{ACAD_REACTORS
330
47
102
}
330
47
100
AcDbScale
 70
     0
300
10:1
140
10.0
141
1.0
290
     0
  0
SCALE
  5
58
102
{ACAD_REACTORS
330
47
102
}
330
47
100
AcDbScale
 70
     0
300
100:1
140
100.0
141
1.0
290
     0
  0
SCALE
  5
59
102
{ACAD_REACTORS
330
47
102
}
330
47
100
AcDbScale
 70
     0
300
1/128" = 1'-0"
140
0.0078125
141
12.0
290
     0
  0
SCALE
  5
5A
102
{ACAD_REACTORS
330
47
102
}
330
47
100
AcDbScale
 70
     0
300
1/64" = 1'-0"
140
0.015625
141
12.0
290
     0
  0
SCALE
  5
5B
102
{ACAD_REACTORS
330
47
102
}
330
47
100
AcDbScale
 70
     0
300
1/32" = 1'-0"
140
0.03125
141
12.0
290
     0
  0
SCALE
  5
5C
102
{ACAD_REACTORS
330
47
102
}
330
47
100
AcDbScale
 70
     0
300
1/16" = 1'-0"
140
0.0625
141
12.0
290
     0
  0
SCALE
  5
5D
102
{ACAD_REACTORS
330
47
102
}
330
47
100
AcDbScale
 70
     0
300
3/32" = 1'-0"
140
0.09375
141
12.0
290
     0
  0
SCALE
  5
5E
102
{ACAD_REACTORS
330
47
102
}
330
47
100
AcDbScale
 70
     0
300
1/8" = 1'-0"
140
0.125
141
12.0
290
     0
  0
SCALE
  5
5F
102
{ACAD_REACTORS
330
47
102
}
330
47
100
AcDbScale
 70
     0
300
3/16" = 1'-0"
140
0.1875
141
12.0
290
     0
  0
SCALE
  5
60
102
{ACAD_REACTORS
330
47
102
}
330
47
100
AcDbScale
 70
     0
300
1/4" = 1'-0"
140
0.25
141
12.0
290
     0
  0
SCALE
  5
61
102
{ACAD_REACTORS
330
47
102
}
330
47
100
AcDbScale
 70
     0
300
3/8" = 1'-0"
140
0.375
141
12.0
290
     0
  0
SCALE
  5
62
102
{ACAD_REACTORS
330
47
102
}
330
47
100
AcDbScale
 70
     0
300
1/2" = 1'-0"
140
0.5
141
12.0
290
     0
  0
SCALE
  5
63
102
{ACAD_REACTORS
330
47
102
}
330
47
100
AcDbScale
 70
     0
300
3/4" = 1'-0"
140
0.75
141
12.0
290
     0
  0
SCALE
  5
64
102
{ACAD_REACTORS
330
47
102
}
330
47
100
AcDbScale
 70
     0
300
1" = 1'-0"
140
1.0
141
12.0
290
     0
  0
SCALE
  5
65
102
{ACAD_REACTORS
330
47
102
}
330
47
100
AcDbScale
 70
     0
300
1-1/2" = 1'-0"
140
1.5
141
12.0
290
     0
  0
SCALE
  5
66
102
{ACAD_REACTORS
330
47
102
}
330
47
100
AcDbScale
 70
     0
300
3" = 1'-0"
140
3.0
141
12.0
290
     0
  0
SCALE
  5
67
102
{ACAD_REACTORS
330
47
102
}
330
47
100
AcDbScale
 70
     0
300
6" = 1'-0"
140
6.0
141
12.0
290
     0
  0
SCALE
  5
68
102
{ACAD_REACTORS
330
47
102
}
330
47
100
AcDbScale
 70
     0
300
1'-0" = 1'-0"
140
12.0
141
12.0
290
     0
  0
ENDSEC
  0
EOF
