  0
SECTION
  2
HEADER
  9
$ACADVER
  1
AC1015
  9
$ACADMAINTVER
 70
     6
  9
$DWGCODEPAGE
  3
ANSI_1252
  9
$INSBASE
 10
0.0
 20
0.0
 30
0.0
  9
$EXTMIN
 10
0.0
 20
0.0
 30
0.0
  9
$EXTMAX
 10
279.4
 20
215.9
 30
0.0
  9
$LIMMIN
 10
0.0
 20
0.0
  9
$LIMMAX
 10
279.4
 20
215.9
  9
$ORTHOMODE
 70
     0
  9
$REGENMODE
 70
     1
  9
$FILLMODE
 70
     1
  9
$QTEXTMODE
 70
     0
  9
$MIRRTEXT
 70
     1
  9
$LTSCALE
 40
1.0
  9
$ATTMODE
 70
     1
  9
$TEXTSIZE
 40
3.5277777778
  9
$TRACEWID
 40
1.0
  9
$TEXTSTYLE
  7
Standard
  9
$CLAYER
  8
0
  9
$CELTYPE
  6
ByLayer
  9
$CECOLOR
 62
   256
  9
$CELTSCALE
 40
1.0
  9
$DISPSILH
 70
     0
  9
$DIMSCALE
 40
1.0
  9
$DIMASZ
 40
3.556
  9
$DIMEXO
 40
1.0
  9
$DIMDLI
 40
3.75
  9
$DIMRND
 40
0.0
  9
$DIMDLE
 40
0.0
  9
$DIMEXE
 40
1.0
  9
$DIMTP
 40
0.0
  9
$DIMTM
 40
0.0
  9
$DIMTXT
 40
3.5277777778
  9
$DIMCEN
 40
2.5
  9
$DIMTSZ
 40
0.0
  9
$DIMTOL
 70
     0
  9
$DIMLIM
 70
     0
  9
$DIMTIH
 70
     1
  9
$DIMTOH
 70
     1
  9
$DIMSE1
 70
     0
  9
$DIMSE2
 70
     0
  9
$DIMTAD
 70
     1
  9
$DIMZIN
 70
     0
  9
$DIMBLK
  1

  9
$DIMASO
 70
     1
  9
$DIMSHO
 70
     1
  9
$DIMPOST
  1

  9
$DIMAPOST
  1

  9
$DIMALT
 70
     0
  9
$DIMALTD
 70
     3
  9
$DIMALTF
 40
0.0393700787
  9
$DIMLFAC
 40
2.0
  9
$DIMTOFL
 70
     1
  9
$DIMTVP
 40
0.0
  9
$DIMTIX
 70
     0
  9
$DIMSOXD
 70
     0
  9
$DIMSAH
 70
     0
  9
$DIMBLK1
  1

  9
$DIMBLK2
  1

  9
$DIMSTYLE
  2
ISO-25
  9
$DIMCLRD
 70
     0
  9
$DIMCLRE
 70
     0
  9
$DIMCLRT
 70
     0
  9
$DIMTFAC
 40
1.0
  9
$DIMGAP
 40
1.524
  9
$DIMJUST
 70
     0
  9
$DIMSD1
 70
     0
  9
$DIMSD2
 70
     0
  9
$DIMTOLJ
 70
     0
  9
$DIMTZIN
 70
     0
  9
$DIMALTZ
 70
     0
  9
$DIMALTTZ
 70
     0
  9
$DIMUPT
 70
     0
  9
$DIMDEC
 70
     2
  9
$DIMTDEC
 70
     2
  9
$DIMALTU
 70
     2
  9
$DIMALTTD
 70
     3
  9
$DIMTXSTY
  7
Standard
  9
$DIMAUNIT
 70
     0
  9
$DIMADEC
 70
     2
  9
$DIMALTRND
 40
0.0
  9
$DIMAZIN
 70
     0
  9
$DIMDSEP
 70
    44
  9
$DIMATFIT
 70
     3
  9
$DIMFRAC
 70
     0
  9
$DIMLDRBLK
  1

  9
$DIMLUNIT
 70
     2
  9
$DIMLWD
 70
    -2
  9
$DIMLWE
 70
    -2
  9
$DIMTMOVE
 70
     0
  9
$LUNITS
 70
     2
  9
$LUPREC
 70
     2
  9
$SKETCHINC
 40
1.0
  9
$FILLETRAD
 40
10.0
  9
$AUNITS
 70
     0
  9
$AUPREC
 70
     2
  9
$MENU
  1
.
  9
$ELEVATION
 40
0.0
  9
$PELEVATION
 40
0.0
  9
$THICKNESS
 40
0.0
  9
$LIMCHECK
 70
     0
  9
$CHAMFERA
 40
0.0
  9
$CHAMFERB
 40
0.0
  9
$CHAMFERC
 40
0.0
  9
$CHAMFERD
 40
0.0
  9
$SKPOLY
 70
     0
  9
$TDCREATE
 40
2460384.397699248
  9
$TDUCREATE
 40
2460384.168532581
  9
$TDUPDATE
 40
2460384.39769971
  9
$TDUUPDATE
 40
2460384.168533044
  9
$TDINDWG
 40
0.0000000116
  9
$TDUSRTIMER
 40
0.0000000116
  9
$USRTIMER
 70
     1
  9
$ANGBASE
 50
0.0
  9
$ANGDIR
 70
     0
  9
$PDMODE
 70
     0
  9
$PDSIZE
 40
-1.0
  9
$PLINEWID
 40
0.0
  9
$SPLFRAME
 70
     0
  9
$SPLINETYPE
 70
     6
  9
$SPLINESEGS
 70
     8
  9
$HANDSEED
  5
126
  9
$SURFTAB1
 70
     6
  9
$SURFTAB2
 70
     6
  9
$SURFTYPE
 70
     6
  9
$SURFU
 70
     6
  9
$SURFV
 70
     6
  9
$UCSBASE
  2

  9
$UCSNAME
  2

  9
$UCSORG
 10
0.0
 20
0.0
 30
0.0
  9
$UCSXDIR
 10
1.0
 20
0.0
 30
0.0
  9
$UCSYDIR
 10
0.0
 20
1.0
 30
0.0
  9
$UCSORTHOREF
  2

  9
$UCSORTHOVIEW
 70
     0
  9
$UCSORGTOP
 10
0.0
 20
0.0
 30
0.0
  9
$UCSORGBOTTOM
 10
0.0
 20
0.0
 30
0.0
  9
$UCSORGLEFT
 10
0.0
 20
0.0
 30
0.0
  9
$UCSORGRIGHT
 10
0.0
 20
0.0
 30
0.0
  9
$UCSORGFRONT
 10
0.0
 20
0.0
 30
0.0
  9
$UCSORGBACK
 10
0.0
 20
0.0
 30
0.0
  9
$PUCSBASE
  2

  9
$PUCSNAME
  2

  9
$PUCSORG
 10
0.0
 20
0.0
 30
0.0
  9
$PUCSXDIR
 10
1.0
 20
0.0
 30
0.0
  9
$PUCSYDIR
 10
0.0
 20
1.0
 30
0.0
  9
$PUCSORTHOREF
  2

  9
$PUCSORTHOVIEW
 70
     0
  9
$PUCSORGTOP
 10
0.0
 20
0.0
 30
0.0
  9
$PUCSORGBOTTOM
 10
0.0
 20
0.0
 30
0.0
  9
$PUCSORGLEFT
 10
0.0
 20
0.0
 30
0.0
  9
$PUCSORGRIGHT
 10
0.0
 20
0.0
 30
0.0
  9
$PUCSORGFRONT
 10
0.0
 20
0.0
 30
0.0
  9
$PUCSORGBACK
 10
0.0
 20
0.0
 30
0.0
  9
$USERI1
 70
     0
  9
$USERI2
 70
     0
  9
$USERI3
 70
     0
  9
$USERI4
 70
     0
  9
$USERI5
 70
     0
  9
$USERR1
 40
0.0
  9
$USERR2
 40
0.0
  9
$USERR3
 40
0.0
  9
$USERR4
 40
0.0
  9
$USERR5
 40
0.0
  9
$WORLDVIEW
 70
     1
  9
$SHADEDGE
 70
     3
  9
$SHADEDIF
 70
    70
  9
$TILEMODE
 70
     1
  9
$MAXACTVP
 70
    64
  9
$PINSBASE
 10
0.0
 20
0.0
 30
0.0
  9
$PLIMCHECK
 70
     0
  9
$PEXTMIN
 10
1.0000000000E+20
 20
1.0000000000E+20
 30
1.0000000000E+20
  9
$PEXTMAX
 10
-1.0000000000E+20
 20
-1.0000000000E+20
 30
-1.0000000000E+20
  9
$PLIMMIN
 10
0.0
 20
0.0
  9
$PLIMMAX
 10
420.0
 20
297.0
  9
$UNITMODE
 70
     0
  9
$VISRETAIN
 70
     1
  9
$PLINEGEN
 70
     0
  9
$PSLTSCALE
 70
     1
  9
$TREEDEPTH
 70
  3020
  9
$CMLSTYLE
  2
Standard
  9
$CMLJUST
 70
     0
  9
$CMLSCALE
 40
20.0
  9
$PROXYGRAPHICS
 70
     1
  9
$MEASUREMENT
 70
     1
  9
$CELWEIGHT
370
    -1
  9
$ENDCAPS
280
     0
  9
$JOINSTYLE
280
     0
  9
$LWDISPLAY
290
     1
  9
$INSUNITS
 70
     4
  9
$HYPERLINKBASE
  1

  9
$STYLESHEET
  1

  9
$XEDIT
290
     1
  9
$CEPSNTYPE
380
     0
  9
$PSTYLEMODE
290
     1
  9
$FINGERPRINTGUID
  2
{b6016a56-ae55-4434-a22c-5eb8b0546343}
  9
$VERSIONGUID
  2
{FAEB1C32-E019-11D5-929B-00C0DF256EC4}
  9
$EXTNAMES
290
     1
  9
$PSVPSCALE
 40
0.0
  9
$OLESTARTUP
290
     0
  0
ENDSEC
  0
SECTION
  2
CLASSES
  0
CLASS
  1
ACDBDICTIONARYWDFLT
  2
AcDbDictionaryWithDefault
  3
ObjectDBX Classes
 90
        0
280
     0
281
     0
  0
CLASS
  1
VISUALSTYLE
  2
AcDbVisualStyle
  3
ObjectDBX Classes
 90
     4095
280
     0
281
     0
  0
CLASS
  1
MATERIAL
  2
AcDbMaterial
  3
ObjectDBX Classes
 90
     1153
280
     0
281
     0
  0
CLASS
  1
SCALE
  2
AcDbScale
  3
ObjectDBX Classes
 90
     1153
280
     0
281
     0
  0
CLASS
  1
TABLESTYLE
  2
AcDbTableStyle
  3
ObjectDBX Classes
 90
     4095
280
     0
281
     0
  0
CLASS
  1
MLEADERSTYLE
  2
AcDbMLeaderStyle
  3
ACDB_MLEADERSTYLE_CLASS
 90
     4095
280
     0
281
     0
  0
CLASS
  1
SUN
  2
AcDbSun
  3
SCENEOE
 90
     1153
280
     0
281
     0
  0
CLASS
  1
ACDBPLACEHOLDER
  2
AcDbPlaceHolder
  3
ObjectDBX Classes
 90
        0
280
     0
281
     0
  0
CLASS
  1
LAYOUT
  2
AcDbLayout
  3
ObjectDBX Classes
 90
        0
280
     0
281
     0
  0
ENDSEC
  0
SECTION
  2
TABLES
  0
TABLE
  2
VPORT
  5
8
330
0
100
AcDbSymbolTable
 70
     1
  0
VPORT
  5
29
330
8
100
AcDbSymbolTableRecord
100
AcDbViewportTableRecord
  2
*Active
 70
     0
 10
0.0
 20
0.0
 11
1.0
 21
1.0
 12
139.7
 22
107.95
 13
0.0
 23
0.0
 14
10.0
 24
10.0
 15
10.0
 25
10.0
 16
0.0
 26
0.0
 36
1.0
 17
0.0
 27
0.0
 37
0.0
 40
215.9
 41
1.2941176471
 42
50.0
 43
0.0
 44
0.0
 50
0.0
 51
0.0
 71
     0
 72
  2000
 73
     1
 74
     3
 75
     0
 76
     0
 77
     0
 78
     0
281
     0
 65
     1
110
0.0
120
0.0
130
0.0
111
1.0
121
0.0
131
0.0
112
0.0
122
1.0
132
0.0
 79
     0
146
0.0
  0
ENDTAB
  0
TABLE
  2
LTYPE
  5
5
330
0
100
AcDbSymbolTable
 70
     6
  0
LTYPE
  5
14
330
5
100
AcDbSymbolTableRecord
100
AcDbLinetypeTableRecord
  2
ByBlock
 70
     0
  3

 72
    65
 73
     0
 40
0.0
  0
LTYPE
  5
15
330
5
100
AcDbSymbolTableRecord
100
AcDbLinetypeTableRecord
  2
ByLayer
 70
     0
  3

 72
    65
 73
     0
 40
0.0
  0
LTYPE
  5
16
330
5
100
AcDbSymbolTableRecord
100
AcDbLinetypeTableRecord
  2
Continuous
 70
     0
  3
Solid line
 72
    65
 73
     0
 40
0.0
  0
LTYPE
  5
6E
330
5
100
AcDbSymbolTableRecord
100
AcDbLinetypeTableRecord
  2
HIDDEN
 70
     0
  3
Hidden __ __ __ __ __ __ __ __ __ __ __ __ __ __
 72
    65
 73
     2
 40
1.905
 49
1.27
 74
     0
 49
-0.635
 74
     0
  0
LTYPE
  5
6F
330
5
100
AcDbSymbolTableRecord
100
AcDbLinetypeTableRecord
  2
PHANTOM
 70
     0
  3
Phantom ______  __  __  ______  __  __  ______
 72
    65
 73
     6
 40
12.7
 49
6.35
 74
     0
 49
-1.27
 74
     0
 49
1.27
 74
     0
 49
-1.27
 74
     0
 49
1.27
 74
     0
 49
-1.27
 74
     0
  0
LTYPE
  5
70
330
5
100
AcDbSymbolTableRecord
100
AcDbLinetypeTableRecord
  2
CENTER
 70
     0
  3
Center ____ _ ____ _ ____ _ ____ _ ____ _ ____
 72
    65
 73
     4
 40
10.16
 49
6.35
 74
     0
 49
-1.27
 74
     0
 49
1.27
 74
     0
 49
-1.27
 74
     0
  0
LTYPE
  5
71
330
5
100
AcDbSymbolTableRecord
100
AcDbLinetypeTableRecord
  2
CENTERX2
 70
     0
  3
Center (2x) ________  __  ________  __  _____
 72
    65
 73
     4
 40
20.32
 49
12.7
 74
     0
 49
-2.54
 74
     0
 49
2.54
 74
     0
 49
-2.54
 74
     0
  0
LTYPE
  5
72
330
5
100
AcDbSymbolTableRecord
100
AcDbLinetypeTableRecord
  2
DOT2
 70
     0
  3
Dot (.5x) ........................................
 72
    65
 73
     2
 40
0.635
 49
0.0
 74
     0
 49
-0.635
 74
     0
  0
ENDTAB
  0
TABLE
  2
LAYER
  5
2
330
0
100
AcDbSymbolTable
 70
     4
  0
LAYER
  5
10
330
2
100
AcDbSymbolTableRecord
100
AcDbLayerTableRecord
  2
0
 70
     0
 62
     7
  6
Continuous
370
    -3
390
F
  0
LAYER
  5
73
330
2
100
AcDbSymbolTableRecord
100
AcDbLayerTableRecord
  2
FORMAT
 70
     0
 62
     7
  6
Continuous
370
    -3
390
F
  0
LAYER
  5
74
330
2
100
AcDbSymbolTableRecord
100
AcDbLayerTableRecord
  2
OUT_LINE
 70
     0
 62
     7
  6
Continuous
370
    50
390
F
  0
LAYER
  5
75
330
2
100
AcDbSymbolTableRecord
100
AcDbLayerTableRecord
  2
WATERMARK
 70
     0
 62
   254
  6
Continuous
370
    -3
390
F
  0
ENDTAB
  0
TABLE
  2
STYLE
  5
3
330
0
100
AcDbSymbolTable
 70
     1
  0
STYLE
  5
11
330
3
100
AcDbSymbolTableRecord
100
AcDbTextStyleTableRecord
  2
Standard
 70
     0
 40
0.0
 41
1.0
 50
0.0
 71
     0
 42
3.5277777778
  3
txt
  4

  0
ENDTAB
  0
TABLE
  2
VIEW
  5
6
330
0
100
AcDbSymbolTable
 70
     0
  0
ENDTAB
  0
TABLE
  2
UCS
  5
7
330
0
100
AcDbSymbolTable
 70
     0
  0
ENDTAB
  0
TABLE
  2
APPID
  5
9
330
0
100
AcDbSymbolTable
 70
     1
  0
APPID
  5
12
330
9
100
AcDbSymbolTableRecord
100
AcDbRegAppTableRecord
  2
ACAD
 70
     0
  0
ENDTAB
  0
TABLE
  2
DIMSTYLE
  5
A
330
0
100
AcDbSymbolTable
 70
     1
100
AcDbDimStyleTable
  0
DIMSTYLE
105
27
330
A
100
AcDbSymbolTableRecord
100
AcDbDimStyleTableRecord
  2
ISO-25
 70
     0
 41
2.5
 42
0.625
 43
3.75
 44
1.25
 73
     0
 74
     0
 77
     1
 78
     8
140
2.5
141
2.5
143
0.0393700787
147
0.625
171
     3
172
     1
178
     0
271
     2
272
     2
274
     3
278
    44
283
     0
284
     8
340
11
  0
ENDTAB
  0
TABLE
  2
BLOCK_RECORD
  5
1
330
0
100
AcDbSymbolTable
 70
     7
  0
BLOCK_RECORD
  5
1F
330
1
100
AcDbSymbolTableRecord
100
AcDbBlockTableRecord
  2
*Model_Space
340
22
  0
BLOCK_RECORD
  5
1B
330
1
100
AcDbSymbolTableRecord
100
AcDbBlockTableRecord
  2
*Paper_Space
340
1E
  0
BLOCK_RECORD
  5
23
330
1
100
AcDbSymbolTableRecord
100
AcDbBlockTableRecord
  2
*Paper_Space0
340
26
  0
BLOCK_RECORD
  5
76
330
1
100
AcDbSymbolTableRecord
100
AcDbBlockTableRecord
  2
Block6
340
0
  0
BLOCK_RECORD
  5
7B
330
1
100
AcDbSymbolTableRecord
100
AcDbBlockTableRecord
  2
Block4
340
0
  0
BLOCK_RECORD
  5
7F
330
1
100
AcDbSymbolTableRecord
100
AcDbBlockTableRecord
  2
Block5
340
0
  0
BLOCK_RECORD
  5
8D
330
1
100
AcDbSymbolTableRecord
100
AcDbBlockTableRecord
  2
Block2
340
0
  0
BLOCK_RECORD
  5
98
330
1
100
AcDbSymbolTableRecord
100
AcDbBlockTableRecord
  2
Block3
340
0
  0
BLOCK_RECORD
  5
A5
330
1
100
AcDbSymbolTableRecord
100
AcDbBlockTableRecord
  2
Block7
340
0
  0
ENDTAB
  0
ENDSEC
  0
SECTION
  2
BLOCKS
  0
BLOCK
  5
20
330
1F
100
AcDbEntity
  8
0
100
AcDbBlockBegin
  2
*Model_Space
 70
     0
 10
0.0
 20
0.0
 30
0.0
  3
*Model_Space
  1

  0
ENDBLK
  5
21
330
1F
100
AcDbEntity
  8
0
100
AcDbBlockEnd
  0
BLOCK
  5
1C
330
1B
100
AcDbEntity
 67
     1
  8
0
100
AcDbBlockBegin
  2
*Paper_Space
 70
     0
 10
0.0
 20
0.0
 30
0.0
  3
*Paper_Space
  1

  0
ENDBLK
  5
1D
330
1B
100
AcDbEntity
 67
     1
  8
0
100
AcDbBlockEnd
  0
BLOCK
  5
24
330
23
100
AcDbEntity
  8
0
100
AcDbBlockBegin
  2
*Paper_Space0
 70
     0
 10
0.0
 20
0.0
 30
0.0
  3
*Paper_Space0
  1

  0
ENDBLK
  5
25
330
23
100
AcDbEntity
  8
0
100
AcDbBlockEnd
  0
BLOCK
  5
77
330
76
100
AcDbEntity
  8
0
100
AcDbBlockBegin
  2
Block6
 70
     0
 10
0.0
 20
0.0
 30
0.0
  3
Block6
  1

  0
LINE
  5
79
330
76
100
AcDbEntity
  8
FORMAT
100
AcDbLine
 10
253.5616893058
 20
55.3714964458
 30
0.0
 11
250.6928867464
 21
53.8486167051
 31
0.0
  0
LINE
  5
7A
330
76
100
AcDbEntity
  8
FORMAT
100
AcDbLine
 10
250.6928867464
 20
53.8486167051
 30
0.0
 11
253.5616893058
 21
53.8486167051
 31
0.0
  0
ENDBLK
  5
78
330
76
100
AcDbEntity
  8
0
100
AcDbBlockEnd
  0
BLOCK
  5
7C
330
7B
100
AcDbEntity
  8
0
100
AcDbBlockBegin
  2
Block4
 70
     0
 10
0.0
 20
0.0
 30
0.0
  3
Block4
  1

  0
LINE
  5
7E
330
7B
100
AcDbEntity
  8
FORMAT
100
AcDbLine
 10
250.0093082872
 20
64.7263291389
 30
0.0
 11
290.0093082872
 21
64.7263291389
 31
0.0
  0
ENDBLK
  5
7D
330
7B
100
AcDbEntity
  8
0
100
AcDbBlockEnd
  0
BLOCK
  5
80
330
7F
100
AcDbEntity
  8
0
100
AcDbBlockBegin
  2
Block5
 70
     0
 10
0.0
 20
0.0
 30
0.0
  3
Block5
  1

  0
LINE
  5
82
330
7F
100
AcDbEntity
  8
FORMAT
100
AcDbLine
 10
251.0883122991
 20
64.4632252413
 30
0.0
 11
250.3611798328
 21
64.9733337839
 31
0.0
  0
LINE
  5
83
330
7F
100
AcDbEntity
  8
FORMAT
100
AcDbLine
 10
250.3611798328
 20
64.9733337839
 30
0.0
 11
251.0883122991
 21
65.4834423266
 31
0.0
  0
LINE
  5
84
330
7F
100
AcDbEntity
  8
FORMAT
100
AcDbLine
 10
250.3611798328
 20
65.6106440044
 30
0.0
 11
250.3611798328
 21
64.3360235634
 31
0.0
  0
LINE
  5
85
330
7F
100
AcDbEntity
  8
FORMAT
100
AcDbLine
 10
251.0883122991
 20
65.4834423266
 30
0.0
 11
251.0883122991
 21
64.4632252413
 31
0.0
  0
LINE
  5
86
330
7F
100
AcDbEntity
  8
FORMAT
  6
Continuous
 62
     7
370
    18
100
AcDbLine
 10
254.0738326611
 20
65.4834423266
 30
0.0
 11
254.0738326611
 21
64.4632252413
 31
0.0
  0
LINE
  5
87
330
7F
100
AcDbEntity
  8
FORMAT
100
AcDbLine
 10
251.0883122991
 20
64.9733337839
 30
0.0
 11
254.0738326611
 21
64.9733337839
 31
0.0
  0
LINE
  5
88
330
7F
100
AcDbEntity
  8
FORMAT
100
AcDbLine
 10
254.0738326611
 20
64.9733337839
 30
0.0
 11
254.0738326611
 21
64.4632252413
 31
0.0
  0
LINE
  5
89
330
7F
100
AcDbEntity
  8
FORMAT
  6
Continuous
 62
     7
370
    18
100
AcDbLine
 10
254.0738326611
 20
64.4632252413
 30
0.0
 11
254.8009651274
 21
64.9733337839
 31
0.0
  0
LINE
  5
8A
330
7F
100
AcDbEntity
  8
FORMAT
  6
Continuous
 62
     7
370
    18
100
AcDbLine
 10
254.8009651274
 20
64.9733337839
 30
0.0
 11
254.0738326611
 21
65.4834423266
 31
0.0
  0
LINE
  5
8B
330
7F
100
AcDbEntity
  8
FORMAT
100
AcDbLine
 10
254.0738326611
 20
65.4834423266
 30
0.0
 11
254.0738326611
 21
64.9733337839
 31
0.0
  0
LINE
  5
8C
330
7F
100
AcDbEntity
  8
FORMAT
100
AcDbLine
 10
254.8009651274
 20
65.6106440044
 30
0.0
 11
254.8009651274
 21
64.3360235634
 31
0.0
  0
ENDBLK
  5
81
330
7F
100
AcDbEntity
  8
0
100
AcDbBlockEnd
  0
BLOCK
  5
8E
330
8D
100
AcDbEntity
  8
0
100
AcDbBlockBegin
  2
Block2
 70
     0
 10
0.0
 20
0.0
 30
0.0
  3
Block2
  1

  0
CIRCLE
  5
90
330
8D
100
AcDbEntity
  8
FORMAT
100
AcDbCircle
 10
48.741006851
 20
68.2700462855
 30
0.0
 40
7.000000000000013
  0
CIRCLE
  5
91
330
8D
100
AcDbEntity
  8
FORMAT
100
AcDbCircle
 10
48.741006851
 20
68.2700462855
 30
0.0
 40
3.32888862482043
  0
LINE
  5
92
330
8D
100
AcDbEntity
  8
FORMAT
100
AcDbLine
 10
60.4734604481
 20
71.6747664277
 30
0.0
 11
76.4734604481
 21
75.1747664277
 31
0.0
  0
LINE
  5
93
330
8D
100
AcDbEntity
  8
FORMAT
100
AcDbLine
 10
76.4734604481
 20
75.1747664277
 30
0.0
 11
76.4734604481
 21
61.3653261433
 31
0.0
  0
LINE
  5
94
330
8D
100
AcDbEntity
  8
FORMAT
100
AcDbLine
 10
76.4734604481
 20
61.3653261433
 30
0.0
 11
60.4734604481
 21
64.8653261433
 31
0.0
  0
LINE
  5
95
330
8D
100
AcDbEntity
  8
FORMAT
100
AcDbLine
 10
60.4734604481
 20
64.8653261433
 30
0.0
 11
60.4734604481
 21
71.6747664277
 31
0.0
  0
LINE
  5
96
330
8D
100
AcDbEntity
  8
FORMAT
  6
CENTERX2
100
AcDbLine
 10
76.4734604481
 20
68.2700462855
 30
0.0
 11
39.8388877958
 21
68.2700462855
 31
0.0
  0
LINE
  5
97
330
8D
100
AcDbEntity
  8
FORMAT
100
AcDbLine
 10
48.741006851
 20
76.8424572275
 30
0.0
 11
48.741006851
 21
59.6976353435
 31
0.0
  0
ENDBLK
  5
8F
330
8D
100
AcDbEntity
  8
0
100
AcDbBlockEnd
  0
BLOCK
  5
99
330
98
100
AcDbEntity
  8
0
100
AcDbBlockBegin
  2
Block3
 70
     0
 10
0.0
 20
0.0
 30
0.0
  3
Block3
  1

  0
ARC
  5
9B
330
98
100
AcDbEntity
  8
FORMAT
100
AcDbCircle
 10
253.5616893058
 20
61.9516976285
 30
0.0
 40
0.5251511718353873
100
AcDbArc
 50
349.3356822367
 51
90.0
  0
LINE
  5
9C
330
98
100
AcDbEntity
  8
FORMAT
100
AcDbLine
 10
250.6928867464
 20
62.4768488003
 30
0.0
 11
250.6928867464
 21
61.2321831396
 31
0.0
  0
LINE
  5
9D
330
98
100
AcDbEntity
  8
FORMAT
100
AcDbLine
 10
250.6928867464
 20
61.2321831396
 30
0.0
 11
251.7250485138
 21
61.2321831396
 31
0.0
  0
LINE
  5
9E
330
98
100
AcDbEntity
  8
FORMAT
100
AcDbLine
 10
251.7250485138
 20
61.2321831396
 30
0.0
 11
251.7250485138
 21
61.85451597
 31
0.0
  0
LINE
  5
9F
330
98
100
AcDbEntity
  8
FORMAT
100
AcDbLine
 10
251.7250485138
 20
61.85451597
 30
0.0
 11
251.2089676301
 21
62.4768488003
 31
0.0
  0
LINE
  5
A0
330
98
100
AcDbEntity
  8
FORMAT
100
AcDbLine
 10
251.2089676301
 20
62.4768488003
 30
0.0
 11
250.6928867464
 21
62.4768488003
 31
0.0
  0
LINE
  5
A1
330
98
100
AcDbEntity
  8
0
  6
Continuous
 62
     7
370
    18
100
AcDbLine
 10
253.0456084221
 20
61.2321831396
 30
0.0
 11
254.0777701895
 21
61.2321831396
 31
0.0
  0
LINE
  5
A2
330
98
100
AcDbEntity
  8
0
  6
Continuous
 62
     7
370
    18
100
AcDbLine
 10
254.0777701895
 20
61.2321831396
 30
0.0
 11
254.0777701895
 21
61.85451597
 31
0.0
  0
LINE
  5
A3
330
98
100
AcDbEntity
  8
0
  6
Continuous
 62
     7
370
    18
100
AcDbLine
 10
253.0456084221
 20
62.4768488003
 30
0.0
 11
253.0456084221
 21
61.2321831396
 31
0.0
  0
LINE
  5
A4
330
98
100
AcDbEntity
  8
0
  6
Continuous
 62
     7
370
    18
100
AcDbLine
 10
253.5616893058
 20
62.4768488003
 30
0.0
 11
253.0456084221
 21
62.4768488003
 31
0.0
  0
ENDBLK
  5
9A
330
98
100
AcDbEntity
  8
0
100
AcDbBlockEnd
  0
BLOCK
  5
A6
330
A5
100
AcDbEntity
  8
0
100
AcDbBlockBegin
  2
Block7
 70
     0
 10
0.0
 20
0.0
 30
0.0
  3
Block7
  1

  0
LINE
  5
A8
330
A5
100
AcDbEntity
  8
FORMAT
100
AcDbLine
 10
221.8284763776
 20
80.2705155621
 30
0.0
 11
222.3963943455
 21
79.286852787
 31
0.0
  0
LINE
  5
A9
330
A5
100
AcDbEntity
  8
FORMAT
100
AcDbLine
 10
222.3963943455
 20
79.286852787
 30
0.0
 11
222.9643123135
 21
80.2705155621
 31
0.0
  0
LINE
  5
AA
330
A5
100
AcDbEntity
  8
FORMAT
100
AcDbLine
 10
221.8284763776
 20
80.2705155621
 30
0.0
 11
222.9643123135
 21
80.2705155621
 31
0.0
  0
LINE
  5
AB
330
A5
100
AcDbEntity
  8
FORMAT
100
AcDbLine
 10
222.9643123135
 20
80.2705155621
 30
0.0
 11
223.3725273771
 21
80.9775647926
 31
0.0
  0
LINE
  5
AC
330
A5
100
AcDbEntity
  8
FORMAT
100
AcDbLine
 10
223.3725273771
 20
80.9775647926
 30
0.0
 11
224.1023154201
 21
80.9775647926
 31
0.0
  0
ENDBLK
  5
A7
330
A5
100
AcDbEntity
  8
0
100
AcDbBlockEnd
  0
ENDSEC
  0
SECTION
  2
ENTITIES
  0
LINE
  5
AD
330
1F
100
AcDbEntity
  8
0
  6
Continuous
 62
     7
370
    25
100
AcDbLine
 10
117.7929588856
 20
87.0510462638
 30
0.0
 11
117.7929588856
 21
69.8479974128
 31
0.0
  0
LINE
  5
AE
330
1F
100
AcDbEntity
  8
0
  6
Continuous
 62
     7
370
    25
100
AcDbLine
 10
150.1929588856
 20
69.8479974128
 30
0.0
 11
150.1929588856
 21
87.0575556252
 31
0.0
  0
LINE
  5
AF
330
1F
100
AcDbEntity
  8
0
  6
Continuous
 62
     7
370
    25
100
AcDbLine
 10
120.0140477125
 20
60.7269085859
 30
0.0
 11
120.4929588856
 21
60.2479974128
 31
0.0
  0
LINE
  5
B0
330
1F
100
AcDbEntity
  8
0
  6
Continuous
 62
     7
370
    25
100
AcDbLine
 10
147.8827839869
 20
60.6378225142
 30
0.0
 11
148.43349554
 21
61.1885340673
 31
0.0
  0
LINE
  5
B1
330
1F
100
AcDbEntity
  8
0
  6
Continuous
 62
     7
370
    25
100
AcDbLine
 10
147.4929588856
 20
60.2479974128
 30
0.0
 11
147.6607817975
 21
60.4158203247
 31
0.0
  0
SPLINE
  5
B2
330
1F
100
AcDbEntity
  8
0
  6
Continuous
 62
     7
370
    25
100
AcDbSpline
210
0.0
220
0.0
230
1.0
 70
     8
 71
     3
 72
     9
 73
     5
 74
     0
 42
0.00000001
 43
0.00000001
 40
0.0
 40
0.0
 40
0.0
 40
0.0
 40
0.5031108843869528
 40
1.0
 40
1.0
 40
1.0
 40
1.0
 10
119.4983565176343
 20
63.24178748282733
 30
0.0
 10
119.63361050109
 20
63.1636707413228
 30
0.0
 10
119.9024458367048
 20
63.00840329645382
 30
0.0
 10
120.1712788334124
 20
62.85312494862871
 30
0.0
 10
120.304859023394
 20
62.77596882770406
 30
0.0
  0
SPLINE
  5
B3
330
1F
100
AcDbEntity
  8
0
  6
Continuous
 62
     7
370
    25
100
AcDbSpline
210
0.0
220
0.0
230
1.0
 70
     8
 71
     3
 72
     9
 73
     5
 74
     0
 42
0.00000001
 43
0.00000001
 40
0.0
 40
0.0
 40
0.0
 40
0.0
 40
0.5026879928209272
 40
1.0
 40
1.0
 40
1.0
 40
1.0
 10
119.4983565176343
 20
64.74178748282733
 30
0.0
 10
119.633497493093
 20
64.6637410259677
 30
0.0
 10
119.9023341818316
 20
64.50848277835836
 30
0.0
 10
120.1711658972609
 20
64.35319525333303
 30
0.0
 10
120.3048591372545
 20
64.27596890257281
 30
0.0
  0
SPLINE
  5
B4
330
1F
100
AcDbEntity
  8
0
  6
Continuous
 62
     7
370
    25
100
AcDbSpline
210
0.0
220
0.0
230
1.0
 70
     8
 71
     3
 72
     9
 73
     5
 74
     0
 42
0.00000001
 43
0.00000001
 40
0.0
 40
0.0
 40
0.0
 40
0.0
 40
0.5022789970715357
 40
1.0
 40
1.0
 40
1.0
 40
1.0
 10
119.4983565176343
 20
66.24178748282733
 30
0.0
 10
119.6333883057103
 20
66.16381236984878
 30
0.0
 10
119.9022265188613
 20
66.00856973889435
 30
0.0
 10
120.1710572792031
 20
65.85326638192251
 30
0.0
 10
120.3048599948585
 20
65.77596863933235
 30
0.0
  0
SPLINE
  5
B5
330
1F
100
AcDbEntity
  8
0
  6
Continuous
 62
     7
370
    25
100
AcDbSpline
210
0.0
220
0.0
230
1.0
 70
     8
 71
     3
 72
     9
 73
     5
 74
     0
 42
0.00000001
 43
0.00000001
 40
0.0
 40
0.0
 40
0.0
 40
0.0
 40
0.5018878356541062
 40
0.9999999999999999
 40
0.9999999999999999
 40
0.9999999999999999
 40
0.9999999999999999
 10
119.4983565176343
 20
67.74178748282733
 30
0.0
 10
119.6332827190756
 20
67.66388489357276
 30
0.0
 10
119.9021200804463
 20
67.50866577144951
 30
0.0
 10
120.1709502630682
 20
67.35333990633063
 30
0.0
 10
120.3048578471756
 20
67.27597020347739
 30
0.0
  0
SPLINE
  5
B6
330
1F
100
AcDbEntity
  8
0
  6
Continuous
 62
     7
370
    25
100
AcDbSpline
210
0.0
220
0.0
230
1.0
 70
     8
 71
     3
 72
     9
 73
     5
 74
     0
 42
0.00000001
 43
0.00000001
 40
0.0
 40
0.0
 40
0.0
 40
0.0
 40
0.5015109964661166
 40
0.9999999999999999
 40
0.9999999999999999
 40
0.9999999999999999
 40
0.9999999999999999
 10
119.4983565176343
 20
69.24178748282733
 30
0.0
 10
119.6331805369773
 20
69.16395870446215
 30
0.0
 10
119.9020161563218
 20
69.00877012651746
 30
0.0
 10
120.1708499563005
 20
68.85341287866336
 30
0.0
 10
120.3048606493682
 20
68.7759689989888
 30
0.0
  0
SPLINE
  5
B7
330
1F
100
AcDbEntity
  8
0
  6
Continuous
 62
     7
370
    25
100
AcDbSpline
210
0.0
220
0.0
230
1.0
 70
     8
 71
     3
 72
     9
 73
     5
 74
     0
 42
0.00000001
 43
0.00000001
 40
0.0
 40
0.0
 40
0.0
 40
0.0
 40
0.5004282341690199
 40
0.9999999999999999
 40
0.9999999999999999
 40
0.9999999999999999
 40
0.9999999999999999
 10
147.6753424151829
 20
62.0226671049245
 30
0.0
 10
147.810827128784
 20
62.10092326350772
 30
0.0
 10
148.0815646778475
 20
62.25730164753944
 30
0.0
 10
148.3523044705258
 20
62.41366908921494
 30
0.0
 10
148.4875584268348
 20
62.49178584817123
 30
0.0
  0
SPLINE
  5
B8
330
1F
100
AcDbEntity
  8
0
  6
Continuous
 62
     7
370
    25
100
AcDbSpline
210
0.0
220
0.0
230
1.0
 70
     8
 71
     3
 72
     9
 73
     5
 74
     0
 42
0.00000001
 43
0.00000001
 40
0.0
 40
0.0
 40
0.0
 40
0.0
 40
0.5008481349794542
 40
0.9999999999999999
 40
0.9999999999999999
 40
0.9999999999999999
 40
0.9999999999999999
 10
147.6753424151829
 20
63.5226671049245
 30
0.0
 10
147.8109401766515
 20
63.60099354785748
 30
0.0
 10
148.0816764577685
 20
63.75738115811817
 30
0.0
 10
148.3524175204564
 20
63.91373936006048
 30
0.0
 10
148.4875584268348
 20
63.99178584817124
 30
0.0
  0
SPLINE
  5
B9
330
1F
100
AcDbEntity
  8
0
  6
Continuous
 62
     7
370
    25
100
AcDbSpline
210
0.0
220
0.0
230
1.0
 70
     8
 71
     3
 72
     9
 73
     5
 74
     0
 42
0.00000001
 43
0.00000001
 40
0.0
 40
0.0
 40
0.0
 40
0.0
 40
0.5012537767754685
 40
1.0
 40
1.0
 40
1.0
 40
1.0
 10
147.6753424151829
 20
65.02266710492451
 30
0.0
 10
147.8110494025903
 20
65.1010649046806
 30
0.0
 10
148.0817844946637
 20
65.25746831426765
 30
0.0
 10
148.3525267496788
 20
65.41381068249024
 30
0.0
 10
148.4875584268348
 20
65.49178584817123
 30
0.0
  0
SPLINE
  5
BA
330
1F
100
AcDbEntity
  8
0
  6
Continuous
 62
     7
370
    25
100
AcDbSpline
210
0.0
220
0.0
230
1.0
 70
     8
 71
     3
 72
     9
 73
     5
 74
     0
 42
0.00000001
 43
0.00000001
 40
0.0
 40
0.0
 40
0.0
 40
0.0
 40
0.5016435549345893
 40
1.0
 40
1.0
 40
1.0
 40
1.0
 10
147.6753424151829
 20
66.5226671049245
 30
0.0
 10
147.8111550280345
 20
66.60113746503399
 30
0.0
 10
148.0818903170971
 20
66.75756399406556
 30
0.0
 10
148.3526323765541
 20
66.91388317624485
 30
0.0
 10
148.4875584268348
 20
66.99178584817122
 30
0.0
  0
SPLINE
  5
BB
330
1F
100
AcDbEntity
  8
0
  6
Continuous
 62
     7
370
    25
100
AcDbSpline
210
0.0
220
0.0
230
1.0
 70
     8
 71
     3
 72
     9
 73
     5
 74
     0
 42
0.00000001
 43
0.00000001
 40
0.0
 40
0.0
 40
0.0
 40
0.0
 40
0.5020160303133289
 40
1.0
 40
1.0
 40
1.0
 40
1.0
 10
147.6753424151829
 20
68.0226671049245
 30
0.0
 10
147.8112572531582
 20
68.1012113472047
 30
0.0
 10
148.0819952969024
 20
68.25766898508364
 30
0.0
 10
148.3527345959466
 20
68.41395694798925
 30
0.0
 10
148.4875584268348
 20
68.49178584817123
 30
0.0
  0
LINE
  5
BC
330
1F
100
AcDbEntity
  8
0
  6
Continuous
 62
     7
370
    25
100
AcDbLine
 10
147.6753424152
 20
60.5226671049
 30
0.0
 11
147.8686818395
 21
60.6343371391
 31
0.0
  0
SPLINE
  5
BD
330
1F
100
AcDbEntity
  8
0
  6
Continuous
 62
     7
370
    25
100
AcDbSpline
210
0.0
220
0.0
230
1.0
 70
     8
 71
     3
 72
     9
 73
     5
 74
     0
 42
0.00000001
 43
0.00000001
 40
0.0
 40
0.0
 40
0.0
 40
0.0
 40
0.5035456548784344
 40
1.0
 40
1.0
 40
1.0
 40
1.0
 10
119.4983565176343
 20
61.74178748282733
 30
0.0
 10
119.6337275707758
 20
61.6636013835375
 30
0.0
 10
119.9025632797726
 20
61.50833026058699
 30
0.0
 10
120.171396606666
 20
61.35305516468165
 30
0.0
 10
120.3048600799157
 20
61.27596816863028
 30
0.0
  0
SPLINE
  5
BE
330
1F
100
AcDbEntity
  8
0
  6
Continuous
 62
     7
370
    25
100
AcDbSpline
210
0.0
220
0.0
230
1.0
 70
     8
 71
     3
 72
     9
 73
     5
 74
     0
 42
0.00000001
 43
0.00000001
 40
0.0
 40
0.0
 40
0.0
 40
0.0
 40
0.4995509431763732
 40
1.0
 40
1.0
 40
1.0
 40
1.0
 10
120.3104442829359
 20
62.41075143237094
 30
0.0
 10
120.1751950601817
 20
62.3326327033478
 30
0.0
 10
119.9044534579455
 20
62.17625480017254
 30
0.0
 10
119.6337153780185
 20
62.01988553043436
 30
0.0
 10
119.4982247612728
 20
61.94163067687771
 30
0.0
  0
SPLINE
  5
BF
330
1F
100
AcDbEntity
  8
0
  6
Continuous
 62
     7
370
    25
100
AcDbSpline
210
0.0
220
0.0
230
1.0
 70
     8
 71
     3
 72
     9
 73
     5
 74
     0
 42
0.00000001
 43
0.00000001
 40
0.0
 40
0.0
 40
0.0
 40
0.0
 40
0.4990974442547451
 40
1.0
 40
1.0
 40
1.0
 40
1.0
 10
120.3104442829359
 20
63.91075143237093
 30
0.0
 10
120.1753186729902
 20
63.83270049722763
 30
0.0
 10
119.9045787373299
 20
63.67631633609483
 30
0.0
 10
119.633838991767
 20
63.51995331417925
 30
0.0
 10
119.4982247612728
 20
63.44163067687771
 30
0.0
  0
SPLINE
  5
C0
330
1F
100
AcDbEntity
  8
0
  6
Continuous
 62
     7
370
    25
100
AcDbSpline
210
0.0
220
0.0
230
1.0
 70
     8
 71
     3
 72
     9
 73
     5
 74
     0
 42
0.00000001
 43
0.00000001
 40
0.0
 40
0.0
 40
0.0
 40
0.0
 40
0.4986373183382216
 40
1.0
 40
1.0
 40
1.0
 40
1.0
 10
120.3104442829359
 20
65.41075143237093
 30
0.0
 10
120.1754471432779
 20
65.33276783201464
 30
0.0
 10
119.9047150205641
 20
65.17637440238488
 30
0.0
 10
119.633967476179
 20
65.02002062566295
 30
0.0
 10
119.4982247612728
 20
64.94163067687771
 30
0.0
  0
SPLINE
  5
C1
330
1F
100
AcDbEntity
  8
0
  6
Continuous
 62
     7
370
    25
100
AcDbSpline
210
0.0
220
0.0
230
1.0
 70
     8
 71
     3
 72
     9
 73
     5
 74
     0
 42
0.00000001
 43
0.00000001
 40
0.0
 40
0.0
 40
0.0
 40
0.0
 40
0.49817263803482
 40
0.9999999999999999
 40
0.9999999999999999
 40
0.9999999999999999
 40
0.9999999999999999
 10
120.3104442829359
 20
66.91075143237093
 30
0.0
 10
120.1755807464979
 20
66.83283487128914
 30
0.0
 10
119.9048642796722
 20
66.6764301329856
 30
0.0
 10
119.6341011222695
 20
66.52008762514858
 30
0.0
 10
119.4982247612728
 20
66.4416306768777
 30
0.0
  0
SPLINE
  5
C2
330
1F
100
AcDbEntity
  8
0
  6
Continuous
 62
     7
370
    25
100
AcDbSpline
210
0.0
220
0.0
230
1.0
 70
     8
 71
     3
 72
     9
 73
     5
 74
     0
 42
0.00000001
 43
0.00000001
 40
0.0
 40
0.0
 40
0.0
 40
0.0
 40
0.4977054804244575
 40
1.0
 40
1.0
 40
1.0
 40
1.0
 10
120.3104442829359
 20
68.41075143237093
 30
0.0
 10
120.1757197565738
 20
68.33290177776117
 30
0.0
 10
119.9050284910342
 20
68.17648466428398
 30
0.0
 10
119.6342402238465
 20
68.02015447446699
 30
0.0
 10
119.4982247612728
 20
67.9416306768777
 30
0.0
  0
SPLINE
  5
C3
330
1F
100
AcDbEntity
  8
0
  6
Continuous
 62
     7
370
    25
100
AcDbSpline
210
0.0
220
0.0
230
1.0
 70
     8
 71
     3
 72
     9
 73
     5
 74
     0
 42
0.00000001
 43
0.00000001
 40
0.0
 40
0.0
 40
0.0
 40
0.0
 40
0.5039139753476142
 40
1.0
 40
1.0
 40
1.0
 40
1.0
 10
148.4876944000008
 20
62.69162986292046
 30
0.0
 10
148.3522038273514
 20
62.7698847011261
 30
0.0
 10
148.0833274332092
 20
62.92517874343098
 30
0.0
 10
147.8144475997174
 20
63.08048126980489
 30
0.0
 10
147.6810600720113
 20
63.15752468273219
 30
0.0
  0
SPLINE
  5
C4
330
1F
100
AcDbEntity
  8
0
  6
Continuous
 62
     7
370
    25
100
AcDbSpline
210
0.0
220
0.0
230
1.0
 70
     8
 71
     3
 72
     9
 73
     5
 74
     0
 42
0.00000001
 43
0.00000001
 40
0.0
 40
0.0
 40
0.0
 40
0.0
 40
0.5043688064712418
 40
0.9999999999999999
 40
0.9999999999999999
 40
0.9999999999999999
 40
0.9999999999999999
 10
148.4876944000008
 20
64.19162986292045
 30
0.0
 10
148.3520802230198
 20
64.26995248489827
 30
0.0
 10
148.0832012296306
 20
64.425240878972
 30
0.0
 10
147.8143221626959
 20
64.58055008965353
 30
0.0
 10
147.6810573098362
 20
64.65752617910961
 30
0.0
  0
SPLINE
  5
C5
330
1F
100
AcDbEntity
  8
0
  6
Continuous
 62
     7
370
    25
100
AcDbSpline
210
0.0
220
0.0
230
1.0
 70
     8
 71
     3
 72
     9
 73
     5
 74
     0
 42
0.00000001
 43
0.00000001
 40
0.0
 40
0.0
 40
0.0
 40
0.0
 40
0.5048333721705334
 40
1.0
 40
1.0
 40
1.0
 40
1.0
 10
148.4876944000008
 20
65.69162986292046
 30
0.0
 10
148.3519517410027
 20
65.77001979285151
 30
0.0
 10
148.0830656758552
 20
65.92529861206667
 30
0.0
 10
147.8141950967245
 20
66.08061654767977
 30
0.0
 10
147.6810593587338
 20
66.15752480609876
 30
0.0
  0
SPLINE
  5
C6
330
1F
100
AcDbEntity
  8
0
  6
Continuous
 62
     7
370
    25
100
AcDbSpline
210
0.0
220
0.0
230
1.0
 70
     8
 71
     3
 72
     9
 73
     5
 74
     0
 42
0.00000001
 43
0.00000001
 40
0.0
 40
0.0
 40
0.0
 40
0.0
 40
0.5053004767195987
 40
1.0
 40
1.0
 40
1.0
 40
1.0
 10
148.4876944000008
 20
67.19162986292046
 30
0.0
 10
148.3518180883444
 20
67.27008678634947
 30
0.0
 10
148.0829160826736
 20
67.42535464585826
 30
0.0
 10
147.8140606701126
 20
67.58068395876158
 30
0.0
 10
147.6810580256873
 20
67.65752529580635
 30
0.0
  0
SPLINE
  5
C7
330
1F
100
AcDbEntity
  8
0
  6
Continuous
 62
     7
370
    25
100
AcDbSpline
210
0.0
220
0.0
230
1.0
 70
     8
 71
     3
 72
     9
 73
     5
 74
     0
 42
0.00000001
 43
0.00000001
 40
0.0
 40
0.0
 40
0.0
 40
0.0
 40
0.503464491391826
 40
0.9999999999999999
 40
0.9999999999999999
 40
0.9999999999999999
 40
0.9999999999999999
 10
148.4876944000008
 20
61.19162986292046
 30
0.0
 10
148.3523228399748
 20
61.26981628410652
 30
0.0
 10
148.0834427851934
 20
61.42511307766969
 30
0.0
 10
147.8145648218034
 20
61.58041388798851
 30
0.0
 10
147.681057365498
 20
61.65752625482742
 30
0.0
  0
LINE
  5
C8
330
1F
100
AcDbEntity
  8
0
  6
Continuous
 62
     7
370
    25
100
AcDbLine
 10
120.3104442829
 20
60.9107514324
 30
0.0
 11
120.0362175732
 21
60.7523621288
 31
0.0
  0
LINE
  5
C9
330
1F
100
AcDbEntity
  8
0
  6
Continuous
 62
     7
370
    25
100
AcDbLine
 10
119.4929588856
 20
61.9354939545
 30
0.0
 11
119.4929588856
 21
61.7479956717
 31
0.0
  0
LINE
  5
CA
330
1F
100
AcDbEntity
  8
0
  6
Continuous
 62
     7
370
    25
100
AcDbLine
 10
119.4929588856
 20
63.4354939545
 30
0.0
 11
119.4929588856
 21
63.2479956717
 31
0.0
  0
LINE
  5
CB
330
1F
100
AcDbEntity
  8
0
  6
Continuous
 62
     7
370
    25
100
AcDbLine
 10
119.4929588856
 20
64.9354939545
 30
0.0
 11
119.4929588856
 21
64.7479956717
 31
0.0
  0
LINE
  5
CC
330
1F
100
AcDbEntity
  8
0
  6
Continuous
 62
     7
370
    25
100
AcDbLine
 10
119.4929588856
 20
66.4354939545
 30
0.0
 11
119.4929588856
 21
66.2479956717
 31
0.0
  0
LINE
  5
CD
330
1F
100
AcDbEntity
  8
0
  6
Continuous
 62
     7
370
    25
100
AcDbLine
 10
119.4929588856
 20
67.9354939545
 30
0.0
 11
119.4929588856
 21
67.7479956717
 31
0.0
  0
LINE
  5
CE
330
1F
100
AcDbEntity
  8
0
  6
Continuous
 62
     7
370
    25
100
AcDbLine
 10
119.4929588856
 20
69.8479974128
 30
0.0
 11
119.4929588856
 21
69.2479956717
 31
0.0
  0
LINE
  5
CF
330
1F
100
AcDbEntity
  8
0
  6
Continuous
 62
     7
370
    25
100
AcDbLine
 10
148.4929588856
 20
68.4979948087
 30
0.0
 11
148.4929588856
 21
69.8479974128
 31
0.0
  0
LINE
  5
D0
330
1F
100
AcDbEntity
  8
0
  6
Continuous
 62
     7
370
    25
100
AcDbLine
 10
148.4929588856
 20
66.9979948087
 30
0.0
 11
148.4929588856
 21
67.1854934307
 31
0.0
  0
LINE
  5
D1
330
1F
100
AcDbEntity
  8
0
  6
Continuous
 62
     7
370
    25
100
AcDbLine
 10
148.4929588856
 20
65.4979948087
 30
0.0
 11
148.4929588856
 21
65.6854934307
 31
0.0
  0
LINE
  5
D2
330
1F
100
AcDbEntity
  8
0
  6
Continuous
 62
     7
370
    25
100
AcDbLine
 10
148.4929588856
 20
63.9979948087
 30
0.0
 11
148.4929588856
 21
64.1854934307
 31
0.0
  0
LINE
  5
D3
330
1F
100
AcDbEntity
  8
0
  6
Continuous
 62
     7
370
    25
100
AcDbLine
 10
148.4929588856
 20
62.4979948087
 30
0.0
 11
148.4929588856
 21
62.6854934307
 31
0.0
  0
LINE
  5
D4
330
1F
100
AcDbEntity
  8
0
  6
Continuous
 62
     7
370
    25
100
AcDbLine
 10
147.6810580257
 20
67.6541236096
 30
0.0
 11
147.6810580257
 21
68.0259695146
 31
0.0
  0
LINE
  5
D5
330
1F
100
AcDbEntity
  8
0
  6
Continuous
 62
     7
370
    25
100
AcDbLine
 10
147.6810593587
 20
66.1543205407
 30
0.0
 11
147.6810593587
 21
66.5259698708
 31
0.0
  0
LINE
  5
D6
330
1F
100
AcDbEntity
  8
0
  6
Continuous
 62
     7
370
    25
100
AcDbLine
 10
147.6810573098
 20
64.6543912471
 30
0.0
 11
147.6810573098
 21
65.0259683643
 31
0.0
  0
LINE
  5
D7
330
1F
100
AcDbEntity
  8
0
  6
Continuous
 62
     7
370
    25
100
AcDbLine
 10
147.681060072
 20
63.1542502304
 30
0.0
 11
147.681060072
 21
63.5259697283
 31
0.0
  0
LINE
  5
D8
330
1F
100
AcDbEntity
  8
0
  6
Continuous
 62
     7
370
    25
100
AcDbLine
 10
147.6810573655
 20
61.6541050388
 30
0.0
 11
147.6810573655
 21
62.0259680251
 31
0.0
  0
LINE
  5
D9
330
1F
100
AcDbEntity
  8
0
  6
Continuous
 62
     7
370
    25
100
AcDbLine
 10
147.6810592546
 20
60.4360986003
 30
0.0
 11
147.6810592546
 21
60.5259690681
 31
0.0
  0
LINE
  5
DA
330
1F
100
AcDbEntity
  8
0
  6
Continuous
 62
     7
370
    25
100
AcDbLine
 10
120.3048600799
 20
61.2793809514
 30
0.0
 11
120.3048600799
 21
60.9075260791
 31
0.0
  0
LINE
  5
DB
330
1F
100
AcDbEntity
  8
0
  6
Continuous
 62
     7
370
    25
100
AcDbLine
 10
120.3048590234
 20
62.7793470221
 30
0.0
 11
120.3048590234
 21
62.4075254596
 31
0.0
  0
LINE
  5
DC
330
1F
100
AcDbEntity
  8
0
  6
Continuous
 62
     7
370
    25
100
AcDbLine
 10
120.3048591373
 20
64.2791436167
 30
0.0
 11
120.3048591373
 21
63.9075254259
 31
0.0
  0
LINE
  5
DD
330
1F
100
AcDbEntity
  8
0
  6
Continuous
 62
     7
370
    25
100
AcDbLine
 10
120.3048599949
 20
65.7791162846
 30
0.0
 11
120.3048599949
 21
65.4075257313
 31
0.0
  0
LINE
  5
DE
330
1F
100
AcDbEntity
  8
0
  6
Continuous
 62
     7
370
    25
100
AcDbLine
 10
120.3048578472
 20
67.2792808228
 30
0.0
 11
120.3048578472
 21
66.9075242099
 31
0.0
  0
LINE
  5
DF
330
1F
100
AcDbEntity
  8
0
  6
Continuous
 62
     7
370
    25
100
AcDbLine
 10
120.3048606494
 20
68.7793960618
 30
0.0
 11
120.3048606494
 21
68.4075254568
 31
0.0
  0
SPLINE
  5
E0
330
1F
100
AcDbEntity
  8
0
  6
Continuous
 62
     7
370
    25
100
AcDbSpline
210
0.0
220
0.0
230
1.0
 70
     8
 71
     3
 72
    10
 73
     6
 74
     0
 42
0.00000001
 43
0.00000001
 40
0.0
 40
0.0
 40
0.0
 40
0.0
 40
0.3973675132178928
 40
0.7977294866744047
 40
1.0
 40
1.0
 40
1.0
 40
1.0
 10
117.4668947347505
 20
90.17359358173422
 30
0.0
 10
117.5438187880884
 20
89.7641715067168
 30
0.0
 10
117.6982465748122
 20
88.94224205633991
 30
0.0
 10
117.7951042692964
 20
87.89567936665783
 30
0.0
 10
117.7891186139517
 20
87.26433816386299
 30
0.0
 10
117.787109559336
 20
87.05243171677648
 30
0.0
  0
SPLINE
  5
E1
330
1F
100
AcDbEntity
  8
0
  6
Continuous
 62
     7
370
    25
100
AcDbSpline
210
0.0
220
0.0
230
1.0
 70
     8
 71
     3
 72
    11
 73
     7
 74
     0
 42
0.00000001
 43
0.00000001
 40
0.0
 40
0.0
 40
0.0
 40
0.0
 40
0.0951304618539352
 40
0.4068120270252427
 40
0.7190631109564657
 40
1.0
 40
1.0
 40
1.0
 40
1.0
 10
150.1999019483348
 20
87.05898676526049
 30
0.0
 10
150.1968853688155
 20
87.1865926756465
 30
0.0
 10
150.1839853911954
 20
87.73228138621153
 30
0.0
 10
150.2700398691654
 20
88.69574450420293
 30
0.0
 10
150.4403064831131
 20
89.89993585048622
 30
0.0
 10
150.6454747054586
 20
90.67020513894423
 30
0.0
 10
150.7426434356797
 20
91.03500865399185
 30
0.0
  0
SPLINE
  5
E2
330
1F
100
AcDbEntity
  8
0
  6
Continuous
 62
     7
370
    25
100
AcDbSpline
210
0.0
220
0.0
230
1.0
 70
     8
 71
     3
 72
    28
 73
    24
 74
     0
 42
0.00000001
 43
0.00000001
 40
0.0
 40
0.0
 40
0.0
 40
0.0
 40
0.1249999999999999
 40
0.1249999999999999
 40
0.1874999999999998
 40
0.1874999999999998
 40
0.2499999999999998
 40
0.2499999999999998
 40
0.3749999999999998
 40
0.3749999999999998
 40
0.4999999999999998
 40
0.4999999999999998
 40
0.6249999999999998
 40
0.6249999999999998
 40
0.6874999999999998
 40
0.6874999999999998
 40
0.7499999999999998
 40
0.7499999999999998
 40
0.8749999999999999
 40
0.8749999999999999
 40
0.9375
 40
0.9375
 40
1.0
 40
1.0
 40
1.0
 40
1.0
 10
138.6459048998136
 20
89.8147917745605
 30
0.0
 10
139.5986733461912
 20
90.18371941609126
 30
0.0
 10
140.5010968943141
 20
90.671451493973
 30
0.0
 10
141.745277218795
 20
91.56178781224362
 30
0.0
 10
142.1413223523054
 20
91.88475893059814
 30
0.0
 10
142.888587054947
 20
92.57660964780578
 30
0.0
 10
143.2423542681294
 20
92.94784293900977
 30
0.0
 10
144.221678892943
 20
94.11026263480348
 30
0.0
 10
144.7724136515105
 20
94.9542816745575
 30
0.0
 10
145.6670014713611
 20
96.78221291223957
 30
0.0
 10
146.0023710711756
 20
97.7560803712892
 30
0.0
 10
146.4229067353158
 20
99.7492689836434
 30
0.0
 10
146.5089140982633
 20
100.7723910496299
 30
0.0
 10
146.4506471959734
 20
102.3005753728443
 30
0.0
 10
146.4001466545304
 20
102.8094115136988
 30
0.0
 10
146.2383403034913
 20
103.8147060728259
 30
0.0
 10
146.1261849828869
 20
104.3150661837693
 30
0.0
 10
145.7042246987818
 20
105.7770864885277
 30
0.0
 10
145.3107144073896
 20
106.7046810699435
 30
0.0
 10
144.5516571947238
 20
108.0252403006455
 30
0.0
 10
144.2698163017993
 20
108.4534300187091
 30
0.0
 10
143.6576025021452
 20
109.270225751024
 30
0.0
 10
143.3268950650509
 20
109.6597112544302
 30
0.0
 10
142.973215169189
 20
110.0282533713197
 30
0.0
  0
SPLINE
  5
E3
330
1F
100
AcDbEntity
  8
0
  6
Continuous
 62
     7
370
    25
100
AcDbSpline
210
0.0
220
0.0
230
1.0
 70
     8
 71
     3
 72
    35
 73
    31
 74
     0
 42
0.00000001
 43
0.00000001
 40
0.0
 40
0.0
 40
0.0
 40
0.0
 40
0.0362041399361054
 40
0.0731177897327885
 40
0.1100314394952575
 40
0.1462355793326108
 40
0.1824397200345746
 40
0.2193533706785984
 40
0.2562670213226221
 40
0.2924711620245859
 40
0.3286753027265497
 40
0.3655889533705735
 40
0.4025026040145973
 40
0.438706744716561
 40
0.4749108854185248
 40
0.5118245360625486
 40
0.5487381867065724
 40
0.5849423274085361
 40
0.6211464681104998
 40
0.6580601187545235
 40
0.6949737693985473
 40
0.7311779101005111
 40
0.767382050802475
 40
0.8042957014464988
 40
0.8412093520905225
 40
0.8774134927924863
 40
0.91361763349445
 40
0.9505312841384738
 40
0.9874449347824975
 40
1.0
 40
1.0
 40
1.0
 40
1.0
 10
142.973215169189
 20
110.0282533713197
 30
0.0
 10
143.5224246194398
 20
109.4134145049159
 30
0.0
 10
144.6316066404343
 20
108.1716874805314
 30
0.0
 10
145.7991547877628
 20
105.9358228339668
 30
0.0
 10
146.5319515552762
 20
103.5345491490147
 30
0.0
 10
146.7729342570764
 20
101.0477048457347
 30
0.0
 10
146.5309300982418
 20
98.56262727321788
 30
0.0
 10
145.8033341324572
 20
96.15594918629017
 30
0.0
 10
144.6160711095437
 20
93.9398539866253
 30
0.0
 10
143.029971489948
 20
92.0109817926694
 30
0.0
 10
141.1011084023498
 20
90.42489127943664
 30
0.0
 10
138.8849853470741
 20
89.2376004008853
 30
0.0
 10
136.478409157891
 20
88.51010633294776
 30
0.0
 10
133.9929588778202
 20
88.26772948392373
 30
0.0
 10
131.5075086445543
 20
88.5101063065024
 30
0.0
 10
129.1009323121988
 20
89.23760050908979
 30
0.0
 10
126.8848097806576
 20
90.4248908772236
 30
0.0
 10
124.9559447775164
 20
92.01098326209693
 30
0.0
 10
123.3698523233725
 20
93.93984845353404
 30
0.0
 10
122.18256204616
 20
96.15597028812168
 30
0.0
 10
121.4550675511661
 20
98.56254921017133
 30
0.0
 10
121.2126917872445
 20
101.0479899608987
 30
0.0
 10
121.4550646790692
 20
103.5334757151111
 30
0.0
 10
122.182573797702
 20
105.9399169751172
 30
0.0
 10
123.3698086410495
 20
108.1565423869591
 30
0.0
 10
124.9561043646069
 20
110.0835657599117
 30
0.0
 10
126.8842088596087
 20
111.676547816065
 30
0.0
 10
129.1032240753615
 20
112.8376328360034
 30
0.0
 10
130.9840995286084
 20
113.4853622695641
 30
0.0
 10
132.1054717355644
 20
113.5701533449588
 30
0.0
 10
132.390073851189
 20
113.5916731572868
 30
0.0
  0
CIRCLE
  5
E4
330
1F
100
AcDbEntity
  8
0
  6
Continuous
 62
     7
370
    25
100
AcDbCircle
 10
133.9929588856
 20
101.0479974128
 30
0.0
 40
11.37500000000003
  0
CIRCLE
  5
E5
330
1F
100
AcDbEntity
  8
0
  6
Continuous
 62
     7
370
    25
100
AcDbCircle
 10
133.9929588856
 20
101.0479974128
 30
0.0
 40
10.375
  0
ARC
  5
E6
330
1F
100
AcDbEntity
  8
0
  6
Continuous
 62
     7
370
    25
100
AcDbCircle
 10
133.9929588856
 20
101.0479974128
 30
0.0
 40
12.7
100
AcDbArc
 50
44.9999989629
 51
90.0
  0
SPLINE
  5
E7
330
1F
100
AcDbEntity
  8
0
  6
Continuous
 62
     7
370
    25
100
AcDbSpline
210
0.0
220
0.0
230
1.0
 70
     8
 71
     3
 72
    20
 73
    16
 74
     0
 42
0.00000001
 43
0.00000001
 40
0.0
 40
0.0
 40
0.0
 40
0.0
 40
0.125
 40
0.125
 40
0.25
 40
0.25
 40
0.375
 40
0.375
 40
0.5
 40
0.5
 40
0.75
 40
0.75
 40
0.875
 40
0.875
 40
1.0
 40
1.0
 40
1.0
 40
1.0
 10
122.7597532473312
 20
96.39505139855584
 30
0.0
 10
123.0646416398463
 20
95.658985688928
 30
0.0
 10
123.4423247343763
 20
94.9529649504587
 30
0.0
 10
124.3246322697707
 20
93.63255661945828
 30
0.0
 10
124.8322227562407
 20
93.01371799331383
 30
0.0
 10
125.9581726929049
 20
91.88770576571048
 30
0.0
 10
126.5767904920026
 20
91.38005910488971
 30
0.0
 10
127.9007226593432
 20
90.49559282753327
 30
0.0
 10
128.6031293668892
 20
90.1200881659668
 30
0.0
 10
130.8110748889259
 20
89.2053195629866
 30
0.0
 10
132.4022138638796
 20
88.88902727721954
 30
0.0
 10
134.7910357562528
 20
88.88938149359261
 30
0.0
 10
135.5838725935483
 20
88.96751957222376
 30
0.0
 10
137.1459259389174
 20
89.2782161895404
 30
0.0
 10
137.9098391901858
 20
89.50990338204542
 30
0.0
 10
138.6459048998136
 20
89.8147917745605
 30
0.0
  0
SPLINE
  5
E8
330
1F
100
AcDbEntity
  8
0
  6
Continuous
 62
     7
370
    25
100
AcDbSpline
210
0.0
220
0.0
230
1.0
 70
     8
 71
     3
 72
    30
 73
    26
 74
     0
 42
0.00000001
 43
0.00000001
 40
0.0
 40
0.0
 40
0.0
 40
0.0
 40
0.1250000000000001
 40
0.1250000000000001
 40
0.1875000000000001
 40
0.1875000000000001
 40
0.2500000000000002
 40
0.2500000000000002
 40
0.3750000000000001
 40
0.3750000000000001
 40
0.4375000000000001
 40
0.4375000000000001
 40
0.5
 40
0.5
 40
0.625
 40
0.625
 40
0.6874999999999999
 40
0.6874999999999999
 40
0.75
 40
0.75
 40
0.8125
 40
0.8125
 40
0.8750000000000001
 40
0.8750000000000001
 40
1.0
 40
1.0
 40
1.0
 40
1.0
 10
133.9929588855704
 20
113.7479974128001
 30
0.0
 10
132.9709663490341
 20
113.7269663929493
 30
0.0
 10
131.9552648090952
 20
113.5813687225188
 30
0.0
 10
130.4778921607729
 20
113.1824783877715
 30
0.0
 10
129.9930233793195
 20
113.019335018155
 30
0.0
 10
129.0489682033665
 20
112.6365009357582
 30
0.0
 10
128.5860979101046
 20
112.4150718904285
 30
0.0
 10
127.2547949752077
 20
111.67611418842
 30
0.0
 10
126.4388255070797
 20
111.0847980075307
 30
0.0
 10
125.3221824595054
 20
110.0498589809862
 30
0.0
 10
124.9675294093507
 20
109.6790183680738
 30
0.0
 10
124.3106808641233
 20
108.9004645103029
 30
0.0
 10
124.005565431775
 20
108.4898754974488
 30
0.0
 10
123.1705571311351
 20
107.2074355083651
 30
0.0
 10
122.7205592500098
 20
106.2838980166701
 30
0.0
 10
122.2253526089055
 20
104.8377686404808
 30
0.0
 10
122.0896386689132
 20
104.3436705262414
 30
0.0
 10
121.8810164478982
 20
103.3464313566871
 30
0.0
 10
121.8073908042366
 20
102.8404360694189
 30
0.0
 10
121.7232329659072
 20
101.8234457562891
 30
0.0
 10
121.7125040999354
 20
101.3141993015519
 30
0.0
 10
121.7547231045908
 20
100.2941803909721
 30
0.0
 10
121.807994742508
 20
99.7875683792445
 30
0.0
 10
122.0589758710297
 20
98.29561667056737
 30
0.0
 10
122.346686892054
 20
97.33014912722656
 30
0.0
 10
122.7597532473312
 20
96.39505139855582
 30
0.0
  0
CIRCLE
  5
E9
330
1F
100
AcDbEntity
  8
0
  6
Continuous
 62
     7
370
    25
100
AcDbCircle
 10
133.9929588856
 20
101.0479974128
 30
0.0
 40
14.25000000000001
  0
SPLINE
  5
EA
330
1F
100
AcDbEntity
  8
0
  6
Continuous
 62
     7
370
    25
100
AcDbSpline
210
0.0
220
0.0
230
1.0
 70
     8
 71
     3
 72
    57
 73
    53
 74
     0
 42
0.00000001
 43
0.00000001
 40
0.0
 40
0.0
 40
0.0
 40
0.0
 40
0.0625000000000005
 40
0.0625000000000005
 40
0.125000000000001
 40
0.125000000000001
 40
0.1875000000000016
 40
0.1875000000000016
 40
0.2500000000000021
 40
0.2500000000000021
 40
0.2812500000000022
 40
0.2812500000000022
 40
0.3125000000000023
 40
0.3125000000000023
 40
0.3750000000000023
 40
0.3750000000000023
 40
0.3906250000000024
 40
0.3906250000000024
 40
0.4062500000000024
 40
0.4062500000000024
 40
0.4375000000000024
 40
0.4375000000000024
 40
0.4687500000000023
 40
0.4687500000000023
 40
0.4843750000000023
 40
0.4843750000000023
 40
0.5000000000000022
 40
0.5156250000000022
 40
0.5156250000000022
 40
0.5312500000000022
 40
0.5312500000000022
 40
0.5468750000000022
 40
0.5468750000000022
 40
0.5625000000000023
 40
0.5625000000000023
 40
0.6250000000000019
 40
0.6250000000000019
 40
0.6562500000000017
 40
0.6562500000000017
 40
0.6875000000000013
 40
0.6875000000000013
 40
0.7500000000000008
 40
0.7500000000000008
 40
0.7812500000000007
 40
0.7812500000000007
 40
0.8125000000000004
 40
0.8125000000000004
 40
0.8750000000000003
 40
0.8750000000000003
 40
0.9375000000000001
 40
0.9375000000000001
 40
1.0
 40
1.0
 40
1.0
 40
1.0
 10
148.016373376562
 20
89.81735504413075
 30
0.0
 10
147.8019138083106
 20
88.82407031347945
 30
0.0
 10
147.5577505747201
 20
87.84680283590343
 30
0.0
 10
147.0037919244022
 20
85.91929981090185
 30
0.0
 10
146.6940614601462
 20
84.96910375439965
 30
0.0
 10
145.9979933734157
 20
83.09477088289877
 30
0.0
 10
145.6120503301588
 20
82.17221203012018
 30
0.0
 10
144.7563453545827
 20
80.37587482105167
 30
0.0
 10
144.286032302837
 20
79.49973544192552
 30
0.0
 10
143.4984280029227
 20
78.22567258359784
 30
0.0
 10
143.2221043106337
 20
77.80772770750346
 30
0.0
 10
142.6368463879581
 20
76.98745897884795
 30
0.0
 10
142.3266714514023
 20
76.58364120323732
 30
0.0
 10
141.3465130653288
 20
75.41242978089514
 30
0.0
 10
140.6312120888772
 20
74.68615627606229
 30
0.0
 10
139.622173204743
 20
73.87811251186952
 30
0.0
 10
139.4144875825408
 20
73.72160815854176
 30
0.0
 10
138.9857116961699
 20
73.42021170821705
 30
0.0
 10
138.7644462448489
 20
73.27531085950153
 30
0.0
 10
138.0880658237112
 20
72.86665341940785
 30
0.0
 10
137.6175270450344
 20
72.62651514562484
 30
0.0
 10
136.6283261916579
 20
72.2252772091568
 30
0.0
 10
136.1075910098329
 20
72.06451160147574
 30
0.0
 10
135.3077411174685
 20
71.90323536799336
 30
0.0
 10
135.0377277578882
 20
71.86268498596486
 30
0.0
 10
134.5001321425968
 20
71.80971594245507
 30
0.0
 10
133.9624393358532
 20
71.78431277580773
 30
0.0
 10
133.424552679182
 20
71.81388519500739
 30
0.0
 10
132.8865685592492
 20
71.87110099344923
 30
0.0
 10
132.6161496330677
 20
71.91388854678007
 30
0.0
 10
132.0847493818572
 20
72.02522507108863
 30
0.0
 10
131.8232344254441
 20
72.09366521038574
 30
0.0
 10
131.3079933672564
 20
72.25432757712011
 30
0.0
 10
131.0534730083159
 20
72.34696934383655
 30
0.0
 10
129.8201730104
 20
72.85660660137053
 30
0.0
 10
128.9401551444831
 20
73.41240012898913
 30
0.0
 10
127.7245987313903
 20
74.39212879061063
 30
0.0
 10
127.3397118244648
 20
74.74228673218947
 30
0.0
 10
126.6157582157821
 20
75.46842145744948
 30
0.0
 10
126.2755420862865
 20
75.84511706638477
 30
0.0
 10
125.3075008976785
 20
77.00848862565849
 30
0.0
 10
124.7316244296352
 20
77.82802813577263
 30
0.0
 10
123.9436643804146
 20
79.10682260158603
 30
0.0
 10
123.6933793065051
 20
79.54240675193746
 30
0.0
 10
123.2181243335117
 20
80.42421953305035
 30
0.0
 10
122.9935676359376
 20
80.86953075375828
 30
0.0
 10
122.3541160040302
 20
82.21750862817699
 30
0.0
 10
121.9731759105177
 20
83.13210418664478
 30
0.0
 10
121.2848386866395
 20
84.99045742739791
 30
0.0
 10
120.9775826068272
 20
85.93422617898149
 30
0.0
 10
120.4269490067074
 20
87.8519326752196
 30
0.0
 10
120.1836247047902
 20
88.82582687404299
 30
0.0
 10
119.9695443945787
 20
89.81735504413075
 30
0.0
  0
ARC
  5
EB
330
1F
100
AcDbEntity
  8
0
  6
Continuous
 62
     7
370
    25
100
AcDbCircle
 10
114.7432538725
 20
93.5475906331
 30
0.0
 40
6.420963336613056
100
AcDbArc
 50
324.4828644705
 51
18.4216051483
  0
ARC
  5
EC
330
1F
100
AcDbEntity
  8
0
  6
Continuous
 62
     7
370
    25
100
AcDbCircle
 10
153.2426638986
 20
93.5475906331
 30
0.0
 40
6.420963336612967
100
AcDbArc
 50
161.5783948517
 51
215.5171355296
  0
CIRCLE
  5
ED
330
1F
100
AcDbEntity
  8
0
  6
Continuous
 62
     7
370
    25
100
AcDbCircle
 10
133.9929588856
 20
101.0479974128
 30
0.0
 40
7.324999999999989
  0
SPLINE
  5
EE
330
1F
100
AcDbEntity
  8
0
  6
Continuous
 62
     7
370
    25
100
AcDbSpline
210
0.0
220
0.0
230
1.0
 70
     8
 71
     3
 72
    62
 73
    58
 74
     0
 42
0.00000001
 43
0.00000001
 40
0.0
 40
0.0
 40
0.0
 40
0.0
 40
0.0624999999999988
 40
0.0624999999999988
 40
0.1249999999999976
 40
0.1249999999999976
 40
0.1874999999999964
 40
0.1874999999999964
 40
0.2499999999999952
 40
0.2499999999999952
 40
0.281249999999995
 40
0.281249999999995
 40
0.3124999999999948
 40
0.3124999999999948
 40
0.3749999999999943
 40
0.3749999999999943
 40
0.4062499999999939
 40
0.4062499999999939
 40
0.4374999999999935
 40
0.4374999999999935
 40
0.4531249999999933
 40
0.4531249999999933
 40
0.4687499999999931
 40
0.4687499999999931
 40
0.4843749999999929
 40
0.4843749999999929
 40
0.492187499999993
 40
0.492187499999993
 40
0.499999999999993
 40
0.499999999999993
 40
0.5078124999999931
 40
0.5078124999999931
 40
0.5156249999999931
 40
0.5156249999999931
 40
0.5312499999999932
 40
0.5312499999999932
 40
0.5624999999999933
 40
0.5624999999999933
 40
0.5937499999999936
 40
0.5937499999999936
 40
0.6249999999999937
 40
0.6249999999999937
 40
0.6562499999999939
 40
0.6562499999999939
 40
0.687499999999994
 40
0.687499999999994
 40
0.7499999999999948
 40
0.7499999999999948
 40
0.7812499999999952
 40
0.7812499999999952
 40
0.8124999999999957
 40
0.8124999999999957
 40
0.8749999999999971
 40
0.8749999999999971
 40
0.9374999999999986
 40
0.9374999999999986
 40
1.0
 40
1.0
 40
1.0
 40
1.0
 10
135.7343200082488
 20
93.93299309513279
 30
0.0
 10
136.0348955732526
 20
94.17552084810238
 30
0.0
 10
136.2781454851388
 20
94.4620240119037
 30
0.0
 10
136.6755539551626
 20
95.10479387364036
 30
0.0
 10
136.8217498112427
 20
95.45003224145793
 30
0.0
 10
137.0242101127365
 20
96.17236168238924
 30
0.0
 10
137.0784059222524
 20
96.54329453388526
 30
0.0
 10
137.1024247890139
 20
97.29068441055048
 30
0.0
 10
137.0715080031488
 20
97.66999723384347
 30
0.0
 10
136.9644454918838
 20
98.22182023836517
 30
0.0
 10
136.9186040370996
 20
98.4039226482743
 30
0.0
 10
136.8055312141778
 20
98.7641340143307
 30
0.0
 10
136.7378030883454
 20
98.94333358218134
 30
0.0
 10
136.5022542307603
 20
99.46499842147693
 30
0.0
 10
136.3048159011192
 20
99.79139962933816
 30
0.0
 10
135.9257696461889
 20
100.2316221435385
 30
0.0
 10
135.7882885546819
 20
100.366309855146
 30
0.0
 10
135.48622671258
 20
100.6056837407867
 30
0.0
 10
135.3194639324613
 20
100.7111173650476
 30
0.0
 10
135.055544078362
 20
100.8318990941812
 30
0.0
 10
134.9650046073288
 20
100.8662252960688
 30
0.0
 10
134.7782550787416
 20
100.9216418798015
 30
0.0
 10
134.681495687392
 20
100.9426779030273
 30
0.0
 10
134.4886141737632
 20
100.9691853598178
 30
0.0
 10
134.3917757601348
 20
100.974861878
 30
0.0
 10
134.2459073962423
 20
100.9729782452247
 30
0.0
 10
134.1971845446626
 20
100.9705540865461
 30
0.0
 10
134.099488186519
 20
100.963704103171
 30
0.0
 10
134.0505285456382
 20
100.9588447829909
 30
0.0
 10
133.9520172021821
 20
100.957838707822
 30
0.0
 10
133.9026608239796
 20
100.9623878037508
 30
0.0
 10
133.8045674541962
 20
100.9695692914172
 30
0.0
 10
133.7556699352137
 20
100.9723629011588
 30
0.0
 10
133.6093453636177
 20
100.9753213081158
 30
0.0
 10
133.5122939989111
 20
100.9704108278416
 30
0.0
 10
133.2226020678463
 20
100.9329237102626
 30
0.0
 10
133.0312678341886
 20
100.8766436736465
 30
0.0
 10
132.679076183526
 20
100.7182230039997
 30
0.0
 10
132.5125263850339
 20
100.6145163859217
 30
0.0
 10
132.2070392709058
 20
100.3750117554843
 30
0.0
 10
132.0692504793064
 20
100.2408973070635
 30
0.0
 10
131.8171634633385
 20
99.95062376822905
 30
0.0
 10
131.7023876827857
 20
99.7932122244269
 30
0.0
 10
131.4992424360675
 20
99.46863183329639
 30
0.0
 10
131.4100380417975
 20
99.30070574800972
 30
0.0
 10
131.1745214326218
 20
98.78270754530782
 30
0.0
 10
131.059499696699
 20
98.41494383156635
 30
0.0
 10
130.9510218416273
 20
97.86010115075128
 30
0.0
 10
130.9252760071639
 20
97.67397034412348
 30
0.0
 10
130.8944856579167
 20
97.29941261646462
 30
0.0
 10
130.8895010538525
 20
97.10990443920092
 30
0.0
 10
130.9070204399314
 20
96.5464903578553
 30
0.0
 10
130.9606797268834
 20
96.17924606168147
 30
0.0
 10
131.1597982875866
 20
95.46249091508275
 30
0.0
 10
131.3079164101763
 20
95.1104742315736
 30
0.0
 10
131.7010042479631
 20
94.47128857876021
 30
0.0
 10
131.9504459188813
 20
94.17598583484407
 30
0.0
 10
132.2515977628919
 20
93.93299309513279
 30
0.0
  0
LINE
  5
EF
330
1F
100
AcDbEntity
  8
0
  6
Continuous
 62
     7
370
    25
100
AcDbLine
 10
117.7929588856
 20
69.8479974128
 30
0.0
 11
150.1929588856
 21
69.8479974128
 31
0.0
  0
LINE
  5
F0
330
1F
100
AcDbEntity
  8
0
  6
Continuous
 62
     7
370
    25
100
AcDbLine
 10
118.4211409514
 20
94.5728365094
 30
0.0
 11
120.8351872644
 21
95.5766588229
 31
0.0
  0
ARC
  5
F1
330
1F
100
AcDbEntity
  8
0
  6
Continuous
 62
     7
370
    25
100
AcDbCircle
 10
133.9929588856
 20
101.0479974128
 30
0.0
 40
16.86443661971832
100
AcDbArc
 50
337.4212070912
 51
202.5787929088
  0
LINE
  5
F2
330
1F
100
AcDbEntity
  8
0
  6
Continuous
 62
     7
370
    25
100
AcDbLine
 10
147.1507305067
 20
95.5766588229
 30
0.0
 11
149.5647768198
 21
94.5728365094
 31
0.0
  0
ARC
  5
F3
330
1F
100
AcDbEntity
  8
0
  6
Continuous
 62
     7
370
    25
100
AcDbCircle
 10
102.9277060161
 20
86.8982893869
 30
0.0
 40
17.29003179958528
100
AcDbArc
 50
9.719764754
 51
26.3511409124
  0
ARC
  5
F4
330
1F
100
AcDbEntity
  8
0
  6
Continuous
 62
     7
370
    25
100
AcDbCircle
 10
165.0582117551
 20
86.8982893869
 30
0.0
 40
17.29003179958618
100
AcDbArc
 50
153.6488590876
 51
170.280235246
  0
LINE
  5
F5
330
1F
100
AcDbEntity
  8
0
  6
Continuous
 62
     7
370
    25
100
AcDbLine
 10
147.4929588856
 20
60.2479974128
 30
0.0
 11
120.4929588856
 21
60.2479974128
 31
0.0
  0
SPLINE
  5
F6
330
1F
100
AcDbEntity
  8
0
  6
Continuous
 62
     7
370
    25
100
AcDbSpline
210
0.0
220
0.0
230
1.0
 70
    24
 71
     3
 72
    11
 73
     7
 74
     0
 42
0.00000001
 43
0.00000001
 40
0.0
 40
0.0
 40
0.0
 40
0.0
 40
0.140553114898736
 40
0.4219777928364913
 40
0.7068656407163555
 40
1.0
 40
1.0
 40
1.0
 40
1.0
 10
146.6519319668266
 20
60.43609860030008
 30
0.0
 10
146.7433722149169
 20
60.43609860030008
 30
0.0
 10
147.0179001333721
 20
60.43609860030006
 30
0.0
 10
147.3565855769827
 20
60.43609860030008
 30
0.0
 10
147.640644355632
 20
60.43609860030008
 30
0.0
 10
147.6405509108604
 20
60.43609860030008
 30
0.0
 10
147.640503521897
 20
60.43609860030008
 30
0.0
  0
SPLINE
  5
F7
330
1F
100
AcDbEntity
  8
0
  6
Continuous
 62
     7
370
    25
100
AcDbSpline
210
0.0
220
0.0
230
1.0
 70
     8
 71
     3
 72
    26
 73
    22
 74
     0
 42
0.00000001
 43
0.00000001
 40
0.0
 40
0.0
 40
0.0
 40
0.0
 40
0.0415073867824868
 40
0.0939913805197925
 40
0.1479828882192094
 40
0.2007066506167923
 40
0.254958640306916
 40
0.3077391746070554
 40
0.3620268616864518
 40
0.4151968200616577
 40
0.4699087108332226
 40
0.5230775655114087
 40
0.5777672828824884
 40
0.6312920939865471
 40
0.6863635691731962
 40
0.739979723868923
 40
0.7951421226905048
 40
0.8489599460676442
 40
0.9043236756371814
 40
0.958386027148606
 40
1.0
 40
1.0
 40
1.0
 40
1.0
 10
120.0450541026426
 20
60.73706272218241
 30
0.0
 10
120.0648060932345
 20
60.74345993359982
 30
0.0
 10
120.1095334781087
 20
60.75794609568348
 30
0.0
 10
120.6464141635839
 20
60.78208614140276
 30
0.0
 10
121.5534245399761
 20
60.80809283000453
 30
0.0
 10
122.8378252015443
 20
60.83408943554099
 30
0.0
 10
124.4271906004329
 20
60.85807085461234
 30
0.0
 10
126.3050378303783
 20
60.88336449023551
 30
0.0
 10
128.3893523179241
 20
60.90933078684572
 30
0.0
 10
130.6609274461106
 20
60.93557339236386
 30
0.0
 10
133.0160897639549
 20
60.96093737775897
 30
0.0
 10
135.4241948678703
 20
60.98501191800201
 30
0.0
 10
137.7798283213484
 20
61.01061494131078
 30
0.0
 10
140.0594673913997
 20
61.03686136414639
 30
0.0
 10
142.1582364343158
 20
61.06282898279926
 30
0.0
 10
144.0489355071822
 20
61.08773880448371
 30
0.0
 10
145.6453983614497
 20
61.11203089858495
 30
0.0
 10
146.9358987230947
 20
61.13814320793788
 30
0.0
 10
147.8433278273015
 20
61.16415920151312
 30
0.0
 10
148.3708947568564
 20
61.18796105973036
 30
0.0
 10
148.4007504880356
 20
61.20213055259205
 30
0.0
 10
148.4137360996278
 20
61.20829350769293
 30
0.0
  0
SPLINE
  5
F8
330
1F
100
AcDbEntity
  8
0
  6
Continuous
 62
     7
370
    25
100
AcDbSpline
210
0.0
220
0.0
230
1.0
 70
     8
 71
     3
 72
    10
 73
     6
 74
     0
 42
0.00000001
 43
0.00000001
 40
0.0
 40
0.0
 40
0.0
 40
0.0
 40
0.0408473554737254
 40
0.5256378937953586
 40
1.0
 40
1.0
 40
1.0
 40
1.0
 10
147.8647523369286
 20
60.64114001857889
 30
0.0
 10
147.8652731380032
 20
60.63848029928067
 30
0.0
 10
147.8719749863056
 20
60.60425411171509
 30
0.0
 10
147.5197351817316
 20
60.53681131034332
 30
0.0
 10
146.9390953605637
 20
60.46942528440523
 30
0.0
 10
146.6519319668252
 20
60.43609860030008
 30
0.0
  0
SPLINE
  5
F9
330
1F
100
AcDbEntity
  8
0
  6
Continuous
 62
     7
370
    25
100
AcDbSpline
210
0.0
220
0.0
230
1.0
 70
     8
 71
     3
 72
    28
 73
    24
 74
     0
 42
0.00000001
 43
0.00000001
 40
0.0
 40
0.0
 40
0.0
 40
0.0
 40
0.0000945518387566
 40
0.0494790310036833
 40
0.0997905572240069
 40
0.1504179828747674
 40
0.2007269044582391
 40
0.2501063714211056
 40
0.2994911455471424
 40
0.3498028246546396
 40
0.4004302499660559
 40
0.4507390180088744
 40
0.5001181910907977
 40
0.5495032601455772
 40
0.5998150921039379
 40
0.6504425170383044
 40
0.7007511315041719
 40
0.7501300108478146
 40
0.7995153747989692
 40
0.8498273595718813
 40
0.9004547840914935
 40
0.9507632449441125
 40
1.0
 40
1.0
 40
1.0
 40
1.0
 10
119.4932916538095
 20
61.74799567171019
 30
0.0
 10
119.4931807516731
 20
61.74801870824487
 30
0.0
 10
119.4351456006202
 20
61.76007373995107
 30
0.0
 10
119.638654644404
 20
61.78400641037268
 30
0.0
 10
120.1358088973786
 20
61.82241440102488
 30
0.0
 10
121.0276115661817
 20
61.86125081297784
 30
0.0
 10
122.2249504262082
 20
61.89959321517056
 30
0.0
 10
123.7023459617099
 20
61.93557170826696
 30
0.0
 10
125.4276461150902
 20
61.97156762360331
 30
0.0
 10
127.3786891081062
 20
62.00990965703461
 30
0.0
 10
129.5075479301485
 20
62.04876400521847
 30
0.0
 10
131.7348857344489
 20
62.08710138859969
 30
0.0
 10
133.9984642735799
 20
62.1230802565075
 30
0.0
 10
136.2619610100122
 20
62.15907671694532
 30
0.0
 10
138.4890191994723
 20
62.19741909019592
 30
0.0
 10
140.6172177731047
 20
62.236273412826
 30
0.0
 10
142.5671469440721
 20
62.27461055289636
 30
0.0
 10
144.2915769742445
 20
62.31058853984148
 30
0.0
 10
145.7666604798216
 20
62.3465858898018
 30
0.0
 10
146.9665522280455
 20
62.38492847543715
 30
0.0
 10
147.8417480908466
 20
62.42378293195802
 30
0.0
 10
148.3918686865192
 20
62.46208315214512
 30
0.0
 10
148.4591712295158
 20
62.48611048275337
 30
0.0
 10
148.4924602107483
 20
62.49799480869517
 30
0.0
  0
SPLINE
  5
FA
330
1F
100
AcDbEntity
  8
0
  6
Continuous
 62
     7
370
    25
100
AcDbSpline
210
0.0
220
0.0
230
1.0
 70
     8
 71
     3
 72
    28
 73
    24
 74
     0
 42
0.00000001
 43
0.00000001
 40
0.0
 40
0.0
 40
0.0
 40
0.0
 40
0.0000945518387566
 40
0.0494790310036833
 40
0.0997905572240069
 40
0.1504179828747673
 40
0.2007269044582391
 40
0.2501063714211056
 40
0.2994911455471423
 40
0.3498028246546396
 40
0.4004302499660558
 40
0.4507390180088743
 40
0.5001181910907976
 40
0.5495032601455772
 40
0.5998150921039378
 40
0.6504425170383042
 40
0.7007511315041718
 40
0.7501300108478144
 40
0.799515374798969
 40
0.8498273595718812
 40
0.9004547840914934
 40
0.9507632449441124
 40
1.0
 40
1.0
 40
1.0
 40
1.0
 10
119.4932916538095
 20
63.24799567171019
 30
0.0
 10
119.4931807516731
 20
63.24801870824487
 30
0.0
 10
119.4351456006188
 20
63.26007373994975
 30
0.0
 10
119.6386546444047
 20
63.28400641037328
 30
0.0
 10
120.1358088973784
 20
63.32241440102471
 30
0.0
 10
121.0276115661817
 20
63.36125081297789
 30
0.0
 10
122.2249504262082
 20
63.39959321517055
 30
0.0
 10
123.7023459617099
 20
63.43557170826697
 30
0.0
 10
125.4276461150902
 20
63.47156762360328
 30
0.0
 10
127.3786891081062
 20
63.50990965703463
 30
0.0
 10
129.5075479301485
 20
63.54876400521847
 30
0.0
 10
131.7348857344489
 20
63.5871013885997
 30
0.0
 10
133.9984642735799
 20
63.62308025650748
 30
0.0
 10
136.2619610100122
 20
63.65907671694534
 30
0.0
 10
138.4890191994723
 20
63.69741909019591
 30
0.0
 10
140.6172177731047
 20
63.73627341282601
 30
0.0
 10
142.5671469440721
 20
63.77461055289638
 30
0.0
 10
144.2915769742445
 20
63.81058853984145
 30
0.0
 10
145.7666604798216
 20
63.84658588980182
 30
0.0
 10
146.9665522280455
 20
63.88492847543714
 30
0.0
 10
147.8417480908466
 20
63.92378293195802
 30
0.0
 10
148.3918686865192
 20
63.96208315214512
 30
0.0
 10
148.4591712295158
 20
63.98611048275335
 30
0.0
 10
148.4924602107483
 20
63.99799480869515
 30
0.0
  0
SPLINE
  5
FB
330
1F
100
AcDbEntity
  8
0
  6
Continuous
 62
     7
370
    25
100
AcDbSpline
210
0.0
220
0.0
230
1.0
 70
     8
 71
     3
 72
    28
 73
    24
 74
     0
 42
0.00000001
 43
0.00000001
 40
0.0
 40
0.0
 40
0.0
 40
0.0
 40
0.0000945518387566
 40
0.0494790310036833
 40
0.099790557224007
 40
0.1504179828747675
 40
0.2007269044582393
 40
0.2501063714211058
 40
0.2994911455471426
 40
0.3498028246546399
 40
0.4004302499660562
 40
0.4507390180088747
 40
0.5001181910907981
 40
0.5495032601455776
 40
0.5998150921039384
 40
0.6504425170383048
 40
0.7007511315041725
 40
0.7501300108478152
 40
0.7995153747989697
 40
0.8498273595718819
 40
0.9004547840914943
 40
0.9507632449441132
 40
1.0
 40
1.0
 40
1.0
 40
1.0
 10
119.4932916538095
 20
64.74799567171019
 30
0.0
 10
119.4931807516731
 20
64.74801870824487
 30
0.0
 10
119.4351456006197
 20
64.76007373995088
 30
0.0
 10
119.6386546444043
 20
64.78400641037277
 30
0.0
 10
120.1358088973785
 20
64.82241440102487
 30
0.0
 10
121.0276115661817
 20
64.86125081297783
 30
0.0
 10
122.2249504262082
 20
64.89959321517055
 30
0.0
 10
123.7023459617099
 20
64.93557170826695
 30
0.0
 10
125.4276461150902
 20
64.97156762360332
 30
0.0
 10
127.3786891081062
 20
65.0099096570346
 30
0.0
 10
129.5075479301485
 20
65.04876400521849
 30
0.0
 10
131.7348857344489
 20
65.08710138859969
 30
0.0
 10
133.9984642735799
 20
65.1230802565075
 30
0.0
 10
136.2619610100122
 20
65.15907671694532
 30
0.0
 10
138.4890191994723
 20
65.19741909019591
 30
0.0
 10
140.6172177731047
 20
65.23627341282601
 30
0.0
 10
142.5671469440721
 20
65.27461055289638
 30
0.0
 10
144.2915769742445
 20
65.31058853984148
 30
0.0
 10
145.7666604798216
 20
65.3465858898018
 30
0.0
 10
146.9665522280455
 20
65.38492847543716
 30
0.0
 10
147.8417480908466
 20
65.423782931958
 30
0.0
 10
148.3918686865192
 20
65.46208315214513
 30
0.0
 10
148.4591712295158
 20
65.48611048275335
 30
0.0
 10
148.4924602107483
 20
65.49799480869517
 30
0.0
  0
SPLINE
  5
FC
330
1F
100
AcDbEntity
  8
0
  6
Continuous
 62
     7
370
    25
100
AcDbSpline
210
0.0
220
0.0
230
1.0
 70
     8
 71
     3
 72
    28
 73
    24
 74
     0
 42
0.00000001
 43
0.00000001
 40
0.0
 40
0.0
 40
0.0
 40
0.0
 40
0.000094551838756
 40
0.0494790310036827
 40
0.0997905572240064
 40
0.1504179828747669
 40
0.2007269044582387
 40
0.2501063714211052
 40
0.299491145547142
 40
0.3498028246546393
 40
0.4004302499660556
 40
0.4507390180088741
 40
0.5001181910907975
 40
0.549503260145577
 40
0.5998150921039378
 40
0.6504425170383042
 40
0.7007511315041718
 40
0.7501300108478146
 40
0.7995153747989692
 40
0.8498273595718814
 40
0.9004547840914936
 40
0.9507632449441126
 40
0.9999999999999999
 40
0.9999999999999999
 40
0.9999999999999999
 40
0.9999999999999999
 10
119.4932916538095
 20
66.24799567171017
 30
0.0
 10
119.4931807516731
 20
66.24801870824487
 30
0.0
 10
119.4351456006201
 20
66.26007373995255
 30
0.0
 10
119.6386546444041
 20
66.28400641037196
 30
0.0
 10
120.1358088973786
 20
66.32241440102509
 30
0.0
 10
121.0276115661817
 20
66.36125081297777
 30
0.0
 10
122.2249504262082
 20
66.39959321517058
 30
0.0
 10
123.7023459617099
 20
66.43557170826695
 30
0.0
 10
125.4276461150902
 20
66.47156762360332
 30
0.0
 10
127.3786891081062
 20
66.5099096570346
 30
0.0
 10
129.5075479301485
 20
66.54876400521847
 30
0.0
 10
131.7348857344489
 20
66.58710138859969
 30
0.0
 10
133.9984642735799
 20
66.6230802565075
 30
0.0
 10
136.2619610100122
 20
66.65907671694534
 30
0.0
 10
138.4890191994723
 20
66.69741909019594
 30
0.0
 10
140.6172177731047
 20
66.73627341282601
 30
0.0
 10
142.5671469440721
 20
66.77461055289638
 30
0.0
 10
144.2915769742445
 20
66.81058853984148
 30
0.0
 10
145.7666604798216
 20
66.8465858898018
 30
0.0
 10
146.9665522280455
 20
66.88492847543716
 30
0.0
 10
147.8417480908466
 20
66.923782931958
 30
0.0
 10
148.3918686865192
 20
66.96208315214513
 30
0.0
 10
148.4591712295158
 20
66.98611048275335
 30
0.0
 10
148.4924602107483
 20
66.99799480869517
 30
0.0
  0
SPLINE
  5
FD
330
1F
100
AcDbEntity
  8
0
  6
Continuous
 62
     7
370
    25
100
AcDbSpline
210
0.0
220
0.0
230
1.0
 70
     8
 71
     3
 72
    28
 73
    24
 74
     0
 42
0.00000001
 43
0.00000001
 40
0.0
 40
0.0
 40
0.0
 40
0.0
 40
0.000094551838756
 40
0.0494790310036827
 40
0.0997905572240064
 40
0.150417982874767
 40
0.2007269044582388
 40
0.2501063714211053
 40
0.2994911455471422
 40
0.3498028246546395
 40
0.4004302499660558
 40
0.4507390180088743
 40
0.5001181910907978
 40
0.5495032601455773
 40
0.599815092103938
 40
0.6504425170383046
 40
0.7007511315041722
 40
0.7501300108478149
 40
0.7995153747989695
 40
0.8498273595718817
 40
0.900454784091494
 40
0.950763244944113
 40
1.0
 40
1.0
 40
1.0
 40
1.0
 10
119.4932916538095
 20
67.74799567171019
 30
0.0
 10
119.4931807516731
 20
67.74801870824487
 30
0.0
 10
119.43514560062
 20
67.76007373995155
 30
0.0
 10
119.6386546444042
 20
67.78400641037246
 30
0.0
 10
120.1358088973785
 20
67.82241440102493
 30
0.0
 10
121.0276115661817
 20
67.86125081297783
 30
0.0
 10
122.2249504262082
 20
67.89959321517054
 30
0.0
 10
123.7023459617099
 20
67.93557170826696
 30
0.0
 10
125.4276461150902
 20
67.9715676236033
 30
0.0
 10
127.3786891081062
 20
68.00990965703461
 30
0.0
 10
129.5075479301485
 20
68.04876400521847
 30
0.0
 10
131.7348857344489
 20
68.0871013885997
 30
0.0
 10
133.9984642735799
 20
68.12308025650749
 30
0.0
 10
136.2619610100122
 20
68.15907671694532
 30
0.0
 10
138.4890191994723
 20
68.19741909019592
 30
0.0
 10
140.6172177731047
 20
68.23627341282601
 30
0.0
 10
142.5671469440721
 20
68.27461055289638
 30
0.0
 10
144.2915769742445
 20
68.31058853984148
 30
0.0
 10
145.7666604798216
 20
68.3465858898018
 30
0.0
 10
146.9665522280455
 20
68.38492847543716
 30
0.0
 10
147.8417480908466
 20
68.423782931958
 30
0.0
 10
148.3918686865192
 20
68.46208315214514
 30
0.0
 10
148.4591712295158
 20
68.48611048275336
 30
0.0
 10
148.4924602107483
 20
68.49799480869515
 30
0.0
  0
SPLINE
  5
FE
330
1F
100
AcDbEntity
  8
0
  6
Continuous
 62
     7
370
    25
100
AcDbSpline
210
0.0
220
0.0
230
1.0
 70
     8
 71
     3
 72
    24
 73
    20
 74
     0
 42
0.00000001
 43
0.00000001
 40
0.0
 40
0.0
 40
0.0
 40
0.0
 40
0.0001181898022295
 40
0.0618487907350608
 40
0.1247382005242444
 40
0.1880224846141184
 40
0.2509086386071329
 40
0.3126329742871883
 40
0.374363943921419
 40
0.4372535448195757
 40
0.5005378284852693
 40
0.5634237905524612
 40
0.6251477588813259
 40
0.6868790971764968
 40
0.7497688891382389
 40
0.8130531723326203
 40
0.8759389424286173
 40
0.9376625435846194
 40
0.9999999999999999
 40
0.9999999999999999
 40
0.9999999999999999
 40
0.9999999999999999
 10
119.4932916538095
 20
69.24799567171019
 30
0.0
 10
119.4931807516731
 20
69.24801870824487
 30
0.0
 10
119.4351456006206
 20
69.26007373995348
 30
0.0
 10
119.6386546445377
 20
69.28400641037057
 30
0.0
 10
120.135808896899
 20
69.32241440102865
 30
0.0
 10
121.0276115679697
 20
69.36125081296484
 30
0.0
 10
122.2249504196378
 20
69.39959321521802
 30
0.0
 10
123.7023459857323
 20
69.43557170809348
 30
0.0
 10
125.4276460246582
 20
69.47156762425638
 30
0.0
 10
127.3786894535932
 20
69.50990965453965
 30
0.0
 10
129.5075466360201
 20
69.5487640145641
 30
0.0
 10
131.7348904917424
 20
69.58710135424465
 30
0.0
 10
133.9984468797595
 20
69.62308038211792
 30
0.0
 10
136.2620264897369
 20
69.65907624407993
 30
0.0
 10
138.4887690417732
 20
69.69742089672339
 30
0.0
 10
140.6181548119698
 20
69.73626664594873
 30
0.0
 10
142.5637023486057
 20
69.77463542823044
 30
0.0
 10
144.3098291168473
 20
69.81061416856411
 30
0.0
 10
145.2508662440629
 20
69.83487008412396
 30
0.0
 10
145.7237129378718
 20
69.84705805115107
 30
0.0
  0
LINE
  5
FF
330
1F
100
AcDbEntity
  8
0
  6
Continuous
 62
     7
370
    25
100
AcDbLine
 10
145.7236306279
 20
69.8474689336
 30
0.0
 11
145.0668725734
 21
69.3783079465
 31
0.0
  0
SPLINE
  5
100
330
1F
100
AcDbEntity
  8
0
  6
Continuous
 62
     7
370
    25
100
AcDbSpline
210
0.0
220
0.0
230
1.0
 70
     8
 71
     3
 72
    10
 73
     6
 74
     0
 42
0.00000001
 43
0.00000001
 40
0.0
 40
0.0
 40
0.0
 40
0.0
 40
0.2137157742809275
 40
0.6508695120420598
 40
1.0
 40
1.0
 40
1.0
 40
1.0
 10
146.6519319668252
 20
60.43609860030009
 30
0.0
 10
146.7776782525
 20
60.44239826274957
 30
0.0
 10
147.160637460231
 20
60.46158382936635
 30
0.0
 10
147.5592655169332
 20
60.49098688483947
 30
0.0
 10
147.6224388028757
 20
60.51284835246101
 30
0.0
 10
147.6504893721554
 20
60.52255540826668
 30
0.0
  0
SPLINE
  5
101
330
1F
100
AcDbEntity
  8
0
  6
Continuous
 62
     7
370
    25
100
AcDbSpline
210
0.0
220
0.0
230
1.0
 70
     8
 71
     3
 72
    27
 73
    23
 74
     0
 42
0.00000001
 43
0.00000001
 40
0.0
 40
0.0
 40
0.0
 40
0.0
 40
0.0497681480753963
 40
0.1005527717621055
 40
0.1516562880944021
 40
0.2024382836779588
 40
0.2522820233675993
 40
0.3021311180116121
 40
0.3529158959630746
 40
0.4040194119531256
 40
0.454801252612868
 40
0.5046446957747129
 40
0.5544940880032768
 40
0.6052790201828714
 40
0.6563825357926498
 40
0.707164221491969
 40
0.7570073682699006
 40
0.806857058050371
 40
0.8576421444214763
 40
0.908745659612954
 40
0.959527190315244
 40
1.0
 40
1.0
 40
1.0
 40
1.0
 10
120.3051253026616
 20
61.27937316131171
 30
0.0
 10
120.3371095789873
 20
61.29127701651151
 30
0.0
 10
120.4017313855388
 20
61.31532785386999
 30
0.0
 10
120.9228484860423
 20
61.35365048286985
 30
0.0
 10
121.7506066720069
 20
61.39250447850996
 30
0.0
 10
122.8846526925795
 20
61.43084218328025
 30
0.0
 10
124.2783401761947
 20
61.46682193414939
 30
0.0
 10
125.9072998571787
 20
61.50281754274837
 30
0.0
 10
127.7490250374598
 20
61.54115964524323
 30
0.0
 10
129.7587011473649
 20
61.58001395305345
 30
0.0
 10
131.8613171793509
 20
61.61835132446796
 30
0.0
 10
133.9981538683189
 20
61.65433022011306
 30
0.0
 10
136.1349119465138
 20
61.69032670350082
 30
0.0
 10
138.237268419247
 20
61.72866905108785
 30
0.0
 10
140.2463057361965
 20
61.76752337564014
 30
0.0
 10
142.087038187628
 20
61.80586043111963
 30
0.0
 10
143.7149636788782
 20
61.84183869049487
 30
0.0
 10
145.1072669552907
 20
61.87783515499083
 30
0.0
 10
146.2406847530092
 20
61.91618117146622
 30
0.0
 10
147.064197662346
 20
61.95502262914349
 30
0.0
 10
147.5611790436276
 20
61.99103647635871
 30
0.0
 10
147.6229436990185
 20
62.01287717669933
 30
0.0
 10
147.6503373455265
 20
62.02256388863564
 30
0.0
  0
SPLINE
  5
102
330
1F
100
AcDbEntity
  8
0
  6
Continuous
 62
     7
370
    25
100
AcDbSpline
210
0.0
220
0.0
230
1.0
 70
     8
 71
     3
 72
    28
 73
    24
 74
     0
 42
0.00000001
 43
0.00000001
 40
0.0
 40
0.0
 40
0.0
 40
0.0
 40
0.0000496864505225
 40
0.0498984685025554
 40
0.1006818853788117
 40
0.1517829427442046
 40
0.2025612582542987
 40
0.2524002352231524
 40
0.3022493146169135
 40
0.3530328854575391
 40
0.4041339421764996
 40
0.4549121024773907
 40
0.5047507840837266
 40
0.554600160786567
 40
0.6053838855549377
 40
0.6564849415894407
 40
0.7072629466445269
 40
0.7571013330322307
 40
0.8069510070114977
 40
0.857734885670988
 40
0.9088359409830078
 40
0.9596137907556888
 40
0.9999999999999999
 40
0.9999999999999999
 40
0.9999999999999999
 40
0.9999999999999999
 10
120.3050227173602
 20
62.77934612468174
 30
0.0
 10
120.304968469052
 20
62.77935811683824
 30
0.0
 10
120.2504886768397
 20
62.79140144530074
 30
0.0
 10
120.4430854248864
 20
62.8153301963614
 30
0.0
 10
120.9130047765245
 20
62.85373951220519
 30
0.0
 10
121.7555067754307
 20
62.89257607582553
 30
0.0
 10
122.8863358390295
 20
62.93091640610998
 30
0.0
 10
124.2814873696585
 20
62.96688793872926
 30
0.0
 10
125.9106171541605
 20
63.00289090366408
 30
0.0
 10
127.7528055775428
 20
63.04123490142506
 30
0.0
 10
129.7627186886545
 20
63.08008922681478
 30
0.0
 10
131.8654430174539
 20
63.11842458364323
 30
0.0
 10
134.0023097030437
 20
63.15439648232016
 30
0.0
 10
136.1390363462535
 20
63.1903999952958
 30
0.0
 10
138.2412888045888
 20
63.22874432665254
 30
0.0
 10
140.2500686771928
 20
63.26759864409862
 30
0.0
 10
142.0904091873204
 20
63.30593369047405
 30
0.0
 10
143.7179012376699
 20
63.34190495329577
 30
0.0
 10
145.1097240032547
 20
63.37790845136173
 30
0.0
 10
146.2426107535444
 20
63.41625643325811
 30
0.0
 10
147.0654764592101
 20
63.45509795059717
 30
0.0
 10
147.5616444035139
 20
63.49108880235142
 30
0.0
 10
147.6230034817385
 20
63.51290681626146
 30
0.0
 10
147.6501859108551
 20
63.52257232353008
 30
0.0
  0
SPLINE
  5
103
330
1F
100
AcDbEntity
  8
0
  6
Continuous
 62
     7
370
    25
100
AcDbSpline
210
0.0
220
0.0
230
1.0
 70
     8
 71
     3
 72
    28
 73
    24
 74
     0
 42
0.00000001
 43
0.00000001
 40
0.0
 40
0.0
 40
0.0
 40
0.0
 40
0.0004331219103114
 40
0.0502692718285078
 40
0.1010386283719982
 40
0.1521242932113748
 40
0.20288607728158
 40
0.252707689804226
 40
0.3025441367134604
 40
0.3533136468820338
 40
0.4043993107710609
 40
0.455160939386095
 40
0.5049822577859219
 40
0.5548190016535418
 40
0.6055886654105804
 40
0.6566743283112438
 40
0.7074358014345223
 40
0.7572568258553818
 40
0.8070938666487338
 40
0.8578636839576184
 40
0.9089493458319033
 40
0.959710663426844
 40
1.0
 40
1.0
 40
1.0
 40
1.0
 10
120.306275407808
 20
64.2791357894871
 30
0.0
 10
120.305800920823
 20
64.27924035161531
 30
0.0
 10
120.2507307092729
 20
64.29137610813159
 30
0.0
 10
120.4433739347145
 20
64.31540447819003
 30
0.0
 10
120.914408223733
 20
64.35381452134905
 30
0.0
 10
121.7574060072765
 20
64.39265141523475
 30
0.0
 10
122.8888057204149
 20
64.43098963783476
 30
0.0
 10
124.2844267408836
 20
64.46695421911838
 30
0.0
 10
125.9139924214328
 20
64.50296419993582
 30
0.0
 10
127.7565712242735
 20
64.54131017969763
 30
0.0
 10
129.7667407280042
 20
64.58016449418744
 30
0.0
 10
131.8695679738053
 20
64.61849783279573
 30
0.0
 10
134.00646590661
 20
64.6544627596629
 30
0.0
 10
136.1431606174083
 20
64.69047329374352
 30
0.0
 10
138.2453088567364
 20
64.72881960491279
 30
0.0
 10
140.2538309721066
 20
64.76767391134527
 30
0.0
 10
142.0937794525361
 20
64.80600693844511
 30
0.0
 10
143.7208379710274
 20
64.84197123160733
 30
0.0
 10
145.1121801055427
 20
64.87798175422773
 30
0.0
 10
146.2445356323435
 20
64.91633169799317
 30
0.0
 10
147.0667539326896
 20
64.95517326999465
 30
0.0
 10
147.562109016532
 20
64.99114109888578
 30
0.0
 10
147.6230632247686
 20
65.01293642167137
 30
0.0
 10
147.6500350750384
 20
65.02258071366963
 30
0.0
  0
SPLINE
  5
104
330
1F
100
AcDbEntity
  8
0
  6
Continuous
 62
     7
370
    25
100
AcDbSpline
210
0.0
220
0.0
230
1.0
 70
     8
 71
     3
 72
    28
 73
    24
 74
     0
 42
0.00000001
 43
0.00000001
 40
0.0
 40
0.0
 40
0.0
 40
0.0
 40
0.0005671902545785
 40
0.0504031410403881
 40
0.1011711032721764
 40
0.1522541208839922
 40
0.2030120385203232
 40
0.2528287289367817
 40
0.3026649764370585
 40
0.3534330919930417
 40
0.4045161083504611
 40
0.4552738702470087
 40
0.5050902677066258
 40
0.554926811888708
 40
0.6056950807322627
 40
0.6567780957972732
 40
0.7075357019174597
 40
0.7573518065640868
 40
0.8071886473953162
 40
0.8579570694898194
 40
0.9090400832244114
 40
0.9597975335316591
 40
0.9999999999999999
 40
0.9999999999999999
 40
0.9999999999999999
 40
0.9999999999999999
 10
120.3067096415515
 20
65.77910608762907
 30
0.0
 10
120.3060891732217
 20
65.77924301128284
 30
0.0
 10
120.2509514967781
 20
65.7914106784396
 30
0.0
 10
120.4438990040654
 20
65.81547846966426
 30
0.0
 10
120.915748929948
 20
65.85388961397778
 30
0.0
 10
121.7593234609239
 20
65.89272673185235
 30
0.0
 10
122.8912721532511
 20
65.9310628638189
 30
0.0
 10
124.2873682399375
 20
65.96702051349897
 30
0.0
 10
125.9173682340146
 20
66.00303750316269
 30
0.0
 10
127.7603375970441
 20
66.041385460572
 30
0.0
 10
129.7707630952277
 20
66.0802397603609
 30
0.0
 10
131.8736931391512
 20
66.11857107055353
 30
0.0
 10
134.0106221885077
 20
66.15452905249785
 30
0.0
 10
136.1472848387
 20
66.1905465987346
 30
0.0
 10
138.249328553531
 20
66.2288948858849
 30
0.0
 10
140.2575926261835
 20
66.26774917736275
 30
0.0
 10
142.0971489813105
 20
66.30608017502364
 30
0.0
 10
143.7237738789094
 20
66.34203752542386
 30
0.0
 10
145.1146352615973
 20
66.37805506357869
 30
0.0
 10
146.2464593891186
 20
66.41640696565996
 30
0.0
 10
147.0680300826557
 20
66.45524858732885
 30
0.0
 10
147.5625728867887
 20
66.49119336622579
 30
0.0
 10
147.6231229336054
 20
66.51296599342123
 30
0.0
 10
147.6498848449296
 20
66.52258905977595
 30
0.0
  0
SPLINE
  5
105
330
1F
100
AcDbEntity
  8
0
  6
Continuous
 62
     7
370
    25
100
AcDbSpline
210
0.0
220
0.0
230
1.0
 70
     8
 71
     3
 72
    28
 73
    24
 74
     0
 42
0.00000001
 43
0.00000001
 40
0.0
 40
0.0
 40
0.0
 40
0.0
 40
0.0004296507794504
 40
0.05027894939564
 40
0.1010593172127648
 40
0.1521535728491739
 40
0.2029214208039369
 40
0.2527467413436812
 40
0.3025963364783111
 40
0.3533768573603324
 40
0.4044711114379047
 40
0.4552388033259254
 40
0.5050638319954291
 40
0.5549137236158234
 40
0.6056943975261047
 40
0.6567886500068214
 40
0.7075561857915204
 40
0.7573809227346809
 40
0.8072311108081608
 40
0.8580119377100657
 40
0.9091061885559072
 40
0.9598735682007052
 40
1.0
 40
1.0
 40
1.0
 40
1.0
 10
120.3062625627438
 20
67.2792731756436
 30
0.0
 10
120.3057956498503
 20
67.27937686200482
 30
0.0
 10
120.2511561824786
 20
67.29151053325185
 30
0.0
 10
120.4446771158965
 20
67.31555217196528
 30
0.0
 10
120.9170224191019
 20
67.35396478974789
 30
0.0
 10
121.7612603288094
 20
67.39280202575942
 30
0.0
 10
122.8937348256063
 20
67.43113608402687
 30
0.0
 10
124.2903119496543
 20
67.46708682187207
 30
0.0
 10
125.9207445687597
 20
67.50311081333254
 30
0.0
 10
127.7641047015218
 20
67.54146074403805
 30
0.0
 10
129.7747857880909
 20
67.58031502532486
 30
0.0
 10
131.8778185133695
 20
67.61864429690561
 30
0.0
 10
134.0147785480712
 20
67.6545953608199
 30
0.0
 10
136.1514090095732
 20
67.69061991025838
 30
0.0
 10
138.2533478943779
 20
67.72897016955837
 30
0.0
 10
140.2613536389125
 20
67.76782444214093
 30
0.0
 10
142.1005177731857
 20
67.80615340019861
 30
0.0
 10
143.7267089608747
 20
67.84210383474031
 30
0.0
 10
145.1170894709711
 20
67.87812837940416
 30
0.0
 10
146.2483820235515
 20
67.91648223624713
 30
0.0
 10
147.0693049089899
 20
67.95532390259281
 30
0.0
 10
147.5630360183791
 20
67.99124560463635
 30
0.0
 10
147.6231826137173
 20
68.0129955320045
 30
0.0
 10
147.6497352273381
 20
68.02259736257263
 30
0.0
  0
SPLINE
  5
106
330
1F
100
AcDbEntity
  8
0
  6
Continuous
 62
     7
370
    25
100
AcDbSpline
210
0.0
220
0.0
230
1.0
 70
     8
 71
     3
 72
    24
 73
    20
 74
     0
 42
0.00000001
 43
0.00000001
 40
0.0
 40
0.0
 40
0.0
 40
0.0
 40
0.0004482837775169
 40
0.0622096688155226
 40
0.1251231363740933
 40
0.1884239479459379
 40
0.2513188407380873
 40
0.3130446937375618
 40
0.3748064458092586
 40
0.4377201026372632
 40
0.5010209119010355
 40
0.563915610979098
 40
0.6256411038058657
 40
0.6874032228707585
 40
0.7503170689228051
 40
0.8136178758313996
 40
0.8765123811500637
 40
0.9382375139824085
 40
1.0
 40
1.0
 40
1.0
 40
1.0
 10
120.306045264245
 20
68.77938969132472
 30
0.0
 10
120.3056540702616
 20
68.77947700390929
 30
0.0
 10
120.2513669214287
 20
68.79159363012151
 30
0.0
 10
120.4453920942394
 20
68.8156259588709
 30
0.0
 10
120.9183146851463
 20
68.85403994698791
 30
0.0
 10
121.7631936588748
 20
68.89287732406923
 30
0.0
 10
122.8961997379588
 20
68.931209291392
 30
0.0
 10
124.2932562957604
 20
68.96715314595217
 30
0.0
 10
125.9241217771937
 20
69.00318413055051
 30
0.0
 10
127.7678727421785
 20
69.04153602781182
 30
0.0
 10
129.7788076252169
 20
69.08039029807183
 30
0.0
 10
131.8819485440002
 20
69.11871747862476
 30
0.0
 10
134.0189186920627
 20
69.15466180611304
 30
0.0
 10
136.1555945012122
 20
69.19069277072421
 30
0.0
 10
138.2571324588882
 20
69.22904720371363
 30
0.0
 10
140.2659919370186
 20
69.2678931600085
 30
0.0
 10
142.1006591076914
 20
69.3062506717786
 30
0.0
 10
143.7414418215218
 20
69.34208219136426
 30
0.0
 10
144.6249684339014
 20
69.36623018887389
 30
0.0
 10
145.0668653669824
 20
69.37830783983544
 30
0.0
  0
SPLINE
  5
107
330
1F
100
AcDbEntity
  8
0
  6
Continuous
 62
     7
370
    25
100
AcDbSpline
210
0.0
220
0.0
230
1.0
 70
     8
 71
     3
 72
    28
 73
    24
 74
     0
 42
0.00000001
 43
0.00000001
 40
0.0
 40
0.0
 40
0.0
 40
0.0
 40
0.0404321489186663
 40
0.0907437715291241
 40
0.1413713161391971
 40
0.1916803340594809
 40
0.2410598343599347
 40
0.2904446419060628
 40
0.3407564174068422
 40
0.3913839616775803
 40
0.4416928260540852
 40
0.4910720324689813
 40
0.5404571349484373
 40
0.5907690633032282
 40
0.6413966071969266
 40
0.6917053179933559
 40
0.7410842306653526
 40
0.7904696280457693
 40
0.8407817092182617
 40
0.891409252697217
 40
0.9417178098772746
 40
0.991096428949031
 40
1.0
 40
1.0
 40
1.0
 40
1.0
 10
120.3347749595485
 20
60.91085943377456
 30
0.0
 10
120.36275966156
 20
60.92062965772666
 30
0.0
 10
120.4255670431501
 20
60.94255743039791
 30
0.0
 10
120.9248910860615
 20
60.97866038937315
 30
0.0
 10
121.7500624071692
 20
61.01750187575537
 30
0.0
 10
122.8847964684648
 20
61.05584290612746
 30
0.0
 10
124.278303619497
 20
61.09182178133278
 30
0.0
 10
125.9073118125936
 20
61.12781762733913
 30
0.0
 10
127.7490240196927
 20
61.16615966778547
 30
0.0
 10
129.7587038945902
 20
61.20501399362265
 30
0.0
 10
131.8613189681196
 20
61.24335136024526
 30
0.0
 10
133.9981563367705
 20
61.27933025418807
 30
0.0
 10
136.1349129863375
 20
61.31532674181421
 30
0.0
 10
138.2372747536204
 20
61.35366909044739
 30
0.0
 10
140.2462920727486
 20
61.39252341898429
 30
0.0
 10
142.0870977732105
 20
61.43086046213899
 30
0.0
 10
143.7147542827775
 20
61.46683876228019
 30
0.0
 10
145.108062879527
 20
61.50283506695713
 30
0.0
 10
146.2376505354199
 20
61.54118171192779
 30
0.0
 10
147.0755681373766
 20
61.58002081366871
 30
0.0
 10
147.5520956248467
 20
61.61841380160752
 30
0.0
 10
147.7363722705333
 20
61.64447137995716
 30
0.0
 10
147.6625285120241
 20
61.6586862176455
 30
0.0
 10
147.6512476533402
 20
61.66085776983099
 30
0.0
  0
SPLINE
  5
108
330
1F
100
AcDbEntity
  8
0
  6
Continuous
 62
     7
370
    25
100
AcDbSpline
210
0.0
220
0.0
230
1.0
 70
     8
 71
     3
 72
    28
 73
    24
 74
     0
 42
0.00000001
 43
0.00000001
 40
0.0
 40
0.0
 40
0.0
 40
0.0
 40
0.0405157405942098
 40
0.0908285837388026
 40
0.1414561229969222
 40
0.1917639099791302
 40
0.2411410616471205
 40
0.2905282262107215
 40
0.3408412219551352
 40
0.3914687605722884
 40
0.4417763937203669
 40
0.491153252644108
 40
0.5405407118820607
 40
0.590853860189981
 40
0.6414813981284638
 40
0.6917888774061213
 40
0.7411654437282819
 40
0.7905531976082105
 40
0.8408664984433214
 40
0.8914940356654301
 40
0.9418013610363759
 40
0.9911776348996248
 40
1.0
 40
1.0
 40
1.0
 40
1.0
 10
120.3346198026863
 20
62.41086806001599
 30
0.0
 10
120.3628185302713
 20
62.42065944849264
 30
0.0
 10
120.4260347137154
 20
62.44260987899512
 30
0.0
 10
120.9261751042746
 20
62.4787357503745
 30
0.0
 10
121.7519931036692
 20
62.51757716069648
 30
0.0
 10
122.8872579717654
 20
62.55591620182058
 30
0.0
 10
124.2812454521645
 20
62.59188806732492
 30
0.0
 10
125.9106869892957
 20
62.62789094867659
 30
0.0
 10
127.7527907324333
 20
62.66623497367384
 30
0.0
 10
129.7627271829768
 20
62.70508929311477
 30
0.0
 10
131.8654454194342
 20
62.74342465069655
 30
0.0
 10
134.0023141574559
 20
62.77939654314951
 30
0.0
 10
136.139038991195
 20
62.81540006370029
 30
0.0
 10
138.241296817424
 20
62.85374439671057
 30
0.0
 10
140.2500564973118
 20
62.89259871846514
 30
0.0
 10
142.090470331245
 20
62.93093375058349
 30
0.0
 10
143.7176923849438
 20
62.96690505533783
 30
0.0
 10
145.1105234821613
 20
63.0029083814547
 30
0.0
 10
146.2395676997775
 20
63.04125704976676
 30
0.0
 10
147.0768830816527
 20
63.08009599644586
 30
0.0
 10
147.5526850017647
 20
63.11848751547625
 30
0.0
 10
147.7365313710635
 20
63.14451842458458
 30
0.0
 10
147.6626091697119
 20
63.15871443495843
 30
0.0
 10
147.6514032607601
 20
63.1608664163229
 30
0.0
  0
SPLINE
  5
109
330
1F
100
AcDbEntity
  8
0
  6
Continuous
 62
     7
370
    25
100
AcDbSpline
210
0.0
220
0.0
230
1.0
 70
     8
 71
     3
 72
    28
 73
    24
 74
     0
 42
0.00000001
 43
0.00000001
 40
0.0
 40
0.0
 40
0.0
 40
0.0
 40
0.0405992468700826
 40
0.0909133082160998
 40
0.1415408397006398
 40
0.1918473934136324
 40
0.241222205571613
 40
0.2906117250721655
 40
0.3409259387274609
 40
0.391553469269404
 40
0.4418598688579586
 40
0.4912343894130785
 40
0.5406242033289284
 40
0.5909385692571824
 40
0.641566098818824
 40
0.6918723442466551
 40
0.7412465733415912
 40
0.7906366816403522
 40
0.8409511998052439
 40
0.89157872834888
 40
0.941884819579702
 40
0.9912587573571343
 40
1.0
 40
1.0
 40
1.0
 40
1.0
 10
120.334464045111
 20
63.91087674725354
 30
0.0
 10
120.3628774442139
 20
63.92068928323724
 30
0.0
 10
120.4265031592023
 20
63.94266235360288
 30
0.0
 10
120.9274604428525
 20
63.97881111417686
 30
0.0
 10
121.7539249223863
 20
64.01765244440047
 30
0.0
 10
122.8897205038228
 20
64.05598948613458
 30
0.0
 10
124.2841882245841
 20
64.09195436882419
 30
0.0
 10
125.9140630376504
 20
64.12796427657547
 30
0.0
 10
127.756558083777
 20
64.16631028228825
 30
0.0
 10
129.7667508237292
 20
64.20516459138706
 30
0.0
 10
131.8695720742787
 20
64.24349792976263
 30
0.0
 10
134.0064720587335
 20
64.27946284761882
 30
0.0
 10
136.1431649462758
 20
64.31547339214613
 30
0.0
 10
138.245318526329
 20
64.35381970569831
 30
0.0
 10
140.2538202808611
 20
64.39267401672569
 30
0.0
 10
142.0938421531835
 20
64.43100702763851
 30
0.0
 10
143.7206296595824
 20
64.46697136391347
 30
0.0
 10
145.1129831453534
 20
64.50298170246879
 30
0.0
 10
146.2414837150784
 20
64.54133239048669
 30
0.0
 10
147.0781967978191
 20
64.58017117741952
 30
0.0
 10
147.5532730233499
 20
64.61856122006671
 30
0.0
 10
147.7366900894648
 20
64.64456550290801
 30
0.0
 10
147.6626899970486
 20
64.65874269824684
 30
0.0
 10
147.6515594669749
 20
64.66087512394964
 30
0.0
  0
SPLINE
  5
10A
330
1F
100
AcDbEntity
  8
0
  6
Continuous
 62
     7
370
    25
100
AcDbSpline
210
0.0
220
0.0
230
1.0
 70
     8
 71
     3
 72
    28
 73
    24
 74
     0
 42
0.00000001
 43
0.00000001
 40
0.0
 40
0.0
 40
0.0
 40
0.0
 40
0.0406826666804674
 40
0.090997943894937
 40
0.1416254651843578
 40
0.1919307832974205
 40
0.2413032650685559
 40
0.2906951374249933
 40
0.3410105666581582
 40
0.3916380867033493
 40
0.4419432504017114
 40
0.4913154417114501
 40
0.5407076082240538
 40
0.5910231894395848
 40
0.6416507082028451
 40
0.691955717450223
 40
0.7413276184412544
 40
0.7907200790776259
 40
0.8410358122392003
 40
0.8916633296828235
 40
0.9419681844429392
 40
0.9913397952579504
 40
1.0
 40
1.0
 40
1.0
 40
1.0
 10
120.3343076937737
 20
65.4108854962921
 30
0.0
 10
120.3629364089753
 20
65.42071916249857
 30
0.0
 10
120.4269723838086
 20
65.44271485449109
 30
0.0
 10
120.9287471016797
 20
65.47888648076864
 30
0.0
 10
121.7558578629982
 20
65.51772772685743
 30
0.0
 10
122.8921840643131
 20
65.55606275905845
 30
0.0
 10
124.2871319364179
 20
65.59202068582543
 30
0.0
 10
125.9174399572756
 20
65.6280376110252
 30
0.0
 10
127.7603260732092
 20
65.66638559361809
 30
0.0
 10
129.7707748162599
 20
65.70523988842939
 30
0.0
 10
131.8736989321002
 20
65.74357119743246
 30
0.0
 10
134.010630040052
 20
65.77952916759091
 30
0.0
 10
136.1472908509924
 20
65.81554672714115
 30
0.0
 10
138.2493398797483
 20
65.8538950174001
 30
0.0
 10
140.2575834228828
 20
65.89274931375571
 30
0.0
 10
142.0972132385672
 20
65.93108029329301
 30
0.0
 10
143.7235661062531
 20
65.967037688002
 30
0.0
 10
145.1154418686467
 20
66.00305502998887
 30
0.0
 10
146.2433985810388
 20
66.04140773407666
 30
0.0
 10
147.0795092856152
 20
66.08024635658069
 30
0.0
 10
147.5538596899509
 20
66.11863491536344
 30
0.0
 10
147.7368484249286
 20
66.14461261514421
 30
0.0
 10
147.6627709898875
 20
66.1587710080232
 30
0.0
 10
147.6517162650256
 20
66.16088389351496
 30
0.0
  0
SPLINE
  5
10B
330
1F
100
AcDbEntity
  8
0
  6
Continuous
 62
     7
370
    25
100
AcDbSpline
210
0.0
220
0.0
230
1.0
 70
     8
 71
     3
 72
    28
 73
    24
 74
     0
 42
0.00000001
 43
0.00000001
 40
0.0
 40
0.0
 40
0.0
 40
0.0
 40
0.0407659989625886
 40
0.0910824897122858
 40
0.1417099983851305
 40
0.1920140785679821
 40
0.241384239076139
 40
0.2907784622068544
 40
0.3410951046846152
 40
0.3917226118116023
 40
0.4420265372895287
 40
0.4913964084778346
 40
0.5407909255055037
 40
0.5911077196750005
 40
0.6417352252184237
 40
0.6920389959551532
 40
0.7414085779663021
 40
0.7908033888585224
 40
0.8411203346834218
 40
0.8917478386055804
 40
0.9420514545648356
 40
0.9914207475415295
 40
1.0
 40
1.0
 40
1.0
 40
1.0
 10
120.3341507556704
 20
66.91089430793463
 30
0.0
 10
120.3629954301719
 20
66.92074908681334
 30
0.0
 10
120.4274423917427
 20
66.94276738192893
 30
0.0
 10
120.9300350806385
 20
66.97896185013826
 30
0.0
 10
121.757791925183
 20
67.01780300805751
 30
0.0
 10
122.8946486529122
 20
67.056136020581
 30
0.0
 10
124.2900765873277
 20
67.09208701832367
 30
0.0
 10
125.920817747789
 20
67.12811095201522
 30
0.0
 10
127.7640947002148
 20
67.16646090765283
 30
0.0
 10
129.7747991599813
 20
67.20531518423157
 30
0.0
 10
131.877825992346
 20
67.24364445369498
 30
0.0
 10
134.01478810086
 20
67.2795955030607
 30
0.0
 10
136.1514167047575
 20
67.31562006867483
 30
0.0
 10
138.2533608770949
 20
67.35397033180531
 30
0.0
 10
140.2613459228636
 20
67.39282460954517
 30
0.0
 10
142.1005835869375
 20
67.4311535475359
 30
0.0
 10
143.7265017245164
 20
67.46710402759834
 30
0.0
 10
145.1178996515849
 20
67.50312836400451
 30
0.0
 10
146.2453122973758
 20
67.5414830805258
 30
0.0
 10
147.0808205447786
 20
67.58032153392045
 30
0.0
 10
147.5544450019235
 20
67.61870860135087
 30
0.0
 10
147.7370063766215
 20
67.64465976150896
 30
0.0
 10
147.662852144044
 20
67.65879936479877
 30
0.0
 10
147.651873647908
 20
67.66089272582062
 30
0.0
  0
SPLINE
  5
10C
330
1F
100
AcDbEntity
  8
0
  6
Continuous
 62
     7
370
    25
100
AcDbSpline
210
0.0
220
0.0
230
1.0
 70
     8
 71
     3
 72
    23
 73
    19
 74
     0
 42
0.00000001
 43
0.00000001
 40
0.0
 40
0.0
 40
0.0
 40
0.0
 40
0.0516499358366387
 40
0.1152718271672299
 40
0.1792854202659095
 40
0.2428885199916553
 40
0.3053094128861047
 40
0.3677666238225198
 40
0.4313887066311197
 40
0.4954022973938295
 40
0.5590052011431851
 40
0.6214257296639981
 40
0.6838833118769809
 40
0.7475055861176509
 40
0.8115191744967152
 40
0.8751218822238245
 40
0.937542046551437
 40
1.0
 40
1.0
 40
1.0
 40
1.0
 10
120.3339932378424
 20
68.41090318298212
 30
0.0
 10
120.3630545134761
 20
68.42077905671687
 30
0.0
 10
120.4279131873126
 20
68.44281993618428
 30
0.0
 10
120.9313243791536
 20
68.47903722227755
 30
0.0
 10
121.7597271103242
 20
68.51787828797832
 30
0.0
 10
122.8971142630289
 20
68.55620927073703
 30
0.0
 10
124.2930221998886
 20
68.59215336614591
 30
0.0
 10
125.9241963225086
 20
68.62818430016723
 30
0.0
 10
127.7678642939124
 20
68.66653622196667
 30
0.0
 10
129.7788226197868
 20
68.70539048782861
 30
0.0
 10
131.881957791815
 20
68.74371766529448
 30
0.0
 10
134.0189296496664
 20
68.77966197558322
 30
0.0
 10
136.1556049943952
 20
68.81569295889781
 30
0.0
 10
138.2571428388049
 20
68.85404739767947
 30
0.0
 10
140.2660016579252
 20
68.89289335473515
 30
0.0
 10
142.1006678544368
 20
68.93125086172624
 30
0.0
 10
143.7414494777249
 20
68.96708236495867
 30
0.0
 10
144.6249752315874
 20
68.99123037251942
 30
0.0
 10
145.0668717895116
 20
69.00330802999025
 30
0.0
  0
LINE
  5
10D
330
1F
100
AcDbEntity
  8
0
  6
Continuous
 62
     7
370
    25
100
AcDbLine
 10
145.0668731208
 20
69.0033079349
 30
0.0
 11
145.7237148536
 21
68.5345580954
 31
0.0
  0
SPLINE
  5
10E
330
1F
100
AcDbEntity
  8
0
  6
Continuous
 62
     7
370
    25
100
AcDbSpline
210
0.0
220
0.0
230
1.0
 70
     8
 71
     3
 72
    27
 73
    23
 74
     0
 42
0.00000001
 43
0.00000001
 40
0.0
 40
0.0
 40
0.0
 40
0.0
 40
0.0413163708853733
 40
0.0920696549652819
 40
0.1431403676708954
 40
0.1938885509808709
 40
0.2436980137132572
 40
0.2935175777260358
 40
0.344271015751977
 40
0.3953417278108821
 40
0.4460897559294512
 40
0.4958989233337459
 40
0.545718784622012
 40
0.5964723765573459
 40
0.6475430879315013
 40
0.698290960822049
 40
0.7480998330421958
 40
0.7979199915732839
 40
0.855760465713009
 40
0.9138962828001509
 40
0.971386419343282
 40
1.0
 40
1.0
 40
1.0
 40
1.0
 10
119.5229155109019
 20
61.94179489956664
 30
0.0
 10
119.5530096894963
 20
61.95169264131214
 30
0.0
 10
119.6200717421471
 20
61.97374882988621
 30
0.0
 10
120.1510111370675
 20
62.00998522684669
 30
0.0
 10
121.0259622913807
 20
62.04882733558064
 30
0.0
 10
122.2285256150589
 20
62.08716621361156
 30
0.0
 10
123.705206057043
 20
62.12313809826451
 30
0.0
 10
125.4312926100894
 20
62.1591409432201
 30
0.0
 10
127.3826610782485
 20
62.19748499121365
 30
0.0
 10
129.5118159659507
 20
62.23633932531848
 30
0.0
 10
131.7392567317132
 20
62.27467470098215
 30
0.0
 10
134.002869899813
 20
62.31064656689557
 30
0.0
 10
136.2663336072762
 20
62.34665005578054
 30
0.0
 10
138.4932775571993
 20
62.38499443946355
 30
0.0
 10
140.6212190541283
 20
62.42384865973866
 30
0.0
 10
142.5706742132259
 20
62.46218414177918
 30
0.0
 10
144.2948591909275
 20
62.49815383812813
 30
0.0
 10
145.8380820634914
 20
62.53585997095397
 30
0.0
 10
147.1308155386402
 20
62.57791805738366
 30
0.0
 10
148.0326461828026
 20
62.62212779774376
 30
0.0
 10
148.4787979557024
 20
62.65823895177833
 30
0.0
 10
148.4474164867462
 20
62.67869543038712
 30
0.0
 10
148.4369879451883
 20
62.68549343074832
 30
0.0
  0
SPLINE
  5
10F
330
1F
100
AcDbEntity
  8
0
  6
Continuous
 62
     7
370
    25
100
AcDbSpline
210
0.0
220
0.0
230
1.0
 70
     8
 71
     3
 72
    27
 73
    23
 74
     0
 42
0.00000001
 43
0.00000001
 40
0.0
 40
0.0
 40
0.0
 40
0.0
 40
0.0413039937645734
 40
0.0920579330966517
 40
0.1431293051526092
 40
0.1938781436489007
 40
0.2436882494482161
 40
0.2935084566583366
 40
0.3442625499384351
 40
0.3953339213476758
 40
0.4460826046505574
 40
0.4958924151179681
 40
0.5457129196074142
 40
0.5964671667988924
 40
0.6475385375233745
 40
0.6982870655962307
 40
0.7480965808756828
 40
0.7979173826117882
 40
0.8557586035031152
 40
0.9138951711548949
 40
0.9713860499265812
 40
1.0
 40
1.0
 40
1.0
 40
1.0
 10
119.5229609916383
 20
63.44180425673639
 30
0.0
 10
119.5530487339254
 20
63.45169891920781
 30
0.0
 10
119.6201079965788
 20
63.47375204513553
 30
0.0
 10
120.1510145446334
 20
63.50998524238574
 30
0.0
 10
121.0259613817888
 20
63.54882733143276
 30
0.0
 10
122.2285258531163
 20
63.58716621469712
 30
0.0
 10
123.7052059937854
 20
63.62313809797605
 30
0.0
 10
125.4312926273915
 20
63.659140943299
 30
0.0
 10
127.3826610735424
 20
63.69748499119218
 30
0.0
 10
129.5118159672069
 20
63.73633932532422
 30
0.0
 10
131.7392567313844
 20
63.77467470098064
 30
0.0
 10
134.0028698999003
 20
63.81064656689598
 30
0.0
 10
136.2663336072523
 20
63.84665005578043
 30
0.0
 10
138.4932775572057
 20
63.8849944394636
 30
0.0
 10
140.6212190541266
 20
63.92384865973866
 30
0.0
 10
142.5706742132264
 20
63.96218414177919
 30
0.0
 10
144.2948591909274
 20
63.99815383812813
 30
0.0
 10
145.8380820634915
 20
64.03585997095396
 30
0.0
 10
147.1308155386401
 20
64.07791805738367
 30
0.0
 10
148.0326461828026
 20
64.12212779774376
 30
0.0
 10
148.4787979557024
 20
64.15823895177832
 30
0.0
 10
148.4474164867462
 20
64.17869543038712
 30
0.0
 10
148.4369879451883
 20
64.18549343074832
 30
0.0
  0
SPLINE
  5
110
330
1F
100
AcDbEntity
  8
0
  6
Continuous
 62
     7
370
    25
100
AcDbSpline
210
0.0
220
0.0
230
1.0
 70
     8
 71
     3
 72
    27
 73
    23
 74
     0
 42
0.00000001
 43
0.00000001
 40
0.0
 40
0.0
 40
0.0
 40
0.0
 40
0.0412915958408869
 40
0.0920461915264521
 40
0.1431182240409587
 40
0.1938677188247729
 40
0.243678468771854
 40
0.2934993202603726
 40
0.3442540698959489
 40
0.3953261017637302
 40
0.4460754413521275
 40
0.4958858959634848
 40
0.5457070447351733
 40
0.5964619482841197
 40
0.6475339794671338
 40
0.698283163823498
 40
0.7480933232430793
 40
0.7979147692652712
 40
0.855756738163305
 40
0.9138940576412365
 40
0.971385679888981
 40
1.0
 40
1.0
 40
1.0
 40
1.0
 10
119.5230065476392
 20
64.941813629391
 30
0.0
 10
119.5530878420087
 20
64.95170520748817
 30
0.0
 10
119.6201443101956
 20
64.97375526570195
 30
0.0
 10
120.1510179588728
 20
65.0099852579552
 30
0.0
 10
121.0259604704156
 20
65.04882732727677
 30
0.0
 10
122.2285260916399
 20
65.0871662157848
 30
0.0
 10
123.705205930404
 20
65.12313809768705
 30
0.0
 10
125.4312926447275
 20
65.15914094337805
 30
0.0
 10
127.382661068827
 20
65.19748499117068
 30
0.0
 10
129.5118159684656
 20
65.23633932532996
 30
0.0
 10
131.739256731055
 20
65.27467470097915
 30
0.0
 10
134.0028698999879
 20
65.31064656689637
 30
0.0
 10
136.2663336072284
 20
65.34665005578033
 30
0.0
 10
138.4932775572123
 20
65.38499443946361
 30
0.0
 10
140.6212190541248
 20
65.42384865973865
 30
0.0
 10
142.5706742132268
 20
65.4621841417792
 30
0.0
 10
144.2948591909272
 20
65.49815383812812
 30
0.0
 10
145.8380820634915
 20
65.53585997095398
 30
0.0
 10
147.1308155386401
 20
65.57791805738367
 30
0.0
 10
148.0326461828026
 20
65.62212779774376
 30
0.0
 10
148.4787979557024
 20
65.65823895177833
 30
0.0
 10
148.4474164867462
 20
65.67869543038712
 30
0.0
 10
148.4369879451883
 20
65.68549343074832
 30
0.0
  0
SPLINE
  5
111
330
1F
100
AcDbEntity
  8
0
  6
Continuous
 62
     7
370
    25
100
AcDbSpline
210
0.0
220
0.0
230
1.0
 70
     8
 71
     3
 72
    27
 73
    23
 74
     0
 42
0.00000001
 43
0.00000001
 40
0.0
 40
0.0
 40
0.0
 40
0.0
 40
0.0412791776492297
 40
0.0920344307612804
 40
0.1431071248140455
 40
0.1938572769582729
 40
0.2436686721061646
 40
0.2934901689263393
 40
0.3442455759903952
 40
0.3953182693964267
 40
0.4460682663432269
 40
0.4958793661515693
 40
0.5457011602587647
 40
0.5964567212381844
 40
0.6475294139594396
 40
0.6982792556721962
 40
0.7480900602849389
 40
0.797912151646488
 40
0.8557548697740607
 40
0.9138929423072201
 40
0.9713853092464481
 40
1.0
 40
1.0
 40
1.0
 40
1.0
 10
119.5230521769335
 20
66.44182301712493
 30
0.0
 10
119.5531270120488
 20
66.45171150588114
 30
0.0
 10
119.6201806814218
 20
66.4737584914461
 30
0.0
 10
120.1510213796436
 20
66.50998527355442
 30
0.0
 10
121.0259595572989
 20
66.54882732311282
 30
0.0
 10
122.2285263306198
 20
66.58716621687462
 30
0.0
 10
123.7052058669013
 20
66.62313809739744
 30
0.0
 10
125.4312926620967
 20
66.65914094345723
 30
0.0
 10
127.3826610641026
 20
66.69748499114915
 30
0.0
 10
129.5118159697267
 20
66.73633932533569
 30
0.0
 10
131.7392567307249
 20
66.77467470097763
 30
0.0
 10
134.0028699000756
 20
66.81064656689675
 30
0.0
 10
136.2663336072044
 20
66.84665005578022
 30
0.0
 10
138.4932775572188
 20
66.88499443946364
 30
0.0
 10
140.6212190541231
 20
66.92384865973862
 30
0.0
 10
142.5706742132273
 20
66.9621841417792
 30
0.0
 10
144.2948591909271
 20
66.9981538381281
 30
0.0
 10
145.8380820634916
 20
67.035859970954
 30
0.0
 10
147.1308155386401
 20
67.07791805738366
 30
0.0
 10
148.0326461828026
 20
67.12212779774376
 30
0.0
 10
148.4787979557024
 20
67.1582389517783
 30
0.0
 10
148.4474164867462
 20
67.17869543038712
 30
0.0
 10
148.4369879451883
 20
67.18549343074831
 30
0.0
  0
SPLINE
  5
112
330
1F
100
AcDbEntity
  8
0
  6
Continuous
 62
     7
370
    25
100
AcDbSpline
210
0.0
220
0.0
230
1.0
 70
     8
 71
     3
 72
    23
 73
    19
 74
     0
 42
0.00000001
 43
0.00000001
 40
0.0
 40
0.0
 40
0.0
 40
0.0
 40
0.0516932296473722
 40
0.1152731734684623
 40
0.1792507682899834
 40
0.2428243222454388
 40
0.3052219167990781
 40
0.367632165486366
 40
0.4312123021596092
 40
0.4951898961709819
 40
0.5587632557141727
 40
0.6211604803027186
 40
0.6835711013946527
 40
0.747151430874149
 40
0.8111290240277182
 40
0.8747021891127756
 40
0.9370990439165505
 40
1.0
 40
1.0
 40
1.0
 40
1.0
 10
119.523097877546
 20
67.94183241953182
 30
0.0
 10
119.553166242374
 20
67.95171781411382
 30
0.0
 10
119.6202171087712
 20
67.97376172222769
 30
0.0
 10
120.151024806332
 20
68.00998528918619
 30
0.0
 10
121.025958644239
 20
68.0488273189284
 30
0.0
 10
122.2285265635693
 20
68.08716621801302
 30
0.0
 10
123.7052058269606
 20
68.12313809693701
 30
0.0
 10
125.4312925903443
 20
68.15914094417784
 30
0.0
 10
127.3826613999603
 20
68.19748498867787
 30
0.0
 10
129.5118146952484
 20
68.23633933451717
 30
0.0
 10
131.7392614199287
 20
68.27467466724687
 30
0.0
 10
134.0028527538231
 20
68.31064669022139
 30
0.0
 10
136.2663981615175
 20
68.34664959147611
 30
0.0
 10
138.4930309446416
 20
68.38499621321293
 30
0.0
 10
140.6221427797068
 20
68.4238420158864
 30
0.0
 10
142.5672786797927
 20
68.46220856399154
 30
0.0
 10
144.3117998779056
 20
68.4981578013255
 30
0.0
 10
145.2518155775653
 20
68.52239216394895
 30
0.0
 10
145.723714374706
 20
68.53455809540692
 30
0.0
  0
ELLIPSE
  5
113
330
1F
100
AcDbEntity
  8
0
  6
Continuous
 62
     7
370
    25
100
AcDbEllipse
 10
133.9929588856
 20
61.467558721
 30
0.0
 11
14.35777723298279
 21
7.401257687792871
 31
0.0
210
0.0
220
0.0
230
1.0
 40
0.2737224856
 41
0.1519163654195896
 42
0.4881424368787667
  0
ELLIPSE
  5
114
330
1F
100
AcDbEntity
  8
0
  6
Continuous
 62
     7
370
    25
100
AcDbEllipse
 10
133.9929588856
 20
76.9061341692
 30
0.0
 11
14.35826292490981
 21
-7.392868934794848
 31
0.0
210
0.0
220
0.0
230
1.0
 40
0.2735670702
 41
5.794804357670547
 42
6.131028995319406
  0
LINE
  5
115
330
1F
100
AcDbEntity
  8
0
  6
Continuous
 62
     7
370
    25
100
AcDbLine
 10
147.8787924295
 20
69.3783198265
 30
0.0
 11
147.8787924293
 21
69.0033198149
 31
0.0
  0
LINE
  5
116
330
1F
100
AcDbEntity
  8
0
  6
Continuous
 62
     7
370
    25
100
AcDbLine
 10
145.0668725734
 20
69.3783079465
 30
0.0
 11
145.0668731208
 21
69.0033079349
 31
0.0
  0
LINE
  5
117
330
1F
100
AcDbEntity
  8
0
  6
Continuous
 62
     7
370
    25
100
AcDbLine
 10
147.8787924295
 20
69.3783198265
 30
0.0
 11
145.0668725734
 21
69.3783079465
 31
0.0
  0
LINE
  5
118
330
1F
100
AcDbEntity
  8
0
  6
Continuous
 62
     7
370
    25
100
AcDbLine
 10
147.8787924293
 20
69.0033198149
 30
0.0
 11
145.0668685782
 21
69.0033079349
 31
0.0
  0
ARC
  5
119
330
1F
100
AcDbEntity
  8
0
  6
Continuous
 62
     7
370
    25
100
AcDbCircle
 10
102.8085920404
 20
87.0410396613
 30
0.0
 40
14.98566367623002
100
AcDbArc
 50
12.0472257092
 51
24.1879581216
  0
SPLINE
  5
11A
330
1F
100
AcDbEntity
  8
0
  6
Continuous
 62
     7
370
    25
100
AcDbSpline
210
0.0
220
0.0
230
1.0
 70
     8
 71
     3
 72
    14
 73
    10
 74
     0
 42
0.00000001
 43
0.00000001
 40
0.0
 40
0.0
 40
0.0
 40
0.0
 40
0.4999999999999973
 40
0.4999999999999973
 40
0.624999999999998
 40
0.624999999999998
 40
0.7499999999999987
 40
0.7499999999999987
 40
1.0
 40
1.0
 40
1.0
 40
1.0
 10
116.4786081021903
 20
93.18113548209892
 30
0.0
 10
116.4579967214909
 20
93.22702353185483
 30
0.0
 10
116.6208889532651
 20
93.35278279687867
 30
0.0
 10
117.0394154156414
 20
93.6315673980521
 30
0.0
 10
117.1343811522013
 20
93.6938925084606
 30
0.0
 10
117.3430128490373
 20
93.83085642937893
 30
0.0
 10
117.4568867899288
 20
93.90563104353127
 30
0.0
 10
117.8255625349999
 20
94.15111810240448
 30
0.0
 10
118.1074995471249
 20
94.34237739889835
 30
0.0
 10
118.4211409513898
 20
94.57283650937624
 30
0.0
  0
SPLINE
  5
11B
330
1F
100
AcDbEntity
  8
0
  6
Continuous
 62
     7
370
    25
100
AcDbSpline
210
0.0
220
0.0
230
1.0
 70
     8
 71
     3
 72
    16
 73
    12
 74
     0
 42
0.00000001
 43
0.00000001
 40
0.0
 40
0.0
 40
0.0
 40
0.0
 40
0.2500000000000024
 40
0.2500000000000024
 40
0.5000000000000049
 40
0.5000000000000049
 40
0.6250000000000037
 40
0.6250000000000037
 40
0.7500000000000024
 40
0.7500000000000024
 40
1.0
 40
1.0
 40
1.0
 40
1.0
 10
149.5647768197509
 20
94.57283650937624
 30
0.0
 10
149.8785047329598
 20
94.34231383339329
 30
0.0
 10
150.1595702130513
 20
94.1516634418177
 30
0.0
 10
150.6488389897422
 20
93.82583303459639
 30
0.0
 10
150.8571862656002
 20
93.69099195856174
 30
0.0
 10
151.1094854500448
 20
93.5230361500177
 30
0.0
 10
151.1836371780822
 20
93.47276001707371
 30
0.0
 10
151.3089847841894
 20
93.38442508453493
 30
0.0
 10
151.3604985330959
 20
93.34616456808061
 30
0.0
 10
151.4815040808937
 20
93.24784758308691
 30
0.0
 10
151.5176156356775
 20
93.20408012228835
 30
0.0
 10
151.5073096689504
 20
93.18113548209892
 30
0.0
  0
ARC
  5
11C
330
1F
100
AcDbEntity
  8
0
  6
Continuous
 62
     7
370
    25
100
AcDbCircle
 10
165.1771614359
 20
87.0411000258
 30
0.0
 40
14.9854890722839
100
AcDbArc
 50
155.8119950344
 51
164.5422620746
  0
ARC
  5
11D
330
1F
100
AcDbEntity
  8
0
  6
Continuous
 62
     7
370
    25
100
AcDbCircle
 10
133.9929588856
 20
101.0479974128
 30
0.0
 40
19.20000000000001
100
AcDbArc
 50
335.8119747904
 51
204.1880252096
  0
LINE
  5
11E
330
1F
100
AcDbEntity
  8
0
  6
Continuous
 62
     7
370
    25
100
AcDbLine
 10
151.507309669
 20
93.1811354821
 30
0.0
 11
151.5073003558
 21
93.1811147479
 31
0.0
  0
ARC
  5
11F
330
1F
100
AcDbEntity
  8
0
  6
Continuous
 62
     7
370
    25
100
AcDbCircle
 10
133.9929588856
 20
101.0479974128
 30
0.0
 40
25.37500000000001
100
AcDbArc
 50
309.6743748818
 51
180.0
  0
ARC
  5
120
330
1F
100
AcDbEntity
  8
0
  6
Continuous
 62
     7
370
    25
100
AcDbCircle
 10
133.9929588856
 20
101.0479974128
 30
0.0
 40
25.37500000000001
100
AcDbArc
 50
180.0
 51
230.3256251182
  0
SPLINE
  5
121
330
1F
100
AcDbEntity
  8
0
  6
Continuous
 62
     8
370
    25
100
AcDbSpline
210
0.0
220
0.0
230
1.0
 70
     8
 71
     3
 72
    12
 73
     8
 74
     0
 42
0.00000001
 43
0.00000001
 40
0.0
 40
0.0
 40
0.0
 40
0.0
 40
0.1924082105681739
 40
0.4135492548068708
 40
0.6381901448204661
 40
0.8686791278218468
 40
1.0
 40
1.0
 40
1.0
 40
1.0
 10
150.181911534394
 20
87.05755562522793
 30
0.0
 10
150.168377895083
 20
87.10766260884226
 30
0.0
 10
150.1392896018371
 20
87.21535918620316
 30
0.0
 10
149.8072894112334
 20
87.63940774321571
 30
0.0
 10
149.2605700021865
 20
88.2893470628947
 30
0.0
 10
148.6284963621443
 20
89.03851042049075
 30
0.0
 10
148.1793819255885
 20
89.60994846897023
 30
0.0
 10
148.016373376562
 20
89.81735504413075
 30
0.0
  0
SPLINE
  5
122
330
1F
100
AcDbEntity
  8
0
  6
Continuous
 62
     8
370
    25
100
AcDbSpline
210
0.0
220
0.0
230
1.0
 70
     8
 71
     3
 72
    12
 73
     8
 74
     0
 42
0.00000001
 43
0.00000001
 40
0.0
 40
0.0
 40
0.0
 40
0.0
 40
0.2298983238880673
 40
0.46580431102087
 40
0.6969655693638132
 40
0.9348948514667818
 40
0.9999999999999999
 40
0.9999999999999999
 40
0.9999999999999999
 40
0.9999999999999999
 10
119.9695443945788
 20
89.81735504413075
 30
0.0
 10
119.6875880346839
 20
89.46273099137942
 30
0.0
 10
119.1163072800545
 20
88.74421591145351
 30
0.0
 10
118.4434167049459
 20
87.95851333007448
 30
0.0
 10
117.9758146060564
 20
87.3877960241974
 30
0.0
 10
117.801304139928
 20
87.12828738424977
 30
0.0
 10
117.7975236300633
 20
87.06470628546337
 30
0.0
 10
117.7967114099609
 20
87.05104626382258
 30
0.0
  0
ARC
  5
123
330
1F
100
AcDbEntity
  8
0
  6
Continuous
 62
     8
370
    25
100
AcDbCircle
 10
133.9929588856
 20
101.0479974128
 30
0.0
 40
24.76305823079825
100
AcDbArc
 50
180.0
 51
229.140960131
  0
ARC
  5
124
330
1F
100
AcDbEntity
  8
0
  6
Continuous
 62
     8
370
    25
100
AcDbCircle
 10
133.9929588856
 20
101.0479974128
 30
0.0
 40
24.76305823079825
100
AcDbArc
 50
310.859039869
 51
180.0
  0
ENDSEC
  0
SECTION
  2
OBJECTS
  0
DICTIONARY
  5
C
330
0
100
AcDbDictionary
281
     1
  3
ACAD_GROUP
350
D
  3
ACAD_LAYOUT
350
1A
  3
ACAD_MLINESTYLE
350
17
  3
ACAD_PLOTSETTINGS
350
19
  3
ACAD_PLOTSTYLENAME
350
E
  3
ACAD_SCALELIST
350
47
  3
DWGPROPS
350
125
  0
DICTIONARY
  5
D
102
{ACAD_REACTORS
330
C
102
}
330
C
100
AcDbDictionary
281
     1
  0
DICTIONARY
  5
1A
102
{ACAD_REACTORS
330
C
102
}
330
C
100
AcDbDictionary
281
     1
  3
Layout1
350
1E
  3
Layout2
350
26
  3
Model
350
22
  0
DICTIONARY
  5
17
102
{ACAD_REACTORS
330
C
102
}
330
C
100
AcDbDictionary
281
     1
  3
Standard
350
18
  0
DICTIONARY
  5
19
102
{ACAD_REACTORS
330
C
102
}
330
C
100
AcDbDictionary
281
     1
  0
ACDBDICTIONARYWDFLT
  5
E
102
{ACAD_REACTORS
330
C
102
}
330
C
100
AcDbDictionary
281
     1
  3
Normal
350
F
100
AcDbDictionaryWithDefault
340
F
  0
DICTIONARY
  5
47
102
{ACAD_REACTORS
330
C
102
}
330
C
100
AcDbDictionary
281
     1
  3
A0
350
48
  3
A1
350
49
  3
A2
350
4A
  3
A3
350
4B
  3
A4
350
4C
  3
A5
350
4D
  3
A6
350
4E
  3
A7
350
4F
  3
A8
350
50
  3
A9
350
51
  3
B0
350
52
  3
B1
350
53
  3
B2
350
54
  3
B3
350
55
  3
B4
350
56
  3
B5
350
57
  3
B6
350
58
  3
B7
350
59
  3
B8
350
5A
  3
B9
350
5B
  3
C0
350
5C
  3
C1
350
5D
  3
C2
350
5E
  3
C3
350
5F
  3
C4
350
60
  3
C5
350
61
  3
C6
350
62
  3
C7
350
63
  3
C8
350
64
  3
C9
350
65
  3
D0
350
66
  3
D1
350
67
  3
D2
350
68
  0
XRECORD
  5
125
102
{ACAD_REACTORS
330
C
102
}
330
C
100
AcDbXrecord
280
     1
  1
DWGPROPS COOKIE
  2

  3

  4

  6

  7

  8
DS-1
  9

300
=
301
=
302
=
303
=
304
=
305
=
306
=
307
=
308
=
309
=
 40
0.0
 41
2460384.168532581
 42
2460384.168533044
  1

 90
        0
  0
LAYOUT
  5
1E
102
{ACAD_REACTORS
330
1A
102
}
330
1A
100
AcDbPlotSettings
  1

  2
none_device
  4

  6

 40
0.0
 41
0.0
 42
0.0
 43
0.0
 44
0.0
 45
0.0
 46
0.0
 47
0.0
 48
0.0
 49
0.0
140
0.0
141
0.0
142
1.0
143
1.0
 70
   688
 72
     1
 73
     0
 74
     5
  7

 75
    16
147
1.0
148
0.0
149
0.0
100
AcDbLayout
  1
Layout1
 70
     1
 71
     1
 10
0.0
 20
0.0
 11
420.0
 21
297.0
 12
0.0
 22
0.0
 32
0.0
 14
1.0000000000E+20
 24
1.0000000000E+20
 34
1.0000000000E+20
 15
-1.0000000000E+20
 25
-1.0000000000E+20
 35
-1.0000000000E+20
146
0.0
 13
0.0
 23
0.0
 33
0.0
 16
1.0
 26
0.0
 36
0.0
 17
0.0
 27
1.0
 37
0.0
 76
     0
330
1B
  0
LAYOUT
  5
26
102
{ACAD_REACTORS
330
1A
102
}
330
1A
100
AcDbPlotSettings
  1

  2
none_device
  4

  6

 40
0.0
 41
0.0
 42
0.0
 43
0.0
 44
0.0
 45
0.0
 46
0.0
 47
0.0
 48
0.0
 49
0.0
140
0.0
141
0.0
142
1.0
143
1.0
 70
   688
 72
     1
 73
     0
 74
     5
  7

 75
    16
147
1.0
148
0.0
149
0.0
100
AcDbLayout
  1
Layout2
 70
     1
 71
     2
 10
0.0
 20
0.0
 11
0.0
 21
0.0
 12
0.0
 22
0.0
 32
0.0
 14
0.0
 24
0.0
 34
0.0
 15
0.0
 25
0.0
 35
0.0
146
0.0
 13
0.0
 23
0.0
 33
0.0
 16
1.0
 26
0.0
 36
0.0
 17
0.0
 27
1.0
 37
0.0
 76
     0
330
23
  0
LAYOUT
  5
22
102
{ACAD_REACTORS
330
1A
102
}
330
1A
100
AcDbPlotSettings
  1

  2
none_device
  4
Letter_(8.50_x_11.00_Inches)
  6

 40
6.35
 41
6.35
 42
6.35000508
 43
6.35000508
 44
215.9
 45
279.4
 46
0.0
 47
0.0
 48
0.0
 49
0.0
140
0.0
141
0.0
142
1.0
143
1.0
 70
  1712
 72
     1
 73
     0
 74
     0
  7

 75
     0
147
1.0
148
0.0
149
0.0
100
AcDbLayout
  1
Model
 70
     1
 71
     0
 10
0.0
 20
0.0
 11
279.4
 21
215.9
 12
0.0
 22
0.0
 32
0.0
 14
0.0
 24
0.0
 34
0.0
 15
279.4
 25
215.9
 35
0.0
146
0.0
 13
0.0
 23
0.0
 33
0.0
 16
1.0
 26
0.0
 36
0.0
 17
0.0
 27
1.0
 37
0.0
 76
     0
330
1F
331
29
  0
MLINESTYLE
  5
18
102
{ACAD_REACTORS
330
17
102
}
330
17
100
AcDbMlineStyle
  2
Standard
 70
     0
  3

 62
   256
 51
90.0
 52
90.0
 71
     2
 49
0.5
 62
   256
  6
BYLAYER
 49
-0.5
 62
   256
  6
BYLAYER
  0
ACDBPLACEHOLDER
  5
F
102
{ACAD_REACTORS
330
E
102
}
330
E
  0
SCALE
  5
48
102
{ACAD_REACTORS
330
47
102
}
330
47
100
AcDbScale
 70
     0
300
1:1
140
1.0
141
1.0
290
     1
  0
SCALE
  5
49
102
{ACAD_REACTORS
330
47
102
}
330
47
100
AcDbScale
 70
     0
300
1:2
140
1.0
141
2.0
290
     0
  0
SCALE
  5
4A
102
{ACAD_REACTORS
330
47
102
}
330
47
100
AcDbScale
 70
     0
300
1:4
140
1.0
141
4.0
290
     0
  0
SCALE
  5
4B
102
{ACAD_REACTORS
330
47
102
}
330
47
100
AcDbScale
 70
     0
300
1:5
140
1.0
141
5.0
290
     0
  0
SCALE
  5
4C
102
{ACAD_REACTORS
330
47
102
}
330
47
100
AcDbScale
 70
     0
300
1:8
140
1.0
141
8.0
290
     0
  0
SCALE
  5
4D
102
{ACAD_REACTORS
330
47
102
}
330
47
100
AcDbScale
 70
     0
300
1:10
140
1.0
141
10.0
290
     0
  0
SCALE
  5
4E
102
{ACAD_REACTORS
330
47
102
}
330
47
100
AcDbScale
 70
     0
300
1:16
140
1.0
141
16.0
290
     0
  0
SCALE
  5
4F
102
{ACAD_REACTORS
330
47
102
}
330
47
100
AcDbScale
 70
     0
300
1:20
140
1.0
141
20.0
290
     0
  0
SCALE
  5
50
102
{ACAD_REACTORS
330
47
102
}
330
47
100
AcDbScale
 70
     0
300
1:30
140
1.0
141
30.0
290
     0
  0
SCALE
  5
51
102
{ACAD_REACTORS
330
47
102
}
330
47
100
AcDbScale
 70
     0
300
1:40
140
1.0
141
40.0
290
     0
  0
SCALE
  5
52
102
{ACAD_REACTORS
330
47
102
}
330
47
100
AcDbScale
 70
     0
300
1:50
140
1.0
141
50.0
290
     0
  0
SCALE
  5
53
102
{ACAD_REACTORS
330
47
102
}
330
47
100
AcDbScale
 70
     0
300
1:100
140
1.0
141
100.0
290
     0
  0
SCALE
  5
54
102
{ACAD_REACTORS
330
47
102
}
330
47
100
AcDbScale
 70
     0
300
2:1
140
2.0
141
1.0
290
     0
  0
SCALE
  5
55
102
{ACAD_REACTORS
330
47
102
}
330
47
100
AcDbScale
 70
     0
300
4:1
140
4.0
141
1.0
290
     0
  0
SCALE
  5
56
102
{ACAD_REACTORS
330
47
102
}
330
47
100
AcDbScale
 70
     0
300
8:1
140
8.0
141
1.0
290
     0
  0
SCALE
  5
57
102
{ACAD_REACTORS
330
47
102
}
330
47
100
AcDbScale
 70
     0
300
10:1
140
10.0
141
1.0
290
     0
  0
SCALE
  5
58
102
{ACAD_REACTORS
330
47
102
}
330
47
100
AcDbScale
 70
     0
300
100:1
140
100.0
141
1.0
290
     0
  0
SCALE
  5
59
102
{ACAD_REACTORS
330
47
102
}
330
47
100
AcDbScale
 70
     0
300
1/128" = 1'-0"
140
0.0078125
141
12.0
290
     0
  0
SCALE
  5
5A
102
{ACAD_REACTORS
330
47
102
}
330
47
100
AcDbScale
 70
     0
300
1/64" = 1'-0"
140
0.015625
141
12.0
290
     0
  0
SCALE
  5
5B
102
{ACAD_REACTORS
330
47
102
}
330
47
100
AcDbScale
 70
     0
300
1/32" = 1'-0"
140
0.03125
141
12.0
290
     0
  0
SCALE
  5
5C
102
{ACAD_REACTORS
330
47
102
}
330
47
100
AcDbScale
 70
     0
300
1/16" = 1'-0"
140
0.0625
141
12.0
290
     0
  0
SCALE
  5
5D
102
{ACAD_REACTORS
330
47
102
}
330
47
100
AcDbScale
 70
     0
300
3/32" = 1'-0"
140
0.09375
141
12.0
290
     0
  0
SCALE
  5
5E
102
{ACAD_REACTORS
330
47
102
}
330
47
100
AcDbScale
 70
     0
300
1/8" = 1'-0"
140
0.125
141
12.0
290
     0
  0
SCALE
  5
5F
102
{ACAD_REACTORS
330
47
102
}
330
47
100
AcDbScale
 70
     0
300
3/16" = 1'-0"
140
0.1875
141
12.0
290
     0
  0
SCALE
  5
60
102
{ACAD_REACTORS
330
47
102
}
330
47
100
AcDbScale
 70
     0
300
1/4" = 1'-0"
140
0.25
141
12.0
290
     0
  0
SCALE
  5
61
102
{ACAD_REACTORS
330
47
102
}
330
47
100
AcDbScale
 70
     0
300
3/8" = 1'-0"
140
0.375
141
12.0
290
     0
  0
SCALE
  5
62
102
{ACAD_REACTORS
330
47
102
}
330
47
100
AcDbScale
 70
     0
300
1/2" = 1'-0"
140
0.5
141
12.0
290
     0
  0
SCALE
  5
63
102
{ACAD_REACTORS
330
47
102
}
330
47
100
AcDbScale
 70
     0
300
3/4" = 1'-0"
140
0.75
141
12.0
290
     0
  0
SCALE
  5
64
102
{ACAD_REACTORS
330
47
102
}
330
47
100
AcDbScale
 70
     0
300
1" = 1'-0"
140
1.0
141
12.0
290
     0
  0
SCALE
  5
65
102
{ACAD_REACTORS
330
47
102
}
330
47
100
AcDbScale
 70
     0
300
1-1/2" = 1'-0"
140
1.5
141
12.0
290
     0
  0
SCALE
  5
66
102
{ACAD_REACTORS
330
47
102
}
330
47
100
AcDbScale
 70
     0
300
3" = 1'-0"
140
3.0
141
12.0
290
     0
  0
SCALE
  5
67
102
{ACAD_REACTORS
330
47
102
}
330
47
100
AcDbScale
 70
     0
300
6" = 1'-0"
140
6.0
141
12.0
290
     0
  0
SCALE
  5
68
102
{ACAD_REACTORS
330
47
102
}
330
47
100
AcDbScale
 70
     0
300
1'-0" = 1'-0"
140
12.0
141
12.0
290
     0
  0
ENDSEC
  0
EOF
