  0
SECTION
  2
HEADER
  9
$ACADVER
  1
AC1015
  9
$ACADMAINTVER
 70
     6
  9
$DWGCODEPAGE
  3
ANSI_1252
  9
$INSBASE
 10
0.0
 20
0.0
 30
0.0
  9
$EXTMIN
 10
0.0
 20
0.0
 30
0.0
  9
$EXTMAX
 10
279.4
 20
215.9
 30
0.0
  9
$LIMMIN
 10
0.0
 20
0.0
  9
$LIMMAX
 10
279.4
 20
215.9
  9
$ORTHOMODE
 70
     0
  9
$REGENMODE
 70
     1
  9
$FILLMODE
 70
     1
  9
$QTEXTMODE
 70
     0
  9
$MIRRTEXT
 70
     1
  9
$LTSCALE
 40
1.0
  9
$ATTMODE
 70
     1
  9
$TEXTSIZE
 40
3.5
  9
$TRACEWID
 40
1.0
  9
$TEXTSTYLE
  7
Standard
  9
$CLAYER
  8
0
  9
$CELTYPE
  6
ByLayer
  9
$CECOLOR
 62
   256
  9
$CELTSCALE
 40
1.0
  9
$DISPSILH
 70
     0
  9
$DIMSCALE
 40
1.0
  9
$DIMASZ
 40
3.556
  9
$DIMEXO
 40
1.0
  9
$DIMDLI
 40
3.75
  9
$DIMRND
 40
0.0
  9
$DIMDLE
 40
0.0
  9
$DIMEXE
 40
1.0
  9
$DIMTP
 40
0.0
  9
$DIMTM
 40
0.0
  9
$DIMTXT
 40
3.5
  9
$DIMCEN
 40
2.5
  9
$DIMTSZ
 40
0.0
  9
$DIMTOL
 70
     0
  9
$DIMLIM
 70
     0
  9
$DIMTIH
 70
     1
  9
$DIMTOH
 70
     1
  9
$DIMSE1
 70
     0
  9
$DIMSE2
 70
     0
  9
$DIMTAD
 70
     1
  9
$DIMZIN
 70
     1
  9
$DIMBLK
  1

  9
$DIMASO
 70
     1
  9
$DIMSHO
 70
     1
  9
$DIMPOST
  1

  9
$DIMAPOST
  1

  9
$DIMALT
 70
     0
  9
$DIMALTD
 70
     3
  9
$DIMALTF
 40
0.0393700787
  9
$DIMLFAC
 40
5.0
  9
$DIMTOFL
 70
     1
  9
$DIMTVP
 40
0.0
  9
$DIMTIX
 70
     0
  9
$DIMSOXD
 70
     0
  9
$DIMSAH
 70
     0
  9
$DIMBLK1
  1

  9
$DIMBLK2
  1

  9
$DIMSTYLE
  2
ISO-25
  9
$DIMCLRD
 70
     0
  9
$DIMCLRE
 70
     0
  9
$DIMCLRT
 70
     0
  9
$DIMTFAC
 40
1.0
  9
$DIMGAP
 40
1.524
  9
$DIMJUST
 70
     0
  9
$DIMSD1
 70
     0
  9
$DIMSD2
 70
     0
  9
$DIMTOLJ
 70
     0
  9
$DIMTZIN
 70
     1
  9
$DIMALTZ
 70
     0
  9
$DIMALTTZ
 70
     0
  9
$DIMUPT
 70
     0
  9
$DIMDEC
 70
     2
  9
$DIMTDEC
 70
     2
  9
$DIMALTU
 70
     2
  9
$DIMALTTD
 70
     3
  9
$DIMTXSTY
  7
Standard
  9
$DIMAUNIT
 70
     0
  9
$DIMADEC
 70
     2
  9
$DIMALTRND
 40
0.0
  9
$DIMAZIN
 70
     0
  9
$DIMDSEP
 70
    44
  9
$DIMATFIT
 70
     3
  9
$DIMFRAC
 70
     0
  9
$DIMLDRBLK
  1

  9
$DIMLUNIT
 70
     2
  9
$DIMLWD
 70
    -2
  9
$DIMLWE
 70
    -2
  9
$DIMTMOVE
 70
     0
  9
$LUNITS
 70
     2
  9
$LUPREC
 70
     2
  9
$SKETCHINC
 40
1.0
  9
$FILLETRAD
 40
10.0
  9
$AUNITS
 70
     0
  9
$AUPREC
 70
     2
  9
$MENU
  1
.
  9
$ELEVATION
 40
0.0
  9
$PELEVATION
 40
0.0
  9
$THICKNESS
 40
0.0
  9
$LIMCHECK
 70
     0
  9
$CHAMFERA
 40
0.0
  9
$CHAMFERB
 40
0.0
  9
$CHAMFERC
 40
0.0
  9
$CHAMFERD
 40
0.0
  9
$SKPOLY
 70
     0
  9
$TDCREATE
 40
2460383.698302442
  9
$TDUCREATE
 40
2460383.469135775
  9
$TDUPDATE
 40
2460383.69830265
  9
$TDUUPDATE
 40
2460383.469135984
  9
$TDINDWG
 40
0.0000000116
  9
$TDUSRTIMER
 40
0.0000000116
  9
$USRTIMER
 70
     1
  9
$ANGBASE
 50
0.0
  9
$ANGDIR
 70
     0
  9
$PDMODE
 70
     0
  9
$PDSIZE
 40
-1.0
  9
$PLINEWID
 40
0.0
  9
$SPLFRAME
 70
     0
  9
$SPLINETYPE
 70
     6
  9
$SPLINESEGS
 70
     8
  9
$HANDSEED
  5
1F6
  9
$SURFTAB1
 70
     6
  9
$SURFTAB2
 70
     6
  9
$SURFTYPE
 70
     6
  9
$SURFU
 70
     6
  9
$SURFV
 70
     6
  9
$UCSBASE
  2

  9
$UCSNAME
  2

  9
$UCSORG
 10
0.0
 20
0.0
 30
0.0
  9
$UCSXDIR
 10
1.0
 20
0.0
 30
0.0
  9
$UCSYDIR
 10
0.0
 20
1.0
 30
0.0
  9
$UCSORTHOREF
  2

  9
$UCSORTHOVIEW
 70
     0
  9
$UCSORGTOP
 10
0.0
 20
0.0
 30
0.0
  9
$UCSORGBOTTOM
 10
0.0
 20
0.0
 30
0.0
  9
$UCSORGLEFT
 10
0.0
 20
0.0
 30
0.0
  9
$UCSORGRIGHT
 10
0.0
 20
0.0
 30
0.0
  9
$UCSORGFRONT
 10
0.0
 20
0.0
 30
0.0
  9
$UCSORGBACK
 10
0.0
 20
0.0
 30
0.0
  9
$PUCSBASE
  2

  9
$PUCSNAME
  2

  9
$PUCSORG
 10
0.0
 20
0.0
 30
0.0
  9
$PUCSXDIR
 10
1.0
 20
0.0
 30
0.0
  9
$PUCSYDIR
 10
0.0
 20
1.0
 30
0.0
  9
$PUCSORTHOREF
  2

  9
$PUCSORTHOVIEW
 70
     0
  9
$PUCSORGTOP
 10
0.0
 20
0.0
 30
0.0
  9
$PUCSORGBOTTOM
 10
0.0
 20
0.0
 30
0.0
  9
$PUCSORGLEFT
 10
0.0
 20
0.0
 30
0.0
  9
$PUCSORGRIGHT
 10
0.0
 20
0.0
 30
0.0
  9
$PUCSORGFRONT
 10
0.0
 20
0.0
 30
0.0
  9
$PUCSORGBACK
 10
0.0
 20
0.0
 30
0.0
  9
$USERI1
 70
     0
  9
$USERI2
 70
     0
  9
$USERI3
 70
     0
  9
$USERI4
 70
     0
  9
$USERI5
 70
     0
  9
$USERR1
 40
0.0
  9
$USERR2
 40
0.0
  9
$USERR3
 40
0.0
  9
$USERR4
 40
0.0
  9
$USERR5
 40
0.0
  9
$WORLDVIEW
 70
     1
  9
$SHADEDGE
 70
     3
  9
$SHADEDIF
 70
    70
  9
$TILEMODE
 70
     1
  9
$MAXACTVP
 70
    64
  9
$PINSBASE
 10
0.0
 20
0.0
 30
0.0
  9
$PLIMCHECK
 70
     0
  9
$PEXTMIN
 10
1.0000000000E+20
 20
1.0000000000E+20
 30
1.0000000000E+20
  9
$PEXTMAX
 10
-1.0000000000E+20
 20
-1.0000000000E+20
 30
-1.0000000000E+20
  9
$PLIMMIN
 10
0.0
 20
0.0
  9
$PLIMMAX
 10
420.0
 20
297.0
  9
$UNITMODE
 70
     0
  9
$VISRETAIN
 70
     1
  9
$PLINEGEN
 70
     0
  9
$PSLTSCALE
 70
     1
  9
$TREEDEPTH
 70
  3020
  9
$CMLSTYLE
  2
Standard
  9
$CMLJUST
 70
     0
  9
$CMLSCALE
 40
20.0
  9
$PROXYGRAPHICS
 70
     1
  9
$MEASUREMENT
 70
     1
  9
$CELWEIGHT
370
    -1
  9
$ENDCAPS
280
     0
  9
$JOINSTYLE
280
     0
  9
$LWDISPLAY
290
     1
  9
$INSUNITS
 70
     4
  9
$HYPERLINKBASE
  1

  9
$STYLESHEET
  1

  9
$XEDIT
290
     1
  9
$CEPSNTYPE
380
     0
  9
$PSTYLEMODE
290
     1
  9
$FINGERPRINTGUID
  2
{c683bd8d-3aaa-4a6f-92be-7e1acef3eaae}
  9
$VERSIONGUID
  2
{FAEB1C32-E019-11D5-929B-00C0DF256EC4}
  9
$EXTNAMES
290
     1
  9
$PSVPSCALE
 40
0.0
  9
$OLESTARTUP
290
     0
  0
ENDSEC
  0
SECTION
  2
CLASSES
  0
CLASS
  1
ACDBDICTIONARYWDFLT
  2
AcDbDictionaryWithDefault
  3
ObjectDBX Classes
 90
        0
280
     0
281
     0
  0
CLASS
  1
VISUALSTYLE
  2
AcDbVisualStyle
  3
ObjectDBX Classes
 90
     4095
280
     0
281
     0
  0
CLASS
  1
MATERIAL
  2
AcDbMaterial
  3
ObjectDBX Classes
 90
     1153
280
     0
281
     0
  0
CLASS
  1
SCALE
  2
AcDbScale
  3
ObjectDBX Classes
 90
     1153
280
     0
281
     0
  0
CLASS
  1
TABLESTYLE
  2
AcDbTableStyle
  3
ObjectDBX Classes
 90
     4095
280
     0
281
     0
  0
CLASS
  1
MLEADERSTYLE
  2
AcDbMLeaderStyle
  3
ACDB_MLEADERSTYLE_CLASS
 90
     4095
280
     0
281
     0
  0
CLASS
  1
SUN
  2
AcDbSun
  3
SCENEOE
 90
     1153
280
     0
281
     0
  0
CLASS
  1
ACDBPLACEHOLDER
  2
AcDbPlaceHolder
  3
ObjectDBX Classes
 90
        0
280
     0
281
     0
  0
CLASS
  1
LAYOUT
  2
AcDbLayout
  3
ObjectDBX Classes
 90
        0
280
     0
281
     0
  0
ENDSEC
  0
SECTION
  2
TABLES
  0
TABLE
  2
VPORT
  5
8
330
0
100
AcDbSymbolTable
 70
     1
  0
VPORT
  5
29
330
8
100
AcDbSymbolTableRecord
100
AcDbViewportTableRecord
  2
*Active
 70
     0
 10
0.0
 20
0.0
 11
1.0
 21
1.0
 12
139.7
 22
107.95
 13
0.0
 23
0.0
 14
10.0
 24
10.0
 15
10.0
 25
10.0
 16
0.0
 26
0.0
 36
1.0
 17
0.0
 27
0.0
 37
0.0
 40
215.9
 41
1.2941176471
 42
50.0
 43
0.0
 44
0.0
 50
0.0
 51
0.0
 71
     0
 72
  2000
 73
     1
 74
     3
 75
     0
 76
     0
 77
     0
 78
     0
281
     0
 65
     1
110
0.0
120
0.0
130
0.0
111
1.0
121
0.0
131
0.0
112
0.0
122
1.0
132
0.0
 79
     0
146
0.0
  0
ENDTAB
  0
TABLE
  2
LTYPE
  5
5
330
0
100
AcDbSymbolTable
 70
     6
  0
LTYPE
  5
14
330
5
100
AcDbSymbolTableRecord
100
AcDbLinetypeTableRecord
  2
ByBlock
 70
     0
  3

 72
    65
 73
     0
 40
0.0
  0
LTYPE
  5
15
330
5
100
AcDbSymbolTableRecord
100
AcDbLinetypeTableRecord
  2
ByLayer
 70
     0
  3

 72
    65
 73
     0
 40
0.0
  0
LTYPE
  5
16
330
5
100
AcDbSymbolTableRecord
100
AcDbLinetypeTableRecord
  2
Continuous
 70
     0
  3
Solid line
 72
    65
 73
     0
 40
0.0
  0
LTYPE
  5
6E
330
5
100
AcDbSymbolTableRecord
100
AcDbLinetypeTableRecord
  2
HIDDEN
 70
     0
  3
Hidden __ __ __ __ __ __ __ __ __ __ __ __ __ __
 72
    65
 73
     2
 40
1.905
 49
1.27
 74
     0
 49
-0.635
 74
     0
  0
LTYPE
  5
6F
330
5
100
AcDbSymbolTableRecord
100
AcDbLinetypeTableRecord
  2
PHANTOM
 70
     0
  3
Phantom ______  __  __  ______  __  __  ______
 72
    65
 73
     6
 40
12.7
 49
6.35
 74
     0
 49
-1.27
 74
     0
 49
1.27
 74
     0
 49
-1.27
 74
     0
 49
1.27
 74
     0
 49
-1.27
 74
     0
  0
LTYPE
  5
70
330
5
100
AcDbSymbolTableRecord
100
AcDbLinetypeTableRecord
  2
CENTER
 70
     0
  3
Center ____ _ ____ _ ____ _ ____ _ ____ _ ____
 72
    65
 73
     4
 40
10.16
 49
6.35
 74
     0
 49
-1.27
 74
     0
 49
1.27
 74
     0
 49
-1.27
 74
     0
  0
LTYPE
  5
71
330
5
100
AcDbSymbolTableRecord
100
AcDbLinetypeTableRecord
  2
CENTERX2
 70
     0
  3
Center (2x) ________  __  ________  __  _____
 72
    65
 73
     4
 40
20.32
 49
12.7
 74
     0
 49
-2.54
 74
     0
 49
2.54
 74
     0
 49
-2.54
 74
     0
  0
LTYPE
  5
72
330
5
100
AcDbSymbolTableRecord
100
AcDbLinetypeTableRecord
  2
DOT2
 70
     0
  3
Dot (.5x) ........................................
 72
    65
 73
     2
 40
0.635
 49
0.0
 74
     0
 49
-0.635
 74
     0
  0
ENDTAB
  0
TABLE
  2
LAYER
  5
2
330
0
100
AcDbSymbolTable
 70
     1
  0
LAYER
  5
10
330
2
100
AcDbSymbolTableRecord
100
AcDbLayerTableRecord
  2
0
 70
     0
 62
     7
  6
Continuous
370
    -3
390
F
  0
ENDTAB
  0
TABLE
  2
STYLE
  5
3
330
0
100
AcDbSymbolTable
 70
     1
  0
STYLE
  5
11
330
3
100
AcDbSymbolTableRecord
100
AcDbTextStyleTableRecord
  2
Standard
 70
     0
 40
0.0
 41
1.0
 50
0.0
 71
     0
 42
3.5
  3
txt
  4

  0
ENDTAB
  0
TABLE
  2
VIEW
  5
6
330
0
100
AcDbSymbolTable
 70
     0
  0
ENDTAB
  0
TABLE
  2
UCS
  5
7
330
0
100
AcDbSymbolTable
 70
     0
  0
ENDTAB
  0
TABLE
  2
APPID
  5
9
330
0
100
AcDbSymbolTable
 70
     1
  0
APPID
  5
12
330
9
100
AcDbSymbolTableRecord
100
AcDbRegAppTableRecord
  2
ACAD
 70
     0
  0
ENDTAB
  0
TABLE
  2
DIMSTYLE
  5
A
330
0
100
AcDbSymbolTable
 70
     1
100
AcDbDimStyleTable
  0
DIMSTYLE
105
27
330
A
100
AcDbSymbolTableRecord
100
AcDbDimStyleTableRecord
  2
ISO-25
 70
     0
 41
2.5
 42
0.625
 43
3.75
 44
1.25
 73
     0
 74
     0
 77
     1
 78
     8
140
2.5
141
2.5
143
0.0393700787
147
0.625
171
     3
172
     1
178
     0
271
     2
272
     2
274
     3
278
    44
283
     0
284
     8
340
11
  0
ENDTAB
  0
TABLE
  2
BLOCK_RECORD
  5
1
330
0
100
AcDbSymbolTable
 70
     1
  0
BLOCK_RECORD
  5
1F
330
1
100
AcDbSymbolTableRecord
100
AcDbBlockTableRecord
  2
*Model_Space
340
22
  0
BLOCK_RECORD
  5
1B
330
1
100
AcDbSymbolTableRecord
100
AcDbBlockTableRecord
  2
*Paper_Space
340
1E
  0
BLOCK_RECORD
  5
23
330
1
100
AcDbSymbolTableRecord
100
AcDbBlockTableRecord
  2
*Paper_Space0
340
26
  0
ENDTAB
  0
ENDSEC
  0
SECTION
  2
BLOCKS
  0
BLOCK
  5
20
330
1F
100
AcDbEntity
  8
0
100
AcDbBlockBegin
  2
*Model_Space
 70
     0
 10
0.0
 20
0.0
 30
0.0
  3
*Model_Space
  1

  0
ENDBLK
  5
21
330
1F
100
AcDbEntity
  8
0
100
AcDbBlockEnd
  0
BLOCK
  5
1C
330
1B
100
AcDbEntity
 67
     1
  8
0
100
AcDbBlockBegin
  2
*Paper_Space
 70
     0
 10
0.0
 20
0.0
 30
0.0
  3
*Paper_Space
  1

  0
ENDBLK
  5
1D
330
1B
100
AcDbEntity
 67
     1
  8
0
100
AcDbBlockEnd
  0
BLOCK
  5
24
330
23
100
AcDbEntity
  8
0
100
AcDbBlockBegin
  2
*Paper_Space0
 70
     0
 10
0.0
 20
0.0
 30
0.0
  3
*Paper_Space0
  1

  0
ENDBLK
  5
25
330
23
100
AcDbEntity
  8
0
100
AcDbBlockEnd
  0
ENDSEC
  0
SECTION
  2
ENTITIES
  0
LINE
  5
73
330
1F
100
AcDbEntity
  8
0
  6
Continuous
 62
     7
370
    25
100
AcDbLine
 10
54.4752698887
 20
73.3664799513
 30
0.0
 11
54.4752698887
 21
26.0394680397
 31
0.0
  0
LINE
  5
74
330
1F
100
AcDbEntity
  8
0
  6
Continuous
 62
     7
370
    25
100
AcDbLine
 10
70.2752698887
 20
26.0394680397
 30
0.0
 11
70.2752698887
 21
73.3664799513
 31
0.0
  0
LINE
  5
75
330
1F
100
AcDbEntity
  8
0
  6
Continuous
 62
     7
370
    25
100
AcDbLine
 10
70.2752698887
 20
73.3664799513
 30
0.0
 11
70.2752698887
 21
155.7664799513
 31
0.0
  0
LINE
  5
76
330
1F
100
AcDbEntity
  8
0
  6
Continuous
 62
     7
370
    25
100
AcDbLine
 10
54.4752698887
 20
155.7664799513
 30
0.0
 11
54.4752698887
 21
73.3664799513
 31
0.0
  0
LINE
  5
77
330
1F
100
AcDbEntity
  8
0
  6
Continuous
 62
     7
370
    25
100
AcDbLine
 10
54.4752698887
 20
178.4394680397
 30
0.0
 11
54.4752698887
 21
155.7664799513
 31
0.0
  0
LINE
  5
78
330
1F
100
AcDbEntity
  8
0
  6
Continuous
 62
     7
370
    25
100
AcDbLine
 10
70.2752698887
 20
155.7664799513
 30
0.0
 11
70.2752698887
 21
178.4394680397
 31
0.0
  0
LINE
  5
79
330
1F
100
AcDbEntity
  8
0
  6
Continuous
 62
     7
370
    25
100
AcDbLine
 10
76.3722210377
 20
162.2394680397
 30
0.0
 11
93.5752698887
 21
162.2394680397
 31
0.0
  0
LINE
  5
7A
330
1F
100
AcDbEntity
  8
0
  6
Continuous
 62
     7
370
    25
100
AcDbLine
 10
93.5752698887
 20
194.6394680397
 30
0.0
 11
76.3657116763
 21
194.6394680397
 31
0.0
  0
SPLINE
  5
7B
330
1F
100
AcDbEntity
  8
0
  6
Continuous
 62
     7
370
    25
100
AcDbSpline
210
0.0
220
0.0
230
1.0
 70
     8
 71
     3
 72
     9
 73
     5
 74
     0
 42
0.00000001
 43
0.00000001
 40
0.0
 40
0.0
 40
0.0
 40
0.0
 40
0.5015109964661149
 40
1.0
 40
1.0
 40
1.0
 40
1.0
 10
94.18147981868677
 20
163.9448656717353
 30
0.0
 10
94.25930859705197
 20
164.0796896910783
 30
0.0
 10
94.41449717499664
 20
164.3485253104227
 30
0.0
 10
94.56985442285074
 20
164.6173591104015
 30
0.0
 10
94.64729830252529
 20
164.7513698034691
 30
0.0
  0
LINE
  5
7C
330
1F
100
AcDbEntity
  8
0
  6
Continuous
 62
     7
370
    25
100
AcDbLine
 10
102.9006001966
 20
192.1218515693
 30
0.0
 11
102.7889301624
 21
192.3151909936
 31
0.0
  0
SPLINE
  5
7D
330
1F
100
AcDbEntity
  8
0
  6
Continuous
 62
     7
370
    25
100
AcDbSpline
210
0.0
220
0.0
230
1.0
 70
     8
 71
     3
 72
     9
 73
     5
 74
     0
 42
0.00000001
 43
0.00000001
 40
0.0
 40
0.0
 40
0.0
 40
0.0
 40
0.4576940011969439
 40
1.0
 40
1.0
 40
1.0
 40
1.0
 10
101.7208642345795
 20
164.0130552742126
 30
0.0
 10
101.7859222770629
 20
164.1256964108013
 30
0.0
 10
101.9280653733529
 20
164.3718021851705
 30
0.0
 10
102.0702121066867
 20
164.6179057788417
 30
0.0
 10
102.1472991328838
 20
164.7513692340166
 30
0.0
  0
SPLINE
  5
7E
330
1F
100
AcDbEntity
  8
0
  6
Continuous
 62
     7
370
    25
100
AcDbSpline
210
0.0
220
0.0
230
1.0
 70
     8
 71
     3
 72
     9
 73
     5
 74
     0
 42
0.00000001
 43
0.00000001
 40
0.0
 40
0.0
 40
0.0
 40
0.0
 40
0.5034644913918217
 40
1.0
 40
1.0
 40
1.0
 40
1.0
 10
102.2316374385937
 20
192.9342035541017
 30
0.0
 10
102.1534510174076
 20
192.7988319940758
 30
0.0
 10
101.9981542238444
 20
192.5299519392944
 30
0.0
 10
101.8428534135256
 20
192.2610739759044
 30
0.0
 10
101.7657410466867
 20
192.127566519599
 30
0.0
  0
LINE
  5
7F
330
1F
100
AcDbEntity
  8
0
  6
Continuous
 62
     7
370
    25
100
AcDbLine
 10
102.5125158691
 20
164.756953437
 30
0.0
 11
102.6709051727
 21
164.4827267273
 31
0.0
  0
LINE
  5
80
330
1F
100
AcDbEntity
  8
0
  6
Continuous
 62
     7
370
    25
100
AcDbLine
 10
93.5752698887
 20
163.9394680397
 30
0.0
 11
94.1754036457
 21
163.9394680397
 31
0.0
  0
LINE
  5
81
330
1F
100
AcDbEntity
  8
0
  6
Continuous
 62
     7
370
    25
100
AcDbLine
 10
94.9252733436
 20
192.9394680397
 30
0.0
 11
93.5752698887
 21
192.9394680397
 31
0.0
  0
LINE
  5
82
330
1F
100
AcDbEntity
  8
0
  6
Continuous
 62
     7
370
    25
100
AcDbLine
 10
102.1438863501
 20
164.751369234
 30
0.0
 11
102.5157412225
 21
164.751369234
 31
0.0
  0
LINE
  5
83
330
1F
100
AcDbEntity
  8
0
  6
Continuous
 62
     7
370
    25
100
AcDbLine
 10
94.6438712397
 20
164.7513698035
 30
0.0
 11
94.8153151481
 21
164.7513698035
 31
0.0
  0
LINE
  5
84
330
1F
100
AcDbEntity
  8
0
  6
Continuous
 62
     7
370
    25
100
AcDbLine
 10
140.9752698887
 20
171.2894680397
 30
0.0
 11
142.5802748782
 21
172.5143402685
 31
0.0
  0
LINE
  5
85
330
1F
100
AcDbEntity
  8
0
  6
Continuous
 62
     7
370
    25
100
AcDbLine
 10
142.5802748782
 20
184.3645958108
 30
0.0
 11
140.9752698887
 21
185.5894680397
 31
0.0
  0
ARC
  5
86
330
1F
100
AcDbEntity
  8
0
  6
Continuous
 62
     7
370
    25
100
AcDbCircle
 10
142.1252698887
 20
173.110553703
 30
0.0
 40
0.7500000000000014
100
AcDbArc
 50
307.3493490446
 51
0.0
  0
ARC
  5
87
330
1F
100
AcDbEntity
  8
0
  6
Continuous
 62
     7
370
    25
100
AcDbCircle
 10
142.1252698887
 20
183.7683823763
 30
0.0
 40
0.7500000000000014
100
AcDbArc
 50
0.0
 51
52.6506509554
  0
LINE
  5
88
330
1F
100
AcDbEntity
  8
0
  6
Continuous
 62
     7
370
    25
100
AcDbLine
 10
141.4069236966
 20
182.8148588134
 30
0.0
 11
140.9752698887
 21
182.4350823339
 31
0.0
  0
LINE
  5
89
330
1F
100
AcDbEntity
  8
0
  6
Continuous
 62
     7
370
    25
100
AcDbLine
 10
140.9752698887
 20
174.4438537454
 30
0.0
 11
141.4069236966
 21
174.0640772659
 31
0.0
  0
ARC
  5
8A
330
1F
100
AcDbEntity
  8
0
  6
Continuous
 62
     7
370
    25
100
AcDbCircle
 10
132.9180353009
 20
178.4394680397
 30
0.0
 40
10.63000000000003
100
AcDbArc
 50
339.5062991307
 51
345.842348556
  0
ARC
  5
8B
330
1F
100
AcDbEntity
  8
0
  6
Continuous
 62
     7
370
    25
100
AcDbCircle
 10
132.9180353009
 20
178.4394680397
 30
0.0
 40
10.63000000000003
100
AcDbArc
 50
14.157651444
 51
20.4937008693
  0
LINE
  5
8C
330
1F
100
AcDbEntity
  8
0
  6
Continuous
 62
     7
370
    25
100
AcDbLine
 10
136.1133138459
 20
169.4638099954
 30
0.0
 11
140.4839960919
 21
169.5401005378
 31
0.0
  0
LINE
  5
8D
330
1F
100
AcDbEntity
  8
0
  6
Continuous
 62
     7
370
    25
100
AcDbLine
 10
140.4839960919
 20
187.3388355415
 30
0.0
 11
135.179893632
 21
187.4314189943
 31
0.0
  0
ARC
  5
8E
330
1F
100
AcDbEntity
  8
0
  6
Continuous
 62
     7
370
    25
100
AcDbCircle
 10
140.4752698887
 20
170.0400243854
 30
0.0
 40
0.5000000000000048
100
AcDbArc
 50
271.0
 51
0.0
  0
ARC
  5
8F
330
1F
100
AcDbEntity
  8
0
  6
Continuous
 62
     7
370
    25
100
AcDbCircle
 10
140.4752698887
 20
186.8389116939
 30
0.0
 40
0.5000000000000048
100
AcDbArc
 50
0.0
 51
89.0
  0
SPLINE
  5
90
330
1F
100
AcDbEntity
  8
0
  6
Continuous
 62
     7
370
    25
100
AcDbSpline
210
0.0
220
0.0
230
1.0
 70
     8
 71
     3
 72
    12
 73
     8
 74
     0
 42
0.00000001
 43
0.00000001
 40
0.0
 40
0.0
 40
0.0
 40
0.0
 40
0.0167971611867514
 40
0.3359590551301674
 40
0.599257116873262
 40
0.819486212565655
 40
1.0
 40
1.0
 40
1.0
 40
1.0
 10
133.9183395870439
 20
187.7839965901906
 30
0.0
 10
133.9036560033267
 20
187.7926489003351
 30
0.0
 10
133.6099704896419
 20
187.9657032580646
 30
0.0
 10
133.1854393108613
 20
188.2432028796632
 30
0.0
 10
132.7157212793432
 20
188.5765819446982
 30
0.0
 10
132.4648224356266
 20
188.7983007645277
 30
0.0
 10
132.436891991474
 20
188.8314110002285
 30
0.0
 10
132.4243107817483
 20
188.8463254361446
 30
0.0
  0
ARC
  5
91
330
1F
100
AcDbEntity
  8
0
  6
Continuous
 62
     7
370
    25
100
AcDbCircle
 10
135.2252698887
 20
190.0310230017
 30
0.0
 40
2.599999999999981
100
AcDbArc
 50
239.4420525213
 51
269.0
  0
SPLINE
  5
92
330
1F
100
AcDbEntity
  8
0
  6
Continuous
 62
     7
370
    25
100
AcDbSpline
210
0.0
220
0.0
230
1.0
 70
     8
 71
     3
 72
    13
 73
     9
 74
     0
 42
0.00000001
 43
0.00000001
 40
0.0
 40
0.0
 40
0.0
 40
0.0
 40
0.0970921028208095
 40
0.254384765752386
 40
0.4441311141281598
 40
0.6700687869320415
 40
0.9267606364361518
 40
1.0
 40
1.0
 40
1.0
 40
1.0
 10
132.3984554783549
 20
167.7001447584665
 30
0.0
 10
132.4002195640369
 20
167.702399118083
 30
0.0
 10
132.404841531323
 20
167.7083056205308
 30
0.0
 10
132.5709739372774
 20
167.860313176549
 30
0.0
 10
132.9045898750341
 20
168.1058976012228
 30
0.0
 10
133.4662514050738
 20
168.4620813067178
 30
0.0
 10
134.0146392497959
 20
168.779791117583
 30
0.0
 10
134.3997817602286
 20
168.9861051115977
 30
0.0
 10
134.485277133895
 20
169.0319034629433
 30
0.0
  0
ARC
  5
93
330
1F
100
AcDbEntity
  8
0
  6
Continuous
 62
     7
370
    25
100
AcDbCircle
 10
136.1752698887
 20
165.9143506776
 30
0.0
 40
3.549999999999988
100
AcDbArc
 50
91.0
 51
118.1920130769
  0
ARC
  5
94
330
1F
100
AcDbEntity
  8
0
  6
Continuous
 62
     7
370
    25
100
AcDbCircle
 10
126.6252698887
 20
189.9113576544
 30
0.0
 40
0.5
100
AcDbArc
 50
89.0
 51
180.0
  0
ARC
  5
95
330
1F
100
AcDbEntity
  8
0
  6
Continuous
 62
     7
370
    25
100
AcDbCircle
 10
126.6252698887
 20
166.9675784249
 30
0.0
 40
0.5
100
AcDbArc
 50
180.0
 51
271.0
  0
LINE
  5
96
330
1F
100
AcDbEntity
  8
0
  6
Continuous
 62
     7
370
    25
100
AcDbLine
 10
130.6601747016
 20
190.3410042929
 30
0.0
 11
126.6339960919
 21
190.411281502
 31
0.0
  0
LINE
  5
97
330
1F
100
AcDbEntity
  8
0
  6
Continuous
 62
     7
370
    25
100
AcDbLine
 10
126.6339960919
 20
166.4676545774
 30
0.0
 11
130.6601747016
 21
166.5379317864
 31
0.0
  0
ARC
  5
98
330
1F
100
AcDbEntity
  8
0
  6
Continuous
 62
     7
370
    25
100
AcDbCircle
 10
130.6252698887
 20
188.3413089026
 30
0.0
 40
2.000000000000026
100
AcDbArc
 50
14.6254779684
 51
89.0
  0
SPLINE
  5
99
330
1F
100
AcDbEntity
  8
0
  6
Continuous
 62
     7
370
    25
100
AcDbSpline
210
0.0
220
0.0
230
1.0
 70
     8
 71
     3
 72
     9
 73
     5
 74
     0
 42
0.00000001
 43
0.00000001
 40
0.0
 40
0.0
 40
0.0
 40
0.0
 40
0.1428792602068137
 40
1.0
 40
1.0
 40
1.0
 40
1.0
 10
140.975269888714
 20
173.7198286897974
 30
0.0
 10
140.9816528300552
 20
173.7429674575381
 30
0.0
 10
141.0263265030005
 20
173.904913758962
 30
0.0
 10
141.0976671886286
 20
174.108160656244
 30
0.0
 10
141.1588147698715
 20
174.2823677872031
 30
0.0
  0
SPLINE
  5
9A
330
1F
100
AcDbEntity
  8
0
  6
Continuous
 62
     7
370
    25
100
AcDbSpline
210
0.0
220
0.0
230
1.0
 70
     8
 71
     3
 72
     9
 73
     5
 74
     0
 42
0.00000001
 43
0.00000001
 40
0.0
 40
0.0
 40
0.0
 40
0.0
 40
0.1580914975462187
 40
1.0
 40
1.0
 40
1.0
 40
1.0
 10
141.142742429247
 20
182.5824275691173
 30
0.0
 10
141.1324553095226
 20
182.6156051306274
 30
0.0
 10
141.067384639157
 20
182.8254681658005
 30
0.0
 10
141.0173741471482
 20
183.0102173387569
 30
0.0
 10
140.975269888714
 20
183.1657592382904
 30
0.0
  0
ARC
  5
9B
330
1F
100
AcDbEntity
  8
0
  6
Continuous
 62
     7
370
    25
100
AcDbCircle
 10
130.6252698887
 20
168.5376271767
 30
0.0
 40
2.000000000000001
100
AcDbArc
 50
271.0
 51
334.9885921771
  0
LINE
  5
9C
330
1F
100
AcDbEntity
  8
0
  6
Continuous
 62
     7
370
    25
100
AcDbLine
 10
126.1252698887
 20
184.0894680397
 30
0.0
 11
118.2252698887
 21
184.0894680397
 31
0.0
  0
LINE
  5
9D
330
1F
100
AcDbEntity
  8
0
  6
Continuous
 62
     7
370
    25
100
AcDbLine
 10
118.2252698887
 20
172.7894680397
 30
0.0
 11
126.1252698887
 21
172.7894680397
 31
0.0
  0
LINE
  5
9E
330
1F
100
AcDbEntity
  8
0
  6
Continuous
 62
     7
370
    25
100
AcDbLine
 10
117.0057576936
 20
168.9394680397
 30
0.0
 11
118.2252698887
 21
170.1894680397
 31
0.0
  0
LINE
  5
9F
330
1F
100
AcDbEntity
  8
0
  6
Continuous
 62
     7
370
    25
100
AcDbLine
 10
118.2252698887
 20
186.6894680397
 30
0.0
 11
117.0057576936
 21
187.9394680397
 31
0.0
  0
LINE
  5
A0
330
1F
100
AcDbEntity
  8
0
  6
Continuous
 62
     7
370
    25
100
AcDbLine
 10
111.4303298145
 20
187.8394680397
 30
0.0
 11
110.9641245325
 21
187.8394680397
 31
0.0
  0
SPLINE
  5
A1
330
1F
100
AcDbEntity
  8
0
  6
Continuous
 62
     7
370
    25
100
AcDbSpline
210
0.0
220
0.0
230
1.0
 70
     8
 71
     3
 72
     9
 73
     5
 74
     0
 42
0.00000001
 43
0.00000001
 40
0.0
 40
0.0
 40
0.0
 40
0.0
 40
0.2308149029361558
 40
1.0
 40
1.0
 40
1.0
 40
1.0
 10
110.775269888714
 20
169.3157828550856
 30
0.0
 10
110.7973088291455
 20
169.3539282882976
 30
0.0
 10
110.8927920070126
 20
169.5191924576676
 30
0.0
 10
110.9882990036173
 20
169.6844357849292
 30
0.0
 10
111.0617615620709
 20
169.8115384896481
 30
0.0
  0
SPLINE
  5
A2
330
1F
100
AcDbEntity
  8
0
  6
Continuous
 62
     7
370
    25
100
AcDbSpline
210
0.0
220
0.0
230
1.0
 70
     8
 71
     3
 72
     9
 73
     5
 74
     0
 42
0.00000001
 43
0.00000001
 40
0.0
 40
0.0
 40
0.0
 40
0.0
 40
0.4982449658294387
 40
1.0
 40
1.0
 40
1.0
 40
1.0
 10
111.7673160012262
 20
187.0673995389871
 30
0.0
 10
111.6939361579271
 20
187.1943464280908
 30
0.0
 10
111.5466595202657
 20
187.4491345299483
 30
0.0
 10
111.3994423221365
 20
187.7039835989034
 30
0.0
 10
111.3255753518587
 20
187.8318554022054
 30
0.0
  0
SPLINE
  5
A3
330
1F
100
AcDbEntity
  8
0
  6
Continuous
 62
     7
370
    25
100
AcDbSpline
210
0.0
220
0.0
230
1.0
 70
     8
 71
     3
 72
     9
 73
     5
 74
     0
 42
0.00000001
 43
0.00000001
 40
0.0
 40
0.0
 40
0.0
 40
0.0
 40
0.6441820525844191
 40
0.9999999999999999
 40
0.9999999999999999
 40
0.9999999999999999
 40
0.9999999999999999
 10
111.2193221610024
 20
169.8115587820284
 30
0.0
 10
111.2931147912732
 20
169.6838716024699
 30
0.0
 10
111.4076672380153
 20
169.4856556182676
 30
0.0
 10
111.5222042084393
 20
169.287424028429
 30
0.0
 10
111.5629585181588
 20
169.2168896710197
 30
0.0
  0
LINE
  5
A4
330
1F
100
AcDbEntity
  8
0
  6
Continuous
 62
     7
370
    25
100
AcDbLine
 10
110.9555172564
 20
187.8318506293
 30
0.0
 11
110.7752698887
 21
187.5199004945
 31
0.0
  0
LINE
  5
A5
330
1F
100
AcDbEntity
  8
0
  6
Continuous
 62
     7
370
    25
100
AcDbLine
 10
111.5961227844
 20
169.2103209354
 30
0.0
 11
111.9252698887
 21
169.5394680397
 31
0.0
  0
SPLINE
  5
A6
330
1F
100
AcDbEntity
  8
0
  6
Continuous
 62
     7
370
    25
100
AcDbSpline
210
0.0
220
0.0
230
1.0
 70
     8
 71
     3
 72
     9
 73
     5
 74
     0
 42
0.00000001
 43
0.00000001
 40
0.0
 40
0.0
 40
0.0
 40
0.0
 40
0.5156973194565428
 40
1.0
 40
1.0
 40
1.0
 40
1.0
 10
111.052202899493
 20
169.8032564887621
 30
0.0
 10
111.0817666740601
 20
169.8032607949976
 30
0.0
 10
111.1390944387229
 20
169.8032691453134
 30
0.0
 10
111.1963774250875
 20
169.8032609106381
 30
0.0
 10
111.2241197289333
 20
169.8032569225628
 30
0.0
  0
SPLINE
  5
A7
330
1F
100
AcDbEntity
  8
0
  6
Continuous
 62
     7
370
    25
100
AcDbSpline
210
0.0
220
0.0
230
1.0
 70
     8
 71
     3
 72
     9
 73
     5
 74
     0
 42
0.00000001
 43
0.00000001
 40
0.0
 40
0.0
 40
0.0
 40
0.0
 40
0.5100779247870971
 40
1.0
 40
1.0
 40
1.0
 40
1.0
 10
111.9341481553609
 20
187.0756796137439
 30
0.0
 10
111.9050049259678
 20
187.0756647137599
 30
0.0
 10
111.8478700687687
 20
187.0756355025682
 30
0.0
 10
111.7905927004014
 20
187.0756640400857
 30
0.0
 10
111.7625312532282
 20
187.0756780212455
 30
0.0
  0
LINE
  5
A8
330
1F
100
AcDbEntity
  8
0
  6
Continuous
 62
     7
370
    25
100
AcDbLine
 10
111.9252698887
 20
170.3144680397
 30
0.0
 11
113.4252698887
 21
170.3144680397
 31
0.0
  0
LINE
  5
A9
330
1F
100
AcDbEntity
  8
0
  6
Continuous
 62
     7
370
    25
100
AcDbLine
 10
113.4252698887
 20
186.5644680397
 30
0.0
 11
111.9252698887
 21
186.5644680397
 31
0.0
  0
ARC
  5
AA
330
1F
100
AcDbEntity
  8
0
  6
Continuous
 62
     7
370
    25
100
AcDbCircle
 10
103.0252698887
 20
172.6984796676
 30
0.0
 40
9.134011627906972
100
AcDbArc
 50
270.0
 51
328.0464183091
  0
ARC
  5
AB
330
1F
100
AcDbEntity
  8
0
  6
Continuous
 62
     7
370
    25
100
AcDbCircle
 10
103.0252698887
 20
184.1804564118
 30
0.0
 40
9.134011627906972
100
AcDbArc
 50
31.9535816909
 51
90.0
  0
LINE
  5
AC
330
1F
100
AcDbEntity
  8
0
  6
Continuous
 62
     7
370
    25
100
AcDbLine
 10
94.3806468286
 20
193.1224324739
 30
0.0
 11
94.2749807001
 21
192.9394680397
 31
0.0
  0
SPLINE
  5
AD
330
1F
100
AcDbEntity
  8
0
  6
Continuous
 62
     7
370
    25
100
AcDbSpline
210
0.0
220
0.0
230
1.0
 70
     8
 71
     3
 72
     9
 73
     5
 74
     0
 42
0.00000001
 43
0.00000001
 40
0.0
 40
0.0
 40
0.0
 40
0.0
 40
0.4999972376865703
 40
1.0
 40
1.0
 40
1.0
 40
1.0
 10
94.61549846592706
 20
164.4493677855182
 30
0.0
 10
94.6822145947685
 20
164.3338487053418
 30
0.0
 10
94.81564758961886
 20
164.1028092685821
 30
0.0
 10
94.94907839003
 20
163.8717686374425
 30
0.0
 10
95.01579415881328
 20
163.756247683666
 30
0.0
  0
LINE
  5
AE
330
1F
100
AcDbEntity
  8
0
  6
Continuous
 62
     7
370
    25
100
AcDbLine
 10
94.5441484836
 20
193.1268602754
 30
0.0
 11
94.3853984836
 21
193.1268602754
 31
0.0
  0
ARC
  5
AF
330
1F
100
AcDbEntity
  8
0
  6
Continuous
 62
     7
370
    25
100
AcDbCircle
 10
62.3752698887
 20
26.0394680397
 30
0.0
 40
7.899999999999991
100
AcDbArc
 50
180.0
 51
0.0
  0
ARC
  5
B0
330
1F
100
AcDbEntity
  8
0
  6
Continuous
 62
     7
370
    25
100
AcDbCircle
 10
62.3752698887
 20
178.4394680397
 30
0.0
 40
7.899999999999991
100
AcDbArc
 50
0.0
 51
180.0
  0
ARC
  5
B1
330
1F
100
AcDbEntity
  8
0
  6
Continuous
 62
     7
370
    25
100
AcDbCircle
 10
62.3752698887
 20
26.0394680397
 30
0.0
 40
10.82499999999998
100
AcDbArc
 50
136.8689719021
 51
180.0
  0
ARC
  5
B2
330
1F
100
AcDbEntity
  8
0
  6
Continuous
 62
     7
370
    25
100
AcDbCircle
 10
62.3752698887
 20
26.0394680397
 30
0.0
 40
10.82499999999998
100
AcDbArc
 50
180.0
 51
43.1310280979
  0
LINE
  5
B3
330
1F
100
AcDbEntity
  8
0
  6
Continuous
 62
     7
370
    25
100
AcDbLine
 10
70.1246581528
 20
179.6828097271
 30
0.0
 11
70.1684329126
 21
178.4206932575
 31
0.0
  0
LINE
  5
B4
330
1F
100
AcDbEntity
  8
0
  6
Continuous
 62
     7
370
    25
100
AcDbLine
 10
54.4813508568
 20
178.6841355919
 30
0.0
 11
54.5546956692
 21
179.0497405628
 31
0.0
  0
SPLINE
  5
B5
330
1F
100
AcDbEntity
  8
0
  6
Continuous
 62
     7
370
    25
100
AcDbSpline
210
0.0
220
0.0
230
1.0
 70
     8
 71
     3
 72
     9
 73
     5
 74
     0
 42
0.00000001
 43
0.00000001
 40
0.0
 40
0.0
 40
0.0
 40
0.0
 40
0.4231156651055217
 40
1.0
 40
1.0
 40
1.0
 40
1.0
 10
67.84256157767022
 20
184.0638348210911
 30
0.0
 10
67.95010266774602
 20
183.988769277446
 30
0.0
 10
68.20426742444198
 20
183.8113578747594
 30
0.0
 10
68.39449768980698
 20
183.565721983533
 30
0.0
 10
68.50423854991888
 20
183.4240184857966
 30
0.0
  0
SPLINE
  5
B6
330
1F
100
AcDbEntity
  8
0
  6
Continuous
 62
     7
370
    25
100
AcDbSpline
210
0.0
220
0.0
230
1.0
 70
     8
 71
     3
 72
    57
 73
    53
 74
     0
 42
0.00000001
 43
0.00000001
 40
0.0
 40
0.0
 40
0.0
 40
0.0
 40
0.0625000000000005
 40
0.0625000000000005
 40
0.125000000000001
 40
0.125000000000001
 40
0.1875000000000016
 40
0.1875000000000016
 40
0.2500000000000021
 40
0.2500000000000021
 40
0.2812500000000022
 40
0.2812500000000022
 40
0.3125000000000023
 40
0.3125000000000023
 40
0.3750000000000023
 40
0.3750000000000023
 40
0.3906250000000024
 40
0.3906250000000024
 40
0.4062500000000024
 40
0.4062500000000024
 40
0.4375000000000024
 40
0.4375000000000024
 40
0.4687500000000023
 40
0.4687500000000023
 40
0.4843750000000023
 40
0.4843750000000023
 40
0.5000000000000022
 40
0.5156250000000022
 40
0.5156250000000022
 40
0.5312500000000022
 40
0.5312500000000022
 40
0.5468750000000022
 40
0.5468750000000022
 40
0.5625000000000023
 40
0.5625000000000023
 40
0.6250000000000019
 40
0.6250000000000019
 40
0.6562500000000017
 40
0.6562500000000017
 40
0.6875000000000013
 40
0.6875000000000013
 40
0.7500000000000008
 40
0.7500000000000008
 40
0.7812500000000007
 40
0.7812500000000007
 40
0.8125000000000004
 40
0.8125000000000004
 40
0.8750000000000003
 40
0.8750000000000003
 40
0.9375000000000001
 40
0.9375000000000001
 40
1.0
 40
1.0
 40
1.0
 40
1.0
 10
73.60591225738335
 20
192.4628825306629
 30
0.0
 10
74.59919698803463
 20
192.2484229624115
 30
0.0
 10
75.57646446561066
 20
192.004259728821
 30
0.0
 10
77.50396749061225
 20
191.4503010785032
 30
0.0
 10
78.45416354711443
 20
191.1405706142471
 30
0.0
 10
80.32849641861532
 20
190.4445025275167
 30
0.0
 10
81.25105527139392
 20
190.0585594842597
 30
0.0
 10
83.04739248046242
 20
189.2028545086836
 30
0.0
 10
83.92353185958856
 20
188.732541456938
 30
0.0
 10
85.19759471791626
 20
187.9449371570236
 30
0.0
 10
85.61553959401064
 20
187.6686134647346
 30
0.0
 10
86.43580832266615
 20
187.0833555420591
 30
0.0
 10
86.83962609827678
 20
186.7731806055032
 30
0.0
 10
88.01083752061896
 20
185.7930222194298
 30
0.0
 10
88.73711102545181
 20
185.0777212429782
 30
0.0
 10
89.54515478964457
 20
184.0686823588439
 30
0.0
 10
89.70165914297233
 20
183.8609967366417
 30
0.0
 10
90.00305559329705
 20
183.4322208502709
 30
0.0
 10
90.14795644201257
 20
183.2109553989498
 30
0.0
 10
90.55661388210623
 20
182.5345749778122
 30
0.0
 10
90.79675215588927
 20
182.0640361991354
 30
0.0
 10
91.19799009235729
 20
181.0748353457589
 30
0.0
 10
91.35875570003836
 20
180.5541001639338
 30
0.0
 10
91.52003193352076
 20
179.7542502715695
 30
0.0
 10
91.56058231554923
 20
179.4842369119891
 30
0.0
 10
91.61355135905903
 20
178.9466412966978
 30
0.0
 10
91.63895452570637
 20
178.4089484899542
 30
0.0
 10
91.6093821065067
 20
177.8710618332829
 30
0.0
 10
91.55216630806487
 20
177.3330777133501
 30
0.0
 10
91.50937875473402
 20
177.0626587871687
 30
0.0
 10
91.39804223042547
 20
176.5312585359581
 30
0.0
 10
91.32960209112835
 20
176.269743579545
 30
0.0
 10
91.168939724394
 20
175.7545025213573
 30
0.0
 10
91.07629795767755
 20
175.4999821624169
 30
0.0
 10
90.56666070014356
 20
174.2666821645009
 30
0.0
 10
90.01086717252497
 20
173.386664298584
 30
0.0
 10
89.03113851090347
 20
172.1711078854912
 30
0.0
 10
88.68098056932463
 20
171.7862209785658
 30
0.0
 10
87.95484584406461
 20
171.062267369883
 30
0.0
 10
87.57815023512931
 20
170.7220512403875
 30
0.0
 10
86.41477867585562
 20
169.7540100517794
 30
0.0
 10
85.59523916574146
 20
169.1781335837361
 30
0.0
 10
84.31644469992806
 20
168.3901735345156
 30
0.0
 10
83.88086054957662
 20
168.139888460606
 30
0.0
 10
82.99904776846375
 20
167.6646334876127
 30
0.0
 10
82.5537365477558
 20
167.4400767900386
 30
0.0
 10
81.2057586733371
 20
166.8006251581311
 30
0.0
 10
80.2911631148693
 20
166.4196850646186
 30
0.0
 10
78.43280987411619
 20
165.7313478407405
 30
0.0
 10
77.48904112253261
 20
165.4240917609281
 30
0.0
 10
75.57133462629449
 20
164.8734581608083
 30
0.0
 10
74.5974404274711
 20
164.6301338588911
 30
0.0
 10
73.60591225738334
 20
164.4160535486797
 30
0.0
  0
LINE
  5
B7
330
1F
100
AcDbEntity
  8
0
  6
Continuous
 62
     7
370
    25
100
AcDbLine
 10
93.5752698887
 20
162.2394680397
 30
0.0
 11
93.5752698887
 21
194.6394680397
 31
0.0
  0
LINE
  5
B8
330
1F
100
AcDbEntity
  8
0
  6
Continuous
 62
     7
370
    25
100
AcDbLine
 10
76.3881177028
 20
194.6381374241
 30
0.0
 11
76.3657116763
 21
194.6284206885
 31
0.0
  0
LINE
  5
B9
330
1F
100
AcDbEntity
  8
0
  6
Continuous
 62
     7
370
    25
100
AcDbLine
 10
76.3722210377
 20
162.2432205641
 30
0.0
 11
76.3881177028
 21
162.2407986553
 31
0.0
  0
ARC
  5
BA
330
1F
100
AcDbEntity
  8
0
  6
Continuous
 62
     7
370
    25
100
AcDbCircle
 10
76.5249779147
 20
209.5047209092
 30
0.0
 40
17.29003179958698
100
AcDbArc
 50
243.6488590876
 51
260.280235246
  0
SPLINE
  5
BB
330
1F
100
AcDbEntity
  8
0
  6
Continuous
 62
     7
370
    25
100
AcDbSpline
210
0.0
220
0.0
230
1.0
 70
     8
 71
     3
 72
    11
 73
     7
 74
     0
 42
0.00000001
 43
0.00000001
 40
0.0
 40
0.0
 40
0.0
 40
0.0
 40
0.1122272272845325
 40
0.4549366928136498
 40
0.8008537014399209
 40
1.0
 40
1.0
 40
1.0
 40
1.0
 10
94.17540364570498
 20
164.0261677688822
 30
0.0
 10
94.16945384153219
 20
164.0020435549013
 30
0.0
 10
94.14533505771523
 20
163.904250974698
 30
0.0
 10
94.10103749000866
 20
164.5731400997966
 30
0.0
 10
94.0503020970427
 20
165.7088553909792
 30
0.0
 10
94.02110432943341
 20
166.8906164620115
 30
0.0
 10
94.01043652760389
 20
167.32238895518
 30
0.0
  0
SPLINE
  5
BC
330
1F
100
AcDbEntity
  8
0
  6
Continuous
 62
     7
370
    25
100
AcDbSpline
210
0.0
220
0.0
230
1.0
 70
     8
 71
     3
 72
    12
 73
     8
 74
     0
 42
0.00000001
 43
0.00000001
 40
0.0
 40
0.0
 40
0.0
 40
0.0
 40
0.0905984773349927
 40
0.3401453438333809
 40
0.585624171338092
 40
0.8367447224389002
 40
1.0
 40
1.0
 40
1.0
 40
1.0
 10
93.895401591993
 20
172.8513329946838
 30
0.0
 10
93.88841689618913
 20
173.2225694926254
 30
0.0
 10
93.86219336765241
 20
174.6163497188533
 30
0.0
 10
93.81754931770067
 20
177.3158102970658
 30
0.0
 10
93.76453434296292
 20
180.7176620751505
 30
0.0
 10
93.71300909291871
 20
183.6904423631437
 30
0.0
 10
93.68139378246104
 20
185.3054915790216
 30
0.0
 10
93.66893802146595
 20
185.9417866758288
 30
0.0
  0
SPLINE
  5
BD
330
1F
100
AcDbEntity
  8
0
  6
Continuous
 62
     7
370
    25
100
AcDbSpline
210
0.0
220
0.0
230
1.0
 70
     8
 71
     3
 72
    10
 73
     6
 74
     0
 42
0.00000001
 43
0.00000001
 40
0.0
 40
0.0
 40
0.0
 40
0.0
 40
0.0933023780258963
 40
0.7682512449043578
 40
1.0
 40
1.0
 40
1.0
 40
1.0
 10
93.65655822298852
 20
186.5851680373533
 30
0.0
 10
93.65395173664494
 20
186.7212023380891
 30
0.0
 10
93.63248994305884
 20
187.8413079892123
 30
0.0
 10
93.60708686652089
 20
189.0155637367126
 30
0.0
 10
93.58249487720416
 20
189.9351731324591
 30
0.0
 10
93.57620925036304
 20
190.1702220919727
 30
0.0
  0
LINE
  5
BE
330
1F
100
AcDbEntity
  8
0
  6
Continuous
 62
     7
370
    25
100
AcDbLine
 10
93.5757983679
 20
190.170139782
 30
0.0
 11
94.044959355
 21
189.5133817275
 31
0.0
  0
SPLINE
  5
BF
330
1F
100
AcDbEntity
  8
0
  6
Continuous
 62
     7
370
    25
100
AcDbSpline
210
0.0
220
0.0
230
1.0
 70
     8
 71
     3
 72
    27
 73
    23
 74
     0
 42
0.00000001
 43
0.00000001
 40
0.0
 40
0.0
 40
0.0
 40
0.0
 40
0.0515285379309237
 40
0.1040960246778745
 40
0.1569935992290401
 40
0.2095583656097145
 40
0.2611519373513786
 40
0.3127510520403477
 40
0.3653186984677251
 40
0.4182162726646301
 40
0.4707808786826798
 40
0.522374143486538
 40
0.5739735662071672
 40
0.6265413722770644
 40
0.6794389460803467
 40
0.7320033916978774
 40
0.7835963497128633
 40
0.8351960804313621
 40
0.8877640461058721
 40
0.9406616194761687
 40
0.9932259046552894
 40
1.0
 40
1.0
 40
1.0
 40
1.0
 10
102.1439033840727
 20
164.7515922016285
 30
0.0
 10
102.1319964893751
 20
164.7835819200332
 30
0.0
 10
102.1079426261364
 20
164.8482063524393
 30
0.0
 10
102.0696168313706
 20
165.3693550082363
 30
0.0
 10
102.0307628196067
 20
166.1971165287117
 30
0.0
 10
101.9924251191237
 20
167.3311616626592
 30
0.0
 10
101.956445367126
 20
168.7248493796628
 30
0.0
 10
101.9204497588396
 20
170.3538089959959
 30
0.0
 10
101.8821076562177
 20
172.1955342025332
 30
0.0
 10
101.8432533485986
 20
174.2052102730104
 30
0.0
 10
101.8049159765551
 20
176.3078264347427
 30
0.0
 10
101.7689370831922
 20
178.4446626529376
 30
0.0
 10
101.7329405912717
 20
180.5814224913104
 30
0.0
 10
101.6945982761814
 20
182.6837722604133
 30
0.0
 10
101.6557438294006
 20
184.6928347914372
 30
0.0
 10
101.6174072250343
 20
186.5334741843546
 30
0.0
 10
101.5814273143691
 20
188.1617403142492
 30
0.0
 10
101.5454370278757
 20
189.5527691528299
 30
0.0
 10
101.5070674814695
 20
190.6910408549968
 30
0.0
 10
101.4683145257762
 20
191.4962970096952
 30
0.0
 10
101.4406505142339
 20
191.9229839488302
 30
0.0
 10
101.4268458367082
 20
191.9791894831762
 30
0.0
 10
101.425269888714
 20
191.9856059314379
 30
0.0
  0
SPLINE
  5
C0
330
1F
100
AcDbEntity
  8
0
  6
Continuous
 62
     7
370
    25
100
AcDbSpline
210
0.0
220
0.0
230
1.0
 70
     8
 71
     3
 72
    50
 73
    46
 74
     0
 42
0.00000001
 43
0.00000001
 40
0.0
 40
0.0
 40
0.0
 40
0.0
 40
0.0284475187430945
 40
0.0522203319930536
 40
0.0761400917270586
 40
0.099907043807384
 40
0.1232327519742958
 40
0.1465698242851818
 40
0.1703427091924241
 40
0.1942624681966602
 40
0.2180293472143891
 40
0.2413549187423394
 40
0.2646921298529429
 40
0.2884650864003172
 40
0.3123848446569858
 40
0.3361516505949936
 40
0.3594770855513481
 40
0.3828144354463704
 40
0.4065874636167252
 40
0.4305072211080275
 40
0.4542739539491897
 40
0.4775992524013126
 40
0.5009367410654557
 40
0.524709840841639
 40
0.5486295975497764
 40
0.5723962572769681
 40
0.5957214192922247
 40
0.6190590467101896
 40
0.6428322180750499
 40
0.6667519739822224
 40
0.6905185605783206
 40
0.7138435862240774
 40
0.7371813523805644
 40
0.7609545953169489
 40
0.7848743504053571
 40
0.8086408638532381
 40
0.8319657531968614
 40
0.8553036580765708
 40
0.8790769725673265
 40
0.9029967268191721
 40
0.9267631671017127
 40
0.9500879202105702
 40
0.9734259637982005
 40
0.997199349826175
 40
1.0
 40
1.0
 40
1.0
 40
1.0
 10
94.64387761018936
 20
164.752554418346
 30
0.0
 10
95.27767607346246
 20
164.773760718587
 30
0.0
 10
96.44112257534212
 20
164.8126885438548
 30
0.0
 10
95.98691731741476
 20
165.3746225550438
 30
0.0
 10
96.05245417040278
 20
166.2048092613022
 30
0.0
 10
95.98637698459092
 20
167.3410186346447
 30
0.0
 10
95.95770996035834
 20
168.7366151995099
 30
0.0
 10
95.91973812755106
 20
170.3673100448685
 30
0.0
 10
95.88192033825955
 20
172.2105985348393
 30
0.0
 10
95.84292190782496
 20
174.2212990425392
 30
0.0
 10
95.80463095167582
 20
176.3243265533099
 30
0.0
 10
95.76866982809432
 20
178.4612881485543
 30
0.0
 10
95.73264797000799
 20
180.5979174757572
 30
0.0
 10
95.6942969711519
 20
182.6998594002083
 30
0.0
 10
95.65544291503363
 20
184.7078540588007
 30
0.0
 10
95.617113839914
 20
186.5470590107372
 30
0.0
 10
95.58116365407294
 20
188.1731008077023
 30
0.0
 10
95.5451382269225
 20
189.5640404076667
 30
0.0
 10
95.50678771788898
 20
190.6932036720069
 30
0.0
 10
95.4679334650096
 20
191.5221341515285
 30
0.0
 10
95.42960469859379
 20
192.0200383294409
 30
0.0
 10
95.39365536128025
 20
192.1825631095165
 30
0.0
 10
95.35762906322002
 20
192.0129426787518
 30
0.0
 10
95.31927830698328
 20
191.5078097831466
 30
0.0
 10
95.28042405706887
 20
190.6720546848741
 30
0.0
 10
95.24209554644445
 20
189.5369744477903
 30
0.0
 10
95.20614707117156
 20
188.1407719362331
 30
0.0
 10
95.17011989861533
 20
186.5099585305517
 30
0.0
 10
95.13176889625319
 20
184.6664480450309
 30
0.0
 10
95.0929146490898
 20
182.6556270819156
 30
0.0
 10
95.054586394488
 20
180.5525463673044
 30
0.0
 10
95.0186387808192
 20
178.4155698171192
 30
0.0
 10
94.9826107339016
 20
176.2789565470866
 30
0.0
 10
94.94425948551246
 20
174.1770670026014
 30
0.0
 10
94.90540524101195
 20
172.1692023054092
 30
0.0
 10
94.86707724314547
 20
170.3301909189995
 30
0.0
 10
94.83113048863228
 20
168.7043754665509
 30
0.0
 10
94.79510157508469
 20
167.3136409323406
 30
0.0
 10
94.75675005181681
 20
166.1848783901489
 30
0.0
 10
94.71789591876629
 20
165.3557648485448
 30
0.0
 10
94.67956777658276
 20
164.8600107238808
 30
0.0
 10
94.64362334946154
 20
164.691140795906
 30
0.0
 10
94.60758807268924
 20
164.8860388726644
 30
0.0
 10
94.58065380158374
 20
165.1744328257231
 30
0.0
 10
94.5662367197866
 20
165.4897180308211
 30
0.0
 10
94.56471729675525
 20
165.5229460868739
 30
0.0
  0
SPLINE
  5
C1
330
1F
100
AcDbEntity
  8
0
  6
Continuous
 62
     7
370
    25
100
AcDbSpline
210
0.0
220
0.0
230
1.0
 70
     8
 71
     3
 72
    12
 73
     8
 74
     0
 42
0.00000001
 43
0.00000001
 40
0.0
 40
0.0
 40
0.0
 40
0.0
 40
0.2342640849254553
 40
0.4754567751216083
 40
0.7167925825372544
 40
0.962628769256193
 40
1.0
 40
1.0
 40
1.0
 40
1.0
 10
94.34105533811588
 20
174.3457276816149
 30
0.0
 10
94.32881125430129
 20
175.009571806286
 30
0.0
 10
94.3039609550902
 20
176.3568939397662
 30
0.0
 10
94.26861237227247
 20
178.4686878564738
 30
0.0
 10
94.23256865501578
 20
180.5943763291409
 30
0.0
 10
94.20519483897458
 20
182.1208417745996
 30
0.0
 10
94.19033570934118
 20
182.8844212451777
 30
0.0
 10
94.18837494162136
 20
182.9851809810697
 30
0.0
  0
SPLINE
  5
C2
330
1F
100
AcDbEntity
  8
0
  6
Continuous
 62
     7
370
    25
100
AcDbSpline
210
0.0
220
0.0
230
1.0
 70
     8
 71
     3
 72
    27
 73
    23
 74
     0
 42
0.00000001
 43
0.00000001
 40
0.0
 40
0.0
 40
0.0
 40
0.0
 40
0.0408633052577798
 40
0.0916401885335679
 40
0.1427359153223731
 40
0.1935101698209109
 40
0.2433463109127252
 40
0.2931878083293831
 40
0.3439648459093578
 40
0.3950605723556901
 40
0.4458346718905409
 40
0.4956705163790678
 40
0.5455123114564725
 40
0.5962895033039882
 40
0.6473852293697941
 40
0.6981591739043257
 40
0.7479947219335426
 40
0.7978368146390278
 40
0.8486141607174387
 40
0.8997098863646661
 40
0.9504836758622465
 40
1.0
 40
1.0
 40
1.0
 40
1.0
 10
102.5124493420301
 20
164.7810945280786
 30
0.0
 10
102.5026654690881
 20
164.8091060739116
 30
0.0
 10
102.4807241220695
 20
164.871924862677
 30
0.0
 10
102.4446069818979
 20
165.3713858138736
 30
0.0
 10
102.4057654071376
 20
166.1965754122866
 30
0.0
 10
102.3674244002602
 20
167.3313046145604
 30
0.0
 10
102.3314455188868
 20
168.724813041728
 30
0.0
 10
102.2954496745276
 20
170.3538208922084
 30
0.0
 10
102.2571076336384
 20
172.1955331984493
 30
0.0
 10
102.2182533078944
 20
174.2052130256487
 30
0.0
 10
102.1799159413458
 20
176.3078281887669
 30
0.0
 10
102.1439370470219
 20
178.4446652522821
 30
0.0
 10
102.1079405608509
 20
180.581423037327
 30
0.0
 10
102.0695982066679
 20
182.6837804816163
 30
0.0
 10
102.0307438990073
 20
184.6928140602361
 30
0.0
 10
101.992406778803
 20
186.5335597512995
 30
0.0
 10
101.9564287607003
 20
188.1614359239227
 30
0.0
 10
101.9204314008275
 20
189.5539226910774
 30
0.0
 10
101.8820887747424
 20
190.6866404190689
 30
0.0
 10
101.8432345569632
 20
191.5127850333874
 30
0.0
 10
101.8049779540557
 20
192.0316701883748
 30
0.0
 10
101.7809922685858
 20
192.0951701527064
 30
0.0
 10
101.7691497954512
 20
192.1265220447584
 30
0.0
  0
SPLINE
  5
C3
330
1F
100
AcDbEntity
  8
0
  6
Continuous
 62
     7
370
    25
100
AcDbSpline
210
0.0
220
0.0
230
1.0
 70
     8
 71
     3
 72
    11
 73
     7
 74
     0
 42
0.00000001
 43
0.00000001
 40
0.0
 40
0.0
 40
0.0
 40
0.0
 40
0.199172557194173
 40
0.5140843693167662
 40
0.8291831174622272
 40
0.9999999999999999
 40
0.9999999999999999
 40
0.9999999999999999
 40
0.9999999999999999
 10
94.70336091462144
 20
175.0449573096816
 30
0.0
 10
94.69540418230329
 20
175.4779842812112
 30
0.0
 10
94.67486705724336
 20
176.5956703755807
 30
0.0
 10
94.64359920403584
 20
178.4651455750636
 30
0.0
 10
94.61336197707668
 20
180.2717541846859
 30
0.0
 10
94.5939546345314
 20
181.3275417739977
 30
0.0
 10
94.58713225314953
 20
181.6986892186163
 30
0.0
  0
ELLIPSE
  5
C4
330
1F
100
AcDbEntity
  8
0
  6
Continuous
 62
     7
370
    25
100
AcDbEllipse
 10
101.9557085805
 20
178.4394680397
 30
0.0
 11
-7.401257687792865
 21
14.35777723298279
 31
0.0
210
0.0
220
0.0
230
1.0
 40
0.2737224856
 41
0.1519163654195853
 42
0.488142436878767
  0
ELLIPSE
  5
C5
330
1F
100
AcDbEntity
  8
0
  6
Continuous
 62
     7
370
    25
100
AcDbEllipse
 10
86.5171331324
 20
178.4394680397
 30
0.0
 11
7.392868934794834
 21
14.35826292490984
 31
0.0
210
0.0
220
0.0
230
1.0
 40
0.2735670702
 41
6.05055539832775
 42
6.131028995319409
  0
LINE
  5
C6
330
1F
100
AcDbEntity
  8
0
  6
Continuous
 62
     7
370
    25
100
AcDbLine
 10
94.0449474751
 20
192.3253015836
 30
0.0
 11
94.4199474867
 21
192.3253015834
 31
0.0
  0
LINE
  5
C7
330
1F
100
AcDbEntity
  8
0
  6
Continuous
 62
     7
370
    25
100
AcDbLine
 10
94.0449474751
 20
192.3253015836
 30
0.0
 11
94.044959355
 21
189.5133817275
 31
0.0
  0
LINE
  5
C8
330
1F
100
AcDbEntity
  8
0
  6
Continuous
 62
     7
370
    25
100
AcDbLine
 10
94.4199474867
 20
192.3253015834
 30
0.0
 11
94.4199537007
 21
190.8544587592
 31
0.0
  0
ARC
  5
C9
330
1F
100
AcDbEntity
  8
0
  6
Continuous
 62
     7
370
    25
100
AcDbCircle
 10
76.3824788791
 20
147.2543255659
 30
0.0
 40
14.9864741502332
100
AcDbArc
 50
89.97844184
 51
114.1876193214
  0
SPLINE
  5
CA
330
1F
100
AcDbEntity
  8
0
  6
Continuous
 62
     7
370
    25
100
AcDbSpline
210
0.0
220
0.0
230
1.0
 70
     8
 71
     3
 72
    16
 73
    12
 74
     0
 42
0.00000001
 43
0.00000001
 40
0.0
 40
0.0
 40
0.0
 40
0.0
 40
0.2500000000000024
 40
0.2500000000000024
 40
0.5000000000000049
 40
0.5000000000000049
 40
0.6250000000000037
 40
0.6250000000000037
 40
0.7500000000000024
 40
0.7500000000000024
 40
1.0
 40
1.0
 40
1.0
 40
1.0
 10
68.85043079213784
 20
194.0112859738519
 30
0.0
 10
69.0809534681208
 20
194.3250138870607
 30
0.0
 10
69.2716038596964
 20
194.6060793671522
 30
0.0
 10
69.59743426691772
 20
195.0953481438432
 30
0.0
 10
69.73227534295236
 20
195.3036954197011
 30
0.0
 10
69.9002311514964
 20
195.5559946041458
 30
0.0
 10
69.95050728444039
 20
195.6301463321831
 30
0.0
 10
70.03884221697918
 20
195.7554939382903
 30
0.0
 10
70.07710273343348
 20
195.8070076871968
 30
0.0
 10
70.17541971842718
 20
195.9280132349946
 30
0.0
 10
70.21918717922576
 20
195.9641247897784
 30
0.0
 10
70.24213181941516
 20
195.9538188230514
 30
0.0
  0
ARC
  5
CB
330
1F
100
AcDbEntity
  8
0
  6
Continuous
 62
     7
370
    25
100
AcDbCircle
 10
76.3824788791
 20
209.6246105135
 30
0.0
 40
14.98647415023397
100
AcDbArc
 50
245.8123806786
 51
270.02155816
  0
ARC
  5
CC
330
1F
100
AcDbEntity
  8
0
  6
Continuous
 62
     7
370
    25
100
AcDbCircle
 10
62.3752698887
 20
178.4394680397
 30
0.0
 40
19.2
100
AcDbArc
 50
65.8119747904
 51
245.7035220052
  0
LINE
  5
CD
330
1F
100
AcDbEntity
  8
0
  6
Continuous
 62
     7
370
    25
100
AcDbLine
 10
70.2421318194
 20
195.9538188231
 30
0.0
 11
70.2421525537
 21
195.9538095099
 31
0.0
  0
ARC
  5
CE
330
1F
100
AcDbEntity
  8
0
  6
Continuous
 62
     7
370
    25
100
AcDbCircle
 10
62.3752698887
 20
178.4394680397
 30
0.0
 40
25.375
100
AcDbArc
 50
39.6743748818
 51
251.8605962769
  0
ARC
  5
CF
330
1F
100
AcDbEntity
  8
0
  6
Continuous
 62
     7
370
    25
100
AcDbCircle
 10
62.3752698887
 20
178.4394680397
 30
0.0
 40
25.37500000000001
100
AcDbArc
 50
288.1394037231
 51
320.3256251182
  0
ARC
  5
D0
330
1F
100
AcDbEntity
  8
0
  6
Continuous
 62
     7
370
    25
100
AcDbCircle
 10
62.3752698887
 20
26.0394680397
 30
0.0
 40
11.55000000000001
100
AcDbArc
 50
133.1556534408
 51
274.9657006069
  0
ARC
  5
D1
330
1F
100
AcDbEntity
  8
0
  6
Continuous
 62
     7
370
    25
100
AcDbCircle
 10
62.3752698887
 20
26.0394680397
 30
0.0
 40
11.55
100
AcDbArc
 50
274.9657006069
 51
46.8443465592
  0
ARC
  5
D2
330
1F
100
AcDbEntity
  8
0
  6
Continuous
 62
     7
370
    25
100
AcDbCircle
 10
54.3522908316
 20
172.8992237265
 30
0.0
 40
0.099999999999984
100
AcDbArc
 50
34.6269032223
 51
109.8647129029
  0
ARC
  5
D3
330
1F
100
AcDbEntity
  8
0
  6
Continuous
 62
     7
370
    25
100
AcDbCircle
 10
62.3752698887
 20
178.4394680397
 30
0.0
 40
9.65
100
AcDbArc
 50
324.9501653321
 51
211.6883360596
  0
ARC
  5
D4
330
1F
100
AcDbEntity
  8
0
  6
Continuous
 62
     7
370
    25
100
AcDbCircle
 10
54.0788187623
 20
173.3178082787
 30
0.0
 40
0.1000000000000092
100
AcDbArc
 50
316.450526379
 51
31.6883360596
  0
ARC
  5
D5
330
1F
100
AcDbEntity
  8
0
  6
Continuous
 62
     7
370
    25
100
AcDbCircle
 10
62.3752698887
 20
178.4394680397
 30
0.0
 40
9.924999999999995
100
AcDbArc
 50
322.7469493593
 51
217.2530506407
  0
ARC
  5
D6
330
1F
100
AcDbEntity
  8
0
  6
Continuous
 62
     7
370
    25
100
AcDbCircle
 10
62.3752698887
 20
178.4394680397
 30
0.0
 40
9.725000000000009
100
AcDbArc
 50
324.3251241983
 51
215.6748758017
  0
ARC
  5
D7
330
1F
100
AcDbEntity
  8
0
  6
Continuous
 62
     7
370
    25
100
AcDbCircle
 10
62.3752698887
 20
178.4394680397
 30
0.0
 40
14.225
100
AcDbArc
 50
303.7355336397
 51
223.2235523034
  0
LWPOLYLINE
  5
D8
330
1F
100
AcDbEntity
  8
0
  6
Continuous
 62
     7
370
    25
100
AcDbPolyline
 90
        3
 70
   128
 43
0.0
 10
54.4752698887
 20
166.6098177912
 10
53.4327683031
 20
167.3768150852
 10
52.0096948625
 20
168.6975237073
  0
LINE
  5
D9
330
1F
100
AcDbEntity
  8
0
  6
Continuous
 62
     7
370
    25
100
AcDbLine
 10
70.2500498027
 20
190.5761241272
 30
0.0
 11
70.1180176216
 21
190.3726353705
 31
0.0
  0
SPLINE
  5
DA
330
1F
100
AcDbEntity
  8
0
  6
Continuous
 62
     7
370
    25
100
AcDbSpline
210
0.0
220
0.0
230
1.0
 70
     8
 71
     3
 72
    11
 73
     7
 74
     0
 42
0.00000001
 43
0.00000001
 40
0.0
 40
0.0
 40
0.0
 40
0.0
 40
0.1446702591042557
 40
0.3907520209323692
 40
0.5962314811354859
 40
0.9999999999999999
 40
0.9999999999999999
 40
0.9999999999999999
 40
0.9999999999999999
 10
74.97659951688443
 20
185.5470042712814
 30
0.0
 10
74.77748162036929
 20
185.8145022312769
 30
0.0
 10
74.2396674148177
 20
186.5370098780504
 30
0.0
 10
73.35008946086569
 20
187.5868039901155
 30
0.0
 10
72.00728217478073
 20
189.0334498410041
 30
0.0
 10
70.95044818084733
 20
189.9612443963296
 30
0.0
 10
70.25004980272028
 20
190.5761241272194
 30
0.0
  0
LINE
  5
DB
330
1F
100
AcDbEntity
  8
0
  6
Continuous
 62
     7
370
    25
100
AcDbLine
 10
74.7653198299
 20
185.4278360506
 30
0.0
 11
74.9765995169
 21
185.5470042713
 31
0.0
  0
LINE
  5
DC
330
1F
100
AcDbEntity
  8
0
  6
Continuous
 62
     7
370
    25
100
AcDbLine
 10
55.8020073569
 20
191.3275555382
 30
0.0
 11
55.9122176991
 21
191.1114679369
 31
0.0
  0
SPLINE
  5
DD
330
1F
100
AcDbEntity
  8
0
  6
Continuous
 62
     7
370
    25
100
AcDbSpline
210
0.0
220
0.0
230
1.0
 70
     8
 71
     3
 72
    11
 73
     7
 74
     0
 42
0.00000001
 43
0.00000001
 40
0.0
 40
0.0
 40
0.0
 40
0.0
 40
0.1446702591042559
 40
0.3907520209323661
 40
0.5962314811354594
 40
1.0
 40
1.0
 40
1.0
 40
1.0
 10
62.52062776790632
 20
192.9063077349333
 30
0.0
 10
62.18940879083213
 20
192.8676155582008
 30
0.0
 10
61.29479171152198
 20
192.7631086170638
 30
0.0
 10
59.94085436475437
 20
192.5176085663273
 30
0.0
 10
58.01661866456298
 20
192.0780262696352
 30
0.0
 10
56.68470801319153
 20
191.6266784609686
 30
0.0
 10
55.80200735690514
 20
191.3275555381861
 30
0.0
  0
LINE
  5
DE
330
1F
100
AcDbEntity
  8
0
  6
Continuous
 62
     7
370
    25
100
AcDbLine
 10
62.5206277679
 20
192.9063077349
 30
0.0
 11
62.5181906309
 21
192.6637500483
 31
0.0
  0
LINE
  5
DF
330
1F
100
AcDbEntity
  8
0
  6
Continuous
 62
     7
370
    25
100
AcDbLine
 10
47.9272274429
 20
179.1908994506
 30
0.0
 11
48.1694699662
 21
179.1783006061
 31
0.0
  0
SPLINE
  5
E0
330
1F
100
AcDbEntity
  8
0
  6
Continuous
 62
     7
370
    25
100
AcDbSpline
210
0.0
220
0.0
230
1.0
 70
     8
 71
     3
 72
    11
 73
     7
 74
     0
 42
0.00000001
 43
0.00000001
 40
0.0
 40
0.0
 40
0.0
 40
0.0
 40
0.1446702591042558
 40
0.3907520209323621
 40
0.5962314811354645
 40
1.0
 40
1.0
 40
1.0
 40
1.0
 10
49.91929813973588
 20
185.7987715033229
 30
0.0
 10
49.78719705917684
 20
185.4925813665949
 30
0.0
 10
49.43039418541829
 20
184.6655667786844
 30
0.0
 10
48.96603479260261
 20
183.3702726158829
 30
0.0
 10
48.38460637849622
 20
181.4840444683021
 30
0.0
 10
48.10952972105816
 20
180.1049021043101
 30
0.0
 10
47.92722744289887
 20
179.1908994506377
 30
0.0
  0
LINE
  5
E1
330
1F
100
AcDbEntity
  8
0
  6
Continuous
 62
     7
370
    25
100
AcDbLine
 10
49.9192981397
 20
185.7987715033
 30
0.0
 11
50.1281406897
 21
185.6753820374
 31
0.0
  0
SPLINE
  5
E2
330
1F
100
AcDbEntity
  8
0
  6
Continuous
 62
     7
370
    25
100
AcDbSpline
210
0.0
220
0.0
230
1.0
 70
     8
 71
     3
 72
    11
 73
     7
 74
     0
 42
0.00000001
 43
0.00000001
 40
0.0
 40
0.0
 40
0.0
 40
0.0
 40
0.1446702591042542
 40
0.3907520209323654
 40
0.5962314811354789
 40
1.0
 40
1.0
 40
1.0
 40
1.0
 10
49.77394026054358
 20
171.3319318080606
 30
0.0
 10
49.97305815705873
 20
171.0644338480651
 30
0.0
 10
50.51087236261032
 20
170.3419262012916
 30
0.0
 10
51.40045031656232
 20
169.2921320892266
 30
0.0
 10
52.74325760264733
 20
167.8454862383379
 30
0.0
 10
53.80009159658071
 20
166.9176916830124
 30
0.0
 10
54.50048997470778
 20
166.3028119521225
 30
0.0
  0
LINE
  5
E3
330
1F
100
AcDbEntity
  8
0
  6
Continuous
 62
     7
370
    25
100
AcDbLine
 10
49.7739402605
 20
171.3319318081
 30
0.0
 11
49.9852199476
 21
171.4511000288
 31
0.0
  0
LINE
  5
E4
330
1F
100
AcDbEntity
  8
0
  6
Continuous
 62
     7
370
    25
100
AcDbLine
 10
76.5810698112
 20
177.7006354733
 30
0.0
 11
76.8233123345
 21
177.6880366287
 31
0.0
  0
SPLINE
  5
E5
330
1F
100
AcDbEntity
  8
0
  6
Continuous
 62
     7
370
    25
100
AcDbSpline
210
0.0
220
0.0
230
1.0
 70
     8
 71
     3
 72
    11
 73
     7
 74
     0
 42
0.00000001
 43
0.00000001
 40
0.0
 40
0.0
 40
0.0
 40
0.0
 40
0.1446702591042547
 40
0.3907520209323575
 40
0.596231481135475
 40
1.0
 40
1.0
 40
1.0
 40
1.0
 10
74.83124163769214
 20
171.0801645760191
 30
0.0
 10
74.9633427182512
 20
171.3863547127471
 30
0.0
 10
75.32014559200975
 20
172.2133693006577
 30
0.0
 10
75.78450498482542
 20
173.5086634634592
 30
0.0
 10
76.36593339893183
 20
175.39489161104
 30
0.0
 10
76.6410100563699
 20
176.774033975032
 30
0.0
 10
76.82331233452918
 20
177.6880366287044
 30
0.0
  0
LINE
  5
E6
330
1F
100
AcDbEntity
  8
0
  6
Continuous
 62
     7
370
    25
100
AcDbLine
 10
74.6223990877
 20
171.2035540419
 30
0.0
 11
74.8312416377
 21
171.080164576
 31
0.0
  0
SPLINE
  5
E7
330
1F
100
AcDbEntity
  8
0
  6
Continuous
 62
     7
370
    25
100
AcDbSpline
210
0.0
220
0.0
230
1.0
 70
     8
 71
     3
 72
     9
 73
     5
 74
     0
 42
0.00000001
 43
0.00000001
 40
0.0
 40
0.0
 40
0.0
 40
0.0
 40
0.5863847898283578
 40
1.0
 40
1.0
 40
1.0
 40
1.0
 10
74.10527106021541
 20
169.5381929896247
 30
0.0
 10
74.2528476066479
 20
169.8373310313134
 30
0.0
 10
74.50451945931599
 20
170.3474705282402
 30
0.0
 10
74.7356447160515
 20
170.8657827552924
 30
0.0
 10
74.83124163769214
 20
171.0801645760191
 30
0.0
  0
ARC
  5
E8
330
1F
100
AcDbEntity
  8
0
  6
Continuous
 62
     7
370
    25
100
AcDbCircle
 10
62.3752698887
 20
178.4394680397
 30
0.0
 40
14.72500000000001
100
AcDbArc
 50
303.6400367407
 51
322.8070678661
  0
SPLINE
  5
E9
330
1F
100
AcDbEntity
  8
0
  6
Continuous
 62
     7
370
    25
100
AcDbSpline
210
0.0
220
0.0
230
1.0
 70
     8
 71
     3
 72
     9
 73
     5
 74
     0
 42
0.00000001
 43
0.00000001
 40
0.0
 40
0.0
 40
0.0
 40
0.0
 40
0.5862283062032674
 40
1.0
 40
1.0
 40
1.0
 40
1.0
 10
47.92722744289887
 20
179.1908994506377
 30
0.0
 10
47.8729748056429
 20
178.8625735956219
 30
0.0
 10
47.78042956911666
 20
178.3025087684179
 30
0.0
 10
47.70937595391906
 20
177.7381319078835
 30
0.0
 10
47.67997597920836
 20
177.5046087383605
 30
0.0
  0
SPLINE
  5
EA
330
1F
100
AcDbEntity
  8
0
  6
Continuous
 62
     7
370
    25
100
AcDbSpline
210
0.0
220
0.0
230
1.0
 70
     8
 71
     3
 72
     9
 73
     5
 74
     0
 42
0.00000001
 43
0.00000001
 40
0.0
 40
0.0
 40
0.0
 40
0.0
 40
0.5863847898283638
 40
1.0
 40
1.0
 40
1.0
 40
1.0
 10
48.80153898355065
 20
172.7316265637527
 30
0.0
 10
48.98681185367508
 20
172.4542525046951
 30
0.0
 10
49.30276969115353
 20
171.9812285384036
 30
0.0
 10
49.63607861850501
 20
171.5219120810883
 30
0.0
 10
49.77394026054358
 20
171.3319318080606
 30
0.0
  0
ARC
  5
EB
330
1F
100
AcDbEntity
  8
0
  6
Continuous
 62
     7
370
    25
100
AcDbCircle
 10
62.3752698887
 20
178.4394680397
 30
0.0
 40
14.72500000000001
100
AcDbArc
 50
183.6400367407
 51
202.8070678661
  0
SPLINE
  5
EC
330
1F
100
AcDbEntity
  8
0
  6
Continuous
 62
     7
370
    25
100
AcDbSpline
210
0.0
220
0.0
230
1.0
 70
     8
 71
     3
 72
     9
 73
     5
 74
     0
 42
0.00000001
 43
0.00000001
 40
0.0
 40
0.0
 40
0.0
 40
0.0
 40
0.5862283062032875
 40
1.0
 40
1.0
 40
1.0
 40
1.0
 10
76.82331233452918
 20
177.6880366287044
 30
0.0
 10
76.87756497178512
 20
178.0163624837202
 30
0.0
 10
76.97011020831137
 20
178.5764273109242
 30
0.0
 10
77.04116382350897
 20
179.1408041714586
 30
0.0
 10
77.07056379821965
 20
179.3743273409815
 30
0.0
  0
SPLINE
  5
ED
330
1F
100
AcDbEntity
  8
0
  6
Continuous
 62
     7
370
    25
100
AcDbSpline
210
0.0
220
0.0
230
1.0
 70
     8
 71
     3
 72
     9
 73
     5
 74
     0
 42
0.00000001
 43
0.00000001
 40
0.0
 40
0.0
 40
0.0
 40
0.0
 40
0.5863847898283613
 40
1.0
 40
1.0
 40
1.0
 40
1.0
 10
75.94900079387737
 20
184.1473095155893
 30
0.0
 10
75.76372792375295
 20
184.4246835746469
 30
0.0
 10
75.4477700862745
 20
184.8977075409384
 30
0.0
 10
75.114461158923
 20
185.3570239982537
 30
0.0
 10
74.97659951688445
 20
185.5470042712814
 30
0.0
  0
ARC
  5
EE
330
1F
100
AcDbEntity
  8
0
  6
Continuous
 62
     7
370
    25
100
AcDbCircle
 10
62.3752698887
 20
178.4394680397
 30
0.0
 40
14.72500000000003
100
AcDbArc
 50
3.6400367407
 51
22.8070678661
  0
SPLINE
  5
EF
330
1F
100
AcDbEntity
  8
0
  6
Continuous
 62
     7
370
    25
100
AcDbSpline
210
0.0
220
0.0
230
1.0
 70
     8
 71
     3
 72
     9
 73
     5
 74
     0
 42
0.00000001
 43
0.00000001
 40
0.0
 40
0.0
 40
0.0
 40
0.0
 40
0.5862283062032709
 40
0.9999999999999999
 40
0.9999999999999999
 40
0.9999999999999999
 40
0.9999999999999999
 10
70.25004980272028
 20
190.5761241272194
 30
0.0
 10
69.99283759018532
 20
190.7872712168133
 30
0.0
 10
69.55407984032365
 20
191.1474501562463
 30
0.0
 10
69.10084194939157
 20
191.4911728223053
 30
0.0
 10
68.91330493956774
 20
191.6333955320369
 30
0.0
  0
SPLINE
  5
F0
330
1F
100
AcDbEntity
  8
0
  6
Continuous
 62
     7
370
    25
100
AcDbSpline
210
0.0
220
0.0
230
1.0
 70
     8
 71
     3
 72
     9
 73
     5
 74
     0
 42
0.00000001
 43
0.00000001
 40
0.0
 40
0.0
 40
0.0
 40
0.0
 40
0.5863847898283634
 40
1.0
 40
1.0
 40
1.0
 40
1.0
 10
64.21899962237597
 20
193.0485845656356
 30
0.0
 10
63.88615020581906
 20
193.0268205830046
 30
0.0
 10
63.31852051567255
 20
192.9897050523692
 30
0.0
 10
62.75408633158553
 20
192.9307092826323
 30
0.0
 10
62.52062776790632
 20
192.9063077349333
 30
0.0
  0
ARC
  5
F1
330
1F
100
AcDbEntity
  8
0
  6
Continuous
 62
     7
370
    25
100
AcDbCircle
 10
62.3752698887
 20
178.4394680397
 30
0.0
 40
14.72500000000002
100
AcDbArc
 50
63.6400367407
 51
82.8070678661
  0
SPLINE
  5
F2
330
1F
100
AcDbEntity
  8
0
  6
Continuous
 62
     7
370
    25
100
AcDbSpline
210
0.0
220
0.0
230
1.0
 70
     8
 71
     3
 72
     9
 73
     5
 74
     0
 42
0.00000001
 43
0.00000001
 40
0.0
 40
0.0
 40
0.0
 40
0.0
 40
0.5862283062032693
 40
1.0
 40
1.0
 40
1.0
 40
1.0
 10
55.80200735690514
 20
191.3275555381861
 30
0.0
 10
55.49054250711422
 20
191.2103767727641
 30
0.0
 10
54.95923952072631
 20
191.0104908849931
 30
0.0
 10
54.43494801459663
 20
190.7898366905178
 30
0.0
 10
54.21801103006211
 20
190.6985362307263
 30
0.0
  0
SPLINE
  5
F3
330
1F
100
AcDbEntity
  8
0
  6
Continuous
 62
     7
370
    25
100
AcDbSpline
210
0.0
220
0.0
230
1.0
 70
     8
 71
     3
 72
     9
 73
     5
 74
     0
 42
0.00000001
 43
0.00000001
 40
0.0
 40
0.0
 40
0.0
 40
0.0
 40
0.5863847898283643
 40
0.9999999999999999
 40
0.9999999999999999
 40
0.9999999999999999
 40
0.9999999999999999
 10
50.6452687172126
 20
187.3407430897173
 30
0.0
 10
50.49769217078012
 20
187.0416050480286
 30
0.0
 10
50.24602031811206
 20
186.5314655511018
 30
0.0
 10
50.01489506137652
 20
186.0131533240496
 30
0.0
 10
49.91929813973588
 20
185.7987715033229
 30
0.0
  0
ARC
  5
F4
330
1F
100
AcDbEntity
  8
0
  6
Continuous
 62
     7
370
    25
100
AcDbCircle
 10
62.3752698887
 20
178.4394680397
 30
0.0
 40
14.72500000000003
100
AcDbArc
 50
123.6400367407
 51
142.8070678661
  0
SPLINE
  5
F5
330
1F
100
AcDbEntity
  8
0
  6
Continuous
 62
     7
370
    25
100
AcDbSpline
210
0.0
220
0.0
230
1.0
 70
    24
 71
     3
 72
    12
 73
     8
 74
     0
 42
0.00000001
 43
0.00000001
 40
0.0
 40
0.0
 40
0.0
 40
0.0
 40
0.3013828945620944
 40
0.4108442493795586
 40
0.6247185195336503
 40
0.6986171054378635
 40
0.9999999999999999
 40
0.9999999999999999
 40
0.9999999999999999
 40
0.9999999999999999
 10
54.27626702758732
 20
166.1763433359016
 30
0.0
 10
53.81116357574597
 20
166.671220391296
 30
0.0
 10
53.17713595837488
 20
167.3458352948859
 30
0.0
 10
52.20842000984012
 20
168.3765636075366
 30
0.0
 10
51.59129520489131
 20
169.033193664946
 30
0.0
 10
50.67804497837029
 20
170.0049056166627
 30
0.0
 10
50.09891232069386
 20
170.6211114589952
 30
0.0
 10
49.6338196215042
 20
171.1159770734067
 30
0.0
  0
ARC
  5
F6
330
1F
100
AcDbEntity
  8
0
  6
Continuous
 62
     7
370
    25
100
AcDbCircle
 10
50.0119854305
 20
171.0240424631
 30
0.0
 40
0.3891803587961933
100
AcDbArc
 50
127.7094634934
 51
166.3360839426
  0
SPLINE
  5
F7
330
1F
100
AcDbEntity
  8
0
  6
Continuous
 62
     7
370
    25
100
AcDbSpline
210
0.0
220
0.0
230
1.0
 70
    24
 71
     3
 72
    12
 73
     8
 74
     0
 42
0.00000001
 43
0.00000001
 40
0.0
 40
0.0
 40
0.0
 40
0.0
 40
0.3013828945620992
 40
0.4108442493795573
 40
0.6247185195336495
 40
0.6986171054378605
 40
1.0
 40
1.0
 40
1.0
 40
1.0
 10
77.04494884251814
 20
177.5570881684971
 30
0.0
 10
76.84892446671726
 20
176.9068582361175
 30
0.0
 10
76.58170463112232
 20
176.0204667609783
 30
0.0
 10
76.17342570223437
 20
174.6661699841707
 30
0.0
 10
75.91332979410383
 20
173.8034091970748
 30
0.0
 10
75.52842767201669
 20
172.5266553250374
 30
0.0
 10
75.28434408743463
 20
171.7170088101622
 30
0.0
 10
75.08832424348968
 20
171.0667939103434
 30
0.0
  0
ARC
  5
F8
330
1F
100
AcDbEntity
  8
0
  6
Continuous
 62
     7
370
    25
100
AcDbCircle
 10
74.978859047
 20
171.4402624129
 30
0.0
 40
0.3891803587971633
100
AcDbArc
 50
247.7094634934
 51
286.3360839425
  0
ARC
  5
F9
330
1F
100
AcDbEntity
  8
0
  6
Continuous
 62
     7
370
    25
100
AcDbCircle
 10
76.7473046803
 20
177.3063506476
 30
0.0
 40
0.3891803587981881
100
AcDbArc
 50
40.1110206644
 51
78.7376411134
  0
ARC
  5
FA
330
1F
100
AcDbEntity
  8
0
  6
Continuous
 62
     7
370
    25
100
AcDbCircle
 10
48.0032350971
 20
179.5725854318
 30
0.0
 40
0.3891803588383493
100
AcDbArc
 50
220.1110206665
 51
258.7376411113
  0
SPLINE
  5
FB
330
1F
100
AcDbEntity
  8
0
  6
Continuous
 62
     7
370
    25
100
AcDbSpline
210
0.0
220
0.0
230
1.0
 70
    24
 71
     3
 72
    12
 73
     8
 74
     0
 42
0.00000001
 43
0.00000001
 40
0.0
 40
0.0
 40
0.0
 40
0.0
 40
0.3013828945621506
 40
0.4108442493795785
 40
0.6247185195336595
 40
0.6986171054378615
 40
1.0
 40
1.0
 40
1.0
 40
1.0
 10
47.70559093490991
 20
179.321847910845
 30
0.0
 10
47.90161531071081
 20
179.9720778432247
 30
0.0
 10
48.16883514630576
 20
180.858469318364
 30
0.0
 10
48.57711407519373
 20
182.2127660951716
 30
0.0
 10
48.83720998332424
 20
183.0755268822673
 30
0.0
 10
49.22211210541136
 20
184.3522807543047
 30
0.0
 10
49.46619568999341
 20
185.1619272691799
 30
0.0
 10
49.66221553393835
 20
185.8121421689985
 30
0.0
  0
ARC
  5
FC
330
1F
100
AcDbEntity
  8
0
  6
Continuous
 62
     7
370
    25
100
AcDbCircle
 10
49.7716807305
 20
185.4386736664
 30
0.0
 40
0.3891803587964402
100
AcDbArc
 50
67.7094634934
 51
106.3360839426
  0
ARC
  5
FD
330
1F
100
AcDbEntity
  8
0
  6
Continuous
 62
     7
370
    25
100
AcDbCircle
 10
56.17056094
 20
191.4525739693
 30
0.0
 40
0.3891803588381291
100
AcDbArc
 50
160.1110206664
 51
198.7376411113
  0
SPLINE
  5
FE
330
1F
100
AcDbEntity
  8
0
  6
Continuous
 62
     7
370
    25
100
AcDbSpline
210
0.0
220
0.0
230
1.0
 70
    24
 71
     3
 72
    12
 73
     8
 74
     0
 42
0.00000001
 43
0.00000001
 40
0.0
 40
0.0
 40
0.0
 40
0.0
 40
0.3013828945621499
 40
0.4108442493795587
 40
0.6247185195336379
 40
0.6986171054378638
 40
0.9999999999999999
 40
0.9999999999999999
 40
0.9999999999999999
 40
0.9999999999999999
 10
55.80459379603665
 20
191.5849726146143
 30
0.0
 10
56.465721623679
 20
191.7403254915995
 30
0.0
 10
57.36696907664501
 20
191.9521020631489
 30
0.0
 10
58.74396395406769
 20
192.2756705273058
 30
0.0
 10
59.62118466714691
 20
192.4818012569922
 30
0.0
 10
60.91933701575508
 20
192.786843177313
 30
0.0
 10
61.74255325801357
 20
192.9802838498557
 30
0.0
 10
62.40366580114817
 20
193.1356331352629
 30
0.0
  0
ARC
  5
FF
330
1F
100
AcDbEntity
  8
0
  6
Continuous
 62
     7
370
    25
100
AcDbCircle
 10
62.1349651886
 20
192.854099243
 30
0.0
 40
0.3891803587965933
100
AcDbArc
 50
7.7094634934
 51
46.3360839426
  0
SPLINE
  5
100
330
1F
100
AcDbEntity
  8
0
  6
Continuous
 62
     7
370
    25
100
AcDbSpline
210
0.0
220
0.0
230
1.0
 70
    24
 71
     3
 72
    12
 73
     8
 74
     0
 42
0.00000001
 43
0.00000001
 40
0.0
 40
0.0
 40
0.0
 40
0.0
 40
0.3013828945621527
 40
0.410844249379554
 40
0.624718519533646
 40
0.6986171054378584
 40
0.9999999999999999
 40
0.9999999999999999
 40
0.9999999999999999
 40
0.9999999999999999
 10
70.47427274984075
 20
190.7025927434403
 30
0.0
 10
70.9393762016822
 20
190.2077156880459
 30
0.0
 10
71.57340381905327
 20
189.5331007844559
 30
0.0
 10
72.542119767588
 20
188.5023724718053
 30
0.0
 10
73.15924457253669
 20
187.845742414396
 30
0.0
 10
74.07249479905772
 20
186.8740304626793
 30
0.0
 10
74.65162745673415
 20
186.2578246203468
 30
0.0
 10
75.11672015592382
 20
185.7629590059353
 30
0.0
  0
ARC
  5
101
330
1F
100
AcDbEntity
  8
0
  6
Continuous
 62
     7
370
    25
100
AcDbCircle
 10
74.7385543469
 20
185.8548936162
 30
0.0
 40
0.3891803587963294
100
AcDbArc
 50
307.7094634934
 51
346.3360839426
  0
ARC
  5
102
330
1F
100
AcDbEntity
  8
0
  6
Continuous
 62
     7
370
    25
100
AcDbCircle
 10
70.5425957315
 20
190.3194565772
 30
0.0
 40
0.3891803587980191
100
AcDbArc
 50
100.1110206644
 51
138.7376411134
  0
LINE
  5
103
330
1F
100
AcDbEntity
  8
0
  6
Continuous
 62
     7
370
    25
100
AcDbLine
 10
75.0883242435
 20
171.0667939103
 30
0.0
 11
74.583990174
 21
169.3938738637
 31
0.0
  0
LINE
  5
104
330
1F
100
AcDbEntity
  8
0
  6
Continuous
 62
     7
370
    25
100
AcDbLine
 10
74.583990174
 20
169.3938738637
 30
0.0
 11
74.1052710602
 21
169.5381929896
 31
0.0
  0
LINE
  5
105
330
1F
100
AcDbEntity
  8
0
  6
Continuous
 62
     7
370
    25
100
AcDbLine
 10
49.6338196215
 20
171.1159770734
 30
0.0
 11
48.4371953974
 21
172.3892032129
 31
0.0
  0
LINE
  5
106
330
1F
100
AcDbEntity
  8
0
  6
Continuous
 62
     7
370
    25
100
AcDbLine
 10
48.8015389836
 20
172.7316265638
 30
0.0
 11
48.4371953974
 21
172.3892032129
 31
0.0
  0
LINE
  5
107
330
1F
100
AcDbEntity
  8
0
  6
Continuous
 62
     7
370
    25
100
AcDbLine
 10
75.1167201559
 20
185.7629590059
 30
0.0
 11
76.31334438
 21
184.4897328665
 31
0.0
  0
LINE
  5
108
330
1F
100
AcDbEntity
  8
0
  6
Continuous
 62
     7
370
    25
100
AcDbLine
 10
76.31334438
 20
184.4897328665
 30
0.0
 11
75.9490007939
 21
184.1473095156
 31
0.0
  0
LINE
  5
109
330
1F
100
AcDbEntity
  8
0
  6
Continuous
 62
     7
370
    25
100
AcDbLine
 10
49.6622155339
 20
185.812142169
 30
0.0
 11
50.1665496034
 21
187.4850622156
 31
0.0
  0
LINE
  5
10A
330
1F
100
AcDbEntity
  8
0
  6
Continuous
 62
     7
370
    25
100
AcDbLine
 10
50.1665496034
 20
187.4850622156
 30
0.0
 11
50.6452687172
 21
187.3407430897
 31
0.0
  0
LINE
  5
10B
330
1F
100
AcDbEntity
  8
0
  6
Continuous
 62
     7
370
    25
100
AcDbLine
 10
62.4036658011
 20
193.1356331353
 30
0.0
 11
64.1046240947
 21
193.5353270424
 31
0.0
  0
LINE
  5
10C
330
1F
100
AcDbEntity
  8
0
  6
Continuous
 62
     7
370
    25
100
AcDbLine
 10
64.1046240947
 20
193.5353270424
 30
0.0
 11
64.2189996224
 21
193.0485845656
 31
0.0
  0
LINE
  5
10D
330
1F
100
AcDbEntity
  8
0
  6
Continuous
 62
     7
370
    25
100
AcDbLine
 10
54.4752698887
 20
165.964601304
 30
0.0
 11
54.2762670276
 21
166.1763433359
 31
0.0
  0
LINE
  5
10E
330
1F
100
AcDbEntity
  8
0
  6
Continuous
 62
     7
370
    25
100
AcDbLine
 10
70.646904275
 20
165.6936573719
 30
0.0
 11
70.2752698887
 21
165.6063301279
 31
0.0
  0
LINE
  5
10F
330
1F
100
AcDbEntity
  8
0
  6
Continuous
 62
     7
370
    25
100
AcDbLine
 10
70.646904275
 20
165.6936573719
 30
0.0
 11
70.5325287474
 21
166.1803998486
 31
0.0
  0
LINE
  5
110
330
1F
100
AcDbEntity
  8
0
  6
Continuous
 62
     7
370
    25
100
AcDbLine
 10
77.549282912
 20
179.2300082151
 30
0.0
 11
77.0449488425
 21
177.5570881685
 31
0.0
  0
LINE
  5
111
330
1F
100
AcDbEntity
  8
0
  6
Continuous
 62
     7
370
    25
100
AcDbLine
 10
77.0705637982
 20
179.374327341
 30
0.0
 11
77.549282912
 21
179.2300082151
 31
0.0
  0
LINE
  5
112
330
1F
100
AcDbEntity
  8
0
  6
Continuous
 62
     7
370
    25
100
AcDbLine
 10
47.6799759792
 20
177.5046087384
 30
0.0
 11
47.2012568654
 21
177.6489278642
 31
0.0
  0
LINE
  5
113
330
1F
100
AcDbEntity
  8
0
  6
Continuous
 62
     7
370
    25
100
AcDbLine
 10
47.2012568654
 20
177.6489278642
 30
0.0
 11
47.7055909349
 21
179.3218479108
 31
0.0
  0
LINE
  5
114
330
1F
100
AcDbEntity
  8
0
  6
Continuous
 62
     7
370
    25
100
AcDbLine
 10
69.2776485257
 20
191.9758188829
 30
0.0
 11
70.4742727498
 21
190.7025927434
 31
0.0
  0
LINE
  5
115
330
1F
100
AcDbEntity
  8
0
  6
Continuous
 62
     7
370
    25
100
AcDbLine
 10
68.9133049396
 20
191.633395532
 30
0.0
 11
69.2776485257
 21
191.9758188829
 31
0.0
  0
LINE
  5
116
330
1F
100
AcDbEntity
  8
0
  6
Continuous
 62
     7
370
    25
100
AcDbLine
 10
54.2180110301
 20
190.6985362307
 30
0.0
 11
54.1036355024
 21
191.1852787075
 31
0.0
  0
LINE
  5
117
330
1F
100
AcDbEntity
  8
0
  6
Continuous
 62
     7
370
    25
100
AcDbLine
 10
54.1036355024
 20
191.1852787075
 30
0.0
 11
55.804593796
 21
191.5849726146
 31
0.0
  0
LINE
  5
118
330
1F
100
AcDbEntity
  8
0
  6
Continuous
 62
     7
370
    25
100
AcDbLine
 10
72.516896852
 20
166.1330712259
 30
0.0
 11
70.646904275
 21
165.6936573719
 31
0.0
  0
LINE
  5
119
330
1F
100
AcDbEntity
  8
0
  6
Continuous
 62
     7
370
    25
100
AcDbLine
 10
70.5325287474
 20
166.1803998486
 30
0.0
 11
72.4025213244
 21
166.6198137027
 31
0.0
  0
LINE
  5
11A
330
1F
100
AcDbEntity
  8
0
  6
Continuous
 62
     7
370
    25
100
AcDbLine
 10
72.516896852
 20
166.1330712259
 30
0.0
 11
72.4025213244
 21
166.6198137027
 31
0.0
  0
ARC
  5
11B
330
1F
100
AcDbEntity
  8
0
  6
Continuous
 62
     7
370
    25
100
AcDbCircle
 10
62.3752698887
 20
178.4394680397
 30
0.0
 40
16.00000000000002
100
AcDbArc
 50
310.309742062
 51
316.1373625449
  0
LINE
  5
11C
330
1F
100
AcDbEntity
  8
0
  6
Continuous
 62
     7
370
    25
100
AcDbLine
 10
72.7259810481
 20
166.2385345305
 30
0.0
 11
72.4025213244
 21
166.6198137027
 31
0.0
  0
ARC
  5
11D
330
1F
100
AcDbEntity
  8
0
  6
Continuous
 62
     7
370
    25
100
AcDbCircle
 10
62.3752698887
 20
178.4394680397
 30
0.0
 40
15.50000000000002
100
AcDbArc
 50
310.309742062
 51
316.1373625449
  0
LINE
  5
11E
330
1F
100
AcDbEntity
  8
0
  6
Continuous
 62
     7
370
    25
100
AcDbLine
 10
73.9113198948
 20
167.352559081
 30
0.0
 11
73.5508183321
 21
167.699024986
 31
0.0
  0
LINE
  5
11F
330
1F
100
AcDbEntity
  8
0
  6
Continuous
 62
     7
370
    25
100
AcDbLine
 10
74.583990174
 20
169.3938738637
 30
0.0
 11
74.0295374459
 21
167.5547058601
 31
0.0
  0
LINE
  5
120
330
1F
100
AcDbEntity
  8
0
  6
Continuous
 62
     7
370
    25
100
AcDbLine
 10
74.0295374459
 20
167.5547058601
 30
0.0
 11
73.5508183321
 21
167.699024986
 31
0.0
  0
LINE
  5
121
330
1F
100
AcDbEntity
  8
0
  6
Continuous
 62
     7
370
    25
100
AcDbLine
 10
73.5508183321
 20
167.699024986
 30
0.0
 11
74.1052710602
 21
169.5381929896
 31
0.0
  0
ARC
  5
122
330
1F
100
AcDbEntity
  8
0
  6
Continuous
 62
     7
370
    25
100
AcDbCircle
 10
72.4025213244
 20
166.6198137027
 30
0.0
 40
0.499999999999989
100
AcDbArc
 50
283.2235523034
 51
310.309742062
  0
ARC
  5
123
330
1F
100
AcDbEntity
  8
0
  6
Continuous
 62
     7
370
    25
100
AcDbCircle
 10
73.5508183321
 20
167.699024986
 30
0.0
 40
0.5000000000000147
100
AcDbArc
 50
316.1373625448
 51
343.2235523034
  0
LINE
  5
124
330
1F
100
AcDbEntity
  8
0
  6
Continuous
 62
     7
370
    25
100
AcDbLine
 10
47.4859991346
 20
174.1313807133
 30
0.0
 11
48.8015389836
 21
172.7316265638
 31
0.0
  0
LINE
  5
125
330
1F
100
AcDbEntity
  8
0
  6
Continuous
 62
     7
370
    25
100
AcDbLine
 10
48.4371953974
 20
172.3892032129
 30
0.0
 11
47.1216555485
 21
173.7889573624
 31
0.0
  0
LINE
  5
126
330
1F
100
AcDbEntity
  8
0
  6
Continuous
 62
     7
370
    25
100
AcDbLine
 10
47.4859991346
 20
174.1313807133
 30
0.0
 11
47.1216555485
 21
173.7889573624
 31
0.0
  0
ARC
  5
127
330
1F
100
AcDbEntity
  8
0
  6
Continuous
 62
     7
370
    25
100
AcDbCircle
 10
62.3752698887
 20
178.4394680397
 30
0.0
 40
15.50000000000001
100
AcDbArc
 50
190.309742062
 51
196.1373625449
  0
LINE
  5
128
330
1F
100
AcDbEntity
  8
0
  6
Continuous
 62
     7
370
    25
100
AcDbLine
 10
47.4859991346
 20
174.1313807133
 30
0.0
 11
47.005700078
 21
173.9924101544
 31
0.0
  0
ARC
  5
129
330
1F
100
AcDbEntity
  8
0
  6
Continuous
 62
     7
370
    25
100
AcDbCircle
 10
62.3752698887
 20
178.4394680397
 30
0.0
 40
16.00000000000001
100
AcDbArc
 50
190.309742062
 51
196.1373625449
  0
LINE
  5
12A
330
1F
100
AcDbEntity
  8
0
  6
Continuous
 62
     7
370
    25
100
AcDbLine
 10
47.1255232511
 20
175.6654407347
 30
0.0
 11
46.6335959402
 21
175.575955983
 31
0.0
  0
LINE
  5
12B
330
1F
100
AcDbEntity
  8
0
  6
Continuous
 62
     7
370
    25
100
AcDbLine
 10
77.0705637982
 20
179.374327341
 30
0.0
 11
77.6250165263
 21
181.2134953446
 31
0.0
  0
LINE
  5
12C
330
1F
100
AcDbEntity
  8
0
  6
Continuous
 62
     7
370
    25
100
AcDbLine
 10
77.2645406428
 20
182.747555366
 30
0.0
 11
75.9490007939
 21
184.1473095156
 31
0.0
  0
ARC
  5
12D
330
1F
100
AcDbEntity
  8
0
  6
Continuous
 62
     7
370
    25
100
AcDbCircle
 10
62.3752698887
 20
178.4394680397
 30
0.0
 40
15.50000000000001
100
AcDbArc
 50
10.309742062
 51
16.1373625449
  0
LINE
  5
12E
330
1F
100
AcDbEntity
  8
0
  6
Continuous
 62
     7
370
    25
100
AcDbLine
 10
47.6799759792
 20
177.5046087384
 30
0.0
 11
47.1255232511
 21
175.6654407347
 31
0.0
  0
LINE
  5
12F
330
1F
100
AcDbEntity
  8
0
  6
Continuous
 62
     7
370
    25
100
AcDbLine
 10
47.1255232511
 20
175.6654407347
 30
0.0
 11
46.6468041373
 21
175.8097598606
 31
0.0
  0
LINE
  5
130
330
1F
100
AcDbEntity
  8
0
  6
Continuous
 62
     7
370
    25
100
AcDbLine
 10
46.6468041373
 20
175.8097598606
 30
0.0
 11
47.2012568654
 21
177.6489278642
 31
0.0
  0
ARC
  5
131
330
1F
100
AcDbEntity
  8
0
  6
Continuous
 62
     7
370
    25
100
AcDbCircle
 10
47.1255232511
 20
175.6654407347
 30
0.0
 40
0.4999999999999941
100
AcDbArc
 50
163.2235523034
 51
190.309742062
  0
ARC
  5
132
330
1F
100
AcDbEntity
  8
0
  6
Continuous
 62
     7
370
    25
100
AcDbCircle
 10
47.4859991346
 20
174.1313807133
 30
0.0
 40
0.4999999999999872
100
AcDbArc
 50
196.1373625448
 51
223.2235523034
  0
LINE
  5
133
330
1F
100
AcDbEntity
  8
0
  6
Continuous
 62
     7
370
    25
100
AcDbLine
 10
77.6250165263
 20
181.2134953446
 30
0.0
 11
78.1037356401
 21
181.0691762187
 31
0.0
  0
LINE
  5
134
330
1F
100
AcDbEntity
  8
0
  6
Continuous
 62
     7
370
    25
100
AcDbLine
 10
78.1037356401
 20
181.0691762187
 30
0.0
 11
77.549282912
 21
179.2300082151
 31
0.0
  0
LINE
  5
135
330
1F
100
AcDbEntity
  8
0
  6
Continuous
 62
     7
370
    25
100
AcDbLine
 10
77.7448396994
 20
182.8865259249
 30
0.0
 11
77.2645406428
 21
182.747555366
 31
0.0
  0
LINE
  5
136
330
1F
100
AcDbEntity
  8
0
  6
Continuous
 62
     7
370
    25
100
AcDbLine
 10
77.628884229
 20
183.0899787169
 30
0.0
 11
77.2645406428
 21
182.747555366
 31
0.0
  0
ARC
  5
137
330
1F
100
AcDbEntity
  8
0
  6
Continuous
 62
     7
370
    25
100
AcDbCircle
 10
77.2645406428
 20
182.747555366
 30
0.0
 40
0.5000000000000001
100
AcDbArc
 50
16.1373625448
 51
43.2235523034
  0
ARC
  5
138
330
1F
100
AcDbEntity
  8
0
  6
Continuous
 62
     7
370
    25
100
AcDbCircle
 10
62.3752698887
 20
178.4394680397
 30
0.0
 40
16.00000000000002
100
AcDbArc
 50
10.309742062
 51
16.1373625449
  0
LINE
  5
139
330
1F
100
AcDbEntity
  8
0
  6
Continuous
 62
     7
370
    25
100
AcDbLine
 10
78.1169438372
 20
181.3029800964
 30
0.0
 11
77.6250165263
 21
181.2134953446
 31
0.0
  0
ARC
  5
13A
330
1F
100
AcDbEntity
  8
0
  6
Continuous
 62
     7
370
    25
100
AcDbCircle
 10
77.6250165263
 20
181.2134953446
 30
0.0
 40
0.5000000000000201
100
AcDbArc
 50
343.2235523034
 51
10.309742062
  0
LINE
  5
13B
330
1F
100
AcDbEntity
  8
0
  6
Continuous
 62
     7
370
    25
100
AcDbLine
 10
76.31334438
 20
184.4897328665
 30
0.0
 11
77.628884229
 21
183.0899787169
 31
0.0
  0
LINE
  5
13C
330
1F
100
AcDbEntity
  8
0
  6
Continuous
 62
     7
370
    25
100
AcDbLine
 10
50.1665496034
 20
187.4850622156
 30
0.0
 11
50.7210023315
 21
189.3242302192
 31
0.0
  0
LINE
  5
13D
330
1F
100
AcDbEntity
  8
0
  6
Continuous
 62
     7
370
    25
100
AcDbLine
 10
50.7210023315
 20
189.3242302192
 30
0.0
 11
51.1997214453
 21
189.1799110934
 31
0.0
  0
LINE
  5
13E
330
1F
100
AcDbEntity
  8
0
  6
Continuous
 62
     7
370
    25
100
AcDbLine
 10
51.1997214453
 20
189.1799110934
 30
0.0
 11
50.6452687172
 21
187.3407430897
 31
0.0
  0
ARC
  5
13F
330
1F
100
AcDbEntity
  8
0
  6
Continuous
 62
     7
370
    25
100
AcDbCircle
 10
62.3752698887
 20
178.4394680397
 30
0.0
 40
15.50000000000002
100
AcDbArc
 50
130.309742062
 51
136.1373625449
  0
LINE
  5
140
330
1F
100
AcDbEntity
  8
0
  6
Continuous
 62
     7
370
    25
100
AcDbLine
 10
51.1997214453
 20
189.1799110934
 30
0.0
 11
50.8392198826
 21
189.5263769983
 31
0.0
  0
ARC
  5
141
330
1F
100
AcDbEntity
  8
0
  6
Continuous
 62
     7
370
    25
100
AcDbCircle
 10
62.3752698887
 20
178.4394680397
 30
0.0
 40
16.00000000000001
100
AcDbArc
 50
130.309742062
 51
136.1373625449
  0
LINE
  5
142
330
1F
100
AcDbEntity
  8
0
  6
Continuous
 62
     7
370
    25
100
AcDbLine
 10
52.348018453
 20
190.2591223766
 30
0.0
 11
52.0245587293
 21
190.6404015488
 31
0.0
  0
ARC
  5
143
330
1F
100
AcDbEntity
  8
0
  6
Continuous
 62
     7
370
    25
100
AcDbCircle
 10
51.1997214453
 20
189.1799110934
 30
0.0
 40
0.499999999999996
100
AcDbArc
 50
136.1373625449
 51
163.2235523034
  0
LINE
  5
144
330
1F
100
AcDbEntity
  8
0
  6
Continuous
 62
     7
370
    25
100
AcDbLine
 10
54.2180110301
 20
190.6985362307
 30
0.0
 11
52.348018453
 21
190.2591223766
 31
0.0
  0
ARC
  5
145
330
1F
100
AcDbEntity
  8
0
  6
Continuous
 62
     7
370
    25
100
AcDbCircle
 10
66.0889921994
 20
193.4879984197
 30
0.0
 40
0.5000000000000165
100
AcDbArc
 50
76.1373625448
 51
103.2235523034
  0
LINE
  5
146
330
1F
100
AcDbEntity
  8
0
  6
Continuous
 62
     7
370
    25
100
AcDbLine
 10
66.0889921994
 20
193.4879984197
 30
0.0
 11
66.2087896933
 21
193.9734348836
 31
0.0
  0
LINE
  5
147
330
1F
100
AcDbEntity
  8
0
  6
Continuous
 62
     7
370
    25
100
AcDbLine
 10
65.9746166718
 20
193.9747408965
 30
0.0
 11
66.0889921994
 21
193.4879984197
 31
0.0
  0
LINE
  5
148
330
1F
100
AcDbEntity
  8
0
  6
Continuous
 62
     7
370
    25
100
AcDbLine
 10
68.9133049396
 20
191.633395532
 30
0.0
 11
67.5977650906
 21
193.0331496816
 31
0.0
  0
LINE
  5
149
330
1F
100
AcDbEntity
  8
0
  6
Continuous
 62
     7
370
    25
100
AcDbLine
 10
66.0889921994
 20
193.4879984197
 30
0.0
 11
64.2189996224
 21
193.0485845656
 31
0.0
  0
ARC
  5
14A
330
1F
100
AcDbEntity
  8
0
  6
Continuous
 62
     7
370
    25
100
AcDbCircle
 10
62.3752698887
 20
178.4394680397
 30
0.0
 40
15.50000000000001
100
AcDbArc
 50
70.309742062
 51
76.1373625449
  0
ARC
  5
14B
330
1F
100
AcDbEntity
  8
0
  6
Continuous
 62
     7
370
    25
100
AcDbCircle
 10
67.5977650906
 20
193.0331496816
 30
0.0
 40
0.5000000000000001
100
AcDbArc
 50
43.2235523034
 51
70.309742062
  0
LINE
  5
14C
330
1F
100
AcDbEntity
  8
0
  6
Continuous
 62
     7
370
    25
100
AcDbLine
 10
67.5977650906
 20
193.0331496816
 30
0.0
 11
67.9621086768
 21
193.3755730325
 31
0.0
  0
LINE
  5
14D
330
1F
100
AcDbEntity
  8
0
  6
Continuous
 62
     7
370
    25
100
AcDbLine
 10
67.7662326778
 20
193.5039136055
 30
0.0
 11
67.5977650906
 21
193.0331496816
 31
0.0
  0
LINE
  5
14E
330
1F
100
AcDbEntity
  8
0
  6
Continuous
 62
     7
370
    25
100
AcDbLine
 10
52.348018453
 20
190.2591223766
 30
0.0
 11
52.2336429254
 21
190.7458648534
 31
0.0
  0
LINE
  5
14F
330
1F
100
AcDbEntity
  8
0
  6
Continuous
 62
     7
370
    25
100
AcDbLine
 10
52.2336429254
 20
190.7458648534
 30
0.0
 11
54.1036355024
 21
191.1852787075
 31
0.0
  0
ARC
  5
150
330
1F
100
AcDbEntity
  8
0
  6
Continuous
 62
     7
370
    25
100
AcDbCircle
 10
52.348018453
 20
190.2591223766
 30
0.0
 40
0.50000000000003
100
AcDbArc
 50
103.2235523034
 51
130.309742062
  0
ARC
  5
151
330
1F
100
AcDbEntity
  8
0
  6
Continuous
 62
     7
370
    25
100
AcDbCircle
 10
62.3752698887
 20
178.4394680397
 30
0.0
 40
16.00000000000001
100
AcDbArc
 50
70.309742062
 51
76.1373625449
  0
LINE
  5
152
330
1F
100
AcDbEntity
  8
0
  6
Continuous
 62
     7
370
    25
100
AcDbLine
 10
67.9621086768
 20
193.3755730325
 30
0.0
 11
69.2776485257
 21
191.9758188829
 31
0.0
  0
LINE
  5
153
330
1F
100
AcDbEntity
  8
0
  6
Continuous
 62
     7
370
    25
100
AcDbLine
 10
64.1046240947
 20
193.5353270424
 30
0.0
 11
65.9746166718
 21
193.9747408965
 31
0.0
  0
ARC
  5
154
330
1F
100
AcDbEntity
  8
0
  6
Continuous
 62
     7
370
    25
100
AcDbCircle
 10
62.3752698887
 20
178.4394680397
 30
0.0
 40
9.574999999999978
100
AcDbArc
 50
325.5951096848
 51
214.4048903152
  0
ARC
  5
155
330
1F
100
AcDbEntity
  8
0
  6
Continuous
 62
     7
370
    25
100
AcDbCircle
 10
62.3752698887
 20
178.4394680397
 30
0.0
 40
8.049999999999997
100
AcDbArc
 50
348.9219835539
 51
191.0780164461
  0
ARC
  5
156
330
1F
100
AcDbEntity
  8
0
  6
Continuous
 62
     7
370
    25
100
AcDbCircle
 10
62.3752698887
 20
178.4394680397
 30
0.0
 40
8.25
100
AcDbArc
 50
343.2508741362
 51
196.7491258638
  0
LINE
  5
157
330
1F
100
AcDbEntity
  8
0
  6
Continuous
 62
     7
370
    25
100
AcDbLine
 10
142.8752698887
 20
183.7683817344
 30
0.0
 11
142.8752698887
 21
173.110553703
 31
0.0
  0
LINE
  5
158
330
1F
100
AcDbEntity
  8
0
  6
Continuous
 62
     7
370
    25
100
AcDbLine
 10
143.2076854407
 20
181.0394680397
 30
0.0
 11
143.225163902
 21
181.0394680397
 31
0.0
  0
ARC
  5
159
330
1F
100
AcDbEntity
  8
0
  6
Continuous
 62
     7
370
    25
100
AcDbCircle
 10
132.9180353009
 20
178.4394680397
 30
0.0
 40
10.61305328357492
100
AcDbArc
 50
7.3079276166
 51
14.1807309007
  0
SPLINE
  5
15A
330
1F
100
AcDbEntity
  8
0
  6
Continuous
 62
     7
370
    25
100
AcDbSpline
210
0.0
220
0.0
230
1.0
 70
     8
 71
     3
 72
    12
 73
     8
 74
     0
 42
0.00000001
 43
0.00000001
 40
0.0
 40
0.0
 40
0.0
 40
0.0
 40
0.2133534395476153
 40
0.4267919313634476
 40
0.6383539739091488
 40
0.8490950351927585
 40
1.0
 40
1.0
 40
1.0
 40
1.0
 10
143.4448771825137
 20
179.0394680396713
 30
0.0
 10
143.4545363262411
 20
179.0475695997873
 30
0.0
 10
143.4738584642645
 20
179.0637759496653
 30
0.0
 10
143.4861715342727
 20
179.1911770746812
 30
0.0
 10
143.4838340939759
 20
179.3785710905869
 30
0.0
 10
143.4687165749621
 20
179.5895471158782
 30
0.0
 10
143.4518959625811
 20
179.7306074374971
 30
0.0
 10
143.4448771825137
 20
179.7894680396713
 30
0.0
  0
LINE
  5
15B
330
1F
100
AcDbEntity
  8
0
  6
Continuous
 62
     7
370
    25
100
AcDbLine
 10
143.2076854407
 20
179.0394680397
 30
0.0
 11
143.4448771825
 21
179.0394680397
 31
0.0
  0
ARC
  5
15C
330
1F
100
AcDbEntity
  8
0
  6
Continuous
 62
     7
370
    25
100
AcDbCircle
 10
132.9180353009
 20
178.4394680397
 30
0.0
 40
10.30712860111874
100
AcDbArc
 50
356.6628035549
 51
3.3371964451
  0
LINE
  5
15D
330
1F
100
AcDbEntity
  8
0
  6
Continuous
 62
     7
370
    25
100
AcDbLine
 10
143.4448771825
 20
177.8394680397
 30
0.0
 11
143.2076854407
 21
177.8394680397
 31
0.0
  0
SPLINE
  5
15E
330
1F
100
AcDbEntity
  8
0
  6
Continuous
 62
     7
370
    25
100
AcDbSpline
210
0.0
220
0.0
230
1.0
 70
     8
 71
     3
 72
    12
 73
     8
 74
     0
 42
0.00000001
 43
0.00000001
 40
0.0
 40
0.0
 40
0.0
 40
0.0
 40
0.2133534395476116
 40
0.4267919313634445
 40
0.6383539739091463
 40
0.8490950351927521
 40
1.0
 40
1.0
 40
1.0
 40
1.0
 10
143.4448771825137
 20
177.0894680396713
 30
0.0
 10
143.4545363262411
 20
177.1729618278284
 30
0.0
 10
143.4738584642645
 20
177.3399826885185
 30
0.0
 10
143.4861715342727
 20
177.5638194501161
 30
0.0
 10
143.4838340939759
 20
177.7329051709934
 30
0.0
 10
143.4687165749621
 20
177.8255667572034
 30
0.0
 10
143.4518959625811
 20
177.8353752321676
 30
0.0
 10
143.4448771825137
 20
177.8394680396713
 30
0.0
  0
ARC
  5
15F
330
1F
100
AcDbEntity
  8
0
  6
Continuous
 62
     7
370
    25
100
AcDbCircle
 10
132.9180353009
 20
178.4394680397
 30
0.0
 40
10.61305328357492
100
AcDbArc
 50
345.8192690993
 51
352.6920723834
  0
LINE
  5
160
330
1F
100
AcDbEntity
  8
0
  6
Continuous
 62
     7
370
    25
100
AcDbLine
 10
143.225163902
 20
175.8394680397
 30
0.0
 11
143.2076854407
 21
175.8394680397
 31
0.0
  0
LINE
  5
161
330
1F
100
AcDbEntity
  8
0
  6
Continuous
 62
     7
370
    25
100
AcDbLine
 10
126.6339960919
 20
186.6901280482
 30
0.0
 11
126.6339960919
 21
170.1888083164
 31
0.0
  0
SPLINE
  5
162
330
1F
100
AcDbEntity
  8
0
  6
Continuous
 62
     7
370
    25
100
AcDbSpline
210
0.0
220
0.0
230
1.0
 70
     8
 71
     3
 72
    11
 73
     7
 74
     0
 42
0.00000001
 43
0.00000001
 40
0.0
 40
0.0
 40
0.0
 40
0.0
 40
0.2499999999999913
 40
0.4999999999999988
 40
0.7499999999999947
 40
1.0
 40
1.0
 40
1.0
 40
1.0
 10
126.6339960919327
 20
170.1888067771314
 30
0.0
 10
126.5676250391953
 20
170.1946992545343
 30
0.0
 10
126.4348829337205
 20
170.2064842093402
 30
0.0
 10
126.2664191929398
 20
170.3104058917721
 30
0.0
 10
126.1483318339047
 20
170.4605862962281
 30
0.0
 10
126.1329572037776
 20
170.5801453552601
 30
0.0
 10
126.125269888714
 20
170.6399248847761
 30
0.0
  0
LINE
  5
163
330
1F
100
AcDbEntity
  8
0
  6
Continuous
 62
     7
370
    25
100
AcDbLine
 10
126.1252698887
 20
170.639979735
 30
0.0
 11
126.1252698887
 21
186.2389028052
 31
0.0
  0
SPLINE
  5
164
330
1F
100
AcDbEntity
  8
0
  6
Continuous
 62
     7
370
    25
100
AcDbSpline
210
0.0
220
0.0
230
1.0
 70
     8
 71
     3
 72
    11
 73
     7
 74
     0
 42
0.00000001
 43
0.00000001
 40
0.0
 40
0.0
 40
0.0
 40
0.0
 40
0.2499999999999901
 40
0.5000000000000007
 40
0.7500000000000012
 40
1.0
 40
1.0
 40
1.0
 40
1.0
 10
126.6339960919327
 20
186.6901277629664
 30
0.0
 10
126.5676250391953
 20
186.6842338898939
 30
0.0
 10
126.4348829337206
 20
186.6724461437489
 30
0.0
 10
126.2664191929398
 20
186.5684998468267
 30
0.0
 10
126.1483318339047
 20
186.4182838712172
 30
0.0
 10
126.1329572037776
 20
186.298696493886
 30
0.0
 10
126.125269888714
 20
186.2389028052203
 30
0.0
  0
LWPOLYLINE
  5
165
330
1F
100
AcDbEntity
  8
0
  6
Continuous
 62
     7
370
    25
100
AcDbPolyline
 90
        3
 70
   128
 43
0.0
 10
126.6339960919
 20
170.1888083164
 10
132.6254698887
 20
170.2550607276
 10
136.1133138459
 20
170.2938766939
  0
LWPOLYLINE
  5
166
330
1F
100
AcDbEntity
  8
0
  6
Continuous
 62
     7
370
    25
100
AcDbPolyline
 90
        3
 70
   128
 43
0.0
 10
135.179893632
 20
186.5954654561
 10
132.6254698887
 20
186.6238753517
 10
126.633996075
 20
186.6901277632
  0
LINE
  5
167
330
1F
100
AcDbEntity
  8
0
  6
Continuous
 62
     7
370
    25
100
AcDbLine
 10
140.9752698887
 20
186.8389116939
 30
0.0
 11
140.9752698887
 21
170.0400243854
 31
0.0
  0
LINE
  5
168
330
1F
100
AcDbEntity
  8
0
  6
Continuous
 62
     7
370
    25
100
AcDbLine
 10
126.6339960919
 20
170.188807063
 30
0.0
 11
126.6339960919
 21
166.6933341264
 31
0.0
  0
ARC
  5
169
330
1F
100
AcDbEntity
  8
0
  6
Continuous
 62
     7
370
    25
100
AcDbCircle
 10
126.6193311834
 20
167.1872204832
 30
0.0
 40
0.4941040304928817
100
AcDbArc
 50
180.7535768612
 51
271.7007770082
  0
LINE
  5
16A
330
1F
100
AcDbEntity
  8
0
  6
Continuous
 62
     7
370
    25
100
AcDbLine
 10
126.1252698887
 20
167.180722018
 30
0.0
 11
126.1252698887
 21
170.6399784807
 31
0.0
  0
LINE
  5
16B
330
1F
100
AcDbEntity
  8
0
  6
Continuous
 62
     7
370
    25
100
AcDbLine
 10
126.6339960919
 20
190.1856019529
 30
0.0
 11
126.6339960919
 21
186.6901293022
 31
0.0
  0
ARC
  5
16C
330
1F
100
AcDbEntity
  8
0
  6
Continuous
 62
     7
370
    25
100
AcDbCircle
 10
126.6193311834
 20
189.6917155961
 30
0.0
 40
0.4941040304929386
100
AcDbArc
 50
88.2992229918
 51
179.2464231388
  0
LINE
  5
16D
330
1F
100
AcDbEntity
  8
0
  6
Continuous
 62
     7
370
    25
100
AcDbLine
 10
126.1252698887
 20
186.2389575987
 30
0.0
 11
126.1252698887
 21
189.6982140613
 31
0.0
  0
SPLINE
  5
16E
330
1F
100
AcDbEntity
  8
0
  6
Continuous
 62
     7
370
    25
100
AcDbSpline
210
0.0
220
0.0
230
1.0
 70
     8
 71
     3
 72
    12
 73
     8
 74
     0
 42
0.00000001
 43
0.00000001
 40
0.0
 40
0.0
 40
0.0
 40
0.0
 40
0.1662426524176545
 40
0.3368059756191297
 40
0.6054181071254586
 40
0.8801435087136193
 40
1.0
 40
1.0
 40
1.0
 40
1.0
 10
130.7165039186579
 20
166.7628076580004
 30
0.0
 10
130.8159606259331
 20
166.9182928334833
 30
0.0
 10
131.017458934812
 20
167.2333042668386
 30
0.0
 10
131.8397066908346
 20
167.8962693718371
 30
0.0
 10
133.2015358578211
 20
168.7484642886425
 30
0.0
 10
134.76264204648
 20
169.5910929672546
 30
0.0
 10
135.7328817386416
 20
170.1289510599498
 30
0.0
 10
136.0275975563445
 20
170.292328510777
 30
0.0
  0
LINE
  5
16F
330
1F
100
AcDbEntity
  8
0
  6
Continuous
 62
     7
370
    25
100
AcDbLine
 10
130.7165039187
 20
166.762807658
 30
0.0
 11
126.6339960919
 21
166.6933341264
 31
0.0
  0
LWPOLYLINE
  5
170
330
1F
100
AcDbEntity
  8
0
  6
Continuous
 62
     7
370
    25
100
AcDbPolyline
 90
        3
 70
   128
 43
0.0
 10
136.0275975563
 20
170.2923285108
 10
132.6252698887
 20
170.2548048072
 10
126.6339961089
 20
170.1888067773
  0
LINE
  5
171
330
1F
100
AcDbEntity
  8
0
  6
Continuous
 62
     7
370
    25
100
AcDbLine
 10
135.1473594927
 20
186.596052497
 30
0.0
 11
135.1091836887
 21
186.5967397998
 31
0.0
  0
LINE
  5
172
330
1F
100
AcDbEntity
  8
0
  6
Continuous
 62
     7
370
    25
100
AcDbLine
 10
135.1473594927
 20
186.596052497
 30
0.0
 11
135.179893632
 21
186.5954654561
 31
0.0
  0
LWPOLYLINE
  5
173
330
1F
100
AcDbEntity
  8
0
  6
Continuous
 62
     7
370
    25
100
AcDbPolyline
 90
        3
 70
   128
 43
0.0
 10
135.1091836887
 20
186.5967397998
 10
132.6252698887
 20
186.6241312721
 10
126.6339960919
 20
186.6901293022
  0
LINE
  5
174
330
1F
100
AcDbEntity
  8
0
  6
Continuous
 62
     7
370
    25
100
AcDbLine
 10
130.6601747016
 20
190.0701962545
 30
0.0
 11
130.6601747016
 21
190.1170869963
 31
0.0
  0
SPLINE
  5
175
330
1F
100
AcDbEntity
  8
0
  6
Continuous
 62
     7
370
    25
100
AcDbSpline
210
0.0
220
0.0
230
1.0
 70
     8
 71
     3
 72
    13
 73
     9
 74
     0
 42
0.00000001
 43
0.00000001
 40
0.0
 40
0.0
 40
0.0
 40
0.0
 40
0.0460329529079877
 40
0.249242584819372
 40
0.4775225570272876
 40
0.7051721168687834
 40
0.8526808263814666
 40
1.0
 40
1.0
 40
1.0
 40
1.0
 10
135.1091836887311
 20
186.5967397997738
 30
0.0
 10
135.0071931544226
 20
186.6592487682104
 30
0.0
 10
134.4549716958301
 20
186.9976997230878
 30
0.0
 10
133.4138527713684
 20
187.6156771471167
 30
0.0
 10
132.1286523279877
 20
188.4261494738298
 30
0.0
 10
131.2360814278649
 20
189.1187742750946
 30
0.0
 10
130.7475389704734
 20
189.6690080767926
 30
0.0
 10
130.6892836410227
 20
189.9365241878985
 30
0.0
 10
130.6601747015886
 20
190.0701962544589
 30
0.0
  0
LINE
  5
176
330
1F
100
AcDbEntity
  8
0
  6
Continuous
 62
     7
370
    25
100
AcDbLine
 10
130.6601747016
 20
190.1170869963
 30
0.0
 11
126.6339960919
 21
190.1856019529
 31
0.0
  0
LINE
  5
177
330
1F
100
AcDbEntity
  8
0
  6
Continuous
 62
     7
370
    25
100
AcDbLine
 10
136.1133138459
 20
170.2938766939
 30
0.0
 11
136.0687075127
 21
170.2930700769
 31
0.0
  0
LINE
  5
178
330
1F
100
AcDbEntity
  8
0
  6
Continuous
 62
     7
370
    25
100
AcDbLine
 10
136.0275975563
 20
170.2923285108
 30
0.0
 11
136.0687075127
 21
170.2930700769
 31
0.0
  0
LINE
  5
179
330
1F
100
AcDbEntity
  8
0
  6
Continuous
 62
     7
370
    25
100
AcDbLine
 10
126.1252698887
 20
189.6982140613
 30
0.0
 11
126.1252698887
 21
189.9113576544
 31
0.0
  0
LINE
  5
17A
330
1F
100
AcDbEntity
  8
0
  6
Continuous
 62
     7
370
    25
100
AcDbLine
 10
126.1252698887
 20
166.9675784249
 30
0.0
 11
126.1252698887
 21
167.180722018
 31
0.0
  0
LINE
  5
17B
330
1F
100
AcDbEntity
  8
0
  6
Continuous
 62
     7
370
    25
100
AcDbLine
 10
130.6601747016
 20
166.5545205927
 30
0.0
 11
130.7165039187
 21
166.762807658
 31
0.0
  0
LINE
  5
17C
330
1F
100
AcDbEntity
  8
0
  6
Continuous
 62
     7
370
    25
100
AcDbLine
 10
116.2252698887
 20
187.9394680397
 30
0.0
 11
116.2252698887
 21
186.6362056276
 31
0.0
  0
SPLINE
  5
17D
330
1F
100
AcDbEntity
  8
0
  6
Continuous
 62
     7
370
    25
100
AcDbSpline
210
0.0
220
0.0
230
1.0
 70
    24
 71
     3
 72
    11
 73
     7
 74
     0
 42
0.00000001
 43
0.00000001
 40
0.0
 40
0.0
 40
0.0
 40
0.0
 40
0.059139560364233
 40
0.5151546697584025
 40
0.9835658517333951
 40
1.0
 40
1.0
 40
1.0
 40
1.0
 10
116.225269888714
 20
187.9394680396713
 30
0.0
 10
116.2532494813927
 20
187.9394680396713
 30
0.0
 10
116.4969749629073
 20
187.9394680396713
 30
0.0
 10
116.8374980565794
 20
187.9394680396713
 30
0.0
 10
117.062577163938
 20
187.9394680396713
 30
0.0
 10
117.0015653686164
 20
187.9394680396713
 30
0.0
 10
116.9994973340747
 20
187.9394680396713
 30
0.0
  0
SPLINE
  5
17E
330
1F
100
AcDbEntity
  8
0
  6
Continuous
 62
     7
370
    25
100
AcDbSpline
210
0.0
220
0.0
230
1.0
 70
    24
 71
     3
 72
    11
 73
     7
 74
     0
 42
0.00000001
 43
0.00000001
 40
0.0
 40
0.0
 40
0.0
 40
0.0
 40
0.0163985483736859
 40
0.4715081509151195
 40
0.9408590955702612
 40
1.0
 40
1.0
 40
1.0
 40
1.0
 10
116.9993108846795
 20
168.9394680396713
 30
0.0
 10
117.0014430708327
 20
168.9394680396713
 30
0.0
 10
117.0627499089505
 20
168.9394680396713
 30
0.0
 10
116.8396981601362
 20
168.9394680396713
 30
0.0
 10
116.5033001102817
 20
168.9394680396713
 30
0.0
 10
116.2532515807895
 20
168.9394680396713
 30
0.0
 10
116.225269888714
 20
168.9394680396713
 30
0.0
  0
LINE
  5
17F
330
1F
100
AcDbEntity
  8
0
  6
Continuous
 62
     7
370
    25
100
AcDbLine
 10
116.2252698887
 20
170.2427304517
 30
0.0
 11
116.2252698887
 21
168.9394680397
 31
0.0
  0
SPLINE
  5
180
330
1F
100
AcDbEntity
  8
0
  6
Continuous
 62
     7
370
    25
100
AcDbSpline
210
0.0
220
0.0
230
1.0
 70
     8
 71
     3
 72
    11
 73
     7
 74
     0
 42
0.00000001
 43
0.00000001
 40
0.0
 40
0.0
 40
0.0
 40
0.0
 40
0.2431641197380915
 40
0.4936284730588929
 40
0.7421706076863281
 40
1.0
 40
1.0
 40
1.0
 40
1.0
 10
116.225269888714
 20
170.2427304517485
 30
0.0
 10
116.4354102119228
 20
170.7861769840193
 30
0.0
 10
116.8619996568844
 20
171.8893853118061
 30
0.0
 10
117.0723840870274
 20
173.6394303415327
 30
0.0
 10
116.8816973933604
 20
175.4263995054756
 30
0.0
 10
116.4467382229657
 20
176.5593438856979
 30
0.0
 10
116.225269888714
 20
177.1362056275941
 30
0.0
  0
LINE
  5
181
330
1F
100
AcDbEntity
  8
0
  6
Continuous
 62
     7
370
    25
100
AcDbLine
 10
116.2252698887
 20
179.7427304517
 30
0.0
 11
116.2252698887
 21
177.1362056276
 31
0.0
  0
SPLINE
  5
182
330
1F
100
AcDbEntity
  8
0
  6
Continuous
 62
     7
370
    25
100
AcDbSpline
210
0.0
220
0.0
230
1.0
 70
     8
 71
     3
 72
    11
 73
     7
 74
     0
 42
0.00000001
 43
0.00000001
 40
0.0
 40
0.0
 40
0.0
 40
0.0
 40
0.2431641197380915
 40
0.4936284730588937
 40
0.7421706076863286
 40
1.0
 40
1.0
 40
1.0
 40
1.0
 10
116.225269888714
 20
179.7427304517485
 30
0.0
 10
116.4354102119228
 20
180.2861769840193
 30
0.0
 10
116.8619996568844
 20
181.3893853118061
 30
0.0
 10
117.0723840870274
 20
183.1394303415327
 30
0.0
 10
116.8816973933604
 20
184.9263995054756
 30
0.0
 10
116.4467382229657
 20
186.0593438856979
 30
0.0
 10
116.225269888714
 20
186.6362056275941
 30
0.0
  0
LINE
  5
183
330
1F
100
AcDbEntity
  8
0
  6
Continuous
 62
     7
370
    25
100
AcDbLine
 10
118.2252698887
 20
186.6894680397
 30
0.0
 11
118.2252698887
 21
170.1894680397
 31
0.0
  0
LINE
  5
184
330
1F
100
AcDbEntity
  8
0
  6
Continuous
 62
     7
370
    25
100
AcDbLine
 10
113.6752698887
 20
170.2427304517
 30
0.0
 11
113.4252698887
 21
170.8496837169
 31
0.0
  0
LINE
  5
185
330
1F
100
AcDbEntity
  8
0
  6
Continuous
 62
     7
370
    25
100
AcDbLine
 10
113.4252698887
 20
176.5292523625
 30
0.0
 11
113.4252698887
 21
170.8496837169
 31
0.0
  0
LINE
  5
186
330
1F
100
AcDbEntity
  8
0
  6
Continuous
 62
     7
370
    25
100
AcDbLine
 10
113.4252698887
 20
176.5292523625
 30
0.0
 11
113.6752698887
 21
177.1362056276
 31
0.0
  0
LINE
  5
187
330
1F
100
AcDbEntity
  8
0
  6
Continuous
 62
     7
370
    25
100
AcDbLine
 10
116.2252698887
 20
177.1362056276
 30
0.0
 11
113.6752698887
 21
177.1362056276
 31
0.0
  0
LINE
  5
188
330
1F
100
AcDbEntity
  8
0
  6
Continuous
 62
     7
370
    25
100
AcDbLine
 10
113.6752698887
 20
170.2427304517
 30
0.0
 11
116.2252698887
 21
170.2427304517
 31
0.0
  0
LINE
  5
189
330
1F
100
AcDbEntity
  8
0
  6
Continuous
 62
     7
370
    25
100
AcDbLine
 10
113.6752698887
 20
179.7427304517
 30
0.0
 11
113.4252698887
 21
180.3496837169
 31
0.0
  0
LINE
  5
18A
330
1F
100
AcDbEntity
  8
0
  6
Continuous
 62
     7
370
    25
100
AcDbLine
 10
113.4252698887
 20
186.0292523625
 30
0.0
 11
113.4252698887
 21
180.3496837169
 31
0.0
  0
LINE
  5
18B
330
1F
100
AcDbEntity
  8
0
  6
Continuous
 62
     7
370
    25
100
AcDbLine
 10
113.4252698887
 20
186.0292523625
 30
0.0
 11
113.6752698887
 21
186.6362056276
 31
0.0
  0
LINE
  5
18C
330
1F
100
AcDbEntity
  8
0
  6
Continuous
 62
     7
370
    25
100
AcDbLine
 10
116.2252698887
 20
186.6362056276
 30
0.0
 11
113.6752698887
 21
186.6362056276
 31
0.0
  0
LINE
  5
18D
330
1F
100
AcDbEntity
  8
0
  6
Continuous
 62
     7
370
    25
100
AcDbLine
 10
113.6752698887
 20
179.7427304517
 30
0.0
 11
116.2252698887
 21
179.7427304517
 31
0.0
  0
LINE
  5
18E
330
1F
100
AcDbEntity
  8
0
  6
Continuous
 62
     7
370
    25
100
AcDbLine
 10
113.4252698887
 20
176.5292523625
 30
0.0
 11
113.4252698887
 21
180.3496837169
 31
0.0
  0
LINE
  5
18F
330
1F
100
AcDbEntity
  8
0
  6
Continuous
 62
     7
370
    25
100
AcDbLine
 10
113.6752698887
 20
179.7427304517
 30
0.0
 11
113.6752698887
 21
177.1362056276
 31
0.0
  0
SPLINE
  5
190
330
1F
100
AcDbEntity
  8
0
  6
Continuous
 62
     7
370
    25
100
AcDbSpline
210
0.0
220
0.0
230
1.0
 70
     8
 71
     3
 72
    11
 73
     7
 74
     0
 42
0.00000001
 43
0.00000001
 40
0.0
 40
0.0
 40
0.0
 40
0.0
 40
0.0823376510038091
 40
0.3188851439110015
 40
0.6247963511836877
 40
1.0
 40
1.0
 40
1.0
 40
1.0
 10
111.3257301143033
 20
187.8254926136882
 30
0.0
 10
111.3283582153293
 20
187.8220815984622
 30
0.0
 10
111.338536576792
 20
187.8088710918716
 30
0.0
 10
111.3592198409115
 20
187.6861286705537
 30
0.0
 10
111.3897320440348
 20
187.3896831489804
 30
0.0
 10
111.4126468693001
 20
186.9942205953708
 30
0.0
 10
111.425269888714
 20
186.7763733530767
 30
0.0
  0
LINE
  5
191
330
1F
100
AcDbEntity
  8
0
  6
Continuous
 62
     7
370
    25
100
AcDbLine
 10
111.4252698887
 20
174.0971174733
 30
0.0
 11
111.4252698887
 21
186.7763733529
 31
0.0
  0
SPLINE
  5
192
330
1F
100
AcDbEntity
  8
0
  6
Continuous
 62
     7
370
    25
100
AcDbSpline
210
0.0
220
0.0
230
1.0
 70
     8
 71
     3
 72
    30
 73
    26
 74
     0
 42
0.00000001
 43
0.00000001
 40
0.0
 40
0.0
 40
0.0
 40
0.0
 40
0.0182355448544065
 40
0.0763245661743252
 40
0.1063427875899049
 40
0.1451052306444134
 40
0.1926087823348561
 40
0.2376127113006339
 40
0.2719933646366511
 40
0.2957466639727327
 40
0.3088697938344322
 40
0.3375269424463682
 40
0.3661842311463162
 40
0.3948416612334269
 40
0.4234992340068308
 40
0.5378839981506605
 40
0.5908692721160762
 40
0.6380628073955174
 40
0.6794629392041788
 40
0.7306843854292003
 40
0.7688710157324232
 40
0.8038595024706399
 40
0.8540525738533307
 40
0.9194380368698538
 40
1.0
 40
1.0
 40
1.0
 40
1.0
 10
110.9641245325216
 20
187.8265395820905
 30
0.0
 10
110.9668056847132
 20
187.8300810656943
 30
0.0
 10
110.9780276021007
 20
187.8449038857325
 30
0.0
 10
110.9940529279133
 20
187.7613047463026
 30
0.0
 10
111.0136639594647
 20
187.6128503917682
 30
0.0
 10
111.0318262177859
 20
187.4213107137969
 30
0.0
 10
111.0524742323097
 20
187.1350709860105
 30
0.0
 10
111.072457153153
 20
186.78657669376
 30
0.0
 10
111.0885961291671
 20
186.4557811887562
 30
0.0
 10
111.0997079883794
 20
186.2040970559059
 30
0.0
 10
111.1096584680057
 20
185.9595852149243
 30
0.0
 10
111.1198235619099
 20
185.6810872043835
 30
0.0
 10
111.1326164027811
 20
185.3162338043518
 30
0.0
 10
111.1454583294977
 20
184.9275716098978
 30
0.0
 10
111.1713519398719
 20
184.107209620272
 30
0.0
 10
111.2018418268504
 20
183.0453971427459
 30
0.0
 10
111.2355522816706
 20
181.7815776235173
 30
0.0
 10
111.257615560801
 20
180.9143098417163
 30
0.0
 10
111.2792378006977
 20
180.0370162121194
 30
0.0
 10
111.2993386830153
 20
179.2017695508898
 30
0.0
 10
111.3177515579532
 20
178.4025482809459
 30
0.0
 10
111.3361004122295
 20
177.6101291091967
 30
0.0
 10
111.3592936287789
 20
176.6504107613768
 30
0.0
 10
111.3897378960191
 20
175.4205431078216
 30
0.0
 10
111.4126323239112
 20
174.5678165799103
 30
0.0
 10
111.425269888714
 20
174.0971174732836
 30
0.0
  0
SPLINE
  5
193
330
1F
100
AcDbEntity
  8
0
  6
Continuous
 62
     7
370
    25
100
AcDbSpline
210
0.0
220
0.0
230
1.0
 70
     8
 71
     3
 72
    12
 73
     8
 74
     0
 42
0.00000001
 43
0.00000001
 40
0.0
 40
0.0
 40
0.0
 40
0.0
 40
0.2176683106405472
 40
0.4685852168999713
 40
0.7246585792764159
 40
0.9786110903297413
 40
1.0
 40
1.0
 40
1.0
 40
1.0
 10
110.775269888714
 20
175.5933396050929
 30
0.0
 10
110.7960528124439
 20
174.8766609225974
 30
0.0
 10
110.8407932286999
 20
173.3338316752143
 30
0.0
 10
110.9037898127504
 20
171.4557169522513
 30
0.0
 10
110.976893428455
 20
170.2166011982285
 30
0.0
 10
111.0256045077276
 20
169.6884729395294
 30
0.0
 10
111.0506955139412
 20
169.8248832483818
 30
0.0
 10
111.052644618671
 20
169.835479793451
 30
0.0
  0
SPLINE
  5
194
330
1F
100
AcDbEntity
  8
0
  6
Continuous
 62
     7
370
    25
100
AcDbSpline
210
0.0
220
0.0
230
1.0
 70
     8
 71
     3
 72
    10
 73
     6
 74
     0
 42
0.00000001
 43
0.00000001
 40
0.0
 40
0.0
 40
0.0
 40
0.0
 40
0.3607337961396723
 40
0.8121409875158757
 40
1.0
 40
1.0
 40
1.0
 40
1.0
 10
111.7676718705288
 20
187.0038784793664
 30
0.0
 10
111.7861921198663
 20
186.9440876711363
 30
0.0
 10
111.827887834953
 20
186.8094771451475
 30
0.0
 10
111.88306811269
 20
185.8676177894946
 30
0.0
 10
111.9156849022908
 20
185.040536292643
 30
0.0
 10
111.925269888714
 20
184.7974846307466
 30
0.0
  0
SPLINE
  5
195
330
1F
100
AcDbEntity
  8
0
  6
Continuous
 62
     7
370
    25
100
AcDbSpline
210
0.0
220
0.0
230
1.0
 70
    24
 71
     3
 72
    10
 73
     6
 74
     0
 42
0.00000001
 43
0.00000001
 40
0.0
 40
0.0
 40
0.0
 40
0.0
 40
0.3187287177375321
 40
0.8180873955881237
 40
1.0
 40
1.0
 40
1.0
 40
1.0
 10
111.925269888714
 20
184.7974846307466
 30
0.0
 10
111.925269888714
 20
184.3609318023992
 30
0.0
 10
111.925269888714
 20
183.2404228977907
 30
0.0
 10
111.925269888714
 20
181.4366217398292
 30
0.0
 10
111.925269888714
 20
180.1304618973988
 30
0.0
 10
111.925269888714
 20
179.7816919655068
 30
0.0
  0
SPLINE
  5
196
330
1F
100
AcDbEntity
  8
0
  6
Continuous
 62
     7
370
    25
100
AcDbSpline
210
0.0
220
0.0
230
1.0
 70
     8
 71
     3
 72
    13
 73
     9
 74
     0
 42
0.00000001
 43
0.00000001
 40
0.0
 40
0.0
 40
0.0
 40
0.0
 40
0.2187316754180421
 40
0.3931473777464117
 40
0.5714254113794042
 40
0.7494200729435004
 40
0.8738925945231126
 40
1.0
 40
1.0
 40
1.0
 40
1.0
 10
111.925269888714
 20
179.7816919655068
 30
0.0
 10
111.8875420818075
 20
180.403798775477
 30
0.0
 10
111.8197302830587
 20
181.5219708945838
 30
0.0
 10
111.7209168544459
 20
183.0451900613112
 30
0.0
 10
111.6319053181947
 20
184.3476211158313
 30
0.0
 10
111.5571923912575
 20
185.3832033763591
 30
0.0
 10
111.487524312352
 20
186.1919222350681
 30
0.0
 10
111.4461114280241
 20
186.5807107762084
 30
0.0
 10
111.4252698887306
 20
186.7763733529291
 30
0.0
  0
SPLINE
  5
197
330
1F
100
AcDbEntity
  8
0
  6
Continuous
 62
     7
370
    25
100
AcDbSpline
210
0.0
220
0.0
230
1.0
 70
     8
 71
     3
 72
    15
 73
    11
 74
     0
 42
0.00000001
 43
0.00000001
 40
0.0
 40
0.0
 40
0.0
 40
0.0
 40
0.1853848730991207
 40
0.2777270836008036
 40
0.3700718582436233
 40
0.462416855210521
 40
0.6144793794637545
 40
0.7665419034043038
 40
0.9186044273391785
 40
1.0
 40
1.0
 40
1.0
 40
1.0
 10
111.425269888714
 20
174.0971174732834
 30
0.0
 10
111.4349873936898
 20
173.5603864188335
 30
0.0
 10
111.4495452930032
 20
172.7563038206238
 30
0.0
 10
111.4678775352675
 20
171.8391398898584
 30
0.0
 10
111.4815529665697
 20
171.2151646175504
 30
0.0
 10
111.498922237922
 20
170.5488979544416
 30
0.0
 10
111.5199265049866
 20
169.9111966085337
 30
0.0
 10
111.5442724088436
 20
169.4276130204696
 30
0.0
 10
111.5645003029378
 20
169.1904412068833
 30
0.0
 10
111.5761727999354
 20
169.2169566336172
 30
0.0
 10
111.580242436377
 20
169.2262012834058
 30
0.0
  0
SPLINE
  5
198
330
1F
100
AcDbEntity
  8
0
  6
Continuous
 62
     7
370
    25
100
AcDbSpline
210
0.0
220
0.0
230
1.0
 70
     8
 71
     3
 72
    14
 73
    10
 74
     0
 42
0.00000001
 43
0.00000001
 40
0.0
 40
0.0
 40
0.0
 40
0.0
 40
0.0578403592793417
 40
0.2161361478924428
 40
0.3736862591713957
 40
0.5337002824213858
 40
0.6901919037604665
 40
0.8498994977822804
 40
1.0
 40
1.0
 40
1.0
 40
1.0
 10
110.775269888714
 20
182.1342878439261
 30
0.0
 10
110.7839892544989
 20
181.8500658930894
 30
0.0
 10
110.8165715232864
 20
180.7879936935785
 30
0.0
 10
110.8717356034293
 20
178.6097867007794
 30
0.0
 10
110.9400631537437
 20
175.9157480146457
 30
0.0
 10
111.013968308122
 20
173.4453038850237
 30
0.0
 10
111.0801208494219
 20
171.4770251124015
 30
0.0
 10
111.1520666605966
 20
170.1421091512734
 30
0.0
 10
111.197498503441
 20
169.9330213954676
 30
0.0
 10
111.2195100083384
 20
169.8317194038961
 30
0.0
  0
LINE
  5
199
330
1F
100
AcDbEntity
  8
0
  6
Continuous
 62
     7
370
    25
100
AcDbLine
 10
111.9252698887
 20
179.7816919655
 30
0.0
 11
111.9252698887
 21
169.5394680397
 31
0.0
  0
SPLINE
  5
19A
330
1F
100
AcDbEntity
  8
0
  6
Continuous
 62
     7
370
    25
100
AcDbSpline
210
0.0
220
0.0
230
1.0
 70
    24
 71
     3
 72
    10
 73
     6
 74
     0
 42
0.00000001
 43
0.00000001
 40
0.0
 40
0.0
 40
0.0
 40
0.0
 40
0.2200266609304047
 40
0.6670013252276435
 40
1.0
 40
1.0
 40
1.0
 40
1.0
 10
111.925269888714
 20
187.0750983678689
 30
0.0
 10
111.925269888714
 20
187.0516378272942
 30
0.0
 10
111.925269888714
 20
186.980518211209
 30
0.0
 10
111.925269888714
 20
186.2755112620175
 30
0.0
 10
111.925269888714
 20
185.2397068100739
 30
0.0
 10
111.925269888714
 20
184.7974846307466
 30
0.0
  0
LINE
  5
19B
330
1F
100
AcDbEntity
  8
0
  6
Continuous
 62
     7
370
    25
100
AcDbLine
 10
113.6752698887
 20
170.2427304517
 30
0.0
 11
113.6752698887
 21
168.9394680397
 31
0.0
  0
LINE
  5
19C
330
1F
100
AcDbEntity
  8
0
  6
Continuous
 62
     7
370
    25
100
AcDbLine
 10
113.4252698887
 20
168.9394680397
 30
0.0
 11
113.6752698887
 21
168.9394680397
 31
0.0
  0
LINE
  5
19D
330
1F
100
AcDbEntity
  8
0
  6
Continuous
 62
     7
370
    25
100
AcDbLine
 10
113.4252698887
 20
168.9394680397
 30
0.0
 11
113.4252698887
 21
170.8496837169
 31
0.0
  0
LINE
  5
19E
330
1F
100
AcDbEntity
  8
0
  6
Continuous
 62
     7
370
    25
100
AcDbLine
 10
113.6752698887
 20
187.9394680397
 30
0.0
 11
113.4252698887
 21
187.9394680397
 31
0.0
  0
LINE
  5
19F
330
1F
100
AcDbEntity
  8
0
  6
Continuous
 62
     7
370
    25
100
AcDbLine
 10
113.6752698887
 20
187.9394680397
 30
0.0
 11
113.6752698887
 21
186.6362056276
 31
0.0
  0
LINE
  5
1A0
330
1F
100
AcDbEntity
  8
0
  6
Continuous
 62
     7
370
    25
100
AcDbLine
 10
113.4252698887
 20
186.0292523625
 30
0.0
 11
113.4252698887
 21
187.9394680397
 31
0.0
  0
LINE
  5
1A1
330
1F
100
AcDbEntity
  8
0
  6
Continuous
 62
     7
370
    25
100
AcDbLine
 10
116.2252698887
 20
168.9394680397
 30
0.0
 11
113.6752698887
 21
168.9394680397
 31
0.0
  0
LINE
  5
1A2
330
1F
100
AcDbEntity
  8
0
  6
Continuous
 62
     7
370
    25
100
AcDbLine
 10
113.6752698887
 20
187.9394680397
 30
0.0
 11
116.2252698887
 21
187.9394680397
 31
0.0
  0
SPLINE
  5
1A3
330
1F
100
AcDbEntity
  8
0
  6
Continuous
 62
     7
370
    25
100
AcDbSpline
210
0.0
220
0.0
230
1.0
 70
     8
 71
     3
 72
     9
 73
     5
 74
     0
 42
0.00000001
 43
0.00000001
 40
0.0
 40
0.0
 40
0.0
 40
0.0
 40
0.4439653465842513
 40
1.0
 40
1.0
 40
1.0
 40
1.0
 10
101.7920338255132
 20
192.1438054909398
 30
0.0
 10
101.7178510989509
 20
192.3598593693622
 30
0.0
 10
101.5507598447955
 20
192.8465051854932
 30
0.0
 10
101.5343784897752
 20
193.1969278686755
 30
0.0
 10
101.525269888714
 20
193.3917750238678
 30
0.0
  0
LINE
  5
1A4
330
1F
100
AcDbEntity
  8
0
  6
Continuous
 62
     7
370
    25
100
AcDbLine
 10
101.5252698887
 20
163.4871610555
 30
0.0
 11
101.6131920377
 21
164.0443021749
 31
0.0
  0
LINE
  5
1A5
330
1F
100
AcDbEntity
  8
0
  6
Continuous
 62
     7
370
    25
100
AcDbLine
 10
101.5252698887
 20
163.4871610555
 30
0.0
 11
101.5252698887
 21
162.7603341814
 31
0.0
  0
SPLINE
  5
1A6
330
1F
100
AcDbEntity
  8
0
  6
Continuous
 62
     7
370
    25
100
AcDbSpline
210
0.0
220
0.0
230
1.0
 70
     8
 71
     3
 72
     9
 73
     5
 74
     0
 42
0.00000001
 43
0.00000001
 40
0.0
 40
0.0
 40
0.0
 40
0.0
 40
0.5850553834536188
 40
1.0
 40
1.0
 40
1.0
 40
1.0
 10
101.9397267962914
 20
162.1894680396713
 30
0.0
 10
101.8031726622671
 20
162.22116645671
 30
0.0
 10
101.5697688890751
 20
162.2753466556025
 30
0.0
 10
101.5383196013499
 20
162.6181074394026
 30
0.0
 10
101.525269888714
 20
162.7603341814036
 30
0.0
  0
SPLINE
  5
1A7
330
1F
100
AcDbEntity
  8
0
  6
Continuous
 62
     7
370
    25
100
AcDbSpline
210
0.0
220
0.0
230
1.0
 70
    27
 71
     3
 72
    11
 73
     7
 74
     0
 42
0.00000001
 43
0.00000001
 40
0.0
 40
0.0
 40
0.0
 40
0.0
 40
0.2328716322111479
 40
0.4710265024313248
 40
0.7311421212560302
 40
0.9999999999999999
 40
0.9999999999999999
 40
0.9999999999999999
 40
0.9999999999999999
 10
101.9397267962914
 20
162.1894680396713
 30
0.0
 10
102.2101235309642
 20
162.1894680396713
 30
0.0
 10
102.757051583095
 20
162.1894680396713
 30
0.0
 10
103.0582759010786
 20
162.1894680396713
 30
0.0
 10
102.8506241356689
 20
162.1894680396713
 30
0.0
 10
102.2466863038886
 20
162.1894680396713
 30
0.0
 10
101.9397267962914
 20
162.1894680396713
 30
0.0
  0
SPLINE
  5
1A8
330
1F
100
AcDbEntity
  8
0
  6
Continuous
 62
     7
370
    25
100
AcDbSpline
210
0.0
220
0.0
230
1.0
 70
     8
 71
     3
 72
     9
 73
     5
 74
     0
 42
0.00000001
 43
0.00000001
 40
0.0
 40
0.0
 40
0.0
 40
0.0
 40
0.5841917497409234
 40
1.0
 40
1.0
 40
1.0
 40
1.0
 10
101.525269888714
 20
162.7603341814036
 30
0.0
 10
101.5514378525347
 20
162.5692519593371
 30
0.0
 10
101.5962313023433
 20
162.2421637692843
 30
0.0
 10
101.8388457198573
 20
162.204944230831
 30
0.0
 10
101.9397267962914
 20
162.1894680396713
 30
0.0
  0
LINE
  5
1A9
330
1F
100
AcDbEntity
  8
0
  6
Continuous
 62
     7
370
    25
100
AcDbLine
 10
101.5252698887
 20
162.7603341814
 30
0.0
 11
101.5252698887
 21
163.4871610555
 31
0.0
  0
SPLINE
  5
1AA
330
1F
100
AcDbEntity
  8
0
  6
Continuous
 62
     7
370
    25
100
AcDbSpline
210
0.0
220
0.0
230
1.0
 70
     8
 71
     3
 72
     9
 73
     5
 74
     0
 42
0.00000001
 43
0.00000001
 40
0.0
 40
0.0
 40
0.0
 40
0.0
 40
0.5850553834536188
 40
1.0
 40
1.0
 40
1.0
 40
1.0
 10
101.9397267962914
 20
165.2109765877337
 30
0.0
 10
101.8031726622671
 20
164.8244300621699
 30
0.0
 10
101.5697688890751
 20
164.1637293208452
 30
0.0
 10
101.5383196013499
 20
163.6855704887195
 30
0.0
 10
101.525269888714
 20
163.4871610554748
 30
0.0
  0
SPLINE
  5
1AB
330
1F
100
AcDbEntity
  8
0
  6
Continuous
 62
     7
370
    25
100
AcDbSpline
210
0.0
220
0.0
230
1.0
 70
     8
 71
     3
 72
    11
 73
     7
 74
     0
 42
0.00000001
 43
0.00000001
 40
0.0
 40
0.0
 40
0.0
 40
0.0
 40
0.2556279644380972
 40
0.5185037642963866
 40
0.7560467972580102
 40
0.9999999999999999
 40
0.9999999999999999
 40
0.9999999999999999
 40
0.9999999999999999
 10
101.9397267962914
 20
175.4179594916089
 30
0.0
 10
102.2333527563934
 20
174.5670149186415
 30
0.0
 10
102.8289298715289
 20
172.8409988888183
 30
0.0
 10
103.0608188331556
 20
170.2079163606211
 30
0.0
 10
102.7778483746948
 20
167.6241889404504
 30
0.0
 10
102.2215692411305
 20
166.022488529356
 30
0.0
 10
101.9397267962914
 20
165.2109765877337
 30
0.0
  0
SPLINE
  5
1AC
330
1F
100
AcDbEntity
  8
0
  6
Continuous
 62
     7
370
    25
100
AcDbSpline
210
0.0
220
0.0
230
1.0
 70
     8
 71
     3
 72
     9
 73
     5
 74
     0
 42
0.00000001
 43
0.00000001
 40
0.0
 40
0.0
 40
0.0
 40
0.0
 40
0.5841917497409257
 40
1.0
 40
1.0
 40
1.0
 40
1.0
 10
101.525269888714
 20
177.7126411656001
 30
0.0
 10
101.5514378525347
 20
177.2322830400338
 30
0.0
 10
101.5962313023434
 20
176.4100219831475
 30
0.0
 10
101.8388457198573
 20
175.709317992083
 30
0.0
 10
101.9397267962914
 20
175.4179594916089
 30
0.0
  0
LINE
  5
1AD
330
1F
100
AcDbEntity
  8
0
  6
Continuous
 62
     7
370
    25
100
AcDbLine
 10
101.5252698887
 20
177.7126411656
 30
0.0
 11
101.5252698887
 21
179.1662949137
 31
0.0
  0
SPLINE
  5
1AE
330
1F
100
AcDbEntity
  8
0
  6
Continuous
 62
     7
370
    25
100
AcDbSpline
210
0.0
220
0.0
230
1.0
 70
     8
 71
     3
 72
     9
 73
     5
 74
     0
 42
0.00000001
 43
0.00000001
 40
0.0
 40
0.0
 40
0.0
 40
0.0
 40
0.5850553834536182
 40
0.9999999999999999
 40
0.9999999999999999
 40
0.9999999999999999
 40
0.9999999999999999
 10
101.9397267962914
 20
181.4609765877337
 30
0.0
 10
101.8031726622671
 20
181.0427316451312
 30
0.0
 10
101.5697688890751
 20
180.327850704914
 30
0.0
 10
101.5383196013499
 20
179.5069310889883
 30
0.0
 10
101.525269888714
 20
179.1662949137425
 30
0.0
  0
SPLINE
  5
1AF
330
1F
100
AcDbEntity
  8
0
  6
Continuous
 62
     7
370
    25
100
AcDbSpline
210
0.0
220
0.0
230
1.0
 70
     8
 71
     3
 72
    11
 73
     7
 74
     0
 42
0.00000001
 43
0.00000001
 40
0.0
 40
0.0
 40
0.0
 40
0.0
 40
0.2328716322111471
 40
0.471026502431323
 40
0.7311421212560291
 40
1.0
 40
1.0
 40
1.0
 40
1.0
 10
101.9397267962914
 20
191.6679594916089
 30
0.0
 10
102.2101235309642
 20
190.8938571156154
 30
0.0
 10
102.757051583095
 20
189.3280900394546
 30
0.0
 10
103.0582759010786
 20
186.7926510721599
 30
0.0
 10
102.8506241356689
 20
184.1191449916907
 30
0.0
 10
102.2466863038887
 20
182.3567417075954
 30
0.0
 10
101.9397267962914
 20
181.4609765877337
 30
0.0
  0
SPLINE
  5
1B0
330
1F
100
AcDbEntity
  8
0
  6
Continuous
 62
     7
370
    25
100
AcDbSpline
210
0.0
220
0.0
230
1.0
 70
     8
 71
     3
 72
     9
 73
     5
 74
     0
 42
0.00000001
 43
0.00000001
 40
0.0
 40
0.0
 40
0.0
 40
0.0
 40
0.5841917497409239
 40
1.0
 40
1.0
 40
1.0
 40
1.0
 10
101.525269888714
 20
193.3917750238678
 30
0.0
 10
101.5514378525347
 20
193.1024991203681
 30
0.0
 10
101.5962313023433
 20
192.6073262535345
 30
0.0
 10
101.8388457198573
 20
191.9438418009233
 30
0.0
 10
101.9397267962914
 20
191.6679594916089
 30
0.0
  0
LINE
  5
1B1
330
1F
100
AcDbEntity
  8
0
  6
Continuous
 62
     7
370
    25
100
AcDbLine
 10
101.5252698887
 20
193.3917750239
 30
0.0
 11
101.5252698887
 21
194.1186018979
 31
0.0
  0
SPLINE
  5
1B2
330
1F
100
AcDbEntity
  8
0
  6
Continuous
 62
     7
370
    25
100
AcDbSpline
210
0.0
220
0.0
230
1.0
 70
     8
 71
     3
 72
     9
 73
     5
 74
     0
 42
0.00000001
 43
0.00000001
 40
0.0
 40
0.0
 40
0.0
 40
0.0
 40
0.5850553834536166
 40
1.0
 40
1.0
 40
1.0
 40
1.0
 10
101.9397267962914
 20
194.6894680396713
 30
0.0
 10
101.8031726622671
 20
194.6577696226327
 30
0.0
 10
101.5697688890751
 20
194.6035894237401
 30
0.0
 10
101.5383196013499
 20
194.2608286399401
 30
0.0
 10
101.525269888714
 20
194.118601897939
 30
0.0
  0
SPLINE
  5
1B3
330
1F
100
AcDbEntity
  8
0
  6
Continuous
 62
     7
370
    25
100
AcDbSpline
210
0.0
220
0.0
230
1.0
 70
    27
 71
     3
 72
    11
 73
     7
 74
     0
 42
0.00000001
 43
0.00000001
 40
0.0
 40
0.0
 40
0.0
 40
0.0
 40
0.2328716322111485
 40
0.471026502431326
 40
0.7311421212560308
 40
1.0
 40
1.0
 40
1.0
 40
1.0
 10
101.9397267962914
 20
194.6894680396713
 30
0.0
 10
102.2101235309642
 20
194.6894680396713
 30
0.0
 10
102.757051583095
 20
194.6894680396713
 30
0.0
 10
103.0582759010786
 20
194.6894680396713
 30
0.0
 10
102.8506241356689
 20
194.6894680396713
 30
0.0
 10
102.2466863038886
 20
194.6894680396713
 30
0.0
 10
101.9397267962914
 20
194.6894680396713
 30
0.0
  0
SPLINE
  5
1B4
330
1F
100
AcDbEntity
  8
0
  6
Continuous
 62
     7
370
    25
100
AcDbSpline
210
0.0
220
0.0
230
1.0
 70
     8
 71
     3
 72
     9
 73
     5
 74
     0
 42
0.00000001
 43
0.00000001
 40
0.0
 40
0.0
 40
0.0
 40
0.0
 40
0.5841917497409264
 40
1.0
 40
1.0
 40
1.0
 40
1.0
 10
101.525269888714
 20
194.1186018979391
 30
0.0
 10
101.5514378525347
 20
194.3096841200056
 30
0.0
 10
101.5962313023433
 20
194.6367723100583
 30
0.0
 10
101.8388457198573
 20
194.6739918485116
 30
0.0
 10
101.9397267962914
 20
194.6894680396713
 30
0.0
  0
LINE
  5
1B5
330
1F
100
AcDbEntity
  8
0
  6
Continuous
 62
     7
370
    25
100
AcDbLine
 10
101.5252698887
 20
194.1186018979
 30
0.0
 11
101.5252698887
 21
193.3917750239
 31
0.0
  0
LINE
  5
1B6
330
1F
100
AcDbEntity
  8
0
  6
Continuous
 62
     7
370
    25
100
AcDbLine
 10
103.0252698887
 20
162.2542640275
 30
0.0
 11
103.0252698887
 21
194.6357686203
 31
0.0
  0
SPLINE
  5
1B7
330
1F
100
AcDbEntity
  8
0
  6
Continuous
 62
     7
370
    25
100
AcDbSpline
210
0.0
220
0.0
230
1.0
 70
     8
 71
     3
 72
     9
 73
     5
 74
     0
 42
0.00000001
 43
0.00000001
 40
0.0
 40
0.0
 40
0.0
 40
0.0
 40
0.4167058089676245
 40
1.0
 40
1.0
 40
1.0
 40
1.0
 10
94.72841574654892
 20
164.7513698034691
 30
0.0
 10
94.72467636697945
 20
164.6540748666564
 30
0.0
 10
94.71570269901278
 20
164.4205889523281
 30
0.0
 10
94.70671357096153
 20
164.3583258406847
 30
0.0
 10
94.70147026478679
 20
164.3220081293476
 30
0.0
  0
LINE
  5
1B8
330
1F
100
AcDbEntity
  8
0
  6
Continuous
 62
     7
370
    25
100
AcDbLine
 10
94.697603564
 20
164.3405668629
 30
0.0
 11
94.6943873345
 21
164.3560035754
 31
0.0
  0
LINE
  5
1B9
330
1F
100
AcDbEntity
  8
0
  6
Continuous
 62
     7
370
    25
100
AcDbLine
 10
94.2950461921
 20
192.9255736353
 30
0.0
 11
94.2918102931
 21
192.9212497389
 31
0.0
  0
LINE
  5
1BA
330
1F
100
AcDbEntity
  8
0
  6
Continuous
 62
     7
370
    25
100
AcDbLine
 10
94.6608129811
 20
181.4609765877
 30
0.0
 11
101.9397267963
 21
181.4609765877
 31
0.0
  0
LINE
  5
1BB
330
1F
100
AcDbEntity
  8
0
  6
Continuous
 62
     7
370
    25
100
AcDbLine
 10
101.9397267963
 20
191.6679594916
 30
0.0
 11
94.6608129811
 21
191.6679594916
 31
0.0
  0
SPLINE
  5
1BC
330
1F
100
AcDbEntity
  8
0
  6
Continuous
 62
     7
370
    25
100
AcDbSpline
210
0.0
220
0.0
230
1.0
 70
     8
 71
     3
 72
    11
 73
     7
 74
     0
 42
0.00000001
 43
0.00000001
 40
0.0
 40
0.0
 40
0.0
 40
0.0
 40
0.2328716322111453
 40
0.4710265024313188
 40
0.731142121256027
 40
1.0
 40
1.0
 40
1.0
 40
1.0
 10
94.66081298113669
 20
181.4609765877337
 30
0.0
 10
94.3904162464639
 20
182.2350789637273
 30
0.0
 10
93.84348819433308
 20
183.800846039888
 30
0.0
 10
93.54226387634945
 20
186.3362850071827
 30
0.0
 10
93.74991564175919
 20
189.0097910876519
 30
0.0
 10
94.35385347353944
 20
190.7721943717472
 30
0.0
 10
94.66081298113669
 20
191.6679594916089
 30
0.0
  0
LINE
  5
1BD
330
1F
100
AcDbEntity
  8
0
  6
Continuous
 62
     7
370
    25
100
AcDbLine
 10
110.7752698887
 20
173.1519680397
 30
0.0
 11
110.7752698887
 21
189.0144680397
 31
0.0
  0
LINE
  5
1BE
330
1F
100
AcDbEntity
  8
0
  6
Continuous
 62
     7
370
    25
100
AcDbLine
 10
110.7752698887
 20
167.8644680397
 30
0.0
 11
110.7752698887
 21
173.1519680397
 31
0.0
  0
LINE
  5
1BF
330
1F
100
AcDbEntity
  8
0
  6
Continuous
 62
     7
370
    25
100
AcDbLine
 10
94.5315361956
 20
193.0398481981
 30
0.0
 11
94.544301552
 21
193.0388512115
 31
0.0
  0
LINE
  5
1C0
330
1F
100
AcDbEntity
  8
0
  6
Continuous
 62
     7
370
    25
100
AcDbLine
 10
101.5252698887
 20
179.1662949137
 30
0.0
 11
95.0752698887
 21
179.1662949137
 31
0.0
  0
SPLINE
  5
1C1
330
1F
100
AcDbEntity
  8
0
  6
Continuous
 62
     7
370
    25
100
AcDbSpline
210
0.0
220
0.0
230
1.0
 70
     8
 71
     3
 72
     9
 73
     5
 74
     0
 42
0.00000001
 43
0.00000001
 40
0.0
 40
0.0
 40
0.0
 40
0.0
 40
0.5841917497409203
 40
1.0
 40
1.0
 40
1.0
 40
1.0
 10
95.07526988871405
 20
179.1662949137425
 30
0.0
 10
95.0491019248934
 20
179.6466530393088
 30
0.0
 10
95.00430847508476
 20
180.4689140961951
 30
0.0
 10
94.76169405757079
 20
181.1696180872596
 30
0.0
 10
94.66081298113669
 20
181.4609765877337
 30
0.0
  0
LINE
  5
1C2
330
1F
100
AcDbEntity
  8
0
  6
Continuous
 62
     7
370
    25
100
AcDbLine
 10
95.0752698887
 20
177.7126411656
 30
0.0
 11
101.5252698887
 21
177.7126411656
 31
0.0
  0
LINE
  5
1C3
330
1F
100
AcDbEntity
  8
0
  6
Continuous
 62
     7
370
    25
100
AcDbLine
 10
95.0752698887
 20
179.1662949137
 30
0.0
 11
95.0752698887
 21
177.7126411656
 31
0.0
  0
LINE
  5
1C4
330
1F
100
AcDbEntity
  8
0
  6
Continuous
 62
     7
370
    25
100
AcDbLine
 10
101.9397267963
 20
175.4179594916
 30
0.0
 11
94.6608129811
 21
175.4179594916
 31
0.0
  0
SPLINE
  5
1C5
330
1F
100
AcDbEntity
  8
0
  6
Continuous
 62
     7
370
    25
100
AcDbSpline
210
0.0
220
0.0
230
1.0
 70
     8
 71
     3
 72
     9
 73
     5
 74
     0
 42
0.00000001
 43
0.00000001
 40
0.0
 40
0.0
 40
0.0
 40
0.0
 40
0.5850553834536154
 40
1.0
 40
1.0
 40
1.0
 40
1.0
 10
94.66081298113669
 20
175.4179594916089
 30
0.0
 10
94.79736711516101
 20
175.8362044342114
 30
0.0
 10
95.03077088835295
 20
176.5510853744286
 30
0.0
 10
95.06222017607823
 20
177.3720049903544
 30
0.0
 10
95.07526988871405
 20
177.7126411656001
 30
0.0
  0
LINE
  5
1C6
330
1F
100
AcDbEntity
  8
0
  6
Continuous
 62
     7
370
    25
100
AcDbLine
 10
94.6608129811
 20
165.2109765877
 30
0.0
 11
101.9397267963
 21
165.2109765877
 31
0.0
  0
SPLINE
  5
1C7
330
1F
100
AcDbEntity
  8
0
  6
Continuous
 62
     7
370
    25
100
AcDbSpline
210
0.0
220
0.0
230
1.0
 70
     8
 71
     3
 72
    11
 73
     7
 74
     0
 42
0.00000001
 43
0.00000001
 40
0.0
 40
0.0
 40
0.0
 40
0.0
 40
0.2379053903768115
 40
0.4814905141302429
 40
0.7366519444347656
 40
1.0
 40
1.0
 40
1.0
 40
1.0
 10
94.66081298113679
 20
165.2109765877335
 30
0.0
 10
94.38522754616375
 20
166.0020598090443
 30
0.0
 10
93.82747737261028
 20
167.6031125062761
 30
0.0
 10
93.5409141479539
 20
170.1601843070601
 30
0.0
 10
93.76579455415197
 20
172.8139171729238
 30
0.0
 10
94.35934967107015
 20
174.5408566373259
 30
0.0
 10
94.66081298113669
 20
175.4179594916089
 30
0.0
  0
LINE
  5
1C8
330
1F
100
AcDbEntity
  8
0
  6
Continuous
 62
     7
370
    25
100
AcDbLine
 10
95.0752698887
 20
193.3917750239
 30
0.0
 11
101.5252698887
 21
193.3917750239
 31
0.0
  0
SPLINE
  5
1C9
330
1F
100
AcDbEntity
  8
0
  6
Continuous
 62
     7
370
    25
100
AcDbSpline
210
0.0
220
0.0
230
1.0
 70
     8
 71
     3
 72
     9
 73
     5
 74
     0
 42
0.00000001
 43
0.00000001
 40
0.0
 40
0.0
 40
0.0
 40
0.0
 40
0.5850553834536188
 40
1.0
 40
1.0
 40
1.0
 40
1.0
 10
94.66081298113669
 20
191.6679594916089
 30
0.0
 10
94.79736711516101
 20
192.0545060171727
 30
0.0
 10
95.03077088835293
 20
192.7152067584974
 30
0.0
 10
95.06222017607821
 20
193.1933655906231
 30
0.0
 10
95.07526988871403
 20
193.3917750238678
 30
0.0
  0
LINE
  5
1CA
330
1F
100
AcDbEntity
  8
0
  6
Continuous
 62
     7
370
    25
100
AcDbLine
 10
101.5252698887
 20
163.4871610555
 30
0.0
 11
95.0752698887
 21
163.4871610555
 31
0.0
  0
SPLINE
  5
1CB
330
1F
100
AcDbEntity
  8
0
  6
Continuous
 62
     7
370
    25
100
AcDbSpline
210
0.0
220
0.0
230
1.0
 70
     8
 71
     3
 72
     9
 73
     5
 74
     0
 42
0.00000001
 43
0.00000001
 40
0.0
 40
0.0
 40
0.0
 40
0.0
 40
0.5841917497409932
 40
1.0
 40
1.0
 40
1.0
 40
1.0
 10
95.07526988871405
 20
163.4871610554748
 30
0.0
 10
95.0491019248934
 20
163.7764369589746
 30
0.0
 10
95.00430847508476
 20
164.271609825808
 30
0.0
 10
94.76169405757085
 20
164.9350942784192
 30
0.0
 10
94.66081298113679
 20
165.2109765877335
 30
0.0
  0
LINE
  5
1CC
330
1F
100
AcDbEntity
  8
0
  6
Continuous
 62
     7
370
    25
100
AcDbLine
 10
101.5252698887
 20
194.1186018979
 30
0.0
 11
95.0752698887
 21
194.1186018979
 31
0.0
  0
LINE
  5
1CD
330
1F
100
AcDbEntity
  8
0
  6
Continuous
 62
     7
370
    25
100
AcDbLine
 10
95.0752698887
 20
194.1186018979
 30
0.0
 11
95.0752698887
 21
193.3917750239
 31
0.0
  0
LINE
  5
1CE
330
1F
100
AcDbEntity
  8
0
  6
Continuous
 62
     7
370
    25
100
AcDbLine
 10
95.0752698887
 20
162.7603341814
 30
0.0
 11
101.5252698887
 21
162.7603341814
 31
0.0
  0
LINE
  5
1CF
330
1F
100
AcDbEntity
  8
0
  6
Continuous
 62
     7
370
    25
100
AcDbLine
 10
95.0752698887
 20
163.4871610555
 30
0.0
 11
95.0752698887
 21
162.7603341814
 31
0.0
  0
LINE
  5
1D0
330
1F
100
AcDbEntity
  8
0
  6
Continuous
 62
     7
370
    25
100
AcDbLine
 10
94.6608129811
 20
194.6894680397
 30
0.0
 11
101.9397267963
 21
194.6894680397
 31
0.0
  0
SPLINE
  5
1D1
330
1F
100
AcDbEntity
  8
0
  6
Continuous
 62
     7
370
    25
100
AcDbSpline
210
0.0
220
0.0
230
1.0
 70
     8
 71
     3
 72
     9
 73
     5
 74
     0
 42
0.00000001
 43
0.00000001
 40
0.0
 40
0.0
 40
0.0
 40
0.0
 40
0.5841917497409259
 40
1.0
 40
1.0
 40
1.0
 40
1.0
 10
95.07526988871403
 20
194.118601897939
 30
0.0
 10
95.0491019248934
 20
194.3096841200056
 30
0.0
 10
95.00430847508476
 20
194.6367723100583
 30
0.0
 10
94.76169405757079
 20
194.6739918485116
 30
0.0
 10
94.66081298113669
 20
194.6894680396713
 30
0.0
  0
LINE
  5
1D2
330
1F
100
AcDbEntity
  8
0
  6
Continuous
 62
     7
370
    25
100
AcDbLine
 10
101.9397267963
 20
162.1894680397
 30
0.0
 11
94.6608129811
 21
162.1894680397
 31
0.0
  0
SPLINE
  5
1D3
330
1F
100
AcDbEntity
  8
0
  6
Continuous
 62
     7
370
    25
100
AcDbSpline
210
0.0
220
0.0
230
1.0
 70
     8
 71
     3
 72
     9
 73
     5
 74
     0
 42
0.00000001
 43
0.00000001
 40
0.0
 40
0.0
 40
0.0
 40
0.0
 40
0.5850553834536137
 40
1.0
 40
1.0
 40
1.0
 40
1.0
 10
94.66081298113669
 20
162.1894680396713
 30
0.0
 10
94.79736711516101
 20
162.22116645671
 30
0.0
 10
95.03077088835293
 20
162.2753466556025
 30
0.0
 10
95.06222017607821
 20
162.6181074394026
 30
0.0
 10
95.07526988871405
 20
162.7603341814036
 30
0.0
  0
LWPOLYLINE
  5
1D4
330
1F
100
AcDbEntity
  8
0
  6
Continuous
 62
     8
370
    25
100
AcDbPolyline
 90
       18
 70
   128
 43
0.0
 10
54.4752698887
 20
73.3664799513
 10
54.6097824012
 20
73.8777414287
 10
55.0087392764
 20
74.3715925097
 10
55.6585545165
 20
74.831215688
 10
56.5370994427
 20
75.2409590475
 10
57.6144562613
 20
75.5868692697
 10
58.8539368781
 20
75.8571667966
 10
60.2133322671
 20
76.0426469703
 10
61.646349849
 20
76.1369934858
 10
63.1041899285
 20
76.1369934858
 10
64.5372075103
 20
76.0426469703
 10
65.8966028993
 20
75.8571667966
 10
67.1360835161
 20
75.5868692697
 10
68.2134403348
 20
75.2409590475
 10
69.091985261
 20
74.831215688
 10
69.741800501
 20
74.3715925097
 10
70.1407573762
 20
73.8777414287
 10
70.2752698887
 20
73.3664799513
  0
LWPOLYLINE
  5
1D5
330
1F
100
AcDbEntity
  8
0
  6
Continuous
 62
     8
370
    25
100
AcDbPolyline
 90
       18
 70
   128
 43
0.0
 10
54.4752698887
 20
155.7664799513
 10
54.6097824012
 20
156.2777414287
 10
55.0087392764
 20
156.7715925097
 10
55.6585545165
 20
157.231215688
 10
56.5370994427
 20
157.6409590475
 10
57.6144562613
 20
157.9868692697
 10
58.8539368781
 20
158.2571667966
 10
60.2133322671
 20
158.4426469703
 10
61.646349849
 20
158.5369934858
 10
63.1041899285
 20
158.5369934858
 10
64.5372075103
 20
158.4426469703
 10
65.8966028993
 20
158.2571667966
 10
67.1360835161
 20
157.9868692697
 10
68.2134403348
 20
157.6409590475
 10
69.091985261
 20
157.231215688
 10
69.741800501
 20
156.7715925097
 10
70.1407573762
 20
156.2777414287
 10
70.2752698887
 20
155.7664799513
  0
ARC
  5
1D6
330
1F
100
AcDbEntity
  8
0
  6
Continuous
 62
     8
370
    25
100
AcDbCircle
 10
62.3752698887
 20
26.0394680397
 30
0.0
 40
8.41047229201953
100
AcDbArc
 50
159.9351921799
 51
270.0
  0
ARC
  5
1D7
330
1F
100
AcDbEntity
  8
0
  6
Continuous
 62
     8
370
    25
100
AcDbCircle
 10
62.3752698887
 20
26.0394680397
 30
0.0
 40
8.41047229201953
100
AcDbArc
 50
270.0
 51
20.0648078201
  0
ARC
  5
1D8
330
1F
100
AcDbEntity
  8
0
  6
Continuous
 62
     8
370
    25
100
AcDbCircle
 10
69.31878414
 20
157.728588325
 30
0.0
 40
7.943655242545583
100
AcDbArc
 50
57.337317599
 51
83.0843056245
  0
ARC
  5
1D9
330
1F
100
AcDbEntity
  8
0
  6
Continuous
 62
     8
370
    25
100
AcDbCircle
 10
69.4523511816
 20
198.82906894
 30
0.0
 40
7.601341921577784
100
AcDbArc
 50
272.8159102746
 51
303.1220773789
  0
SPLINE
  5
1DA
330
1F
100
AcDbEntity
  8
0
  6
Continuous
 62
     8
370
    25
100
AcDbSpline
210
0.0
220
0.0
230
1.0
 70
     8
 71
     3
 72
    12
 73
     8
 74
     0
 42
0.00000001
 43
0.00000001
 40
0.0
 40
0.0
 40
0.0
 40
0.0
 40
0.1924082105681739
 40
0.4135492548068708
 40
0.6381901448204661
 40
0.8686791278218468
 40
1.0
 40
1.0
 40
1.0
 40
1.0
 10
76.36571167628617
 20
194.628420688495
 30
0.0
 10
76.31560469267183
 20
194.6148870491839
 30
0.0
 10
76.20790811531094
 20
194.585798755938
 30
0.0
 10
75.78385955829839
 20
194.2537985653344
 30
0.0
 10
75.13392023861938
 20
193.7070791562874
 30
0.0
 10
74.38475688102335
 20
193.0750055162453
 30
0.0
 10
73.81331883254386
 20
192.6258910796894
 30
0.0
 10
73.60591225738335
 20
192.4628825306629
 30
0.0
  0
SPLINE
  5
1DB
330
1F
100
AcDbEntity
  8
0
  6
Continuous
 62
     8
370
    25
100
AcDbSpline
210
0.0
220
0.0
230
1.0
 70
     8
 71
     3
 72
    12
 73
     8
 74
     0
 42
0.00000001
 43
0.00000001
 40
0.0
 40
0.0
 40
0.0
 40
0.0
 40
0.2298983238880673
 40
0.46580431102087
 40
0.6969655693638132
 40
0.9348948514667818
 40
0.9999999999999999
 40
0.9999999999999999
 40
0.9999999999999999
 40
0.9999999999999999
 10
73.60591225738335
 20
164.4160535486797
 30
0.0
 10
73.96053631013469
 20
164.1340971887848
 30
0.0
 10
74.6790513900606
 20
163.5628164341555
 30
0.0
 10
75.46475397143962
 20
162.8899258590469
 30
0.0
 10
76.03547127731669
 20
162.4223237601574
 30
0.0
 10
76.29497991726433
 20
162.2478132940289
 30
0.0
 10
76.35856101605073
 20
162.2440327841643
 30
0.0
 10
76.37222103769152
 20
162.2432205640619
 30
0.0
  0
LINE
  5
1DC
330
1F
100
AcDbEntity
  8
0
  6
Continuous
 62
     8
370
    25
100
AcDbLine
 10
68.39469121
 20
192.9152987228
 30
0.0
 11
68.8504307921
 21
194.0112859739
 31
0.0
  0
ARC
  5
1DD
330
1F
100
AcDbEntity
  8
0
  6
Continuous
 62
     8
370
    25
100
AcDbCircle
 10
62.3752698887
 20
178.4394680397
 30
0.0
 40
16.8644366197183
100
AcDbArc
 50
67.4212070912
 51
242.0668292396
  0
ARC
  5
1DE
330
1F
100
AcDbEntity
  8
0
  6
Continuous
 62
     8
370
    25
100
AcDbCircle
 10
76.4599738266
 20
147.6291538776
 30
0.0
 40
17.02779104902313
100
AcDbArc
 50
99.6490027568
 51
111.2976087729
  0
ARC
  5
1DF
330
1F
100
AcDbEntity
  8
0
  6
Continuous
 62
     8
370
    25
100
AcDbCircle
 10
62.3752698887
 20
178.4394680397
 30
0.0
 40
24.76305823079824
100
AcDbArc
 50
288.6038866725
 51
319.140960131
  0
ARC
  5
1E0
330
1F
100
AcDbEntity
  8
0
  6
Continuous
 62
     8
370
    25
100
AcDbCircle
 10
62.3752698887
 20
178.4394680397
 30
0.0
 40
24.76305823079824
100
AcDbArc
 50
40.859039869
 51
251.3961133275
  0
LINE
  5
1E1
330
1F
100
AcDbEntity
  8
0
  6
Continuous
 62
     8
370
    25
100
AcDbLine
 10
54.3160360414
 20
170.8651070126
 30
0.0
 11
54.4752698887
 21
170.6991711994
 31
0.0
  0
ARC
  5
1E2
330
1F
100
AcDbEntity
  8
0
  6
Continuous
 62
     8
370
    25
100
AcDbCircle
 10
62.3752698887
 20
178.4394680397
 30
0.0
 40
11.0599364905389
100
AcDbArc
 50
315.5850271977
 51
223.2235523034
  0
ARC
  5
1E3
330
1F
100
AcDbEntity
  8
0
  6
Continuous
 62
     8
370
    25
100
AcDbCircle
 10
62.3752698887
 20
178.4394680397
 30
0.0
 40
11.30993649053891
100
AcDbArc
 50
314.3068486059
 51
225.6931513941
  0
LINE
  5
1E4
330
1F
100
AcDbEntity
  8
0
  6
Continuous
 62
     8
370
    25
100
AcDbLine
 10
70.2752698887
 20
166.0737317298
 30
0.0
 11
70.5325287474
 21
166.1803998486
 31
0.0
  0
ARC
  5
1E5
330
1F
100
AcDbEntity
  8
0
  6
Continuous
 62
     8
370
    25
100
AcDbCircle
 10
54.2177793818
 20
166.5244138143
 30
0.0
 40
0.3529502268460774
100
AcDbArc
 50
279.5385256861
 51
316.8476542185
  0
ARC
  5
1E6
330
1F
100
AcDbEntity
  8
0
  6
Continuous
 62
     8
370
    25
100
AcDbCircle
 10
62.3752698887
 20
178.4394680397
 30
0.0
 40
9.374999999999956
100
AcDbArc
 50
327.4227936768
 51
212.5772063232
  0
LINE
  5
1E7
330
1F
100
AcDbEntity
  8
0
  6
Continuous
 62
     8
370
    25
100
AcDbLine
 10
142.5802748782
 20
172.5143402685
 30
0.0
 11
142.5802748782
 21
184.3645958108
 31
0.0
  0
LINE
  5
1E8
330
1F
100
AcDbEntity
  8
0
  6
Continuous
 62
     8
370
    25
100
AcDbLine
 10
136.1133138459
 20
170.2938766939
 30
0.0
 11
136.1133138459
 21
169.4638099954
 31
0.0
  0
LINE
  5
1E9
330
1F
100
AcDbEntity
  8
0
  6
Continuous
 62
     8
370
    25
100
AcDbLine
 10
135.179893632
 20
187.4314189943
 30
0.0
 11
135.179893632
 21
186.5954654561
 31
0.0
  0
LINE
  5
1EA
330
1F
100
AcDbEntity
  8
0
  6
Continuous
 62
     8
370
    25
100
AcDbLine
 10
140.4839960919
 20
169.5401005378
 30
0.0
 11
140.4839960919
 21
187.3388355415
 31
0.0
  0
ARC
  5
1EB
330
1F
100
AcDbEntity
  8
0
  6
Continuous
 62
     8
370
    25
100
AcDbCircle
 10
130.6401489284
 20
188.0732241822
 30
0.0
 40
1.997072479677097
100
AcDbArc
 50
20.8716214639
 51
89.425453243
  0
SPLINE
  5
1EC
330
1F
100
AcDbEntity
  8
0
  6
Continuous
 62
     8
370
    25
100
AcDbSpline
210
0.0
220
0.0
230
1.0
 70
     8
 71
     3
 72
    11
 73
     7
 74
     0
 42
0.00000001
 43
0.00000001
 40
0.0
 40
0.0
 40
0.0
 40
0.0
 40
0.2712378730599509
 40
0.8558922174280369
 40
0.8591593821139398
 40
1.0
 40
1.0
 40
1.0
 40
1.0
 10
133.9032614695693
 20
187.7579746407419
 30
0.0
 10
134.0093524053949
 20
187.7001763475595
 30
0.0
 10
134.3441227871578
 20
187.5177935971075
 30
0.0
 10
134.7153701137372
 20
187.1264252387697
 30
0.0
 10
135.0257487887099
 20
186.752232110407
 30
0.0
 10
135.0872513234158
 20
186.6732469407011
 30
0.0
 10
135.1473594926968
 20
186.5960524970237
 30
0.0
  0
SPLINE
  5
1ED
330
1F
100
AcDbEntity
  8
0
  6
Continuous
 62
     8
370
    25
100
AcDbSpline
210
0.0
220
0.0
230
1.0
 70
     8
 71
     3
 72
     9
 73
     5
 74
     0
 42
0.00000001
 43
0.00000001
 40
0.0
 40
0.0
 40
0.0
 40
0.0
 40
0.353471304687639
 40
1.0
 40
1.0
 40
1.0
 40
1.0
 10
136.0687075126802
 20
170.293070076851
 30
0.0
 10
135.8766087346395
 20
170.0997461912477
 30
0.0
 10
135.3331451620861
 20
169.552816686534
 30
0.0
 10
134.8135662949272
 20
169.2489457766939
 30
0.0
 10
134.477643647831
 20
169.0524845138115
 30
0.0
  0
ARC
  5
1EE
330
1F
100
AcDbEntity
  8
0
  6
Continuous
 62
     8
370
    25
100
AcDbCircle
 10
130.7457186396
 20
168.6985330656
 30
0.0
 40
1.93594585496595
100
AcDbArc
 50
269.1353354526
 51
335.1540321835
  0
ARC
  5
1EF
330
1F
100
AcDbEntity
  8
0
  6
Continuous
 62
     8
370
    25
100
AcDbCircle
 10
130.6400001012
 20
188.1213234588
 30
0.0
 40
1.995865504505734
100
AcDbArc
 50
19.2726755478
 51
89.4208331484
  0
LINE
  5
1F0
330
1F
100
AcDbEntity
  8
0
  6
Continuous
 62
     8
370
    25
100
AcDbLine
 10
126.6339960919
 20
190.411281502
 30
0.0
 11
126.6339960919
 21
190.1856019529
 31
0.0
  0
LINE
  5
1F1
330
1F
100
AcDbEntity
  8
0
  6
Continuous
 62
     8
370
    25
100
AcDbLine
 10
126.6339960919
 20
166.6933341264
 30
0.0
 11
126.6339960919
 21
166.4676545774
 31
0.0
  0
LINE
  5
1F2
330
1F
100
AcDbEntity
  8
0
  6
Continuous
 62
     8
370
    25
100
AcDbLine
 10
130.6601747016
 20
190.1170869963
 30
0.0
 11
130.6601747016
 21
190.3410042929
 31
0.0
  0
LINE
  5
1F3
330
1F
100
AcDbEntity
  8
0
  6
Continuous
 62
     8
370
    25
100
AcDbLine
 10
130.6601747016
 20
166.5379317864
 30
0.0
 11
130.6601747016
 21
166.5545205927
 31
0.0
  0
ARC
  5
1F4
330
1F
100
AcDbEntity
  8
0
  6
Continuous
 62
     8
370
    25
100
AcDbCircle
 10
130.6262099384
 20
168.5543959366
 30
0.0
 40
2.000163742340933
100
AcDbArc
 50
270.972985901
 51
333.0935829295
  0
ENDSEC
  0
SECTION
  2
OBJECTS
  0
DICTIONARY
  5
C
330
0
100
AcDbDictionary
281
     1
  3
ACAD_GROUP
350
D
  3
ACAD_LAYOUT
350
1A
  3
ACAD_MLINESTYLE
350
17
  3
ACAD_PLOTSETTINGS
350
19
  3
ACAD_PLOTSTYLENAME
350
E
  3
ACAD_SCALELIST
350
47
  3
DWGPROPS
350
1F5
  0
DICTIONARY
  5
D
102
{ACAD_REACTORS
330
C
102
}
330
C
100
AcDbDictionary
281
     1
  0
DICTIONARY
  5
1A
102
{ACAD_REACTORS
330
C
102
}
330
C
100
AcDbDictionary
281
     1
  3
Layout1
350
1E
  3
Layout2
350
26
  3
Model
350
22
  0
DICTIONARY
  5
17
102
{ACAD_REACTORS
330
C
102
}
330
C
100
AcDbDictionary
281
     1
  3
Standard
350
18
  0
DICTIONARY
  5
19
102
{ACAD_REACTORS
330
C
102
}
330
C
100
AcDbDictionary
281
     1
  0
ACDBDICTIONARYWDFLT
  5
E
102
{ACAD_REACTORS
330
C
102
}
330
C
100
AcDbDictionary
281
     1
  3
Normal
350
F
100
AcDbDictionaryWithDefault
340
F
  0
DICTIONARY
  5
47
102
{ACAD_REACTORS
330
C
102
}
330
C
100
AcDbDictionary
281
     1
  3
A0
350
48
  3
A1
350
49
  3
A2
350
4A
  3
A3
350
4B
  3
A4
350
4C
  3
A5
350
4D
  3
A6
350
4E
  3
A7
350
4F
  3
A8
350
50
  3
A9
350
51
  3
B0
350
52
  3
B1
350
53
  3
B2
350
54
  3
B3
350
55
  3
B4
350
56
  3
B5
350
57
  3
B6
350
58
  3
B7
350
59
  3
B8
350
5A
  3
B9
350
5B
  3
C0
350
5C
  3
C1
350
5D
  3
C2
350
5E
  3
C3
350
5F
  3
C4
350
60
  3
C5
350
61
  3
C6
350
62
  3
C7
350
63
  3
C8
350
64
  3
C9
350
65
  3
D0
350
66
  3
D1
350
67
  3
D2
350
68
  0
XRECORD
  5
1F5
102
{ACAD_REACTORS
330
C
102
}
330
C
100
AcDbXrecord
280
     1
  1
DWGPROPS COOKIE
  2

  3

  4

  6

  7

  8
vishesh
  9

300
=
301
=
302
=
303
=
304
=
305
=
306
=
307
=
308
=
309
=
 40
0.0
 41
2460383.469135775
 42
2460383.469135984
  1

 90
        0
  0
LAYOUT
  5
1E
102
{ACAD_REACTORS
330
1A
102
}
330
1A
100
AcDbPlotSettings
  1

  2
none_device
  4

  6

 40
0.0
 41
0.0
 42
0.0
 43
0.0
 44
0.0
 45
0.0
 46
0.0
 47
0.0
 48
0.0
 49
0.0
140
0.0
141
0.0
142
1.0
143
1.0
 70
   688
 72
     1
 73
     0
 74
     5
  7

 75
    16
147
1.0
148
0.0
149
0.0
100
AcDbLayout
  1
Layout1
 70
     1
 71
     1
 10
0.0
 20
0.0
 11
420.0
 21
297.0
 12
0.0
 22
0.0
 32
0.0
 14
1.0000000000E+20
 24
1.0000000000E+20
 34
1.0000000000E+20
 15
-1.0000000000E+20
 25
-1.0000000000E+20
 35
-1.0000000000E+20
146
0.0
 13
0.0
 23
0.0
 33
0.0
 16
1.0
 26
0.0
 36
0.0
 17
0.0
 27
1.0
 37
0.0
 76
     0
330
1B
  0
LAYOUT
  5
26
102
{ACAD_REACTORS
330
1A
102
}
330
1A
100
AcDbPlotSettings
  1

  2
none_device
  4

  6

 40
0.0
 41
0.0
 42
0.0
 43
0.0
 44
0.0
 45
0.0
 46
0.0
 47
0.0
 48
0.0
 49
0.0
140
0.0
141
0.0
142
1.0
143
1.0
 70
   688
 72
     1
 73
     0
 74
     5
  7

 75
    16
147
1.0
148
0.0
149
0.0
100
AcDbLayout
  1
Layout2
 70
     1
 71
     2
 10
0.0
 20
0.0
 11
0.0
 21
0.0
 12
0.0
 22
0.0
 32
0.0
 14
0.0
 24
0.0
 34
0.0
 15
0.0
 25
0.0
 35
0.0
146
0.0
 13
0.0
 23
0.0
 33
0.0
 16
1.0
 26
0.0
 36
0.0
 17
0.0
 27
1.0
 37
0.0
 76
     0
330
23
  0
LAYOUT
  5
22
102
{ACAD_REACTORS
330
1A
102
}
330
1A
100
AcDbPlotSettings
  1

  2
none_device
  4
Letter_(8.50_x_11.00_Inches)
  6

 40
6.35
 41
6.35
 42
6.35000508
 43
6.35000508
 44
215.9
 45
279.4
 46
0.0
 47
0.0
 48
0.0
 49
0.0
140
0.0
141
0.0
142
1.0
143
1.0
 70
  1712
 72
     1
 73
     0
 74
     0
  7

 75
     0
147
1.0
148
0.0
149
0.0
100
AcDbLayout
  1
Model
 70
     1
 71
     0
 10
0.0
 20
0.0
 11
279.4
 21
215.9
 12
0.0
 22
0.0
 32
0.0
 14
0.0
 24
0.0
 34
0.0
 15
279.4
 25
215.9
 35
0.0
146
0.0
 13
0.0
 23
0.0
 33
0.0
 16
1.0
 26
0.0
 36
0.0
 17
0.0
 27
1.0
 37
0.0
 76
     0
330
1F
331
29
  0
MLINESTYLE
  5
18
102
{ACAD_REACTORS
330
17
102
}
330
17
100
AcDbMlineStyle
  2
Standard
 70
     0
  3

 62
   256
 51
90.0
 52
90.0
 71
     2
 49
0.5
 62
   256
  6
BYLAYER
 49
-0.5
 62
   256
  6
BYLAYER
  0
ACDBPLACEHOLDER
  5
F
102
{ACAD_REACTORS
330
E
102
}
330
E
  0
SCALE
  5
48
102
{ACAD_REACTORS
330
47
102
}
330
47
100
AcDbScale
 70
     0
300
1:1
140
1.0
141
1.0
290
     1
  0
SCALE
  5
49
102
{ACAD_REACTORS
330
47
102
}
330
47
100
AcDbScale
 70
     0
300
1:2
140
1.0
141
2.0
290
     0
  0
SCALE
  5
4A
102
{ACAD_REACTORS
330
47
102
}
330
47
100
AcDbScale
 70
     0
300
1:4
140
1.0
141
4.0
290
     0
  0
SCALE
  5
4B
102
{ACAD_REACTORS
330
47
102
}
330
47
100
AcDbScale
 70
     0
300
1:5
140
1.0
141
5.0
290
     0
  0
SCALE
  5
4C
102
{ACAD_REACTORS
330
47
102
}
330
47
100
AcDbScale
 70
     0
300
1:8
140
1.0
141
8.0
290
     0
  0
SCALE
  5
4D
102
{ACAD_REACTORS
330
47
102
}
330
47
100
AcDbScale
 70
     0
300
1:10
140
1.0
141
10.0
290
     0
  0
SCALE
  5
4E
102
{ACAD_REACTORS
330
47
102
}
330
47
100
AcDbScale
 70
     0
300
1:16
140
1.0
141
16.0
290
     0
  0
SCALE
  5
4F
102
{ACAD_REACTORS
330
47
102
}
330
47
100
AcDbScale
 70
     0
300
1:20
140
1.0
141
20.0
290
     0
  0
SCALE
  5
50
102
{ACAD_REACTORS
330
47
102
}
330
47
100
AcDbScale
 70
     0
300
1:30
140
1.0
141
30.0
290
     0
  0
SCALE
  5
51
102
{ACAD_REACTORS
330
47
102
}
330
47
100
AcDbScale
 70
     0
300
1:40
140
1.0
141
40.0
290
     0
  0
SCALE
  5
52
102
{ACAD_REACTORS
330
47
102
}
330
47
100
AcDbScale
 70
     0
300
1:50
140
1.0
141
50.0
290
     0
  0
SCALE
  5
53
102
{ACAD_REACTORS
330
47
102
}
330
47
100
AcDbScale
 70
     0
300
1:100
140
1.0
141
100.0
290
     0
  0
SCALE
  5
54
102
{ACAD_REACTORS
330
47
102
}
330
47
100
AcDbScale
 70
     0
300
2:1
140
2.0
141
1.0
290
     0
  0
SCALE
  5
55
102
{ACAD_REACTORS
330
47
102
}
330
47
100
AcDbScale
 70
     0
300
4:1
140
4.0
141
1.0
290
     0
  0
SCALE
  5
56
102
{ACAD_REACTORS
330
47
102
}
330
47
100
AcDbScale
 70
     0
300
8:1
140
8.0
141
1.0
290
     0
  0
SCALE
  5
57
102
{ACAD_REACTORS
330
47
102
}
330
47
100
AcDbScale
 70
     0
300
10:1
140
10.0
141
1.0
290
     0
  0
SCALE
  5
58
102
{ACAD_REACTORS
330
47
102
}
330
47
100
AcDbScale
 70
     0
300
100:1
140
100.0
141
1.0
290
     0
  0
SCALE
  5
59
102
{ACAD_REACTORS
330
47
102
}
330
47
100
AcDbScale
 70
     0
300
1/128" = 1'-0"
140
0.0078125
141
12.0
290
     0
  0
SCALE
  5
5A
102
{ACAD_REACTORS
330
47
102
}
330
47
100
AcDbScale
 70
     0
300
1/64" = 1'-0"
140
0.015625
141
12.0
290
     0
  0
SCALE
  5
5B
102
{ACAD_REACTORS
330
47
102
}
330
47
100
AcDbScale
 70
     0
300
1/32" = 1'-0"
140
0.03125
141
12.0
290
     0
  0
SCALE
  5
5C
102
{ACAD_REACTORS
330
47
102
}
330
47
100
AcDbScale
 70
     0
300
1/16" = 1'-0"
140
0.0625
141
12.0
290
     0
  0
SCALE
  5
5D
102
{ACAD_REACTORS
330
47
102
}
330
47
100
AcDbScale
 70
     0
300
3/32" = 1'-0"
140
0.09375
141
12.0
290
     0
  0
SCALE
  5
5E
102
{ACAD_REACTORS
330
47
102
}
330
47
100
AcDbScale
 70
     0
300
1/8" = 1'-0"
140
0.125
141
12.0
290
     0
  0
SCALE
  5
5F
102
{ACAD_REACTORS
330
47
102
}
330
47
100
AcDbScale
 70
     0
300
3/16" = 1'-0"
140
0.1875
141
12.0
290
     0
  0
SCALE
  5
60
102
{ACAD_REACTORS
330
47
102
}
330
47
100
AcDbScale
 70
     0
300
1/4" = 1'-0"
140
0.25
141
12.0
290
     0
  0
SCALE
  5
61
102
{ACAD_REACTORS
330
47
102
}
330
47
100
AcDbScale
 70
     0
300
3/8" = 1'-0"
140
0.375
141
12.0
290
     0
  0
SCALE
  5
62
102
{ACAD_REACTORS
330
47
102
}
330
47
100
AcDbScale
 70
     0
300
1/2" = 1'-0"
140
0.5
141
12.0
290
     0
  0
SCALE
  5
63
102
{ACAD_REACTORS
330
47
102
}
330
47
100
AcDbScale
 70
     0
300
3/4" = 1'-0"
140
0.75
141
12.0
290
     0
  0
SCALE
  5
64
102
{ACAD_REACTORS
330
47
102
}
330
47
100
AcDbScale
 70
     0
300
1" = 1'-0"
140
1.0
141
12.0
290
     0
  0
SCALE
  5
65
102
{ACAD_REACTORS
330
47
102
}
330
47
100
AcDbScale
 70
     0
300
1-1/2" = 1'-0"
140
1.5
141
12.0
290
     0
  0
SCALE
  5
66
102
{ACAD_REACTORS
330
47
102
}
330
47
100
AcDbScale
 70
     0
300
3" = 1'-0"
140
3.0
141
12.0
290
     0
  0
SCALE
  5
67
102
{ACAD_REACTORS
330
47
102
}
330
47
100
AcDbScale
 70
     0
300
6" = 1'-0"
140
6.0
141
12.0
290
     0
  0
SCALE
  5
68
102
{ACAD_REACTORS
330
47
102
}
330
47
100
AcDbScale
 70
     0
300
1'-0" = 1'-0"
140
12.0
141
12.0
290
     0
  0
ENDSEC
  0
EOF
