  0
SECTION
  2
HEADER
  9
$ACADVER
  1
AC1015
  9
$ACADMAINTVER
 70
     6
  9
$DWGCODEPAGE
  3
ANSI_1252
  9
$INSBASE
 10
0.0
 20
0.0
 30
0.0
  9
$EXTMIN
 10
0.0
 20
0.0
 30
0.0
  9
$EXTMAX
 10
279.4
 20
215.9
 30
0.0
  9
$LIMMIN
 10
0.0
 20
0.0
  9
$LIMMAX
 10
279.4
 20
215.9
  9
$ORTHOMODE
 70
     0
  9
$REGENMODE
 70
     1
  9
$FILLMODE
 70
     1
  9
$QTEXTMODE
 70
     0
  9
$MIRRTEXT
 70
     1
  9
$LTSCALE
 40
1.0
  9
$ATTMODE
 70
     1
  9
$TEXTSIZE
 40
3.5277777778
  9
$TRACEWID
 40
1.0
  9
$TEXTSTYLE
  7
Standard
  9
$CLAYER
  8
0
  9
$CELTYPE
  6
ByLayer
  9
$CECOLOR
 62
   256
  9
$CELTSCALE
 40
1.0
  9
$DISPSILH
 70
     0
  9
$DIMSCALE
 40
1.0
  9
$DIMASZ
 40
3.556
  9
$DIMEXO
 40
1.0
  9
$DIMDLI
 40
3.75
  9
$DIMRND
 40
0.0
  9
$DIMDLE
 40
0.0
  9
$DIMEXE
 40
1.0
  9
$DIMTP
 40
0.0
  9
$DIMTM
 40
0.0
  9
$DIMTXT
 40
3.5277777778
  9
$DIMCEN
 40
2.5
  9
$DIMTSZ
 40
0.0
  9
$DIMTOL
 70
     0
  9
$DIMLIM
 70
     0
  9
$DIMTIH
 70
     1
  9
$DIMTOH
 70
     1
  9
$DIMSE1
 70
     0
  9
$DIMSE2
 70
     0
  9
$DIMTAD
 70
     1
  9
$DIMZIN
 70
     0
  9
$DIMBLK
  1

  9
$DIMASO
 70
     1
  9
$DIMSHO
 70
     1
  9
$DIMPOST
  1

  9
$DIMAPOST
  1

  9
$DIMALT
 70
     0
  9
$DIMALTD
 70
     3
  9
$DIMALTF
 40
0.0393700787
  9
$DIMLFAC
 40
2.0
  9
$DIMTOFL
 70
     1
  9
$DIMTVP
 40
0.0
  9
$DIMTIX
 70
     0
  9
$DIMSOXD
 70
     0
  9
$DIMSAH
 70
     0
  9
$DIMBLK1
  1

  9
$DIMBLK2
  1

  9
$DIMSTYLE
  2
ISO-25
  9
$DIMCLRD
 70
     0
  9
$DIMCLRE
 70
     0
  9
$DIMCLRT
 70
     0
  9
$DIMTFAC
 40
1.0
  9
$DIMGAP
 40
1.524
  9
$DIMJUST
 70
     0
  9
$DIMSD1
 70
     0
  9
$DIMSD2
 70
     0
  9
$DIMTOLJ
 70
     0
  9
$DIMTZIN
 70
     0
  9
$DIMALTZ
 70
     0
  9
$DIMALTTZ
 70
     0
  9
$DIMUPT
 70
     0
  9
$DIMDEC
 70
     2
  9
$DIMTDEC
 70
     2
  9
$DIMALTU
 70
     2
  9
$DIMALTTD
 70
     3
  9
$DIMTXSTY
  7
Standard
  9
$DIMAUNIT
 70
     0
  9
$DIMADEC
 70
     2
  9
$DIMALTRND
 40
0.0
  9
$DIMAZIN
 70
     0
  9
$DIMDSEP
 70
    44
  9
$DIMATFIT
 70
     3
  9
$DIMFRAC
 70
     0
  9
$DIMLDRBLK
  1

  9
$DIMLUNIT
 70
     2
  9
$DIMLWD
 70
    -2
  9
$DIMLWE
 70
    -2
  9
$DIMTMOVE
 70
     0
  9
$LUNITS
 70
     2
  9
$LUPREC
 70
     2
  9
$SKETCHINC
 40
1.0
  9
$FILLETRAD
 40
10.0
  9
$AUNITS
 70
     0
  9
$AUPREC
 70
     2
  9
$MENU
  1
.
  9
$ELEVATION
 40
0.0
  9
$PELEVATION
 40
0.0
  9
$THICKNESS
 40
0.0
  9
$LIMCHECK
 70
     0
  9
$CHAMFERA
 40
0.0
  9
$CHAMFERB
 40
0.0
  9
$CHAMFERC
 40
0.0
  9
$CHAMFERD
 40
0.0
  9
$SKPOLY
 70
     0
  9
$TDCREATE
 40
2460383.74105353
  9
$TDUCREATE
 40
2460383.511886864
  9
$TDUPDATE
 40
2460383.741054074
  9
$TDUUPDATE
 40
2460383.511887407
  9
$TDINDWG
 40
0.0000000116
  9
$TDUSRTIMER
 40
0.0000000116
  9
$USRTIMER
 70
     1
  9
$ANGBASE
 50
0.0
  9
$ANGDIR
 70
     0
  9
$PDMODE
 70
     0
  9
$PDSIZE
 40
-1.0
  9
$PLINEWID
 40
0.0
  9
$SPLFRAME
 70
     0
  9
$SPLINETYPE
 70
     6
  9
$SPLINESEGS
 70
     8
  9
$HANDSEED
  5
21B
  9
$SURFTAB1
 70
     6
  9
$SURFTAB2
 70
     6
  9
$SURFTYPE
 70
     6
  9
$SURFU
 70
     6
  9
$SURFV
 70
     6
  9
$UCSBASE
  2

  9
$UCSNAME
  2

  9
$UCSORG
 10
0.0
 20
0.0
 30
0.0
  9
$UCSXDIR
 10
1.0
 20
0.0
 30
0.0
  9
$UCSYDIR
 10
0.0
 20
1.0
 30
0.0
  9
$UCSORTHOREF
  2

  9
$UCSORTHOVIEW
 70
     0
  9
$UCSORGTOP
 10
0.0
 20
0.0
 30
0.0
  9
$UCSORGBOTTOM
 10
0.0
 20
0.0
 30
0.0
  9
$UCSORGLEFT
 10
0.0
 20
0.0
 30
0.0
  9
$UCSORGRIGHT
 10
0.0
 20
0.0
 30
0.0
  9
$UCSORGFRONT
 10
0.0
 20
0.0
 30
0.0
  9
$UCSORGBACK
 10
0.0
 20
0.0
 30
0.0
  9
$PUCSBASE
  2

  9
$PUCSNAME
  2

  9
$PUCSORG
 10
0.0
 20
0.0
 30
0.0
  9
$PUCSXDIR
 10
1.0
 20
0.0
 30
0.0
  9
$PUCSYDIR
 10
0.0
 20
1.0
 30
0.0
  9
$PUCSORTHOREF
  2

  9
$PUCSORTHOVIEW
 70
     0
  9
$PUCSORGTOP
 10
0.0
 20
0.0
 30
0.0
  9
$PUCSORGBOTTOM
 10
0.0
 20
0.0
 30
0.0
  9
$PUCSORGLEFT
 10
0.0
 20
0.0
 30
0.0
  9
$PUCSORGRIGHT
 10
0.0
 20
0.0
 30
0.0
  9
$PUCSORGFRONT
 10
0.0
 20
0.0
 30
0.0
  9
$PUCSORGBACK
 10
0.0
 20
0.0
 30
0.0
  9
$USERI1
 70
     0
  9
$USERI2
 70
     0
  9
$USERI3
 70
     0
  9
$USERI4
 70
     0
  9
$USERI5
 70
     0
  9
$USERR1
 40
0.0
  9
$USERR2
 40
0.0
  9
$USERR3
 40
0.0
  9
$USERR4
 40
0.0
  9
$USERR5
 40
0.0
  9
$WORLDVIEW
 70
     1
  9
$SHADEDGE
 70
     3
  9
$SHADEDIF
 70
    70
  9
$TILEMODE
 70
     1
  9
$MAXACTVP
 70
    64
  9
$PINSBASE
 10
0.0
 20
0.0
 30
0.0
  9
$PLIMCHECK
 70
     0
  9
$PEXTMIN
 10
1.0000000000E+20
 20
1.0000000000E+20
 30
1.0000000000E+20
  9
$PEXTMAX
 10
-1.0000000000E+20
 20
-1.0000000000E+20
 30
-1.0000000000E+20
  9
$PLIMMIN
 10
0.0
 20
0.0
  9
$PLIMMAX
 10
420.0
 20
297.0
  9
$UNITMODE
 70
     0
  9
$VISRETAIN
 70
     1
  9
$PLINEGEN
 70
     0
  9
$PSLTSCALE
 70
     1
  9
$TREEDEPTH
 70
  3020
  9
$CMLSTYLE
  2
Standard
  9
$CMLJUST
 70
     0
  9
$CMLSCALE
 40
20.0
  9
$PROXYGRAPHICS
 70
     1
  9
$MEASUREMENT
 70
     1
  9
$CELWEIGHT
370
    -1
  9
$ENDCAPS
280
     0
  9
$JOINSTYLE
280
     0
  9
$LWDISPLAY
290
     1
  9
$INSUNITS
 70
     4
  9
$HYPERLINKBASE
  1

  9
$STYLESHEET
  1

  9
$XEDIT
290
     1
  9
$CEPSNTYPE
380
     0
  9
$PSTYLEMODE
290
     1
  9
$FINGERPRINTGUID
  2
{ef0288eb-a6c6-4ffb-8daf-c45f7eac5333}
  9
$VERSIONGUID
  2
{FAEB1C32-E019-11D5-929B-00C0DF256EC4}
  9
$EXTNAMES
290
     1
  9
$PSVPSCALE
 40
0.0
  9
$OLESTARTUP
290
     0
  0
ENDSEC
  0
SECTION
  2
CLASSES
  0
CLASS
  1
ACDBDICTIONARYWDFLT
  2
AcDbDictionaryWithDefault
  3
ObjectDBX Classes
 90
        0
280
     0
281
     0
  0
CLASS
  1
VISUALSTYLE
  2
AcDbVisualStyle
  3
ObjectDBX Classes
 90
     4095
280
     0
281
     0
  0
CLASS
  1
MATERIAL
  2
AcDbMaterial
  3
ObjectDBX Classes
 90
     1153
280
     0
281
     0
  0
CLASS
  1
SCALE
  2
AcDbScale
  3
ObjectDBX Classes
 90
     1153
280
     0
281
     0
  0
CLASS
  1
TABLESTYLE
  2
AcDbTableStyle
  3
ObjectDBX Classes
 90
     4095
280
     0
281
     0
  0
CLASS
  1
MLEADERSTYLE
  2
AcDbMLeaderStyle
  3
ACDB_MLEADERSTYLE_CLASS
 90
     4095
280
     0
281
     0
  0
CLASS
  1
SUN
  2
AcDbSun
  3
SCENEOE
 90
     1153
280
     0
281
     0
  0
CLASS
  1
ACDBPLACEHOLDER
  2
AcDbPlaceHolder
  3
ObjectDBX Classes
 90
        0
280
     0
281
     0
  0
CLASS
  1
LAYOUT
  2
AcDbLayout
  3
ObjectDBX Classes
 90
        0
280
     0
281
     0
  0
ENDSEC
  0
SECTION
  2
TABLES
  0
TABLE
  2
VPORT
  5
8
330
0
100
AcDbSymbolTable
 70
     1
  0
VPORT
  5
29
330
8
100
AcDbSymbolTableRecord
100
AcDbViewportTableRecord
  2
*Active
 70
     0
 10
0.0
 20
0.0
 11
1.0
 21
1.0
 12
139.7
 22
107.95
 13
0.0
 23
0.0
 14
10.0
 24
10.0
 15
10.0
 25
10.0
 16
0.0
 26
0.0
 36
1.0
 17
0.0
 27
0.0
 37
0.0
 40
215.9
 41
1.2941176471
 42
50.0
 43
0.0
 44
0.0
 50
0.0
 51
0.0
 71
     0
 72
  2000
 73
     1
 74
     3
 75
     0
 76
     0
 77
     0
 78
     0
281
     0
 65
     1
110
0.0
120
0.0
130
0.0
111
1.0
121
0.0
131
0.0
112
0.0
122
1.0
132
0.0
 79
     0
146
0.0
  0
ENDTAB
  0
TABLE
  2
LTYPE
  5
5
330
0
100
AcDbSymbolTable
 70
     6
  0
LTYPE
  5
14
330
5
100
AcDbSymbolTableRecord
100
AcDbLinetypeTableRecord
  2
ByBlock
 70
     0
  3

 72
    65
 73
     0
 40
0.0
  0
LTYPE
  5
15
330
5
100
AcDbSymbolTableRecord
100
AcDbLinetypeTableRecord
  2
ByLayer
 70
     0
  3

 72
    65
 73
     0
 40
0.0
  0
LTYPE
  5
16
330
5
100
AcDbSymbolTableRecord
100
AcDbLinetypeTableRecord
  2
Continuous
 70
     0
  3
Solid line
 72
    65
 73
     0
 40
0.0
  0
LTYPE
  5
6E
330
5
100
AcDbSymbolTableRecord
100
AcDbLinetypeTableRecord
  2
HIDDEN
 70
     0
  3
Hidden __ __ __ __ __ __ __ __ __ __ __ __ __ __
 72
    65
 73
     2
 40
1.905
 49
1.27
 74
     0
 49
-0.635
 74
     0
  0
LTYPE
  5
6F
330
5
100
AcDbSymbolTableRecord
100
AcDbLinetypeTableRecord
  2
PHANTOM
 70
     0
  3
Phantom ______  __  __  ______  __  __  ______
 72
    65
 73
     6
 40
12.7
 49
6.35
 74
     0
 49
-1.27
 74
     0
 49
1.27
 74
     0
 49
-1.27
 74
     0
 49
1.27
 74
     0
 49
-1.27
 74
     0
  0
LTYPE
  5
70
330
5
100
AcDbSymbolTableRecord
100
AcDbLinetypeTableRecord
  2
CENTER
 70
     0
  3
Center ____ _ ____ _ ____ _ ____ _ ____ _ ____
 72
    65
 73
     4
 40
10.16
 49
6.35
 74
     0
 49
-1.27
 74
     0
 49
1.27
 74
     0
 49
-1.27
 74
     0
  0
LTYPE
  5
71
330
5
100
AcDbSymbolTableRecord
100
AcDbLinetypeTableRecord
  2
CENTERX2
 70
     0
  3
Center (2x) ________  __  ________  __  _____
 72
    65
 73
     4
 40
20.32
 49
12.7
 74
     0
 49
-2.54
 74
     0
 49
2.54
 74
     0
 49
-2.54
 74
     0
  0
LTYPE
  5
72
330
5
100
AcDbSymbolTableRecord
100
AcDbLinetypeTableRecord
  2
DOT2
 70
     0
  3
Dot (.5x) ........................................
 72
    65
 73
     2
 40
0.635
 49
0.0
 74
     0
 49
-0.635
 74
     0
  0
ENDTAB
  0
TABLE
  2
LAYER
  5
2
330
0
100
AcDbSymbolTable
 70
     5
  0
LAYER
  5
10
330
2
100
AcDbSymbolTableRecord
100
AcDbLayerTableRecord
  2
0
 70
     0
 62
     7
  6
Continuous
370
    -3
390
F
  0
LAYER
  5
73
330
2
100
AcDbSymbolTableRecord
100
AcDbLayerTableRecord
  2
FORMAT
 70
     0
 62
     7
  6
Continuous
370
    -3
390
F
  0
LAYER
  5
74
330
2
100
AcDbSymbolTableRecord
100
AcDbLayerTableRecord
  2
OUT_LINE
 70
     0
 62
     7
  6
Continuous
370
    50
390
F
  0
LAYER
  5
75
330
2
100
AcDbSymbolTableRecord
100
AcDbLayerTableRecord
  2
WATERMARK
 70
     0
 62
   254
  6
Continuous
370
    -3
390
F
  0
LAYER
  5
76
330
2
100
AcDbSymbolTableRecord
100
AcDbLayerTableRecord
  2
LAYER3
 70
     0
 62
     7
  6
Continuous
370
    35
390
F
  0
ENDTAB
  0
TABLE
  2
STYLE
  5
3
330
0
100
AcDbSymbolTable
 70
     1
  0
STYLE
  5
11
330
3
100
AcDbSymbolTableRecord
100
AcDbTextStyleTableRecord
  2
Standard
 70
     0
 40
0.0
 41
1.0
 50
0.0
 71
     0
 42
3.5277777778
  3
txt
  4

  0
ENDTAB
  0
TABLE
  2
VIEW
  5
6
330
0
100
AcDbSymbolTable
 70
     0
  0
ENDTAB
  0
TABLE
  2
UCS
  5
7
330
0
100
AcDbSymbolTable
 70
     0
  0
ENDTAB
  0
TABLE
  2
APPID
  5
9
330
0
100
AcDbSymbolTable
 70
     1
  0
APPID
  5
12
330
9
100
AcDbSymbolTableRecord
100
AcDbRegAppTableRecord
  2
ACAD
 70
     0
  0
ENDTAB
  0
TABLE
  2
DIMSTYLE
  5
A
330
0
100
AcDbSymbolTable
 70
     1
100
AcDbDimStyleTable
  0
DIMSTYLE
105
27
330
A
100
AcDbSymbolTableRecord
100
AcDbDimStyleTableRecord
  2
ISO-25
 70
     0
 41
2.5
 42
0.625
 43
3.75
 44
1.25
 73
     0
 74
     0
 77
     1
 78
     8
140
2.5
141
2.5
143
0.0393700787
147
0.625
171
     3
172
     1
178
     0
271
     2
272
     2
274
     3
278
    44
283
     0
284
     8
340
11
  0
ENDTAB
  0
TABLE
  2
BLOCK_RECORD
  5
1
330
0
100
AcDbSymbolTable
 70
     4
  0
BLOCK_RECORD
  5
1F
330
1
100
AcDbSymbolTableRecord
100
AcDbBlockTableRecord
  2
*Model_Space
340
22
  0
BLOCK_RECORD
  5
1B
330
1
100
AcDbSymbolTableRecord
100
AcDbBlockTableRecord
  2
*Paper_Space
340
1E
  0
BLOCK_RECORD
  5
23
330
1
100
AcDbSymbolTableRecord
100
AcDbBlockTableRecord
  2
*Paper_Space0
340
26
  0
BLOCK_RECORD
  5
77
330
1
100
AcDbSymbolTableRecord
100
AcDbBlockTableRecord
  2
Block5
340
0
  0
BLOCK_RECORD
  5
85
330
1
100
AcDbSymbolTableRecord
100
AcDbBlockTableRecord
  2
Block2
340
0
  0
BLOCK_RECORD
  5
90
330
1
100
AcDbSymbolTableRecord
100
AcDbBlockTableRecord
  2
Block7
340
0
  0
ENDTAB
  0
ENDSEC
  0
SECTION
  2
BLOCKS
  0
BLOCK
  5
20
330
1F
100
AcDbEntity
  8
0
100
AcDbBlockBegin
  2
*Model_Space
 70
     0
 10
0.0
 20
0.0
 30
0.0
  3
*Model_Space
  1

  0
ENDBLK
  5
21
330
1F
100
AcDbEntity
  8
0
100
AcDbBlockEnd
  0
BLOCK
  5
1C
330
1B
100
AcDbEntity
 67
     1
  8
0
100
AcDbBlockBegin
  2
*Paper_Space
 70
     0
 10
0.0
 20
0.0
 30
0.0
  3
*Paper_Space
  1

  0
ENDBLK
  5
1D
330
1B
100
AcDbEntity
 67
     1
  8
0
100
AcDbBlockEnd
  0
BLOCK
  5
24
330
23
100
AcDbEntity
  8
0
100
AcDbBlockBegin
  2
*Paper_Space0
 70
     0
 10
0.0
 20
0.0
 30
0.0
  3
*Paper_Space0
  1

  0
ENDBLK
  5
25
330
23
100
AcDbEntity
  8
0
100
AcDbBlockEnd
  0
BLOCK
  5
78
330
77
100
AcDbEntity
  8
0
100
AcDbBlockBegin
  2
Block5
 70
     0
 10
0.0
 20
0.0
 30
0.0
  3
Block5
  1

  0
LINE
  5
7A
330
77
100
AcDbEntity
  8
LAYER3
100
AcDbLine
 10
251.0883122991
 20
64.4632252413
 30
0.0
 11
250.3611798328
 21
64.9733337839
 31
0.0
  0
LINE
  5
7B
330
77
100
AcDbEntity
  8
LAYER3
100
AcDbLine
 10
250.3611798328
 20
64.9733337839
 30
0.0
 11
251.0883122991
 21
65.4834423266
 31
0.0
  0
LINE
  5
7C
330
77
100
AcDbEntity
  8
LAYER3
100
AcDbLine
 10
250.3611798328
 20
65.6106440044
 30
0.0
 11
250.3611798328
 21
64.3360235634
 31
0.0
  0
LINE
  5
7D
330
77
100
AcDbEntity
  8
LAYER3
100
AcDbLine
 10
251.0883122991
 20
65.4834423266
 30
0.0
 11
251.0883122991
 21
64.4632252413
 31
0.0
  0
LINE
  5
7E
330
77
100
AcDbEntity
  8
LAYER3
  6
Continuous
 62
     7
370
    18
100
AcDbLine
 10
254.0738326611
 20
65.4834423266
 30
0.0
 11
254.0738326611
 21
64.4632252413
 31
0.0
  0
LINE
  5
7F
330
77
100
AcDbEntity
  8
LAYER3
100
AcDbLine
 10
251.0883122991
 20
64.9733337839
 30
0.0
 11
254.0738326611
 21
64.9733337839
 31
0.0
  0
LINE
  5
80
330
77
100
AcDbEntity
  8
LAYER3
100
AcDbLine
 10
254.0738326611
 20
64.9733337839
 30
0.0
 11
254.0738326611
 21
64.4632252413
 31
0.0
  0
LINE
  5
81
330
77
100
AcDbEntity
  8
LAYER3
100
AcDbLine
 10
254.0738326611
 20
65.4834423266
 30
0.0
 11
254.8009651274
 21
64.9733337839
 31
0.0
  0
LINE
  5
82
330
77
100
AcDbEntity
  8
LAYER3
100
AcDbLine
 10
254.8009651274
 20
64.9733337839
 30
0.0
 11
254.0738326611
 21
64.4632252413
 31
0.0
  0
LINE
  5
83
330
77
100
AcDbEntity
  8
LAYER3
100
AcDbLine
 10
254.0738326611
 20
65.4834423266
 30
0.0
 11
254.0738326611
 21
64.9733337839
 31
0.0
  0
LINE
  5
84
330
77
100
AcDbEntity
  8
LAYER3
100
AcDbLine
 10
254.8009651274
 20
65.6106440044
 30
0.0
 11
254.8009651274
 21
64.3360235634
 31
0.0
  0
ENDBLK
  5
79
330
77
100
AcDbEntity
  8
0
100
AcDbBlockEnd
  0
BLOCK
  5
86
330
85
100
AcDbEntity
  8
0
100
AcDbBlockBegin
  2
Block2
 70
     0
 10
0.0
 20
0.0
 30
0.0
  3
Block2
  1

  0
CIRCLE
  5
88
330
85
100
AcDbEntity
  8
FORMAT
100
AcDbCircle
 10
44.9757425281
 20
71.5551333392
 30
0.0
 40
3.500000000000012
  0
CIRCLE
  5
89
330
85
100
AcDbEntity
  8
FORMAT
100
AcDbCircle
 10
44.9757425281
 20
71.5551333392
 30
0.0
 40
1.664444312410222
  0
LINE
  5
8A
330
85
100
AcDbEntity
  8
FORMAT
100
AcDbLine
 10
50.8419693267
 20
74.6444962432
 30
0.0
 11
58.8419693267
 21
73.6204905773
 31
0.0
  0
LINE
  5
8B
330
85
100
AcDbEntity
  8
FORMAT
100
AcDbLine
 10
58.8419693267
 20
73.6204905773
 30
0.0
 11
58.8419693267
 21
69.4897761011
 31
0.0
  0
LINE
  5
8C
330
85
100
AcDbEntity
  8
FORMAT
100
AcDbLine
 10
58.8419693267
 20
69.4897761011
 30
0.0
 11
50.8419693267
 21
68.4657704351
 31
0.0
  0
LINE
  5
8D
330
85
100
AcDbEntity
  8
FORMAT
100
AcDbLine
 10
50.8419693267
 20
68.4657704351
 30
0.0
 11
50.8419693267
 21
74.6444962432
 31
0.0
  0
LINE
  5
8E
330
85
100
AcDbEntity
  8
FORMAT
  6
CENTERX2
100
AcDbLine
 10
58.8419693267
 20
71.5551333392
 30
0.0
 11
40.5246830005
 21
71.5551333392
 31
0.0
  0
LINE
  5
8F
330
85
100
AcDbEntity
  8
FORMAT
100
AcDbLine
 10
44.9757425281
 20
77.2283416432
 30
0.0
 11
44.9757425281
 21
65.8819250352
 31
0.0
  0
ENDBLK
  5
87
330
85
100
AcDbEntity
  8
0
100
AcDbBlockEnd
  0
BLOCK
  5
91
330
90
100
AcDbEntity
  8
0
100
AcDbBlockBegin
  2
Block7
 70
     0
 10
0.0
 20
0.0
 30
0.0
  3
Block7
  1

  0
LINE
  5
93
330
90
100
AcDbEntity
  8
FORMAT
100
AcDbLine
 10
221.8284763776
 20
80.2705155621
 30
0.0
 11
222.3963943455
 21
79.286852787
 31
0.0
  0
LINE
  5
94
330
90
100
AcDbEntity
  8
FORMAT
100
AcDbLine
 10
222.3963943455
 20
79.286852787
 30
0.0
 11
222.9643123135
 21
80.2705155621
 31
0.0
  0
LINE
  5
95
330
90
100
AcDbEntity
  8
FORMAT
100
AcDbLine
 10
221.8284763776
 20
80.2705155621
 30
0.0
 11
222.9643123135
 21
80.2705155621
 31
0.0
  0
LINE
  5
96
330
90
100
AcDbEntity
  8
FORMAT
100
AcDbLine
 10
222.9643123135
 20
80.2705155621
 30
0.0
 11
223.3725273771
 21
80.9775647926
 31
0.0
  0
LINE
  5
97
330
90
100
AcDbEntity
  8
FORMAT
100
AcDbLine
 10
223.3725273771
 20
80.9775647926
 30
0.0
 11
224.1023154201
 21
80.9775647926
 31
0.0
  0
ENDBLK
  5
92
330
90
100
AcDbEntity
  8
0
100
AcDbBlockEnd
  0
ENDSEC
  0
SECTION
  2
ENTITIES
  0
LINE
  5
98
330
1F
100
AcDbEntity
  8
0
  6
Continuous
 62
     7
370
    25
100
AcDbLine
 10
125.2315277059
 20
37.0396375654
 30
0.0
 11
125.2315277059
 21
-10.2873743462
 31
0.0
  0
LINE
  5
99
330
1F
100
AcDbEntity
  8
0
  6
Continuous
 62
     7
370
    25
100
AcDbLine
 10
141.0315277059
 20
-10.2873743462
 30
0.0
 11
141.0315277059
 21
37.0396375654
 31
0.0
  0
LINE
  5
9A
330
1F
100
AcDbEntity
  8
0
  6
Continuous
 62
     7
370
    25
100
AcDbLine
 10
141.0315277059
 20
37.0396375654
 30
0.0
 11
141.0315277059
 21
119.4396375654
 31
0.0
  0
LINE
  5
9B
330
1F
100
AcDbEntity
  8
0
  6
Continuous
 62
     7
370
    25
100
AcDbLine
 10
125.2315277059
 20
119.4396375654
 30
0.0
 11
125.2315277059
 21
37.0396375654
 31
0.0
  0
LINE
  5
9C
330
1F
100
AcDbEntity
  8
0
  6
Continuous
 62
     7
370
    25
100
AcDbLine
 10
125.2315277059
 20
142.1126256538
 30
0.0
 11
125.2315277059
 21
119.4396375654
 31
0.0
  0
LINE
  5
9D
330
1F
100
AcDbEntity
  8
0
  6
Continuous
 62
     7
370
    25
100
AcDbLine
 10
141.0315277059
 20
119.4396375654
 30
0.0
 11
141.0315277059
 21
142.1126256538
 31
0.0
  0
LINE
  5
9E
330
1F
100
AcDbEntity
  8
0
  6
Continuous
 62
     7
370
    25
100
AcDbLine
 10
147.1284788549
 20
125.9126256538
 30
0.0
 11
164.3315277059
 21
125.9126256538
 31
0.0
  0
LINE
  5
9F
330
1F
100
AcDbEntity
  8
0
  6
Continuous
 62
     7
370
    25
100
AcDbLine
 10
164.3315277059
 20
158.3126256538
 30
0.0
 11
147.1219694934
 21
158.3126256538
 31
0.0
  0
SPLINE
  5
A0
330
1F
100
AcDbEntity
  8
0
  6
Continuous
 62
     7
370
    25
100
AcDbSpline
210
0.0
220
0.0
230
1.0
 70
     8
 71
     3
 72
     9
 73
     5
 74
     0
 42
0.00000001
 43
0.00000001
 40
0.0
 40
0.0
 40
0.0
 40
0.0
 40
0.5015109964661149
 40
1.0
 40
1.0
 40
1.0
 40
1.0
 10
164.937737635848
 20
127.6180232858696
 30
0.0
 10
165.0155664142132
 20
127.7528473052126
 30
0.0
 10
165.1707549921578
 20
128.0216829245571
 30
0.0
 10
165.3261122400119
 20
128.2905167245358
 30
0.0
 10
165.4035561196865
 20
128.4245274176035
 30
0.0
  0
LINE
  5
A1
330
1F
100
AcDbEntity
  8
0
  6
Continuous
 62
     7
370
    25
100
AcDbLine
 10
173.6568580138
 20
155.7950091834
 30
0.0
 11
173.5451879796
 21
155.9883486078
 31
0.0
  0
SPLINE
  5
A2
330
1F
100
AcDbEntity
  8
0
  6
Continuous
 62
     7
370
    25
100
AcDbSpline
210
0.0
220
0.0
230
1.0
 70
     8
 71
     3
 72
     9
 73
     5
 74
     0
 42
0.00000001
 43
0.00000001
 40
0.0
 40
0.0
 40
0.0
 40
0.0
 40
0.4576940011969439
 40
1.0
 40
1.0
 40
1.0
 40
1.0
 10
172.4771220517407
 20
127.6862128883469
 30
0.0
 10
172.5421800942241
 20
127.7988540249357
 30
0.0
 10
172.6843231905141
 20
128.0449597993048
 30
0.0
 10
172.8264699238478
 20
128.2910633929761
 30
0.0
 10
172.903556950045
 20
128.424526848151
 30
0.0
  0
SPLINE
  5
A3
330
1F
100
AcDbEntity
  8
0
  6
Continuous
 62
     7
370
    25
100
AcDbSpline
210
0.0
220
0.0
230
1.0
 70
     8
 71
     3
 72
     9
 73
     5
 74
     0
 42
0.00000001
 43
0.00000001
 40
0.0
 40
0.0
 40
0.0
 40
0.0
 40
0.5034644913918217
 40
1.0
 40
1.0
 40
1.0
 40
1.0
 10
172.9878952557548
 20
156.6073611682361
 30
0.0
 10
172.9097088345688
 20
156.4719896082102
 30
0.0
 10
172.7544120410056
 20
156.2031095534287
 30
0.0
 10
172.5991112306868
 20
155.9342315900387
 30
0.0
 10
172.5219988638479
 20
155.8007241337333
 30
0.0
  0
LINE
  5
A4
330
1F
100
AcDbEntity
  8
0
  6
Continuous
 62
     7
370
    25
100
AcDbLine
 10
173.2687736863
 20
128.4301110512
 30
0.0
 11
173.4271629898
 21
128.1558843414
 31
0.0
  0
LINE
  5
A5
330
1F
100
AcDbEntity
  8
0
  6
Continuous
 62
     7
370
    25
100
AcDbLine
 10
164.3315277059
 20
127.6126256538
 30
0.0
 11
164.9316614629
 21
127.6126256538
 31
0.0
  0
LINE
  5
A6
330
1F
100
AcDbEntity
  8
0
  6
Continuous
 62
     7
370
    25
100
AcDbLine
 10
165.6815311608
 20
156.6126256538
 30
0.0
 11
164.3315277059
 21
156.6126256538
 31
0.0
  0
LINE
  5
A7
330
1F
100
AcDbEntity
  8
0
  6
Continuous
 62
     7
370
    25
100
AcDbLine
 10
172.9001441673
 20
128.4245268482
 30
0.0
 11
173.2719990396
 21
128.4245268482
 31
0.0
  0
LINE
  5
A8
330
1F
100
AcDbEntity
  8
0
  6
Continuous
 62
     7
370
    25
100
AcDbLine
 10
165.4001290569
 20
128.4245274176
 30
0.0
 11
165.5715729652
 21
128.4245274176
 31
0.0
  0
LINE
  5
A9
330
1F
100
AcDbEntity
  8
0
  6
Continuous
 62
     7
370
    25
100
AcDbLine
 10
212.1631815138
 20
146.4880164275
 30
0.0
 11
211.7315277059
 21
146.1082399481
 31
0.0
  0
LINE
  5
AA
330
1F
100
AcDbEntity
  8
0
  6
Continuous
 62
     7
370
    25
100
AcDbLine
 10
211.7315277059
 20
138.1170113596
 30
0.0
 11
212.1631815138
 21
137.7372348801
 31
0.0
  0
ARC
  5
AB
330
1F
100
AcDbEntity
  8
0
  6
Continuous
 62
     7
370
    25
100
AcDbCircle
 10
203.6742931181
 20
142.1126256538
 30
0.0
 40
10.63000000000003
100
AcDbArc
 50
339.5062991307
 51
345.842348556
  0
ARC
  5
AC
330
1F
100
AcDbEntity
  8
0
  6
Continuous
 62
     7
370
    25
100
AcDbCircle
 10
203.6742931181
 20
142.1126256538
 30
0.0
 40
10.63000000000002
100
AcDbArc
 50
14.157651444
 51
20.4937008693
  0
LINE
  5
AD
330
1F
100
AcDbEntity
  8
0
  6
Continuous
 62
     7
370
    25
100
AcDbLine
 10
206.869571663
 20
133.1369676096
 30
0.0
 11
211.2402539091
 21
133.213258152
 31
0.0
  0
LINE
  5
AE
330
1F
100
AcDbEntity
  8
0
  6
Continuous
 62
     7
370
    25
100
AcDbLine
 10
211.2402539091
 20
151.0119931556
 30
0.0
 11
205.9361514491
 21
151.1045766085
 31
0.0
  0
ARC
  5
AF
330
1F
100
AcDbEntity
  8
0
  6
Continuous
 62
     7
370
    25
100
AcDbCircle
 10
211.2315277059
 20
133.7131819995
 30
0.0
 40
0.5000000000000332
100
AcDbArc
 50
271.0
 51
0.0
  0
ARC
  5
B0
330
1F
100
AcDbEntity
  8
0
  6
Continuous
 62
     7
370
    25
100
AcDbCircle
 10
211.2315277059
 20
150.5120693081
 30
0.0
 40
0.5000000000000048
100
AcDbArc
 50
0.0
 51
89.0
  0
SPLINE
  5
B1
330
1F
100
AcDbEntity
  8
0
  6
Continuous
 62
     7
370
    25
100
AcDbSpline
210
0.0
220
0.0
230
1.0
 70
     8
 71
     3
 72
    12
 73
     8
 74
     0
 42
0.00000001
 43
0.00000001
 40
0.0
 40
0.0
 40
0.0
 40
0.0
 40
0.0167971611867514
 40
0.3359590551301674
 40
0.599257116873262
 40
0.819486212565655
 40
1.0
 40
1.0
 40
1.0
 40
1.0
 10
204.6745974042051
 20
151.4571542043249
 30
0.0
 10
204.6599138204878
 20
151.4658065144695
 30
0.0
 10
204.3662283068031
 20
151.638860872199
 30
0.0
 10
203.9416971280225
 20
151.9163604937976
 30
0.0
 10
203.4719790965044
 20
152.2497395588325
 30
0.0
 10
203.2210802527878
 20
152.4714583786621
 30
0.0
 10
203.1931498086352
 20
152.5045686143629
 30
0.0
 10
203.1805685989095
 20
152.5194830502789
 30
0.0
  0
ARC
  5
B2
330
1F
100
AcDbEntity
  8
0
  6
Continuous
 62
     7
370
    25
100
AcDbCircle
 10
205.9815277059
 20
153.7041806159
 30
0.0
 40
2.60000000000003
100
AcDbArc
 50
239.4420525213
 51
269.0
  0
SPLINE
  5
B3
330
1F
100
AcDbEntity
  8
0
  6
Continuous
 62
     7
370
    25
100
AcDbSpline
210
0.0
220
0.0
230
1.0
 70
     8
 71
     3
 72
    13
 73
     9
 74
     0
 42
0.00000001
 43
0.00000001
 40
0.0
 40
0.0
 40
0.0
 40
0.0
 40
0.0970921028208095
 40
0.254384765752386
 40
0.4441311141281598
 40
0.6700687869320415
 40
0.9267606364361518
 40
1.0
 40
1.0
 40
1.0
 40
1.0
 10
203.1547132955161
 20
131.3733023726009
 30
0.0
 10
203.1564773811981
 20
131.3755567322174
 30
0.0
 10
203.1610993484842
 20
131.3814632346651
 30
0.0
 10
203.3272317544385
 20
131.5334707906834
 30
0.0
 10
203.6608476921953
 20
131.7790552153571
 30
0.0
 10
204.222509222235
 20
132.1352389208522
 30
0.0
 10
204.7708970669571
 20
132.4529487317173
 30
0.0
 10
205.1560395773897
 20
132.659262725732
 30
0.0
 10
205.2415349510562
 20
132.7050610770776
 30
0.0
  0
ARC
  5
B4
330
1F
100
AcDbEntity
  8
0
  6
Continuous
 62
     7
370
    25
100
AcDbCircle
 10
206.9315277059
 20
129.5875082918
 30
0.0
 40
3.55
100
AcDbArc
 50
91.0
 51
118.1920130769
  0
ARC
  5
B5
330
1F
100
AcDbEntity
  8
0
  6
Continuous
 62
     7
370
    25
100
AcDbCircle
 10
197.3815277059
 20
153.5845152685
 30
0.0
 40
0.5000000000000347
100
AcDbArc
 50
89.0
 51
180.0
  0
ARC
  5
B6
330
1F
100
AcDbEntity
  8
0
  6
Continuous
 62
     7
370
    25
100
AcDbCircle
 10
197.3815277059
 20
130.6407360391
 30
0.0
 40
0.5
100
AcDbArc
 50
180.0
 51
271.0
  0
LINE
  5
B7
330
1F
100
AcDbEntity
  8
0
  6
Continuous
 62
     7
370
    25
100
AcDbLine
 10
201.4164325187
 20
154.0141619071
 30
0.0
 11
197.3902539091
 21
154.0844391161
 31
0.0
  0
LINE
  5
B8
330
1F
100
AcDbEntity
  8
0
  6
Continuous
 62
     7
370
    25
100
AcDbLine
 10
197.3902539091
 20
130.1408121915
 30
0.0
 11
201.4164325187
 21
130.2110894005
 31
0.0
  0
ARC
  5
B9
330
1F
100
AcDbEntity
  8
0
  6
Continuous
 62
     7
370
    25
100
AcDbCircle
 10
201.3815277059
 20
152.0144665168
 30
0.0
 40
1.999999999999998
100
AcDbArc
 50
14.6254779684
 51
89.0
  0
SPLINE
  5
BA
330
1F
100
AcDbEntity
  8
0
  6
Continuous
 62
     7
370
    25
100
AcDbSpline
210
0.0
220
0.0
230
1.0
 70
     8
 71
     3
 72
     9
 73
     5
 74
     0
 42
0.00000001
 43
0.00000001
 40
0.0
 40
0.0
 40
0.0
 40
0.0
 40
0.1428792602068137
 40
1.0
 40
1.0
 40
1.0
 40
1.0
 10
211.7315277058752
 20
137.3929863039318
 30
0.0
 10
211.7379106472164
 20
137.4161250716724
 30
0.0
 10
211.7825843201617
 20
137.5780713730963
 30
0.0
 10
211.8539250057898
 20
137.7813182703783
 30
0.0
 10
211.9150725870327
 20
137.9555254013374
 30
0.0
  0
SPLINE
  5
BB
330
1F
100
AcDbEntity
  8
0
  6
Continuous
 62
     7
370
    25
100
AcDbSpline
210
0.0
220
0.0
230
1.0
 70
     8
 71
     3
 72
     9
 73
     5
 74
     0
 42
0.00000001
 43
0.00000001
 40
0.0
 40
0.0
 40
0.0
 40
0.0
 40
0.1580914975462187
 40
1.0
 40
1.0
 40
1.0
 40
1.0
 10
211.8990002464082
 20
146.2555851832516
 30
0.0
 10
211.8887131266837
 20
146.2887627447617
 30
0.0
 10
211.8236424563182
 20
146.4986257799348
 30
0.0
 10
211.7736319643093
 20
146.6833749528913
 30
0.0
 10
211.7315277058752
 20
146.8389168524247
 30
0.0
  0
ARC
  5
BC
330
1F
100
AcDbEntity
  8
0
  6
Continuous
 62
     7
370
    25
100
AcDbCircle
 10
201.3815277059
 20
132.2107847909
 30
0.0
 40
2.000000000000039
100
AcDbArc
 50
271.0
 51
334.9885921771
  0
LINE
  5
BD
330
1F
100
AcDbEntity
  8
0
  6
Continuous
 62
     7
370
    25
100
AcDbLine
 10
211.7315277059
 20
134.9626256538
 30
0.0
 11
213.3365326954
 21
136.1874978826
 31
0.0
  0
LINE
  5
BE
330
1F
100
AcDbEntity
  8
0
  6
Continuous
 62
     7
370
    25
100
AcDbLine
 10
213.3365326954
 20
148.037753425
 30
0.0
 11
211.7315277059
 21
149.2626256538
 31
0.0
  0
ARC
  5
BF
330
1F
100
AcDbEntity
  8
0
  6
Continuous
 62
     7
370
    25
100
AcDbCircle
 10
212.8815277059
 20
136.7837113172
 30
0.0
 40
0.7500000000000014
100
AcDbArc
 50
307.3493490446
 51
0.0
  0
ARC
  5
C0
330
1F
100
AcDbEntity
  8
0
  6
Continuous
 62
     7
370
    25
100
AcDbCircle
 10
212.8815277059
 20
147.4415399904
 30
0.0
 40
0.7500000000000014
100
AcDbArc
 50
0.0
 51
52.6506509554
  0
LINE
  5
C1
330
1F
100
AcDbEntity
  8
0
  6
Continuous
 62
     7
370
    25
100
AcDbLine
 10
187.7620155108
 20
132.6126256538
 30
0.0
 11
188.9815277059
 21
133.8626256538
 31
0.0
  0
LINE
  5
C2
330
1F
100
AcDbEntity
  8
0
  6
Continuous
 62
     7
370
    25
100
AcDbLine
 10
188.9815277059
 20
150.3626256538
 30
0.0
 11
187.7620155108
 21
151.6126256538
 31
0.0
  0
LINE
  5
C3
330
1F
100
AcDbEntity
  8
0
  6
Continuous
 62
     7
370
    25
100
AcDbLine
 10
182.1865876317
 20
151.5126256538
 30
0.0
 11
181.7203823497
 21
151.5126256538
 31
0.0
  0
SPLINE
  5
C4
330
1F
100
AcDbEntity
  8
0
  6
Continuous
 62
     7
370
    25
100
AcDbSpline
210
0.0
220
0.0
230
1.0
 70
     8
 71
     3
 72
     9
 73
     5
 74
     0
 42
0.00000001
 43
0.00000001
 40
0.0
 40
0.0
 40
0.0
 40
0.0
 40
0.2308149029361558
 40
1.0
 40
1.0
 40
1.0
 40
1.0
 10
181.5315277058752
 20
132.98894046922
 30
0.0
 10
181.5535666463067
 20
133.027085902432
 30
0.0
 10
181.6490498241738
 20
133.1923500718019
 30
0.0
 10
181.7445568207785
 20
133.3575933990635
 30
0.0
 10
181.8180193792321
 20
133.4846961037824
 30
0.0
  0
SPLINE
  5
C5
330
1F
100
AcDbEntity
  8
0
  6
Continuous
 62
     7
370
    25
100
AcDbSpline
210
0.0
220
0.0
230
1.0
 70
     8
 71
     3
 72
     9
 73
     5
 74
     0
 42
0.00000001
 43
0.00000001
 40
0.0
 40
0.0
 40
0.0
 40
0.0
 40
0.4982449658294387
 40
1.0
 40
1.0
 40
1.0
 40
1.0
 10
182.5235738183874
 20
150.7405571531214
 30
0.0
 10
182.4501939750883
 20
150.8675040422252
 30
0.0
 10
182.3029173374269
 20
151.1222921440826
 30
0.0
 10
182.1557001392977
 20
151.3771412130378
 30
0.0
 10
182.0818331690199
 20
151.5050130163397
 30
0.0
  0
SPLINE
  5
C6
330
1F
100
AcDbEntity
  8
0
  6
Continuous
 62
     7
370
    25
100
AcDbSpline
210
0.0
220
0.0
230
1.0
 70
     8
 71
     3
 72
     9
 73
     5
 74
     0
 42
0.00000001
 43
0.00000001
 40
0.0
 40
0.0
 40
0.0
 40
0.0
 40
0.6441820525844191
 40
0.9999999999999999
 40
0.9999999999999999
 40
0.9999999999999999
 40
0.9999999999999999
 10
181.9755799781636
 20
133.4847163961628
 30
0.0
 10
182.0493726084344
 20
133.3570292166042
 30
0.0
 10
182.1639250551765
 20
133.1588132324019
 30
0.0
 10
182.2784620256005
 20
132.9605816425634
 30
0.0
 10
182.3192163353199
 20
132.8900472851541
 30
0.0
  0
LINE
  5
C7
330
1F
100
AcDbEntity
  8
0
  6
Continuous
 62
     7
370
    25
100
AcDbLine
 10
181.7117750736
 20
151.5050082435
 30
0.0
 11
181.5315277059
 21
151.1930581086
 31
0.0
  0
LINE
  5
C8
330
1F
100
AcDbEntity
  8
0
  6
Continuous
 62
     7
370
    25
100
AcDbLine
 10
182.3523806016
 20
132.8834785495
 30
0.0
 11
182.6815277059
 21
133.2126256538
 31
0.0
  0
SPLINE
  5
C9
330
1F
100
AcDbEntity
  8
0
  6
Continuous
 62
     7
370
    25
100
AcDbSpline
210
0.0
220
0.0
230
1.0
 70
     8
 71
     3
 72
     9
 73
     5
 74
     0
 42
0.00000001
 43
0.00000001
 40
0.0
 40
0.0
 40
0.0
 40
0.0
 40
0.5156973194565428
 40
1.0
 40
1.0
 40
1.0
 40
1.0
 10
181.8084607166542
 20
133.4764141028965
 30
0.0
 10
181.8380244912213
 20
133.4764184091319
 30
0.0
 10
181.8953522558841
 20
133.4764267594477
 30
0.0
 10
181.9526352422486
 20
133.4764185247724
 30
0.0
 10
181.9803775460945
 20
133.4764145366971
 30
0.0
  0
SPLINE
  5
CA
330
1F
100
AcDbEntity
  8
0
  6
Continuous
 62
     7
370
    25
100
AcDbSpline
210
0.0
220
0.0
230
1.0
 70
     8
 71
     3
 72
     9
 73
     5
 74
     0
 42
0.00000001
 43
0.00000001
 40
0.0
 40
0.0
 40
0.0
 40
0.0
 40
0.5100779247870971
 40
1.0
 40
1.0
 40
1.0
 40
1.0
 10
182.6904059725221
 20
150.7488372278783
 30
0.0
 10
182.6612627431289
 20
150.7488223278942
 30
0.0
 10
182.6041278859299
 20
150.7487931167026
 30
0.0
 10
182.5468505175626
 20
150.7488216542201
 30
0.0
 10
182.5187890703894
 20
150.7488356353799
 30
0.0
  0
LINE
  5
CB
330
1F
100
AcDbEntity
  8
0
  6
Continuous
 62
     7
370
    25
100
AcDbLine
 10
182.6815277059
 20
133.9876256538
 30
0.0
 11
184.1815277059
 21
133.9876256538
 31
0.0
  0
LINE
  5
CC
330
1F
100
AcDbEntity
  8
0
  6
Continuous
 62
     7
370
    25
100
AcDbLine
 10
184.1815277059
 20
150.2376256538
 30
0.0
 11
182.6815277059
 21
150.2376256538
 31
0.0
  0
ARC
  5
CD
330
1F
100
AcDbEntity
  8
0
  6
Continuous
 62
     7
370
    25
100
AcDbCircle
 10
173.7815277059
 20
136.3716372817
 30
0.0
 40
9.134011627907014
100
AcDbArc
 50
270.0
 51
328.0464183091
  0
ARC
  5
CE
330
1F
100
AcDbEntity
  8
0
  6
Continuous
 62
     7
370
    25
100
AcDbCircle
 10
173.7815277059
 20
147.8536140259
 30
0.0
 40
9.134011627906972
100
AcDbArc
 50
31.9535816909
 51
90.0
  0
LINE
  5
CF
330
1F
100
AcDbEntity
  8
0
  6
Continuous
 62
     7
370
    25
100
AcDbLine
 10
165.1369046458
 20
156.7955900881
 30
0.0
 11
165.0312385173
 21
156.6126256538
 31
0.0
  0
SPLINE
  5
D0
330
1F
100
AcDbEntity
  8
0
  6
Continuous
 62
     7
370
    25
100
AcDbSpline
210
0.0
220
0.0
230
1.0
 70
     8
 71
     3
 72
     9
 73
     5
 74
     0
 42
0.00000001
 43
0.00000001
 40
0.0
 40
0.0
 40
0.0
 40
0.0
 40
0.4999972376865703
 40
1.0
 40
1.0
 40
1.0
 40
1.0
 10
165.3717562830882
 20
128.1225253996526
 30
0.0
 10
165.4384724119297
 20
128.0070063194761
 30
0.0
 10
165.57190540678
 20
127.7759668827165
 30
0.0
 10
165.7053362071912
 20
127.5449262515768
 30
0.0
 10
165.7720519759745
 20
127.4294052978003
 30
0.0
  0
LINE
  5
D1
330
1F
100
AcDbEntity
  8
0
  6
Continuous
 62
     7
370
    25
100
AcDbLine
 10
165.3004063008
 20
156.8000178896
 30
0.0
 11
165.1416563008
 21
156.8000178896
 31
0.0
  0
LINE
  5
D2
330
1F
100
AcDbEntity
  8
0
  6
Continuous
 62
     7
370
    25
100
AcDbLine
 10
196.8815277059
 20
147.7626256538
 30
0.0
 11
188.9815277059
 21
147.7626256538
 31
0.0
  0
LINE
  5
D3
330
1F
100
AcDbEntity
  8
0
  6
Continuous
 62
     7
370
    25
100
AcDbLine
 10
188.9815277059
 20
136.4626256538
 30
0.0
 11
196.8815277059
 21
136.4626256538
 31
0.0
  0
ARC
  5
D4
330
1F
100
AcDbEntity
  8
0
  6
Continuous
 62
     7
370
    25
100
AcDbCircle
 10
133.1315277059
 20
-10.2873743462
 30
0.0
 40
7.900000000000006
100
AcDbArc
 50
180.0
 51
0.0
  0
ARC
  5
D5
330
1F
100
AcDbEntity
  8
0
  6
Continuous
 62
     7
370
    25
100
AcDbCircle
 10
133.1315277059
 20
142.1126256538
 30
0.0
 40
7.90000000000002
100
AcDbArc
 50
0.0
 51
180.0
  0
ARC
  5
D6
330
1F
100
AcDbEntity
  8
0
  6
Continuous
 62
     7
370
    25
100
AcDbCircle
 10
133.1315277059
 20
-10.2873743462
 30
0.0
 40
10.82499999999996
100
AcDbArc
 50
136.8689719021
 51
180.0
  0
ARC
  5
D7
330
1F
100
AcDbEntity
  8
0
  6
Continuous
 62
     7
370
    25
100
AcDbCircle
 10
133.1315277059
 20
-10.2873743462
 30
0.0
 40
10.82499999999999
100
AcDbArc
 50
180.0
 51
43.1310280979
  0
LINE
  5
D8
330
1F
100
AcDbEntity
  8
0
  6
Continuous
 62
     7
370
    25
100
AcDbLine
 10
140.8809159699
 20
143.3559673412
 30
0.0
 11
140.9246907298
 21
142.0938508716
 31
0.0
  0
LINE
  5
D9
330
1F
100
AcDbEntity
  8
0
  6
Continuous
 62
     7
370
    25
100
AcDbLine
 10
125.2376086739
 20
142.357293206
 30
0.0
 11
125.3109534863
 21
142.7228981769
 31
0.0
  0
SPLINE
  5
DA
330
1F
100
AcDbEntity
  8
0
  6
Continuous
 62
     7
370
    25
100
AcDbSpline
210
0.0
220
0.0
230
1.0
 70
     8
 71
     3
 72
     9
 73
     5
 74
     0
 42
0.00000001
 43
0.00000001
 40
0.0
 40
0.0
 40
0.0
 40
0.0
 40
0.4231156651055217
 40
1.0
 40
1.0
 40
1.0
 40
1.0
 10
138.5988193948314
 20
147.7369924352254
 30
0.0
 10
138.7063604849072
 20
147.6619268915804
 30
0.0
 10
138.9605252416032
 20
147.4845154888938
 30
0.0
 10
139.1507555069682
 20
147.2388795976673
 30
0.0
 10
139.2604963670801
 20
147.0971760999309
 30
0.0
  0
ARC
  5
DB
330
1F
100
AcDbEntity
  8
0
  6
Continuous
 62
     7
370
    25
100
AcDbCircle
 10
124.8350765795
 20
136.9909658928
 30
0.0
 40
0.1000000000000154
100
AcDbArc
 50
316.450526379
 51
31.6883360596
  0
ARC
  5
DC
330
1F
100
AcDbEntity
  8
0
  6
Continuous
 62
     7
370
    25
100
AcDbCircle
 10
125.1085486488
 20
136.5723813407
 30
0.0
 40
0.1000000000000222
100
AcDbArc
 50
34.6269032223
 51
109.8647129028
  0
ARC
  5
DD
330
1F
100
AcDbEntity
  8
0
  6
Continuous
 62
     7
370
    25
100
AcDbCircle
 10
133.1315277059
 20
142.1126256538
 30
0.0
 40
9.650000000000023
100
AcDbArc
 50
324.9501653321
 51
211.6883360596
  0
ARC
  5
DE
330
1F
100
AcDbEntity
  8
0
  6
Continuous
 62
     7
370
    25
100
AcDbCircle
 10
133.1315277059
 20
142.1126256538
 30
0.0
 40
9.925000000000006
100
AcDbArc
 50
322.7469493593
 51
217.2530506407
  0
ARC
  5
DF
330
1F
100
AcDbEntity
  8
0
  6
Continuous
 62
     7
370
    25
100
AcDbCircle
 10
133.1315277059
 20
142.1126256538
 30
0.0
 40
9.725000000000009
100
AcDbArc
 50
324.3251241983
 51
215.6748758017
  0
ARC
  5
E0
330
1F
100
AcDbEntity
  8
0
  6
Continuous
 62
     7
370
    25
100
AcDbCircle
 10
133.1315277059
 20
142.1126256538
 30
0.0
 40
14.22500000000001
100
AcDbArc
 50
303.7355336397
 51
223.2235523034
  0
LWPOLYLINE
  5
E1
330
1F
100
AcDbEntity
  8
0
  6
Continuous
 62
     7
370
    25
100
AcDbPolyline
 90
        3
 70
   128
 43
0.0
 10
125.2315277059
 20
130.2829754054
 10
124.1890261202
 20
131.0499726994
 10
122.7659526796
 20
132.3706813214
  0
LINE
  5
E2
330
1F
100
AcDbEntity
  8
0
  6
Continuous
 62
     7
370
    25
100
AcDbLine
 10
141.0063076199
 20
154.2492817414
 30
0.0
 11
140.8742754388
 21
154.0457929846
 31
0.0
  0
SPLINE
  5
E3
330
1F
100
AcDbEntity
  8
0
  6
Continuous
 62
     7
370
    25
100
AcDbSpline
210
0.0
220
0.0
230
1.0
 70
     8
 71
     3
 72
    11
 73
     7
 74
     0
 42
0.00000001
 43
0.00000001
 40
0.0
 40
0.0
 40
0.0
 40
0.0
 40
0.1446702591042557
 40
0.3907520209323692
 40
0.5962314811354859
 40
0.9999999999999999
 40
0.9999999999999999
 40
0.9999999999999999
 40
0.9999999999999999
 10
145.7328573340456
 20
149.2201618854157
 30
0.0
 10
145.5337394375305
 20
149.4876598454112
 30
0.0
 10
144.9959252319789
 20
150.2101674921848
 30
0.0
 10
144.1063472780269
 20
151.2599616042498
 30
0.0
 10
142.7635399919419
 20
152.7066074551384
 30
0.0
 10
141.7067059980085
 20
153.6344020104639
 30
0.0
 10
141.0063076198815
 20
154.2492817413538
 30
0.0
  0
LINE
  5
E4
330
1F
100
AcDbEntity
  8
0
  6
Continuous
 62
     7
370
    25
100
AcDbLine
 10
145.521577647
 20
149.1009936647
 30
0.0
 11
145.732857334
 21
149.2201618854
 31
0.0
  0
LINE
  5
E5
330
1F
100
AcDbEntity
  8
0
  6
Continuous
 62
     7
370
    25
100
AcDbLine
 10
126.5582651741
 20
155.0007131523
 30
0.0
 11
126.6684755163
 21
154.784625551
 31
0.0
  0
SPLINE
  5
E6
330
1F
100
AcDbEntity
  8
0
  6
Continuous
 62
     7
370
    25
100
AcDbSpline
210
0.0
220
0.0
230
1.0
 70
     8
 71
     3
 72
    11
 73
     7
 74
     0
 42
0.00000001
 43
0.00000001
 40
0.0
 40
0.0
 40
0.0
 40
0.0
 40
0.1446702591042559
 40
0.3907520209323661
 40
0.5962314811354594
 40
1.0
 40
1.0
 40
1.0
 40
1.0
 10
133.2768855850675
 20
156.5794653490676
 30
0.0
 10
132.9456666079933
 20
156.5407731723352
 30
0.0
 10
132.0510495286832
 20
156.4362662311981
 30
0.0
 10
130.6971121819155
 20
156.1907661804616
 30
0.0
 10
128.7728764817242
 20
155.7511838837695
 30
0.0
 10
127.4409658303527
 20
155.2998360751029
 30
0.0
 10
126.5582651740663
 20
155.0007131523205
 30
0.0
  0
LINE
  5
E7
330
1F
100
AcDbEntity
  8
0
  6
Continuous
 62
     7
370
    25
100
AcDbLine
 10
133.2768855851
 20
156.5794653491
 30
0.0
 11
133.274448448
 21
156.3369076625
 31
0.0
  0
LINE
  5
E8
330
1F
100
AcDbEntity
  8
0
  6
Continuous
 62
     7
370
    25
100
AcDbLine
 10
118.6834852601
 20
142.8640570648
 30
0.0
 11
118.9257277833
 21
142.8514582202
 31
0.0
  0
SPLINE
  5
E9
330
1F
100
AcDbEntity
  8
0
  6
Continuous
 62
     7
370
    25
100
AcDbSpline
210
0.0
220
0.0
230
1.0
 70
     8
 71
     3
 72
    11
 73
     7
 74
     0
 42
0.00000001
 43
0.00000001
 40
0.0
 40
0.0
 40
0.0
 40
0.0
 40
0.1446702591042558
 40
0.3907520209323621
 40
0.5962314811354645
 40
1.0
 40
1.0
 40
1.0
 40
1.0
 10
120.6755559568971
 20
149.4719291174573
 30
0.0
 10
120.543454876338
 20
149.1657389807293
 30
0.0
 10
120.1866520025795
 20
148.3387243928187
 30
0.0
 10
119.7222926097638
 20
147.0434302300172
 30
0.0
 10
119.1408641956574
 20
145.1572020824365
 30
0.0
 10
118.8657875382194
 20
143.7780597184445
 30
0.0
 10
118.6834852600601
 20
142.864057064772
 30
0.0
  0
LINE
  5
EA
330
1F
100
AcDbEntity
  8
0
  6
Continuous
 62
     7
370
    25
100
AcDbLine
 10
120.6755559569
 20
149.4719291175
 30
0.0
 11
120.8843985069
 21
149.3485396516
 31
0.0
  0
SPLINE
  5
EB
330
1F
100
AcDbEntity
  8
0
  6
Continuous
 62
     7
370
    25
100
AcDbSpline
210
0.0
220
0.0
230
1.0
 70
     8
 71
     3
 72
    11
 73
     7
 74
     0
 42
0.00000001
 43
0.00000001
 40
0.0
 40
0.0
 40
0.0
 40
0.0
 40
0.1446702591042542
 40
0.3907520209323654
 40
0.5962314811354789
 40
1.0
 40
1.0
 40
1.0
 40
1.0
 10
120.5301980777048
 20
135.005089422195
 30
0.0
 10
120.7293159742199
 20
134.7375914621995
 30
0.0
 10
121.2671301797715
 20
134.015083815426
 30
0.0
 10
122.1567081337235
 20
132.9652897033609
 30
0.0
 10
123.4995154198085
 20
131.5186438524723
 30
0.0
 10
124.5563494137419
 20
130.5908492971467
 30
0.0
 10
125.256747791869
 20
129.9759695662569
 30
0.0
  0
LINE
  5
EC
330
1F
100
AcDbEntity
  8
0
  6
Continuous
 62
     7
370
    25
100
AcDbLine
 10
120.5301980777
 20
135.0050894222
 30
0.0
 11
120.7414777647
 21
135.1242576429
 31
0.0
  0
LINE
  5
ED
330
1F
100
AcDbEntity
  8
0
  6
Continuous
 62
     7
370
    25
100
AcDbLine
 10
147.3373276284
 20
141.3737930874
 30
0.0
 11
147.5795701517
 21
141.3611942428
 31
0.0
  0
SPLINE
  5
EE
330
1F
100
AcDbEntity
  8
0
  6
Continuous
 62
     7
370
    25
100
AcDbSpline
210
0.0
220
0.0
230
1.0
 70
     8
 71
     3
 72
    11
 73
     7
 74
     0
 42
0.00000001
 43
0.00000001
 40
0.0
 40
0.0
 40
0.0
 40
0.0
 40
0.1446702591042547
 40
0.3907520209323575
 40
0.596231481135475
 40
1.0
 40
1.0
 40
1.0
 40
1.0
 10
145.5874994548533
 20
134.7533221901535
 30
0.0
 10
145.7196005354124
 20
135.0595123268814
 30
0.0
 10
146.076403409171
 20
135.886526914792
 30
0.0
 10
146.5407628019866
 20
137.1818210775935
 30
0.0
 10
147.122191216093
 20
139.0680492251743
 30
0.0
 10
147.3972678735311
 20
140.4471915891664
 30
0.0
 10
147.5795701516903
 20
141.3611942428388
 30
0.0
  0
LINE
  5
EF
330
1F
100
AcDbEntity
  8
0
  6
Continuous
 62
     7
370
    25
100
AcDbLine
 10
145.3786569049
 20
134.8767116561
 30
0.0
 11
145.5874994549
 21
134.7533221902
 31
0.0
  0
SPLINE
  5
F0
330
1F
100
AcDbEntity
  8
0
  6
Continuous
 62
     7
370
    25
100
AcDbSpline
210
0.0
220
0.0
230
1.0
 70
     8
 71
     3
 72
     9
 73
     5
 74
     0
 42
0.00000001
 43
0.00000001
 40
0.0
 40
0.0
 40
0.0
 40
0.0
 40
0.5863847898283578
 40
1.0
 40
1.0
 40
1.0
 40
1.0
 10
144.8615288773766
 20
133.2113506037591
 30
0.0
 10
145.0091054238091
 20
133.5104886454477
 30
0.0
 10
145.2607772764771
 20
134.0206281423746
 30
0.0
 10
145.4919025332127
 20
134.5389403694268
 30
0.0
 10
145.5874994548533
 20
134.7533221901535
 30
0.0
  0
ARC
  5
F1
330
1F
100
AcDbEntity
  8
0
  6
Continuous
 62
     7
370
    25
100
AcDbCircle
 10
133.1315277059
 20
142.1126256538
 30
0.0
 40
14.72500000000001
100
AcDbArc
 50
303.6400367407
 51
322.8070678661
  0
SPLINE
  5
F2
330
1F
100
AcDbEntity
  8
0
  6
Continuous
 62
     7
370
    25
100
AcDbSpline
210
0.0
220
0.0
230
1.0
 70
     8
 71
     3
 72
     9
 73
     5
 74
     0
 42
0.00000001
 43
0.00000001
 40
0.0
 40
0.0
 40
0.0
 40
0.0
 40
0.5862283062032674
 40
1.0
 40
1.0
 40
1.0
 40
1.0
 10
118.6834852600601
 20
142.864057064772
 30
0.0
 10
118.6292326228041
 20
142.5357312097562
 30
0.0
 10
118.5366873862778
 20
141.9756663825522
 30
0.0
 10
118.4656337710802
 20
141.4112895220178
 30
0.0
 10
118.4362337963695
 20
141.1777663524948
 30
0.0
  0
SPLINE
  5
F3
330
1F
100
AcDbEntity
  8
0
  6
Continuous
 62
     7
370
    25
100
AcDbSpline
210
0.0
220
0.0
230
1.0
 70
     8
 71
     3
 72
     9
 73
     5
 74
     0
 42
0.00000001
 43
0.00000001
 40
0.0
 40
0.0
 40
0.0
 40
0.0
 40
0.5863847898283638
 40
1.0
 40
1.0
 40
1.0
 40
1.0
 10
119.5577968007118
 20
136.4047841778871
 30
0.0
 10
119.7430696708363
 20
136.1274101188294
 30
0.0
 10
120.0590275083147
 20
135.6543861525379
 30
0.0
 10
120.3923364356662
 20
135.1950696952227
 30
0.0
 10
120.5301980777048
 20
135.005089422195
 30
0.0
  0
ARC
  5
F4
330
1F
100
AcDbEntity
  8
0
  6
Continuous
 62
     7
370
    25
100
AcDbCircle
 10
133.1315277059
 20
142.1126256538
 30
0.0
 40
14.72500000000001
100
AcDbArc
 50
183.6400367407
 51
202.8070678661
  0
SPLINE
  5
F5
330
1F
100
AcDbEntity
  8
0
  6
Continuous
 62
     7
370
    25
100
AcDbSpline
210
0.0
220
0.0
230
1.0
 70
     8
 71
     3
 72
     9
 73
     5
 74
     0
 42
0.00000001
 43
0.00000001
 40
0.0
 40
0.0
 40
0.0
 40
0.0
 40
0.5862283062032875
 40
1.0
 40
1.0
 40
1.0
 40
1.0
 10
147.5795701516903
 20
141.3611942428388
 30
0.0
 10
147.6338227889463
 20
141.6895200978546
 30
0.0
 10
147.7263680254725
 20
142.2495849250585
 30
0.0
 10
147.7974216406701
 20
142.8139617855929
 30
0.0
 10
147.8268216153808
 20
143.0474849551159
 30
0.0
  0
SPLINE
  5
F6
330
1F
100
AcDbEntity
  8
0
  6
Continuous
 62
     7
370
    25
100
AcDbSpline
210
0.0
220
0.0
230
1.0
 70
     8
 71
     3
 72
     9
 73
     5
 74
     0
 42
0.00000001
 43
0.00000001
 40
0.0
 40
0.0
 40
0.0
 40
0.0
 40
0.5863847898283613
 40
1.0
 40
1.0
 40
1.0
 40
1.0
 10
146.7052586110385
 20
147.8204671297237
 30
0.0
 10
146.5199857409141
 20
148.0978411887813
 30
0.0
 10
146.2040279034357
 20
148.5708651550727
 30
0.0
 10
145.8707189760842
 20
149.030181612388
 30
0.0
 10
145.7328573340456
 20
149.2201618854157
 30
0.0
  0
ARC
  5
F7
330
1F
100
AcDbEntity
  8
0
  6
Continuous
 62
     7
370
    25
100
AcDbCircle
 10
133.1315277059
 20
142.1126256538
 30
0.0
 40
14.72500000000001
100
AcDbArc
 50
3.6400367407
 51
22.8070678661
  0
SPLINE
  5
F8
330
1F
100
AcDbEntity
  8
0
  6
Continuous
 62
     7
370
    25
100
AcDbSpline
210
0.0
220
0.0
230
1.0
 70
     8
 71
     3
 72
     9
 73
     5
 74
     0
 42
0.00000001
 43
0.00000001
 40
0.0
 40
0.0
 40
0.0
 40
0.0
 40
0.5862283062032693
 40
1.0
 40
1.0
 40
1.0
 40
1.0
 10
126.5582651740663
 20
155.0007131523205
 30
0.0
 10
126.2468003242754
 20
154.8835343868985
 30
0.0
 10
125.7154973378875
 20
154.6836484991275
 30
0.0
 10
125.1912058317578
 20
154.4629943046521
 30
0.0
 10
124.9742688472233
 20
154.3716938448607
 30
0.0
  0
SPLINE
  5
F9
330
1F
100
AcDbEntity
  8
0
  6
Continuous
 62
     7
370
    25
100
AcDbSpline
210
0.0
220
0.0
230
1.0
 70
     8
 71
     3
 72
     9
 73
     5
 74
     0
 42
0.00000001
 43
0.00000001
 40
0.0
 40
0.0
 40
0.0
 40
0.0
 40
0.5863847898283643
 40
0.9999999999999999
 40
0.9999999999999999
 40
0.9999999999999999
 40
0.9999999999999999
 10
121.4015265343738
 20
151.0139007038516
 30
0.0
 10
121.2539499879413
 20
150.714762662163
 30
0.0
 10
121.0022781352733
 20
150.2046231652361
 30
0.0
 10
120.7711528785377
 20
149.686310938184
 30
0.0
 10
120.6755559568971
 20
149.4719291174573
 30
0.0
  0
ARC
  5
FA
330
1F
100
AcDbEntity
  8
0
  6
Continuous
 62
     7
370
    25
100
AcDbCircle
 10
133.1315277059
 20
142.1126256538
 30
0.0
 40
14.72500000000002
100
AcDbArc
 50
123.6400367407
 51
142.8070678661
  0
SPLINE
  5
FB
330
1F
100
AcDbEntity
  8
0
  6
Continuous
 62
     7
370
    25
100
AcDbSpline
210
0.0
220
0.0
230
1.0
 70
     8
 71
     3
 72
     9
 73
     5
 74
     0
 42
0.00000001
 43
0.00000001
 40
0.0
 40
0.0
 40
0.0
 40
0.0
 40
0.5862283062032709
 40
0.9999999999999999
 40
0.9999999999999999
 40
0.9999999999999999
 40
0.9999999999999999
 10
141.0063076198815
 20
154.2492817413538
 30
0.0
 10
140.7490954073465
 20
154.4604288309477
 30
0.0
 10
140.3103376574849
 20
154.8206077703806
 30
0.0
 10
139.8570997665527
 20
155.1643304364397
 30
0.0
 10
139.6695627567289
 20
155.3065531461712
 30
0.0
  0
SPLINE
  5
FC
330
1F
100
AcDbEntity
  8
0
  6
Continuous
 62
     7
370
    25
100
AcDbSpline
210
0.0
220
0.0
230
1.0
 70
     8
 71
     3
 72
     9
 73
     5
 74
     0
 42
0.00000001
 43
0.00000001
 40
0.0
 40
0.0
 40
0.0
 40
0.0
 40
0.5863847898283634
 40
1.0
 40
1.0
 40
1.0
 40
1.0
 10
134.9752574395371
 20
156.7217421797699
 30
0.0
 10
134.6424080229802
 20
156.6999781971389
 30
0.0
 10
134.0747783328337
 20
156.6628626665035
 30
0.0
 10
133.5103441487467
 20
156.6038668967666
 30
0.0
 10
133.2768855850675
 20
156.5794653490676
 30
0.0
  0
ARC
  5
FD
330
1F
100
AcDbEntity
  8
0
  6
Continuous
 62
     7
370
    25
100
AcDbCircle
 10
133.1315277059
 20
142.1126256538
 30
0.0
 40
14.72500000000003
100
AcDbArc
 50
63.6400367407
 51
82.8070678661
  0
SPLINE
  5
FE
330
1F
100
AcDbEntity
  8
0
  6
Continuous
 62
     7
370
    25
100
AcDbSpline
210
0.0
220
0.0
230
1.0
 70
    24
 71
     3
 72
    12
 73
     8
 74
     0
 42
0.00000001
 43
0.00000001
 40
0.0
 40
0.0
 40
0.0
 40
0.0
 40
0.3013828945620944
 40
0.4108442493795586
 40
0.6247185195336503
 40
0.6986171054378635
 40
0.9999999999999999
 40
0.9999999999999999
 40
0.9999999999999999
 40
0.9999999999999999
 10
125.0325248447485
 20
129.849500950036
 30
0.0
 10
124.5674213929072
 20
130.3443780054303
 30
0.0
 10
123.9333937755361
 20
131.0189929090203
 30
0.0
 10
122.9646778270013
 20
132.0497212216709
 30
0.0
 10
122.3475530220525
 20
132.7063512790803
 30
0.0
 10
121.4343027955315
 20
133.6780632307971
 30
0.0
 10
120.855170137855
 20
134.2942690731295
 30
0.0
 10
120.3900774386654
 20
134.789134687541
 30
0.0
  0
ARC
  5
FF
330
1F
100
AcDbEntity
  8
0
  6
Continuous
 62
     7
370
    25
100
AcDbCircle
 10
120.7682432477
 20
134.6972000773
 30
0.0
 40
0.3891803587965372
100
AcDbArc
 50
127.7094634934
 51
166.3360839426
  0
SPLINE
  5
100
330
1F
100
AcDbEntity
  8
0
  6
Continuous
 62
     7
370
    25
100
AcDbSpline
210
0.0
220
0.0
230
1.0
 70
    24
 71
     3
 72
    12
 73
     8
 74
     0
 42
0.00000001
 43
0.00000001
 40
0.0
 40
0.0
 40
0.0
 40
0.0
 40
0.3013828945620992
 40
0.4108442493795573
 40
0.6247185195336495
 40
0.6986171054378605
 40
1.0
 40
1.0
 40
1.0
 40
1.0
 10
147.8012066596793
 20
141.2302457826315
 30
0.0
 10
147.6051822838785
 20
140.5800158502518
 30
0.0
 10
147.3379624482835
 20
139.6936243751126
 30
0.0
 10
146.9296835193956
 20
138.339327598305
 30
0.0
 10
146.669587611265
 20
137.4765668112092
 30
0.0
 10
146.2846854891779
 20
136.1998129391717
 30
0.0
 10
146.0406019045958
 20
135.3901664242965
 30
0.0
 10
145.8445820606509
 20
134.7399515244778
 30
0.0
  0
ARC
  5
101
330
1F
100
AcDbEntity
  8
0
  6
Continuous
 62
     7
370
    25
100
AcDbCircle
 10
145.7351168641
 20
135.1134200271
 30
0.0
 40
0.3891803587964874
100
AcDbArc
 50
247.7094634934
 51
286.3360839426
  0
ARC
  5
102
330
1F
100
AcDbEntity
  8
0
  6
Continuous
 62
     7
370
    25
100
AcDbCircle
 10
147.5035624975
 20
140.9795082617
 30
0.0
 40
0.3891803587986934
100
AcDbArc
 50
40.1110206644
 51
78.7376411134
  0
ARC
  5
103
330
1F
100
AcDbEntity
  8
0
  6
Continuous
 62
     7
370
    25
100
AcDbCircle
 10
118.7594929143
 20
143.2457430459
 30
0.0
 40
0.3891803588379996
100
AcDbArc
 50
220.1110206664
 51
258.7376411113
  0
SPLINE
  5
104
330
1F
100
AcDbEntity
  8
0
  6
Continuous
 62
     7
370
    25
100
AcDbSpline
210
0.0
220
0.0
230
1.0
 70
    24
 71
     3
 72
    12
 73
     8
 74
     0
 42
0.00000001
 43
0.00000001
 40
0.0
 40
0.0
 40
0.0
 40
0.0
 40
0.3013828945621506
 40
0.4108442493795785
 40
0.6247185195336595
 40
0.6986171054378615
 40
1.0
 40
1.0
 40
1.0
 40
1.0
 10
118.4618487520711
 20
142.9950055249793
 30
0.0
 10
118.657873127872
 20
143.645235457359
 30
0.0
 10
118.925092963467
 20
144.5316269324983
 30
0.0
 10
119.3333718923549
 20
145.8859237093059
 30
0.0
 10
119.5934678004854
 20
146.7486844964017
 30
0.0
 10
119.9783699225726
 20
148.0254383684391
 30
0.0
 10
120.2224535071546
 20
148.8350848833142
 30
0.0
 10
120.4184733510995
 20
149.4852997831329
 30
0.0
  0
ARC
  5
105
330
1F
100
AcDbEntity
  8
0
  6
Continuous
 62
     7
370
    25
100
AcDbCircle
 10
120.5279385476
 20
149.1118312805
 30
0.0
 40
0.3891803587965793
100
AcDbArc
 50
67.7094634934
 51
106.3360839426
  0
ARC
  5
106
330
1F
100
AcDbEntity
  8
0
  6
Continuous
 62
     7
370
    25
100
AcDbCircle
 10
126.9268187571
 20
155.1257315835
 30
0.0
 40
0.3891803588382374
100
AcDbArc
 50
160.1110206664
 51
198.7376411113
  0
SPLINE
  5
107
330
1F
100
AcDbEntity
  8
0
  6
Continuous
 62
     7
370
    25
100
AcDbSpline
210
0.0
220
0.0
230
1.0
 70
    24
 71
     3
 72
    12
 73
     8
 74
     0
 42
0.00000001
 43
0.00000001
 40
0.0
 40
0.0
 40
0.0
 40
0.0
 40
0.3013828945621499
 40
0.4108442493795587
 40
0.6247185195336379
 40
0.6986171054378638
 40
0.9999999999999999
 40
0.9999999999999999
 40
0.9999999999999999
 40
0.9999999999999999
 10
126.5608516131978
 20
155.2581302287486
 30
0.0
 10
127.2219794408402
 20
155.4134831057339
 30
0.0
 10
128.1232268938062
 20
155.6252596772832
 30
0.0
 10
129.5002217712289
 20
155.9488281414401
 30
0.0
 10
130.3774424843081
 20
156.1549588711266
 30
0.0
 10
131.6755948329163
 20
156.4600007914473
 30
0.0
 10
132.4988110751748
 20
156.6534414639901
 30
0.0
 10
133.1599236183094
 20
156.8087907493972
 30
0.0
  0
ARC
  5
108
330
1F
100
AcDbEntity
  8
0
  6
Continuous
 62
     7
370
    25
100
AcDbCircle
 10
132.8912230058
 20
156.5272568571
 30
0.0
 40
0.3891803587971795
100
AcDbArc
 50
7.7094634934
 51
46.3360839425
  0
SPLINE
  5
109
330
1F
100
AcDbEntity
  8
0
  6
Continuous
 62
     7
370
    25
100
AcDbSpline
210
0.0
220
0.0
230
1.0
 70
    24
 71
     3
 72
    12
 73
     8
 74
     0
 42
0.00000001
 43
0.00000001
 40
0.0
 40
0.0
 40
0.0
 40
0.0
 40
0.3013828945621527
 40
0.410844249379554
 40
0.624718519533646
 40
0.6986171054378584
 40
0.9999999999999999
 40
0.9999999999999999
 40
0.9999999999999999
 40
0.9999999999999999
 10
141.2305305670019
 20
154.3757503575747
 30
0.0
 10
141.6956340188434
 20
153.8808733021802
 30
0.0
 10
142.3296616362145
 20
153.2062583985903
 30
0.0
 10
143.2983775847492
 20
152.1755300859396
 30
0.0
 10
143.9155023896979
 20
151.5189000285304
 30
0.0
 10
144.8287526162189
 20
150.5471880768136
 30
0.0
 10
145.4078852738953
 20
149.9309822344812
 30
0.0
 10
145.872977973085
 20
149.4361166200697
 30
0.0
  0
ARC
  5
10A
330
1F
100
AcDbEntity
  8
0
  6
Continuous
 62
     7
370
    25
100
AcDbCircle
 10
145.4948121641
 20
149.5280512304
 30
0.0
 40
0.3891803587962684
100
AcDbArc
 50
307.7094634933
 51
346.3360839426
  0
ARC
  5
10B
330
1F
100
AcDbEntity
  8
0
  6
Continuous
 62
     7
370
    25
100
AcDbCircle
 10
141.2988535487
 20
153.9926141914
 30
0.0
 40
0.3891803587982094
100
AcDbArc
 50
100.1110206644
 51
138.7376411134
  0
LINE
  5
10C
330
1F
100
AcDbEntity
  8
0
  6
Continuous
 62
     7
370
    25
100
AcDbLine
 10
145.8445820607
 20
134.7399515245
 30
0.0
 11
145.3402479912
 21
133.0670314779
 31
0.0
  0
LINE
  5
10D
330
1F
100
AcDbEntity
  8
0
  6
Continuous
 62
     7
370
    25
100
AcDbLine
 10
145.3402479912
 20
133.0670314779
 30
0.0
 11
144.8615288774
 21
133.2113506038
 31
0.0
  0
LINE
  5
10E
330
1F
100
AcDbEntity
  8
0
  6
Continuous
 62
     7
370
    25
100
AcDbLine
 10
120.3900774387
 20
134.7891346875
 30
0.0
 11
119.1934532146
 21
136.062360827
 31
0.0
  0
LINE
  5
10F
330
1F
100
AcDbEntity
  8
0
  6
Continuous
 62
     7
370
    25
100
AcDbLine
 10
119.5577968007
 20
136.4047841779
 30
0.0
 11
119.1934532146
 21
136.062360827
 31
0.0
  0
LINE
  5
110
330
1F
100
AcDbEntity
  8
0
  6
Continuous
 62
     7
370
    25
100
AcDbLine
 10
145.8729779731
 20
149.4361166201
 30
0.0
 11
147.0696021972
 21
148.1628904806
 31
0.0
  0
LINE
  5
111
330
1F
100
AcDbEntity
  8
0
  6
Continuous
 62
     7
370
    25
100
AcDbLine
 10
147.0696021972
 20
148.1628904806
 30
0.0
 11
146.705258611
 21
147.8204671297
 31
0.0
  0
LINE
  5
112
330
1F
100
AcDbEntity
  8
0
  6
Continuous
 62
     7
370
    25
100
AcDbLine
 10
120.4184733511
 20
149.4852997831
 30
0.0
 11
120.9228074206
 21
151.1582198297
 31
0.0
  0
LINE
  5
113
330
1F
100
AcDbEntity
  8
0
  6
Continuous
 62
     7
370
    25
100
AcDbLine
 10
120.9228074206
 20
151.1582198297
 30
0.0
 11
121.4015265344
 21
151.0139007039
 31
0.0
  0
LINE
  5
114
330
1F
100
AcDbEntity
  8
0
  6
Continuous
 62
     7
370
    25
100
AcDbLine
 10
133.1599236183
 20
156.8087907494
 30
0.0
 11
134.8608819119
 21
157.2084846565
 31
0.0
  0
LINE
  5
115
330
1F
100
AcDbEntity
  8
0
  6
Continuous
 62
     7
370
    25
100
AcDbLine
 10
134.8608819119
 20
157.2084846565
 30
0.0
 11
134.9752574395
 21
156.7217421798
 31
0.0
  0
LINE
  5
116
330
1F
100
AcDbEntity
  8
0
  6
Continuous
 62
     7
370
    25
100
AcDbLine
 10
141.4031620922
 20
129.366814986
 30
0.0
 11
141.0315277059
 21
129.279487742
 31
0.0
  0
LINE
  5
117
330
1F
100
AcDbEntity
  8
0
  6
Continuous
 62
     7
370
    25
100
AcDbLine
 10
141.4031620922
 20
129.366814986
 30
0.0
 11
141.2887865645
 21
129.8535574627
 31
0.0
  0
LINE
  5
118
330
1F
100
AcDbEntity
  8
0
  6
Continuous
 62
     7
370
    25
100
AcDbLine
 10
125.2315277059
 20
129.6377589182
 30
0.0
 11
125.0325248447
 21
129.84950095
 31
0.0
  0
LINE
  5
119
330
1F
100
AcDbEntity
  8
0
  6
Continuous
 62
     7
370
    25
100
AcDbLine
 10
118.4362337964
 20
141.1777663525
 30
0.0
 11
117.9575146826
 21
141.3220854784
 31
0.0
  0
LINE
  5
11A
330
1F
100
AcDbEntity
  8
0
  6
Continuous
 62
     7
370
    25
100
AcDbLine
 10
117.9575146826
 20
141.3220854784
 30
0.0
 11
118.4618487521
 21
142.995005525
 31
0.0
  0
LINE
  5
11B
330
1F
100
AcDbEntity
  8
0
  6
Continuous
 62
     7
370
    25
100
AcDbLine
 10
148.3055407292
 20
142.9031658292
 30
0.0
 11
147.8012066597
 21
141.2302457826
 31
0.0
  0
LINE
  5
11C
330
1F
100
AcDbEntity
  8
0
  6
Continuous
 62
     7
370
    25
100
AcDbLine
 10
147.8268216154
 20
143.0474849551
 30
0.0
 11
148.3055407292
 21
142.9031658292
 31
0.0
  0
LINE
  5
11D
330
1F
100
AcDbEntity
  8
0
  6
Continuous
 62
     7
370
    25
100
AcDbLine
 10
140.0339063429
 20
155.648976497
 30
0.0
 11
141.230530567
 21
154.3757503576
 31
0.0
  0
LINE
  5
11E
330
1F
100
AcDbEntity
  8
0
  6
Continuous
 62
     7
370
    25
100
AcDbLine
 10
139.6695627567
 20
155.3065531462
 30
0.0
 11
140.0339063429
 21
155.648976497
 31
0.0
  0
LINE
  5
11F
330
1F
100
AcDbEntity
  8
0
  6
Continuous
 62
     7
370
    25
100
AcDbLine
 10
124.9742688472
 20
154.3716938449
 30
0.0
 11
124.8598933196
 21
154.8584363216
 31
0.0
  0
LINE
  5
120
330
1F
100
AcDbEntity
  8
0
  6
Continuous
 62
     7
370
    25
100
AcDbLine
 10
124.8598933196
 20
154.8584363216
 30
0.0
 11
126.5608516132
 21
155.2581302287
 31
0.0
  0
LINE
  5
121
330
1F
100
AcDbEntity
  8
0
  6
Continuous
 62
     7
370
    25
100
AcDbLine
 10
144.667577712
 20
131.0257166952
 30
0.0
 11
144.3070761493
 21
131.3721826001
 31
0.0
  0
LINE
  5
122
330
1F
100
AcDbEntity
  8
0
  6
Continuous
 62
     7
370
    25
100
AcDbLine
 10
144.7857952631
 20
131.2278634742
 30
0.0
 11
144.3070761493
 21
131.3721826001
 31
0.0
  0
ARC
  5
123
330
1F
100
AcDbEntity
  8
0
  6
Continuous
 62
     7
370
    25
100
AcDbCircle
 10
144.3070761493
 20
131.3721826001
 30
0.0
 40
0.5000000000000246
100
AcDbArc
 50
316.1373625448
 51
343.2235523034
  0
ARC
  5
124
330
1F
100
AcDbEntity
  8
0
  6
Continuous
 62
     7
370
    25
100
AcDbCircle
 10
133.1315277059
 20
142.1126256538
 30
0.0
 40
16.00000000000001
100
AcDbArc
 50
310.309742062
 51
316.1373625449
  0
LINE
  5
125
330
1F
100
AcDbEntity
  8
0
  6
Continuous
 62
     7
370
    25
100
AcDbLine
 10
143.4822388653
 20
129.9116921447
 30
0.0
 11
143.1587791416
 21
130.2929713168
 31
0.0
  0
ARC
  5
126
330
1F
100
AcDbEntity
  8
0
  6
Continuous
 62
     7
370
    25
100
AcDbCircle
 10
133.1315277059
 20
142.1126256538
 30
0.0
 40
15.50000000000002
100
AcDbArc
 50
310.309742062
 51
316.1373625449
  0
LINE
  5
127
330
1F
100
AcDbEntity
  8
0
  6
Continuous
 62
     7
370
    25
100
AcDbLine
 10
143.2731546692
 20
129.8062288401
 30
0.0
 11
141.4031620922
 21
129.366814986
 31
0.0
  0
LINE
  5
128
330
1F
100
AcDbEntity
  8
0
  6
Continuous
 62
     7
370
    25
100
AcDbLine
 10
141.2887865645
 20
129.8535574627
 30
0.0
 11
143.1587791416
 21
130.2929713168
 31
0.0
  0
LINE
  5
129
330
1F
100
AcDbEntity
  8
0
  6
Continuous
 62
     7
370
    25
100
AcDbLine
 10
143.2731546692
 20
129.8062288401
 30
0.0
 11
143.1587791416
 21
130.2929713168
 31
0.0
  0
LINE
  5
12A
330
1F
100
AcDbEntity
  8
0
  6
Continuous
 62
     7
370
    25
100
AcDbLine
 10
144.3070761493
 20
131.3721826001
 30
0.0
 11
144.8615288774
 21
133.2113506038
 31
0.0
  0
ARC
  5
12B
330
1F
100
AcDbEntity
  8
0
  6
Continuous
 62
     7
370
    25
100
AcDbCircle
 10
143.1587791416
 20
130.2929713168
 30
0.0
 40
0.4999999999999945
100
AcDbArc
 50
283.2235523034
 51
310.309742062
  0
LINE
  5
12C
330
1F
100
AcDbEntity
  8
0
  6
Continuous
 62
     7
370
    25
100
AcDbLine
 10
145.3402479912
 20
133.0670314779
 30
0.0
 11
144.7857952631
 21
131.2278634742
 31
0.0
  0
LINE
  5
12D
330
1F
100
AcDbEntity
  8
0
  6
Continuous
 62
     7
370
    25
100
AcDbLine
 10
147.8268216154
 20
143.0474849551
 30
0.0
 11
148.3812743435
 21
144.8866529588
 31
0.0
  0
LINE
  5
12E
330
1F
100
AcDbEntity
  8
0
  6
Continuous
 62
     7
370
    25
100
AcDbLine
 10
148.02079846
 20
146.4207129802
 30
0.0
 11
146.705258611
 21
147.8204671297
 31
0.0
  0
ARC
  5
12F
330
1F
100
AcDbEntity
  8
0
  6
Continuous
 62
     7
370
    25
100
AcDbCircle
 10
133.1315277059
 20
142.1126256538
 30
0.0
 40
15.50000000000003
100
AcDbArc
 50
10.309742062
 51
16.1373625449
  0
ARC
  5
130
330
1F
100
AcDbEntity
  8
0
  6
Continuous
 62
     7
370
    25
100
AcDbCircle
 10
118.2422569518
 20
137.8045383274
 30
0.0
 40
0.4999999999999951
100
AcDbArc
 50
196.1373625449
 51
223.2235523034
  0
LINE
  5
131
330
1F
100
AcDbEntity
  8
0
  6
Continuous
 62
     7
370
    25
100
AcDbLine
 10
118.2422569518
 20
137.8045383274
 30
0.0
 11
117.7619578952
 21
137.6655677685
 31
0.0
  0
LINE
  5
132
330
1F
100
AcDbEntity
  8
0
  6
Continuous
 62
     7
370
    25
100
AcDbLine
 10
118.2422569518
 20
137.8045383274
 30
0.0
 11
117.8779133656
 21
137.4621149766
 31
0.0
  0
LINE
  5
133
330
1F
100
AcDbEntity
  8
0
  6
Continuous
 62
     7
370
    25
100
AcDbLine
 10
118.2422569518
 20
137.8045383274
 30
0.0
 11
119.5577968007
 21
136.4047841779
 31
0.0
  0
LINE
  5
134
330
1F
100
AcDbEntity
  8
0
  6
Continuous
 62
     7
370
    25
100
AcDbLine
 10
119.1934532146
 20
136.062360827
 30
0.0
 11
117.8779133656
 21
137.4621149766
 31
0.0
  0
LINE
  5
135
330
1F
100
AcDbEntity
  8
0
  6
Continuous
 62
     7
370
    25
100
AcDbLine
 10
118.4362337964
 20
141.1777663525
 30
0.0
 11
117.8817810683
 21
139.3385983489
 31
0.0
  0
LINE
  5
136
330
1F
100
AcDbEntity
  8
0
  6
Continuous
 62
     7
370
    25
100
AcDbLine
 10
117.8817810683
 20
139.3385983489
 30
0.0
 11
117.4030619545
 21
139.4829174747
 31
0.0
  0
LINE
  5
137
330
1F
100
AcDbEntity
  8
0
  6
Continuous
 62
     7
370
    25
100
AcDbLine
 10
117.4030619545
 20
139.4829174747
 30
0.0
 11
117.9575146826
 21
141.3220854784
 31
0.0
  0
ARC
  5
138
330
1F
100
AcDbEntity
  8
0
  6
Continuous
 62
     7
370
    25
100
AcDbCircle
 10
133.1315277059
 20
142.1126256538
 30
0.0
 40
15.5
100
AcDbArc
 50
190.309742062
 51
196.1373625449
  0
ARC
  5
139
330
1F
100
AcDbEntity
  8
0
  6
Continuous
 62
     7
370
    25
100
AcDbCircle
 10
133.1315277059
 20
142.1126256538
 30
0.0
 40
15.99999999999999
100
AcDbArc
 50
190.309742062
 51
196.1373625449
  0
LINE
  5
13A
330
1F
100
AcDbEntity
  8
0
  6
Continuous
 62
     7
370
    25
100
AcDbLine
 10
117.8817810683
 20
139.3385983489
 30
0.0
 11
117.3898537574
 21
139.2491135971
 31
0.0
  0
ARC
  5
13B
330
1F
100
AcDbEntity
  8
0
  6
Continuous
 62
     7
370
    25
100
AcDbCircle
 10
117.8817810683
 20
139.3385983489
 30
0.0
 40
0.4999999999999892
100
AcDbArc
 50
163.2235523034
 51
190.309742062
  0
LINE
  5
13C
330
1F
100
AcDbEntity
  8
0
  6
Continuous
 62
     7
370
    25
100
AcDbLine
 10
148.3812743435
 20
144.8866529588
 30
0.0
 11
148.8599934573
 21
144.7423338329
 31
0.0
  0
LINE
  5
13D
330
1F
100
AcDbEntity
  8
0
  6
Continuous
 62
     7
370
    25
100
AcDbLine
 10
148.8599934573
 20
144.7423338329
 30
0.0
 11
148.3055407292
 21
142.9031658292
 31
0.0
  0
ARC
  5
13E
330
1F
100
AcDbEntity
  8
0
  6
Continuous
 62
     7
370
    25
100
AcDbCircle
 10
133.1315277059
 20
142.1126256538
 30
0.0
 40
16.00000000000003
100
AcDbArc
 50
10.309742062
 51
16.1373625449
  0
LINE
  5
13F
330
1F
100
AcDbEntity
  8
0
  6
Continuous
 62
     7
370
    25
100
AcDbLine
 10
148.8732016544
 20
144.9761377105
 30
0.0
 11
148.3812743435
 21
144.8866529588
 31
0.0
  0
LINE
  5
140
330
1F
100
AcDbEntity
  8
0
  6
Continuous
 62
     7
370
    25
100
AcDbLine
 10
148.5010975165
 20
146.5596835391
 30
0.0
 11
148.02079846
 21
146.4207129802
 31
0.0
  0
LINE
  5
141
330
1F
100
AcDbEntity
  8
0
  6
Continuous
 62
     7
370
    25
100
AcDbLine
 10
148.3851420461
 20
146.763136331
 30
0.0
 11
148.02079846
 21
146.4207129802
 31
0.0
  0
ARC
  5
142
330
1F
100
AcDbEntity
  8
0
  6
Continuous
 62
     7
370
    25
100
AcDbCircle
 10
148.02079846
 20
146.4207129802
 30
0.0
 40
0.5000000000000001
100
AcDbArc
 50
16.1373625448
 51
43.2235523034
  0
LINE
  5
143
330
1F
100
AcDbEntity
  8
0
  6
Continuous
 62
     7
370
    25
100
AcDbLine
 10
147.0696021972
 20
148.1628904806
 30
0.0
 11
148.3851420461
 21
146.763136331
 31
0.0
  0
ARC
  5
144
330
1F
100
AcDbEntity
  8
0
  6
Continuous
 62
     7
370
    25
100
AcDbCircle
 10
148.3812743435
 20
144.8866529588
 30
0.0
 40
0.5000000000000329
100
AcDbArc
 50
343.2235523034
 51
10.309742062
  0
ARC
  5
145
330
1F
100
AcDbEntity
  8
0
  6
Continuous
 62
     7
370
    25
100
AcDbCircle
 10
121.9559792625
 20
152.8530687075
 30
0.0
 40
0.5000000000000147
100
AcDbArc
 50
136.1373625448
 51
163.2235523034
  0
LINE
  5
146
330
1F
100
AcDbEntity
  8
0
  6
Continuous
 62
     7
370
    25
100
AcDbLine
 10
121.9559792625
 20
152.8530687075
 30
0.0
 11
121.5954776998
 21
153.1995346124
 31
0.0
  0
LINE
  5
147
330
1F
100
AcDbEntity
  8
0
  6
Continuous
 62
     7
370
    25
100
AcDbLine
 10
121.4772601487
 20
152.9973878334
 30
0.0
 11
121.9559792625
 21
152.8530687075
 31
0.0
  0
LINE
  5
148
330
1F
100
AcDbEntity
  8
0
  6
Continuous
 62
     7
370
    25
100
AcDbLine
 10
124.9742688472
 20
154.3716938449
 30
0.0
 11
123.1042762702
 21
153.9322799908
 31
0.0
  0
LINE
  5
149
330
1F
100
AcDbEntity
  8
0
  6
Continuous
 62
     7
370
    25
100
AcDbLine
 10
121.9559792625
 20
152.8530687075
 30
0.0
 11
121.4015265344
 21
151.0139007039
 31
0.0
  0
ARC
  5
14A
330
1F
100
AcDbEntity
  8
0
  6
Continuous
 62
     7
370
    25
100
AcDbCircle
 10
133.1315277059
 20
142.1126256538
 30
0.0
 40
15.50000000000001
100
AcDbArc
 50
130.309742062
 51
136.1373625449
  0
LINE
  5
14B
330
1F
100
AcDbEntity
  8
0
  6
Continuous
 62
     7
370
    25
100
AcDbLine
 10
120.9228074206
 20
151.1582198297
 30
0.0
 11
121.4772601487
 21
152.9973878334
 31
0.0
  0
ARC
  5
14C
330
1F
100
AcDbEntity
  8
0
  6
Continuous
 62
     7
370
    25
100
AcDbCircle
 10
133.1315277059
 20
142.1126256538
 30
0.0
 40
16.00000000000003
100
AcDbArc
 50
130.309742062
 51
136.1373625448
  0
LINE
  5
14D
330
1F
100
AcDbEntity
  8
0
  6
Continuous
 62
     7
370
    25
100
AcDbLine
 10
123.1042762702
 20
153.9322799908
 30
0.0
 11
122.7808165465
 21
154.3135591629
 31
0.0
  0
LINE
  5
14E
330
1F
100
AcDbEntity
  8
0
  6
Continuous
 62
     7
370
    25
100
AcDbLine
 10
123.1042762702
 20
153.9322799908
 30
0.0
 11
122.9899007426
 21
154.4190224675
 31
0.0
  0
LINE
  5
14F
330
1F
100
AcDbEntity
  8
0
  6
Continuous
 62
     7
370
    25
100
AcDbLine
 10
122.9899007426
 20
154.4190224675
 30
0.0
 11
124.8598933196
 21
154.8584363216
 31
0.0
  0
LINE
  5
150
330
1F
100
AcDbEntity
  8
0
  6
Continuous
 62
     7
370
    25
100
AcDbLine
 10
139.6695627567
 20
155.3065531462
 30
0.0
 11
138.3540229078
 21
156.7063072957
 31
0.0
  0
LINE
  5
151
330
1F
100
AcDbEntity
  8
0
  6
Continuous
 62
     7
370
    25
100
AcDbLine
 10
138.3540229078
 20
156.7063072957
 30
0.0
 11
138.718366494
 21
157.0487306466
 31
0.0
  0
LINE
  5
152
330
1F
100
AcDbEntity
  8
0
  6
Continuous
 62
     7
370
    25
100
AcDbLine
 10
138.718366494
 20
157.0487306466
 30
0.0
 11
140.0339063429
 21
155.648976497
 31
0.0
  0
LINE
  5
153
330
1F
100
AcDbEntity
  8
0
  6
Continuous
 62
     7
370
    25
100
AcDbLine
 10
136.8452500166
 20
157.1611560338
 30
0.0
 11
134.9752574395
 21
156.7217421798
 31
0.0
  0
ARC
  5
154
330
1F
100
AcDbEntity
  8
0
  6
Continuous
 62
     7
370
    25
100
AcDbCircle
 10
133.1315277059
 20
142.1126256538
 30
0.0
 40
15.50000000000004
100
AcDbArc
 50
70.309742062
 51
76.1373625449
  0
ARC
  5
155
330
1F
100
AcDbEntity
  8
0
  6
Continuous
 62
     7
370
    25
100
AcDbCircle
 10
123.1042762702
 20
153.9322799908
 30
0.0
 40
0.5000000000000345
100
AcDbArc
 50
103.2235523034
 51
130.309742062
  0
ARC
  5
156
330
1F
100
AcDbEntity
  8
0
  6
Continuous
 62
     7
370
    25
100
AcDbCircle
 10
138.3540229078
 20
156.7063072957
 30
0.0
 40
0.4999999999999806
100
AcDbArc
 50
43.2235523034
 51
70.309742062
  0
LINE
  5
157
330
1F
100
AcDbEntity
  8
0
  6
Continuous
 62
     7
370
    25
100
AcDbLine
 10
138.522490495
 20
157.1770712197
 30
0.0
 11
138.3540229078
 21
156.7063072957
 31
0.0
  0
LINE
  5
158
330
1F
100
AcDbEntity
  8
0
  6
Continuous
 62
     7
370
    25
100
AcDbLine
 10
134.8608819119
 20
157.2084846565
 30
0.0
 11
136.7308744889
 21
157.6478985106
 31
0.0
  0
LINE
  5
159
330
1F
100
AcDbEntity
  8
0
  6
Continuous
 62
     7
370
    25
100
AcDbLine
 10
136.7308744889
 20
157.6478985106
 30
0.0
 11
136.8452500166
 21
157.1611560338
 31
0.0
  0
ARC
  5
15A
330
1F
100
AcDbEntity
  8
0
  6
Continuous
 62
     7
370
    25
100
AcDbCircle
 10
136.8452500166
 20
157.1611560338
 30
0.0
 40
0.5000000000000142
100
AcDbArc
 50
76.1373625448
 51
103.2235523034
  0
LINE
  5
15B
330
1F
100
AcDbEntity
  8
0
  6
Continuous
 62
     7
370
    25
100
AcDbLine
 10
136.8452500166
 20
157.1611560338
 30
0.0
 11
136.9650475105
 21
157.6465924977
 31
0.0
  0
ARC
  5
15C
330
1F
100
AcDbEntity
  8
0
  6
Continuous
 62
     7
370
    25
100
AcDbCircle
 10
133.1315277059
 20
142.1126256538
 30
0.0
 40
16.00000000000003
100
AcDbArc
 50
70.309742062
 51
76.1373625449
  0
ARC
  5
15D
330
1F
100
AcDbEntity
  8
0
  6
Continuous
 62
     7
370
    25
100
AcDbCircle
 10
133.1315277059
 20
142.1126256538
 30
0.0
 40
8.050000000000002
100
AcDbArc
 50
348.9219835539
 51
191.0780164461
  0
ARC
  5
15E
330
1F
100
AcDbEntity
  8
0
  6
Continuous
 62
     7
370
    25
100
AcDbCircle
 10
133.1315277059
 20
142.1126256538
 30
0.0
 40
8.250000000000007
100
AcDbArc
 50
343.2508741362
 51
196.7491258638
  0
ARC
  5
15F
330
1F
100
AcDbEntity
  8
0
  6
Continuous
 62
     7
370
    25
100
AcDbCircle
 10
133.1315277059
 20
142.1126256538
 30
0.0
 40
9.574999999999978
100
AcDbArc
 50
325.5951096848
 51
214.4048903152
  0
SPLINE
  5
160
330
1F
100
AcDbEntity
  8
0
  6
Continuous
 62
     7
370
    25
100
AcDbSpline
210
0.0
220
0.0
230
1.0
 70
     8
 71
     3
 72
    57
 73
    53
 74
     0
 42
0.00000001
 43
0.00000001
 40
0.0
 40
0.0
 40
0.0
 40
0.0
 40
0.0625000000000005
 40
0.0625000000000005
 40
0.125000000000001
 40
0.125000000000001
 40
0.1875000000000016
 40
0.1875000000000016
 40
0.2500000000000021
 40
0.2500000000000021
 40
0.2812500000000022
 40
0.2812500000000022
 40
0.3125000000000023
 40
0.3125000000000023
 40
0.3750000000000023
 40
0.3750000000000023
 40
0.3906250000000024
 40
0.3906250000000024
 40
0.4062500000000024
 40
0.4062500000000024
 40
0.4375000000000024
 40
0.4375000000000024
 40
0.4687500000000023
 40
0.4687500000000023
 40
0.4843750000000023
 40
0.4843750000000023
 40
0.5000000000000022
 40
0.5156250000000022
 40
0.5156250000000022
 40
0.5312500000000022
 40
0.5312500000000022
 40
0.5468750000000022
 40
0.5468750000000022
 40
0.5625000000000023
 40
0.5625000000000023
 40
0.6250000000000019
 40
0.6250000000000019
 40
0.6562500000000017
 40
0.6562500000000017
 40
0.6875000000000013
 40
0.6875000000000013
 40
0.7500000000000008
 40
0.7500000000000008
 40
0.7812500000000007
 40
0.7812500000000007
 40
0.8125000000000004
 40
0.8125000000000004
 40
0.8750000000000003
 40
0.8750000000000003
 40
0.9375000000000001
 40
0.9375000000000001
 40
1.0
 40
1.0
 40
1.0
 40
1.0
 10
144.3621700745445
 20
156.1360401447972
 30
0.0
 10
145.3554548051958
 20
155.9215805765459
 30
0.0
 10
146.3327222827719
 20
155.6774173429554
 30
0.0
 10
148.2602253077735
 20
155.1234586926375
 30
0.0
 10
149.2104213642756
 20
154.8137282283815
 30
0.0
 10
151.0847542357765
 20
154.117660141651
 30
0.0
 10
152.0073130885551
 20
153.7317170983941
 30
0.0
 10
153.8036502976236
 20
152.876012122818
 30
0.0
 10
154.6797896767497
 20
152.4056990710723
 30
0.0
 10
155.9538525350774
 20
151.618094771158
 30
0.0
 10
156.3717974111718
 20
151.341771078869
 30
0.0
 10
157.1920661398273
 20
150.7565131561934
 30
0.0
 10
157.595883915438
 20
150.4463382196376
 30
0.0
 10
158.7670953377801
 20
149.4661798335641
 30
0.0
 10
159.493368842613
 20
148.7508788571125
 30
0.0
 10
160.3014126068057
 20
147.7418399729783
 30
0.0
 10
160.4579169601335
 20
147.5341543507761
 30
0.0
 10
160.7593134104582
 20
147.1053784644052
 30
0.0
 10
160.9042142591738
 20
146.8841130130842
 30
0.0
 10
161.3128716992674
 20
146.2077325919465
 30
0.0
 10
161.5530099730505
 20
145.7371938132697
 30
0.0
 10
161.9542479095184
 20
144.7479929598932
 30
0.0
 10
162.1150135171995
 20
144.2272577780682
 30
0.0
 10
162.2762897506819
 20
143.4274078857038
 30
0.0
 10
162.3168401327104
 20
143.1573945261235
 30
0.0
 10
162.3698091762202
 20
142.6197989108321
 30
0.0
 10
162.3952123428676
 20
142.0821061040885
 30
0.0
 10
162.3656399236679
 20
141.5442194474173
 30
0.0
 10
162.3084241252261
 20
141.0062353274845
 30
0.0
 10
162.2656365718952
 20
140.735816401303
 30
0.0
 10
162.1543000475866
 20
140.2044161500925
 30
0.0
 10
162.0858599082896
 20
139.9429011936793
 30
0.0
 10
161.9251975415552
 20
139.4276601354917
 30
0.0
 10
161.8325557748387
 20
139.1731397765512
 30
0.0
 10
161.3229185173047
 20
137.9398397786352
 30
0.0
 10
160.7671249896862
 20
137.0598219127183
 30
0.0
 10
159.7873963280647
 20
135.8442654996256
 30
0.0
 10
159.4372383864858
 20
135.4593785927001
 30
0.0
 10
158.7111036612258
 20
134.7354249840174
 30
0.0
 10
158.3344080522905
 20
134.3952088545218
 30
0.0
 10
157.1710364930168
 20
133.4271676659138
 30
0.0
 10
156.3514969829027
 20
132.8512911978705
 30
0.0
 10
155.0727025170892
 20
132.0633311486499
 30
0.0
 10
154.6371183667378
 20
131.8130460747404
 30
0.0
 10
153.7553055856249
 20
131.337791101747
 30
0.0
 10
153.309994364917
 20
131.1132344041729
 30
0.0
 10
151.9620164904983
 20
130.4737827722655
 30
0.0
 10
151.0474209320305
 20
130.092842678753
 30
0.0
 10
149.1890676912774
 20
129.4045054548748
 30
0.0
 10
148.2452989396938
 20
129.0972493750625
 30
0.0
 10
146.3275924434557
 20
128.5466157749427
 30
0.0
 10
145.3536982446323
 20
128.3032914730255
 30
0.0
 10
144.3621700745445
 20
128.0892111628141
 30
0.0
  0
LINE
  5
161
330
1F
100
AcDbEntity
  8
0
  6
Continuous
 62
     7
370
    25
100
AcDbLine
 10
164.3315277059
 20
125.9126256538
 30
0.0
 11
164.3315277059
 21
158.3126256538
 31
0.0
  0
LINE
  5
162
330
1F
100
AcDbEntity
  8
0
  6
Continuous
 62
     7
370
    25
100
AcDbLine
 10
147.1443755199
 20
158.3112950382
 30
0.0
 11
147.1219694934
 21
158.3015783026
 31
0.0
  0
LINE
  5
163
330
1F
100
AcDbEntity
  8
0
  6
Continuous
 62
     7
370
    25
100
AcDbLine
 10
147.1284788549
 20
125.9163781782
 30
0.0
 11
147.1443755199
 21
125.9139562694
 31
0.0
  0
ARC
  5
164
330
1F
100
AcDbEntity
  8
0
  6
Continuous
 62
     7
370
    25
100
AcDbCircle
 10
147.2812357318
 20
173.1778785233
 30
0.0
 40
17.29003179958763
100
AcDbArc
 50
243.6488590876
 51
260.280235246
  0
SPLINE
  5
165
330
1F
100
AcDbEntity
  8
0
  6
Continuous
 62
     7
370
    25
100
AcDbSpline
210
0.0
220
0.0
230
1.0
 70
     8
 71
     3
 72
    11
 73
     7
 74
     0
 42
0.00000001
 43
0.00000001
 40
0.0
 40
0.0
 40
0.0
 40
0.0
 40
0.1122272272845325
 40
0.4549366928136498
 40
0.8008537014399209
 40
1.0
 40
1.0
 40
1.0
 40
1.0
 10
164.9316614628662
 20
127.6993253830165
 30
0.0
 10
164.9257116586934
 20
127.6752011690356
 30
0.0
 10
164.9015928748764
 20
127.5774085888324
 30
0.0
 10
164.8572953071699
 20
128.2462977139309
 30
0.0
 10
164.8065599142039
 20
129.3820130051135
 30
0.0
 10
164.7773621465946
 20
130.5637740761459
 30
0.0
 10
164.7666943447651
 20
130.9955465693143
 30
0.0
  0
SPLINE
  5
166
330
1F
100
AcDbEntity
  8
0
  6
Continuous
 62
     7
370
    25
100
AcDbSpline
210
0.0
220
0.0
230
1.0
 70
     8
 71
     3
 72
    12
 73
     8
 74
     0
 42
0.00000001
 43
0.00000001
 40
0.0
 40
0.0
 40
0.0
 40
0.0
 40
0.0905984773349927
 40
0.3401453438333809
 40
0.585624171338092
 40
0.8367447224389002
 40
1.0
 40
1.0
 40
1.0
 40
1.0
 10
164.6516594091542
 20
136.5244906088181
 30
0.0
 10
164.6446747133503
 20
136.8957271067598
 30
0.0
 10
164.6184511848136
 20
138.2895073329877
 30
0.0
 10
164.5738071348619
 20
140.9889679112001
 30
0.0
 10
164.5207921601241
 20
144.3908196892849
 30
0.0
 10
164.4692669100799
 20
147.363599977278
 30
0.0
 10
164.4376515996222
 20
148.9786491931559
 30
0.0
 10
164.4251958386271
 20
149.6149442899631
 30
0.0
  0
SPLINE
  5
167
330
1F
100
AcDbEntity
  8
0
  6
Continuous
 62
     7
370
    25
100
AcDbSpline
210
0.0
220
0.0
230
1.0
 70
     8
 71
     3
 72
    10
 73
     6
 74
     0
 42
0.00000001
 43
0.00000001
 40
0.0
 40
0.0
 40
0.0
 40
0.0
 40
0.0933023780258963
 40
0.7682512449043578
 40
1.0
 40
1.0
 40
1.0
 40
1.0
 10
164.4128160401497
 20
150.2583256514876
 30
0.0
 10
164.4102095538061
 20
150.3943599522235
 30
0.0
 10
164.38874776022
 20
151.5144656033467
 30
0.0
 10
164.3633446836821
 20
152.6887213508469
 30
0.0
 10
164.3387526943654
 20
153.6083307465935
 30
0.0
 10
164.3324670675242
 20
153.8433797061071
 30
0.0
  0
LINE
  5
168
330
1F
100
AcDbEntity
  8
0
  6
Continuous
 62
     7
370
    25
100
AcDbLine
 10
164.3320561851
 20
153.8432973961
 30
0.0
 11
164.8012171721
 21
153.1865393416
 31
0.0
  0
SPLINE
  5
169
330
1F
100
AcDbEntity
  8
0
  6
Continuous
 62
     7
370
    25
100
AcDbSpline
210
0.0
220
0.0
230
1.0
 70
     8
 71
     3
 72
    27
 73
    23
 74
     0
 42
0.00000001
 43
0.00000001
 40
0.0
 40
0.0
 40
0.0
 40
0.0
 40
0.0515285379309237
 40
0.1040960246778745
 40
0.1569935992290401
 40
0.2095583656097145
 40
0.2611519373513786
 40
0.3127510520403477
 40
0.3653186984677251
 40
0.4182162726646301
 40
0.4707808786826798
 40
0.522374143486538
 40
0.5739735662071672
 40
0.6265413722770644
 40
0.6794389460803467
 40
0.7320033916978774
 40
0.7835963497128633
 40
0.8351960804313621
 40
0.8877640461058721
 40
0.9406616194761687
 40
0.9932259046552894
 40
1.0
 40
1.0
 40
1.0
 40
1.0
 10
172.9001612012339
 20
128.4247498157629
 30
0.0
 10
172.8882543065363
 20
128.4567395341676
 30
0.0
 10
172.8642004432976
 20
128.5213639665737
 30
0.0
 10
172.8258746485318
 20
129.0425126223706
 30
0.0
 10
172.7870206367679
 20
129.870274142846
 30
0.0
 10
172.7486829362848
 20
131.0043192767935
 30
0.0
 10
172.7127031842872
 20
132.3980069937971
 30
0.0
 10
172.6767075760008
 20
134.0269666101302
 30
0.0
 10
172.6383654733789
 20
135.8686918166675
 30
0.0
 10
172.5995111657598
 20
137.8783678871447
 30
0.0
 10
172.5611737937163
 20
139.980984048877
 30
0.0
 10
172.5251949003533
 20
142.1178202670719
 30
0.0
 10
172.4891984084329
 20
144.2545801054448
 30
0.0
 10
172.4508560933426
 20
146.3569298745476
 30
0.0
 10
172.4120016465618
 20
148.3659924055715
 30
0.0
 10
172.3736650421955
 20
150.2066317984889
 30
0.0
 10
172.3376851315303
 20
151.8348979283835
 30
0.0
 10
172.3016948450369
 20
153.2259267669642
 30
0.0
 10
172.2633252986307
 20
154.3641984691311
 30
0.0
 10
172.2245723429373
 20
155.1694546238295
 30
0.0
 10
172.1969083313951
 20
155.5961415629645
 30
0.0
 10
172.1831036538694
 20
155.6523470973106
 30
0.0
 10
172.1815277058752
 20
155.6587635455722
 30
0.0
  0
SPLINE
  5
16A
330
1F
100
AcDbEntity
  8
0
  6
Continuous
 62
     7
370
    25
100
AcDbSpline
210
0.0
220
0.0
230
1.0
 70
     8
 71
     3
 72
    50
 73
    46
 74
     0
 42
0.00000001
 43
0.00000001
 40
0.0
 40
0.0
 40
0.0
 40
0.0
 40
0.0284475187430945
 40
0.0522203319930536
 40
0.0761400917270586
 40
0.099907043807384
 40
0.1232327519742958
 40
0.1465698242851818
 40
0.1703427091924241
 40
0.1942624681966602
 40
0.2180293472143891
 40
0.2413549187423394
 40
0.2646921298529429
 40
0.2884650864003172
 40
0.3123848446569858
 40
0.3361516505949936
 40
0.3594770855513481
 40
0.3828144354463704
 40
0.4065874636167252
 40
0.4305072211080275
 40
0.4542739539491897
 40
0.4775992524013126
 40
0.5009367410654557
 40
0.524709840841639
 40
0.5486295975497764
 40
0.5723962572769681
 40
0.5957214192922247
 40
0.6190590467101896
 40
0.6428322180750499
 40
0.6667519739822224
 40
0.6905185605783206
 40
0.7138435862240774
 40
0.7371813523805644
 40
0.7609545953169489
 40
0.7848743504053571
 40
0.8086408638532381
 40
0.8319657531968614
 40
0.8553036580765708
 40
0.8790769725673265
 40
0.9029967268191721
 40
0.9267631671017127
 40
0.9500879202105702
 40
0.9734259637982005
 40
0.997199349826175
 40
1.0
 40
1.0
 40
1.0
 40
1.0
 10
165.4001354273505
 20
128.4257120324803
 30
0.0
 10
166.0339338906236
 20
128.4469183327214
 30
0.0
 10
167.1973803925033
 20
128.4858461579891
 30
0.0
 10
166.7431751345759
 20
129.0477801691781
 30
0.0
 10
166.808711987564
 20
129.8779668754365
 30
0.0
 10
166.7426348017521
 20
131.014176248779
 30
0.0
 10
166.7139677775195
 20
132.4097728136443
 30
0.0
 10
166.6759959447122
 20
134.0404676590028
 30
0.0
 10
166.6381781554207
 20
135.8837561489737
 30
0.0
 10
166.5991797249862
 20
137.8944566566736
 30
0.0
 10
166.560888768837
 20
139.9974841674442
 30
0.0
 10
166.5249276452555
 20
142.1344457626887
 30
0.0
 10
166.4889057871692
 20
144.2710750898915
 30
0.0
 10
166.4505547883131
 20
146.3730170143426
 30
0.0
 10
166.4117007321948
 20
148.3810116729351
 30
0.0
 10
166.3733716570752
 20
150.2202166248715
 30
0.0
 10
166.3374214712341
 20
151.8462584218366
 30
0.0
 10
166.3013960440837
 20
153.2371980218011
 30
0.0
 10
166.2630455350502
 20
154.3663612861412
 30
0.0
 10
166.2241912821708
 20
155.1952917656628
 30
0.0
 10
166.185862515755
 20
155.6931959435752
 30
0.0
 10
166.1499131784414
 20
155.8557207236508
 30
0.0
 10
166.1138868803812
 20
155.6861002928862
 30
0.0
 10
166.0755361241445
 20
155.180967397281
 30
0.0
 10
166.0366818742301
 20
154.3452122990085
 30
0.0
 10
165.9983533636056
 20
153.2101320619247
 30
0.0
 10
165.9624048883327
 20
151.8139295503674
 30
0.0
 10
165.9263777157765
 20
150.183116144686
 30
0.0
 10
165.8880267134144
 20
148.3396056591652
 30
0.0
 10
165.849172466251
 20
146.3287846960499
 30
0.0
 10
165.8108442116492
 20
144.2257039814388
 30
0.0
 10
165.7748965979804
 20
142.0887274312535
 30
0.0
 10
165.7388685510628
 20
139.952114161221
 30
0.0
 10
165.7005173026737
 20
137.8502246167358
 30
0.0
 10
165.6616630581732
 20
135.8423599195436
 30
0.0
 10
165.6233350603067
 20
134.0033485331339
 30
0.0
 10
165.5873883057935
 20
132.3775330806852
 30
0.0
 10
165.5513593922458
 20
130.986798546475
 30
0.0
 10
165.513007868978
 20
129.8580360042832
 30
0.0
 10
165.4741537359275
 20
129.0289224626791
 30
0.0
 10
165.4358255937439
 20
128.5331683380151
 30
0.0
 10
165.3998811666227
 20
128.3642984100403
 30
0.0
 10
165.3638458898504
 20
128.5591964867988
 30
0.0
 10
165.3369116187449
 20
128.8475904398575
 30
0.0
 10
165.3224945369478
 20
129.1628756449555
 30
0.0
 10
165.3209751139164
 20
129.1961037010083
 30
0.0
  0
SPLINE
  5
16B
330
1F
100
AcDbEntity
  8
0
  6
Continuous
 62
     7
370
    25
100
AcDbSpline
210
0.0
220
0.0
230
1.0
 70
     8
 71
     3
 72
    12
 73
     8
 74
     0
 42
0.00000001
 43
0.00000001
 40
0.0
 40
0.0
 40
0.0
 40
0.0
 40
0.2342640849254553
 40
0.4754567751216083
 40
0.7167925825372544
 40
0.962628769256193
 40
1.0
 40
1.0
 40
1.0
 40
1.0
 10
165.0973131552771
 20
138.0188852957492
 30
0.0
 10
165.0850690714625
 20
138.6827294204203
 30
0.0
 10
165.0602187722514
 20
140.0300515539005
 30
0.0
 10
165.0248701894337
 20
142.1418454706081
 30
0.0
 10
164.988826472177
 20
144.2675339432752
 30
0.0
 10
164.9614526561358
 20
145.793999388734
 30
0.0
 10
164.9465935265024
 20
146.557578859312
 30
0.0
 10
164.9446327587825
 20
146.658338595204
 30
0.0
  0
SPLINE
  5
16C
330
1F
100
AcDbEntity
  8
0
  6
Continuous
 62
     7
370
    25
100
AcDbSpline
210
0.0
220
0.0
230
1.0
 70
     8
 71
     3
 72
    27
 73
    23
 74
     0
 42
0.00000001
 43
0.00000001
 40
0.0
 40
0.0
 40
0.0
 40
0.0
 40
0.0408633052577798
 40
0.0916401885335679
 40
0.1427359153223731
 40
0.1935101698209109
 40
0.2433463109127252
 40
0.2931878083293831
 40
0.3439648459093578
 40
0.3950605723556901
 40
0.4458346718905409
 40
0.4956705163790678
 40
0.5455123114564725
 40
0.5962895033039882
 40
0.6473852293697941
 40
0.6981591739043257
 40
0.7479947219335426
 40
0.7978368146390278
 40
0.8486141607174387
 40
0.8997098863646661
 40
0.9504836758622465
 40
1.0
 40
1.0
 40
1.0
 40
1.0
 10
173.2687071591913
 20
128.454252142213
 30
0.0
 10
173.2589232862493
 20
128.4822636880459
 30
0.0
 10
173.2369819392307
 20
128.5450824768114
 30
0.0
 10
173.2008647990591
 20
129.0445434280079
 30
0.0
 10
173.1620232242988
 20
129.8697330264209
 30
0.0
 10
173.1236822174214
 20
131.0044622286947
 30
0.0
 10
173.087703336048
 20
132.3979706558623
 30
0.0
 10
173.0517074916888
 20
134.0269785063427
 30
0.0
 10
173.0133654507995
 20
135.8686908125836
 30
0.0
 10
172.9745111250556
 20
137.878370639783
 30
0.0
 10
172.936173758507
 20
139.9809858029012
 30
0.0
 10
172.9001948641831
 20
142.1178228664164
 30
0.0
 10
172.864198378012
 20
144.2545806514613
 30
0.0
 10
172.8258560238291
 20
146.3569380957506
 30
0.0
 10
172.7870017161685
 20
148.3659716743705
 30
0.0
 10
172.7486645959642
 20
150.2067173654339
 30
0.0
 10
172.7126865778615
 20
151.834593538057
 30
0.0
 10
172.6766892179887
 20
153.2270803052118
 30
0.0
 10
172.6383465919035
 20
154.3597980332033
 30
0.0
 10
172.5994923741243
 20
155.1859426475218
 30
0.0
 10
172.5612357712169
 20
155.7048278025092
 30
0.0
 10
172.537250085747
 20
155.7683277668408
 30
0.0
 10
172.5254076126124
 20
155.7996796588928
 30
0.0
  0
SPLINE
  5
16D
330
1F
100
AcDbEntity
  8
0
  6
Continuous
 62
     7
370
    25
100
AcDbSpline
210
0.0
220
0.0
230
1.0
 70
     8
 71
     3
 72
    11
 73
     7
 74
     0
 42
0.00000001
 43
0.00000001
 40
0.0
 40
0.0
 40
0.0
 40
0.0
 40
0.199172557194173
 40
0.5140843693167662
 40
0.8291831174622272
 40
0.9999999999999999
 40
0.9999999999999999
 40
0.9999999999999999
 40
0.9999999999999999
 10
165.4596187317826
 20
138.7181149238159
 30
0.0
 10
165.4516619994645
 20
139.1511418953455
 30
0.0
 10
165.4311248744045
 20
140.268827989715
 30
0.0
 10
165.399857021197
 20
142.138303189198
 30
0.0
 10
165.3696197942379
 20
143.9449117988202
 30
0.0
 10
165.3502124516926
 20
145.000699388132
 30
0.0
 10
165.3433900703107
 20
145.3718468327506
 30
0.0
  0
ELLIPSE
  5
16E
330
1F
100
AcDbEntity
  8
0
  6
Continuous
 62
     7
370
    25
100
AcDbEllipse
 10
172.7119663977
 20
142.1126256538
 30
0.0
 11
-7.401257687792878
 21
14.35777723298276
 31
0.0
210
0.0
220
0.0
230
1.0
 40
0.2737224856
 41
0.1519163654195921
 42
0.4881424368787642
  0
ELLIPSE
  5
16F
330
1F
100
AcDbEntity
  8
0
  6
Continuous
 62
     7
370
    25
100
AcDbEllipse
 10
157.2733909495
 20
142.1126256538
 30
0.0
 11
7.392868934794848
 21
14.35826292490981
 31
0.0
210
0.0
220
0.0
230
1.0
 40
0.2735670702
 41
6.029360005064563
 42
6.131028995319411
  0
LINE
  5
170
330
1F
100
AcDbEntity
  8
0
  6
Continuous
 62
     7
370
    25
100
AcDbLine
 10
164.8012052922
 20
155.9984591977
 30
0.0
 11
165.1762053038
 21
155.9984591976
 31
0.0
  0
LINE
  5
171
330
1F
100
AcDbEntity
  8
0
  6
Continuous
 62
     7
370
    25
100
AcDbLine
 10
164.8012052922
 20
155.9984591977
 30
0.0
 11
164.8012171721
 21
153.1865393416
 31
0.0
  0
LINE
  5
172
330
1F
100
AcDbEntity
  8
0
  6
Continuous
 62
     7
370
    25
100
AcDbLine
 10
165.1762053038
 20
155.9984591975
 30
0.0
 11
165.1762115179
 21
154.5276163733
 31
0.0
  0
SPLINE
  5
173
330
1F
100
AcDbEntity
  8
0
  6
Continuous
 62
     7
370
    25
100
AcDbSpline
210
0.0
220
0.0
230
1.0
 70
     8
 71
     3
 72
    16
 73
    12
 74
     0
 42
0.00000001
 43
0.00000001
 40
0.0
 40
0.0
 40
0.0
 40
0.0
 40
0.2500000000000024
 40
0.2500000000000024
 40
0.5000000000000049
 40
0.5000000000000049
 40
0.6250000000000037
 40
0.6250000000000037
 40
0.7500000000000024
 40
0.7500000000000024
 40
1.0
 40
1.0
 40
1.0
 40
1.0
 10
139.606688609299
 20
157.6844435879862
 30
0.0
 10
139.837211285282
 20
157.9981715011951
 30
0.0
 10
140.0278616768576
 20
158.2792369812865
 30
0.0
 10
140.3536920840789
 20
158.7685057579775
 30
0.0
 10
140.4885331601135
 20
158.9768530338355
 30
0.0
 10
140.6564889686576
 20
159.2291522182801
 30
0.0
 10
140.7067651016016
 20
159.3033039463175
 30
0.0
 10
140.7951000341404
 20
159.4286515524246
 30
0.0
 10
140.8333605505947
 20
159.4801653013312
 30
0.0
 10
140.9316775355884
 20
159.6011708491289
 30
0.0
 10
140.975444996387
 20
159.6372824039128
 30
0.0
 10
140.9983896365763
 20
159.6269764371857
 30
0.0
  0
ARC
  5
174
330
1F
100
AcDbEntity
  8
0
  6
Continuous
 62
     7
370
    25
100
AcDbCircle
 10
147.1387366962
 20
173.2977681276
 30
0.0
 40
14.98647415023363
100
AcDbArc
 50
245.8123806786
 51
270.02155816
  0
ARC
  5
175
330
1F
100
AcDbEntity
  8
0
  6
Continuous
 62
     7
370
    25
100
AcDbCircle
 10
147.1387366962
 20
110.92748318
 30
0.0
 40
14.98647415023366
100
AcDbArc
 50
89.97844184
 51
114.1876193214
  0
ARC
  5
176
330
1F
100
AcDbEntity
  8
0
  6
Continuous
 62
     7
370
    25
100
AcDbCircle
 10
133.1315277059
 20
142.1126256538
 30
0.0
 40
19.20000000000002
100
AcDbArc
 50
65.8119747904
 51
245.7035220052
  0
LINE
  5
177
330
1F
100
AcDbEntity
  8
0
  6
Continuous
 62
     7
370
    25
100
AcDbLine
 10
140.9983896366
 20
159.6269764372
 30
0.0
 11
140.9984103708
 21
159.626967124
 31
0.0
  0
ARC
  5
178
330
1F
100
AcDbEntity
  8
0
  6
Continuous
 62
     7
370
    25
100
AcDbCircle
 10
133.1315277059
 20
142.1126256538
 30
0.0
 40
25.37500000000003
100
AcDbArc
 50
39.6743748818
 51
251.8605962769
  0
ARC
  5
179
330
1F
100
AcDbEntity
  8
0
  6
Continuous
 62
     7
370
    25
100
AcDbCircle
 10
133.1315277059
 20
142.1126256538
 30
0.0
 40
25.37500000000003
100
AcDbArc
 50
288.1394037231
 51
320.3256251182
  0
ARC
  5
17A
330
1F
100
AcDbEntity
  8
0
  6
Continuous
 62
     7
370
    25
100
AcDbCircle
 10
133.1315277059
 20
-10.2873743462
 30
0.0
 40
11.55000000000001
100
AcDbArc
 50
133.1556534408
 51
274.9657006069
  0
ARC
  5
17B
330
1F
100
AcDbEntity
  8
0
  6
Continuous
 62
     7
370
    25
100
AcDbCircle
 10
133.1315277059
 20
-10.2873743462
 30
0.0
 40
11.55000000000002
100
AcDbArc
 50
274.9657006069
 51
46.8443465592
  0
LINE
  5
17C
330
1F
100
AcDbEntity
  8
0
  6
Continuous
 62
     7
370
    25
100
AcDbLine
 10
213.9639432579
 20
144.7126256538
 30
0.0
 11
213.9814217192
 21
144.7126256538
 31
0.0
  0
ARC
  5
17D
330
1F
100
AcDbEntity
  8
0
  6
Continuous
 62
     7
370
    25
100
AcDbCircle
 10
203.6742931181
 20
142.1126256538
 30
0.0
 40
10.61305328357491
100
AcDbArc
 50
7.3079276166
 51
14.1807309007
  0
SPLINE
  5
17E
330
1F
100
AcDbEntity
  8
0
  6
Continuous
 62
     7
370
    25
100
AcDbSpline
210
0.0
220
0.0
230
1.0
 70
     8
 71
     3
 72
    12
 73
     8
 74
     0
 42
0.00000001
 43
0.00000001
 40
0.0
 40
0.0
 40
0.0
 40
0.0
 40
0.2133534395476153
 40
0.4267919313634476
 40
0.6383539739091488
 40
0.8490950351927585
 40
1.0
 40
1.0
 40
1.0
 40
1.0
 10
214.2011349996749
 20
142.7126256538056
 30
0.0
 10
214.2107941434023
 20
142.7207272139217
 30
0.0
 10
214.2301162814257
 20
142.7369335637996
 30
0.0
 10
214.2424293514339
 20
142.8643346888155
 30
0.0
 10
214.2400919111371
 20
143.0517287047213
 30
0.0
 10
214.2249743921233
 20
143.2627047300126
 30
0.0
 10
214.2081537797423
 20
143.4037650516315
 30
0.0
 10
214.2011349996749
 20
143.4626256538056
 30
0.0
  0
LINE
  5
17F
330
1F
100
AcDbEntity
  8
0
  6
Continuous
 62
     7
370
    25
100
AcDbLine
 10
213.9639432579
 20
142.7126256538
 30
0.0
 11
214.2011349997
 21
142.7126256538
 31
0.0
  0
ARC
  5
180
330
1F
100
AcDbEntity
  8
0
  6
Continuous
 62
     7
370
    25
100
AcDbCircle
 10
203.6742931181
 20
142.1126256538
 30
0.0
 40
10.30712860111875
100
AcDbArc
 50
356.6628035549
 51
3.3371964451
  0
LINE
  5
181
330
1F
100
AcDbEntity
  8
0
  6
Continuous
 62
     7
370
    25
100
AcDbLine
 10
214.2011349997
 20
141.5126256538
 30
0.0
 11
213.9639432579
 21
141.5126256538
 31
0.0
  0
SPLINE
  5
182
330
1F
100
AcDbEntity
  8
0
  6
Continuous
 62
     7
370
    25
100
AcDbSpline
210
0.0
220
0.0
230
1.0
 70
     8
 71
     3
 72
    12
 73
     8
 74
     0
 42
0.00000001
 43
0.00000001
 40
0.0
 40
0.0
 40
0.0
 40
0.0
 40
0.2133534395476116
 40
0.4267919313634445
 40
0.6383539739091463
 40
0.8490950351927521
 40
1.0
 40
1.0
 40
1.0
 40
1.0
 10
214.2011349996749
 20
140.7626256538057
 30
0.0
 10
214.2107941434023
 20
140.8461194419628
 30
0.0
 10
214.2301162814257
 20
141.0131403026529
 30
0.0
 10
214.2424293514339
 20
141.2369770642505
 30
0.0
 10
214.2400919111371
 20
141.4060627851277
 30
0.0
 10
214.2249743921233
 20
141.4987243713377
 30
0.0
 10
214.2081537797423
 20
141.5085328463019
 30
0.0
 10
214.2011349996749
 20
141.5126256538057
 30
0.0
  0
ARC
  5
183
330
1F
100
AcDbEntity
  8
0
  6
Continuous
 62
     7
370
    25
100
AcDbCircle
 10
203.6742931181
 20
142.1126256538
 30
0.0
 40
10.61305328357492
100
AcDbArc
 50
345.8192690993
 51
352.6920723834
  0
LINE
  5
184
330
1F
100
AcDbEntity
  8
0
  6
Continuous
 62
     7
370
    25
100
AcDbLine
 10
213.9814217192
 20
139.5126256538
 30
0.0
 11
213.9639432579
 21
139.5126256538
 31
0.0
  0
LINE
  5
185
330
1F
100
AcDbEntity
  8
0
  6
Continuous
 62
     7
370
    25
100
AcDbLine
 10
197.3902539091
 20
150.3632856624
 30
0.0
 11
197.3902539091
 21
133.8619659305
 31
0.0
  0
SPLINE
  5
186
330
1F
100
AcDbEntity
  8
0
  6
Continuous
 62
     7
370
    25
100
AcDbSpline
210
0.0
220
0.0
230
1.0
 70
     8
 71
     3
 72
    11
 73
     7
 74
     0
 42
0.00000001
 43
0.00000001
 40
0.0
 40
0.0
 40
0.0
 40
0.0
 40
0.2499999999999913
 40
0.4999999999999988
 40
0.7499999999999947
 40
1.0
 40
1.0
 40
1.0
 40
1.0
 10
197.3902539090939
 20
133.8619643912657
 30
0.0
 10
197.3238828563565
 20
133.8678568686686
 30
0.0
 10
197.1911407508817
 20
133.8796418234746
 30
0.0
 10
197.022677010101
 20
133.9835635059064
 30
0.0
 10
196.9045896510659
 20
134.1337439103625
 30
0.0
 10
196.8892150209388
 20
134.2533029693944
 30
0.0
 10
196.8815277058752
 20
134.3130824989104
 30
0.0
  0
LINE
  5
187
330
1F
100
AcDbEntity
  8
0
  6
Continuous
 62
     7
370
    25
100
AcDbLine
 10
196.8815277059
 20
134.3131373492
 30
0.0
 11
196.8815277059
 21
149.9120604194
 31
0.0
  0
SPLINE
  5
188
330
1F
100
AcDbEntity
  8
0
  6
Continuous
 62
     7
370
    25
100
AcDbSpline
210
0.0
220
0.0
230
1.0
 70
     8
 71
     3
 72
    11
 73
     7
 74
     0
 42
0.00000001
 43
0.00000001
 40
0.0
 40
0.0
 40
0.0
 40
0.0
 40
0.2499999999999901
 40
0.5000000000000007
 40
0.7500000000000012
 40
1.0
 40
1.0
 40
1.0
 40
1.0
 10
197.3902539090939
 20
150.3632853771008
 30
0.0
 10
197.3238828563565
 20
150.3573915040282
 30
0.0
 10
197.1911407508818
 20
150.3456037578832
 30
0.0
 10
197.022677010101
 20
150.241657460961
 30
0.0
 10
196.9045896510659
 20
150.0914414853515
 30
0.0
 10
196.8892150209388
 20
149.9718541080203
 30
0.0
 10
196.8815277058752
 20
149.9120604193547
 30
0.0
  0
LWPOLYLINE
  5
189
330
1F
100
AcDbEntity
  8
0
  6
Continuous
 62
     7
370
    25
100
AcDbPolyline
 90
        3
 70
   128
 43
0.0
 10
197.3902539091
 20
133.8619659305
 10
203.3817277059
 20
133.9282183418
 10
206.869571663
 20
133.9670343081
  0
LWPOLYLINE
  5
18A
330
1F
100
AcDbEntity
  8
0
  6
Continuous
 62
     7
370
    25
100
AcDbPolyline
 90
        3
 70
   128
 43
0.0
 10
205.9361514491
 20
150.2686230703
 10
203.3817277059
 20
150.2970329658
 10
197.3902538921
 20
150.3632853773
  0
LINE
  5
18B
330
1F
100
AcDbEntity
  8
0
  6
Continuous
 62
     7
370
    25
100
AcDbLine
 10
211.7315277059
 20
150.5120693081
 30
0.0
 11
211.7315277059
 21
133.7131819995
 31
0.0
  0
LINE
  5
18C
330
1F
100
AcDbEntity
  8
0
  6
Continuous
 62
     7
370
    25
100
AcDbLine
 10
197.3902539091
 20
133.8619646771
 30
0.0
 11
197.3902539091
 21
130.3664917406
 31
0.0
  0
ARC
  5
18D
330
1F
100
AcDbEntity
  8
0
  6
Continuous
 62
     7
370
    25
100
AcDbCircle
 10
197.3755890006
 20
130.8603780973
 30
0.0
 40
0.49410403049294
100
AcDbArc
 50
180.7535768612
 51
271.7007770082
  0
LINE
  5
18E
330
1F
100
AcDbEntity
  8
0
  6
Continuous
 62
     7
370
    25
100
AcDbLine
 10
196.8815277059
 20
130.8538796321
 30
0.0
 11
196.8815277059
 21
134.3131360948
 31
0.0
  0
LINE
  5
18F
330
1F
100
AcDbEntity
  8
0
  6
Continuous
 62
     7
370
    25
100
AcDbLine
 10
197.3902539091
 20
153.858759567
 30
0.0
 11
197.3902539091
 21
150.3632869163
 31
0.0
  0
ARC
  5
190
330
1F
100
AcDbEntity
  8
0
  6
Continuous
 62
     7
370
    25
100
AcDbCircle
 10
197.3755890006
 20
153.3648732103
 30
0.0
 40
0.4941040304928952
100
AcDbArc
 50
88.2992229918
 51
179.2464231388
  0
LINE
  5
191
330
1F
100
AcDbEntity
  8
0
  6
Continuous
 62
     7
370
    25
100
AcDbLine
 10
196.8815277059
 20
149.9121152128
 30
0.0
 11
196.8815277059
 21
153.3713716755
 31
0.0
  0
LINE
  5
192
330
1F
100
AcDbEntity
  8
0
  6
Continuous
 62
     7
370
    25
100
AcDbLine
 10
206.869571663
 20
133.9670343081
 30
0.0
 11
206.8249653298
 21
133.966227691
 31
0.0
  0
LINE
  5
193
330
1F
100
AcDbEntity
  8
0
  6
Continuous
 62
     7
370
    25
100
AcDbLine
 10
206.7838553735
 20
133.9654861249
 30
0.0
 11
206.8249653298
 21
133.966227691
 31
0.0
  0
LWPOLYLINE
  5
194
330
1F
100
AcDbEntity
  8
0
  6
Continuous
 62
     7
370
    25
100
AcDbPolyline
 90
        3
 70
   128
 43
0.0
 10
206.7838553735
 20
133.9654861249
 10
203.3815277059
 20
133.9279624213
 10
197.390253926
 20
133.8619643915
  0
SPLINE
  5
195
330
1F
100
AcDbEntity
  8
0
  6
Continuous
 62
     7
370
    25
100
AcDbSpline
210
0.0
220
0.0
230
1.0
 70
     8
 71
     3
 72
    12
 73
     8
 74
     0
 42
0.00000001
 43
0.00000001
 40
0.0
 40
0.0
 40
0.0
 40
0.0
 40
0.1662426524176545
 40
0.3368059756191297
 40
0.6054181071254586
 40
0.8801435087136193
 40
1.0
 40
1.0
 40
1.0
 40
1.0
 10
201.4727617358191
 20
130.4359652721347
 30
0.0
 10
201.5722184430943
 20
130.5914504476177
 30
0.0
 10
201.7737167519732
 20
130.9064618809729
 30
0.0
 10
202.5959645079957
 20
131.5694269859715
 30
0.0
 10
203.9577936749823
 20
132.4216219027768
 30
0.0
 10
205.5188998636412
 20
133.2642505813889
 30
0.0
 10
206.4891395558028
 20
133.8021086740841
 30
0.0
 10
206.7838553735057
 20
133.9654861249114
 30
0.0
  0
LINE
  5
196
330
1F
100
AcDbEntity
  8
0
  6
Continuous
 62
     7
370
    25
100
AcDbLine
 10
201.4727617358
 20
130.4359652721
 30
0.0
 11
197.3902539091
 21
130.3664917406
 31
0.0
  0
LINE
  5
197
330
1F
100
AcDbEntity
  8
0
  6
Continuous
 62
     7
370
    25
100
AcDbLine
 10
201.4164325187
 20
153.7433538686
 30
0.0
 11
201.4164325187
 21
153.7902446104
 31
0.0
  0
SPLINE
  5
198
330
1F
100
AcDbEntity
  8
0
  6
Continuous
 62
     7
370
    25
100
AcDbSpline
210
0.0
220
0.0
230
1.0
 70
     8
 71
     3
 72
    13
 73
     9
 74
     0
 42
0.00000001
 43
0.00000001
 40
0.0
 40
0.0
 40
0.0
 40
0.0
 40
0.0460329529079877
 40
0.249242584819372
 40
0.4775225570272876
 40
0.7051721168687834
 40
0.8526808263814666
 40
1.0
 40
1.0
 40
1.0
 40
1.0
 10
205.8654415058923
 20
150.2698974139082
 30
0.0
 10
205.7634509715838
 20
150.3324063823447
 30
0.0
 10
205.2112295129913
 20
150.6708573372221
 30
0.0
 10
204.1701105885296
 20
151.2888347612511
 30
0.0
 10
202.8849101451489
 20
152.0993070879642
 30
0.0
 10
201.9923392450261
 20
152.7919318892289
 30
0.0
 10
201.5037967876346
 20
153.3421656909269
 30
0.0
 10
201.4455414581839
 20
153.6096818020329
 30
0.0
 10
201.4164325187498
 20
153.7433538685932
 30
0.0
  0
LWPOLYLINE
  5
199
330
1F
100
AcDbEntity
  8
0
  6
Continuous
 62
     7
370
    25
100
AcDbPolyline
 90
        3
 70
   128
 43
0.0
 10
205.8654415059
 20
150.2698974139
 10
203.3815277059
 20
150.2972888863
 10
197.3902539091
 20
150.3632869163
  0
LINE
  5
19A
330
1F
100
AcDbEntity
  8
0
  6
Continuous
 62
     7
370
    25
100
AcDbLine
 10
201.4164325187
 20
153.7902446104
 30
0.0
 11
197.3902539091
 21
153.858759567
 31
0.0
  0
LINE
  5
19B
330
1F
100
AcDbEntity
  8
0
  6
Continuous
 62
     7
370
    25
100
AcDbLine
 10
205.9036173099
 20
150.2692101112
 30
0.0
 11
205.8654415059
 21
150.2698974139
 31
0.0
  0
LINE
  5
19C
330
1F
100
AcDbEntity
  8
0
  6
Continuous
 62
     7
370
    25
100
AcDbLine
 10
205.9036173099
 20
150.2692101112
 30
0.0
 11
205.9361514491
 21
150.2686230703
 31
0.0
  0
LINE
  5
19D
330
1F
100
AcDbEntity
  8
0
  6
Continuous
 62
     7
370
    25
100
AcDbLine
 10
196.8815277059
 20
153.3713716755
 30
0.0
 11
196.8815277059
 21
153.5845152685
 31
0.0
  0
LINE
  5
19E
330
1F
100
AcDbEntity
  8
0
  6
Continuous
 62
     7
370
    25
100
AcDbLine
 10
196.8815277059
 20
130.6407360391
 30
0.0
 11
196.8815277059
 21
130.8538796321
 31
0.0
  0
LINE
  5
19F
330
1F
100
AcDbEntity
  8
0
  6
Continuous
 62
     7
370
    25
100
AcDbLine
 10
201.4164325187
 20
130.2276782069
 30
0.0
 11
201.4727617358
 21
130.4359652721
 31
0.0
  0
LINE
  5
1A0
330
1F
100
AcDbEntity
  8
0
  6
Continuous
 62
     7
370
    25
100
AcDbLine
 10
213.6315277059
 20
147.4415393485
 30
0.0
 11
213.6315277059
 21
136.7837113172
 31
0.0
  0
LINE
  5
1A1
330
1F
100
AcDbEntity
  8
0
  6
Continuous
 62
     7
370
    25
100
AcDbLine
 10
186.9815277059
 20
151.6126256538
 30
0.0
 11
186.9815277059
 21
150.3093632417
 31
0.0
  0
SPLINE
  5
1A2
330
1F
100
AcDbEntity
  8
0
  6
Continuous
 62
     7
370
    25
100
AcDbSpline
210
0.0
220
0.0
230
1.0
 70
    24
 71
     3
 72
    11
 73
     7
 74
     0
 42
0.00000001
 43
0.00000001
 40
0.0
 40
0.0
 40
0.0
 40
0.0
 40
0.059139560364233
 40
0.5151546697584025
 40
0.9835658517333951
 40
1.0
 40
1.0
 40
1.0
 40
1.0
 10
186.9815277058752
 20
151.6126256538057
 30
0.0
 10
187.0095072985539
 20
151.6126256538057
 30
0.0
 10
187.2532327800685
 20
151.6126256538057
 30
0.0
 10
187.5937558737406
 20
151.6126256538057
 30
0.0
 10
187.8188349810992
 20
151.6126256538056
 30
0.0
 10
187.7578231857776
 20
151.6126256538057
 30
0.0
 10
187.7557551512359
 20
151.6126256538057
 30
0.0
  0
SPLINE
  5
1A3
330
1F
100
AcDbEntity
  8
0
  6
Continuous
 62
     7
370
    25
100
AcDbSpline
210
0.0
220
0.0
230
1.0
 70
    24
 71
     3
 72
    11
 73
     7
 74
     0
 42
0.00000001
 43
0.00000001
 40
0.0
 40
0.0
 40
0.0
 40
0.0
 40
0.0163985483736859
 40
0.4715081509151195
 40
0.9408590955702612
 40
1.0
 40
1.0
 40
1.0
 40
1.0
 10
187.7555687018406
 20
132.6126256538057
 30
0.0
 10
187.7577008879939
 20
132.6126256538057
 30
0.0
 10
187.8190077261117
 20
132.6126256538057
 30
0.0
 10
187.5959559772974
 20
132.6126256538056
 30
0.0
 10
187.2595579274429
 20
132.6126256538057
 30
0.0
 10
187.0095093979507
 20
132.6126256538057
 30
0.0
 10
186.9815277058752
 20
132.6126256538057
 30
0.0
  0
LINE
  5
1A4
330
1F
100
AcDbEntity
  8
0
  6
Continuous
 62
     7
370
    25
100
AcDbLine
 10
186.9815277059
 20
133.9158880659
 30
0.0
 11
186.9815277059
 21
132.6126256538
 31
0.0
  0
SPLINE
  5
1A5
330
1F
100
AcDbEntity
  8
0
  6
Continuous
 62
     7
370
    25
100
AcDbSpline
210
0.0
220
0.0
230
1.0
 70
     8
 71
     3
 72
    11
 73
     7
 74
     0
 42
0.00000001
 43
0.00000001
 40
0.0
 40
0.0
 40
0.0
 40
0.0
 40
0.2431641197380915
 40
0.4936284730588929
 40
0.7421706076863281
 40
1.0
 40
1.0
 40
1.0
 40
1.0
 10
186.9815277058752
 20
133.9158880658828
 30
0.0
 10
187.191668029084
 20
134.4593345981537
 30
0.0
 10
187.6182574740456
 20
135.5625429259405
 30
0.0
 10
187.8286419041886
 20
137.312587955667
 30
0.0
 10
187.6379552105216
 20
139.0995571196099
 30
0.0
 10
187.2029960401269
 20
140.2325014998322
 30
0.0
 10
186.9815277058752
 20
140.8093632417285
 30
0.0
  0
LINE
  5
1A6
330
1F
100
AcDbEntity
  8
0
  6
Continuous
 62
     7
370
    25
100
AcDbLine
 10
186.9815277059
 20
143.4158880659
 30
0.0
 11
186.9815277059
 21
140.8093632417
 31
0.0
  0
SPLINE
  5
1A7
330
1F
100
AcDbEntity
  8
0
  6
Continuous
 62
     7
370
    25
100
AcDbSpline
210
0.0
220
0.0
230
1.0
 70
     8
 71
     3
 72
    11
 73
     7
 74
     0
 42
0.00000001
 43
0.00000001
 40
0.0
 40
0.0
 40
0.0
 40
0.0
 40
0.2431641197380915
 40
0.4936284730588937
 40
0.7421706076863286
 40
1.0
 40
1.0
 40
1.0
 40
1.0
 10
186.9815277058752
 20
143.4158880658829
 30
0.0
 10
187.191668029084
 20
143.9593345981537
 30
0.0
 10
187.6182574740456
 20
145.0625429259404
 30
0.0
 10
187.8286419041886
 20
146.812587955667
 30
0.0
 10
187.6379552105216
 20
148.5995571196099
 30
0.0
 10
187.2029960401269
 20
149.7325014998322
 30
0.0
 10
186.9815277058752
 20
150.3093632417285
 30
0.0
  0
LINE
  5
1A8
330
1F
100
AcDbEntity
  8
0
  6
Continuous
 62
     7
370
    25
100
AcDbLine
 10
188.9815277059
 20
150.3626256538
 30
0.0
 11
188.9815277059
 21
133.8626256538
 31
0.0
  0
LINE
  5
1A9
330
1F
100
AcDbEntity
  8
0
  6
Continuous
 62
     7
370
    25
100
AcDbLine
 10
184.4315277059
 20
133.9158880659
 30
0.0
 11
184.1815277059
 21
134.522841331
 31
0.0
  0
LINE
  5
1AA
330
1F
100
AcDbEntity
  8
0
  6
Continuous
 62
     7
370
    25
100
AcDbLine
 10
184.1815277059
 20
140.2024099766
 30
0.0
 11
184.1815277059
 21
134.522841331
 31
0.0
  0
LINE
  5
1AB
330
1F
100
AcDbEntity
  8
0
  6
Continuous
 62
     7
370
    25
100
AcDbLine
 10
184.1815277059
 20
140.2024099766
 30
0.0
 11
184.4315277059
 21
140.8093632417
 31
0.0
  0
LINE
  5
1AC
330
1F
100
AcDbEntity
  8
0
  6
Continuous
 62
     7
370
    25
100
AcDbLine
 10
186.9815277059
 20
140.8093632417
 30
0.0
 11
184.4315277059
 21
140.8093632417
 31
0.0
  0
LINE
  5
1AD
330
1F
100
AcDbEntity
  8
0
  6
Continuous
 62
     7
370
    25
100
AcDbLine
 10
184.4315277059
 20
133.9158880659
 30
0.0
 11
186.9815277059
 21
133.9158880659
 31
0.0
  0
LINE
  5
1AE
330
1F
100
AcDbEntity
  8
0
  6
Continuous
 62
     7
370
    25
100
AcDbLine
 10
184.4315277059
 20
143.4158880659
 30
0.0
 11
184.1815277059
 21
144.022841331
 31
0.0
  0
LINE
  5
1AF
330
1F
100
AcDbEntity
  8
0
  6
Continuous
 62
     7
370
    25
100
AcDbLine
 10
184.1815277059
 20
149.7024099766
 30
0.0
 11
184.1815277059
 21
144.022841331
 31
0.0
  0
LINE
  5
1B0
330
1F
100
AcDbEntity
  8
0
  6
Continuous
 62
     7
370
    25
100
AcDbLine
 10
184.1815277059
 20
149.7024099766
 30
0.0
 11
184.4315277059
 21
150.3093632417
 31
0.0
  0
LINE
  5
1B1
330
1F
100
AcDbEntity
  8
0
  6
Continuous
 62
     7
370
    25
100
AcDbLine
 10
186.9815277059
 20
150.3093632417
 30
0.0
 11
184.4315277059
 21
150.3093632417
 31
0.0
  0
LINE
  5
1B2
330
1F
100
AcDbEntity
  8
0
  6
Continuous
 62
     7
370
    25
100
AcDbLine
 10
184.4315277059
 20
143.4158880659
 30
0.0
 11
186.9815277059
 21
143.4158880659
 31
0.0
  0
LINE
  5
1B3
330
1F
100
AcDbEntity
  8
0
  6
Continuous
 62
     7
370
    25
100
AcDbLine
 10
184.4315277059
 20
143.4158880659
 30
0.0
 11
184.4315277059
 21
140.8093632417
 31
0.0
  0
LINE
  5
1B4
330
1F
100
AcDbEntity
  8
0
  6
Continuous
 62
     7
370
    25
100
AcDbLine
 10
184.1815277059
 20
140.2024099766
 30
0.0
 11
184.1815277059
 21
144.022841331
 31
0.0
  0
SPLINE
  5
1B5
330
1F
100
AcDbEntity
  8
0
  6
Continuous
 62
     7
370
    25
100
AcDbSpline
210
0.0
220
0.0
230
1.0
 70
     8
 71
     3
 72
    11
 73
     7
 74
     0
 42
0.00000001
 43
0.00000001
 40
0.0
 40
0.0
 40
0.0
 40
0.0
 40
0.0823376510038091
 40
0.3188851439110015
 40
0.6247963511836877
 40
1.0
 40
1.0
 40
1.0
 40
1.0
 10
182.0819879314645
 20
151.4986502278225
 30
0.0
 10
182.0846160324905
 20
151.4952392125965
 30
0.0
 10
182.0947943939532
 20
151.4820287060059
 30
0.0
 10
182.1154776580726
 20
151.359286284688
 30
0.0
 10
182.145989861196
 20
151.0628407631148
 30
0.0
 10
182.1689046864613
 20
150.6673782095052
 30
0.0
 10
182.1815277058752
 20
150.4495309672111
 30
0.0
  0
LINE
  5
1B6
330
1F
100
AcDbEntity
  8
0
  6
Continuous
 62
     7
370
    25
100
AcDbLine
 10
182.1815277059
 20
137.7702750874
 30
0.0
 11
182.1815277059
 21
150.4495309671
 31
0.0
  0
SPLINE
  5
1B7
330
1F
100
AcDbEntity
  8
0
  6
Continuous
 62
     7
370
    25
100
AcDbSpline
210
0.0
220
0.0
230
1.0
 70
     8
 71
     3
 72
    30
 73
    26
 74
     0
 42
0.00000001
 43
0.00000001
 40
0.0
 40
0.0
 40
0.0
 40
0.0
 40
0.0182355448544065
 40
0.0763245661743252
 40
0.1063427875899049
 40
0.1451052306444134
 40
0.1926087823348561
 40
0.2376127113006339
 40
0.2719933646366511
 40
0.2957466639727327
 40
0.3088697938344322
 40
0.3375269424463682
 40
0.3661842311463162
 40
0.3948416612334269
 40
0.4234992340068308
 40
0.5378839981506605
 40
0.5908692721160762
 40
0.6380628073955174
 40
0.6794629392041788
 40
0.7306843854292003
 40
0.7688710157324232
 40
0.8038595024706399
 40
0.8540525738533307
 40
0.9194380368698538
 40
1.0
 40
1.0
 40
1.0
 40
1.0
 10
181.7203823496828
 20
151.4996971962248
 30
0.0
 10
181.7230635018743
 20
151.5032386798286
 30
0.0
 10
181.7342854192619
 20
151.5180614998669
 30
0.0
 10
181.7503107450744
 20
151.434462360437
 30
0.0
 10
181.7699217766259
 20
151.2860080059026
 30
0.0
 10
181.7880840349471
 20
151.0944683279312
 30
0.0
 10
181.8087320494709
 20
150.8082286001448
 30
0.0
 10
181.8287149703141
 20
150.4597343078943
 30
0.0
 10
181.8448539463283
 20
150.1289388028906
 30
0.0
 10
181.8559658055406
 20
149.8772546700403
 30
0.0
 10
181.8659162851669
 20
149.6327428290587
 30
0.0
 10
181.8760813790711
 20
149.3542448185178
 30
0.0
 10
181.8888742199423
 20
148.9893914184861
 30
0.0
 10
181.9017161466589
 20
148.6007292240321
 30
0.0
 10
181.9276097570331
 20
147.7803672344064
 30
0.0
 10
181.9580996440116
 20
146.7185547568802
 30
0.0
 10
181.9918100988318
 20
145.4547352376516
 30
0.0
 10
182.0138733779622
 20
144.5874674558506
 30
0.0
 10
182.0354956178589
 20
143.7101738262538
 30
0.0
 10
182.0555965001764
 20
142.8749271650241
 30
0.0
 10
182.0740093751144
 20
142.0757058950802
 30
0.0
 10
182.0923582293906
 20
141.283286723331
 30
0.0
 10
182.1155514459401
 20
140.3235683755111
 30
0.0
 10
182.1459957131803
 20
139.0937007219559
 30
0.0
 10
182.1688901410724
 20
138.2409741940446
 30
0.0
 10
182.1815277058752
 20
137.770275087418
 30
0.0
  0
SPLINE
  5
1B8
330
1F
100
AcDbEntity
  8
0
  6
Continuous
 62
     7
370
    25
100
AcDbSpline
210
0.0
220
0.0
230
1.0
 70
     8
 71
     3
 72
    12
 73
     8
 74
     0
 42
0.00000001
 43
0.00000001
 40
0.0
 40
0.0
 40
0.0
 40
0.0
 40
0.2176683106405472
 40
0.4685852168999713
 40
0.7246585792764159
 40
0.9786110903297413
 40
1.0
 40
1.0
 40
1.0
 40
1.0
 10
181.5315277058752
 20
139.2664972192272
 30
0.0
 10
181.5523106296051
 20
138.5498185367317
 30
0.0
 10
181.5970510458611
 20
137.0069892893486
 30
0.0
 10
181.6600476299116
 20
135.1288745663857
 30
0.0
 10
181.7331512456161
 20
133.8897588123628
 30
0.0
 10
181.7818623248888
 20
133.3616305536638
 30
0.0
 10
181.8069533311024
 20
133.4980408625161
 30
0.0
 10
181.8089024358322
 20
133.5086374075854
 30
0.0
  0
SPLINE
  5
1B9
330
1F
100
AcDbEntity
  8
0
  6
Continuous
 62
     7
370
    25
100
AcDbSpline
210
0.0
220
0.0
230
1.0
 70
     8
 71
     3
 72
    10
 73
     6
 74
     0
 42
0.00000001
 43
0.00000001
 40
0.0
 40
0.0
 40
0.0
 40
0.0
 40
0.3607337961396723
 40
0.8121409875158757
 40
1.0
 40
1.0
 40
1.0
 40
1.0
 10
182.52392968769
 20
150.6770360935008
 30
0.0
 10
182.5424499370274
 20
150.6172452852707
 30
0.0
 10
182.5841456521142
 20
150.4826347592818
 30
0.0
 10
182.6393259298512
 20
149.540775403629
 30
0.0
 10
182.671942719452
 20
148.7136939067774
 30
0.0
 10
182.6815277058752
 20
148.470642244881
 30
0.0
  0
SPLINE
  5
1BA
330
1F
100
AcDbEntity
  8
0
  6
Continuous
 62
     7
370
    25
100
AcDbSpline
210
0.0
220
0.0
230
1.0
 70
    24
 71
     3
 72
    10
 73
     6
 74
     0
 42
0.00000001
 43
0.00000001
 40
0.0
 40
0.0
 40
0.0
 40
0.0
 40
0.3187287177375321
 40
0.8180873955881237
 40
1.0
 40
1.0
 40
1.0
 40
1.0
 10
182.6815277058752
 20
148.470642244881
 30
0.0
 10
182.6815277058752
 20
148.0340894165336
 30
0.0
 10
182.6815277058752
 20
146.913580511925
 30
0.0
 10
182.6815277058752
 20
145.1097793539636
 30
0.0
 10
182.6815277058752
 20
143.8036195115332
 30
0.0
 10
182.6815277058752
 20
143.4548495796411
 30
0.0
  0
SPLINE
  5
1BB
330
1F
100
AcDbEntity
  8
0
  6
Continuous
 62
     7
370
    25
100
AcDbSpline
210
0.0
220
0.0
230
1.0
 70
     8
 71
     3
 72
    13
 73
     9
 74
     0
 42
0.00000001
 43
0.00000001
 40
0.0
 40
0.0
 40
0.0
 40
0.0
 40
0.2187316754180421
 40
0.3931473777464117
 40
0.5714254113794042
 40
0.7494200729435004
 40
0.8738925945231126
 40
1.0
 40
1.0
 40
1.0
 40
1.0
 10
182.6815277058752
 20
143.4548495796411
 30
0.0
 10
182.6437998989687
 20
144.0769563896114
 30
0.0
 10
182.5759881002199
 20
145.1951285087182
 30
0.0
 10
182.4771746716071
 20
146.7183476754456
 30
0.0
 10
182.3881631353559
 20
148.0207787299656
 30
0.0
 10
182.3134502084187
 20
149.0563609904934
 30
0.0
 10
182.2437821295132
 20
149.8650798492024
 30
0.0
 10
182.2023692451853
 20
150.2538683903428
 30
0.0
 10
182.1815277058918
 20
150.4495309670635
 30
0.0
  0
SPLINE
  5
1BC
330
1F
100
AcDbEntity
  8
0
  6
Continuous
 62
     7
370
    25
100
AcDbSpline
210
0.0
220
0.0
230
1.0
 70
     8
 71
     3
 72
    15
 73
    11
 74
     0
 42
0.00000001
 43
0.00000001
 40
0.0
 40
0.0
 40
0.0
 40
0.0
 40
0.1853848730991207
 40
0.2777270836008036
 40
0.3700718582436233
 40
0.462416855210521
 40
0.6144793794637545
 40
0.7665419034043038
 40
0.9186044273391785
 40
1.0
 40
1.0
 40
1.0
 40
1.0
 10
182.1815277058752
 20
137.7702750874177
 30
0.0
 10
182.191245210851
 20
137.2335440329679
 30
0.0
 10
182.2058031101644
 20
136.4294614347581
 30
0.0
 10
182.2241353524287
 20
135.5122975039927
 30
0.0
 10
182.2378107837309
 20
134.8883222316847
 30
0.0
 10
182.2551800550832
 20
134.222055568576
 30
0.0
 10
182.2761843221478
 20
133.5843542226681
 30
0.0
 10
182.3005302260048
 20
133.1007706346039
 30
0.0
 10
182.320758120099
 20
132.8635988210177
 30
0.0
 10
182.3324306170965
 20
132.8901142477515
 30
0.0
 10
182.3365002535382
 20
132.8993588975402
 30
0.0
  0
SPLINE
  5
1BD
330
1F
100
AcDbEntity
  8
0
  6
Continuous
 62
     7
370
    25
100
AcDbSpline
210
0.0
220
0.0
230
1.0
 70
     8
 71
     3
 72
    14
 73
    10
 74
     0
 42
0.00000001
 43
0.00000001
 40
0.0
 40
0.0
 40
0.0
 40
0.0
 40
0.0578403592793417
 40
0.2161361478924428
 40
0.3736862591713957
 40
0.5337002824213858
 40
0.6901919037604665
 40
0.8498994977822804
 40
1.0
 40
1.0
 40
1.0
 40
1.0
 10
181.5315277058752
 20
145.8074454580605
 30
0.0
 10
181.54024707166
 20
145.5232235072238
 30
0.0
 10
181.5728293404476
 20
144.4611513077129
 30
0.0
 10
181.6279934205905
 20
142.2829443149137
 30
0.0
 10
181.6963209709049
 20
139.5889056287801
 30
0.0
 10
181.7702261252832
 20
137.118461499158
 30
0.0
 10
181.8363786665831
 20
135.1501827265359
 30
0.0
 10
181.9083244777578
 20
133.8152667654077
 30
0.0
 10
181.9537563206022
 20
133.6061790096019
 30
0.0
 10
181.9757678254996
 20
133.5048770180304
 30
0.0
  0
LINE
  5
1BE
330
1F
100
AcDbEntity
  8
0
  6
Continuous
 62
     7
370
    25
100
AcDbLine
 10
182.6815277059
 20
143.4548495796
 30
0.0
 11
182.6815277059
 21
133.2126256538
 31
0.0
  0
SPLINE
  5
1BF
330
1F
100
AcDbEntity
  8
0
  6
Continuous
 62
     7
370
    25
100
AcDbSpline
210
0.0
220
0.0
230
1.0
 70
    24
 71
     3
 72
    10
 73
     6
 74
     0
 42
0.00000001
 43
0.00000001
 40
0.0
 40
0.0
 40
0.0
 40
0.0
 40
0.2200266609304047
 40
0.6670013252276435
 40
1.0
 40
1.0
 40
1.0
 40
1.0
 10
182.6815277058752
 20
150.7482559820033
 30
0.0
 10
182.6815277058752
 20
150.7247954414286
 30
0.0
 10
182.6815277058752
 20
150.6536758253433
 30
0.0
 10
182.6815277058752
 20
149.9486688761519
 30
0.0
 10
182.6815277058752
 20
148.9128644242083
 30
0.0
 10
182.6815277058752
 20
148.470642244881
 30
0.0
  0
LINE
  5
1C0
330
1F
100
AcDbEntity
  8
0
  6
Continuous
 62
     7
370
    25
100
AcDbLine
 10
184.4315277059
 20
133.9158880659
 30
0.0
 11
184.4315277059
 21
132.6126256538
 31
0.0
  0
LINE
  5
1C1
330
1F
100
AcDbEntity
  8
0
  6
Continuous
 62
     7
370
    25
100
AcDbLine
 10
184.1815277059
 20
132.6126256538
 30
0.0
 11
184.4315277059
 21
132.6126256538
 31
0.0
  0
LINE
  5
1C2
330
1F
100
AcDbEntity
  8
0
  6
Continuous
 62
     7
370
    25
100
AcDbLine
 10
184.1815277059
 20
132.6126256538
 30
0.0
 11
184.1815277059
 21
134.522841331
 31
0.0
  0
LINE
  5
1C3
330
1F
100
AcDbEntity
  8
0
  6
Continuous
 62
     7
370
    25
100
AcDbLine
 10
184.4315277059
 20
151.6126256538
 30
0.0
 11
184.1815277059
 21
151.6126256538
 31
0.0
  0
LINE
  5
1C4
330
1F
100
AcDbEntity
  8
0
  6
Continuous
 62
     7
370
    25
100
AcDbLine
 10
184.4315277059
 20
151.6126256538
 30
0.0
 11
184.4315277059
 21
150.3093632417
 31
0.0
  0
LINE
  5
1C5
330
1F
100
AcDbEntity
  8
0
  6
Continuous
 62
     7
370
    25
100
AcDbLine
 10
184.1815277059
 20
149.7024099766
 30
0.0
 11
184.1815277059
 21
151.6126256538
 31
0.0
  0
LINE
  5
1C6
330
1F
100
AcDbEntity
  8
0
  6
Continuous
 62
     7
370
    25
100
AcDbLine
 10
186.9815277059
 20
132.6126256538
 30
0.0
 11
184.4315277059
 21
132.6126256538
 31
0.0
  0
LINE
  5
1C7
330
1F
100
AcDbEntity
  8
0
  6
Continuous
 62
     7
370
    25
100
AcDbLine
 10
184.4315277059
 20
151.6126256538
 30
0.0
 11
186.9815277059
 21
151.6126256538
 31
0.0
  0
SPLINE
  5
1C8
330
1F
100
AcDbEntity
  8
0
  6
Continuous
 62
     7
370
    25
100
AcDbSpline
210
0.0
220
0.0
230
1.0
 70
     8
 71
     3
 72
     9
 73
     5
 74
     0
 42
0.00000001
 43
0.00000001
 40
0.0
 40
0.0
 40
0.0
 40
0.0
 40
0.4182581660991578
 40
1.0
 40
1.0
 40
1.0
 40
1.0
 10
172.5290971001961
 20
155.8788052238909
 30
0.0
 10
172.462814425426
 20
156.0728875568673
 30
0.0
 10
172.3043413096748
 20
156.5369127659539
 30
0.0
 10
172.2899182203244
 20
156.8707345444082
 30
0.0
 10
172.2815277058752
 20
157.0649326380021
 30
0.0
  0
LINE
  5
1C9
330
1F
100
AcDbEntity
  8
0
  6
Continuous
 62
     7
370
    25
100
AcDbLine
 10
172.2815277059
 20
127.1603186696
 30
0.0
 11
172.3529060347
 21
127.6126256538
 31
0.0
  0
LINE
  5
1CA
330
1F
100
AcDbEntity
  8
0
  6
Continuous
 62
     7
370
    25
100
AcDbLine
 10
172.2815277059
 20
127.1603186696
 30
0.0
 11
172.2815277059
 21
126.4334917955
 31
0.0
  0
SPLINE
  5
1CB
330
1F
100
AcDbEntity
  8
0
  6
Continuous
 62
     7
370
    25
100
AcDbSpline
210
0.0
220
0.0
230
1.0
 70
     8
 71
     3
 72
     9
 73
     5
 74
     0
 42
0.00000001
 43
0.00000001
 40
0.0
 40
0.0
 40
0.0
 40
0.0
 40
0.5850553834536188
 40
1.0
 40
1.0
 40
1.0
 40
1.0
 10
172.6959846134526
 20
125.8626256538057
 30
0.0
 10
172.5594304794283
 20
125.8943240708443
 30
0.0
 10
172.3260267062363
 20
125.9485042697368
 30
0.0
 10
172.2945774185111
 20
126.2912650535369
 30
0.0
 10
172.2815277058752
 20
126.4334917955379
 30
0.0
  0
SPLINE
  5
1CC
330
1F
100
AcDbEntity
  8
0
  6
Continuous
 62
     7
370
    25
100
AcDbSpline
210
0.0
220
0.0
230
1.0
 70
    27
 71
     3
 72
    11
 73
     7
 74
     0
 42
0.00000001
 43
0.00000001
 40
0.0
 40
0.0
 40
0.0
 40
0.0
 40
0.2328716322111479
 40
0.4710265024313248
 40
0.7311421212560302
 40
0.9999999999999999
 40
0.9999999999999999
 40
0.9999999999999999
 40
0.9999999999999999
 10
172.6959846134526
 20
125.8626256538057
 30
0.0
 10
172.9663813481254
 20
125.8626256538057
 30
0.0
 10
173.5133094002562
 20
125.8626256538057
 30
0.0
 10
173.8145337182398
 20
125.8626256538057
 30
0.0
 10
173.6068819528301
 20
125.8626256538057
 30
0.0
 10
173.0029441210498
 20
125.8626256538057
 30
0.0
 10
172.6959846134526
 20
125.8626256538057
 30
0.0
  0
SPLINE
  5
1CD
330
1F
100
AcDbEntity
  8
0
  6
Continuous
 62
     7
370
    25
100
AcDbSpline
210
0.0
220
0.0
230
1.0
 70
     8
 71
     3
 72
     9
 73
     5
 74
     0
 42
0.00000001
 43
0.00000001
 40
0.0
 40
0.0
 40
0.0
 40
0.0
 40
0.5841917497409234
 40
1.0
 40
1.0
 40
1.0
 40
1.0
 10
172.2815277058752
 20
126.4334917955379
 30
0.0
 10
172.3076956696959
 20
126.2424095734714
 30
0.0
 10
172.3524891195045
 20
125.9153213834186
 30
0.0
 10
172.5951035370185
 20
125.8781018449654
 30
0.0
 10
172.6959846134526
 20
125.8626256538057
 30
0.0
  0
LINE
  5
1CE
330
1F
100
AcDbEntity
  8
0
  6
Continuous
 62
     7
370
    25
100
AcDbLine
 10
172.2815277059
 20
126.4334917955
 30
0.0
 11
172.2815277059
 21
127.1603186696
 31
0.0
  0
SPLINE
  5
1CF
330
1F
100
AcDbEntity
  8
0
  6
Continuous
 62
     7
370
    25
100
AcDbSpline
210
0.0
220
0.0
230
1.0
 70
     8
 71
     3
 72
     9
 73
     5
 74
     0
 42
0.00000001
 43
0.00000001
 40
0.0
 40
0.0
 40
0.0
 40
0.0
 40
0.5850553834536188
 40
1.0
 40
1.0
 40
1.0
 40
1.0
 10
172.6959846134526
 20
128.8841342018681
 30
0.0
 10
172.5594304794283
 20
128.4975876763042
 30
0.0
 10
172.3260267062363
 20
127.8368869349795
 30
0.0
 10
172.2945774185111
 20
127.3587281028538
 30
0.0
 10
172.2815277058752
 20
127.1603186696092
 30
0.0
  0
SPLINE
  5
1D0
330
1F
100
AcDbEntity
  8
0
  6
Continuous
 62
     7
370
    25
100
AcDbSpline
210
0.0
220
0.0
230
1.0
 70
     8
 71
     3
 72
    11
 73
     7
 74
     0
 42
0.00000001
 43
0.00000001
 40
0.0
 40
0.0
 40
0.0
 40
0.0
 40
0.2556279644380972
 40
0.5185037642963866
 40
0.7560467972580102
 40
0.9999999999999999
 40
0.9999999999999999
 40
0.9999999999999999
 40
0.9999999999999999
 10
172.6959846134526
 20
139.0911171057432
 30
0.0
 10
172.9896105735546
 20
138.2401725327758
 30
0.0
 10
173.5851876886901
 20
136.5141565029527
 30
0.0
 10
173.8170766503167
 20
133.8810739747554
 30
0.0
 10
173.534106191856
 20
131.2973465545847
 30
0.0
 10
172.9778270582917
 20
129.6956461434903
 30
0.0
 10
172.6959846134526
 20
128.8841342018681
 30
0.0
  0
SPLINE
  5
1D1
330
1F
100
AcDbEntity
  8
0
  6
Continuous
 62
     7
370
    25
100
AcDbSpline
210
0.0
220
0.0
230
1.0
 70
     8
 71
     3
 72
     9
 73
     5
 74
     0
 42
0.00000001
 43
0.00000001
 40
0.0
 40
0.0
 40
0.0
 40
0.0
 40
0.5841917497409257
 40
1.0
 40
1.0
 40
1.0
 40
1.0
 10
172.2815277058752
 20
141.3857987797344
 30
0.0
 10
172.3076956696959
 20
140.9054406541682
 30
0.0
 10
172.3524891195046
 20
140.0831795972818
 30
0.0
 10
172.5951035370185
 20
139.3824756062173
 30
0.0
 10
172.6959846134526
 20
139.0911171057432
 30
0.0
  0
LINE
  5
1D2
330
1F
100
AcDbEntity
  8
0
  6
Continuous
 62
     7
370
    25
100
AcDbLine
 10
172.2815277059
 20
141.3857987797
 30
0.0
 11
172.2815277059
 21
142.8394525279
 31
0.0
  0
SPLINE
  5
1D3
330
1F
100
AcDbEntity
  8
0
  6
Continuous
 62
     7
370
    25
100
AcDbSpline
210
0.0
220
0.0
230
1.0
 70
     8
 71
     3
 72
     9
 73
     5
 74
     0
 42
0.00000001
 43
0.00000001
 40
0.0
 40
0.0
 40
0.0
 40
0.0
 40
0.5850553834536182
 40
0.9999999999999999
 40
0.9999999999999999
 40
0.9999999999999999
 40
0.9999999999999999
 10
172.6959846134526
 20
145.1341342018681
 30
0.0
 10
172.5594304794283
 20
144.7158892592656
 30
0.0
 10
172.3260267062363
 20
144.0010083190484
 30
0.0
 10
172.2945774185111
 20
143.1800887031226
 30
0.0
 10
172.2815277058752
 20
142.8394525278769
 30
0.0
  0
SPLINE
  5
1D4
330
1F
100
AcDbEntity
  8
0
  6
Continuous
 62
     7
370
    25
100
AcDbSpline
210
0.0
220
0.0
230
1.0
 70
     8
 71
     3
 72
    11
 73
     7
 74
     0
 42
0.00000001
 43
0.00000001
 40
0.0
 40
0.0
 40
0.0
 40
0.0
 40
0.2328716322111471
 40
0.471026502431323
 40
0.7311421212560291
 40
1.0
 40
1.0
 40
1.0
 40
1.0
 10
172.6959846134526
 20
155.3411171057433
 30
0.0
 10
172.9663813481254
 20
154.5670147297497
 30
0.0
 10
173.5133094002562
 20
153.0012476535889
 30
0.0
 10
173.8145337182398
 20
150.4658086862942
 30
0.0
 10
173.6068819528301
 20
147.7923026058251
 30
0.0
 10
173.0029441210498
 20
146.0298993217298
 30
0.0
 10
172.6959846134526
 20
145.1341342018681
 30
0.0
  0
SPLINE
  5
1D5
330
1F
100
AcDbEntity
  8
0
  6
Continuous
 62
     7
370
    25
100
AcDbSpline
210
0.0
220
0.0
230
1.0
 70
     8
 71
     3
 72
     9
 73
     5
 74
     0
 42
0.00000001
 43
0.00000001
 40
0.0
 40
0.0
 40
0.0
 40
0.0
 40
0.5841917497409239
 40
1.0
 40
1.0
 40
1.0
 40
1.0
 10
172.2815277058752
 20
157.0649326380021
 30
0.0
 10
172.3076956696959
 20
156.7756567345024
 30
0.0
 10
172.3524891195045
 20
156.2804838676689
 30
0.0
 10
172.5951035370185
 20
155.6169994150576
 30
0.0
 10
172.6959846134526
 20
155.3411171057433
 30
0.0
  0
LINE
  5
1D6
330
1F
100
AcDbEntity
  8
0
  6
Continuous
 62
     7
370
    25
100
AcDbLine
 10
172.2815277059
 20
157.064932638
 30
0.0
 11
172.2815277059
 21
157.7917595121
 31
0.0
  0
SPLINE
  5
1D7
330
1F
100
AcDbEntity
  8
0
  6
Continuous
 62
     7
370
    25
100
AcDbSpline
210
0.0
220
0.0
230
1.0
 70
     8
 71
     3
 72
     9
 73
     5
 74
     0
 42
0.00000001
 43
0.00000001
 40
0.0
 40
0.0
 40
0.0
 40
0.0
 40
0.5850553834536166
 40
1.0
 40
1.0
 40
1.0
 40
1.0
 10
172.6959846134526
 20
158.3626256538057
 30
0.0
 10
172.5594304794283
 20
158.330927236767
 30
0.0
 10
172.3260267062363
 20
158.2767470378745
 30
0.0
 10
172.2945774185111
 20
157.9339862540744
 30
0.0
 10
172.2815277058752
 20
157.7917595120734
 30
0.0
  0
SPLINE
  5
1D8
330
1F
100
AcDbEntity
  8
0
  6
Continuous
 62
     7
370
    25
100
AcDbSpline
210
0.0
220
0.0
230
1.0
 70
    27
 71
     3
 72
    11
 73
     7
 74
     0
 42
0.00000001
 43
0.00000001
 40
0.0
 40
0.0
 40
0.0
 40
0.0
 40
0.2328716322111485
 40
0.471026502431326
 40
0.7311421212560308
 40
1.0
 40
1.0
 40
1.0
 40
1.0
 10
172.6959846134526
 20
158.3626256538057
 30
0.0
 10
172.9663813481254
 20
158.3626256538057
 30
0.0
 10
173.5133094002562
 20
158.3626256538057
 30
0.0
 10
173.8145337182398
 20
158.3626256538057
 30
0.0
 10
173.6068819528301
 20
158.3626256538057
 30
0.0
 10
173.0029441210498
 20
158.3626256538057
 30
0.0
 10
172.6959846134526
 20
158.3626256538057
 30
0.0
  0
SPLINE
  5
1D9
330
1F
100
AcDbEntity
  8
0
  6
Continuous
 62
     7
370
    25
100
AcDbSpline
210
0.0
220
0.0
230
1.0
 70
     8
 71
     3
 72
     9
 73
     5
 74
     0
 42
0.00000001
 43
0.00000001
 40
0.0
 40
0.0
 40
0.0
 40
0.0
 40
0.5841917497409264
 40
1.0
 40
1.0
 40
1.0
 40
1.0
 10
172.2815277058752
 20
157.7917595120734
 30
0.0
 10
172.3076956696959
 20
157.9828417341399
 30
0.0
 10
172.3524891195045
 20
158.3099299241927
 30
0.0
 10
172.5951035370185
 20
158.3471494626459
 30
0.0
 10
172.6959846134526
 20
158.3626256538057
 30
0.0
  0
LINE
  5
1DA
330
1F
100
AcDbEntity
  8
0
  6
Continuous
 62
     7
370
    25
100
AcDbLine
 10
172.2815277059
 20
157.7917595121
 30
0.0
 11
172.2815277059
 21
157.064932638
 31
0.0
  0
LINE
  5
1DB
330
1F
100
AcDbEntity
  8
0
  6
Continuous
 62
     7
370
    25
100
AcDbLine
 10
173.7815277059
 20
125.9274216416
 30
0.0
 11
173.7815277059
 21
158.3089262344
 31
0.0
  0
SPLINE
  5
1DC
330
1F
100
AcDbEntity
  8
0
  6
Continuous
 62
     7
370
    25
100
AcDbSpline
210
0.0
220
0.0
230
1.0
 70
     8
 71
     3
 72
     9
 73
     5
 74
     0
 42
0.00000001
 43
0.00000001
 40
0.0
 40
0.0
 40
0.0
 40
0.0
 40
0.4167058089676245
 40
1.0
 40
1.0
 40
1.0
 40
1.0
 10
165.4846735637101
 20
128.4245274176035
 30
0.0
 10
165.4809341841406
 20
128.3272324807907
 30
0.0
 10
165.471960516174
 20
128.0937465664624
 30
0.0
 10
165.4629713881227
 20
128.0314834548191
 30
0.0
 10
165.457728081948
 20
127.9951657434819
 30
0.0
  0
LINE
  5
1DD
330
1F
100
AcDbEntity
  8
0
  6
Continuous
 62
     7
370
    25
100
AcDbLine
 10
165.4538613812
 20
128.013724477
 30
0.0
 11
165.4506451516
 21
128.0291611895
 31
0.0
  0
LINE
  5
1DE
330
1F
100
AcDbEntity
  8
0
  6
Continuous
 62
     7
370
    25
100
AcDbLine
 10
165.0513040093
 20
156.5987312494
 30
0.0
 11
165.0480681103
 21
156.594407353
 31
0.0
  0
LINE
  5
1DF
330
1F
100
AcDbEntity
  8
0
  6
Continuous
 62
     7
370
    25
100
AcDbLine
 10
165.4170707983
 20
145.1341342019
 30
0.0
 11
172.6959846135
 21
145.1341342019
 31
0.0
  0
LINE
  5
1E0
330
1F
100
AcDbEntity
  8
0
  6
Continuous
 62
     7
370
    25
100
AcDbLine
 10
172.6959846135
 20
155.3411171057
 30
0.0
 11
165.4170707983
 21
155.3411171057
 31
0.0
  0
SPLINE
  5
1E1
330
1F
100
AcDbEntity
  8
0
  6
Continuous
 62
     7
370
    25
100
AcDbSpline
210
0.0
220
0.0
230
1.0
 70
     8
 71
     3
 72
    11
 73
     7
 74
     0
 42
0.00000001
 43
0.00000001
 40
0.0
 40
0.0
 40
0.0
 40
0.0
 40
0.2328716322111453
 40
0.4710265024313188
 40
0.731142121256027
 40
1.0
 40
1.0
 40
1.0
 40
1.0
 10
165.4170707982979
 20
145.1341342018681
 30
0.0
 10
165.1466740636251
 20
145.9082365778616
 30
0.0
 10
164.5997460114943
 20
147.4740036540224
 30
0.0
 10
164.2985216935107
 20
150.0094426213171
 30
0.0
 10
164.5061734589204
 20
152.6829487017863
 30
0.0
 10
165.1101112907006
 20
154.4453519858816
 30
0.0
 10
165.4170707982979
 20
155.3411171057433
 30
0.0
  0
LINE
  5
1E2
330
1F
100
AcDbEntity
  8
0
  6
Continuous
 62
     7
370
    25
100
AcDbLine
 10
181.5315277059
 20
136.8251256538
 30
0.0
 11
181.5315277059
 21
152.6876256538
 31
0.0
  0
LINE
  5
1E3
330
1F
100
AcDbEntity
  8
0
  6
Continuous
 62
     7
370
    25
100
AcDbLine
 10
181.5315277059
 20
131.5376256538
 30
0.0
 11
181.5315277059
 21
136.8251256538
 31
0.0
  0
LINE
  5
1E4
330
1F
100
AcDbEntity
  8
0
  6
Continuous
 62
     7
370
    25
100
AcDbLine
 10
165.2877940127
 20
156.7130058123
 30
0.0
 11
165.3005593691
 21
156.7120088257
 31
0.0
  0
LINE
  5
1E5
330
1F
100
AcDbEntity
  8
0
  6
Continuous
 62
     7
370
    25
100
AcDbLine
 10
172.2815277059
 20
142.8394525279
 30
0.0
 11
165.8315277059
 21
142.8394525279
 31
0.0
  0
SPLINE
  5
1E6
330
1F
100
AcDbEntity
  8
0
  6
Continuous
 62
     7
370
    25
100
AcDbSpline
210
0.0
220
0.0
230
1.0
 70
     8
 71
     3
 72
     9
 73
     5
 74
     0
 42
0.00000001
 43
0.00000001
 40
0.0
 40
0.0
 40
0.0
 40
0.0
 40
0.5841917497409203
 40
1.0
 40
1.0
 40
1.0
 40
1.0
 10
165.8315277058752
 20
142.8394525278769
 30
0.0
 10
165.8053597420546
 20
143.3198106534431
 30
0.0
 10
165.760566292246
 20
144.1420717103295
 30
0.0
 10
165.517951874732
 20
144.842775701394
 30
0.0
 10
165.4170707982979
 20
145.1341342018681
 30
0.0
  0
LINE
  5
1E7
330
1F
100
AcDbEntity
  8
0
  6
Continuous
 62
     7
370
    25
100
AcDbLine
 10
165.8315277059
 20
141.3857987797
 30
0.0
 11
172.2815277059
 21
141.3857987797
 31
0.0
  0
LINE
  5
1E8
330
1F
100
AcDbEntity
  8
0
  6
Continuous
 62
     7
370
    25
100
AcDbLine
 10
165.8315277059
 20
142.8394525279
 30
0.0
 11
165.8315277059
 21
141.3857987797
 31
0.0
  0
LINE
  5
1E9
330
1F
100
AcDbEntity
  8
0
  6
Continuous
 62
     7
370
    25
100
AcDbLine
 10
172.6959846135
 20
139.0911171057
 30
0.0
 11
165.4170707983
 21
139.0911171057
 31
0.0
  0
SPLINE
  5
1EA
330
1F
100
AcDbEntity
  8
0
  6
Continuous
 62
     7
370
    25
100
AcDbSpline
210
0.0
220
0.0
230
1.0
 70
     8
 71
     3
 72
     9
 73
     5
 74
     0
 42
0.00000001
 43
0.00000001
 40
0.0
 40
0.0
 40
0.0
 40
0.0
 40
0.5850553834536154
 40
1.0
 40
1.0
 40
1.0
 40
1.0
 10
165.4170707982979
 20
139.0911171057432
 30
0.0
 10
165.5536249323222
 20
139.5093620483457
 30
0.0
 10
165.7870287055142
 20
140.224242988563
 30
0.0
 10
165.8184779932394
 20
141.0451626044887
 30
0.0
 10
165.8315277058752
 20
141.3857987797344
 30
0.0
  0
LINE
  5
1EB
330
1F
100
AcDbEntity
  8
0
  6
Continuous
 62
     7
370
    25
100
AcDbLine
 10
165.4170707983
 20
128.8841342019
 30
0.0
 11
172.6959846135
 21
128.8841342019
 31
0.0
  0
SPLINE
  5
1EC
330
1F
100
AcDbEntity
  8
0
  6
Continuous
 62
     7
370
    25
100
AcDbSpline
210
0.0
220
0.0
230
1.0
 70
     8
 71
     3
 72
    11
 73
     7
 74
     0
 42
0.00000001
 43
0.00000001
 40
0.0
 40
0.0
 40
0.0
 40
0.0
 40
0.2379053903768115
 40
0.4814905141302429
 40
0.7366519444347656
 40
1.0
 40
1.0
 40
1.0
 40
1.0
 10
165.417070798298
 20
128.8841342018679
 30
0.0
 10
165.1414853633249
 20
129.6752174231787
 30
0.0
 10
164.5837351897715
 20
131.2762701204105
 30
0.0
 10
164.2971719651151
 20
133.8333419211945
 30
0.0
 10
164.5220523713132
 20
136.4870747870582
 30
0.0
 10
165.1156074882313
 20
138.2140142514603
 30
0.0
 10
165.4170707982979
 20
139.0911171057432
 30
0.0
  0
LINE
  5
1ED
330
1F
100
AcDbEntity
  8
0
  6
Continuous
 62
     7
370
    25
100
AcDbLine
 10
165.8315277059
 20
157.064932638
 30
0.0
 11
172.2815277059
 21
157.064932638
 31
0.0
  0
SPLINE
  5
1EE
330
1F
100
AcDbEntity
  8
0
  6
Continuous
 62
     7
370
    25
100
AcDbSpline
210
0.0
220
0.0
230
1.0
 70
     8
 71
     3
 72
     9
 73
     5
 74
     0
 42
0.00000001
 43
0.00000001
 40
0.0
 40
0.0
 40
0.0
 40
0.0
 40
0.5850553834536188
 40
1.0
 40
1.0
 40
1.0
 40
1.0
 10
165.4170707982979
 20
155.3411171057433
 30
0.0
 10
165.5536249323222
 20
155.7276636313071
 30
0.0
 10
165.7870287055141
 20
156.3883643726318
 30
0.0
 10
165.8184779932394
 20
156.8665232047575
 30
0.0
 10
165.8315277058752
 20
157.0649326380021
 30
0.0
  0
LINE
  5
1EF
330
1F
100
AcDbEntity
  8
0
  6
Continuous
 62
     7
370
    25
100
AcDbLine
 10
172.2815277059
 20
127.1603186696
 30
0.0
 11
165.8315277059
 21
127.1603186696
 31
0.0
  0
SPLINE
  5
1F0
330
1F
100
AcDbEntity
  8
0
  6
Continuous
 62
     7
370
    25
100
AcDbSpline
210
0.0
220
0.0
230
1.0
 70
     8
 71
     3
 72
     9
 73
     5
 74
     0
 42
0.00000001
 43
0.00000001
 40
0.0
 40
0.0
 40
0.0
 40
0.0
 40
0.5841917497409932
 40
1.0
 40
1.0
 40
1.0
 40
1.0
 10
165.8315277058752
 20
127.1603186696092
 30
0.0
 10
165.8053597420546
 20
127.4495945731089
 30
0.0
 10
165.760566292246
 20
127.9447674399424
 30
0.0
 10
165.517951874732
 20
128.6082518925535
 30
0.0
 10
165.417070798298
 20
128.8841342018679
 30
0.0
  0
LINE
  5
1F1
330
1F
100
AcDbEntity
  8
0
  6
Continuous
 62
     7
370
    25
100
AcDbLine
 10
172.2815277059
 20
157.7917595121
 30
0.0
 11
165.8315277059
 21
157.7917595121
 31
0.0
  0
LINE
  5
1F2
330
1F
100
AcDbEntity
  8
0
  6
Continuous
 62
     7
370
    25
100
AcDbLine
 10
165.8315277059
 20
157.7917595121
 30
0.0
 11
165.8315277059
 21
157.064932638
 31
0.0
  0
LINE
  5
1F3
330
1F
100
AcDbEntity
  8
0
  6
Continuous
 62
     7
370
    25
100
AcDbLine
 10
165.8315277059
 20
126.4334917955
 30
0.0
 11
172.2815277059
 21
126.4334917955
 31
0.0
  0
LINE
  5
1F4
330
1F
100
AcDbEntity
  8
0
  6
Continuous
 62
     7
370
    25
100
AcDbLine
 10
165.8315277059
 20
127.1603186696
 30
0.0
 11
165.8315277059
 21
126.4334917955
 31
0.0
  0
LINE
  5
1F5
330
1F
100
AcDbEntity
  8
0
  6
Continuous
 62
     7
370
    25
100
AcDbLine
 10
165.4170707983
 20
158.3626256538
 30
0.0
 11
172.6959846135
 21
158.3626256538
 31
0.0
  0
SPLINE
  5
1F6
330
1F
100
AcDbEntity
  8
0
  6
Continuous
 62
     7
370
    25
100
AcDbSpline
210
0.0
220
0.0
230
1.0
 70
     8
 71
     3
 72
     9
 73
     5
 74
     0
 42
0.00000001
 43
0.00000001
 40
0.0
 40
0.0
 40
0.0
 40
0.0
 40
0.5841917497409259
 40
1.0
 40
1.0
 40
1.0
 40
1.0
 10
165.8315277058752
 20
157.7917595120734
 30
0.0
 10
165.8053597420546
 20
157.9828417341399
 30
0.0
 10
165.760566292246
 20
158.3099299241927
 30
0.0
 10
165.517951874732
 20
158.3471494626459
 30
0.0
 10
165.4170707982979
 20
158.3626256538057
 30
0.0
  0
LINE
  5
1F7
330
1F
100
AcDbEntity
  8
0
  6
Continuous
 62
     7
370
    25
100
AcDbLine
 10
172.6959846135
 20
125.8626256538
 30
0.0
 11
165.4170707983
 21
125.8626256538
 31
0.0
  0
SPLINE
  5
1F8
330
1F
100
AcDbEntity
  8
0
  6
Continuous
 62
     7
370
    25
100
AcDbSpline
210
0.0
220
0.0
230
1.0
 70
     8
 71
     3
 72
     9
 73
     5
 74
     0
 42
0.00000001
 43
0.00000001
 40
0.0
 40
0.0
 40
0.0
 40
0.0
 40
0.5850553834536137
 40
1.0
 40
1.0
 40
1.0
 40
1.0
 10
165.4170707982979
 20
125.8626256538057
 30
0.0
 10
165.5536249323222
 20
125.8943240708443
 30
0.0
 10
165.7870287055141
 20
125.9485042697369
 30
0.0
 10
165.8184779932394
 20
126.2912650535369
 30
0.0
 10
165.8315277058752
 20
126.4334917955379
 30
0.0
  0
LWPOLYLINE
  5
1F9
330
1F
100
AcDbEntity
  8
0
  6
Continuous
 62
     8
370
    25
100
AcDbPolyline
 90
       18
 70
   128
 43
0.0
 10
125.2315277059
 20
37.0396375654
 10
125.3660402184
 20
37.5508990428
 10
125.7649970936
 20
38.0447501238
 10
126.4148123336
 20
38.5043733021
 10
127.2933572598
 20
38.9141166617
 10
128.3707140785
 20
39.2600268838
 10
129.6101946952
 20
39.5303244107
 10
130.9695900843
 20
39.7158045844
 10
132.4026076661
 20
39.8101511
 10
133.8604477456
 20
39.8101511
 10
135.2934653274
 20
39.7158045844
 10
136.6528607165
 20
39.5303244107
 10
137.8923413333
 20
39.2600268838
 10
138.9696981519
 20
38.9141166617
 10
139.8482430781
 20
38.5043733021
 10
140.4980583182
 20
38.0447501238
 10
140.8970151934
 20
37.5508990428
 10
141.0315277059
 20
37.0396375654
  0
LWPOLYLINE
  5
1FA
330
1F
100
AcDbEntity
  8
0
  6
Continuous
 62
     8
370
    25
100
AcDbPolyline
 90
       18
 70
   128
 43
0.0
 10
125.2315277059
 20
119.4396375654
 10
125.3660402184
 20
119.9508990428
 10
125.7649970936
 20
120.4447501238
 10
126.4148123336
 20
120.9043733021
 10
127.2933572598
 20
121.3141166617
 10
128.3707140785
 20
121.6600268838
 10
129.6101946952
 20
121.9303244107
 10
130.9695900843
 20
122.1158045844
 10
132.4026076661
 20
122.2101511
 10
133.8604477456
 20
122.2101511
 10
135.2934653274
 20
122.1158045844
 10
136.6528607165
 20
121.9303244107
 10
137.8923413333
 20
121.6600268838
 10
138.9696981519
 20
121.3141166617
 10
139.8482430781
 20
120.9043733021
 10
140.4980583182
 20
120.4447501238
 10
140.8970151934
 20
119.9508990428
 10
141.0315277059
 20
119.4396375654
  0
ARC
  5
1FB
330
1F
100
AcDbEntity
  8
0
  6
Continuous
 62
     8
370
    25
100
AcDbCircle
 10
133.1315277059
 20
-10.2873743462
 30
0.0
 40
8.41047229201953
100
AcDbArc
 50
159.9351921799
 51
270.0
  0
ARC
  5
1FC
330
1F
100
AcDbEntity
  8
0
  6
Continuous
 62
     8
370
    25
100
AcDbCircle
 10
133.1315277059
 20
-10.2873743462
 30
0.0
 40
8.410472292019545
100
AcDbArc
 50
270.0
 51
20.0648078201
  0
LINE
  5
1FD
330
1F
100
AcDbEntity
  8
0
  6
Continuous
 62
     8
370
    25
100
AcDbLine
 10
125.0722938586
 20
134.5382646267
 30
0.0
 11
125.2315277059
 21
134.3723288136
 31
0.0
  0
ARC
  5
1FE
330
1F
100
AcDbEntity
  8
0
  6
Continuous
 62
     8
370
    25
100
AcDbCircle
 10
133.1315277059
 20
142.1126256538
 30
0.0
 40
11.05993649053893
100
AcDbArc
 50
315.5850271977
 51
223.2235523034
  0
ARC
  5
1FF
330
1F
100
AcDbEntity
  8
0
  6
Continuous
 62
     8
370
    25
100
AcDbCircle
 10
133.1315277059
 20
142.1126256538
 30
0.0
 40
11.30993649053891
100
AcDbArc
 50
314.3068486059
 51
225.6931513941
  0
LINE
  5
200
330
1F
100
AcDbEntity
  8
0
  6
Continuous
 62
     8
370
    25
100
AcDbLine
 10
141.0315277059
 20
129.7468893439
 30
0.0
 11
141.2887865645
 21
129.8535574627
 31
0.0
  0
ARC
  5
201
330
1F
100
AcDbEntity
  8
0
  6
Continuous
 62
     8
370
    25
100
AcDbCircle
 10
124.974037199
 20
130.1975714284
 30
0.0
 40
0.3529502268461007
100
AcDbArc
 50
279.5385256861
 51
316.8476542185
  0
ARC
  5
202
330
1F
100
AcDbEntity
  8
0
  6
Continuous
 62
     8
370
    25
100
AcDbCircle
 10
133.1315277059
 20
142.1126256538
 30
0.0
 40
9.374999999999972
100
AcDbArc
 50
327.4227936768
 51
212.5772063232
  0
ARC
  5
203
330
1F
100
AcDbEntity
  8
0
  6
Continuous
 62
     8
370
    25
100
AcDbCircle
 10
140.0750419571
 20
121.4017459392
 30
0.0
 40
7.943655242544084
100
AcDbArc
 50
57.337317599
 51
83.0843056245
  0
ARC
  5
204
330
1F
100
AcDbEntity
  8
0
  6
Continuous
 62
     8
370
    25
100
AcDbCircle
 10
140.2086089988
 20
162.5022265542
 30
0.0
 40
7.60134192156804
100
AcDbArc
 50
272.8159102746
 51
303.1220773789
  0
SPLINE
  5
205
330
1F
100
AcDbEntity
  8
0
  6
Continuous
 62
     8
370
    25
100
AcDbSpline
210
0.0
220
0.0
230
1.0
 70
     8
 71
     3
 72
    12
 73
     8
 74
     0
 42
0.00000001
 43
0.00000001
 40
0.0
 40
0.0
 40
0.0
 40
0.0
 40
0.1924082105681739
 40
0.4135492548068708
 40
0.6381901448204661
 40
0.8686791278218468
 40
1.0
 40
1.0
 40
1.0
 40
1.0
 10
147.1219694934474
 20
158.3015783026293
 30
0.0
 10
147.071862509833
 20
158.2880446633183
 30
0.0
 10
146.9641659324721
 20
158.2589563700724
 30
0.0
 10
146.5401173754596
 20
157.9269561794687
 30
0.0
 10
145.8901780557806
 20
157.3802367704218
 30
0.0
 10
145.1410146981845
 20
156.7481631303796
 30
0.0
 10
144.5695766497051
 20
156.2990486938238
 30
0.0
 10
144.3621700745445
 20
156.1360401447972
 30
0.0
  0
SPLINE
  5
206
330
1F
100
AcDbEntity
  8
0
  6
Continuous
 62
     8
370
    25
100
AcDbSpline
210
0.0
220
0.0
230
1.0
 70
     8
 71
     3
 72
    12
 73
     8
 74
     0
 42
0.00000001
 43
0.00000001
 40
0.0
 40
0.0
 40
0.0
 40
0.0
 40
0.2298983238880673
 40
0.46580431102087
 40
0.6969655693638132
 40
0.9348948514667818
 40
0.9999999999999999
 40
0.9999999999999999
 40
0.9999999999999999
 40
0.9999999999999999
 10
144.3621700745445
 20
128.0892111628141
 30
0.0
 10
144.7167941272959
 20
127.8072548029192
 30
0.0
 10
145.4353092072218
 20
127.2359740482898
 30
0.0
 10
146.2210117886008
 20
126.5630834731812
 30
0.0
 10
146.7917290944779
 20
126.0954813742917
 30
0.0
 10
147.0512377344255
 20
125.9209709081632
 30
0.0
 10
147.1148188332119
 20
125.9171903982986
 30
0.0
 10
147.1284788548527
 20
125.9163781781962
 30
0.0
  0
ARC
  5
207
330
1F
100
AcDbEntity
  8
0
  6
Continuous
 62
     8
370
    25
100
AcDbCircle
 10
133.1315277059
 20
142.1126256538
 30
0.0
 40
16.86443661971834
100
AcDbArc
 50
67.4212070912
 51
242.0668292396
  0
LINE
  5
208
330
1F
100
AcDbEntity
  8
0
  6
Continuous
 62
     8
370
    25
100
AcDbLine
 10
139.1509490271
 20
156.5884563369
 30
0.0
 11
139.6066886093
 21
157.684443588
 31
0.0
  0
ARC
  5
209
330
1F
100
AcDbEntity
  8
0
  6
Continuous
 62
     8
370
    25
100
AcDbCircle
 10
147.2162316438
 20
111.3023114917
 30
0.0
 40
17.02779104902329
100
AcDbArc
 50
99.6490027568
 51
111.2976087729
  0
ARC
  5
20A
330
1F
100
AcDbEntity
  8
0
  6
Continuous
 62
     8
370
    25
100
AcDbCircle
 10
133.1315277059
 20
142.1126256538
 30
0.0
 40
24.76305823079826
100
AcDbArc
 50
288.6038866725
 51
319.140960131
  0
ARC
  5
20B
330
1F
100
AcDbEntity
  8
0
  6
Continuous
 62
     8
370
    25
100
AcDbCircle
 10
133.1315277059
 20
142.1126256538
 30
0.0
 40
24.76305823079825
100
AcDbArc
 50
40.859039869
 51
251.3961133275
  0
LINE
  5
20C
330
1F
100
AcDbEntity
  8
0
  6
Continuous
 62
     8
370
    25
100
AcDbLine
 10
206.869571663
 20
133.9670343081
 30
0.0
 11
206.869571663
 21
133.1369676096
 31
0.0
  0
LINE
  5
20D
330
1F
100
AcDbEntity
  8
0
  6
Continuous
 62
     8
370
    25
100
AcDbLine
 10
205.9361514491
 20
151.1045766085
 30
0.0
 11
205.9361514491
 21
150.2686230703
 31
0.0
  0
LINE
  5
20E
330
1F
100
AcDbEntity
  8
0
  6
Continuous
 62
     8
370
    25
100
AcDbLine
 10
211.2402539091
 20
133.213258152
 30
0.0
 11
211.2402539091
 21
151.0119931556
 31
0.0
  0
ARC
  5
20F
330
1F
100
AcDbEntity
  8
0
  6
Continuous
 62
     8
370
    25
100
AcDbCircle
 10
201.3964067455
 20
151.7463817963
 30
0.0
 40
1.99707247967724
100
AcDbArc
 50
20.8716214639
 51
89.425453243
  0
SPLINE
  5
210
330
1F
100
AcDbEntity
  8
0
  6
Continuous
 62
     8
370
    25
100
AcDbSpline
210
0.0
220
0.0
230
1.0
 70
     8
 71
     3
 72
    11
 73
     7
 74
     0
 42
0.00000001
 43
0.00000001
 40
0.0
 40
0.0
 40
0.0
 40
0.0
 40
0.2712378730599509
 40
0.8558922174280369
 40
0.8591593821139398
 40
1.0
 40
1.0
 40
1.0
 40
1.0
 10
204.6595192867304
 20
151.4311322548762
 30
0.0
 10
204.7656102225561
 20
151.3733339616938
 30
0.0
 10
205.100380604319
 20
151.1909512112418
 30
0.0
 10
205.4716279308984
 20
150.799582852904
 30
0.0
 10
205.7820066058711
 20
150.4253897245414
 30
0.0
 10
205.843509140577
 20
150.3464045548354
 30
0.0
 10
205.9036173098579
 20
150.2692101111581
 30
0.0
  0
SPLINE
  5
211
330
1F
100
AcDbEntity
  8
0
  6
Continuous
 62
     8
370
    25
100
AcDbSpline
210
0.0
220
0.0
230
1.0
 70
     8
 71
     3
 72
     9
 73
     5
 74
     0
 42
0.00000001
 43
0.00000001
 40
0.0
 40
0.0
 40
0.0
 40
0.0
 40
0.353471304687639
 40
1.0
 40
1.0
 40
1.0
 40
1.0
 10
206.8249653298414
 20
133.9662276909853
 30
0.0
 10
206.6328665518007
 20
133.772903805382
 30
0.0
 10
206.0894029792473
 20
133.2259743006684
 30
0.0
 10
205.5698241120884
 20
132.9221033908283
 30
0.0
 10
205.2339014649922
 20
132.7256421279459
 30
0.0
  0
ARC
  5
212
330
1F
100
AcDbEntity
  8
0
  6
Continuous
 62
     8
370
    25
100
AcDbCircle
 10
201.5019764567
 20
132.3716906797
 30
0.0
 40
1.93594585496595
100
AcDbArc
 50
269.1353354526
 51
335.1540321835
  0
ARC
  5
213
330
1F
100
AcDbEntity
  8
0
  6
Continuous
 62
     8
370
    25
100
AcDbCircle
 10
201.3962579184
 20
151.7944810729
 30
0.0
 40
1.99586550450565
100
AcDbArc
 50
19.2726755477
 51
89.4208331484
  0
LINE
  5
214
330
1F
100
AcDbEntity
  8
0
  6
Continuous
 62
     8
370
    25
100
AcDbLine
 10
197.3902539091
 20
154.0844391161
 30
0.0
 11
197.3902539091
 21
153.858759567
 31
0.0
  0
LINE
  5
215
330
1F
100
AcDbEntity
  8
0
  6
Continuous
 62
     8
370
    25
100
AcDbLine
 10
197.3902539091
 20
130.3664917406
 30
0.0
 11
197.3902539091
 21
130.1408121915
 31
0.0
  0
LINE
  5
216
330
1F
100
AcDbEntity
  8
0
  6
Continuous
 62
     8
370
    25
100
AcDbLine
 10
201.4164325187
 20
153.7902446104
 30
0.0
 11
201.4164325187
 21
154.0141619071
 31
0.0
  0
LINE
  5
217
330
1F
100
AcDbEntity
  8
0
  6
Continuous
 62
     8
370
    25
100
AcDbLine
 10
201.4164325187
 20
130.2110894005
 30
0.0
 11
201.4164325187
 21
130.2276782069
 31
0.0
  0
ARC
  5
218
330
1F
100
AcDbEntity
  8
0
  6
Continuous
 62
     8
370
    25
100
AcDbCircle
 10
201.3824677555
 20
132.2275535508
 30
0.0
 40
2.000163742340882
100
AcDbArc
 50
270.972985901
 51
333.0935829295
  0
LINE
  5
219
330
1F
100
AcDbEntity
  8
0
  6
Continuous
 62
     8
370
    25
100
AcDbLine
 10
213.3365326954
 20
136.1874978826
 30
0.0
 11
213.3365326954
 21
148.037753425
 31
0.0
  0
ENDSEC
  0
SECTION
  2
OBJECTS
  0
DICTIONARY
  5
C
330
0
100
AcDbDictionary
281
     1
  3
ACAD_GROUP
350
D
  3
ACAD_LAYOUT
350
1A
  3
ACAD_MLINESTYLE
350
17
  3
ACAD_PLOTSETTINGS
350
19
  3
ACAD_PLOTSTYLENAME
350
E
  3
ACAD_SCALELIST
350
47
  3
DWGPROPS
350
21A
  0
DICTIONARY
  5
D
102
{ACAD_REACTORS
330
C
102
}
330
C
100
AcDbDictionary
281
     1
  0
DICTIONARY
  5
1A
102
{ACAD_REACTORS
330
C
102
}
330
C
100
AcDbDictionary
281
     1
  3
Layout1
350
1E
  3
Layout2
350
26
  3
Model
350
22
  0
DICTIONARY
  5
17
102
{ACAD_REACTORS
330
C
102
}
330
C
100
AcDbDictionary
281
     1
  3
Standard
350
18
  0
DICTIONARY
  5
19
102
{ACAD_REACTORS
330
C
102
}
330
C
100
AcDbDictionary
281
     1
  0
ACDBDICTIONARYWDFLT
  5
E
102
{ACAD_REACTORS
330
C
102
}
330
C
100
AcDbDictionary
281
     1
  3
Normal
350
F
100
AcDbDictionaryWithDefault
340
F
  0
DICTIONARY
  5
47
102
{ACAD_REACTORS
330
C
102
}
330
C
100
AcDbDictionary
281
     1
  3
A0
350
48
  3
A1
350
49
  3
A2
350
4A
  3
A3
350
4B
  3
A4
350
4C
  3
A5
350
4D
  3
A6
350
4E
  3
A7
350
4F
  3
A8
350
50
  3
A9
350
51
  3
B0
350
52
  3
B1
350
53
  3
B2
350
54
  3
B3
350
55
  3
B4
350
56
  3
B5
350
57
  3
B6
350
58
  3
B7
350
59
  3
B8
350
5A
  3
B9
350
5B
  3
C0
350
5C
  3
C1
350
5D
  3
C2
350
5E
  3
C3
350
5F
  3
C4
350
60
  3
C5
350
61
  3
C6
350
62
  3
C7
350
63
  3
C8
350
64
  3
C9
350
65
  3
D0
350
66
  3
D1
350
67
  3
D2
350
68
  0
XRECORD
  5
21A
102
{ACAD_REACTORS
330
C
102
}
330
C
100
AcDbXrecord
280
     1
  1
DWGPROPS COOKIE
  2

  3

  4

  6

  7

  8
DS-1
  9

300
=
301
=
302
=
303
=
304
=
305
=
306
=
307
=
308
=
309
=
 40
0.0
 41
2460383.511886864
 42
2460383.511887407
  1

 90
        0
  0
LAYOUT
  5
1E
102
{ACAD_REACTORS
330
1A
102
}
330
1A
100
AcDbPlotSettings
  1

  2
none_device
  4

  6

 40
0.0
 41
0.0
 42
0.0
 43
0.0
 44
0.0
 45
0.0
 46
0.0
 47
0.0
 48
0.0
 49
0.0
140
0.0
141
0.0
142
1.0
143
1.0
 70
   688
 72
     1
 73
     0
 74
     5
  7

 75
    16
147
1.0
148
0.0
149
0.0
100
AcDbLayout
  1
Layout1
 70
     1
 71
     1
 10
0.0
 20
0.0
 11
420.0
 21
297.0
 12
0.0
 22
0.0
 32
0.0
 14
1.0000000000E+20
 24
1.0000000000E+20
 34
1.0000000000E+20
 15
-1.0000000000E+20
 25
-1.0000000000E+20
 35
-1.0000000000E+20
146
0.0
 13
0.0
 23
0.0
 33
0.0
 16
1.0
 26
0.0
 36
0.0
 17
0.0
 27
1.0
 37
0.0
 76
     0
330
1B
  0
LAYOUT
  5
26
102
{ACAD_REACTORS
330
1A
102
}
330
1A
100
AcDbPlotSettings
  1

  2
none_device
  4

  6

 40
0.0
 41
0.0
 42
0.0
 43
0.0
 44
0.0
 45
0.0
 46
0.0
 47
0.0
 48
0.0
 49
0.0
140
0.0
141
0.0
142
1.0
143
1.0
 70
   688
 72
     1
 73
     0
 74
     5
  7

 75
    16
147
1.0
148
0.0
149
0.0
100
AcDbLayout
  1
Layout2
 70
     1
 71
     2
 10
0.0
 20
0.0
 11
0.0
 21
0.0
 12
0.0
 22
0.0
 32
0.0
 14
0.0
 24
0.0
 34
0.0
 15
0.0
 25
0.0
 35
0.0
146
0.0
 13
0.0
 23
0.0
 33
0.0
 16
1.0
 26
0.0
 36
0.0
 17
0.0
 27
1.0
 37
0.0
 76
     0
330
23
  0
LAYOUT
  5
22
102
{ACAD_REACTORS
330
1A
102
}
330
1A
100
AcDbPlotSettings
  1

  2
none_device
  4
Letter_(8.50_x_11.00_Inches)
  6

 40
6.35
 41
6.35
 42
6.35000508
 43
6.35000508
 44
215.9
 45
279.4
 46
0.0
 47
0.0
 48
0.0
 49
0.0
140
0.0
141
0.0
142
1.0
143
1.0
 70
  1712
 72
     1
 73
     0
 74
     0
  7

 75
     0
147
1.0
148
0.0
149
0.0
100
AcDbLayout
  1
Model
 70
     1
 71
     0
 10
0.0
 20
0.0
 11
279.4
 21
215.9
 12
0.0
 22
0.0
 32
0.0
 14
0.0
 24
0.0
 34
0.0
 15
279.4
 25
215.9
 35
0.0
146
0.0
 13
0.0
 23
0.0
 33
0.0
 16
1.0
 26
0.0
 36
0.0
 17
0.0
 27
1.0
 37
0.0
 76
     0
330
1F
331
29
  0
MLINESTYLE
  5
18
102
{ACAD_REACTORS
330
17
102
}
330
17
100
AcDbMlineStyle
  2
Standard
 70
     0
  3

 62
   256
 51
90.0
 52
90.0
 71
     2
 49
0.5
 62
   256
  6
BYLAYER
 49
-0.5
 62
   256
  6
BYLAYER
  0
ACDBPLACEHOLDER
  5
F
102
{ACAD_REACTORS
330
E
102
}
330
E
  0
SCALE
  5
48
102
{ACAD_REACTORS
330
47
102
}
330
47
100
AcDbScale
 70
     0
300
1:1
140
1.0
141
1.0
290
     1
  0
SCALE
  5
49
102
{ACAD_REACTORS
330
47
102
}
330
47
100
AcDbScale
 70
     0
300
1:2
140
1.0
141
2.0
290
     0
  0
SCALE
  5
4A
102
{ACAD_REACTORS
330
47
102
}
330
47
100
AcDbScale
 70
     0
300
1:4
140
1.0
141
4.0
290
     0
  0
SCALE
  5
4B
102
{ACAD_REACTORS
330
47
102
}
330
47
100
AcDbScale
 70
     0
300
1:5
140
1.0
141
5.0
290
     0
  0
SCALE
  5
4C
102
{ACAD_REACTORS
330
47
102
}
330
47
100
AcDbScale
 70
     0
300
1:8
140
1.0
141
8.0
290
     0
  0
SCALE
  5
4D
102
{ACAD_REACTORS
330
47
102
}
330
47
100
AcDbScale
 70
     0
300
1:10
140
1.0
141
10.0
290
     0
  0
SCALE
  5
4E
102
{ACAD_REACTORS
330
47
102
}
330
47
100
AcDbScale
 70
     0
300
1:16
140
1.0
141
16.0
290
     0
  0
SCALE
  5
4F
102
{ACAD_REACTORS
330
47
102
}
330
47
100
AcDbScale
 70
     0
300
1:20
140
1.0
141
20.0
290
     0
  0
SCALE
  5
50
102
{ACAD_REACTORS
330
47
102
}
330
47
100
AcDbScale
 70
     0
300
1:30
140
1.0
141
30.0
290
     0
  0
SCALE
  5
51
102
{ACAD_REACTORS
330
47
102
}
330
47
100
AcDbScale
 70
     0
300
1:40
140
1.0
141
40.0
290
     0
  0
SCALE
  5
52
102
{ACAD_REACTORS
330
47
102
}
330
47
100
AcDbScale
 70
     0
300
1:50
140
1.0
141
50.0
290
     0
  0
SCALE
  5
53
102
{ACAD_REACTORS
330
47
102
}
330
47
100
AcDbScale
 70
     0
300
1:100
140
1.0
141
100.0
290
     0
  0
SCALE
  5
54
102
{ACAD_REACTORS
330
47
102
}
330
47
100
AcDbScale
 70
     0
300
2:1
140
2.0
141
1.0
290
     0
  0
SCALE
  5
55
102
{ACAD_REACTORS
330
47
102
}
330
47
100
AcDbScale
 70
     0
300
4:1
140
4.0
141
1.0
290
     0
  0
SCALE
  5
56
102
{ACAD_REACTORS
330
47
102
}
330
47
100
AcDbScale
 70
     0
300
8:1
140
8.0
141
1.0
290
     0
  0
SCALE
  5
57
102
{ACAD_REACTORS
330
47
102
}
330
47
100
AcDbScale
 70
     0
300
10:1
140
10.0
141
1.0
290
     0
  0
SCALE
  5
58
102
{ACAD_REACTORS
330
47
102
}
330
47
100
AcDbScale
 70
     0
300
100:1
140
100.0
141
1.0
290
     0
  0
SCALE
  5
59
102
{ACAD_REACTORS
330
47
102
}
330
47
100
AcDbScale
 70
     0
300
1/128" = 1'-0"
140
0.0078125
141
12.0
290
     0
  0
SCALE
  5
5A
102
{ACAD_REACTORS
330
47
102
}
330
47
100
AcDbScale
 70
     0
300
1/64" = 1'-0"
140
0.015625
141
12.0
290
     0
  0
SCALE
  5
5B
102
{ACAD_REACTORS
330
47
102
}
330
47
100
AcDbScale
 70
     0
300
1/32" = 1'-0"
140
0.03125
141
12.0
290
     0
  0
SCALE
  5
5C
102
{ACAD_REACTORS
330
47
102
}
330
47
100
AcDbScale
 70
     0
300
1/16" = 1'-0"
140
0.0625
141
12.0
290
     0
  0
SCALE
  5
5D
102
{ACAD_REACTORS
330
47
102
}
330
47
100
AcDbScale
 70
     0
300
3/32" = 1'-0"
140
0.09375
141
12.0
290
     0
  0
SCALE
  5
5E
102
{ACAD_REACTORS
330
47
102
}
330
47
100
AcDbScale
 70
     0
300
1/8" = 1'-0"
140
0.125
141
12.0
290
     0
  0
SCALE
  5
5F
102
{ACAD_REACTORS
330
47
102
}
330
47
100
AcDbScale
 70
     0
300
3/16" = 1'-0"
140
0.1875
141
12.0
290
     0
  0
SCALE
  5
60
102
{ACAD_REACTORS
330
47
102
}
330
47
100
AcDbScale
 70
     0
300
1/4" = 1'-0"
140
0.25
141
12.0
290
     0
  0
SCALE
  5
61
102
{ACAD_REACTORS
330
47
102
}
330
47
100
AcDbScale
 70
     0
300
3/8" = 1'-0"
140
0.375
141
12.0
290
     0
  0
SCALE
  5
62
102
{ACAD_REACTORS
330
47
102
}
330
47
100
AcDbScale
 70
     0
300
1/2" = 1'-0"
140
0.5
141
12.0
290
     0
  0
SCALE
  5
63
102
{ACAD_REACTORS
330
47
102
}
330
47
100
AcDbScale
 70
     0
300
3/4" = 1'-0"
140
0.75
141
12.0
290
     0
  0
SCALE
  5
64
102
{ACAD_REACTORS
330
47
102
}
330
47
100
AcDbScale
 70
     0
300
1" = 1'-0"
140
1.0
141
12.0
290
     0
  0
SCALE
  5
65
102
{ACAD_REACTORS
330
47
102
}
330
47
100
AcDbScale
 70
     0
300
1-1/2" = 1'-0"
140
1.5
141
12.0
290
     0
  0
SCALE
  5
66
102
{ACAD_REACTORS
330
47
102
}
330
47
100
AcDbScale
 70
     0
300
3" = 1'-0"
140
3.0
141
12.0
290
     0
  0
SCALE
  5
67
102
{ACAD_REACTORS
330
47
102
}
330
47
100
AcDbScale
 70
     0
300
6" = 1'-0"
140
6.0
141
12.0
290
     0
  0
SCALE
  5
68
102
{ACAD_REACTORS
330
47
102
}
330
47
100
AcDbScale
 70
     0
300
1'-0" = 1'-0"
140
12.0
141
12.0
290
     0
  0
ENDSEC
  0
EOF
