  0
SECTION
  2
HEADER
  9
$ACADVER
  1
AC1015
  9
$ACADMAINTVER
 70
     6
  9
$DWGCODEPAGE
  3
ANSI_1252
  9
$INSBASE
 10
0.0
 20
0.0
 30
0.0
  9
$EXTMIN
 10
0.0
 20
0.0
 30
0.0
  9
$EXTMAX
 10
279.4
 20
215.9
 30
0.0
  9
$LIMMIN
 10
0.0
 20
0.0
  9
$LIMMAX
 10
279.4
 20
215.9
  9
$ORTHOMODE
 70
     0
  9
$REGENMODE
 70
     1
  9
$FILLMODE
 70
     1
  9
$QTEXTMODE
 70
     0
  9
$MIRRTEXT
 70
     1
  9
$LTSCALE
 40
1.0
  9
$ATTMODE
 70
     1
  9
$TEXTSIZE
 40
3.5277777778
  9
$TRACEWID
 40
1.0
  9
$TEXTSTYLE
  7
Standard
  9
$CLAYER
  8
0
  9
$CELTYPE
  6
ByLayer
  9
$CECOLOR
 62
   256
  9
$CELTSCALE
 40
1.0
  9
$DISPSILH
 70
     0
  9
$DIMSCALE
 40
1.0
  9
$DIMASZ
 40
3.556
  9
$DIMEXO
 40
1.0
  9
$DIMDLI
 40
3.75
  9
$DIMRND
 40
0.0
  9
$DIMDLE
 40
0.0
  9
$DIMEXE
 40
1.0
  9
$DIMTP
 40
0.0
  9
$DIMTM
 40
0.0
  9
$DIMTXT
 40
3.5277777778
  9
$DIMCEN
 40
2.5
  9
$DIMTSZ
 40
0.0
  9
$DIMTOL
 70
     0
  9
$DIMLIM
 70
     0
  9
$DIMTIH
 70
     1
  9
$DIMTOH
 70
     1
  9
$DIMSE1
 70
     0
  9
$DIMSE2
 70
     0
  9
$DIMTAD
 70
     1
  9
$DIMZIN
 70
     0
  9
$DIMBLK
  1

  9
$DIMASO
 70
     1
  9
$DIMSHO
 70
     1
  9
$DIMPOST
  1

  9
$DIMAPOST
  1

  9
$DIMALT
 70
     0
  9
$DIMALTD
 70
     3
  9
$DIMALTF
 40
0.0393700787
  9
$DIMLFAC
 40
2.0
  9
$DIMTOFL
 70
     1
  9
$DIMTVP
 40
0.0
  9
$DIMTIX
 70
     0
  9
$DIMSOXD
 70
     0
  9
$DIMSAH
 70
     0
  9
$DIMBLK1
  1

  9
$DIMBLK2
  1

  9
$DIMSTYLE
  2
ISO-25
  9
$DIMCLRD
 70
     0
  9
$DIMCLRE
 70
     0
  9
$DIMCLRT
 70
     0
  9
$DIMTFAC
 40
1.0
  9
$DIMGAP
 40
1.524
  9
$DIMJUST
 70
     0
  9
$DIMSD1
 70
     0
  9
$DIMSD2
 70
     0
  9
$DIMTOLJ
 70
     0
  9
$DIMTZIN
 70
     0
  9
$DIMALTZ
 70
     0
  9
$DIMALTTZ
 70
     0
  9
$DIMUPT
 70
     0
  9
$DIMDEC
 70
     2
  9
$DIMTDEC
 70
     2
  9
$DIMALTU
 70
     2
  9
$DIMALTTD
 70
     3
  9
$DIMTXSTY
  7
Standard
  9
$DIMAUNIT
 70
     0
  9
$DIMADEC
 70
     2
  9
$DIMALTRND
 40
0.0
  9
$DIMAZIN
 70
     0
  9
$DIMDSEP
 70
    44
  9
$DIMATFIT
 70
     3
  9
$DIMFRAC
 70
     0
  9
$DIMLDRBLK
  1

  9
$DIMLUNIT
 70
     2
  9
$DIMLWD
 70
    -2
  9
$DIMLWE
 70
    -2
  9
$DIMTMOVE
 70
     0
  9
$LUNITS
 70
     2
  9
$LUPREC
 70
     2
  9
$SKETCHINC
 40
1.0
  9
$FILLETRAD
 40
10.0
  9
$AUNITS
 70
     0
  9
$AUPREC
 70
     2
  9
$MENU
  1
.
  9
$ELEVATION
 40
0.0
  9
$PELEVATION
 40
0.0
  9
$THICKNESS
 40
0.0
  9
$LIMCHECK
 70
     0
  9
$CHAMFERA
 40
0.0
  9
$CHAMFERB
 40
0.0
  9
$CHAMFERC
 40
0.0
  9
$CHAMFERD
 40
0.0
  9
$SKPOLY
 70
     0
  9
$TDCREATE
 40
2460383.742212049
  9
$TDUCREATE
 40
2460383.513045382
  9
$TDUPDATE
 40
2460383.742212512
  9
$TDUUPDATE
 40
2460383.513045845
  9
$TDINDWG
 40
0.0000000116
  9
$TDUSRTIMER
 40
0.0000000116
  9
$USRTIMER
 70
     1
  9
$ANGBASE
 50
0.0
  9
$ANGDIR
 70
     0
  9
$PDMODE
 70
     0
  9
$PDSIZE
 40
-1.0
  9
$PLINEWID
 40
0.0
  9
$SPLFRAME
 70
     0
  9
$SPLINETYPE
 70
     6
  9
$SPLINESEGS
 70
     8
  9
$HANDSEED
  5
230
  9
$SURFTAB1
 70
     6
  9
$SURFTAB2
 70
     6
  9
$SURFTYPE
 70
     6
  9
$SURFU
 70
     6
  9
$SURFV
 70
     6
  9
$UCSBASE
  2

  9
$UCSNAME
  2

  9
$UCSORG
 10
0.0
 20
0.0
 30
0.0
  9
$UCSXDIR
 10
1.0
 20
0.0
 30
0.0
  9
$UCSYDIR
 10
0.0
 20
1.0
 30
0.0
  9
$UCSORTHOREF
  2

  9
$UCSORTHOVIEW
 70
     0
  9
$UCSORGTOP
 10
0.0
 20
0.0
 30
0.0
  9
$UCSORGBOTTOM
 10
0.0
 20
0.0
 30
0.0
  9
$UCSORGLEFT
 10
0.0
 20
0.0
 30
0.0
  9
$UCSORGRIGHT
 10
0.0
 20
0.0
 30
0.0
  9
$UCSORGFRONT
 10
0.0
 20
0.0
 30
0.0
  9
$UCSORGBACK
 10
0.0
 20
0.0
 30
0.0
  9
$PUCSBASE
  2

  9
$PUCSNAME
  2

  9
$PUCSORG
 10
0.0
 20
0.0
 30
0.0
  9
$PUCSXDIR
 10
1.0
 20
0.0
 30
0.0
  9
$PUCSYDIR
 10
0.0
 20
1.0
 30
0.0
  9
$PUCSORTHOREF
  2

  9
$PUCSORTHOVIEW
 70
     0
  9
$PUCSORGTOP
 10
0.0
 20
0.0
 30
0.0
  9
$PUCSORGBOTTOM
 10
0.0
 20
0.0
 30
0.0
  9
$PUCSORGLEFT
 10
0.0
 20
0.0
 30
0.0
  9
$PUCSORGRIGHT
 10
0.0
 20
0.0
 30
0.0
  9
$PUCSORGFRONT
 10
0.0
 20
0.0
 30
0.0
  9
$PUCSORGBACK
 10
0.0
 20
0.0
 30
0.0
  9
$USERI1
 70
     0
  9
$USERI2
 70
     0
  9
$USERI3
 70
     0
  9
$USERI4
 70
     0
  9
$USERI5
 70
     0
  9
$USERR1
 40
0.0
  9
$USERR2
 40
0.0
  9
$USERR3
 40
0.0
  9
$USERR4
 40
0.0
  9
$USERR5
 40
0.0
  9
$WORLDVIEW
 70
     1
  9
$SHADEDGE
 70
     3
  9
$SHADEDIF
 70
    70
  9
$TILEMODE
 70
     1
  9
$MAXACTVP
 70
    64
  9
$PINSBASE
 10
0.0
 20
0.0
 30
0.0
  9
$PLIMCHECK
 70
     0
  9
$PEXTMIN
 10
1.0000000000E+20
 20
1.0000000000E+20
 30
1.0000000000E+20
  9
$PEXTMAX
 10
-1.0000000000E+20
 20
-1.0000000000E+20
 30
-1.0000000000E+20
  9
$PLIMMIN
 10
0.0
 20
0.0
  9
$PLIMMAX
 10
420.0
 20
297.0
  9
$UNITMODE
 70
     0
  9
$VISRETAIN
 70
     1
  9
$PLINEGEN
 70
     0
  9
$PSLTSCALE
 70
     1
  9
$TREEDEPTH
 70
  3020
  9
$CMLSTYLE
  2
Standard
  9
$CMLJUST
 70
     0
  9
$CMLSCALE
 40
20.0
  9
$PROXYGRAPHICS
 70
     1
  9
$MEASUREMENT
 70
     1
  9
$CELWEIGHT
370
    -1
  9
$ENDCAPS
280
     0
  9
$JOINSTYLE
280
     0
  9
$LWDISPLAY
290
     1
  9
$INSUNITS
 70
     4
  9
$HYPERLINKBASE
  1

  9
$STYLESHEET
  1

  9
$XEDIT
290
     1
  9
$CEPSNTYPE
380
     0
  9
$PSTYLEMODE
290
     1
  9
$FINGERPRINTGUID
  2
{626b5ca8-9b64-48d1-a3e0-b6c5cf221416}
  9
$VERSIONGUID
  2
{FAEB1C32-E019-11D5-929B-00C0DF256EC4}
  9
$EXTNAMES
290
     1
  9
$PSVPSCALE
 40
0.0
  9
$OLESTARTUP
290
     0
  0
ENDSEC
  0
SECTION
  2
CLASSES
  0
CLASS
  1
ACDBDICTIONARYWDFLT
  2
AcDbDictionaryWithDefault
  3
ObjectDBX Classes
 90
        0
280
     0
281
     0
  0
CLASS
  1
VISUALSTYLE
  2
AcDbVisualStyle
  3
ObjectDBX Classes
 90
     4095
280
     0
281
     0
  0
CLASS
  1
MATERIAL
  2
AcDbMaterial
  3
ObjectDBX Classes
 90
     1153
280
     0
281
     0
  0
CLASS
  1
SCALE
  2
AcDbScale
  3
ObjectDBX Classes
 90
     1153
280
     0
281
     0
  0
CLASS
  1
TABLESTYLE
  2
AcDbTableStyle
  3
ObjectDBX Classes
 90
     4095
280
     0
281
     0
  0
CLASS
  1
MLEADERSTYLE
  2
AcDbMLeaderStyle
  3
ACDB_MLEADERSTYLE_CLASS
 90
     4095
280
     0
281
     0
  0
CLASS
  1
SUN
  2
AcDbSun
  3
SCENEOE
 90
     1153
280
     0
281
     0
  0
CLASS
  1
ACDBPLACEHOLDER
  2
AcDbPlaceHolder
  3
ObjectDBX Classes
 90
        0
280
     0
281
     0
  0
CLASS
  1
LAYOUT
  2
AcDbLayout
  3
ObjectDBX Classes
 90
        0
280
     0
281
     0
  0
ENDSEC
  0
SECTION
  2
TABLES
  0
TABLE
  2
VPORT
  5
8
330
0
100
AcDbSymbolTable
 70
     1
  0
VPORT
  5
29
330
8
100
AcDbSymbolTableRecord
100
AcDbViewportTableRecord
  2
*Active
 70
     0
 10
0.0
 20
0.0
 11
1.0
 21
1.0
 12
139.7
 22
107.95
 13
0.0
 23
0.0
 14
10.0
 24
10.0
 15
10.0
 25
10.0
 16
0.0
 26
0.0
 36
1.0
 17
0.0
 27
0.0
 37
0.0
 40
215.9
 41
1.2941176471
 42
50.0
 43
0.0
 44
0.0
 50
0.0
 51
0.0
 71
     0
 72
  2000
 73
     1
 74
     3
 75
     0
 76
     0
 77
     0
 78
     0
281
     0
 65
     1
110
0.0
120
0.0
130
0.0
111
1.0
121
0.0
131
0.0
112
0.0
122
1.0
132
0.0
 79
     0
146
0.0
  0
ENDTAB
  0
TABLE
  2
LTYPE
  5
5
330
0
100
AcDbSymbolTable
 70
     6
  0
LTYPE
  5
14
330
5
100
AcDbSymbolTableRecord
100
AcDbLinetypeTableRecord
  2
ByBlock
 70
     0
  3

 72
    65
 73
     0
 40
0.0
  0
LTYPE
  5
15
330
5
100
AcDbSymbolTableRecord
100
AcDbLinetypeTableRecord
  2
ByLayer
 70
     0
  3

 72
    65
 73
     0
 40
0.0
  0
LTYPE
  5
16
330
5
100
AcDbSymbolTableRecord
100
AcDbLinetypeTableRecord
  2
Continuous
 70
     0
  3
Solid line
 72
    65
 73
     0
 40
0.0
  0
LTYPE
  5
6E
330
5
100
AcDbSymbolTableRecord
100
AcDbLinetypeTableRecord
  2
HIDDEN
 70
     0
  3
Hidden __ __ __ __ __ __ __ __ __ __ __ __ __ __
 72
    65
 73
     2
 40
1.905
 49
1.27
 74
     0
 49
-0.635
 74
     0
  0
LTYPE
  5
6F
330
5
100
AcDbSymbolTableRecord
100
AcDbLinetypeTableRecord
  2
PHANTOM
 70
     0
  3
Phantom ______  __  __  ______  __  __  ______
 72
    65
 73
     6
 40
12.7
 49
6.35
 74
     0
 49
-1.27
 74
     0
 49
1.27
 74
     0
 49
-1.27
 74
     0
 49
1.27
 74
     0
 49
-1.27
 74
     0
  0
LTYPE
  5
70
330
5
100
AcDbSymbolTableRecord
100
AcDbLinetypeTableRecord
  2
CENTER
 70
     0
  3
Center ____ _ ____ _ ____ _ ____ _ ____ _ ____
 72
    65
 73
     4
 40
10.16
 49
6.35
 74
     0
 49
-1.27
 74
     0
 49
1.27
 74
     0
 49
-1.27
 74
     0
  0
LTYPE
  5
71
330
5
100
AcDbSymbolTableRecord
100
AcDbLinetypeTableRecord
  2
CENTERX2
 70
     0
  3
Center (2x) ________  __  ________  __  _____
 72
    65
 73
     4
 40
20.32
 49
12.7
 74
     0
 49
-2.54
 74
     0
 49
2.54
 74
     0
 49
-2.54
 74
     0
  0
LTYPE
  5
72
330
5
100
AcDbSymbolTableRecord
100
AcDbLinetypeTableRecord
  2
DOT2
 70
     0
  3
Dot (.5x) ........................................
 72
    65
 73
     2
 40
0.635
 49
0.0
 74
     0
 49
-0.635
 74
     0
  0
ENDTAB
  0
TABLE
  2
LAYER
  5
2
330
0
100
AcDbSymbolTable
 70
     4
  0
LAYER
  5
10
330
2
100
AcDbSymbolTableRecord
100
AcDbLayerTableRecord
  2
0
 70
     0
 62
     7
  6
Continuous
370
    -3
390
F
  0
LAYER
  5
73
330
2
100
AcDbSymbolTableRecord
100
AcDbLayerTableRecord
  2
FORMAT
 70
     0
 62
     7
  6
Continuous
370
    -3
390
F
  0
LAYER
  5
74
330
2
100
AcDbSymbolTableRecord
100
AcDbLayerTableRecord
  2
OUT_LINE
 70
     0
 62
     7
  6
Continuous
370
    50
390
F
  0
LAYER
  5
75
330
2
100
AcDbSymbolTableRecord
100
AcDbLayerTableRecord
  2
WATERMARK
 70
     0
 62
   254
  6
Continuous
370
    -3
390
F
  0
ENDTAB
  0
TABLE
  2
STYLE
  5
3
330
0
100
AcDbSymbolTable
 70
     1
  0
STYLE
  5
11
330
3
100
AcDbSymbolTableRecord
100
AcDbTextStyleTableRecord
  2
Standard
 70
     0
 40
0.0
 41
1.0
 50
0.0
 71
     0
 42
3.5277777778
  3
txt
  4

  0
ENDTAB
  0
TABLE
  2
VIEW
  5
6
330
0
100
AcDbSymbolTable
 70
     0
  0
ENDTAB
  0
TABLE
  2
UCS
  5
7
330
0
100
AcDbSymbolTable
 70
     0
  0
ENDTAB
  0
TABLE
  2
APPID
  5
9
330
0
100
AcDbSymbolTable
 70
     1
  0
APPID
  5
12
330
9
100
AcDbSymbolTableRecord
100
AcDbRegAppTableRecord
  2
ACAD
 70
     0
  0
ENDTAB
  0
TABLE
  2
DIMSTYLE
  5
A
330
0
100
AcDbSymbolTable
 70
     1
100
AcDbDimStyleTable
  0
DIMSTYLE
105
27
330
A
100
AcDbSymbolTableRecord
100
AcDbDimStyleTableRecord
  2
ISO-25
 70
     0
 41
2.5
 42
0.625
 43
3.75
 44
1.25
 73
     0
 74
     0
 77
     1
 78
     8
140
2.5
141
2.5
143
0.0393700787
147
0.625
171
     3
172
     1
178
     0
271
     2
272
     2
274
     3
278
    44
283
     0
284
     8
340
11
  0
ENDTAB
  0
TABLE
  2
BLOCK_RECORD
  5
1
330
0
100
AcDbSymbolTable
 70
     7
  0
BLOCK_RECORD
  5
1F
330
1
100
AcDbSymbolTableRecord
100
AcDbBlockTableRecord
  2
*Model_Space
340
22
  0
BLOCK_RECORD
  5
1B
330
1
100
AcDbSymbolTableRecord
100
AcDbBlockTableRecord
  2
*Paper_Space
340
1E
  0
BLOCK_RECORD
  5
23
330
1
100
AcDbSymbolTableRecord
100
AcDbBlockTableRecord
  2
*Paper_Space0
340
26
  0
BLOCK_RECORD
  5
76
330
1
100
AcDbSymbolTableRecord
100
AcDbBlockTableRecord
  2
Block6
340
0
  0
BLOCK_RECORD
  5
7B
330
1
100
AcDbSymbolTableRecord
100
AcDbBlockTableRecord
  2
Block4
340
0
  0
BLOCK_RECORD
  5
7F
330
1
100
AcDbSymbolTableRecord
100
AcDbBlockTableRecord
  2
Block5
340
0
  0
BLOCK_RECORD
  5
8D
330
1
100
AcDbSymbolTableRecord
100
AcDbBlockTableRecord
  2
Block2
340
0
  0
BLOCK_RECORD
  5
98
330
1
100
AcDbSymbolTableRecord
100
AcDbBlockTableRecord
  2
Block3
340
0
  0
BLOCK_RECORD
  5
A5
330
1
100
AcDbSymbolTableRecord
100
AcDbBlockTableRecord
  2
Block7
340
0
  0
ENDTAB
  0
ENDSEC
  0
SECTION
  2
BLOCKS
  0
BLOCK
  5
20
330
1F
100
AcDbEntity
  8
0
100
AcDbBlockBegin
  2
*Model_Space
 70
     0
 10
0.0
 20
0.0
 30
0.0
  3
*Model_Space
  1

  0
ENDBLK
  5
21
330
1F
100
AcDbEntity
  8
0
100
AcDbBlockEnd
  0
BLOCK
  5
1C
330
1B
100
AcDbEntity
 67
     1
  8
0
100
AcDbBlockBegin
  2
*Paper_Space
 70
     0
 10
0.0
 20
0.0
 30
0.0
  3
*Paper_Space
  1

  0
ENDBLK
  5
1D
330
1B
100
AcDbEntity
 67
     1
  8
0
100
AcDbBlockEnd
  0
BLOCK
  5
24
330
23
100
AcDbEntity
  8
0
100
AcDbBlockBegin
  2
*Paper_Space0
 70
     0
 10
0.0
 20
0.0
 30
0.0
  3
*Paper_Space0
  1

  0
ENDBLK
  5
25
330
23
100
AcDbEntity
  8
0
100
AcDbBlockEnd
  0
BLOCK
  5
77
330
76
100
AcDbEntity
  8
0
100
AcDbBlockBegin
  2
Block6
 70
     0
 10
0.0
 20
0.0
 30
0.0
  3
Block6
  1

  0
LINE
  5
79
330
76
100
AcDbEntity
  8
FORMAT
100
AcDbLine
 10
253.5616893058
 20
55.3714964458
 30
0.0
 11
250.6928867464
 21
53.8486167051
 31
0.0
  0
LINE
  5
7A
330
76
100
AcDbEntity
  8
FORMAT
100
AcDbLine
 10
250.6928867464
 20
53.8486167051
 30
0.0
 11
253.5616893058
 21
53.8486167051
 31
0.0
  0
ENDBLK
  5
78
330
76
100
AcDbEntity
  8
0
100
AcDbBlockEnd
  0
BLOCK
  5
7C
330
7B
100
AcDbEntity
  8
0
100
AcDbBlockBegin
  2
Block4
 70
     0
 10
0.0
 20
0.0
 30
0.0
  3
Block4
  1

  0
LINE
  5
7E
330
7B
100
AcDbEntity
  8
FORMAT
100
AcDbLine
 10
250.0093082872
 20
64.7263291389
 30
0.0
 11
290.0093082872
 21
64.7263291389
 31
0.0
  0
ENDBLK
  5
7D
330
7B
100
AcDbEntity
  8
0
100
AcDbBlockEnd
  0
BLOCK
  5
80
330
7F
100
AcDbEntity
  8
0
100
AcDbBlockBegin
  2
Block5
 70
     0
 10
0.0
 20
0.0
 30
0.0
  3
Block5
  1

  0
LINE
  5
82
330
7F
100
AcDbEntity
  8
FORMAT
100
AcDbLine
 10
251.0883122991
 20
64.4632252413
 30
0.0
 11
250.3611798328
 21
64.9733337839
 31
0.0
  0
LINE
  5
83
330
7F
100
AcDbEntity
  8
FORMAT
100
AcDbLine
 10
250.3611798328
 20
64.9733337839
 30
0.0
 11
251.0883122991
 21
65.4834423266
 31
0.0
  0
LINE
  5
84
330
7F
100
AcDbEntity
  8
FORMAT
100
AcDbLine
 10
250.3611798328
 20
65.6106440044
 30
0.0
 11
250.3611798328
 21
64.3360235634
 31
0.0
  0
LINE
  5
85
330
7F
100
AcDbEntity
  8
FORMAT
100
AcDbLine
 10
251.0883122991
 20
65.4834423266
 30
0.0
 11
251.0883122991
 21
64.4632252413
 31
0.0
  0
LINE
  5
86
330
7F
100
AcDbEntity
  8
FORMAT
  6
Continuous
 62
     7
370
    18
100
AcDbLine
 10
254.0738326611
 20
65.4834423266
 30
0.0
 11
254.0738326611
 21
64.4632252413
 31
0.0
  0
LINE
  5
87
330
7F
100
AcDbEntity
  8
FORMAT
100
AcDbLine
 10
251.0883122991
 20
64.9733337839
 30
0.0
 11
254.0738326611
 21
64.9733337839
 31
0.0
  0
LINE
  5
88
330
7F
100
AcDbEntity
  8
FORMAT
100
AcDbLine
 10
254.0738326611
 20
64.9733337839
 30
0.0
 11
254.0738326611
 21
64.4632252413
 31
0.0
  0
LINE
  5
89
330
7F
100
AcDbEntity
  8
FORMAT
  6
Continuous
 62
     7
370
    18
100
AcDbLine
 10
254.0738326611
 20
64.4632252413
 30
0.0
 11
254.8009651274
 21
64.9733337839
 31
0.0
  0
LINE
  5
8A
330
7F
100
AcDbEntity
  8
FORMAT
  6
Continuous
 62
     7
370
    18
100
AcDbLine
 10
254.8009651274
 20
64.9733337839
 30
0.0
 11
254.0738326611
 21
65.4834423266
 31
0.0
  0
LINE
  5
8B
330
7F
100
AcDbEntity
  8
FORMAT
100
AcDbLine
 10
254.0738326611
 20
65.4834423266
 30
0.0
 11
254.0738326611
 21
64.9733337839
 31
0.0
  0
LINE
  5
8C
330
7F
100
AcDbEntity
  8
FORMAT
100
AcDbLine
 10
254.8009651274
 20
65.6106440044
 30
0.0
 11
254.8009651274
 21
64.3360235634
 31
0.0
  0
ENDBLK
  5
81
330
7F
100
AcDbEntity
  8
0
100
AcDbBlockEnd
  0
BLOCK
  5
8E
330
8D
100
AcDbEntity
  8
0
100
AcDbBlockBegin
  2
Block2
 70
     0
 10
0.0
 20
0.0
 30
0.0
  3
Block2
  1

  0
CIRCLE
  5
90
330
8D
100
AcDbEntity
  8
FORMAT
100
AcDbCircle
 10
48.741006851
 20
68.2700462855
 30
0.0
 40
7.000000000000013
  0
CIRCLE
  5
91
330
8D
100
AcDbEntity
  8
FORMAT
100
AcDbCircle
 10
48.741006851
 20
68.2700462855
 30
0.0
 40
3.32888862482043
  0
LINE
  5
92
330
8D
100
AcDbEntity
  8
FORMAT
100
AcDbLine
 10
60.4734604481
 20
71.6747664277
 30
0.0
 11
76.4734604481
 21
75.1747664277
 31
0.0
  0
LINE
  5
93
330
8D
100
AcDbEntity
  8
FORMAT
100
AcDbLine
 10
76.4734604481
 20
75.1747664277
 30
0.0
 11
76.4734604481
 21
61.3653261433
 31
0.0
  0
LINE
  5
94
330
8D
100
AcDbEntity
  8
FORMAT
100
AcDbLine
 10
76.4734604481
 20
61.3653261433
 30
0.0
 11
60.4734604481
 21
64.8653261433
 31
0.0
  0
LINE
  5
95
330
8D
100
AcDbEntity
  8
FORMAT
100
AcDbLine
 10
60.4734604481
 20
64.8653261433
 30
0.0
 11
60.4734604481
 21
71.6747664277
 31
0.0
  0
LINE
  5
96
330
8D
100
AcDbEntity
  8
FORMAT
  6
CENTERX2
100
AcDbLine
 10
76.4734604481
 20
68.2700462855
 30
0.0
 11
39.8388877958
 21
68.2700462855
 31
0.0
  0
LINE
  5
97
330
8D
100
AcDbEntity
  8
FORMAT
100
AcDbLine
 10
48.741006851
 20
76.8424572275
 30
0.0
 11
48.741006851
 21
59.6976353435
 31
0.0
  0
ENDBLK
  5
8F
330
8D
100
AcDbEntity
  8
0
100
AcDbBlockEnd
  0
BLOCK
  5
99
330
98
100
AcDbEntity
  8
0
100
AcDbBlockBegin
  2
Block3
 70
     0
 10
0.0
 20
0.0
 30
0.0
  3
Block3
  1

  0
ARC
  5
9B
330
98
100
AcDbEntity
  8
FORMAT
100
AcDbCircle
 10
253.5616893058
 20
61.9516976285
 30
0.0
 40
0.5251511718353873
100
AcDbArc
 50
349.3356822367
 51
90.0
  0
LINE
  5
9C
330
98
100
AcDbEntity
  8
FORMAT
100
AcDbLine
 10
250.6928867464
 20
62.4768488003
 30
0.0
 11
250.6928867464
 21
61.2321831396
 31
0.0
  0
LINE
  5
9D
330
98
100
AcDbEntity
  8
FORMAT
100
AcDbLine
 10
250.6928867464
 20
61.2321831396
 30
0.0
 11
251.7250485138
 21
61.2321831396
 31
0.0
  0
LINE
  5
9E
330
98
100
AcDbEntity
  8
FORMAT
100
AcDbLine
 10
251.7250485138
 20
61.2321831396
 30
0.0
 11
251.7250485138
 21
61.85451597
 31
0.0
  0
LINE
  5
9F
330
98
100
AcDbEntity
  8
FORMAT
100
AcDbLine
 10
251.7250485138
 20
61.85451597
 30
0.0
 11
251.2089676301
 21
62.4768488003
 31
0.0
  0
LINE
  5
A0
330
98
100
AcDbEntity
  8
FORMAT
100
AcDbLine
 10
251.2089676301
 20
62.4768488003
 30
0.0
 11
250.6928867464
 21
62.4768488003
 31
0.0
  0
LINE
  5
A1
330
98
100
AcDbEntity
  8
0
  6
Continuous
 62
     7
370
    18
100
AcDbLine
 10
253.0456084221
 20
61.2321831396
 30
0.0
 11
254.0777701895
 21
61.2321831396
 31
0.0
  0
LINE
  5
A2
330
98
100
AcDbEntity
  8
0
  6
Continuous
 62
     7
370
    18
100
AcDbLine
 10
254.0777701895
 20
61.2321831396
 30
0.0
 11
254.0777701895
 21
61.85451597
 31
0.0
  0
LINE
  5
A3
330
98
100
AcDbEntity
  8
0
  6
Continuous
 62
     7
370
    18
100
AcDbLine
 10
253.0456084221
 20
62.4768488003
 30
0.0
 11
253.0456084221
 21
61.2321831396
 31
0.0
  0
LINE
  5
A4
330
98
100
AcDbEntity
  8
0
  6
Continuous
 62
     7
370
    18
100
AcDbLine
 10
253.5616893058
 20
62.4768488003
 30
0.0
 11
253.0456084221
 21
62.4768488003
 31
0.0
  0
ENDBLK
  5
9A
330
98
100
AcDbEntity
  8
0
100
AcDbBlockEnd
  0
BLOCK
  5
A6
330
A5
100
AcDbEntity
  8
0
100
AcDbBlockBegin
  2
Block7
 70
     0
 10
0.0
 20
0.0
 30
0.0
  3
Block7
  1

  0
LINE
  5
A8
330
A5
100
AcDbEntity
  8
FORMAT
100
AcDbLine
 10
221.8284763776
 20
80.2705155621
 30
0.0
 11
222.3963943455
 21
79.286852787
 31
0.0
  0
LINE
  5
A9
330
A5
100
AcDbEntity
  8
FORMAT
100
AcDbLine
 10
222.3963943455
 20
79.286852787
 30
0.0
 11
222.9643123135
 21
80.2705155621
 31
0.0
  0
LINE
  5
AA
330
A5
100
AcDbEntity
  8
FORMAT
100
AcDbLine
 10
221.8284763776
 20
80.2705155621
 30
0.0
 11
222.9643123135
 21
80.2705155621
 31
0.0
  0
LINE
  5
AB
330
A5
100
AcDbEntity
  8
FORMAT
100
AcDbLine
 10
222.9643123135
 20
80.2705155621
 30
0.0
 11
223.3725273771
 21
80.9775647926
 31
0.0
  0
LINE
  5
AC
330
A5
100
AcDbEntity
  8
FORMAT
100
AcDbLine
 10
223.3725273771
 20
80.9775647926
 30
0.0
 11
224.1023154201
 21
80.9775647926
 31
0.0
  0
ENDBLK
  5
A7
330
A5
100
AcDbEntity
  8
0
100
AcDbBlockEnd
  0
ENDSEC
  0
SECTION
  2
ENTITIES
  0
LINE
  5
AD
330
1F
100
AcDbEntity
  8
0
  6
Continuous
 62
     7
370
    25
100
AcDbLine
 10
120.7517631827
 20
60.0303118171
 30
0.0
 11
120.7517631827
 21
12.7032999056
 31
0.0
  0
LINE
  5
AE
330
1F
100
AcDbEntity
  8
0
  6
Continuous
 62
     7
370
    25
100
AcDbLine
 10
136.5517631827
 20
12.7032999056
 30
0.0
 11
136.5517631827
 21
60.0303118171
 31
0.0
  0
LINE
  5
AF
330
1F
100
AcDbEntity
  8
0
  6
Continuous
 62
     7
370
    25
100
AcDbLine
 10
136.5517631827
 20
60.0303118171
 30
0.0
 11
136.5517631827
 21
142.4303118171
 31
0.0
  0
LINE
  5
B0
330
1F
100
AcDbEntity
  8
0
  6
Continuous
 62
     7
370
    25
100
AcDbLine
 10
120.7517631827
 20
142.4303118171
 30
0.0
 11
120.7517631827
 21
60.0303118171
 31
0.0
  0
LINE
  5
B1
330
1F
100
AcDbEntity
  8
0
  6
Continuous
 62
     7
370
    25
100
AcDbLine
 10
120.7517631827
 20
165.1032999056
 30
0.0
 11
120.7517631827
 21
142.4303118171
 31
0.0
  0
LINE
  5
B2
330
1F
100
AcDbEntity
  8
0
  6
Continuous
 62
     7
370
    25
100
AcDbLine
 10
136.5517631827
 20
142.4303118171
 30
0.0
 11
136.5517631827
 21
165.1032999056
 31
0.0
  0
LINE
  5
B3
330
1F
100
AcDbEntity
  8
0
  6
Continuous
 62
     7
370
    25
100
AcDbLine
 10
142.6487143317
 20
148.9032999056
 30
0.0
 11
159.8517631827
 21
148.9032999056
 31
0.0
  0
LINE
  5
B4
330
1F
100
AcDbEntity
  8
0
  6
Continuous
 62
     7
370
    25
100
AcDbLine
 10
159.8517631827
 20
181.3032999056
 30
0.0
 11
142.6422049703
 21
181.3032999056
 31
0.0
  0
SPLINE
  5
B5
330
1F
100
AcDbEntity
  8
0
  6
Continuous
 62
     7
370
    25
100
AcDbSpline
210
0.0
220
0.0
230
1.0
 70
     8
 71
     3
 72
     9
 73
     5
 74
     0
 42
0.00000001
 43
0.00000001
 40
0.0
 40
0.0
 40
0.0
 40
0.0
 40
0.5015109964661149
 40
1.0
 40
1.0
 40
1.0
 40
1.0
 10
160.4579731127136
 20
150.6086975376201
 30
0.0
 10
160.5358018910788
 20
150.7435215569632
 30
0.0
 10
160.6909904690235
 20
151.0123571763076
 30
0.0
 10
160.8463477168776
 20
151.2811909762864
 30
0.0
 10
160.9237915965521
 20
151.415201669354
 30
0.0
  0
LINE
  5
B6
330
1F
100
AcDbEntity
  8
0
  6
Continuous
 62
     7
370
    25
100
AcDbLine
 10
169.1770934906
 20
178.7856834352
 30
0.0
 11
169.0654234565
 21
178.9790228595
 31
0.0
  0
SPLINE
  5
B7
330
1F
100
AcDbEntity
  8
0
  6
Continuous
 62
     7
370
    25
100
AcDbSpline
210
0.0
220
0.0
230
1.0
 70
     8
 71
     3
 72
     9
 73
     5
 74
     0
 42
0.00000001
 43
0.00000001
 40
0.0
 40
0.0
 40
0.0
 40
0.0
 40
0.4576940011969439
 40
1.0
 40
1.0
 40
1.0
 40
1.0
 10
167.9973575286063
 20
150.6768871400975
 30
0.0
 10
168.0624155710898
 20
150.7895282766862
 30
0.0
 10
168.2045586673797
 20
151.0356340510554
 30
0.0
 10
168.3467054007135
 20
151.2817376447266
 30
0.0
 10
168.4237924269107
 20
151.4152010999015
 30
0.0
  0
SPLINE
  5
B8
330
1F
100
AcDbEntity
  8
0
  6
Continuous
 62
     7
370
    25
100
AcDbSpline
210
0.0
220
0.0
230
1.0
 70
     8
 71
     3
 72
     9
 73
     5
 74
     0
 42
0.00000001
 43
0.00000001
 40
0.0
 40
0.0
 40
0.0
 40
0.0
 40
0.5034644913918217
 40
1.0
 40
1.0
 40
1.0
 40
1.0
 10
168.5081307326205
 20
179.5980354199866
 30
0.0
 10
168.4299443114344
 20
179.4626638599607
 30
0.0
 10
168.2746475178712
 20
179.1937838051793
 30
0.0
 10
168.1193467075525
 20
178.9249058417893
 30
0.0
 10
168.0422343407135
 20
178.7913983854839
 30
0.0
  0
LINE
  5
B9
330
1F
100
AcDbEntity
  8
0
  6
Continuous
 62
     7
370
    25
100
AcDbLine
 10
168.7890091632
 20
151.4207853029
 30
0.0
 11
168.9473984667
 21
151.1465585931
 31
0.0
  0
LINE
  5
BA
330
1F
100
AcDbEntity
  8
0
  6
Continuous
 62
     7
370
    25
100
AcDbLine
 10
159.8517631827
 20
150.6032999056
 30
0.0
 11
160.4518969397
 21
150.6032999056
 31
0.0
  0
LINE
  5
BB
330
1F
100
AcDbEntity
  8
0
  6
Continuous
 62
     7
370
    25
100
AcDbLine
 10
161.2017666376
 20
179.6032999056
 30
0.0
 11
159.8517631827
 21
179.6032999056
 31
0.0
  0
LINE
  5
BC
330
1F
100
AcDbEntity
  8
0
  6
Continuous
 62
     7
370
    25
100
AcDbLine
 10
168.4203796441
 20
151.4152010999
 30
0.0
 11
168.7922345165
 21
151.4152010999
 31
0.0
  0
LINE
  5
BD
330
1F
100
AcDbEntity
  8
0
  6
Continuous
 62
     7
370
    25
100
AcDbLine
 10
160.9203645338
 20
151.4152016694
 30
0.0
 11
161.0918084421
 21
151.4152016694
 31
0.0
  0
LINE
  5
BE
330
1F
100
AcDbEntity
  8
0
  6
Continuous
 62
     7
370
    25
100
AcDbLine
 10
207.6834169907
 20
169.4786906793
 30
0.0
 11
207.2517631827
 21
169.0989141998
 31
0.0
  0
LINE
  5
BF
330
1F
100
AcDbEntity
  8
0
  6
Continuous
 62
     7
370
    25
100
AcDbLine
 10
207.2517631827
 20
161.1076856113
 30
0.0
 11
207.6834169907
 21
160.7279091318
 31
0.0
  0
ARC
  5
C0
330
1F
100
AcDbEntity
  8
0
  6
Continuous
 62
     7
370
    25
100
AcDbCircle
 10
199.194528595
 20
165.1032999056
 30
0.0
 40
10.62999999999999
100
AcDbArc
 50
339.5062991307
 51
345.842348556
  0
ARC
  5
C1
330
1F
100
AcDbEntity
  8
0
  6
Continuous
 62
     7
370
    25
100
AcDbCircle
 10
199.194528595
 20
165.1032999056
 30
0.0
 40
10.63000000000001
100
AcDbArc
 50
14.157651444
 51
20.4937008693
  0
LINE
  5
C2
330
1F
100
AcDbEntity
  8
0
  6
Continuous
 62
     7
370
    25
100
AcDbLine
 10
202.3898071399
 20
156.1276418613
 30
0.0
 11
206.760489386
 21
156.2039324037
 31
0.0
  0
LINE
  5
C3
330
1F
100
AcDbEntity
  8
0
  6
Continuous
 62
     7
370
    25
100
AcDbLine
 10
206.760489386
 20
174.0026674074
 30
0.0
 11
201.456386926
 21
174.0952508602
 31
0.0
  0
ARC
  5
C4
330
1F
100
AcDbEntity
  8
0
  6
Continuous
 62
     7
370
    25
100
AcDbCircle
 10
206.7517631827
 20
156.7038562513
 30
0.0
 40
0.5000000000000048
100
AcDbArc
 50
271.0
 51
0.0
  0
ARC
  5
C5
330
1F
100
AcDbEntity
  8
0
  6
Continuous
 62
     7
370
    25
100
AcDbCircle
 10
206.7517631827
 20
173.5027435598
 30
0.0
 40
0.5000000000000048
100
AcDbArc
 50
0.0
 51
89.0
  0
SPLINE
  5
C6
330
1F
100
AcDbEntity
  8
0
  6
Continuous
 62
     7
370
    25
100
AcDbSpline
210
0.0
220
0.0
230
1.0
 70
     8
 71
     3
 72
    12
 73
     8
 74
     0
 42
0.00000001
 43
0.00000001
 40
0.0
 40
0.0
 40
0.0
 40
0.0
 40
0.0167971611867514
 40
0.3359590551301674
 40
0.599257116873262
 40
0.819486212565655
 40
1.0
 40
1.0
 40
1.0
 40
1.0
 10
200.1948328810708
 20
174.4478284560755
 30
0.0
 10
200.1801492973535
 20
174.45648076622
 30
0.0
 10
199.8864637836688
 20
174.6295351239495
 30
0.0
 10
199.4619326048881
 20
174.9070347455481
 30
0.0
 10
198.99221457337
 20
175.240413810583
 30
0.0
 10
198.7413157296534
 20
175.4621326304127
 30
0.0
 10
198.7133852855009
 20
175.4952428661134
 30
0.0
 10
198.7008040757752
 20
175.5101573020294
 30
0.0
  0
ARC
  5
C7
330
1F
100
AcDbEntity
  8
0
  6
Continuous
 62
     7
370
    25
100
AcDbCircle
 10
201.5017631827
 20
176.6948548676
 30
0.0
 40
2.60000000000002
100
AcDbArc
 50
239.4420525213
 51
269.0
  0
SPLINE
  5
C8
330
1F
100
AcDbEntity
  8
0
  6
Continuous
 62
     7
370
    25
100
AcDbSpline
210
0.0
220
0.0
230
1.0
 70
     8
 71
     3
 72
    13
 73
     9
 74
     0
 42
0.00000001
 43
0.00000001
 40
0.0
 40
0.0
 40
0.0
 40
0.0
 40
0.0970921028208095
 40
0.254384765752386
 40
0.4441311141281598
 40
0.6700687869320415
 40
0.9267606364361518
 40
1.0
 40
1.0
 40
1.0
 40
1.0
 10
198.6749487723818
 20
154.3639766243514
 30
0.0
 10
198.6767128580638
 20
154.3662309839679
 30
0.0
 10
198.6813348253499
 20
154.3721374864157
 30
0.0
 10
198.8474672313042
 20
154.5241450424339
 30
0.0
 10
199.1810831690609
 20
154.7697294671077
 30
0.0
 10
199.7427446991006
 20
155.1259131726027
 30
0.0
 10
200.2911325438228
 20
155.4436229834679
 30
0.0
 10
200.6762750542554
 20
155.6499369774826
 30
0.0
 10
200.7617704279218
 20
155.6957353288281
 30
0.0
  0
ARC
  5
C9
330
1F
100
AcDbEntity
  8
0
  6
Continuous
 62
     7
370
    25
100
AcDbCircle
 10
202.4517631827
 20
152.5781825435
 30
0.0
 40
3.55
100
AcDbArc
 50
91.0
 51
118.1920130769
  0
ARC
  5
CA
330
1F
100
AcDbEntity
  8
0
  6
Continuous
 62
     7
370
    25
100
AcDbCircle
 10
192.9017631827
 20
176.5751895203
 30
0.0
 40
0.5000000000000058
100
AcDbArc
 50
89.0
 51
180.0
  0
ARC
  5
CB
330
1F
100
AcDbEntity
  8
0
  6
Continuous
 62
     7
370
    25
100
AcDbCircle
 10
192.9017631827
 20
153.6314102908
 30
0.0
 40
0.5000000000000342
100
AcDbArc
 50
180.0
 51
271.0
  0
LINE
  5
CC
330
1F
100
AcDbEntity
  8
0
  6
Continuous
 62
     7
370
    25
100
AcDbLine
 10
196.9366679956
 20
177.0048361588
 30
0.0
 11
192.910489386
 21
177.0751133679
 31
0.0
  0
LINE
  5
CD
330
1F
100
AcDbEntity
  8
0
  6
Continuous
 62
     7
370
    25
100
AcDbLine
 10
192.910489386
 20
153.1314864432
 30
0.0
 11
196.9366679956
 21
153.2017636523
 31
0.0
  0
ARC
  5
CE
330
1F
100
AcDbEntity
  8
0
  6
Continuous
 62
     7
370
    25
100
AcDbCircle
 10
196.9017631827
 20
175.0051407685
 30
0.0
 40
1.999999999999976
100
AcDbArc
 50
14.6254779684
 51
89.0
  0
SPLINE
  5
CF
330
1F
100
AcDbEntity
  8
0
  6
Continuous
 62
     7
370
    25
100
AcDbSpline
210
0.0
220
0.0
230
1.0
 70
     8
 71
     3
 72
     9
 73
     5
 74
     0
 42
0.00000001
 43
0.00000001
 40
0.0
 40
0.0
 40
0.0
 40
0.0
 40
0.1428792602068137
 40
1.0
 40
1.0
 40
1.0
 40
1.0
 10
207.2517631827409
 20
160.3836605556823
 30
0.0
 10
207.2581461240821
 20
160.406799323423
 30
0.0
 10
207.3028197970274
 20
160.5687456248468
 30
0.0
 10
207.3741604826554
 20
160.7719925221289
 30
0.0
 10
207.4353080638983
 20
160.946199653088
 30
0.0
  0
SPLINE
  5
D0
330
1F
100
AcDbEntity
  8
0
  6
Continuous
 62
     7
370
    25
100
AcDbSpline
210
0.0
220
0.0
230
1.0
 70
     8
 71
     3
 72
     9
 73
     5
 74
     0
 42
0.00000001
 43
0.00000001
 40
0.0
 40
0.0
 40
0.0
 40
0.0
 40
0.1580914975462187
 40
1.0
 40
1.0
 40
1.0
 40
1.0
 10
207.4192357232739
 20
169.2462594350021
 30
0.0
 10
207.4089486035494
 20
169.2794369965123
 30
0.0
 10
207.3438779331838
 20
169.4893000316853
 30
0.0
 10
207.293867441175
 20
169.6740492046418
 30
0.0
 10
207.2517631827409
 20
169.8295911041752
 30
0.0
  0
ARC
  5
D1
330
1F
100
AcDbEntity
  8
0
  6
Continuous
 62
     7
370
    25
100
AcDbCircle
 10
196.9017631827
 20
155.2014590426
 30
0.0
 40
2.000000000000001
100
AcDbArc
 50
271.0
 51
334.9885921771
  0
LINE
  5
D2
330
1F
100
AcDbEntity
  8
0
  6
Continuous
 62
     7
370
    25
100
AcDbLine
 10
207.2517631827
 20
157.9532999056
 30
0.0
 11
208.8567681723
 21
159.1781721344
 31
0.0
  0
LINE
  5
D3
330
1F
100
AcDbEntity
  8
0
  6
Continuous
 62
     7
370
    25
100
AcDbLine
 10
208.8567681723
 20
171.0284276767
 30
0.0
 11
207.2517631827
 21
172.2532999056
 31
0.0
  0
ARC
  5
D4
330
1F
100
AcDbEntity
  8
0
  6
Continuous
 62
     7
370
    25
100
AcDbCircle
 10
208.4017631827
 20
159.7743855689
 30
0.0
 40
0.7500000000000014
100
AcDbArc
 50
307.3493490446
 51
0.0
  0
ARC
  5
D5
330
1F
100
AcDbEntity
  8
0
  6
Continuous
 62
     7
370
    25
100
AcDbCircle
 10
208.4017631827
 20
170.4322142422
 30
0.0
 40
0.7500000000000014
100
AcDbArc
 50
0.0
 51
52.6506509554
  0
LINE
  5
D6
330
1F
100
AcDbEntity
  8
0
  6
Continuous
 62
     7
370
    25
100
AcDbLine
 10
183.2822509876
 20
155.6032999056
 30
0.0
 11
184.5017631827
 21
156.8532999056
 31
0.0
  0
LINE
  5
D7
330
1F
100
AcDbEntity
  8
0
  6
Continuous
 62
     7
370
    25
100
AcDbLine
 10
184.5017631827
 20
173.3532999056
 30
0.0
 11
183.2822509876
 21
174.6032999056
 31
0.0
  0
LINE
  5
D8
330
1F
100
AcDbEntity
  8
0
  6
Continuous
 62
     7
370
    25
100
AcDbLine
 10
177.7068231086
 20
174.5032999056
 30
0.0
 11
177.2406178265
 21
174.5032999056
 31
0.0
  0
SPLINE
  5
D9
330
1F
100
AcDbEntity
  8
0
  6
Continuous
 62
     7
370
    25
100
AcDbSpline
210
0.0
220
0.0
230
1.0
 70
     8
 71
     3
 72
     9
 73
     5
 74
     0
 42
0.00000001
 43
0.00000001
 40
0.0
 40
0.0
 40
0.0
 40
0.0
 40
0.2308149029361558
 40
1.0
 40
1.0
 40
1.0
 40
1.0
 10
177.0517631827409
 20
155.9796147209705
 30
0.0
 10
177.0738021231723
 20
156.0177601541825
 30
0.0
 10
177.1692853010395
 20
156.1830243235525
 30
0.0
 10
177.2647922976441
 20
156.3482676508141
 30
0.0
 10
177.3382548560978
 20
156.4753703555329
 30
0.0
  0
SPLINE
  5
DA
330
1F
100
AcDbEntity
  8
0
  6
Continuous
 62
     7
370
    25
100
AcDbSpline
210
0.0
220
0.0
230
1.0
 70
     8
 71
     3
 72
     9
 73
     5
 74
     0
 42
0.00000001
 43
0.00000001
 40
0.0
 40
0.0
 40
0.0
 40
0.0
 40
0.4982449658294387
 40
1.0
 40
1.0
 40
1.0
 40
1.0
 10
178.0438092952531
 20
173.7312314048719
 30
0.0
 10
177.9704294519539
 20
173.8581782939757
 30
0.0
 10
177.8231528142926
 20
174.1129663958332
 30
0.0
 10
177.6759356161634
 20
174.3678154647883
 30
0.0
 10
177.6020686458856
 20
174.4956872680902
 30
0.0
  0
SPLINE
  5
DB
330
1F
100
AcDbEntity
  8
0
  6
Continuous
 62
     7
370
    25
100
AcDbSpline
210
0.0
220
0.0
230
1.0
 70
     8
 71
     3
 72
     9
 73
     5
 74
     0
 42
0.00000001
 43
0.00000001
 40
0.0
 40
0.0
 40
0.0
 40
0.0
 40
0.6441820525844191
 40
0.9999999999999999
 40
0.9999999999999999
 40
0.9999999999999999
 40
0.9999999999999999
 10
177.4958154550292
 20
156.4753906479133
 30
0.0
 10
177.5696080853001
 20
156.3477034683548
 30
0.0
 10
177.6841605320422
 20
156.1494874841524
 30
0.0
 10
177.7986975024662
 20
155.9512558943139
 30
0.0
 10
177.8394518121856
 20
155.8807215369046
 30
0.0
  0
LINE
  5
DC
330
1F
100
AcDbEntity
  8
0
  6
Continuous
 62
     7
370
    25
100
AcDbLine
 10
177.2320105505
 20
174.4956824952
 30
0.0
 11
177.0517631827
 21
174.1837323604
 31
0.0
  0
LINE
  5
DD
330
1F
100
AcDbEntity
  8
0
  6
Continuous
 62
     7
370
    25
100
AcDbLine
 10
177.8726160784
 20
155.8741528013
 30
0.0
 11
178.2017631827
 21
156.2032999056
 31
0.0
  0
SPLINE
  5
DE
330
1F
100
AcDbEntity
  8
0
  6
Continuous
 62
     7
370
    25
100
AcDbSpline
210
0.0
220
0.0
230
1.0
 70
     8
 71
     3
 72
     9
 73
     5
 74
     0
 42
0.00000001
 43
0.00000001
 40
0.0
 40
0.0
 40
0.0
 40
0.0
 40
0.5156973194565428
 40
1.0
 40
1.0
 40
1.0
 40
1.0
 10
177.3286961935199
 20
156.4670883546471
 30
0.0
 10
177.3582599680869
 20
156.4670926608825
 30
0.0
 10
177.4155877327498
 20
156.4671010111982
 30
0.0
 10
177.4728707191143
 20
156.467092776523
 30
0.0
 10
177.5006130229602
 20
156.4670887884477
 30
0.0
  0
SPLINE
  5
DF
330
1F
100
AcDbEntity
  8
0
  6
Continuous
 62
     7
370
    25
100
AcDbSpline
210
0.0
220
0.0
230
1.0
 70
     8
 71
     3
 72
     9
 73
     5
 74
     0
 42
0.00000001
 43
0.00000001
 40
0.0
 40
0.0
 40
0.0
 40
0.0
 40
0.5100779247870971
 40
1.0
 40
1.0
 40
1.0
 40
1.0
 10
178.2106414493877
 20
173.7395114796288
 30
0.0
 10
178.1814982199946
 20
173.7394965796448
 30
0.0
 10
178.1243633627956
 20
173.7394673684531
 30
0.0
 10
178.0670859944283
 20
173.7394959059706
 30
0.0
 10
178.0390245472551
 20
173.7395098871305
 30
0.0
  0
LINE
  5
E0
330
1F
100
AcDbEntity
  8
0
  6
Continuous
 62
     7
370
    25
100
AcDbLine
 10
178.2017631827
 20
156.9782999056
 30
0.0
 11
179.7017631827
 21
156.9782999056
 31
0.0
  0
LINE
  5
E1
330
1F
100
AcDbEntity
  8
0
  6
Continuous
 62
     7
370
    25
100
AcDbLine
 10
179.7017631827
 20
173.2282999056
 30
0.0
 11
178.2017631827
 21
173.2282999056
 31
0.0
  0
ARC
  5
E2
330
1F
100
AcDbEntity
  8
0
  6
Continuous
 62
     7
370
    25
100
AcDbCircle
 10
169.3017631827
 20
159.3623115335
 30
0.0
 40
9.134011627907
100
AcDbArc
 50
270.0
 51
328.0464183091
  0
ARC
  5
E3
330
1F
100
AcDbEntity
  8
0
  6
Continuous
 62
     7
370
    25
100
AcDbCircle
 10
169.3017631827
 20
170.8442882776
 30
0.0
 40
9.134011627907
100
AcDbArc
 50
31.9535816909
 51
90.0
  0
LINE
  5
E4
330
1F
100
AcDbEntity
  8
0
  6
Continuous
 62
     7
370
    25
100
AcDbLine
 10
160.6571401226
 20
179.7862643398
 30
0.0
 11
160.5514739942
 21
179.6032999056
 31
0.0
  0
SPLINE
  5
E5
330
1F
100
AcDbEntity
  8
0
  6
Continuous
 62
     7
370
    25
100
AcDbSpline
210
0.0
220
0.0
230
1.0
 70
     8
 71
     3
 72
     9
 73
     5
 74
     0
 42
0.00000001
 43
0.00000001
 40
0.0
 40
0.0
 40
0.0
 40
0.0
 40
0.4999972376865703
 40
1.0
 40
1.0
 40
1.0
 40
1.0
 10
160.8919917599539
 20
151.1131996514031
 30
0.0
 10
160.9587078887953
 20
150.9976805712267
 30
0.0
 10
161.0921408836457
 20
150.766641134467
 30
0.0
 10
161.2255716840569
 20
150.5356005033273
 30
0.0
 10
161.2922874528401
 20
150.4200795495508
 30
0.0
  0
LINE
  5
E6
330
1F
100
AcDbEntity
  8
0
  6
Continuous
 62
     7
370
    25
100
AcDbLine
 10
160.8206417776
 20
179.7906921413
 30
0.0
 11
160.6618917776
 21
179.7906921413
 31
0.0
  0
LINE
  5
E7
330
1F
100
AcDbEntity
  8
0
  6
Continuous
 62
     7
370
    25
100
AcDbLine
 10
192.4017631827
 20
170.7532999056
 30
0.0
 11
184.5017631827
 21
170.7532999056
 31
0.0
  0
LINE
  5
E8
330
1F
100
AcDbEntity
  8
0
  6
Continuous
 62
     7
370
    25
100
AcDbLine
 10
184.5017631827
 20
159.4532999056
 30
0.0
 11
192.4017631827
 21
159.4532999056
 31
0.0
  0
ARC
  5
E9
330
1F
100
AcDbEntity
  8
0
  6
Continuous
 62
     7
370
    25
100
AcDbCircle
 10
120.6287841256
 20
159.5630555924
 30
0.0
 40
0.1000000000000177
100
AcDbArc
 50
34.6269032223
 51
109.8647129028
  0
ARC
  5
EA
330
1F
100
AcDbEntity
  8
0
  6
Continuous
 62
     7
370
    25
100
AcDbCircle
 10
128.6517631827
 20
165.1032999056
 30
0.0
 40
9.650000000000013
100
AcDbArc
 50
324.9501653321
 51
211.6883360596
  0
ARC
  5
EB
330
1F
100
AcDbEntity
  8
0
  6
Continuous
 62
     7
370
    25
100
AcDbCircle
 10
120.3553120563
 20
159.9816401446
 30
0.0
 40
0.1000000000000124
100
AcDbArc
 50
316.450526379
 51
31.6883360596
  0
ARC
  5
EC
330
1F
100
AcDbEntity
  8
0
  6
Continuous
 62
     7
370
    25
100
AcDbCircle
 10
128.6517631827
 20
12.7032999056
 30
0.0
 40
7.900000000000006
100
AcDbArc
 50
180.0
 51
0.0
  0
ARC
  5
ED
330
1F
100
AcDbEntity
  8
0
  6
Continuous
 62
     7
370
    25
100
AcDbCircle
 10
128.6517631827
 20
165.1032999056
 30
0.0
 40
7.900000000000006
100
AcDbArc
 50
0.0
 51
180.0
  0
ARC
  5
EE
330
1F
100
AcDbEntity
  8
0
  6
Continuous
 62
     7
370
    25
100
AcDbCircle
 10
128.6517631827
 20
12.7032999056
 30
0.0
 40
10.82499999999997
100
AcDbArc
 50
136.8689719021
 51
180.0
  0
ARC
  5
EF
330
1F
100
AcDbEntity
  8
0
  6
Continuous
 62
     7
370
    25
100
AcDbCircle
 10
128.6517631827
 20
12.7032999056
 30
0.0
 40
10.82499999999997
100
AcDbArc
 50
180.0
 51
43.1310280979
  0
LINE
  5
F0
330
1F
100
AcDbEntity
  8
0
  6
Continuous
 62
     7
370
    25
100
AcDbLine
 10
136.4011514468
 20
166.346641593
 30
0.0
 11
136.4449262067
 21
165.0845251234
 31
0.0
  0
LINE
  5
F1
330
1F
100
AcDbEntity
  8
0
  6
Continuous
 62
     7
370
    25
100
AcDbLine
 10
120.7578441508
 20
165.3479674577
 30
0.0
 11
120.8311889632
 21
165.7135724287
 31
0.0
  0
SPLINE
  5
F2
330
1F
100
AcDbEntity
  8
0
  6
Continuous
 62
     7
370
    25
100
AcDbSpline
210
0.0
220
0.0
230
1.0
 70
     8
 71
     3
 72
     9
 73
     5
 74
     0
 42
0.00000001
 43
0.00000001
 40
0.0
 40
0.0
 40
0.0
 40
0.0
 40
0.4231156651055217
 40
1.0
 40
1.0
 40
1.0
 40
1.0
 10
134.1190548716971
 20
170.7276666869759
 30
0.0
 10
134.2265959617729
 20
170.6526011433309
 30
0.0
 10
134.4807607184688
 20
170.4751897406443
 30
0.0
 10
134.6709909838338
 20
170.2295538494178
 30
0.0
 10
134.7807318439457
 20
170.0878503516815
 30
0.0
  0
ARC
  5
F3
330
1F
100
AcDbEntity
  8
0
  6
Continuous
 62
     7
370
    25
100
AcDbCircle
 10
128.6517631827
 20
165.1032999056
 30
0.0
 40
9.925000000000018
100
AcDbArc
 50
322.7469493593
 51
217.2530506407
  0
ARC
  5
F4
330
1F
100
AcDbEntity
  8
0
  6
Continuous
 62
     7
370
    25
100
AcDbCircle
 10
128.6517631827
 20
165.1032999056
 30
0.0
 40
9.72500000000002
100
AcDbArc
 50
324.3251241983
 51
215.6748758017
  0
ARC
  5
F5
330
1F
100
AcDbEntity
  8
0
  6
Continuous
 62
     7
370
    25
100
AcDbCircle
 10
128.6517631827
 20
165.1032999056
 30
0.0
 40
14.22500000000003
100
AcDbArc
 50
303.7355336397
 51
223.2235523034
  0
LWPOLYLINE
  5
F6
330
1F
100
AcDbEntity
  8
0
  6
Continuous
 62
     7
370
    25
100
AcDbPolyline
 90
        3
 70
   128
 43
0.0
 10
120.7517631827
 20
153.2736496571
 10
119.7092615971
 20
154.0406469511
 10
118.2861881565
 20
155.3613555732
  0
LINE
  5
F7
330
1F
100
AcDbEntity
  8
0
  6
Continuous
 62
     7
370
    25
100
AcDbLine
 10
136.5265430967
 20
177.2399559931
 30
0.0
 11
136.3945109156
 21
177.0364672363
 31
0.0
  0
SPLINE
  5
F8
330
1F
100
AcDbEntity
  8
0
  6
Continuous
 62
     7
370
    25
100
AcDbSpline
210
0.0
220
0.0
230
1.0
 70
     8
 71
     3
 72
    11
 73
     7
 74
     0
 42
0.00000001
 43
0.00000001
 40
0.0
 40
0.0
 40
0.0
 40
0.0
 40
0.1446702591042557
 40
0.3907520209323692
 40
0.5962314811354859
 40
0.9999999999999999
 40
0.9999999999999999
 40
0.9999999999999999
 40
0.9999999999999999
 10
141.2530928109113
 20
172.2108361371663
 30
0.0
 10
141.0539749143962
 20
172.4783340971618
 30
0.0
 10
140.5161607088446
 20
173.2008417439353
 30
0.0
 10
139.6265827548925
 20
174.2506358560003
 30
0.0
 10
138.2837754688076
 20
175.697281706889
 30
0.0
 10
137.2269414748742
 20
176.6250762622144
 30
0.0
 10
136.5265430967471
 20
177.2399559931043
 30
0.0
  0
LINE
  5
F9
330
1F
100
AcDbEntity
  8
0
  6
Continuous
 62
     7
370
    25
100
AcDbLine
 10
141.0418131239
 20
172.0916679164
 30
0.0
 11
141.2530928109
 21
172.2108361372
 31
0.0
  0
LINE
  5
FA
330
1F
100
AcDbEntity
  8
0
  6
Continuous
 62
     7
370
    25
100
AcDbLine
 10
122.0785006509
 20
177.9913874041
 30
0.0
 11
122.1887109931
 21
177.7752998027
 31
0.0
  0
SPLINE
  5
FB
330
1F
100
AcDbEntity
  8
0
  6
Continuous
 62
     7
370
    25
100
AcDbSpline
210
0.0
220
0.0
230
1.0
 70
     8
 71
     3
 72
    11
 73
     7
 74
     0
 42
0.00000001
 43
0.00000001
 40
0.0
 40
0.0
 40
0.0
 40
0.0
 40
0.1446702591042559
 40
0.3907520209323661
 40
0.5962314811354594
 40
1.0
 40
1.0
 40
1.0
 40
1.0
 10
128.7971210619332
 20
179.5701396008182
 30
0.0
 10
128.465902084859
 20
179.5314474240857
 30
0.0
 10
127.5712850055488
 20
179.4269404829486
 30
0.0
 10
126.2173476587812
 20
179.1814404322122
 30
0.0
 10
124.2931119585898
 20
178.74185813552
 30
0.0
 10
122.9612013072184
 20
178.2905103268535
 30
0.0
 10
122.078500650932
 20
177.991387404071
 30
0.0
  0
LINE
  5
FC
330
1F
100
AcDbEntity
  8
0
  6
Continuous
 62
     7
370
    25
100
AcDbLine
 10
128.7971210619
 20
179.5701396008
 30
0.0
 11
128.7946839249
 21
179.3275819142
 31
0.0
  0
LINE
  5
FD
330
1F
100
AcDbEntity
  8
0
  6
Continuous
 62
     7
370
    25
100
AcDbLine
 10
114.2037207369
 20
165.8547313165
 30
0.0
 11
114.4459632602
 21
165.842132472
 31
0.0
  0
SPLINE
  5
FE
330
1F
100
AcDbEntity
  8
0
  6
Continuous
 62
     7
370
    25
100
AcDbSpline
210
0.0
220
0.0
230
1.0
 70
     8
 71
     3
 72
    11
 73
     7
 74
     0
 42
0.00000001
 43
0.00000001
 40
0.0
 40
0.0
 40
0.0
 40
0.0
 40
0.1446702591042558
 40
0.3907520209323621
 40
0.5962314811354645
 40
1.0
 40
1.0
 40
1.0
 40
1.0
 10
116.1957914337627
 20
172.4626033692078
 30
0.0
 10
116.0636903532037
 20
172.1564132324798
 30
0.0
 10
115.7068874794451
 20
171.3293986445693
 30
0.0
 10
115.2425280866295
 20
170.0341044817678
 30
0.0
 10
114.6610996725231
 20
168.147876334187
 30
0.0
 10
114.386023015085
 20
166.768733970195
 30
0.0
 10
114.2037207369257
 20
165.8547313165226
 30
0.0
  0
LINE
  5
FF
330
1F
100
AcDbEntity
  8
0
  6
Continuous
 62
     7
370
    25
100
AcDbLine
 10
116.1957914338
 20
172.4626033692
 30
0.0
 11
116.4046339837
 21
172.3392139033
 31
0.0
  0
SPLINE
  5
100
330
1F
100
AcDbEntity
  8
0
  6
Continuous
 62
     7
370
    25
100
AcDbSpline
210
0.0
220
0.0
230
1.0
 70
     8
 71
     3
 72
    11
 73
     7
 74
     0
 42
0.00000001
 43
0.00000001
 40
0.0
 40
0.0
 40
0.0
 40
0.0
 40
0.1446702591042542
 40
0.3907520209323654
 40
0.5962314811354789
 40
1.0
 40
1.0
 40
1.0
 40
1.0
 10
116.0504335545704
 20
157.9957636739455
 30
0.0
 10
116.2495514510856
 20
157.72826571395
 30
0.0
 10
116.7873656566372
 20
157.0057580671765
 30
0.0
 10
117.6769436105892
 20
155.9559639551114
 30
0.0
 10
119.0197508966742
 20
154.5093181042228
 30
0.0
 10
120.0765848906076
 20
153.5815235488973
 30
0.0
 10
120.7769832687346
 20
152.9666438180074
 30
0.0
  0
LINE
  5
101
330
1F
100
AcDbEntity
  8
0
  6
Continuous
 62
     7
370
    25
100
AcDbLine
 10
116.0504335546
 20
157.9957636739
 30
0.0
 11
116.2617132416
 21
158.1149318947
 31
0.0
  0
LINE
  5
102
330
1F
100
AcDbEntity
  8
0
  6
Continuous
 62
     7
370
    25
100
AcDbLine
 10
142.8575631053
 20
164.3644673392
 30
0.0
 11
143.0998056286
 21
164.3518684946
 31
0.0
  0
SPLINE
  5
103
330
1F
100
AcDbEntity
  8
0
  6
Continuous
 62
     7
370
    25
100
AcDbSpline
210
0.0
220
0.0
230
1.0
 70
     8
 71
     3
 72
    11
 73
     7
 74
     0
 42
0.00000001
 43
0.00000001
 40
0.0
 40
0.0
 40
0.0
 40
0.0
 40
0.1446702591042547
 40
0.3907520209323575
 40
0.596231481135475
 40
1.0
 40
1.0
 40
1.0
 40
1.0
 10
141.107734931719
 20
157.743996441904
 30
0.0
 10
141.239836012278
 20
158.050186578632
 30
0.0
 10
141.5966388860366
 20
158.8772011665425
 30
0.0
 10
142.0609982788523
 20
160.1724953293441
 30
0.0
 10
142.6424266929587
 20
162.0587234769248
 30
0.0
 10
142.9175033503967
 20
163.4378658409169
 30
0.0
 10
143.099805628556
 20
164.3518684945893
 30
0.0
  0
LINE
  5
104
330
1F
100
AcDbEntity
  8
0
  6
Continuous
 62
     7
370
    25
100
AcDbLine
 10
140.8988923817
 20
157.8673859078
 30
0.0
 11
141.1077349317
 21
157.7439964419
 31
0.0
  0
SPLINE
  5
105
330
1F
100
AcDbEntity
  8
0
  6
Continuous
 62
     7
370
    25
100
AcDbSpline
210
0.0
220
0.0
230
1.0
 70
     8
 71
     3
 72
     9
 73
     5
 74
     0
 42
0.00000001
 43
0.00000001
 40
0.0
 40
0.0
 40
0.0
 40
0.0
 40
0.5863847898283578
 40
1.0
 40
1.0
 40
1.0
 40
1.0
 10
140.3817643542423
 20
156.2020248555096
 30
0.0
 10
140.5293409006748
 20
156.5011628971982
 30
0.0
 10
140.7810127533428
 20
157.0113023941252
 30
0.0
 10
141.0121380100784
 20
157.5296146211773
 30
0.0
 10
141.107734931719
 20
157.743996441904
 30
0.0
  0
ARC
  5
106
330
1F
100
AcDbEntity
  8
0
  6
Continuous
 62
     7
370
    25
100
AcDbCircle
 10
128.6517631827
 20
165.1032999056
 30
0.0
 40
14.72500000000002
100
AcDbArc
 50
303.6400367407
 51
322.8070678661
  0
SPLINE
  5
107
330
1F
100
AcDbEntity
  8
0
  6
Continuous
 62
     7
370
    25
100
AcDbSpline
210
0.0
220
0.0
230
1.0
 70
     8
 71
     3
 72
     9
 73
     5
 74
     0
 42
0.00000001
 43
0.00000001
 40
0.0
 40
0.0
 40
0.0
 40
0.0
 40
0.5862283062032674
 40
1.0
 40
1.0
 40
1.0
 40
1.0
 10
114.2037207369257
 20
165.8547313165226
 30
0.0
 10
114.1494680996697
 20
165.5264054615067
 30
0.0
 10
114.0569228631435
 20
164.9663406343027
 30
0.0
 10
113.9858692479459
 20
164.4019637737684
 30
0.0
 10
113.9564692732352
 20
164.1684406042453
 30
0.0
  0
SPLINE
  5
108
330
1F
100
AcDbEntity
  8
0
  6
Continuous
 62
     7
370
    25
100
AcDbSpline
210
0.0
220
0.0
230
1.0
 70
     8
 71
     3
 72
     9
 73
     5
 74
     0
 42
0.00000001
 43
0.00000001
 40
0.0
 40
0.0
 40
0.0
 40
0.0
 40
0.5863847898283638
 40
1.0
 40
1.0
 40
1.0
 40
1.0
 10
115.0780322775775
 20
159.3954584296376
 30
0.0
 10
115.2633051477019
 20
159.1180843705799
 30
0.0
 10
115.5792629851804
 20
158.6450604042885
 30
0.0
 10
115.9125719125319
 20
158.1857439469732
 30
0.0
 10
116.0504335545704
 20
157.9957636739455
 30
0.0
  0
ARC
  5
109
330
1F
100
AcDbEntity
  8
0
  6
Continuous
 62
     7
370
    25
100
AcDbCircle
 10
128.6517631827
 20
165.1032999056
 30
0.0
 40
14.72500000000002
100
AcDbArc
 50
183.6400367407
 51
202.8070678661
  0
SPLINE
  5
10A
330
1F
100
AcDbEntity
  8
0
  6
Continuous
 62
     7
370
    25
100
AcDbSpline
210
0.0
220
0.0
230
1.0
 70
     8
 71
     3
 72
     9
 73
     5
 74
     0
 42
0.00000001
 43
0.00000001
 40
0.0
 40
0.0
 40
0.0
 40
0.0
 40
0.5862283062032875
 40
1.0
 40
1.0
 40
1.0
 40
1.0
 10
143.099805628556
 20
164.3518684945893
 30
0.0
 10
143.154058265812
 20
164.6801943496051
 30
0.0
 10
143.2466035023382
 20
165.2402591768091
 30
0.0
 10
143.3176571175358
 20
165.8046360373434
 30
0.0
 10
143.3470570922465
 20
166.0381592068664
 30
0.0
  0
SPLINE
  5
10B
330
1F
100
AcDbEntity
  8
0
  6
Continuous
 62
     7
370
    25
100
AcDbSpline
210
0.0
220
0.0
230
1.0
 70
     8
 71
     3
 72
     9
 73
     5
 74
     0
 42
0.00000001
 43
0.00000001
 40
0.0
 40
0.0
 40
0.0
 40
0.0
 40
0.5863847898283613
 40
1.0
 40
1.0
 40
1.0
 40
1.0
 10
142.2254940879042
 20
170.8111413814742
 30
0.0
 10
142.0402212177798
 20
171.0885154405318
 30
0.0
 10
141.7242633803013
 20
171.5615394068233
 30
0.0
 10
141.3909544529499
 20
172.0208558641385
 30
0.0
 10
141.2530928109113
 20
172.2108361371663
 30
0.0
  0
ARC
  5
10C
330
1F
100
AcDbEntity
  8
0
  6
Continuous
 62
     7
370
    25
100
AcDbCircle
 10
128.6517631827
 20
165.1032999056
 30
0.0
 40
14.72500000000001
100
AcDbArc
 50
3.6400367407
 51
22.8070678661
  0
SPLINE
  5
10D
330
1F
100
AcDbEntity
  8
0
  6
Continuous
 62
     7
370
    25
100
AcDbSpline
210
0.0
220
0.0
230
1.0
 70
     8
 71
     3
 72
     9
 73
     5
 74
     0
 42
0.00000001
 43
0.00000001
 40
0.0
 40
0.0
 40
0.0
 40
0.0
 40
0.5862283062032709
 40
0.9999999999999999
 40
0.9999999999999999
 40
0.9999999999999999
 40
0.9999999999999999
 10
136.5265430967471
 20
177.2399559931043
 30
0.0
 10
136.2693308842122
 20
177.4511030826982
 30
0.0
 10
135.8305731343505
 20
177.8112820221311
 30
0.0
 10
135.3773352434184
 20
178.1550046881902
 30
0.0
 10
135.1897982335946
 20
178.2972273979217
 30
0.0
  0
SPLINE
  5
10E
330
1F
100
AcDbEntity
  8
0
  6
Continuous
 62
     7
370
    25
100
AcDbSpline
210
0.0
220
0.0
230
1.0
 70
     8
 71
     3
 72
     9
 73
     5
 74
     0
 42
0.00000001
 43
0.00000001
 40
0.0
 40
0.0
 40
0.0
 40
0.0
 40
0.5863847898283634
 40
1.0
 40
1.0
 40
1.0
 40
1.0
 10
130.4954929164028
 20
179.7124164315205
 30
0.0
 10
130.1626434998459
 20
179.6906524488894
 30
0.0
 10
129.5950138096994
 20
179.653536918254
 30
0.0
 10
129.0305796256124
 20
179.5945411485172
 30
0.0
 10
128.7971210619332
 20
179.5701396008182
 30
0.0
  0
ARC
  5
10F
330
1F
100
AcDbEntity
  8
0
  6
Continuous
 62
     7
370
    25
100
AcDbCircle
 10
128.6517631827
 20
165.1032999056
 30
0.0
 40
14.72500000000001
100
AcDbArc
 50
63.6400367407
 51
82.8070678661
  0
SPLINE
  5
110
330
1F
100
AcDbEntity
  8
0
  6
Continuous
 62
     7
370
    25
100
AcDbSpline
210
0.0
220
0.0
230
1.0
 70
     8
 71
     3
 72
     9
 73
     5
 74
     0
 42
0.00000001
 43
0.00000001
 40
0.0
 40
0.0
 40
0.0
 40
0.0
 40
0.5862283062032693
 40
1.0
 40
1.0
 40
1.0
 40
1.0
 10
122.078500650932
 20
177.991387404071
 30
0.0
 10
121.7670358011411
 20
177.8742086386491
 30
0.0
 10
121.2357328147532
 20
177.674322750878
 30
0.0
 10
120.7114413086235
 20
177.4536685564026
 30
0.0
 10
120.494504324089
 20
177.3623680966113
 30
0.0
  0
SPLINE
  5
111
330
1F
100
AcDbEntity
  8
0
  6
Continuous
 62
     7
370
    25
100
AcDbSpline
210
0.0
220
0.0
230
1.0
 70
     8
 71
     3
 72
     9
 73
     5
 74
     0
 42
0.00000001
 43
0.00000001
 40
0.0
 40
0.0
 40
0.0
 40
0.0
 40
0.5863847898283643
 40
0.9999999999999999
 40
0.9999999999999999
 40
0.9999999999999999
 40
0.9999999999999999
 10
116.9217620112395
 20
174.0045749556021
 30
0.0
 10
116.774185464807
 20
173.7054369139136
 30
0.0
 10
116.5225136121389
 20
173.1952974169866
 30
0.0
 10
116.2913883554034
 20
172.6769851899345
 30
0.0
 10
116.1957914337627
 20
172.4626033692078
 30
0.0
  0
ARC
  5
112
330
1F
100
AcDbEntity
  8
0
  6
Continuous
 62
     7
370
    25
100
AcDbCircle
 10
128.6517631827
 20
165.1032999056
 30
0.0
 40
14.72500000000003
100
AcDbArc
 50
123.6400367407
 51
142.8070678661
  0
SPLINE
  5
113
330
1F
100
AcDbEntity
  8
0
  6
Continuous
 62
     7
370
    25
100
AcDbSpline
210
0.0
220
0.0
230
1.0
 70
    24
 71
     3
 72
    12
 73
     8
 74
     0
 42
0.00000001
 43
0.00000001
 40
0.0
 40
0.0
 40
0.0
 40
0.0
 40
0.3013828945620944
 40
0.4108442493795586
 40
0.6247185195336503
 40
0.6986171054378635
 40
0.9999999999999999
 40
0.9999999999999999
 40
0.9999999999999999
 40
0.9999999999999999
 10
120.5527603216142
 20
152.8401752017865
 30
0.0
 10
120.0876568697728
 20
153.3350522571809
 30
0.0
 10
119.4536292524017
 20
154.0096671607708
 30
0.0
 10
118.484913303867
 20
155.0403954734215
 30
0.0
 10
117.8677884989182
 20
155.6970255308309
 30
0.0
 10
116.9545382723971
 20
156.6687374825476
 30
0.0
 10
116.3754056147207
 20
157.28494332488
 30
0.0
 10
115.9103129155311
 20
157.7798089392915
 30
0.0
  0
ARC
  5
114
330
1F
100
AcDbEntity
  8
0
  6
Continuous
 62
     7
370
    25
100
AcDbCircle
 10
116.2884787245
 20
157.687874329
 30
0.0
 40
0.389180358796592
100
AcDbArc
 50
127.7094634934
 51
166.3360839426
  0
SPLINE
  5
115
330
1F
100
AcDbEntity
  8
0
  6
Continuous
 62
     7
370
    25
100
AcDbSpline
210
0.0
220
0.0
230
1.0
 70
    24
 71
     3
 72
    12
 73
     8
 74
     0
 42
0.00000001
 43
0.00000001
 40
0.0
 40
0.0
 40
0.0
 40
0.0
 40
0.3013828945620992
 40
0.4108442493795573
 40
0.6247185195336495
 40
0.6986171054378605
 40
1.0
 40
1.0
 40
1.0
 40
1.0
 10
143.321442136545
 20
164.220920034382
 30
0.0
 10
143.1254177607441
 20
163.5706901020024
 30
0.0
 10
142.8581979251492
 20
162.6842986268631
 30
0.0
 10
142.4499189962612
 20
161.3300018500556
 30
0.0
 10
142.1898230881307
 20
160.4672410629597
 30
0.0
 10
141.8049209660435
 20
159.1904871909222
 30
0.0
 10
141.5608373814615
 20
158.3808406760471
 30
0.0
 10
141.3648175375165
 20
157.7306257762284
 30
0.0
  0
ARC
  5
116
330
1F
100
AcDbEntity
  8
0
  6
Continuous
 62
     7
370
    25
100
AcDbCircle
 10
141.255352341
 20
158.1040942788
 30
0.0
 40
0.3891803587959013
100
AcDbArc
 50
247.7094634933
 51
286.3360839426
  0
ARC
  5
117
330
1F
100
AcDbEntity
  8
0
  6
Continuous
 62
     7
370
    25
100
AcDbCircle
 10
143.0237979744
 20
163.9701825135
 30
0.0
 40
0.3891803587985084
100
AcDbArc
 50
40.1110206644
 51
78.7376411134
  0
ARC
  5
118
330
1F
100
AcDbEntity
  8
0
  6
Continuous
 62
     7
370
    25
100
AcDbCircle
 10
114.2797283911
 20
166.2364172977
 30
0.0
 40
0.3891803588377336
100
AcDbArc
 50
220.1110206664
 51
258.7376411114
  0
SPLINE
  5
119
330
1F
100
AcDbEntity
  8
0
  6
Continuous
 62
     7
370
    25
100
AcDbSpline
210
0.0
220
0.0
230
1.0
 70
    24
 71
     3
 72
    12
 73
     8
 74
     0
 42
0.00000001
 43
0.00000001
 40
0.0
 40
0.0
 40
0.0
 40
0.0
 40
0.3013828945621506
 40
0.4108442493795785
 40
0.6247185195336595
 40
0.6986171054378615
 40
1.0
 40
1.0
 40
1.0
 40
1.0
 10
113.9820842289368
 20
165.9856797767299
 30
0.0
 10
114.1781086047377
 20
166.6359097091096
 30
0.0
 10
114.4453284403326
 20
167.5223011842489
 30
0.0
 10
114.8536073692206
 20
168.8765979610564
 30
0.0
 10
115.1137032773511
 20
169.7393587481522
 30
0.0
 10
115.4986053994382
 20
171.0161126201896
 30
0.0
 10
115.7426889840203
 20
171.8257591350648
 30
0.0
 10
115.9387088279652
 20
172.4759740348834
 30
0.0
  0
ARC
  5
11A
330
1F
100
AcDbEntity
  8
0
  6
Continuous
 62
     7
370
    25
100
AcDbCircle
 10
116.0481740245
 20
172.1025055323
 30
0.0
 40
0.3891803587961301
100
AcDbArc
 50
67.7094634933
 51
106.3360839426
  0
ARC
  5
11B
330
1F
100
AcDbEntity
  8
0
  6
Continuous
 62
     7
370
    25
100
AcDbCircle
 10
122.447054234
 20
178.1164058352
 30
0.0
 40
0.3891803588382458
100
AcDbArc
 50
160.1110206665
 51
198.7376411113
  0
SPLINE
  5
11C
330
1F
100
AcDbEntity
  8
0
  6
Continuous
 62
     7
370
    25
100
AcDbSpline
210
0.0
220
0.0
230
1.0
 70
    24
 71
     3
 72
    12
 73
     8
 74
     0
 42
0.00000001
 43
0.00000001
 40
0.0
 40
0.0
 40
0.0
 40
0.0
 40
0.3013828945621499
 40
0.4108442493795587
 40
0.6247185195336379
 40
0.6986171054378638
 40
0.9999999999999999
 40
0.9999999999999999
 40
0.9999999999999999
 40
0.9999999999999999
 10
122.0810870900635
 20
178.2488044804992
 30
0.0
 10
122.7422149177058
 20
178.4041573574845
 30
0.0
 10
123.6434623706719
 20
178.6159339290337
 30
0.0
 10
125.0204572480945
 20
178.9395023931907
 30
0.0
 10
125.8976779611738
 20
179.1456331228771
 30
0.0
 10
127.1958303097819
 20
179.4506750431978
 30
0.0
 10
128.0190465520404
 20
179.6441157157406
 30
0.0
 10
128.680159095175
 20
179.7994650011478
 30
0.0
  0
ARC
  5
11D
330
1F
100
AcDbEntity
  8
0
  6
Continuous
 62
     7
370
    25
100
AcDbCircle
 10
128.4114584827
 20
179.5179311088
 30
0.0
 40
0.3891803587968207
100
AcDbArc
 50
7.7094634934
 51
46.3360839425
  0
SPLINE
  5
11E
330
1F
100
AcDbEntity
  8
0
  6
Continuous
 62
     7
370
    25
100
AcDbSpline
210
0.0
220
0.0
230
1.0
 70
    24
 71
     3
 72
    12
 73
     8
 74
     0
 42
0.00000001
 43
0.00000001
 40
0.0
 40
0.0
 40
0.0
 40
0.0
 40
0.3013828945621527
 40
0.410844249379554
 40
0.624718519533646
 40
0.6986171054378584
 40
0.9999999999999999
 40
0.9999999999999999
 40
0.9999999999999999
 40
0.9999999999999999
 10
136.7507660438676
 20
177.3664246093252
 30
0.0
 10
137.2158694957091
 20
176.8715475539308
 30
0.0
 10
137.8498971130801
 20
176.1969326503408
 30
0.0
 10
138.8186130616149
 20
175.1662043376902
 30
0.0
 10
139.4357378665636
 20
174.5095742802809
 30
0.0
 10
140.3489880930846
 20
173.5378623285642
 30
0.0
 10
140.928120750761
 20
172.9216564862318
 30
0.0
 10
141.3932134499507
 20
172.4267908718202
 30
0.0
  0
ARC
  5
11F
330
1F
100
AcDbEntity
  8
0
  6
Continuous
 62
     7
370
    25
100
AcDbCircle
 10
141.0150476409
 20
172.5187254821
 30
0.0
 40
0.389180358796152
100
AcDbArc
 50
307.7094634934
 51
346.3360839426
  0
ARC
  5
120
330
1F
100
AcDbEntity
  8
0
  6
Continuous
 62
     7
370
    25
100
AcDbCircle
 10
136.8190890256
 20
176.9832884431
 30
0.0
 40
0.3891803587980495
100
AcDbArc
 50
100.1110206644
 51
138.7376411134
  0
LINE
  5
121
330
1F
100
AcDbEntity
  8
0
  6
Continuous
 62
     7
370
    25
100
AcDbLine
 10
141.3648175375
 20
157.7306257762
 30
0.0
 11
140.860483468
 21
156.0577057296
 31
0.0
  0
LINE
  5
122
330
1F
100
AcDbEntity
  8
0
  6
Continuous
 62
     7
370
    25
100
AcDbLine
 10
140.860483468
 20
156.0577057296
 30
0.0
 11
140.3817643542
 21
156.2020248555
 31
0.0
  0
LINE
  5
123
330
1F
100
AcDbEntity
  8
0
  6
Continuous
 62
     7
370
    25
100
AcDbLine
 10
115.9103129155
 20
157.7798089393
 30
0.0
 11
114.7136886914
 21
159.0530350788
 31
0.0
  0
LINE
  5
124
330
1F
100
AcDbEntity
  8
0
  6
Continuous
 62
     7
370
    25
100
AcDbLine
 10
115.0780322776
 20
159.3954584296
 30
0.0
 11
114.7136886914
 21
159.0530350788
 31
0.0
  0
LINE
  5
125
330
1F
100
AcDbEntity
  8
0
  6
Continuous
 62
     7
370
    25
100
AcDbLine
 10
141.39321345
 20
172.4267908718
 30
0.0
 11
142.5898376741
 21
171.1535647323
 31
0.0
  0
LINE
  5
126
330
1F
100
AcDbEntity
  8
0
  6
Continuous
 62
     7
370
    25
100
AcDbLine
 10
142.5898376741
 20
171.1535647323
 30
0.0
 11
142.2254940879
 21
170.8111413815
 31
0.0
  0
LINE
  5
127
330
1F
100
AcDbEntity
  8
0
  6
Continuous
 62
     7
370
    25
100
AcDbLine
 10
115.938708828
 20
172.4759740349
 30
0.0
 11
116.4430428975
 21
174.1488940815
 31
0.0
  0
LINE
  5
128
330
1F
100
AcDbEntity
  8
0
  6
Continuous
 62
     7
370
    25
100
AcDbLine
 10
116.4430428975
 20
174.1488940815
 30
0.0
 11
116.9217620112
 21
174.0045749556
 31
0.0
  0
LINE
  5
129
330
1F
100
AcDbEntity
  8
0
  6
Continuous
 62
     7
370
    25
100
AcDbLine
 10
128.6801590952
 20
179.7994650011
 30
0.0
 11
130.3811173888
 21
180.1991589083
 31
0.0
  0
LINE
  5
12A
330
1F
100
AcDbEntity
  8
0
  6
Continuous
 62
     7
370
    25
100
AcDbLine
 10
130.3811173888
 20
180.1991589083
 30
0.0
 11
130.4954929164
 21
179.7124164315
 31
0.0
  0
LINE
  5
12B
330
1F
100
AcDbEntity
  8
0
  6
Continuous
 62
     7
370
    25
100
AcDbLine
 10
120.7517631827
 20
152.6284331699
 30
0.0
 11
120.5527603216
 21
152.8401752018
 31
0.0
  0
LINE
  5
12C
330
1F
100
AcDbEntity
  8
0
  6
Continuous
 62
     7
370
    25
100
AcDbLine
 10
136.923397569
 20
152.3574892377
 30
0.0
 11
136.5517631827
 21
152.2701619938
 31
0.0
  0
LINE
  5
12D
330
1F
100
AcDbEntity
  8
0
  6
Continuous
 62
     7
370
    25
100
AcDbLine
 10
136.923397569
 20
152.3574892377
 30
0.0
 11
136.8090220414
 21
152.8442317145
 31
0.0
  0
LINE
  5
12E
330
1F
100
AcDbEntity
  8
0
  6
Continuous
 62
     7
370
    25
100
AcDbLine
 10
113.9564692732
 20
164.1684406042
 30
0.0
 11
113.4777501594
 21
164.3127597301
 31
0.0
  0
LINE
  5
12F
330
1F
100
AcDbEntity
  8
0
  6
Continuous
 62
     7
370
    25
100
AcDbLine
 10
113.4777501594
 20
164.3127597301
 30
0.0
 11
113.9820842289
 21
165.9856797767
 31
0.0
  0
LINE
  5
130
330
1F
100
AcDbEntity
  8
0
  6
Continuous
 62
     7
370
    25
100
AcDbLine
 10
143.825776206
 20
165.893840081
 30
0.0
 11
143.3214421365
 21
164.2209200344
 31
0.0
  0
LINE
  5
131
330
1F
100
AcDbEntity
  8
0
  6
Continuous
 62
     7
370
    25
100
AcDbLine
 10
143.3470570922
 20
166.0381592069
 30
0.0
 11
143.825776206
 21
165.893840081
 31
0.0
  0
LINE
  5
132
330
1F
100
AcDbEntity
  8
0
  6
Continuous
 62
     7
370
    25
100
AcDbLine
 10
135.5541418198
 20
178.6396507488
 30
0.0
 11
136.7507660439
 21
177.3664246093
 31
0.0
  0
LINE
  5
133
330
1F
100
AcDbEntity
  8
0
  6
Continuous
 62
     7
370
    25
100
AcDbLine
 10
135.1897982336
 20
178.2972273979
 30
0.0
 11
135.5541418198
 21
178.6396507488
 31
0.0
  0
LINE
  5
134
330
1F
100
AcDbEntity
  8
0
  6
Continuous
 62
     7
370
    25
100
AcDbLine
 10
120.4945043241
 20
177.3623680966
 30
0.0
 11
120.3801287965
 21
177.8491105734
 31
0.0
  0
LINE
  5
135
330
1F
100
AcDbEntity
  8
0
  6
Continuous
 62
     7
370
    25
100
AcDbLine
 10
120.3801287965
 20
177.8491105734
 30
0.0
 11
122.0810870901
 21
178.2488044805
 31
0.0
  0
LINE
  5
136
330
1F
100
AcDbEntity
  8
0
  6
Continuous
 62
     7
370
    25
100
AcDbLine
 10
136.8090220414
 20
152.8442317145
 30
0.0
 11
138.6790146184
 21
153.2836455686
 31
0.0
  0
LINE
  5
137
330
1F
100
AcDbEntity
  8
0
  6
Continuous
 62
     7
370
    25
100
AcDbLine
 10
139.8273116261
 20
154.3628568519
 30
0.0
 11
140.3817643542
 21
156.2020248555
 31
0.0
  0
ARC
  5
138
330
1F
100
AcDbEntity
  8
0
  6
Continuous
 62
     7
370
    25
100
AcDbCircle
 10
128.6517631827
 20
165.1032999056
 30
0.0
 40
15.50000000000002
100
AcDbArc
 50
310.309742062
 51
316.1373625449
  0
LINE
  5
139
330
1F
100
AcDbEntity
  8
0
  6
Continuous
 62
     7
370
    25
100
AcDbLine
 10
138.793390146
 20
152.7969030918
 30
0.0
 11
136.923397569
 21
152.3574892377
 31
0.0
  0
LINE
  5
13A
330
1F
100
AcDbEntity
  8
0
  6
Continuous
 62
     7
370
    25
100
AcDbLine
 10
138.793390146
 20
152.7969030918
 30
0.0
 11
138.6790146184
 21
153.2836455686
 31
0.0
  0
ARC
  5
13B
330
1F
100
AcDbEntity
  8
0
  6
Continuous
 62
     7
370
    25
100
AcDbCircle
 10
128.6517631827
 20
165.1032999056
 30
0.0
 40
16.00000000000001
100
AcDbArc
 50
310.309742062
 51
316.1373625449
  0
LINE
  5
13C
330
1F
100
AcDbEntity
  8
0
  6
Continuous
 62
     7
370
    25
100
AcDbLine
 10
139.0024743422
 20
152.9023663964
 30
0.0
 11
138.6790146184
 21
153.2836455686
 31
0.0
  0
LINE
  5
13D
330
1F
100
AcDbEntity
  8
0
  6
Continuous
 62
     7
370
    25
100
AcDbLine
 10
140.1878131888
 20
154.0163909469
 30
0.0
 11
139.8273116261
 21
154.3628568519
 31
0.0
  0
LINE
  5
13E
330
1F
100
AcDbEntity
  8
0
  6
Continuous
 62
     7
370
    25
100
AcDbLine
 10
140.3060307399
 20
154.218537726
 30
0.0
 11
139.8273116261
 21
154.3628568519
 31
0.0
  0
ARC
  5
13F
330
1F
100
AcDbEntity
  8
0
  6
Continuous
 62
     7
370
    25
100
AcDbCircle
 10
139.8273116261
 20
154.3628568519
 30
0.0
 40
0.4999999999999974
100
AcDbArc
 50
316.1373625449
 51
343.2235523034
  0
ARC
  5
140
330
1F
100
AcDbEntity
  8
0
  6
Continuous
 62
     7
370
    25
100
AcDbCircle
 10
138.6790146184
 20
153.2836455686
 30
0.0
 40
0.5000000000000263
100
AcDbArc
 50
283.2235523034
 51
310.309742062
  0
LINE
  5
141
330
1F
100
AcDbEntity
  8
0
  6
Continuous
 62
     7
370
    25
100
AcDbLine
 10
140.860483468
 20
156.0577057296
 30
0.0
 11
140.3060307399
 21
154.218537726
 31
0.0
  0
LINE
  5
142
330
1F
100
AcDbEntity
  8
0
  6
Continuous
 62
     7
370
    25
100
AcDbLine
 10
113.7624924287
 20
160.7952125792
 30
0.0
 11
115.0780322776
 21
159.3954584296
 31
0.0
  0
LINE
  5
143
330
1F
100
AcDbEntity
  8
0
  6
Continuous
 62
     7
370
    25
100
AcDbLine
 10
114.7136886914
 20
159.0530350788
 30
0.0
 11
113.3981488425
 21
160.4527892283
 31
0.0
  0
LINE
  5
144
330
1F
100
AcDbEntity
  8
0
  6
Continuous
 62
     7
370
    25
100
AcDbLine
 10
113.7624924287
 20
160.7952125792
 30
0.0
 11
113.3981488425
 21
160.4527892283
 31
0.0
  0
ARC
  5
145
330
1F
100
AcDbEntity
  8
0
  6
Continuous
 62
     7
370
    25
100
AcDbCircle
 10
113.7624924287
 20
160.7952125792
 30
0.0
 40
0.500000000000003
100
AcDbArc
 50
196.1373625449
 51
223.2235523034
  0
LINE
  5
146
330
1F
100
AcDbEntity
  8
0
  6
Continuous
 62
     7
370
    25
100
AcDbLine
 10
113.7624924287
 20
160.7952125792
 30
0.0
 11
113.2821933721
 21
160.6562420203
 31
0.0
  0
LINE
  5
147
330
1F
100
AcDbEntity
  8
0
  6
Continuous
 62
     7
370
    25
100
AcDbLine
 10
113.9564692732
 20
164.1684406042
 30
0.0
 11
113.4020165451
 21
162.3292726006
 31
0.0
  0
ARC
  5
148
330
1F
100
AcDbEntity
  8
0
  6
Continuous
 62
     7
370
    25
100
AcDbCircle
 10
128.6517631827
 20
165.1032999056
 30
0.0
 40
15.50000000000002
100
AcDbArc
 50
190.309742062
 51
196.1373625449
  0
LINE
  5
149
330
1F
100
AcDbEntity
  8
0
  6
Continuous
 62
     7
370
    25
100
AcDbLine
 10
113.4020165451
 20
162.3292726006
 30
0.0
 11
112.9232974313
 21
162.4735917265
 31
0.0
  0
LINE
  5
14A
330
1F
100
AcDbEntity
  8
0
  6
Continuous
 62
     7
370
    25
100
AcDbLine
 10
112.9232974313
 20
162.4735917265
 30
0.0
 11
113.4777501594
 21
164.3127597301
 31
0.0
  0
LINE
  5
14B
330
1F
100
AcDbEntity
  8
0
  6
Continuous
 62
     7
370
    25
100
AcDbLine
 10
143.3470570922
 20
166.0381592069
 30
0.0
 11
143.9015098204
 21
167.8773272105
 31
0.0
  0
LINE
  5
14C
330
1F
100
AcDbEntity
  8
0
  6
Continuous
 62
     7
370
    25
100
AcDbLine
 10
143.5410339368
 20
169.4113872319
 30
0.0
 11
142.2254940879
 21
170.8111413815
 31
0.0
  0
ARC
  5
14D
330
1F
100
AcDbEntity
  8
0
  6
Continuous
 62
     7
370
    25
100
AcDbCircle
 10
128.6517631827
 20
165.1032999056
 30
0.0
 40
15.50000000000002
100
AcDbArc
 50
10.309742062
 51
16.1373625448
  0
ARC
  5
14E
330
1F
100
AcDbEntity
  8
0
  6
Continuous
 62
     7
370
    25
100
AcDbCircle
 10
113.4020165451
 20
162.3292726006
 30
0.0
 40
0.4999999999999974
100
AcDbArc
 50
163.2235523034
 51
190.309742062
  0
LINE
  5
14F
330
1F
100
AcDbEntity
  8
0
  6
Continuous
 62
     7
370
    25
100
AcDbLine
 10
113.4020165451
 20
162.3292726006
 30
0.0
 11
112.9100892342
 21
162.2397878488
 31
0.0
  0
ARC
  5
150
330
1F
100
AcDbEntity
  8
0
  6
Continuous
 62
     7
370
    25
100
AcDbCircle
 10
128.6517631827
 20
165.1032999056
 30
0.0
 40
16.00000000000001
100
AcDbArc
 50
190.309742062
 51
196.1373625449
  0
LINE
  5
151
330
1F
100
AcDbEntity
  8
0
  6
Continuous
 62
     7
370
    25
100
AcDbLine
 10
143.9015098204
 20
167.8773272105
 30
0.0
 11
144.3802289341
 21
167.7330080846
 31
0.0
  0
LINE
  5
152
330
1F
100
AcDbEntity
  8
0
  6
Continuous
 62
     7
370
    25
100
AcDbLine
 10
144.3802289341
 20
167.7330080846
 30
0.0
 11
143.825776206
 21
165.893840081
 31
0.0
  0
ARC
  5
153
330
1F
100
AcDbEntity
  8
0
  6
Continuous
 62
     7
370
    25
100
AcDbCircle
 10
128.6517631827
 20
165.1032999056
 30
0.0
 40
16.0
100
AcDbArc
 50
10.309742062
 51
16.1373625448
  0
LINE
  5
154
330
1F
100
AcDbEntity
  8
0
  6
Continuous
 62
     7
370
    25
100
AcDbLine
 10
144.3934371312
 20
167.9668119623
 30
0.0
 11
143.9015098204
 21
167.8773272105
 31
0.0
  0
LINE
  5
155
330
1F
100
AcDbEntity
  8
0
  6
Continuous
 62
     7
370
    25
100
AcDbLine
 10
144.0213329934
 20
169.5503577908
 30
0.0
 11
143.5410339368
 21
169.4113872319
 31
0.0
  0
LINE
  5
156
330
1F
100
AcDbEntity
  8
0
  6
Continuous
 62
     7
370
    25
100
AcDbLine
 10
143.905377523
 20
169.7538105828
 30
0.0
 11
143.5410339368
 21
169.4113872319
 31
0.0
  0
ARC
  5
157
330
1F
100
AcDbEntity
  8
0
  6
Continuous
 62
     7
370
    25
100
AcDbCircle
 10
143.5410339368
 20
169.4113872319
 30
0.0
 40
0.5000000000000001
100
AcDbArc
 50
16.1373625448
 51
43.2235523034
  0
LINE
  5
158
330
1F
100
AcDbEntity
  8
0
  6
Continuous
 62
     7
370
    25
100
AcDbLine
 10
142.5898376741
 20
171.1535647323
 30
0.0
 11
143.905377523
 21
169.7538105828
 31
0.0
  0
ARC
  5
159
330
1F
100
AcDbEntity
  8
0
  6
Continuous
 62
     7
370
    25
100
AcDbCircle
 10
143.9015098204
 20
167.8773272105
 30
0.0
 40
0.499999999999982
100
AcDbArc
 50
343.2235523034
 51
10.309742062
  0
LINE
  5
15A
330
1F
100
AcDbEntity
  8
0
  6
Continuous
 62
     7
370
    25
100
AcDbLine
 10
120.4945043241
 20
177.3623680966
 30
0.0
 11
118.6245117471
 21
176.9229542425
 31
0.0
  0
LINE
  5
15B
330
1F
100
AcDbEntity
  8
0
  6
Continuous
 62
     7
370
    25
100
AcDbLine
 10
117.4762147393
 20
175.8437429592
 30
0.0
 11
116.9217620112
 21
174.0045749556
 31
0.0
  0
ARC
  5
15C
330
1F
100
AcDbEntity
  8
0
  6
Continuous
 62
     7
370
    25
100
AcDbCircle
 10
128.6517631827
 20
165.1032999056
 30
0.0
 40
15.50000000000001
100
AcDbArc
 50
130.309742062
 51
136.1373625449
  0
LINE
  5
15D
330
1F
100
AcDbEntity
  8
0
  6
Continuous
 62
     7
370
    25
100
AcDbLine
 10
116.4430428975
 20
174.1488940815
 30
0.0
 11
116.9974956256
 21
175.9880620851
 31
0.0
  0
LINE
  5
15E
330
1F
100
AcDbEntity
  8
0
  6
Continuous
 62
     7
370
    25
100
AcDbLine
 10
116.9974956256
 20
175.9880620851
 30
0.0
 11
117.4762147393
 21
175.8437429592
 31
0.0
  0
ARC
  5
15F
330
1F
100
AcDbEntity
  8
0
  6
Continuous
 62
     7
370
    25
100
AcDbCircle
 10
117.4762147393
 20
175.8437429592
 30
0.0
 40
0.5000000000000056
100
AcDbArc
 50
136.1373625448
 51
163.2235523034
  0
LINE
  5
160
330
1F
100
AcDbEntity
  8
0
  6
Continuous
 62
     7
370
    25
100
AcDbLine
 10
117.4762147393
 20
175.8437429592
 30
0.0
 11
117.1157131767
 21
176.1902088642
 31
0.0
  0
ARC
  5
161
330
1F
100
AcDbEntity
  8
0
  6
Continuous
 62
     7
370
    25
100
AcDbCircle
 10
128.6517631827
 20
165.1032999056
 30
0.0
 40
15.99999999999999
100
AcDbArc
 50
130.309742062
 51
136.1373625449
  0
LINE
  5
162
330
1F
100
AcDbEntity
  8
0
  6
Continuous
 62
     7
370
    25
100
AcDbLine
 10
118.6245117471
 20
176.9229542425
 30
0.0
 11
118.3010520233
 21
177.3042334147
 31
0.0
  0
LINE
  5
163
330
1F
100
AcDbEntity
  8
0
  6
Continuous
 62
     7
370
    25
100
AcDbLine
 10
118.6245117471
 20
176.9229542425
 30
0.0
 11
118.5101362194
 21
177.4096967193
 31
0.0
  0
LINE
  5
164
330
1F
100
AcDbEntity
  8
0
  6
Continuous
 62
     7
370
    25
100
AcDbLine
 10
118.5101362194
 20
177.4096967193
 30
0.0
 11
120.3801287965
 21
177.8491105734
 31
0.0
  0
LINE
  5
165
330
1F
100
AcDbEntity
  8
0
  6
Continuous
 62
     7
370
    25
100
AcDbLine
 10
130.3811173888
 20
180.1991589083
 30
0.0
 11
132.2511099658
 21
180.6385727624
 31
0.0
  0
LINE
  5
166
330
1F
100
AcDbEntity
  8
0
  6
Continuous
 62
     7
370
    25
100
AcDbLine
 10
132.2511099658
 20
180.6385727624
 30
0.0
 11
132.3654854934
 21
180.1518302856
 31
0.0
  0
LINE
  5
167
330
1F
100
AcDbEntity
  8
0
  6
Continuous
 62
     7
370
    25
100
AcDbLine
 10
132.3654854934
 20
180.1518302856
 30
0.0
 11
130.4954929164
 21
179.7124164315
 31
0.0
  0
ARC
  5
168
330
1F
100
AcDbEntity
  8
0
  6
Continuous
 62
     7
370
    25
100
AcDbCircle
 10
133.8742583847
 20
179.6969815475
 30
0.0
 40
0.5000000000000017
100
AcDbArc
 50
43.2235523034
 51
70.309742062
  0
LINE
  5
169
330
1F
100
AcDbEntity
  8
0
  6
Continuous
 62
     7
370
    25
100
AcDbLine
 10
133.8742583847
 20
179.6969815475
 30
0.0
 11
134.2386019708
 21
180.0394048984
 31
0.0
  0
LINE
  5
16A
330
1F
100
AcDbEntity
  8
0
  6
Continuous
 62
     7
370
    25
100
AcDbLine
 10
134.0427259718
 20
180.1677454714
 30
0.0
 11
133.8742583847
 21
179.6969815475
 31
0.0
  0
LINE
  5
16B
330
1F
100
AcDbEntity
  8
0
  6
Continuous
 62
     7
370
    25
100
AcDbLine
 10
135.1897982336
 20
178.2972273979
 30
0.0
 11
133.8742583847
 21
179.6969815475
 31
0.0
  0
LINE
  5
16C
330
1F
100
AcDbEntity
  8
0
  6
Continuous
 62
     7
370
    25
100
AcDbLine
 10
134.2386019708
 20
180.0394048984
 30
0.0
 11
135.5541418198
 21
178.6396507488
 31
0.0
  0
ARC
  5
16D
330
1F
100
AcDbEntity
  8
0
  6
Continuous
 62
     7
370
    25
100
AcDbCircle
 10
132.3654854934
 20
180.1518302856
 30
0.0
 40
0.5000000000000073
100
AcDbArc
 50
76.1373625449
 51
103.2235523034
  0
LINE
  5
16E
330
1F
100
AcDbEntity
  8
0
  6
Continuous
 62
     7
370
    25
100
AcDbLine
 10
132.3654854934
 20
180.1518302856
 30
0.0
 11
132.4852829873
 21
180.6372667495
 31
0.0
  0
ARC
  5
16F
330
1F
100
AcDbEntity
  8
0
  6
Continuous
 62
     7
370
    25
100
AcDbCircle
 10
128.6517631827
 20
165.1032999056
 30
0.0
 40
15.5
100
AcDbArc
 50
70.309742062
 51
76.1373625449
  0
ARC
  5
170
330
1F
100
AcDbEntity
  8
0
  6
Continuous
 62
     7
370
    25
100
AcDbCircle
 10
118.6245117471
 20
176.9229542425
 30
0.0
 40
0.4999999999999922
100
AcDbArc
 50
103.2235523034
 51
130.309742062
  0
ARC
  5
171
330
1F
100
AcDbEntity
  8
0
  6
Continuous
 62
     7
370
    25
100
AcDbCircle
 10
128.6517631827
 20
165.1032999056
 30
0.0
 40
16.0
100
AcDbArc
 50
70.309742062
 51
76.1373625449
  0
ARC
  5
172
330
1F
100
AcDbEntity
  8
0
  6
Continuous
 62
     7
370
    25
100
AcDbCircle
 10
128.6517631827
 20
165.1032999056
 30
0.0
 40
9.574999999999989
100
AcDbArc
 50
325.5951096848
 51
214.4048903152
  0
ARC
  5
173
330
1F
100
AcDbEntity
  8
0
  6
Continuous
 62
     7
370
    25
100
AcDbCircle
 10
128.6517631827
 20
165.1032999056
 30
0.0
 40
8.050000000000002
100
AcDbArc
 50
348.9219835539
 51
191.0780164461
  0
ARC
  5
174
330
1F
100
AcDbEntity
  8
0
  6
Continuous
 62
     7
370
    25
100
AcDbCircle
 10
128.6517631827
 20
165.1032999056
 30
0.0
 40
8.249999999999995
100
AcDbArc
 50
343.2508741362
 51
196.7491258638
  0
SPLINE
  5
175
330
1F
100
AcDbEntity
  8
0
  6
Continuous
 62
     7
370
    25
100
AcDbSpline
210
0.0
220
0.0
230
1.0
 70
     8
 71
     3
 72
    57
 73
    53
 74
     0
 42
0.00000001
 43
0.00000001
 40
0.0
 40
0.0
 40
0.0
 40
0.0
 40
0.0625000000000005
 40
0.0625000000000005
 40
0.125000000000001
 40
0.125000000000001
 40
0.1875000000000016
 40
0.1875000000000016
 40
0.2500000000000021
 40
0.2500000000000021
 40
0.2812500000000022
 40
0.2812500000000022
 40
0.3125000000000023
 40
0.3125000000000023
 40
0.3750000000000023
 40
0.3750000000000023
 40
0.3906250000000024
 40
0.3906250000000024
 40
0.4062500000000024
 40
0.4062500000000024
 40
0.4375000000000024
 40
0.4375000000000024
 40
0.4687500000000023
 40
0.4687500000000023
 40
0.4843750000000023
 40
0.4843750000000023
 40
0.5000000000000022
 40
0.5156250000000022
 40
0.5156250000000022
 40
0.5312500000000022
 40
0.5312500000000022
 40
0.5468750000000022
 40
0.5468750000000022
 40
0.5625000000000023
 40
0.5625000000000023
 40
0.6250000000000019
 40
0.6250000000000019
 40
0.6562500000000017
 40
0.6562500000000017
 40
0.6875000000000013
 40
0.6875000000000013
 40
0.7500000000000008
 40
0.7500000000000008
 40
0.7812500000000007
 40
0.7812500000000007
 40
0.8125000000000004
 40
0.8125000000000004
 40
0.8750000000000003
 40
0.8750000000000003
 40
0.9375000000000001
 40
0.9375000000000001
 40
1.0
 40
1.0
 40
1.0
 40
1.0
 10
139.8824055514102
 20
179.1267143965478
 30
0.0
 10
140.8756902820615
 20
178.9122548282964
 30
0.0
 10
141.8529577596375
 20
178.6680915947059
 30
0.0
 10
143.7804607846391
 20
178.114132944388
 30
0.0
 10
144.7306568411413
 20
177.804402480132
 30
0.0
 10
146.6049897126422
 20
177.1083343934016
 30
0.0
 10
147.5275485654208
 20
176.7223913501447
 30
0.0
 10
149.3238857744893
 20
175.8666863745685
 30
0.0
 10
150.2000251536154
 20
175.3963733228229
 30
0.0
 10
151.4740880119431
 20
174.6087690229086
 30
0.0
 10
151.8920328880375
 20
174.3324453306195
 30
0.0
 10
152.712301616693
 20
173.747187407944
 30
0.0
 10
153.1161193923036
 20
173.4370124713881
 30
0.0
 10
154.2873308146458
 20
172.4568540853147
 30
0.0
 10
155.0136043194787
 20
171.7415531088631
 30
0.0
 10
155.8216480836714
 20
170.7325142247288
 30
0.0
 10
155.9781524369992
 20
170.5248286025267
 30
0.0
 10
156.2795488873239
 20
170.0960527161558
 30
0.0
 10
156.4244497360394
 20
169.8747872648347
 30
0.0
 10
156.8331071761331
 20
169.1984068436971
 30
0.0
 10
157.0732454499161
 20
168.7278680650203
 30
0.0
 10
157.4744833863842
 20
167.7386672116438
 30
0.0
 10
157.6352489940652
 20
167.2179320298187
 30
0.0
 10
157.7965252275476
 20
166.4180821374544
 30
0.0
 10
157.8370756095761
 20
166.148068777874
 30
0.0
 10
157.8900446530859
 20
165.6104731625827
 30
0.0
 10
157.9154478197332
 20
165.0727803558391
 30
0.0
 10
157.8858754005336
 20
164.5348936991678
 30
0.0
 10
157.8286596020917
 20
163.996909579235
 30
0.0
 10
157.7858720487609
 20
163.7264906530535
 30
0.0
 10
157.6745355244523
 20
163.195090401843
 30
0.0
 10
157.6060953851552
 20
162.9335754454299
 30
0.0
 10
157.4454330184209
 20
162.4183343872422
 30
0.0
 10
157.3527912517044
 20
162.1638140283017
 30
0.0
 10
156.8431539941704
 20
160.9305140303858
 30
0.0
 10
156.2873604665518
 20
160.0504961644689
 30
0.0
 10
155.3076318049303
 20
158.8349397513761
 30
0.0
 10
154.9574738633515
 20
158.4500528444506
 30
0.0
 10
154.2313391380914
 20
157.7260992357679
 30
0.0
 10
153.8546435291562
 20
157.3858831062724
 30
0.0
 10
152.6912719698825
 20
156.4178419176643
 30
0.0
 10
151.8717324597683
 20
155.841965449621
 30
0.0
 10
150.5929379939549
 20
155.0540054004004
 30
0.0
 10
150.1573538436035
 20
154.8037203264909
 30
0.0
 10
149.2755410624906
 20
154.3284653534975
 30
0.0
 10
148.8302298417827
 20
154.1039086559235
 30
0.0
 10
147.4822519673639
 20
153.464457024016
 30
0.0
 10
146.5676564088962
 20
153.0835169305035
 30
0.0
 10
144.709303168143
 20
152.3951797066254
 30
0.0
 10
143.7655344165595
 20
152.087923626813
 30
0.0
 10
141.8478279203214
 20
151.5372900266932
 30
0.0
 10
140.873933721498
 20
151.293965724776
 30
0.0
 10
139.8824055514102
 20
151.0798854145646
 30
0.0
  0
LINE
  5
176
330
1F
100
AcDbEntity
  8
0
  6
Continuous
 62
     7
370
    25
100
AcDbLine
 10
159.8517631827
 20
148.9032999056
 30
0.0
 11
159.8517631827
 21
181.3032999056
 31
0.0
  0
LINE
  5
177
330
1F
100
AcDbEntity
  8
0
  6
Continuous
 62
     7
370
    25
100
AcDbLine
 10
142.6646109968
 20
181.3019692899
 30
0.0
 11
142.6422049703
 21
181.2922525544
 31
0.0
  0
LINE
  5
178
330
1F
100
AcDbEntity
  8
0
  6
Continuous
 62
     7
370
    25
100
AcDbLine
 10
142.6487143317
 20
148.9070524299
 30
0.0
 11
142.6646109968
 21
148.9046305212
 31
0.0
  0
ARC
  5
179
330
1F
100
AcDbEntity
  8
0
  6
Continuous
 62
     7
370
    25
100
AcDbCircle
 10
142.8014712087
 20
196.1685527751
 30
0.0
 40
17.2900317995847
100
AcDbArc
 50
243.6488590876
 51
260.280235246
  0
SPLINE
  5
17A
330
1F
100
AcDbEntity
  8
0
  6
Continuous
 62
     7
370
    25
100
AcDbSpline
210
0.0
220
0.0
230
1.0
 70
     8
 71
     3
 72
    11
 73
     7
 74
     0
 42
0.00000001
 43
0.00000001
 40
0.0
 40
0.0
 40
0.0
 40
0.0
 40
0.1122272272845325
 40
0.4549366928136498
 40
0.8008537014399209
 40
1.0
 40
1.0
 40
1.0
 40
1.0
 10
160.4518969397318
 20
150.6899996347671
 30
0.0
 10
160.445947135559
 20
150.6658754207861
 30
0.0
 10
160.4218283517421
 20
150.5680828405829
 30
0.0
 10
160.3775307840355
 20
151.2369719656815
 30
0.0
 10
160.3267953910696
 20
152.3726872568641
 30
0.0
 10
160.2975976234603
 20
153.5544483278964
 30
0.0
 10
160.2869298216307
 20
153.9862208210649
 30
0.0
  0
SPLINE
  5
17B
330
1F
100
AcDbEntity
  8
0
  6
Continuous
 62
     7
370
    25
100
AcDbSpline
210
0.0
220
0.0
230
1.0
 70
     8
 71
     3
 72
    12
 73
     8
 74
     0
 42
0.00000001
 43
0.00000001
 40
0.0
 40
0.0
 40
0.0
 40
0.0
 40
0.0905984773349927
 40
0.3401453438333809
 40
0.585624171338092
 40
0.8367447224389002
 40
1.0
 40
1.0
 40
1.0
 40
1.0
 10
160.1718948860199
 20
159.5151648605686
 30
0.0
 10
160.164910190216
 20
159.8864013585103
 30
0.0
 10
160.1386866616792
 20
161.2801815847382
 30
0.0
 10
160.0940426117275
 20
163.9796421629507
 30
0.0
 10
160.0410276369898
 20
167.3814939410354
 30
0.0
 10
159.9895023869456
 20
170.3542742290285
 30
0.0
 10
159.9578870764879
 20
171.9693234449065
 30
0.0
 10
159.9454313154928
 20
172.6056185417137
 30
0.0
  0
SPLINE
  5
17C
330
1F
100
AcDbEntity
  8
0
  6
Continuous
 62
     7
370
    25
100
AcDbSpline
210
0.0
220
0.0
230
1.0
 70
     8
 71
     3
 72
    10
 73
     6
 74
     0
 42
0.00000001
 43
0.00000001
 40
0.0
 40
0.0
 40
0.0
 40
0.0
 40
0.0933023780258963
 40
0.7682512449043578
 40
1.0
 40
1.0
 40
1.0
 40
1.0
 10
159.9330515170154
 20
173.2489999032382
 30
0.0
 10
159.9304450306718
 20
173.385034203974
 30
0.0
 10
159.9089832370857
 20
174.5051398550972
 30
0.0
 10
159.8835801605478
 20
175.6793956025975
 30
0.0
 10
159.858988171231
 20
176.599004998344
 30
0.0
 10
159.8527025443899
 20
176.8340539578576
 30
0.0
  0
LINE
  5
17D
330
1F
100
AcDbEntity
  8
0
  6
Continuous
 62
     7
370
    25
100
AcDbLine
 10
159.8522916619
 20
176.8339716479
 30
0.0
 11
160.321452649
 21
176.1772135934
 31
0.0
  0
SPLINE
  5
17E
330
1F
100
AcDbEntity
  8
0
  6
Continuous
 62
     7
370
    25
100
AcDbSpline
210
0.0
220
0.0
230
1.0
 70
     8
 71
     3
 72
    27
 73
    23
 74
     0
 42
0.00000001
 43
0.00000001
 40
0.0
 40
0.0
 40
0.0
 40
0.0
 40
0.0515285379309237
 40
0.1040960246778745
 40
0.1569935992290401
 40
0.2095583656097145
 40
0.2611519373513786
 40
0.3127510520403477
 40
0.3653186984677251
 40
0.4182162726646301
 40
0.4707808786826798
 40
0.522374143486538
 40
0.5739735662071672
 40
0.6265413722770644
 40
0.6794389460803467
 40
0.7320033916978774
 40
0.7835963497128633
 40
0.8351960804313621
 40
0.8877640461058721
 40
0.9406616194761687
 40
0.9932259046552894
 40
1.0
 40
1.0
 40
1.0
 40
1.0
 10
168.4203966780996
 20
151.4154240675134
 30
0.0
 10
168.408489783402
 20
151.4474137859181
 30
0.0
 10
168.3844359201632
 20
151.5120382183242
 30
0.0
 10
168.3461101253975
 20
152.0331868741212
 30
0.0
 10
168.3072561136336
 20
152.8609483945965
 30
0.0
 10
168.2689184131505
 20
153.994993528544
 30
0.0
 10
168.2329386611528
 20
155.3886812455477
 30
0.0
 10
168.1969430528665
 20
157.0176408618808
 30
0.0
 10
168.1586009502446
 20
158.859366068418
 30
0.0
 10
168.1197466426254
 20
160.8690421388953
 30
0.0
 10
168.081409270582
 20
162.9716583006276
 30
0.0
 10
168.045430377219
 20
165.1084945188225
 30
0.0
 10
168.0094338852985
 20
167.2452543571953
 30
0.0
 10
167.9710915702082
 20
169.3476041262982
 30
0.0
 10
167.9322371234275
 20
171.3566666573221
 30
0.0
 10
167.8939005190612
 20
173.1973060502395
 30
0.0
 10
167.857920608396
 20
174.8255721801341
 30
0.0
 10
167.8219303219026
 20
176.2166010187148
 30
0.0
 10
167.7835607754963
 20
177.3548727208816
 30
0.0
 10
167.744807819803
 20
178.1601288755801
 30
0.0
 10
167.7171438082607
 20
178.5868158147151
 30
0.0
 10
167.703339130735
 20
178.6430213490611
 30
0.0
 10
167.7017631827409
 20
178.6494377973227
 30
0.0
  0
SPLINE
  5
17F
330
1F
100
AcDbEntity
  8
0
  6
Continuous
 62
     7
370
    25
100
AcDbSpline
210
0.0
220
0.0
230
1.0
 70
     8
 71
     3
 72
    50
 73
    46
 74
     0
 42
0.00000001
 43
0.00000001
 40
0.0
 40
0.0
 40
0.0
 40
0.0
 40
0.0284475187430945
 40
0.0522203319930536
 40
0.0761400917270586
 40
0.099907043807384
 40
0.1232327519742958
 40
0.1465698242851818
 40
0.1703427091924241
 40
0.1942624681966602
 40
0.2180293472143891
 40
0.2413549187423394
 40
0.2646921298529429
 40
0.2884650864003172
 40
0.3123848446569858
 40
0.3361516505949936
 40
0.3594770855513481
 40
0.3828144354463704
 40
0.4065874636167252
 40
0.4305072211080275
 40
0.4542739539491897
 40
0.4775992524013126
 40
0.5009367410654557
 40
0.524709840841639
 40
0.5486295975497764
 40
0.5723962572769681
 40
0.5957214192922247
 40
0.6190590467101896
 40
0.6428322180750499
 40
0.6667519739822224
 40
0.6905185605783206
 40
0.7138435862240774
 40
0.7371813523805644
 40
0.7609545953169489
 40
0.7848743504053571
 40
0.8086408638532381
 40
0.8319657531968614
 40
0.8553036580765708
 40
0.8790769725673265
 40
0.9029967268191721
 40
0.9267631671017127
 40
0.9500879202105702
 40
0.9734259637982005
 40
0.997199349826175
 40
1.0
 40
1.0
 40
1.0
 40
1.0
 10
160.9203709042162
 20
151.4163862842308
 30
0.0
 10
161.5541693674893
 20
151.4375925844719
 30
0.0
 10
162.717615869369
 20
151.4765204097397
 30
0.0
 10
162.2634106114416
 20
152.0384544209287
 30
0.0
 10
162.3289474644296
 20
152.8686411271871
 30
0.0
 10
162.2628702786178
 20
154.0048505005296
 30
0.0
 10
162.2342032543852
 20
155.4004470653948
 30
0.0
 10
162.1962314215779
 20
157.0311419107534
 30
0.0
 10
162.1584136322864
 20
158.8744304007242
 30
0.0
 10
162.1194152018518
 20
160.8851309084241
 30
0.0
 10
162.0811242457027
 20
162.9881584191948
 30
0.0
 10
162.0451631221212
 20
165.1251200144392
 30
0.0
 10
162.0091412640348
 20
167.261749341642
 30
0.0
 10
161.9707902651787
 20
169.3636912660931
 30
0.0
 10
161.9319362090605
 20
171.3716859246856
 30
0.0
 10
161.8936071339409
 20
173.210890876622
 30
0.0
 10
161.8576569480998
 20
174.8369326735872
 30
0.0
 10
161.8216315209494
 20
176.2278722735516
 30
0.0
 10
161.7832810119158
 20
177.3570355378918
 30
0.0
 10
161.7444267590364
 20
178.1859660174134
 30
0.0
 10
161.7060979926206
 20
178.6838701953258
 30
0.0
 10
161.6701486553071
 20
178.8463949754013
 30
0.0
 10
161.6341223572469
 20
178.6767745446367
 30
0.0
 10
161.5957716010101
 20
178.1716416490315
 30
0.0
 10
161.5569173510957
 20
177.335886550759
 30
0.0
 10
161.5185888404713
 20
176.2008063136752
 30
0.0
 10
161.4826403651984
 20
174.804603802118
 30
0.0
 10
161.4466131926422
 20
173.1737903964365
 30
0.0
 10
161.40826219028
 20
171.3302799109157
 30
0.0
 10
161.3694079431167
 20
169.3194589478005
 30
0.0
 10
161.3310796885148
 20
167.2163782331893
 30
0.0
 10
161.2951320748461
 20
165.0794016830041
 30
0.0
 10
161.2591040279285
 20
162.9427884129715
 30
0.0
 10
161.2207527795393
 20
160.8408988684863
 30
0.0
 10
161.1818985350388
 20
158.8330341712941
 30
0.0
 10
161.1435705371723
 20
156.9940227848844
 30
0.0
 10
161.1076237826591
 20
155.3682073324358
 30
0.0
 10
161.0715948691115
 20
153.9774727982255
 30
0.0
 10
161.0332433458437
 20
152.8487102560337
 30
0.0
 10
160.9943892127931
 20
152.0195967144297
 30
0.0
 10
160.9560610706096
 20
151.5238425897657
 30
0.0
 10
160.9201166434884
 20
151.3549726617908
 30
0.0
 10
160.8840813667161
 20
151.5498707385493
 30
0.0
 10
160.8571470956106
 20
151.838264691608
 30
0.0
 10
160.8427300138135
 20
152.153549896706
 30
0.0
 10
160.8412105907821
 20
152.1867779527588
 30
0.0
  0
SPLINE
  5
180
330
1F
100
AcDbEntity
  8
0
  6
Continuous
 62
     7
370
    25
100
AcDbSpline
210
0.0
220
0.0
230
1.0
 70
     8
 71
     3
 72
    12
 73
     8
 74
     0
 42
0.00000001
 43
0.00000001
 40
0.0
 40
0.0
 40
0.0
 40
0.0
 40
0.2342640849254553
 40
0.4754567751216083
 40
0.7167925825372544
 40
0.962628769256193
 40
1.0
 40
1.0
 40
1.0
 40
1.0
 10
160.6175486321427
 20
161.0095595474998
 30
0.0
 10
160.6053045483281
 20
161.6734036721709
 30
0.0
 10
160.5804542491171
 20
163.0207258056511
 30
0.0
 10
160.5451056662993
 20
165.1325197223586
 30
0.0
 10
160.5090619490426
 20
167.2582081950258
 30
0.0
 10
160.4816881330014
 20
168.7846736404846
 30
0.0
 10
160.466829003368
 20
169.5482531110625
 30
0.0
 10
160.4648682356482
 20
169.6490128469545
 30
0.0
  0
SPLINE
  5
181
330
1F
100
AcDbEntity
  8
0
  6
Continuous
 62
     7
370
    25
100
AcDbSpline
210
0.0
220
0.0
230
1.0
 70
     8
 71
     3
 72
    27
 73
    23
 74
     0
 42
0.00000001
 43
0.00000001
 40
0.0
 40
0.0
 40
0.0
 40
0.0
 40
0.0408633052577798
 40
0.0916401885335679
 40
0.1427359153223731
 40
0.1935101698209109
 40
0.2433463109127252
 40
0.2931878083293831
 40
0.3439648459093578
 40
0.3950605723556901
 40
0.4458346718905409
 40
0.4956705163790678
 40
0.5455123114564725
 40
0.5962895033039882
 40
0.6473852293697941
 40
0.6981591739043257
 40
0.7479947219335426
 40
0.7978368146390278
 40
0.8486141607174387
 40
0.8997098863646661
 40
0.9504836758622465
 40
1.0
 40
1.0
 40
1.0
 40
1.0
 10
168.7889426360569
 20
151.4449263939635
 30
0.0
 10
168.779158763115
 20
151.4729379397965
 30
0.0
 10
168.7572174160964
 20
151.5357567285619
 30
0.0
 10
168.7211002759247
 20
152.0352176797585
 30
0.0
 10
168.6822587011645
 20
152.8604072781715
 30
0.0
 10
168.6439176942871
 20
153.9951364804453
 30
0.0
 10
168.6079388129137
 20
155.3886449076129
 30
0.0
 10
168.5719429685544
 20
157.0176527580932
 30
0.0
 10
168.5336009276652
 20
158.8593650643341
 30
0.0
 10
168.4947466019213
 20
160.8690448915335
 30
0.0
 10
168.4564092353726
 20
162.9716600546518
 30
0.0
 10
168.4204303410488
 20
165.108497118167
 30
0.0
 10
168.3844338548777
 20
167.2452549032119
 30
0.0
 10
168.3460915006947
 20
169.3476123475012
 30
0.0
 10
168.3072371930342
 20
171.356645926121
 30
0.0
 10
168.2689000728299
 20
173.1973916171844
 30
0.0
 10
168.2329220547271
 20
174.8252677898075
 30
0.0
 10
168.1969246948543
 20
176.2177545569623
 30
0.0
 10
168.1585820687692
 20
177.3504722849538
 30
0.0
 10
168.11972785099
 20
178.1766168992723
 30
0.0
 10
168.0814712480826
 20
178.6955020542598
 30
0.0
 10
168.0574855626127
 20
178.7590020185913
 30
0.0
 10
168.0456430894781
 20
178.7903539106433
 30
0.0
  0
SPLINE
  5
182
330
1F
100
AcDbEntity
  8
0
  6
Continuous
 62
     7
370
    25
100
AcDbSpline
210
0.0
220
0.0
230
1.0
 70
     8
 71
     3
 72
    11
 73
     7
 74
     0
 42
0.00000001
 43
0.00000001
 40
0.0
 40
0.0
 40
0.0
 40
0.0
 40
0.1830351157051622
 40
0.504292703048097
 40
0.8257409933541541
 40
1.0
 40
1.0
 40
1.0
 40
1.0
 10
160.9775040244571
 20
161.8382412233444
 30
0.0
 10
160.9703395018798
 20
162.2284342203655
 30
0.0
 10
160.9506000303438
 20
163.3034819259391
 30
0.0
 10
160.9200976436978
 20
165.12916231472
 30
0.0
 10
160.889854642592
 20
166.9355634692387
 30
0.0
 10
160.8704477650817
 20
167.9913677664521
 30
0.0
 10
160.8636255471764
 20
168.3625210845012
 30
0.0
  0
ELLIPSE
  5
183
330
1F
100
AcDbEntity
  8
0
  6
Continuous
 62
     7
370
    25
100
AcDbEllipse
 10
168.2322018746
 20
165.1032999056
 30
0.0
 11
-7.401257687792878
 21
14.35777723298281
 31
0.0
210
0.0
220
0.0
230
1.0
 40
0.2737224856
 41
0.1519163654195796
 42
0.4881424368787634
  0
ELLIPSE
  5
184
330
1F
100
AcDbEntity
  8
0
  6
Continuous
 62
     7
370
    25
100
AcDbEllipse
 10
152.7936264264
 20
165.1032999056
 30
0.0
 11
7.392868934794849
 21
14.35826292490984
 31
0.0
210
0.0
220
0.0
230
1.0
 40
0.2735670702
 41
6.029360005064562
 42
6.131028995319415
  0
LINE
  5
185
330
1F
100
AcDbEntity
  8
0
  6
Continuous
 62
     7
370
    25
100
AcDbLine
 10
160.3214407691
 20
178.9891334495
 30
0.0
 11
160.6964407807
 21
178.9891334493
 31
0.0
  0
LINE
  5
186
330
1F
100
AcDbEntity
  8
0
  6
Continuous
 62
     7
370
    25
100
AcDbLine
 10
160.3214407691
 20
178.9891334495
 30
0.0
 11
160.321452649
 21
176.1772135934
 31
0.0
  0
LINE
  5
187
330
1F
100
AcDbEntity
  8
0
  6
Continuous
 62
     7
370
    25
100
AcDbLine
 10
160.6964407807
 20
178.9891334493
 30
0.0
 11
160.6964469948
 21
177.5182906251
 31
0.0
  0
SPLINE
  5
188
330
1F
100
AcDbEntity
  8
0
  6
Continuous
 62
     7
370
    25
100
AcDbSpline
210
0.0
220
0.0
230
1.0
 70
     8
 71
     3
 72
    16
 73
    12
 74
     0
 42
0.00000001
 43
0.00000001
 40
0.0
 40
0.0
 40
0.0
 40
0.0
 40
0.2500000000000024
 40
0.2500000000000024
 40
0.5000000000000049
 40
0.5000000000000049
 40
0.6250000000000037
 40
0.6250000000000037
 40
0.7500000000000024
 40
0.7500000000000024
 40
1.0
 40
1.0
 40
1.0
 40
1.0
 10
135.1269240861647
 20
180.6751178397368
 30
0.0
 10
135.3574467621476
 20
180.9888457529456
 30
0.0
 10
135.5480971537232
 20
181.2699112330371
 30
0.0
 10
135.8739275609445
 20
181.7591800097281
 30
0.0
 10
136.0087686369792
 20
181.967527285586
 30
0.0
 10
136.1767244455233
 20
182.2198264700307
 30
0.0
 10
136.2270005784673
 20
182.293978198068
 30
0.0
 10
136.315335511006
 20
182.4193258041752
 30
0.0
 10
136.3535960274603
 20
182.4708395530817
 30
0.0
 10
136.451913012454
 20
182.5918451008795
 30
0.0
 10
136.4956804732526
 20
182.6279566556633
 30
0.0
 10
136.518625113442
 20
182.6176506889363
 30
0.0
  0
ARC
  5
189
330
1F
100
AcDbEntity
  8
0
  6
Continuous
 62
     7
370
    25
100
AcDbCircle
 10
142.6589721731
 20
196.2884423793
 30
0.0
 40
14.98647415023294
100
AcDbArc
 50
245.8123806786
 51
270.02155816
  0
ARC
  5
18A
330
1F
100
AcDbEntity
  8
0
  6
Continuous
 62
     7
370
    25
100
AcDbCircle
 10
142.6589721731
 20
133.9181574318
 30
0.0
 40
14.98647415023384
100
AcDbArc
 50
89.97844184
 51
114.1876193214
  0
ARC
  5
18B
330
1F
100
AcDbEntity
  8
0
  6
Continuous
 62
     7
370
    25
100
AcDbCircle
 10
128.6517631827
 20
165.1032999056
 30
0.0
 40
19.20000000000002
100
AcDbArc
 50
65.8119747904
 51
245.7035220052
  0
LINE
  5
18C
330
1F
100
AcDbEntity
  8
0
  6
Continuous
 62
     7
370
    25
100
AcDbLine
 10
136.5186251134
 20
182.6176506889
 30
0.0
 11
136.5186458477
 21
182.6176413758
 31
0.0
  0
ARC
  5
18D
330
1F
100
AcDbEntity
  8
0
  6
Continuous
 62
     7
370
    25
100
AcDbCircle
 10
128.6517631827
 20
165.1032999056
 30
0.0
 40
25.37500000000001
100
AcDbArc
 50
39.6743748818
 51
251.8605962769
  0
ARC
  5
18E
330
1F
100
AcDbEntity
  8
0
  6
Continuous
 62
     7
370
    25
100
AcDbCircle
 10
128.6517631827
 20
165.1032999056
 30
0.0
 40
25.37500000000001
100
AcDbArc
 50
288.1394037231
 51
320.3256251182
  0
ARC
  5
18F
330
1F
100
AcDbEntity
  8
0
  6
Continuous
 62
     7
370
    25
100
AcDbCircle
 10
128.6517631827
 20
12.7032999056
 30
0.0
 40
11.55000000000001
100
AcDbArc
 50
133.1556534408
 51
274.9657006069
  0
ARC
  5
190
330
1F
100
AcDbEntity
  8
0
  6
Continuous
 62
     7
370
    25
100
AcDbCircle
 10
128.6517631827
 20
12.7032999056
 30
0.0
 40
11.55
100
AcDbArc
 50
274.9657006069
 51
46.8443465592
  0
LINE
  5
191
330
1F
100
AcDbEntity
  8
0
  6
Continuous
 62
     7
370
    25
100
AcDbLine
 10
209.4841787348
 20
167.7032999056
 30
0.0
 11
209.5016571961
 21
167.7032999056
 31
0.0
  0
ARC
  5
192
330
1F
100
AcDbEntity
  8
0
  6
Continuous
 62
     7
370
    25
100
AcDbCircle
 10
199.194528595
 20
165.1032999056
 30
0.0
 40
10.61305328357492
100
AcDbArc
 50
7.3079276166
 51
14.1807309007
  0
SPLINE
  5
193
330
1F
100
AcDbEntity
  8
0
  6
Continuous
 62
     7
370
    25
100
AcDbSpline
210
0.0
220
0.0
230
1.0
 70
     8
 71
     3
 72
    12
 73
     8
 74
     0
 42
0.00000001
 43
0.00000001
 40
0.0
 40
0.0
 40
0.0
 40
0.0
 40
0.2133534395476153
 40
0.4267919313634476
 40
0.6383539739091488
 40
0.8490950351927585
 40
1.0
 40
1.0
 40
1.0
 40
1.0
 10
209.7213704765406
 20
165.7032999055562
 30
0.0
 10
209.7310296202679
 20
165.7114014656722
 30
0.0
 10
209.7503517582914
 20
165.7276078155501
 30
0.0
 10
209.7626648282996
 20
165.8550089405661
 30
0.0
 10
209.7603273880028
 20
166.0424029564718
 30
0.0
 10
209.7452098689889
 20
166.2533789817631
 30
0.0
 10
209.728389256608
 20
166.3944393033821
 30
0.0
 10
209.7213704765406
 20
166.4532999055562
 30
0.0
  0
LINE
  5
194
330
1F
100
AcDbEntity
  8
0
  6
Continuous
 62
     7
370
    25
100
AcDbLine
 10
209.4841787348
 20
165.7032999056
 30
0.0
 11
209.7213704765
 21
165.7032999056
 31
0.0
  0
ARC
  5
195
330
1F
100
AcDbEntity
  8
0
  6
Continuous
 62
     7
370
    25
100
AcDbCircle
 10
199.194528595
 20
165.1032999056
 30
0.0
 40
10.30712860111875
100
AcDbArc
 50
356.6628035549
 51
3.3371964451
  0
LINE
  5
196
330
1F
100
AcDbEntity
  8
0
  6
Continuous
 62
     7
370
    25
100
AcDbLine
 10
209.7213704765
 20
164.5032999056
 30
0.0
 11
209.4841787348
 21
164.5032999056
 31
0.0
  0
SPLINE
  5
197
330
1F
100
AcDbEntity
  8
0
  6
Continuous
 62
     7
370
    25
100
AcDbSpline
210
0.0
220
0.0
230
1.0
 70
     8
 71
     3
 72
    12
 73
     8
 74
     0
 42
0.00000001
 43
0.00000001
 40
0.0
 40
0.0
 40
0.0
 40
0.0
 40
0.2133534395476116
 40
0.4267919313634445
 40
0.6383539739091463
 40
0.8490950351927521
 40
1.0
 40
1.0
 40
1.0
 40
1.0
 10
209.7213704765406
 20
163.7532999055562
 30
0.0
 10
209.7310296202679
 20
163.8367936937133
 30
0.0
 10
209.7503517582913
 20
164.0038145544034
 30
0.0
 10
209.7626648282996
 20
164.227651316001
 30
0.0
 10
209.7603273880028
 20
164.3967370368782
 30
0.0
 10
209.7452098689889
 20
164.4893986230882
 30
0.0
 10
209.728389256608
 20
164.4992070980524
 30
0.0
 10
209.7213704765406
 20
164.5032999055562
 30
0.0
  0
ARC
  5
198
330
1F
100
AcDbEntity
  8
0
  6
Continuous
 62
     7
370
    25
100
AcDbCircle
 10
199.194528595
 20
165.1032999056
 30
0.0
 40
10.61305328357491
100
AcDbArc
 50
345.8192690993
 51
352.6920723834
  0
LINE
  5
199
330
1F
100
AcDbEntity
  8
0
  6
Continuous
 62
     7
370
    25
100
AcDbLine
 10
209.5016571961
 20
162.5032999056
 30
0.0
 11
209.4841787348
 21
162.5032999056
 31
0.0
  0
LINE
  5
19A
330
1F
100
AcDbEntity
  8
0
  6
Continuous
 62
     7
370
    25
100
AcDbLine
 10
192.910489386
 20
173.3539599141
 30
0.0
 11
192.910489386
 21
156.8526401823
 31
0.0
  0
SPLINE
  5
19B
330
1F
100
AcDbEntity
  8
0
  6
Continuous
 62
     7
370
    25
100
AcDbSpline
210
0.0
220
0.0
230
1.0
 70
     8
 71
     3
 72
    11
 73
     7
 74
     0
 42
0.00000001
 43
0.00000001
 40
0.0
 40
0.0
 40
0.0
 40
0.0
 40
0.2499999999999913
 40
0.4999999999999988
 40
0.7499999999999947
 40
1.0
 40
1.0
 40
1.0
 40
1.0
 10
192.9104893859595
 20
156.8526386430162
 30
0.0
 10
192.8441183332222
 20
156.8585311204192
 30
0.0
 10
192.7113762277474
 20
156.8703160752251
 30
0.0
 10
192.5429124869667
 20
156.974237757657
 30
0.0
 10
192.4248251279316
 20
157.124418162113
 30
0.0
 10
192.4094504978045
 20
157.243977221145
 30
0.0
 10
192.4017631827409
 20
157.3037567506609
 30
0.0
  0
LINE
  5
19C
330
1F
100
AcDbEntity
  8
0
  6
Continuous
 62
     7
370
    25
100
AcDbLine
 10
192.4017631827
 20
157.3038116009
 30
0.0
 11
192.4017631827
 21
172.9027346711
 31
0.0
  0
SPLINE
  5
19D
330
1F
100
AcDbEntity
  8
0
  6
Continuous
 62
     7
370
    25
100
AcDbSpline
210
0.0
220
0.0
230
1.0
 70
     8
 71
     3
 72
    11
 73
     7
 74
     0
 42
0.00000001
 43
0.00000001
 40
0.0
 40
0.0
 40
0.0
 40
0.0
 40
0.2499999999999901
 40
0.5000000000000007
 40
0.7500000000000012
 40
1.0
 40
1.0
 40
1.0
 40
1.0
 10
192.9104893859595
 20
173.3539596288513
 30
0.0
 10
192.8441183332222
 20
173.3480657557788
 30
0.0
 10
192.7113762277474
 20
173.3362780096338
 30
0.0
 10
192.5429124869667
 20
173.2323317127116
 30
0.0
 10
192.4248251279316
 20
173.0821157371021
 30
0.0
 10
192.4094504978044
 20
172.9625283597708
 30
0.0
 10
192.4017631827409
 20
172.9027346711052
 30
0.0
  0
LWPOLYLINE
  5
19E
330
1F
100
AcDbEntity
  8
0
  6
Continuous
 62
     7
370
    25
100
AcDbPolyline
 90
        3
 70
   128
 43
0.0
 10
192.910489386
 20
156.8526401823
 10
198.9019631827
 20
156.9188925935
 10
202.3898071399
 20
156.9577085598
  0
LWPOLYLINE
  5
19F
330
1F
100
AcDbEntity
  8
0
  6
Continuous
 62
     7
370
    25
100
AcDbPolyline
 90
        3
 70
   128
 43
0.0
 10
201.456386926
 20
173.259297322
 10
198.9019631827
 20
173.2877072176
 10
192.910489369
 20
173.353959629
  0
LINE
  5
1A0
330
1F
100
AcDbEntity
  8
0
  6
Continuous
 62
     7
370
    25
100
AcDbLine
 10
207.2517631827
 20
173.5027435598
 30
0.0
 11
207.2517631827
 21
156.7038562513
 31
0.0
  0
LINE
  5
1A1
330
1F
100
AcDbEntity
  8
0
  6
Continuous
 62
     7
370
    25
100
AcDbLine
 10
192.910489386
 20
156.8526389289
 30
0.0
 11
192.910489386
 21
153.3571659923
 31
0.0
  0
ARC
  5
1A2
330
1F
100
AcDbEntity
  8
0
  6
Continuous
 62
     7
370
    25
100
AcDbCircle
 10
192.8958244774
 20
153.8510523491
 30
0.0
 40
0.4941040304928849
100
AcDbArc
 50
180.7535768612
 51
271.7007770083
  0
LINE
  5
1A3
330
1F
100
AcDbEntity
  8
0
  6
Continuous
 62
     7
370
    25
100
AcDbLine
 10
192.4017631827
 20
153.8445538839
 30
0.0
 11
192.4017631827
 21
157.3038103466
 31
0.0
  0
LINE
  5
1A4
330
1F
100
AcDbEntity
  8
0
  6
Continuous
 62
     7
370
    25
100
AcDbLine
 10
192.910489386
 20
176.8494338188
 30
0.0
 11
192.910489386
 21
173.3539611681
 31
0.0
  0
ARC
  5
1A5
330
1F
100
AcDbEntity
  8
0
  6
Continuous
 62
     7
370
    25
100
AcDbCircle
 10
192.8958244774
 20
176.355547462
 30
0.0
 40
0.4941040304928849
100
AcDbArc
 50
88.2992229918
 51
179.2464231388
  0
LINE
  5
1A6
330
1F
100
AcDbEntity
  8
0
  6
Continuous
 62
     7
370
    25
100
AcDbLine
 10
192.4017631827
 20
172.9027894645
 30
0.0
 11
192.4017631827
 21
176.3620459272
 31
0.0
  0
LINE
  5
1A7
330
1F
100
AcDbEntity
  8
0
  6
Continuous
 62
     7
370
    25
100
AcDbLine
 10
202.3898071399
 20
156.9577085598
 30
0.0
 11
202.3452008067
 21
156.9569019427
 31
0.0
  0
LINE
  5
1A8
330
1F
100
AcDbEntity
  8
0
  6
Continuous
 62
     7
370
    25
100
AcDbLine
 10
202.3040908504
 20
156.9561603767
 30
0.0
 11
202.3452008067
 21
156.9569019427
 31
0.0
  0
LWPOLYLINE
  5
1A9
330
1F
100
AcDbEntity
  8
0
  6
Continuous
 62
     7
370
    25
100
AcDbPolyline
 90
        3
 70
   128
 43
0.0
 10
202.3040908504
 20
156.9561603767
 10
198.9017631827
 20
156.9186366731
 10
192.9104894029
 20
156.8526386432
  0
SPLINE
  5
1AA
330
1F
100
AcDbEntity
  8
0
  6
Continuous
 62
     7
370
    25
100
AcDbSpline
210
0.0
220
0.0
230
1.0
 70
     8
 71
     3
 72
    12
 73
     8
 74
     0
 42
0.00000001
 43
0.00000001
 40
0.0
 40
0.0
 40
0.0
 40
0.0
 40
0.1662426524176545
 40
0.3368059756191297
 40
0.6054181071254586
 40
0.8801435087136193
 40
1.0
 40
1.0
 40
1.0
 40
1.0
 10
196.9929972126847
 20
153.4266395238853
 30
0.0
 10
197.09245391996
 20
153.5821246993683
 30
0.0
 10
197.2939522288389
 20
153.8971361327235
 30
0.0
 10
198.1161999848614
 20
154.560101237722
 30
0.0
 10
199.4780291518479
 20
155.4122961545274
 30
0.0
 10
201.0391353405069
 20
156.2549248331395
 30
0.0
 10
202.0093750326684
 20
156.7927829258346
 30
0.0
 10
202.3040908503713
 20
156.9561603766619
 30
0.0
  0
LINE
  5
1AB
330
1F
100
AcDbEntity
  8
0
  6
Continuous
 62
     7
370
    25
100
AcDbLine
 10
196.9929972127
 20
153.4266395239
 30
0.0
 11
192.910489386
 21
153.3571659923
 31
0.0
  0
LINE
  5
1AC
330
1F
100
AcDbEntity
  8
0
  6
Continuous
 62
     7
370
    25
100
AcDbLine
 10
196.9366679956
 20
176.7340281203
 30
0.0
 11
196.9366679956
 21
176.7809188622
 31
0.0
  0
SPLINE
  5
1AD
330
1F
100
AcDbEntity
  8
0
  6
Continuous
 62
     7
370
    25
100
AcDbSpline
210
0.0
220
0.0
230
1.0
 70
     8
 71
     3
 72
    13
 73
     9
 74
     0
 42
0.00000001
 43
0.00000001
 40
0.0
 40
0.0
 40
0.0
 40
0.0
 40
0.0460329529079877
 40
0.249242584819372
 40
0.4775225570272876
 40
0.7051721168687834
 40
0.8526808263814666
 40
1.0
 40
1.0
 40
1.0
 40
1.0
 10
201.385676982758
 20
173.2605716656587
 30
0.0
 10
201.2836864484494
 20
173.3230806340953
 30
0.0
 10
200.7314649898569
 20
173.6615315889726
 30
0.0
 10
199.6903460653952
 20
174.2795090130016
 30
0.0
 10
198.4051456220146
 20
175.0899813397147
 30
0.0
 10
197.5125747218918
 20
175.7826061409794
 30
0.0
 10
197.0240322645002
 20
176.3328399426775
 30
0.0
 10
196.9657769350495
 20
176.6003560537834
 30
0.0
 10
196.9366679956155
 20
176.7340281203437
 30
0.0
  0
LWPOLYLINE
  5
1AE
330
1F
100
AcDbEntity
  8
0
  6
Continuous
 62
     7
370
    25
100
AcDbPolyline
 90
        3
 70
   128
 43
0.0
 10
201.3856769828
 20
173.2605716657
 10
198.9017631827
 20
173.287963138
 10
192.910489386
 20
173.3539611681
  0
LINE
  5
1AF
330
1F
100
AcDbEntity
  8
0
  6
Continuous
 62
     7
370
    25
100
AcDbLine
 10
196.9366679956
 20
176.7809188622
 30
0.0
 11
192.910489386
 21
176.8494338188
 31
0.0
  0
LINE
  5
1B0
330
1F
100
AcDbEntity
  8
0
  6
Continuous
 62
     7
370
    25
100
AcDbLine
 10
201.4238527867
 20
173.2598843629
 30
0.0
 11
201.3856769828
 21
173.2605716657
 31
0.0
  0
LINE
  5
1B1
330
1F
100
AcDbEntity
  8
0
  6
Continuous
 62
     7
370
    25
100
AcDbLine
 10
201.4238527867
 20
173.2598843629
 30
0.0
 11
201.456386926
 21
173.259297322
 31
0.0
  0
LINE
  5
1B2
330
1F
100
AcDbEntity
  8
0
  6
Continuous
 62
     7
370
    25
100
AcDbLine
 10
192.4017631827
 20
176.3620459272
 30
0.0
 11
192.4017631827
 21
176.5751895203
 31
0.0
  0
LINE
  5
1B3
330
1F
100
AcDbEntity
  8
0
  6
Continuous
 62
     7
370
    25
100
AcDbLine
 10
192.4017631827
 20
153.6314102908
 30
0.0
 11
192.4017631827
 21
153.8445538839
 31
0.0
  0
LINE
  5
1B4
330
1F
100
AcDbEntity
  8
0
  6
Continuous
 62
     7
370
    25
100
AcDbLine
 10
196.9366679956
 20
153.2183524586
 30
0.0
 11
196.9929972127
 21
153.4266395239
 31
0.0
  0
LINE
  5
1B5
330
1F
100
AcDbEntity
  8
0
  6
Continuous
 62
     7
370
    25
100
AcDbLine
 10
209.1517631827
 20
170.4322136003
 30
0.0
 11
209.1517631827
 21
159.7743855689
 31
0.0
  0
LINE
  5
1B6
330
1F
100
AcDbEntity
  8
0
  6
Continuous
 62
     7
370
    25
100
AcDbLine
 10
182.5017631827
 20
174.6032999056
 30
0.0
 11
182.5017631827
 21
173.3000374935
 31
0.0
  0
SPLINE
  5
1B7
330
1F
100
AcDbEntity
  8
0
  6
Continuous
 62
     7
370
    25
100
AcDbSpline
210
0.0
220
0.0
230
1.0
 70
    24
 71
     3
 72
    11
 73
     7
 74
     0
 42
0.00000001
 43
0.00000001
 40
0.0
 40
0.0
 40
0.0
 40
0.0
 40
0.059139560364233
 40
0.5151546697584025
 40
0.9835658517333951
 40
1.0
 40
1.0
 40
1.0
 40
1.0
 10
182.5017631827409
 20
174.6032999055562
 30
0.0
 10
182.5297427754195
 20
174.6032999055562
 30
0.0
 10
182.7734682569342
 20
174.6032999055562
 30
0.0
 10
183.1139913506063
 20
174.6032999055562
 30
0.0
 10
183.3390704579649
 20
174.6032999055562
 30
0.0
 10
183.2780586626432
 20
174.6032999055562
 30
0.0
 10
183.2759906281015
 20
174.6032999055562
 30
0.0
  0
SPLINE
  5
1B8
330
1F
100
AcDbEntity
  8
0
  6
Continuous
 62
     7
370
    25
100
AcDbSpline
210
0.0
220
0.0
230
1.0
 70
    24
 71
     3
 72
    11
 73
     7
 74
     0
 42
0.00000001
 43
0.00000001
 40
0.0
 40
0.0
 40
0.0
 40
0.0
 40
0.0163985483736859
 40
0.4715081509151195
 40
0.9408590955702612
 40
1.0
 40
1.0
 40
1.0
 40
1.0
 10
183.2758041787063
 20
155.6032999055562
 30
0.0
 10
183.2779363648595
 20
155.6032999055562
 30
0.0
 10
183.3392432029773
 20
155.6032999055562
 30
0.0
 10
183.1161914541631
 20
155.6032999055562
 30
0.0
 10
182.7797934043086
 20
155.6032999055562
 30
0.0
 10
182.5297448748164
 20
155.6032999055562
 30
0.0
 10
182.5017631827409
 20
155.6032999055562
 30
0.0
  0
LINE
  5
1B9
330
1F
100
AcDbEntity
  8
0
  6
Continuous
 62
     7
370
    25
100
AcDbLine
 10
182.5017631827
 20
156.9065623176
 30
0.0
 11
182.5017631827
 21
155.6032999056
 31
0.0
  0
SPLINE
  5
1BA
330
1F
100
AcDbEntity
  8
0
  6
Continuous
 62
     7
370
    25
100
AcDbSpline
210
0.0
220
0.0
230
1.0
 70
     8
 71
     3
 72
    11
 73
     7
 74
     0
 42
0.00000001
 43
0.00000001
 40
0.0
 40
0.0
 40
0.0
 40
0.0
 40
0.2431641197380915
 40
0.4936284730588929
 40
0.7421706076863281
 40
1.0
 40
1.0
 40
1.0
 40
1.0
 10
182.5017631827409
 20
156.9065623176334
 30
0.0
 10
182.7119035059497
 20
157.4500088499042
 30
0.0
 10
183.1384929509113
 20
158.553217177691
 30
0.0
 10
183.3488773810543
 20
160.3032622074176
 30
0.0
 10
183.1581906873873
 20
162.0902313713605
 30
0.0
 10
182.7232315169926
 20
163.2231757515828
 30
0.0
 10
182.5017631827409
 20
163.800037493479
 30
0.0
  0
LINE
  5
1BB
330
1F
100
AcDbEntity
  8
0
  6
Continuous
 62
     7
370
    25
100
AcDbLine
 10
182.5017631827
 20
166.4065623176
 30
0.0
 11
182.5017631827
 21
163.8000374935
 31
0.0
  0
SPLINE
  5
1BC
330
1F
100
AcDbEntity
  8
0
  6
Continuous
 62
     7
370
    25
100
AcDbSpline
210
0.0
220
0.0
230
1.0
 70
     8
 71
     3
 72
    11
 73
     7
 74
     0
 42
0.00000001
 43
0.00000001
 40
0.0
 40
0.0
 40
0.0
 40
0.0
 40
0.2431641197380915
 40
0.4936284730588937
 40
0.7421706076863286
 40
1.0
 40
1.0
 40
1.0
 40
1.0
 10
182.5017631827409
 20
166.4065623176334
 30
0.0
 10
182.7119035059497
 20
166.9500088499042
 30
0.0
 10
183.1384929509113
 20
168.053217177691
 30
0.0
 10
183.3488773810543
 20
169.8032622074176
 30
0.0
 10
183.1581906873873
 20
171.5902313713604
 30
0.0
 10
182.7232315169926
 20
172.7231757515827
 30
0.0
 10
182.5017631827409
 20
173.300037493479
 30
0.0
  0
LINE
  5
1BD
330
1F
100
AcDbEntity
  8
0
  6
Continuous
 62
     7
370
    25
100
AcDbLine
 10
184.5017631827
 20
173.3532999056
 30
0.0
 11
184.5017631827
 21
156.8532999056
 31
0.0
  0
LINE
  5
1BE
330
1F
100
AcDbEntity
  8
0
  6
Continuous
 62
     7
370
    25
100
AcDbLine
 10
179.9517631827
 20
156.9065623176
 30
0.0
 11
179.7017631827
 21
157.5135155828
 31
0.0
  0
LINE
  5
1BF
330
1F
100
AcDbEntity
  8
0
  6
Continuous
 62
     7
370
    25
100
AcDbLine
 10
179.7017631827
 20
163.1930842284
 30
0.0
 11
179.7017631827
 21
157.5135155828
 31
0.0
  0
LINE
  5
1C0
330
1F
100
AcDbEntity
  8
0
  6
Continuous
 62
     7
370
    25
100
AcDbLine
 10
179.7017631827
 20
163.1930842284
 30
0.0
 11
179.9517631827
 21
163.8000374935
 31
0.0
  0
LINE
  5
1C1
330
1F
100
AcDbEntity
  8
0
  6
Continuous
 62
     7
370
    25
100
AcDbLine
 10
182.5017631827
 20
163.8000374935
 30
0.0
 11
179.9517631827
 21
163.8000374935
 31
0.0
  0
LINE
  5
1C2
330
1F
100
AcDbEntity
  8
0
  6
Continuous
 62
     7
370
    25
100
AcDbLine
 10
179.9517631827
 20
156.9065623176
 30
0.0
 11
182.5017631827
 21
156.9065623176
 31
0.0
  0
LINE
  5
1C3
330
1F
100
AcDbEntity
  8
0
  6
Continuous
 62
     7
370
    25
100
AcDbLine
 10
179.9517631827
 20
166.4065623176
 30
0.0
 11
179.7017631827
 21
167.0135155828
 31
0.0
  0
LINE
  5
1C4
330
1F
100
AcDbEntity
  8
0
  6
Continuous
 62
     7
370
    25
100
AcDbLine
 10
179.7017631827
 20
172.6930842284
 30
0.0
 11
179.7017631827
 21
167.0135155828
 31
0.0
  0
LINE
  5
1C5
330
1F
100
AcDbEntity
  8
0
  6
Continuous
 62
     7
370
    25
100
AcDbLine
 10
179.7017631827
 20
172.6930842284
 30
0.0
 11
179.9517631827
 21
173.3000374935
 31
0.0
  0
LINE
  5
1C6
330
1F
100
AcDbEntity
  8
0
  6
Continuous
 62
     7
370
    25
100
AcDbLine
 10
182.5017631827
 20
173.3000374935
 30
0.0
 11
179.9517631827
 21
173.3000374935
 31
0.0
  0
LINE
  5
1C7
330
1F
100
AcDbEntity
  8
0
  6
Continuous
 62
     7
370
    25
100
AcDbLine
 10
179.9517631827
 20
166.4065623176
 30
0.0
 11
182.5017631827
 21
166.4065623176
 31
0.0
  0
LINE
  5
1C8
330
1F
100
AcDbEntity
  8
0
  6
Continuous
 62
     7
370
    25
100
AcDbLine
 10
179.9517631827
 20
166.4065623176
 30
0.0
 11
179.9517631827
 21
163.8000374935
 31
0.0
  0
LINE
  5
1C9
330
1F
100
AcDbEntity
  8
0
  6
Continuous
 62
     7
370
    25
100
AcDbLine
 10
179.7017631827
 20
163.1930842284
 30
0.0
 11
179.7017631827
 21
167.0135155828
 31
0.0
  0
SPLINE
  5
1CA
330
1F
100
AcDbEntity
  8
0
  6
Continuous
 62
     7
370
    25
100
AcDbSpline
210
0.0
220
0.0
230
1.0
 70
     8
 71
     3
 72
    11
 73
     7
 74
     0
 42
0.00000001
 43
0.00000001
 40
0.0
 40
0.0
 40
0.0
 40
0.0
 40
0.0823376510038091
 40
0.3188851439110015
 40
0.6247963511836877
 40
1.0
 40
1.0
 40
1.0
 40
1.0
 10
177.6022234083302
 20
174.4893244795731
 30
0.0
 10
177.6048515093562
 20
174.485913464347
 30
0.0
 10
177.6150298708189
 20
174.4727029577565
 30
0.0
 10
177.6357131349383
 20
174.3499605364386
 30
0.0
 10
177.6662253380617
 20
174.0535150148653
 30
0.0
 10
177.689140163327
 20
173.6580524612557
 30
0.0
 10
177.7017631827409
 20
173.4402052189616
 30
0.0
  0
LINE
  5
1CB
330
1F
100
AcDbEntity
  8
0
  6
Continuous
 62
     7
370
    25
100
AcDbLine
 10
177.7017631827
 20
160.7609493392
 30
0.0
 11
177.7017631827
 21
173.4402052188
 31
0.0
  0
SPLINE
  5
1CC
330
1F
100
AcDbEntity
  8
0
  6
Continuous
 62
     7
370
    25
100
AcDbSpline
210
0.0
220
0.0
230
1.0
 70
     8
 71
     3
 72
    30
 73
    26
 74
     0
 42
0.00000001
 43
0.00000001
 40
0.0
 40
0.0
 40
0.0
 40
0.0
 40
0.0182355448544065
 40
0.0763245661743252
 40
0.1063427875899049
 40
0.1451052306444134
 40
0.1926087823348561
 40
0.2376127113006339
 40
0.2719933646366511
 40
0.2957466639727327
 40
0.3088697938344322
 40
0.3375269424463682
 40
0.3661842311463162
 40
0.3948416612334269
 40
0.4234992340068308
 40
0.5378839981506605
 40
0.5908692721160762
 40
0.6380628073955174
 40
0.6794629392041788
 40
0.7306843854292003
 40
0.7688710157324232
 40
0.8038595024706399
 40
0.8540525738533307
 40
0.9194380368698538
 40
1.0
 40
1.0
 40
1.0
 40
1.0
 10
177.2406178265484
 20
174.4903714479753
 30
0.0
 10
177.24329897874
 20
174.4939129315792
 30
0.0
 10
177.2545208961275
 20
174.5087357516174
 30
0.0
 10
177.2705462219401
 20
174.4251366121876
 30
0.0
 10
177.2901572534915
 20
174.2766822576531
 30
0.0
 10
177.3083195118128
 20
174.0851425796817
 30
0.0
 10
177.3289675263366
 20
173.7989028518954
 30
0.0
 10
177.3489504471798
 20
173.4504085596449
 30
0.0
 10
177.365089423194
 20
173.1196130546411
 30
0.0
 10
177.3762012824063
 20
172.8679289217908
 30
0.0
 10
177.3861517620325
 20
172.6234170808092
 30
0.0
 10
177.3963168559368
 20
172.3449190702684
 30
0.0
 10
177.409109696808
 20
171.9800656702366
 30
0.0
 10
177.4219516235245
 20
171.5914034757827
 30
0.0
 10
177.4478452338988
 20
170.7710414861569
 30
0.0
 10
177.4783351208772
 20
169.7092290086308
 30
0.0
 10
177.5120455756974
 20
168.4454094894022
 30
0.0
 10
177.5341088548279
 20
167.5781417076011
 30
0.0
 10
177.5557310947246
 20
166.7008480780043
 30
0.0
 10
177.5758319770421
 20
165.8656014167747
 30
0.0
 10
177.5942448519801
 20
165.0663801468308
 30
0.0
 10
177.6125937062563
 20
164.2739609750816
 30
0.0
 10
177.6357869228057
 20
163.3142426272617
 30
0.0
 10
177.6662311900459
 20
162.0843749737064
 30
0.0
 10
177.6891256179381
 20
161.2316484457951
 30
0.0
 10
177.7017631827409
 20
160.7609493391685
 30
0.0
  0
SPLINE
  5
1CD
330
1F
100
AcDbEntity
  8
0
  6
Continuous
 62
     7
370
    25
100
AcDbSpline
210
0.0
220
0.0
230
1.0
 70
     8
 71
     3
 72
    12
 73
     8
 74
     0
 42
0.00000001
 43
0.00000001
 40
0.0
 40
0.0
 40
0.0
 40
0.0
 40
0.2176683106405472
 40
0.4685852168999713
 40
0.7246585792764159
 40
0.9786110903297413
 40
1.0
 40
1.0
 40
1.0
 40
1.0
 10
177.0517631827409
 20
162.2571714709777
 30
0.0
 10
177.0725461064708
 20
161.5404927884823
 30
0.0
 10
177.1172865227268
 20
159.9976635410991
 30
0.0
 10
177.1802831067772
 20
158.1195488181362
 30
0.0
 10
177.2533867224818
 20
156.8804330641133
 30
0.0
 10
177.3020978017545
 20
156.3523048054143
 30
0.0
 10
177.327188807968
 20
156.4887151142667
 30
0.0
 10
177.3291379126978
 20
156.4993116593359
 30
0.0
  0
SPLINE
  5
1CE
330
1F
100
AcDbEntity
  8
0
  6
Continuous
 62
     7
370
    25
100
AcDbSpline
210
0.0
220
0.0
230
1.0
 70
     8
 71
     3
 72
    10
 73
     6
 74
     0
 42
0.00000001
 43
0.00000001
 40
0.0
 40
0.0
 40
0.0
 40
0.0
 40
0.3607337961396723
 40
0.8121409875158757
 40
1.0
 40
1.0
 40
1.0
 40
1.0
 10
178.0441651645556
 20
173.6677103452513
 30
0.0
 10
178.0626854138931
 20
173.6079195370212
 30
0.0
 10
178.1043811289799
 20
173.4733090110324
 30
0.0
 10
178.1595614067169
 20
172.5314496553795
 30
0.0
 10
178.1921781963177
 20
171.7043681585279
 30
0.0
 10
178.2017631827409
 20
171.4613164966316
 30
0.0
  0
SPLINE
  5
1CF
330
1F
100
AcDbEntity
  8
0
  6
Continuous
 62
     7
370
    25
100
AcDbSpline
210
0.0
220
0.0
230
1.0
 70
    24
 71
     3
 72
    10
 73
     6
 74
     0
 42
0.00000001
 43
0.00000001
 40
0.0
 40
0.0
 40
0.0
 40
0.0
 40
0.3187287177375321
 40
0.8180873955881237
 40
1.0
 40
1.0
 40
1.0
 40
1.0
 10
178.2017631827409
 20
171.4613164966316
 30
0.0
 10
178.2017631827409
 20
171.0247636682841
 30
0.0
 10
178.2017631827409
 20
169.9042547636755
 30
0.0
 10
178.2017631827409
 20
168.1004536057141
 30
0.0
 10
178.2017631827409
 20
166.7942937632837
 30
0.0
 10
178.2017631827409
 20
166.4455238313917
 30
0.0
  0
SPLINE
  5
1D0
330
1F
100
AcDbEntity
  8
0
  6
Continuous
 62
     7
370
    25
100
AcDbSpline
210
0.0
220
0.0
230
1.0
 70
     8
 71
     3
 72
    13
 73
     9
 74
     0
 42
0.00000001
 43
0.00000001
 40
0.0
 40
0.0
 40
0.0
 40
0.0
 40
0.2187316754180421
 40
0.3931473777464117
 40
0.5714254113794042
 40
0.7494200729435004
 40
0.8738925945231126
 40
1.0
 40
1.0
 40
1.0
 40
1.0
 10
178.2017631827409
 20
166.4455238313917
 30
0.0
 10
178.1640353758344
 20
167.0676306413619
 30
0.0
 10
178.0962235770856
 20
168.1858027604687
 30
0.0
 10
177.9974101484727
 20
169.7090219271961
 30
0.0
 10
177.9083986122216
 20
171.0114529817162
 30
0.0
 10
177.8336856852844
 20
172.047035242244
 30
0.0
 10
177.7640176063789
 20
172.855754100953
 30
0.0
 10
177.722604722051
 20
173.2445426420933
 30
0.0
 10
177.7017631827575
 20
173.440205218814
 30
0.0
  0
SPLINE
  5
1D1
330
1F
100
AcDbEntity
  8
0
  6
Continuous
 62
     7
370
    25
100
AcDbSpline
210
0.0
220
0.0
230
1.0
 70
     8
 71
     3
 72
    15
 73
    11
 74
     0
 42
0.00000001
 43
0.00000001
 40
0.0
 40
0.0
 40
0.0
 40
0.0
 40
0.1853848730991207
 40
0.2777270836008036
 40
0.3700718582436233
 40
0.462416855210521
 40
0.6144793794637545
 40
0.7665419034043038
 40
0.9186044273391785
 40
1.0
 40
1.0
 40
1.0
 40
1.0
 10
177.7017631827409
 20
160.7609493391682
 30
0.0
 10
177.7114806877167
 20
160.2242182847184
 30
0.0
 10
177.7260385870301
 20
159.4201356865086
 30
0.0
 10
177.7443708292944
 20
158.5029717557433
 30
0.0
 10
177.7580462605966
 20
157.8789964834352
 30
0.0
 10
177.7754155319489
 20
157.2127298203265
 30
0.0
 10
177.7964197990134
 20
156.5750284744186
 30
0.0
 10
177.8207657028705
 20
156.0914448863544
 30
0.0
 10
177.8409935969646
 20
155.8542730727682
 30
0.0
 10
177.8526660939622
 20
155.8807884995021
 30
0.0
 10
177.8567357304039
 20
155.8900331492907
 30
0.0
  0
SPLINE
  5
1D2
330
1F
100
AcDbEntity
  8
0
  6
Continuous
 62
     7
370
    25
100
AcDbSpline
210
0.0
220
0.0
230
1.0
 70
     8
 71
     3
 72
    14
 73
    10
 74
     0
 42
0.00000001
 43
0.00000001
 40
0.0
 40
0.0
 40
0.0
 40
0.0
 40
0.0578403592793417
 40
0.2161361478924428
 40
0.3736862591713957
 40
0.5337002824213858
 40
0.6901919037604665
 40
0.8498994977822804
 40
1.0
 40
1.0
 40
1.0
 40
1.0
 10
177.0517631827409
 20
168.798119709811
 30
0.0
 10
177.0604825485258
 20
168.5138977589743
 30
0.0
 10
177.0930648173132
 20
167.4518255594634
 30
0.0
 10
177.1482288974562
 20
165.2736185666643
 30
0.0
 10
177.2165564477705
 20
162.5795798805306
 30
0.0
 10
177.2904616021488
 20
160.1091357509085
 30
0.0
 10
177.3566141434487
 20
158.1408569782864
 30
0.0
 10
177.4285599546234
 20
156.8059410171582
 30
0.0
 10
177.4739917974679
 20
156.5968532613524
 30
0.0
 10
177.4960033023653
 20
156.495551269781
 30
0.0
  0
LINE
  5
1D3
330
1F
100
AcDbEntity
  8
0
  6
Continuous
 62
     7
370
    25
100
AcDbLine
 10
178.2017631827
 20
166.4455238314
 30
0.0
 11
178.2017631827
 21
156.2032999056
 31
0.0
  0
SPLINE
  5
1D4
330
1F
100
AcDbEntity
  8
0
  6
Continuous
 62
     7
370
    25
100
AcDbSpline
210
0.0
220
0.0
230
1.0
 70
    24
 71
     3
 72
    10
 73
     6
 74
     0
 42
0.00000001
 43
0.00000001
 40
0.0
 40
0.0
 40
0.0
 40
0.0
 40
0.2200266609304047
 40
0.6670013252276435
 40
1.0
 40
1.0
 40
1.0
 40
1.0
 10
178.2017631827409
 20
173.7389302337538
 30
0.0
 10
178.2017631827409
 20
173.7154696931791
 30
0.0
 10
178.2017631827409
 20
173.6443500770938
 30
0.0
 10
178.2017631827409
 20
172.9393431279024
 30
0.0
 10
178.2017631827409
 20
171.9035386759588
 30
0.0
 10
178.2017631827409
 20
171.4613164966316
 30
0.0
  0
LINE
  5
1D5
330
1F
100
AcDbEntity
  8
0
  6
Continuous
 62
     7
370
    25
100
AcDbLine
 10
179.9517631827
 20
156.9065623176
 30
0.0
 11
179.9517631827
 21
155.6032999056
 31
0.0
  0
LINE
  5
1D6
330
1F
100
AcDbEntity
  8
0
  6
Continuous
 62
     7
370
    25
100
AcDbLine
 10
179.7017631827
 20
155.6032999056
 30
0.0
 11
179.9517631827
 21
155.6032999056
 31
0.0
  0
LINE
  5
1D7
330
1F
100
AcDbEntity
  8
0
  6
Continuous
 62
     7
370
    25
100
AcDbLine
 10
179.7017631827
 20
155.6032999056
 30
0.0
 11
179.7017631827
 21
157.5135155828
 31
0.0
  0
LINE
  5
1D8
330
1F
100
AcDbEntity
  8
0
  6
Continuous
 62
     7
370
    25
100
AcDbLine
 10
179.9517631827
 20
174.6032999056
 30
0.0
 11
179.7017631827
 21
174.6032999056
 31
0.0
  0
LINE
  5
1D9
330
1F
100
AcDbEntity
  8
0
  6
Continuous
 62
     7
370
    25
100
AcDbLine
 10
179.9517631827
 20
174.6032999056
 30
0.0
 11
179.9517631827
 21
173.3000374935
 31
0.0
  0
LINE
  5
1DA
330
1F
100
AcDbEntity
  8
0
  6
Continuous
 62
     7
370
    25
100
AcDbLine
 10
179.7017631827
 20
172.6930842284
 30
0.0
 11
179.7017631827
 21
174.6032999056
 31
0.0
  0
LINE
  5
1DB
330
1F
100
AcDbEntity
  8
0
  6
Continuous
 62
     7
370
    25
100
AcDbLine
 10
182.5017631827
 20
155.6032999056
 30
0.0
 11
179.9517631827
 21
155.6032999056
 31
0.0
  0
LINE
  5
1DC
330
1F
100
AcDbEntity
  8
0
  6
Continuous
 62
     7
370
    25
100
AcDbLine
 10
179.9517631827
 20
174.6032999056
 30
0.0
 11
182.5017631827
 21
174.6032999056
 31
0.0
  0
SPLINE
  5
1DD
330
1F
100
AcDbEntity
  8
0
  6
Continuous
 62
     7
370
    25
100
AcDbSpline
210
0.0
220
0.0
230
1.0
 70
     8
 71
     3
 72
     9
 73
     5
 74
     0
 42
0.00000001
 43
0.00000001
 40
0.0
 40
0.0
 40
0.0
 40
0.0
 40
0.4182581660991578
 40
1.0
 40
1.0
 40
1.0
 40
1.0
 10
168.0493325770618
 20
178.8694794756414
 30
0.0
 10
167.9830499022916
 20
179.0635618086178
 30
0.0
 10
167.8245767865404
 20
179.5275870177045
 30
0.0
 10
167.8101536971901
 20
179.8614087961587
 30
0.0
 10
167.8017631827409
 20
180.0556068897527
 30
0.0
  0
LINE
  5
1DE
330
1F
100
AcDbEntity
  8
0
  6
Continuous
 62
     7
370
    25
100
AcDbLine
 10
167.8017631827
 20
150.1509929214
 30
0.0
 11
167.8731415116
 21
150.6032999056
 31
0.0
  0
LINE
  5
1DF
330
1F
100
AcDbEntity
  8
0
  6
Continuous
 62
     7
370
    25
100
AcDbLine
 10
167.8017631827
 20
150.1509929214
 30
0.0
 11
167.8017631827
 21
149.4241660473
 31
0.0
  0
SPLINE
  5
1E0
330
1F
100
AcDbEntity
  8
0
  6
Continuous
 62
     7
370
    25
100
AcDbSpline
210
0.0
220
0.0
230
1.0
 70
     8
 71
     3
 72
     9
 73
     5
 74
     0
 42
0.00000001
 43
0.00000001
 40
0.0
 40
0.0
 40
0.0
 40
0.0
 40
0.5850553834536188
 40
1.0
 40
1.0
 40
1.0
 40
1.0
 10
168.2162200903182
 20
148.8532999055562
 30
0.0
 10
168.0796659562939
 20
148.8849983225949
 30
0.0
 10
167.846262183102
 20
148.9391785214873
 30
0.0
 10
167.8148128953767
 20
149.2819393052874
 30
0.0
 10
167.8017631827409
 20
149.4241660472885
 30
0.0
  0
SPLINE
  5
1E1
330
1F
100
AcDbEntity
  8
0
  6
Continuous
 62
     7
370
    25
100
AcDbSpline
210
0.0
220
0.0
230
1.0
 70
    27
 71
     3
 72
    11
 73
     7
 74
     0
 42
0.00000001
 43
0.00000001
 40
0.0
 40
0.0
 40
0.0
 40
0.0
 40
0.2328716322111479
 40
0.4710265024313248
 40
0.7311421212560302
 40
0.9999999999999999
 40
0.9999999999999999
 40
0.9999999999999999
 40
0.9999999999999999
 10
168.2162200903182
 20
148.8532999055562
 30
0.0
 10
168.486616824991
 20
148.8532999055562
 30
0.0
 10
169.0335448771219
 20
148.8532999055562
 30
0.0
 10
169.3347691951054
 20
148.8532999055562
 30
0.0
 10
169.1271174296957
 20
148.8532999055562
 30
0.0
 10
168.5231795979155
 20
148.8532999055562
 30
0.0
 10
168.2162200903182
 20
148.8532999055562
 30
0.0
  0
SPLINE
  5
1E2
330
1F
100
AcDbEntity
  8
0
  6
Continuous
 62
     7
370
    25
100
AcDbSpline
210
0.0
220
0.0
230
1.0
 70
     8
 71
     3
 72
     9
 73
     5
 74
     0
 42
0.00000001
 43
0.00000001
 40
0.0
 40
0.0
 40
0.0
 40
0.0
 40
0.5841917497409234
 40
1.0
 40
1.0
 40
1.0
 40
1.0
 10
167.8017631827409
 20
149.4241660472885
 30
0.0
 10
167.8279311465615
 20
149.233083825222
 30
0.0
 10
167.8727245963702
 20
148.9059956351691
 30
0.0
 10
168.1153390138842
 20
148.8687760967159
 30
0.0
 10
168.2162200903182
 20
148.8532999055562
 30
0.0
  0
LINE
  5
1E3
330
1F
100
AcDbEntity
  8
0
  6
Continuous
 62
     7
370
    25
100
AcDbLine
 10
167.8017631827
 20
149.4241660473
 30
0.0
 11
167.8017631827
 21
150.1509929214
 31
0.0
  0
SPLINE
  5
1E4
330
1F
100
AcDbEntity
  8
0
  6
Continuous
 62
     7
370
    25
100
AcDbSpline
210
0.0
220
0.0
230
1.0
 70
     8
 71
     3
 72
     9
 73
     5
 74
     0
 42
0.00000001
 43
0.00000001
 40
0.0
 40
0.0
 40
0.0
 40
0.0
 40
0.5850553834536188
 40
1.0
 40
1.0
 40
1.0
 40
1.0
 10
168.2162200903182
 20
151.8748084536186
 30
0.0
 10
168.0796659562939
 20
151.4882619280548
 30
0.0
 10
167.846262183102
 20
150.8275611867301
 30
0.0
 10
167.8148128953767
 20
150.3494023546044
 30
0.0
 10
167.8017631827409
 20
150.1509929213597
 30
0.0
  0
SPLINE
  5
1E5
330
1F
100
AcDbEntity
  8
0
  6
Continuous
 62
     7
370
    25
100
AcDbSpline
210
0.0
220
0.0
230
1.0
 70
     8
 71
     3
 72
    11
 73
     7
 74
     0
 42
0.00000001
 43
0.00000001
 40
0.0
 40
0.0
 40
0.0
 40
0.0
 40
0.2556279644380972
 40
0.5185037642963866
 40
0.7560467972580102
 40
0.9999999999999999
 40
0.9999999999999999
 40
0.9999999999999999
 40
0.9999999999999999
 10
168.2162200903182
 20
162.0817913574938
 30
0.0
 10
168.5098460504202
 20
161.2308467845263
 30
0.0
 10
169.1054231655558
 20
159.5048307547032
 30
0.0
 10
169.3373121271824
 20
156.8717482265059
 30
0.0
 10
169.0543416687217
 20
154.2880208063353
 30
0.0
 10
168.4980625351574
 20
152.6863203952408
 30
0.0
 10
168.2162200903182
 20
151.8748084536186
 30
0.0
  0
SPLINE
  5
1E6
330
1F
100
AcDbEntity
  8
0
  6
Continuous
 62
     7
370
    25
100
AcDbSpline
210
0.0
220
0.0
230
1.0
 70
     8
 71
     3
 72
     9
 73
     5
 74
     0
 42
0.00000001
 43
0.00000001
 40
0.0
 40
0.0
 40
0.0
 40
0.0
 40
0.5841917497409257
 40
1.0
 40
1.0
 40
1.0
 40
1.0
 10
167.8017631827409
 20
164.3764730314849
 30
0.0
 10
167.8279311465615
 20
163.8961149059187
 30
0.0
 10
167.8727245963702
 20
163.0738538490324
 30
0.0
 10
168.1153390138842
 20
162.3731498579679
 30
0.0
 10
168.2162200903182
 20
162.0817913574938
 30
0.0
  0
LINE
  5
1E7
330
1F
100
AcDbEntity
  8
0
  6
Continuous
 62
     7
370
    25
100
AcDbLine
 10
167.8017631827
 20
164.3764730315
 30
0.0
 11
167.8017631827
 21
165.8301267796
 31
0.0
  0
SPLINE
  5
1E8
330
1F
100
AcDbEntity
  8
0
  6
Continuous
 62
     7
370
    25
100
AcDbSpline
210
0.0
220
0.0
230
1.0
 70
     8
 71
     3
 72
     9
 73
     5
 74
     0
 42
0.00000001
 43
0.00000001
 40
0.0
 40
0.0
 40
0.0
 40
0.0
 40
0.5850553834536182
 40
0.9999999999999999
 40
0.9999999999999999
 40
0.9999999999999999
 40
0.9999999999999999
 10
168.2162200903182
 20
168.1248084536186
 30
0.0
 10
168.0796659562939
 20
167.7065635110162
 30
0.0
 10
167.846262183102
 20
166.9916825707989
 30
0.0
 10
167.8148128953767
 20
166.1707629548731
 30
0.0
 10
167.8017631827409
 20
165.8301267796274
 30
0.0
  0
SPLINE
  5
1E9
330
1F
100
AcDbEntity
  8
0
  6
Continuous
 62
     7
370
    25
100
AcDbSpline
210
0.0
220
0.0
230
1.0
 70
     8
 71
     3
 72
    11
 73
     7
 74
     0
 42
0.00000001
 43
0.00000001
 40
0.0
 40
0.0
 40
0.0
 40
0.0
 40
0.2328716322111471
 40
0.471026502431323
 40
0.7311421212560291
 40
1.0
 40
1.0
 40
1.0
 40
1.0
 10
168.2162200903182
 20
178.3317913574938
 30
0.0
 10
168.486616824991
 20
177.5576889815002
 30
0.0
 10
169.0335448771219
 20
175.9919219053395
 30
0.0
 10
169.3347691951054
 20
173.4564829380448
 30
0.0
 10
169.1271174296957
 20
170.7829768575756
 30
0.0
 10
168.5231795979155
 20
169.0205735734803
 30
0.0
 10
168.2162200903182
 20
168.1248084536186
 30
0.0
  0
SPLINE
  5
1EA
330
1F
100
AcDbEntity
  8
0
  6
Continuous
 62
     7
370
    25
100
AcDbSpline
210
0.0
220
0.0
230
1.0
 70
     8
 71
     3
 72
     9
 73
     5
 74
     0
 42
0.00000001
 43
0.00000001
 40
0.0
 40
0.0
 40
0.0
 40
0.0
 40
0.5841917497409239
 40
1.0
 40
1.0
 40
1.0
 40
1.0
 10
167.8017631827409
 20
180.0556068897527
 30
0.0
 10
167.8279311465615
 20
179.7663309862529
 30
0.0
 10
167.8727245963702
 20
179.2711581194194
 30
0.0
 10
168.1153390138842
 20
178.6076736668082
 30
0.0
 10
168.2162200903182
 20
178.3317913574938
 30
0.0
  0
LINE
  5
1EB
330
1F
100
AcDbEntity
  8
0
  6
Continuous
 62
     7
370
    25
100
AcDbLine
 10
167.8017631827
 20
180.0556068898
 30
0.0
 11
167.8017631827
 21
180.7824337638
 31
0.0
  0
SPLINE
  5
1EC
330
1F
100
AcDbEntity
  8
0
  6
Continuous
 62
     7
370
    25
100
AcDbSpline
210
0.0
220
0.0
230
1.0
 70
     8
 71
     3
 72
     9
 73
     5
 74
     0
 42
0.00000001
 43
0.00000001
 40
0.0
 40
0.0
 40
0.0
 40
0.0
 40
0.5850553834536166
 40
1.0
 40
1.0
 40
1.0
 40
1.0
 10
168.2162200903182
 20
181.3532999055562
 30
0.0
 10
168.0796659562939
 20
181.3216014885175
 30
0.0
 10
167.846262183102
 20
181.267421289625
 30
0.0
 10
167.8148128953767
 20
180.924660505825
 30
0.0
 10
167.8017631827409
 20
180.7824337638239
 30
0.0
  0
SPLINE
  5
1ED
330
1F
100
AcDbEntity
  8
0
  6
Continuous
 62
     7
370
    25
100
AcDbSpline
210
0.0
220
0.0
230
1.0
 70
    27
 71
     3
 72
    11
 73
     7
 74
     0
 42
0.00000001
 43
0.00000001
 40
0.0
 40
0.0
 40
0.0
 40
0.0
 40
0.2328716322111485
 40
0.471026502431326
 40
0.7311421212560308
 40
1.0
 40
1.0
 40
1.0
 40
1.0
 10
168.2162200903182
 20
181.3532999055562
 30
0.0
 10
168.486616824991
 20
181.3532999055562
 30
0.0
 10
169.0335448771219
 20
181.3532999055562
 30
0.0
 10
169.3347691951054
 20
181.3532999055562
 30
0.0
 10
169.1271174296957
 20
181.3532999055562
 30
0.0
 10
168.5231795979155
 20
181.3532999055562
 30
0.0
 10
168.2162200903182
 20
181.3532999055562
 30
0.0
  0
SPLINE
  5
1EE
330
1F
100
AcDbEntity
  8
0
  6
Continuous
 62
     7
370
    25
100
AcDbSpline
210
0.0
220
0.0
230
1.0
 70
     8
 71
     3
 72
     9
 73
     5
 74
     0
 42
0.00000001
 43
0.00000001
 40
0.0
 40
0.0
 40
0.0
 40
0.0
 40
0.5841917497409264
 40
1.0
 40
1.0
 40
1.0
 40
1.0
 10
167.8017631827409
 20
180.7824337638239
 30
0.0
 10
167.8279311465615
 20
180.9735159858905
 30
0.0
 10
167.8727245963702
 20
181.3006041759432
 30
0.0
 10
168.1153390138842
 20
181.3378237143965
 30
0.0
 10
168.2162200903182
 20
181.3532999055562
 30
0.0
  0
LINE
  5
1EF
330
1F
100
AcDbEntity
  8
0
  6
Continuous
 62
     7
370
    25
100
AcDbLine
 10
167.8017631827
 20
180.7824337638
 30
0.0
 11
167.8017631827
 21
180.0556068898
 31
0.0
  0
LINE
  5
1F0
330
1F
100
AcDbEntity
  8
0
  6
Continuous
 62
     7
370
    25
100
AcDbLine
 10
169.3017631827
 20
148.9180958934
 30
0.0
 11
169.3017631827
 21
181.2996004862
 31
0.0
  0
SPLINE
  5
1F1
330
1F
100
AcDbEntity
  8
0
  6
Continuous
 62
     7
370
    25
100
AcDbSpline
210
0.0
220
0.0
230
1.0
 70
     8
 71
     3
 72
     9
 73
     5
 74
     0
 42
0.00000001
 43
0.00000001
 40
0.0
 40
0.0
 40
0.0
 40
0.0
 40
0.4167058089676245
 40
1.0
 40
1.0
 40
1.0
 40
1.0
 10
161.0049090405758
 20
151.415201669354
 30
0.0
 10
161.0011696610063
 20
151.3179067325413
 30
0.0
 10
160.9921959930396
 20
151.084420818213
 30
0.0
 10
160.9832068649884
 20
151.0221577065696
 30
0.0
 10
160.9779635588136
 20
150.9858399952324
 30
0.0
  0
LINE
  5
1F2
330
1F
100
AcDbEntity
  8
0
  6
Continuous
 62
     7
370
    25
100
AcDbLine
 10
160.9740968581
 20
151.0043987288
 30
0.0
 11
160.9708806285
 21
151.0198354413
 31
0.0
  0
LINE
  5
1F3
330
1F
100
AcDbEntity
  8
0
  6
Continuous
 62
     7
370
    25
100
AcDbLine
 10
160.5715394861
 20
179.5894055012
 30
0.0
 11
160.5683035871
 21
179.5850816048
 31
0.0
  0
LINE
  5
1F4
330
1F
100
AcDbEntity
  8
0
  6
Continuous
 62
     7
370
    25
100
AcDbLine
 10
160.9373062752
 20
168.1248084536
 30
0.0
 11
168.2162200903
 21
168.1248084536
 31
0.0
  0
LINE
  5
1F5
330
1F
100
AcDbEntity
  8
0
  6
Continuous
 62
     7
370
    25
100
AcDbLine
 10
168.2162200903
 20
178.3317913575
 30
0.0
 11
160.9373062752
 21
178.3317913575
 31
0.0
  0
SPLINE
  5
1F6
330
1F
100
AcDbEntity
  8
0
  6
Continuous
 62
     7
370
    25
100
AcDbSpline
210
0.0
220
0.0
230
1.0
 70
     8
 71
     3
 72
    11
 73
     7
 74
     0
 42
0.00000001
 43
0.00000001
 40
0.0
 40
0.0
 40
0.0
 40
0.0
 40
0.2328716322111453
 40
0.4710265024313188
 40
0.731142121256027
 40
1.0
 40
1.0
 40
1.0
 40
1.0
 10
160.9373062751635
 20
168.1248084536186
 30
0.0
 10
160.6669095404907
 20
168.8989108296122
 30
0.0
 10
160.1199814883599
 20
170.4646779057729
 30
0.0
 10
159.8187571703763
 20
173.0001168730676
 30
0.0
 10
160.026408935786
 20
175.6736229535368
 30
0.0
 10
160.6303467675663
 20
177.4360262376321
 30
0.0
 10
160.9373062751635
 20
178.3317913574938
 30
0.0
  0
LINE
  5
1F7
330
1F
100
AcDbEntity
  8
0
  6
Continuous
 62
     7
370
    25
100
AcDbLine
 10
177.0517631827
 20
159.8157999056
 30
0.0
 11
177.0517631827
 21
175.6782999056
 31
0.0
  0
LINE
  5
1F8
330
1F
100
AcDbEntity
  8
0
  6
Continuous
 62
     7
370
    25
100
AcDbLine
 10
177.0517631827
 20
154.5282999056
 30
0.0
 11
177.0517631827
 21
159.8157999056
 31
0.0
  0
LINE
  5
1F9
330
1F
100
AcDbEntity
  8
0
  6
Continuous
 62
     7
370
    25
100
AcDbLine
 10
160.8080294896
 20
179.703680064
 30
0.0
 11
160.820794846
 21
179.7026830774
 31
0.0
  0
LINE
  5
1FA
330
1F
100
AcDbEntity
  8
0
  6
Continuous
 62
     7
370
    25
100
AcDbLine
 10
167.8017631827
 20
165.8301267796
 30
0.0
 11
161.3517631827
 21
165.8301267796
 31
0.0
  0
SPLINE
  5
1FB
330
1F
100
AcDbEntity
  8
0
  6
Continuous
 62
     7
370
    25
100
AcDbSpline
210
0.0
220
0.0
230
1.0
 70
     8
 71
     3
 72
     9
 73
     5
 74
     0
 42
0.00000001
 43
0.00000001
 40
0.0
 40
0.0
 40
0.0
 40
0.0
 40
0.5841917497409203
 40
1.0
 40
1.0
 40
1.0
 40
1.0
 10
161.3517631827409
 20
165.8301267796274
 30
0.0
 10
161.3255952189203
 20
166.3104849051937
 30
0.0
 10
161.2808017691116
 20
167.1327459620801
 30
0.0
 10
161.0381873515976
 20
167.8334499531445
 30
0.0
 10
160.9373062751635
 20
168.1248084536186
 30
0.0
  0
LINE
  5
1FC
330
1F
100
AcDbEntity
  8
0
  6
Continuous
 62
     7
370
    25
100
AcDbLine
 10
161.3517631827
 20
164.3764730315
 30
0.0
 11
167.8017631827
 21
164.3764730315
 31
0.0
  0
LINE
  5
1FD
330
1F
100
AcDbEntity
  8
0
  6
Continuous
 62
     7
370
    25
100
AcDbLine
 10
161.3517631827
 20
165.8301267796
 30
0.0
 11
161.3517631827
 21
164.3764730315
 31
0.0
  0
LINE
  5
1FE
330
1F
100
AcDbEntity
  8
0
  6
Continuous
 62
     7
370
    25
100
AcDbLine
 10
168.2162200903
 20
162.0817913575
 30
0.0
 11
160.9373062752
 21
162.0817913575
 31
0.0
  0
SPLINE
  5
1FF
330
1F
100
AcDbEntity
  8
0
  6
Continuous
 62
     7
370
    25
100
AcDbSpline
210
0.0
220
0.0
230
1.0
 70
     8
 71
     3
 72
     9
 73
     5
 74
     0
 42
0.00000001
 43
0.00000001
 40
0.0
 40
0.0
 40
0.0
 40
0.0
 40
0.5850553834536154
 40
1.0
 40
1.0
 40
1.0
 40
1.0
 10
160.9373062751635
 20
162.0817913574938
 30
0.0
 10
161.0738604091879
 20
162.5000363000962
 30
0.0
 10
161.3072641823798
 20
163.2149172403135
 30
0.0
 10
161.3387134701051
 20
164.0358368562392
 30
0.0
 10
161.3517631827409
 20
164.3764730314849
 30
0.0
  0
LINE
  5
200
330
1F
100
AcDbEntity
  8
0
  6
Continuous
 62
     7
370
    25
100
AcDbLine
 10
160.9373062752
 20
151.8748084536
 30
0.0
 11
168.2162200903
 21
151.8748084536
 31
0.0
  0
SPLINE
  5
201
330
1F
100
AcDbEntity
  8
0
  6
Continuous
 62
     7
370
    25
100
AcDbSpline
210
0.0
220
0.0
230
1.0
 70
     8
 71
     3
 72
    11
 73
     7
 74
     0
 42
0.00000001
 43
0.00000001
 40
0.0
 40
0.0
 40
0.0
 40
0.0
 40
0.2379053903768115
 40
0.4814905141302429
 40
0.7366519444347656
 40
1.0
 40
1.0
 40
1.0
 40
1.0
 10
160.9373062751636
 20
151.8748084536184
 30
0.0
 10
160.6617208401906
 20
152.6658916749292
 30
0.0
 10
160.1039706666371
 20
154.266944372161
 30
0.0
 10
159.8174074419807
 20
156.824016172945
 30
0.0
 10
160.0422878481788
 20
159.4777490388087
 30
0.0
 10
160.635842965097
 20
161.2046885032108
 30
0.0
 10
160.9373062751635
 20
162.0817913574938
 30
0.0
  0
LINE
  5
202
330
1F
100
AcDbEntity
  8
0
  6
Continuous
 62
     7
370
    25
100
AcDbLine
 10
161.3517631827
 20
180.0556068898
 30
0.0
 11
167.8017631827
 21
180.0556068898
 31
0.0
  0
SPLINE
  5
203
330
1F
100
AcDbEntity
  8
0
  6
Continuous
 62
     7
370
    25
100
AcDbSpline
210
0.0
220
0.0
230
1.0
 70
     8
 71
     3
 72
     9
 73
     5
 74
     0
 42
0.00000001
 43
0.00000001
 40
0.0
 40
0.0
 40
0.0
 40
0.0
 40
0.5850553834536188
 40
1.0
 40
1.0
 40
1.0
 40
1.0
 10
160.9373062751635
 20
178.3317913574938
 30
0.0
 10
161.0738604091879
 20
178.7183378830576
 30
0.0
 10
161.3072641823798
 20
179.3790386243823
 30
0.0
 10
161.3387134701051
 20
179.857197456508
 30
0.0
 10
161.3517631827409
 20
180.0556068897527
 30
0.0
  0
LINE
  5
204
330
1F
100
AcDbEntity
  8
0
  6
Continuous
 62
     7
370
    25
100
AcDbLine
 10
167.8017631827
 20
150.1509929214
 30
0.0
 11
161.3517631827
 21
150.1509929214
 31
0.0
  0
SPLINE
  5
205
330
1F
100
AcDbEntity
  8
0
  6
Continuous
 62
     7
370
    25
100
AcDbSpline
210
0.0
220
0.0
230
1.0
 70
     8
 71
     3
 72
     9
 73
     5
 74
     0
 42
0.00000001
 43
0.00000001
 40
0.0
 40
0.0
 40
0.0
 40
0.0
 40
0.5841917497409932
 40
1.0
 40
1.0
 40
1.0
 40
1.0
 10
161.3517631827409
 20
150.1509929213597
 30
0.0
 10
161.3255952189203
 20
150.4402688248595
 30
0.0
 10
161.2808017691116
 20
150.9354416916929
 30
0.0
 10
161.0381873515977
 20
151.5989261443041
 30
0.0
 10
160.9373062751636
 20
151.8748084536184
 30
0.0
  0
LINE
  5
206
330
1F
100
AcDbEntity
  8
0
  6
Continuous
 62
     7
370
    25
100
AcDbLine
 10
167.8017631827
 20
180.7824337638
 30
0.0
 11
161.3517631827
 21
180.7824337638
 31
0.0
  0
LINE
  5
207
330
1F
100
AcDbEntity
  8
0
  6
Continuous
 62
     7
370
    25
100
AcDbLine
 10
161.3517631827
 20
180.7824337638
 30
0.0
 11
161.3517631827
 21
180.0556068898
 31
0.0
  0
LINE
  5
208
330
1F
100
AcDbEntity
  8
0
  6
Continuous
 62
     7
370
    25
100
AcDbLine
 10
161.3517631827
 20
149.4241660473
 30
0.0
 11
167.8017631827
 21
149.4241660473
 31
0.0
  0
LINE
  5
209
330
1F
100
AcDbEntity
  8
0
  6
Continuous
 62
     7
370
    25
100
AcDbLine
 10
161.3517631827
 20
150.1509929214
 30
0.0
 11
161.3517631827
 21
149.4241660473
 31
0.0
  0
LINE
  5
20A
330
1F
100
AcDbEntity
  8
0
  6
Continuous
 62
     7
370
    25
100
AcDbLine
 10
160.9373062752
 20
181.3532999056
 30
0.0
 11
168.2162200903
 21
181.3532999056
 31
0.0
  0
SPLINE
  5
20B
330
1F
100
AcDbEntity
  8
0
  6
Continuous
 62
     7
370
    25
100
AcDbSpline
210
0.0
220
0.0
230
1.0
 70
     8
 71
     3
 72
     9
 73
     5
 74
     0
 42
0.00000001
 43
0.00000001
 40
0.0
 40
0.0
 40
0.0
 40
0.0
 40
0.5841917497409259
 40
1.0
 40
1.0
 40
1.0
 40
1.0
 10
161.3517631827409
 20
180.7824337638239
 30
0.0
 10
161.3255952189203
 20
180.9735159858905
 30
0.0
 10
161.2808017691116
 20
181.3006041759432
 30
0.0
 10
161.0381873515976
 20
181.3378237143965
 30
0.0
 10
160.9373062751635
 20
181.3532999055562
 30
0.0
  0
LINE
  5
20C
330
1F
100
AcDbEntity
  8
0
  6
Continuous
 62
     7
370
    25
100
AcDbLine
 10
168.2162200903
 20
148.8532999056
 30
0.0
 11
160.9373062752
 21
148.8532999056
 31
0.0
  0
SPLINE
  5
20D
330
1F
100
AcDbEntity
  8
0
  6
Continuous
 62
     7
370
    25
100
AcDbSpline
210
0.0
220
0.0
230
1.0
 70
     8
 71
     3
 72
     9
 73
     5
 74
     0
 42
0.00000001
 43
0.00000001
 40
0.0
 40
0.0
 40
0.0
 40
0.0
 40
0.5850553834536137
 40
1.0
 40
1.0
 40
1.0
 40
1.0
 10
160.9373062751635
 20
148.8532999055562
 30
0.0
 10
161.0738604091879
 20
148.8849983225949
 30
0.0
 10
161.3072641823798
 20
148.9391785214874
 30
0.0
 10
161.3387134701051
 20
149.2819393052874
 30
0.0
 10
161.3517631827409
 20
149.4241660472885
 30
0.0
  0
LWPOLYLINE
  5
20E
330
1F
100
AcDbEntity
  8
0
  6
Continuous
 62
     8
370
    25
100
AcDbPolyline
 90
       18
 70
   128
 43
0.0
 10
120.7517631827
 20
60.0303118171
 10
120.8862756952
 20
60.5415732946
 10
121.2852325704
 20
61.0354243755
 10
121.9350478105
 20
61.4950475539
 10
122.8135927367
 20
61.9047909134
 10
123.8909495553
 20
62.2507011355
 10
125.1304301721
 20
62.5209986625
 10
126.4898255612
 20
62.7064788362
 10
127.922843143
 20
62.8008253517
 10
129.3806832225
 20
62.8008253517
 10
130.8137008043
 20
62.7064788362
 10
132.1730961934
 20
62.5209986625
 10
133.4125768101
 20
62.2507011355
 10
134.4899336288
 20
61.9047909134
 10
135.368478555
 20
61.4950475539
 10
136.018293795
 20
61.0354243755
 10
136.4172506702
 20
60.5415732946
 10
136.5517631827
 20
60.0303118171
  0
LWPOLYLINE
  5
20F
330
1F
100
AcDbEntity
  8
0
  6
Continuous
 62
     8
370
    25
100
AcDbPolyline
 90
       18
 70
   128
 43
0.0
 10
120.7517631827
 20
142.4303118171
 10
120.8862756952
 20
142.9415732946
 10
121.2852325704
 20
143.4354243755
 10
121.9350478105
 20
143.8950475539
 10
122.8135927367
 20
144.3047909134
 10
123.8909495553
 20
144.6507011355
 10
125.1304301721
 20
144.9209986625
 10
126.4898255612
 20
145.1064788362
 10
127.922843143
 20
145.2008253517
 10
129.3806832225
 20
145.2008253517
 10
130.8137008043
 20
145.1064788362
 10
132.1730961934
 20
144.9209986625
 10
133.4125768101
 20
144.6507011355
 10
134.4899336288
 20
144.3047909134
 10
135.368478555
 20
143.8950475539
 10
136.018293795
 20
143.4354243755
 10
136.4172506702
 20
142.9415732946
 10
136.5517631827
 20
142.4303118171
  0
ARC
  5
210
330
1F
100
AcDbEntity
  8
0
  6
Continuous
 62
     8
370
    25
100
AcDbCircle
 10
128.6517631827
 20
12.7032999056
 30
0.0
 40
8.41047229201953
100
AcDbArc
 50
159.9351921799
 51
270.0
  0
ARC
  5
211
330
1F
100
AcDbEntity
  8
0
  6
Continuous
 62
     8
370
    25
100
AcDbCircle
 10
128.6517631827
 20
12.7032999056
 30
0.0
 40
8.410472292019522
100
AcDbArc
 50
270.0
 51
20.0648078201
  0
LINE
  5
212
330
1F
100
AcDbEntity
  8
0
  6
Continuous
 62
     8
370
    25
100
AcDbLine
 10
120.5925293354
 20
157.5289388785
 30
0.0
 11
120.7517631827
 21
157.3630030653
 31
0.0
  0
ARC
  5
213
330
1F
100
AcDbEntity
  8
0
  6
Continuous
 62
     8
370
    25
100
AcDbCircle
 10
128.6517631827
 20
165.1032999056
 30
0.0
 40
11.05993649053891
100
AcDbArc
 50
315.5850271977
 51
223.2235523034
  0
ARC
  5
214
330
1F
100
AcDbEntity
  8
0
  6
Continuous
 62
     8
370
    25
100
AcDbCircle
 10
128.6517631827
 20
165.1032999056
 30
0.0
 40
11.30993649053893
100
AcDbArc
 50
314.3068486059
 51
225.6931513941
  0
LINE
  5
215
330
1F
100
AcDbEntity
  8
0
  6
Continuous
 62
     8
370
    25
100
AcDbLine
 10
136.5517631827
 20
152.7375635956
 30
0.0
 11
136.8090220414
 21
152.8442317145
 31
0.0
  0
ARC
  5
216
330
1F
100
AcDbEntity
  8
0
  6
Continuous
 62
     8
370
    25
100
AcDbCircle
 10
120.4942726759
 20
153.1882456802
 30
0.0
 40
0.3529502268458857
100
AcDbArc
 50
279.5385256861
 51
316.8476542185
  0
ARC
  5
217
330
1F
100
AcDbEntity
  8
0
  6
Continuous
 62
     8
370
    25
100
AcDbCircle
 10
128.6517631827
 20
165.1032999056
 30
0.0
 40
9.374999999999998
100
AcDbArc
 50
327.4227936768
 51
212.5772063232
  0
ARC
  5
218
330
1F
100
AcDbEntity
  8
0
  6
Continuous
 62
     8
370
    25
100
AcDbCircle
 10
135.595277434
 20
144.3924201909
 30
0.0
 40
7.943655242546495
100
AcDbArc
 50
57.337317599
 51
83.0843056245
  0
ARC
  5
219
330
1F
100
AcDbEntity
  8
0
  6
Continuous
 62
     8
370
    25
100
AcDbCircle
 10
135.7288444757
 20
185.4929008059
 30
0.0
 40
7.601341921567666
100
AcDbArc
 50
272.8159102746
 51
303.1220773789
  0
SPLINE
  5
21A
330
1F
100
AcDbEntity
  8
0
  6
Continuous
 62
     8
370
    25
100
AcDbSpline
210
0.0
220
0.0
230
1.0
 70
     8
 71
     3
 72
    12
 73
     8
 74
     0
 42
0.00000001
 43
0.00000001
 40
0.0
 40
0.0
 40
0.0
 40
0.0
 40
0.1924082105681739
 40
0.4135492548068708
 40
0.6381901448204661
 40
0.8686791278218468
 40
1.0
 40
1.0
 40
1.0
 40
1.0
 10
142.642204970313
 20
181.2922525543799
 30
0.0
 10
142.5920979866987
 20
181.2787189150688
 30
0.0
 10
142.4844014093378
 20
181.2496306218229
 30
0.0
 10
142.0603528523253
 20
180.9176304312192
 30
0.0
 10
141.4104135326462
 20
180.3709110221724
 30
0.0
 10
140.6612501750502
 20
179.7388373821302
 30
0.0
 10
140.0898121265707
 20
179.2897229455743
 30
0.0
 10
139.8824055514102
 20
179.1267143965478
 30
0.0
  0
SPLINE
  5
21B
330
1F
100
AcDbEntity
  8
0
  6
Continuous
 62
     8
370
    25
100
AcDbSpline
210
0.0
220
0.0
230
1.0
 70
     8
 71
     3
 72
    12
 73
     8
 74
     0
 42
0.00000001
 43
0.00000001
 40
0.0
 40
0.0
 40
0.0
 40
0.0
 40
0.2298983238880673
 40
0.46580431102087
 40
0.6969655693638132
 40
0.9348948514667818
 40
0.9999999999999999
 40
0.9999999999999999
 40
0.9999999999999999
 40
0.9999999999999999
 10
139.8824055514102
 20
151.0798854145646
 30
0.0
 10
140.2370296041615
 20
150.7979290546697
 30
0.0
 10
140.9555446840874
 20
150.2266483000404
 30
0.0
 10
141.7412472654665
 20
149.5537577249318
 30
0.0
 10
142.3119645713435
 20
149.0861556260422
 30
0.0
 10
142.5714732112912
 20
148.9116451599138
 30
0.0
 10
142.6350543100776
 20
148.9078646500491
 30
0.0
 10
142.6487143317184
 20
148.9070524299468
 30
0.0
  0
ARC
  5
21C
330
1F
100
AcDbEntity
  8
0
  6
Continuous
 62
     8
370
    25
100
AcDbCircle
 10
128.6517631827
 20
165.1032999056
 30
0.0
 40
16.86443661971832
100
AcDbArc
 50
67.4212070912
 51
242.0668292396
  0
LINE
  5
21D
330
1F
100
AcDbEntity
  8
0
  6
Continuous
 62
     8
370
    25
100
AcDbLine
 10
134.671184504
 20
179.5791305887
 30
0.0
 11
135.1269240862
 21
180.6751178397
 31
0.0
  0
ARC
  5
21E
330
1F
100
AcDbEntity
  8
0
  6
Continuous
 62
     8
370
    25
100
AcDbCircle
 10
142.7364671206
 20
134.2929857434
 30
0.0
 40
17.0277910490234
100
AcDbArc
 50
99.6490027568
 51
111.2976087729
  0
ARC
  5
21F
330
1F
100
AcDbEntity
  8
0
  6
Continuous
 62
     8
370
    25
100
AcDbCircle
 10
128.6517631827
 20
165.1032999056
 30
0.0
 40
24.76305823079824
100
AcDbArc
 50
288.6038866725
 51
319.140960131
  0
ARC
  5
220
330
1F
100
AcDbEntity
  8
0
  6
Continuous
 62
     8
370
    25
100
AcDbCircle
 10
128.6517631827
 20
165.1032999056
 30
0.0
 40
24.76305823079822
100
AcDbArc
 50
40.859039869
 51
251.3961133275
  0
LINE
  5
221
330
1F
100
AcDbEntity
  8
0
  6
Continuous
 62
     8
370
    25
100
AcDbLine
 10
202.3898071399
 20
156.9577085598
 30
0.0
 11
202.3898071399
 21
156.1276418613
 31
0.0
  0
LINE
  5
222
330
1F
100
AcDbEntity
  8
0
  6
Continuous
 62
     8
370
    25
100
AcDbLine
 10
201.456386926
 20
174.0952508602
 30
0.0
 11
201.456386926
 21
173.259297322
 31
0.0
  0
LINE
  5
223
330
1F
100
AcDbEntity
  8
0
  6
Continuous
 62
     8
370
    25
100
AcDbLine
 10
206.760489386
 20
156.2039324037
 30
0.0
 11
206.760489386
 21
174.0026674074
 31
0.0
  0
ARC
  5
224
330
1F
100
AcDbEntity
  8
0
  6
Continuous
 62
     8
370
    25
100
AcDbCircle
 10
196.9166422224
 20
174.7370560481
 30
0.0
 40
1.997072479677154
100
AcDbArc
 50
20.8716214639
 51
89.425453243
  0
SPLINE
  5
225
330
1F
100
AcDbEntity
  8
0
  6
Continuous
 62
     8
370
    25
100
AcDbSpline
210
0.0
220
0.0
230
1.0
 70
     8
 71
     3
 72
    11
 73
     7
 74
     0
 42
0.00000001
 43
0.00000001
 40
0.0
 40
0.0
 40
0.0
 40
0.0
 40
0.2712378730599509
 40
0.8558922174280369
 40
0.8591593821139398
 40
1.0
 40
1.0
 40
1.0
 40
1.0
 10
200.1797547635961
 20
174.4218065066268
 30
0.0
 10
200.2858456994218
 20
174.3640082134444
 30
0.0
 10
200.6206160811846
 20
174.1816254629923
 30
0.0
 10
200.9918634077641
 20
173.7902571046545
 30
0.0
 10
201.3022420827368
 20
173.4160639762919
 30
0.0
 10
201.3637446174426
 20
173.3370788065859
 30
0.0
 10
201.4238527867236
 20
173.2598843629086
 30
0.0
  0
SPLINE
  5
226
330
1F
100
AcDbEntity
  8
0
  6
Continuous
 62
     8
370
    25
100
AcDbSpline
210
0.0
220
0.0
230
1.0
 70
     8
 71
     3
 72
     9
 73
     5
 74
     0
 42
0.00000001
 43
0.00000001
 40
0.0
 40
0.0
 40
0.0
 40
0.0
 40
0.353471304687639
 40
1.0
 40
1.0
 40
1.0
 40
1.0
 10
202.345200806707
 20
156.9569019427359
 30
0.0
 10
202.1531020286664
 20
156.7635780571326
 30
0.0
 10
201.6096384561129
 20
156.2166485524189
 30
0.0
 10
201.090059588954
 20
155.9127776425788
 30
0.0
 10
200.7541369418579
 20
155.7163163796965
 30
0.0
  0
ARC
  5
227
330
1F
100
AcDbEntity
  8
0
  6
Continuous
 62
     8
370
    25
100
AcDbCircle
 10
197.0222119336
 20
155.3623649314
 30
0.0
 40
1.935945854965811
100
AcDbArc
 50
269.1353354526
 51
335.1540321835
  0
ARC
  5
228
330
1F
100
AcDbEntity
  8
0
  6
Continuous
 62
     8
370
    25
100
AcDbCircle
 10
196.9164933952
 20
174.7851553247
 30
0.0
 40
1.995865504505659
100
AcDbArc
 50
19.2726755477
 51
89.4208331484
  0
LINE
  5
229
330
1F
100
AcDbEntity
  8
0
  6
Continuous
 62
     8
370
    25
100
AcDbLine
 10
192.910489386
 20
177.0751133679
 30
0.0
 11
192.910489386
 21
176.8494338188
 31
0.0
  0
LINE
  5
22A
330
1F
100
AcDbEntity
  8
0
  6
Continuous
 62
     8
370
    25
100
AcDbLine
 10
192.910489386
 20
153.3571659923
 30
0.0
 11
192.910489386
 21
153.1314864432
 31
0.0
  0
LINE
  5
22B
330
1F
100
AcDbEntity
  8
0
  6
Continuous
 62
     8
370
    25
100
AcDbLine
 10
196.9366679956
 20
176.7809188622
 30
0.0
 11
196.9366679956
 21
177.0048361588
 31
0.0
  0
LINE
  5
22C
330
1F
100
AcDbEntity
  8
0
  6
Continuous
 62
     8
370
    25
100
AcDbLine
 10
196.9366679956
 20
153.2017636523
 30
0.0
 11
196.9366679956
 21
153.2183524586
 31
0.0
  0
ARC
  5
22D
330
1F
100
AcDbEntity
  8
0
  6
Continuous
 62
     8
370
    25
100
AcDbCircle
 10
196.9027032324
 20
155.2182278025
 30
0.0
 40
2.00016374234092
100
AcDbArc
 50
270.972985901
 51
333.0935829295
  0
LINE
  5
22E
330
1F
100
AcDbEntity
  8
0
  6
Continuous
 62
     8
370
    25
100
AcDbLine
 10
208.8567681723
 20
159.1781721344
 30
0.0
 11
208.8567681723
 21
171.0284276767
 31
0.0
  0
ENDSEC
  0
SECTION
  2
OBJECTS
  0
DICTIONARY
  5
C
330
0
100
AcDbDictionary
281
     1
  3
ACAD_GROUP
350
D
  3
ACAD_LAYOUT
350
1A
  3
ACAD_MLINESTYLE
350
17
  3
ACAD_PLOTSETTINGS
350
19
  3
ACAD_PLOTSTYLENAME
350
E
  3
ACAD_SCALELIST
350
47
  3
DWGPROPS
350
22F
  0
DICTIONARY
  5
D
102
{ACAD_REACTORS
330
C
102
}
330
C
100
AcDbDictionary
281
     1
  0
DICTIONARY
  5
1A
102
{ACAD_REACTORS
330
C
102
}
330
C
100
AcDbDictionary
281
     1
  3
Layout1
350
1E
  3
Layout2
350
26
  3
Model
350
22
  0
DICTIONARY
  5
17
102
{ACAD_REACTORS
330
C
102
}
330
C
100
AcDbDictionary
281
     1
  3
Standard
350
18
  0
DICTIONARY
  5
19
102
{ACAD_REACTORS
330
C
102
}
330
C
100
AcDbDictionary
281
     1
  0
ACDBDICTIONARYWDFLT
  5
E
102
{ACAD_REACTORS
330
C
102
}
330
C
100
AcDbDictionary
281
     1
  3
Normal
350
F
100
AcDbDictionaryWithDefault
340
F
  0
DICTIONARY
  5
47
102
{ACAD_REACTORS
330
C
102
}
330
C
100
AcDbDictionary
281
     1
  3
A0
350
48
  3
A1
350
49
  3
A2
350
4A
  3
A3
350
4B
  3
A4
350
4C
  3
A5
350
4D
  3
A6
350
4E
  3
A7
350
4F
  3
A8
350
50
  3
A9
350
51
  3
B0
350
52
  3
B1
350
53
  3
B2
350
54
  3
B3
350
55
  3
B4
350
56
  3
B5
350
57
  3
B6
350
58
  3
B7
350
59
  3
B8
350
5A
  3
B9
350
5B
  3
C0
350
5C
  3
C1
350
5D
  3
C2
350
5E
  3
C3
350
5F
  3
C4
350
60
  3
C5
350
61
  3
C6
350
62
  3
C7
350
63
  3
C8
350
64
  3
C9
350
65
  3
D0
350
66
  3
D1
350
67
  3
D2
350
68
  0
XRECORD
  5
22F
102
{ACAD_REACTORS
330
C
102
}
330
C
100
AcDbXrecord
280
     1
  1
DWGPROPS COOKIE
  2

  3

  4

  6

  7

  8
DS-1
  9

300
=
301
=
302
=
303
=
304
=
305
=
306
=
307
=
308
=
309
=
 40
0.0
 41
2460383.513045382
 42
2460383.513045845
  1

 90
        0
  0
LAYOUT
  5
1E
102
{ACAD_REACTORS
330
1A
102
}
330
1A
100
AcDbPlotSettings
  1

  2
none_device
  4

  6

 40
0.0
 41
0.0
 42
0.0
 43
0.0
 44
0.0
 45
0.0
 46
0.0
 47
0.0
 48
0.0
 49
0.0
140
0.0
141
0.0
142
1.0
143
1.0
 70
   688
 72
     1
 73
     0
 74
     5
  7

 75
    16
147
1.0
148
0.0
149
0.0
100
AcDbLayout
  1
Layout1
 70
     1
 71
     1
 10
0.0
 20
0.0
 11
420.0
 21
297.0
 12
0.0
 22
0.0
 32
0.0
 14
1.0000000000E+20
 24
1.0000000000E+20
 34
1.0000000000E+20
 15
-1.0000000000E+20
 25
-1.0000000000E+20
 35
-1.0000000000E+20
146
0.0
 13
0.0
 23
0.0
 33
0.0
 16
1.0
 26
0.0
 36
0.0
 17
0.0
 27
1.0
 37
0.0
 76
     0
330
1B
  0
LAYOUT
  5
26
102
{ACAD_REACTORS
330
1A
102
}
330
1A
100
AcDbPlotSettings
  1

  2
none_device
  4

  6

 40
0.0
 41
0.0
 42
0.0
 43
0.0
 44
0.0
 45
0.0
 46
0.0
 47
0.0
 48
0.0
 49
0.0
140
0.0
141
0.0
142
1.0
143
1.0
 70
   688
 72
     1
 73
     0
 74
     5
  7

 75
    16
147
1.0
148
0.0
149
0.0
100
AcDbLayout
  1
Layout2
 70
     1
 71
     2
 10
0.0
 20
0.0
 11
0.0
 21
0.0
 12
0.0
 22
0.0
 32
0.0
 14
0.0
 24
0.0
 34
0.0
 15
0.0
 25
0.0
 35
0.0
146
0.0
 13
0.0
 23
0.0
 33
0.0
 16
1.0
 26
0.0
 36
0.0
 17
0.0
 27
1.0
 37
0.0
 76
     0
330
23
  0
LAYOUT
  5
22
102
{ACAD_REACTORS
330
1A
102
}
330
1A
100
AcDbPlotSettings
  1

  2
none_device
  4
Letter_(8.50_x_11.00_Inches)
  6

 40
6.35
 41
6.35
 42
6.35000508
 43
6.35000508
 44
215.9
 45
279.4
 46
0.0
 47
0.0
 48
0.0
 49
0.0
140
0.0
141
0.0
142
1.0
143
1.0
 70
  1712
 72
     1
 73
     0
 74
     0
  7

 75
     0
147
1.0
148
0.0
149
0.0
100
AcDbLayout
  1
Model
 70
     1
 71
     0
 10
0.0
 20
0.0
 11
279.4
 21
215.9
 12
0.0
 22
0.0
 32
0.0
 14
0.0
 24
0.0
 34
0.0
 15
279.4
 25
215.9
 35
0.0
146
0.0
 13
0.0
 23
0.0
 33
0.0
 16
1.0
 26
0.0
 36
0.0
 17
0.0
 27
1.0
 37
0.0
 76
     0
330
1F
331
29
  0
MLINESTYLE
  5
18
102
{ACAD_REACTORS
330
17
102
}
330
17
100
AcDbMlineStyle
  2
Standard
 70
     0
  3

 62
   256
 51
90.0
 52
90.0
 71
     2
 49
0.5
 62
   256
  6
BYLAYER
 49
-0.5
 62
   256
  6
BYLAYER
  0
ACDBPLACEHOLDER
  5
F
102
{ACAD_REACTORS
330
E
102
}
330
E
  0
SCALE
  5
48
102
{ACAD_REACTORS
330
47
102
}
330
47
100
AcDbScale
 70
     0
300
1:1
140
1.0
141
1.0
290
     1
  0
SCALE
  5
49
102
{ACAD_REACTORS
330
47
102
}
330
47
100
AcDbScale
 70
     0
300
1:2
140
1.0
141
2.0
290
     0
  0
SCALE
  5
4A
102
{ACAD_REACTORS
330
47
102
}
330
47
100
AcDbScale
 70
     0
300
1:4
140
1.0
141
4.0
290
     0
  0
SCALE
  5
4B
102
{ACAD_REACTORS
330
47
102
}
330
47
100
AcDbScale
 70
     0
300
1:5
140
1.0
141
5.0
290
     0
  0
SCALE
  5
4C
102
{ACAD_REACTORS
330
47
102
}
330
47
100
AcDbScale
 70
     0
300
1:8
140
1.0
141
8.0
290
     0
  0
SCALE
  5
4D
102
{ACAD_REACTORS
330
47
102
}
330
47
100
AcDbScale
 70
     0
300
1:10
140
1.0
141
10.0
290
     0
  0
SCALE
  5
4E
102
{ACAD_REACTORS
330
47
102
}
330
47
100
AcDbScale
 70
     0
300
1:16
140
1.0
141
16.0
290
     0
  0
SCALE
  5
4F
102
{ACAD_REACTORS
330
47
102
}
330
47
100
AcDbScale
 70
     0
300
1:20
140
1.0
141
20.0
290
     0
  0
SCALE
  5
50
102
{ACAD_REACTORS
330
47
102
}
330
47
100
AcDbScale
 70
     0
300
1:30
140
1.0
141
30.0
290
     0
  0
SCALE
  5
51
102
{ACAD_REACTORS
330
47
102
}
330
47
100
AcDbScale
 70
     0
300
1:40
140
1.0
141
40.0
290
     0
  0
SCALE
  5
52
102
{ACAD_REACTORS
330
47
102
}
330
47
100
AcDbScale
 70
     0
300
1:50
140
1.0
141
50.0
290
     0
  0
SCALE
  5
53
102
{ACAD_REACTORS
330
47
102
}
330
47
100
AcDbScale
 70
     0
300
1:100
140
1.0
141
100.0
290
     0
  0
SCALE
  5
54
102
{ACAD_REACTORS
330
47
102
}
330
47
100
AcDbScale
 70
     0
300
2:1
140
2.0
141
1.0
290
     0
  0
SCALE
  5
55
102
{ACAD_REACTORS
330
47
102
}
330
47
100
AcDbScale
 70
     0
300
4:1
140
4.0
141
1.0
290
     0
  0
SCALE
  5
56
102
{ACAD_REACTORS
330
47
102
}
330
47
100
AcDbScale
 70
     0
300
8:1
140
8.0
141
1.0
290
     0
  0
SCALE
  5
57
102
{ACAD_REACTORS
330
47
102
}
330
47
100
AcDbScale
 70
     0
300
10:1
140
10.0
141
1.0
290
     0
  0
SCALE
  5
58
102
{ACAD_REACTORS
330
47
102
}
330
47
100
AcDbScale
 70
     0
300
100:1
140
100.0
141
1.0
290
     0
  0
SCALE
  5
59
102
{ACAD_REACTORS
330
47
102
}
330
47
100
AcDbScale
 70
     0
300
1/128" = 1'-0"
140
0.0078125
141
12.0
290
     0
  0
SCALE
  5
5A
102
{ACAD_REACTORS
330
47
102
}
330
47
100
AcDbScale
 70
     0
300
1/64" = 1'-0"
140
0.015625
141
12.0
290
     0
  0
SCALE
  5
5B
102
{ACAD_REACTORS
330
47
102
}
330
47
100
AcDbScale
 70
     0
300
1/32" = 1'-0"
140
0.03125
141
12.0
290
     0
  0
SCALE
  5
5C
102
{ACAD_REACTORS
330
47
102
}
330
47
100
AcDbScale
 70
     0
300
1/16" = 1'-0"
140
0.0625
141
12.0
290
     0
  0
SCALE
  5
5D
102
{ACAD_REACTORS
330
47
102
}
330
47
100
AcDbScale
 70
     0
300
3/32" = 1'-0"
140
0.09375
141
12.0
290
     0
  0
SCALE
  5
5E
102
{ACAD_REACTORS
330
47
102
}
330
47
100
AcDbScale
 70
     0
300
1/8" = 1'-0"
140
0.125
141
12.0
290
     0
  0
SCALE
  5
5F
102
{ACAD_REACTORS
330
47
102
}
330
47
100
AcDbScale
 70
     0
300
3/16" = 1'-0"
140
0.1875
141
12.0
290
     0
  0
SCALE
  5
60
102
{ACAD_REACTORS
330
47
102
}
330
47
100
AcDbScale
 70
     0
300
1/4" = 1'-0"
140
0.25
141
12.0
290
     0
  0
SCALE
  5
61
102
{ACAD_REACTORS
330
47
102
}
330
47
100
AcDbScale
 70
     0
300
3/8" = 1'-0"
140
0.375
141
12.0
290
     0
  0
SCALE
  5
62
102
{ACAD_REACTORS
330
47
102
}
330
47
100
AcDbScale
 70
     0
300
1/2" = 1'-0"
140
0.5
141
12.0
290
     0
  0
SCALE
  5
63
102
{ACAD_REACTORS
330
47
102
}
330
47
100
AcDbScale
 70
     0
300
3/4" = 1'-0"
140
0.75
141
12.0
290
     0
  0
SCALE
  5
64
102
{ACAD_REACTORS
330
47
102
}
330
47
100
AcDbScale
 70
     0
300
1" = 1'-0"
140
1.0
141
12.0
290
     0
  0
SCALE
  5
65
102
{ACAD_REACTORS
330
47
102
}
330
47
100
AcDbScale
 70
     0
300
1-1/2" = 1'-0"
140
1.5
141
12.0
290
     0
  0
SCALE
  5
66
102
{ACAD_REACTORS
330
47
102
}
330
47
100
AcDbScale
 70
     0
300
3" = 1'-0"
140
3.0
141
12.0
290
     0
  0
SCALE
  5
67
102
{ACAD_REACTORS
330
47
102
}
330
47
100
AcDbScale
 70
     0
300
6" = 1'-0"
140
6.0
141
12.0
290
     0
  0
SCALE
  5
68
102
{ACAD_REACTORS
330
47
102
}
330
47
100
AcDbScale
 70
     0
300
1'-0" = 1'-0"
140
12.0
141
12.0
290
     0
  0
ENDSEC
  0
EOF
