  0
SECTION
  2
HEADER
  9
$ACADVER
  1
AC1015
  9
$ACADMAINTVER
 70
     6
  9
$DWGCODEPAGE
  3
ANSI_1252
  9
$INSBASE
 10
0.0
 20
0.0
 30
0.0
  9
$EXTMIN
 10
0.0
 20
0.0
 30
0.0
  9
$EXTMAX
 10
279.4
 20
215.9
 30
0.0
  9
$LIMMIN
 10
0.0
 20
0.0
  9
$LIMMAX
 10
279.4
 20
215.9
  9
$ORTHOMODE
 70
     0
  9
$REGENMODE
 70
     1
  9
$FILLMODE
 70
     1
  9
$QTEXTMODE
 70
     0
  9
$MIRRTEXT
 70
     1
  9
$LTSCALE
 40
1.0
  9
$ATTMODE
 70
     1
  9
$TEXTSIZE
 40
3.5277777778
  9
$TRACEWID
 40
1.0
  9
$TEXTSTYLE
  7
Standard
  9
$CLAYER
  8
0
  9
$CELTYPE
  6
ByLayer
  9
$CECOLOR
 62
   256
  9
$CELTSCALE
 40
1.0
  9
$DISPSILH
 70
     0
  9
$DIMSCALE
 40
1.0
  9
$DIMASZ
 40
3.556
  9
$DIMEXO
 40
1.0
  9
$DIMDLI
 40
3.75
  9
$DIMRND
 40
0.0
  9
$DIMDLE
 40
0.0
  9
$DIMEXE
 40
1.0
  9
$DIMTP
 40
0.0
  9
$DIMTM
 40
0.0
  9
$DIMTXT
 40
3.5277777778
  9
$DIMCEN
 40
2.5
  9
$DIMTSZ
 40
0.0
  9
$DIMTOL
 70
     0
  9
$DIMLIM
 70
     0
  9
$DIMTIH
 70
     1
  9
$DIMTOH
 70
     1
  9
$DIMSE1
 70
     0
  9
$DIMSE2
 70
     0
  9
$DIMTAD
 70
     1
  9
$DIMZIN
 70
     0
  9
$DIMBLK
  1

  9
$DIMASO
 70
     1
  9
$DIMSHO
 70
     1
  9
$DIMPOST
  1

  9
$DIMAPOST
  1

  9
$DIMALT
 70
     0
  9
$DIMALTD
 70
     3
  9
$DIMALTF
 40
0.0393700787
  9
$DIMLFAC
 40
2.0
  9
$DIMTOFL
 70
     1
  9
$DIMTVP
 40
0.0
  9
$DIMTIX
 70
     0
  9
$DIMSOXD
 70
     0
  9
$DIMSAH
 70
     0
  9
$DIMBLK1
  1

  9
$DIMBLK2
  1

  9
$DIMSTYLE
  2
ISO-25
  9
$DIMCLRD
 70
     0
  9
$DIMCLRE
 70
     0
  9
$DIMCLRT
 70
     0
  9
$DIMTFAC
 40
1.0
  9
$DIMGAP
 40
1.524
  9
$DIMJUST
 70
     0
  9
$DIMSD1
 70
     0
  9
$DIMSD2
 70
     0
  9
$DIMTOLJ
 70
     0
  9
$DIMTZIN
 70
     0
  9
$DIMALTZ
 70
     0
  9
$DIMALTTZ
 70
     0
  9
$DIMUPT
 70
     0
  9
$DIMDEC
 70
     2
  9
$DIMTDEC
 70
     2
  9
$DIMALTU
 70
     2
  9
$DIMALTTD
 70
     3
  9
$DIMTXSTY
  7
Standard
  9
$DIMAUNIT
 70
     0
  9
$DIMADEC
 70
     2
  9
$DIMALTRND
 40
0.0
  9
$DIMAZIN
 70
     0
  9
$DIMDSEP
 70
    44
  9
$DIMATFIT
 70
     3
  9
$DIMFRAC
 70
     0
  9
$DIMLDRBLK
  1

  9
$DIMLUNIT
 70
     2
  9
$DIMLWD
 70
    -2
  9
$DIMLWE
 70
    -2
  9
$DIMTMOVE
 70
     0
  9
$LUNITS
 70
     2
  9
$LUPREC
 70
     2
  9
$SKETCHINC
 40
1.0
  9
$FILLETRAD
 40
10.0
  9
$AUNITS
 70
     0
  9
$AUPREC
 70
     2
  9
$MENU
  1
.
  9
$ELEVATION
 40
0.0
  9
$PELEVATION
 40
0.0
  9
$THICKNESS
 40
0.0
  9
$LIMCHECK
 70
     0
  9
$CHAMFERA
 40
0.0
  9
$CHAMFERB
 40
0.0
  9
$CHAMFERC
 40
0.0
  9
$CHAMFERD
 40
0.0
  9
$SKPOLY
 70
     0
  9
$TDCREATE
 40
2460383.736419722
  9
$TDUCREATE
 40
2460383.507253055
  9
$TDUPDATE
 40
2460383.736420359
  9
$TDUUPDATE
 40
2460383.507253692
  9
$TDINDWG
 40
0.0000000116
  9
$TDUSRTIMER
 40
0.0000000116
  9
$USRTIMER
 70
     1
  9
$ANGBASE
 50
0.0
  9
$ANGDIR
 70
     0
  9
$PDMODE
 70
     0
  9
$PDSIZE
 40
-1.0
  9
$PLINEWID
 40
0.0
  9
$SPLFRAME
 70
     0
  9
$SPLINETYPE
 70
     6
  9
$SPLINESEGS
 70
     8
  9
$HANDSEED
  5
2BF
  9
$SURFTAB1
 70
     6
  9
$SURFTAB2
 70
     6
  9
$SURFTYPE
 70
     6
  9
$SURFU
 70
     6
  9
$SURFV
 70
     6
  9
$UCSBASE
  2

  9
$UCSNAME
  2

  9
$UCSORG
 10
0.0
 20
0.0
 30
0.0
  9
$UCSXDIR
 10
1.0
 20
0.0
 30
0.0
  9
$UCSYDIR
 10
0.0
 20
1.0
 30
0.0
  9
$UCSORTHOREF
  2

  9
$UCSORTHOVIEW
 70
     0
  9
$UCSORGTOP
 10
0.0
 20
0.0
 30
0.0
  9
$UCSORGBOTTOM
 10
0.0
 20
0.0
 30
0.0
  9
$UCSORGLEFT
 10
0.0
 20
0.0
 30
0.0
  9
$UCSORGRIGHT
 10
0.0
 20
0.0
 30
0.0
  9
$UCSORGFRONT
 10
0.0
 20
0.0
 30
0.0
  9
$UCSORGBACK
 10
0.0
 20
0.0
 30
0.0
  9
$PUCSBASE
  2

  9
$PUCSNAME
  2

  9
$PUCSORG
 10
0.0
 20
0.0
 30
0.0
  9
$PUCSXDIR
 10
1.0
 20
0.0
 30
0.0
  9
$PUCSYDIR
 10
0.0
 20
1.0
 30
0.0
  9
$PUCSORTHOREF
  2

  9
$PUCSORTHOVIEW
 70
     0
  9
$PUCSORGTOP
 10
0.0
 20
0.0
 30
0.0
  9
$PUCSORGBOTTOM
 10
0.0
 20
0.0
 30
0.0
  9
$PUCSORGLEFT
 10
0.0
 20
0.0
 30
0.0
  9
$PUCSORGRIGHT
 10
0.0
 20
0.0
 30
0.0
  9
$PUCSORGFRONT
 10
0.0
 20
0.0
 30
0.0
  9
$PUCSORGBACK
 10
0.0
 20
0.0
 30
0.0
  9
$USERI1
 70
     0
  9
$USERI2
 70
     0
  9
$USERI3
 70
     0
  9
$USERI4
 70
     0
  9
$USERI5
 70
     0
  9
$USERR1
 40
0.0
  9
$USERR2
 40
0.0
  9
$USERR3
 40
0.0
  9
$USERR4
 40
0.0
  9
$USERR5
 40
0.0
  9
$WORLDVIEW
 70
     1
  9
$SHADEDGE
 70
     3
  9
$SHADEDIF
 70
    70
  9
$TILEMODE
 70
     1
  9
$MAXACTVP
 70
    64
  9
$PINSBASE
 10
0.0
 20
0.0
 30
0.0
  9
$PLIMCHECK
 70
     0
  9
$PEXTMIN
 10
1.0000000000E+20
 20
1.0000000000E+20
 30
1.0000000000E+20
  9
$PEXTMAX
 10
-1.0000000000E+20
 20
-1.0000000000E+20
 30
-1.0000000000E+20
  9
$PLIMMIN
 10
0.0
 20
0.0
  9
$PLIMMAX
 10
420.0
 20
297.0
  9
$UNITMODE
 70
     0
  9
$VISRETAIN
 70
     1
  9
$PLINEGEN
 70
     0
  9
$PSLTSCALE
 70
     1
  9
$TREEDEPTH
 70
  3020
  9
$CMLSTYLE
  2
Standard
  9
$CMLJUST
 70
     0
  9
$CMLSCALE
 40
20.0
  9
$PROXYGRAPHICS
 70
     1
  9
$MEASUREMENT
 70
     1
  9
$CELWEIGHT
370
    -1
  9
$ENDCAPS
280
     0
  9
$JOINSTYLE
280
     0
  9
$LWDISPLAY
290
     1
  9
$INSUNITS
 70
     4
  9
$HYPERLINKBASE
  1

  9
$STYLESHEET
  1

  9
$XEDIT
290
     1
  9
$CEPSNTYPE
380
     0
  9
$PSTYLEMODE
290
     1
  9
$FINGERPRINTGUID
  2
{a57bd65a-1606-47f0-af3f-192a67963a6c}
  9
$VERSIONGUID
  2
{FAEB1C32-E019-11D5-929B-00C0DF256EC4}
  9
$EXTNAMES
290
     1
  9
$PSVPSCALE
 40
0.0
  9
$OLESTARTUP
290
     0
  0
ENDSEC
  0
SECTION
  2
CLASSES
  0
CLASS
  1
ACDBDICTIONARYWDFLT
  2
AcDbDictionaryWithDefault
  3
ObjectDBX Classes
 90
        0
280
     0
281
     0
  0
CLASS
  1
VISUALSTYLE
  2
AcDbVisualStyle
  3
ObjectDBX Classes
 90
     4095
280
     0
281
     0
  0
CLASS
  1
MATERIAL
  2
AcDbMaterial
  3
ObjectDBX Classes
 90
     1153
280
     0
281
     0
  0
CLASS
  1
SCALE
  2
AcDbScale
  3
ObjectDBX Classes
 90
     1153
280
     0
281
     0
  0
CLASS
  1
TABLESTYLE
  2
AcDbTableStyle
  3
ObjectDBX Classes
 90
     4095
280
     0
281
     0
  0
CLASS
  1
MLEADERSTYLE
  2
AcDbMLeaderStyle
  3
ACDB_MLEADERSTYLE_CLASS
 90
     4095
280
     0
281
     0
  0
CLASS
  1
SUN
  2
AcDbSun
  3
SCENEOE
 90
     1153
280
     0
281
     0
  0
CLASS
  1
ACDBPLACEHOLDER
  2
AcDbPlaceHolder
  3
ObjectDBX Classes
 90
        0
280
     0
281
     0
  0
CLASS
  1
LAYOUT
  2
AcDbLayout
  3
ObjectDBX Classes
 90
        0
280
     0
281
     0
  0
ENDSEC
  0
SECTION
  2
TABLES
  0
TABLE
  2
VPORT
  5
8
330
0
100
AcDbSymbolTable
 70
     1
  0
VPORT
  5
29
330
8
100
AcDbSymbolTableRecord
100
AcDbViewportTableRecord
  2
*Active
 70
     0
 10
0.0
 20
0.0
 11
1.0
 21
1.0
 12
139.7
 22
107.95
 13
0.0
 23
0.0
 14
10.0
 24
10.0
 15
10.0
 25
10.0
 16
0.0
 26
0.0
 36
1.0
 17
0.0
 27
0.0
 37
0.0
 40
215.9
 41
1.2941176471
 42
50.0
 43
0.0
 44
0.0
 50
0.0
 51
0.0
 71
     0
 72
  2000
 73
     1
 74
     3
 75
     0
 76
     0
 77
     0
 78
     0
281
     0
 65
     1
110
0.0
120
0.0
130
0.0
111
1.0
121
0.0
131
0.0
112
0.0
122
1.0
132
0.0
 79
     0
146
0.0
  0
ENDTAB
  0
TABLE
  2
LTYPE
  5
5
330
0
100
AcDbSymbolTable
 70
     6
  0
LTYPE
  5
14
330
5
100
AcDbSymbolTableRecord
100
AcDbLinetypeTableRecord
  2
ByBlock
 70
     0
  3

 72
    65
 73
     0
 40
0.0
  0
LTYPE
  5
15
330
5
100
AcDbSymbolTableRecord
100
AcDbLinetypeTableRecord
  2
ByLayer
 70
     0
  3

 72
    65
 73
     0
 40
0.0
  0
LTYPE
  5
16
330
5
100
AcDbSymbolTableRecord
100
AcDbLinetypeTableRecord
  2
Continuous
 70
     0
  3
Solid line
 72
    65
 73
     0
 40
0.0
  0
LTYPE
  5
6E
330
5
100
AcDbSymbolTableRecord
100
AcDbLinetypeTableRecord
  2
HIDDEN
 70
     0
  3
Hidden __ __ __ __ __ __ __ __ __ __ __ __ __ __
 72
    65
 73
     2
 40
1.905
 49
1.27
 74
     0
 49
-0.635
 74
     0
  0
LTYPE
  5
6F
330
5
100
AcDbSymbolTableRecord
100
AcDbLinetypeTableRecord
  2
PHANTOM
 70
     0
  3
Phantom ______  __  __  ______  __  __  ______
 72
    65
 73
     6
 40
12.7
 49
6.35
 74
     0
 49
-1.27
 74
     0
 49
1.27
 74
     0
 49
-1.27
 74
     0
 49
1.27
 74
     0
 49
-1.27
 74
     0
  0
LTYPE
  5
70
330
5
100
AcDbSymbolTableRecord
100
AcDbLinetypeTableRecord
  2
CENTER
 70
     0
  3
Center ____ _ ____ _ ____ _ ____ _ ____ _ ____
 72
    65
 73
     4
 40
10.16
 49
6.35
 74
     0
 49
-1.27
 74
     0
 49
1.27
 74
     0
 49
-1.27
 74
     0
  0
LTYPE
  5
71
330
5
100
AcDbSymbolTableRecord
100
AcDbLinetypeTableRecord
  2
CENTERX2
 70
     0
  3
Center (2x) ________  __  ________  __  _____
 72
    65
 73
     4
 40
20.32
 49
12.7
 74
     0
 49
-2.54
 74
     0
 49
2.54
 74
     0
 49
-2.54
 74
     0
  0
LTYPE
  5
72
330
5
100
AcDbSymbolTableRecord
100
AcDbLinetypeTableRecord
  2
DOT2
 70
     0
  3
Dot (.5x) ........................................
 72
    65
 73
     2
 40
0.635
 49
0.0
 74
     0
 49
-0.635
 74
     0
  0
ENDTAB
  0
TABLE
  2
LAYER
  5
2
330
0
100
AcDbSymbolTable
 70
     4
  0
LAYER
  5
10
330
2
100
AcDbSymbolTableRecord
100
AcDbLayerTableRecord
  2
0
 70
     0
 62
     7
  6
Continuous
370
    -3
390
F
  0
LAYER
  5
73
330
2
100
AcDbSymbolTableRecord
100
AcDbLayerTableRecord
  2
FORMAT
 70
     0
 62
     7
  6
Continuous
370
    -3
390
F
  0
LAYER
  5
74
330
2
100
AcDbSymbolTableRecord
100
AcDbLayerTableRecord
  2
OUT_LINE
 70
     0
 62
     7
  6
Continuous
370
    50
390
F
  0
LAYER
  5
75
330
2
100
AcDbSymbolTableRecord
100
AcDbLayerTableRecord
  2
WATERMARK
 70
     0
 62
   254
  6
Continuous
370
    -3
390
F
  0
ENDTAB
  0
TABLE
  2
STYLE
  5
3
330
0
100
AcDbSymbolTable
 70
     1
  0
STYLE
  5
11
330
3
100
AcDbSymbolTableRecord
100
AcDbTextStyleTableRecord
  2
Standard
 70
     0
 40
0.0
 41
1.0
 50
0.0
 71
     0
 42
3.5277777778
  3
txt
  4

  0
ENDTAB
  0
TABLE
  2
VIEW
  5
6
330
0
100
AcDbSymbolTable
 70
     0
  0
ENDTAB
  0
TABLE
  2
UCS
  5
7
330
0
100
AcDbSymbolTable
 70
     0
  0
ENDTAB
  0
TABLE
  2
APPID
  5
9
330
0
100
AcDbSymbolTable
 70
     1
  0
APPID
  5
12
330
9
100
AcDbSymbolTableRecord
100
AcDbRegAppTableRecord
  2
ACAD
 70
     0
  0
ENDTAB
  0
TABLE
  2
DIMSTYLE
  5
A
330
0
100
AcDbSymbolTable
 70
     1
100
AcDbDimStyleTable
  0
DIMSTYLE
105
27
330
A
100
AcDbSymbolTableRecord
100
AcDbDimStyleTableRecord
  2
ISO-25
 70
     0
 41
2.5
 42
0.625
 43
3.75
 44
1.25
 73
     0
 74
     0
 77
     1
 78
     8
140
2.5
141
2.5
143
0.0393700787
147
0.625
171
     3
172
     1
178
     0
271
     2
272
     2
274
     3
278
    44
283
     0
284
     8
340
11
  0
ENDTAB
  0
TABLE
  2
BLOCK_RECORD
  5
1
330
0
100
AcDbSymbolTable
 70
     7
  0
BLOCK_RECORD
  5
1F
330
1
100
AcDbSymbolTableRecord
100
AcDbBlockTableRecord
  2
*Model_Space
340
22
  0
BLOCK_RECORD
  5
1B
330
1
100
AcDbSymbolTableRecord
100
AcDbBlockTableRecord
  2
*Paper_Space
340
1E
  0
BLOCK_RECORD
  5
23
330
1
100
AcDbSymbolTableRecord
100
AcDbBlockTableRecord
  2
*Paper_Space0
340
26
  0
BLOCK_RECORD
  5
76
330
1
100
AcDbSymbolTableRecord
100
AcDbBlockTableRecord
  2
Block6
340
0
  0
BLOCK_RECORD
  5
7B
330
1
100
AcDbSymbolTableRecord
100
AcDbBlockTableRecord
  2
Block4
340
0
  0
BLOCK_RECORD
  5
7F
330
1
100
AcDbSymbolTableRecord
100
AcDbBlockTableRecord
  2
Block5
340
0
  0
BLOCK_RECORD
  5
8D
330
1
100
AcDbSymbolTableRecord
100
AcDbBlockTableRecord
  2
Block2
340
0
  0
BLOCK_RECORD
  5
98
330
1
100
AcDbSymbolTableRecord
100
AcDbBlockTableRecord
  2
Block3
340
0
  0
BLOCK_RECORD
  5
A5
330
1
100
AcDbSymbolTableRecord
100
AcDbBlockTableRecord
  2
Block7
340
0
  0
ENDTAB
  0
ENDSEC
  0
SECTION
  2
BLOCKS
  0
BLOCK
  5
20
330
1F
100
AcDbEntity
  8
0
100
AcDbBlockBegin
  2
*Model_Space
 70
     0
 10
0.0
 20
0.0
 30
0.0
  3
*Model_Space
  1

  0
ENDBLK
  5
21
330
1F
100
AcDbEntity
  8
0
100
AcDbBlockEnd
  0
BLOCK
  5
1C
330
1B
100
AcDbEntity
 67
     1
  8
0
100
AcDbBlockBegin
  2
*Paper_Space
 70
     0
 10
0.0
 20
0.0
 30
0.0
  3
*Paper_Space
  1

  0
ENDBLK
  5
1D
330
1B
100
AcDbEntity
 67
     1
  8
0
100
AcDbBlockEnd
  0
BLOCK
  5
24
330
23
100
AcDbEntity
  8
0
100
AcDbBlockBegin
  2
*Paper_Space0
 70
     0
 10
0.0
 20
0.0
 30
0.0
  3
*Paper_Space0
  1

  0
ENDBLK
  5
25
330
23
100
AcDbEntity
  8
0
100
AcDbBlockEnd
  0
BLOCK
  5
77
330
76
100
AcDbEntity
  8
0
100
AcDbBlockBegin
  2
Block6
 70
     0
 10
0.0
 20
0.0
 30
0.0
  3
Block6
  1

  0
LINE
  5
79
330
76
100
AcDbEntity
  8
FORMAT
100
AcDbLine
 10
253.5616893058
 20
55.3714964458
 30
0.0
 11
250.6928867464
 21
53.8486167051
 31
0.0
  0
LINE
  5
7A
330
76
100
AcDbEntity
  8
FORMAT
100
AcDbLine
 10
250.6928867464
 20
53.8486167051
 30
0.0
 11
253.5616893058
 21
53.8486167051
 31
0.0
  0
ENDBLK
  5
78
330
76
100
AcDbEntity
  8
0
100
AcDbBlockEnd
  0
BLOCK
  5
7C
330
7B
100
AcDbEntity
  8
0
100
AcDbBlockBegin
  2
Block4
 70
     0
 10
0.0
 20
0.0
 30
0.0
  3
Block4
  1

  0
LINE
  5
7E
330
7B
100
AcDbEntity
  8
FORMAT
100
AcDbLine
 10
250.0093082872
 20
64.7263291389
 30
0.0
 11
290.0093082872
 21
64.7263291389
 31
0.0
  0
ENDBLK
  5
7D
330
7B
100
AcDbEntity
  8
0
100
AcDbBlockEnd
  0
BLOCK
  5
80
330
7F
100
AcDbEntity
  8
0
100
AcDbBlockBegin
  2
Block5
 70
     0
 10
0.0
 20
0.0
 30
0.0
  3
Block5
  1

  0
LINE
  5
82
330
7F
100
AcDbEntity
  8
FORMAT
100
AcDbLine
 10
251.0883122991
 20
64.4632252413
 30
0.0
 11
250.3611798328
 21
64.9733337839
 31
0.0
  0
LINE
  5
83
330
7F
100
AcDbEntity
  8
FORMAT
100
AcDbLine
 10
250.3611798328
 20
64.9733337839
 30
0.0
 11
251.0883122991
 21
65.4834423266
 31
0.0
  0
LINE
  5
84
330
7F
100
AcDbEntity
  8
FORMAT
100
AcDbLine
 10
250.3611798328
 20
65.6106440044
 30
0.0
 11
250.3611798328
 21
64.3360235634
 31
0.0
  0
LINE
  5
85
330
7F
100
AcDbEntity
  8
FORMAT
100
AcDbLine
 10
251.0883122991
 20
65.4834423266
 30
0.0
 11
251.0883122991
 21
64.4632252413
 31
0.0
  0
LINE
  5
86
330
7F
100
AcDbEntity
  8
FORMAT
  6
Continuous
 62
     7
370
    18
100
AcDbLine
 10
254.0738326611
 20
65.4834423266
 30
0.0
 11
254.0738326611
 21
64.4632252413
 31
0.0
  0
LINE
  5
87
330
7F
100
AcDbEntity
  8
FORMAT
100
AcDbLine
 10
251.0883122991
 20
64.9733337839
 30
0.0
 11
254.0738326611
 21
64.9733337839
 31
0.0
  0
LINE
  5
88
330
7F
100
AcDbEntity
  8
FORMAT
100
AcDbLine
 10
254.0738326611
 20
64.9733337839
 30
0.0
 11
254.0738326611
 21
64.4632252413
 31
0.0
  0
LINE
  5
89
330
7F
100
AcDbEntity
  8
FORMAT
  6
Continuous
 62
     7
370
    18
100
AcDbLine
 10
254.0738326611
 20
64.4632252413
 30
0.0
 11
254.8009651274
 21
64.9733337839
 31
0.0
  0
LINE
  5
8A
330
7F
100
AcDbEntity
  8
FORMAT
  6
Continuous
 62
     7
370
    18
100
AcDbLine
 10
254.8009651274
 20
64.9733337839
 30
0.0
 11
254.0738326611
 21
65.4834423266
 31
0.0
  0
LINE
  5
8B
330
7F
100
AcDbEntity
  8
FORMAT
100
AcDbLine
 10
254.0738326611
 20
65.4834423266
 30
0.0
 11
254.0738326611
 21
64.9733337839
 31
0.0
  0
LINE
  5
8C
330
7F
100
AcDbEntity
  8
FORMAT
100
AcDbLine
 10
254.8009651274
 20
65.6106440044
 30
0.0
 11
254.8009651274
 21
64.3360235634
 31
0.0
  0
ENDBLK
  5
81
330
7F
100
AcDbEntity
  8
0
100
AcDbBlockEnd
  0
BLOCK
  5
8E
330
8D
100
AcDbEntity
  8
0
100
AcDbBlockBegin
  2
Block2
 70
     0
 10
0.0
 20
0.0
 30
0.0
  3
Block2
  1

  0
CIRCLE
  5
90
330
8D
100
AcDbEntity
  8
FORMAT
100
AcDbCircle
 10
48.741006851
 20
68.2700462855
 30
0.0
 40
7.000000000000013
  0
CIRCLE
  5
91
330
8D
100
AcDbEntity
  8
FORMAT
100
AcDbCircle
 10
48.741006851
 20
68.2700462855
 30
0.0
 40
3.32888862482043
  0
LINE
  5
92
330
8D
100
AcDbEntity
  8
FORMAT
100
AcDbLine
 10
60.4734604481
 20
71.6747664277
 30
0.0
 11
76.4734604481
 21
75.1747664277
 31
0.0
  0
LINE
  5
93
330
8D
100
AcDbEntity
  8
FORMAT
100
AcDbLine
 10
76.4734604481
 20
75.1747664277
 30
0.0
 11
76.4734604481
 21
61.3653261433
 31
0.0
  0
LINE
  5
94
330
8D
100
AcDbEntity
  8
FORMAT
100
AcDbLine
 10
76.4734604481
 20
61.3653261433
 30
0.0
 11
60.4734604481
 21
64.8653261433
 31
0.0
  0
LINE
  5
95
330
8D
100
AcDbEntity
  8
FORMAT
100
AcDbLine
 10
60.4734604481
 20
64.8653261433
 30
0.0
 11
60.4734604481
 21
71.6747664277
 31
0.0
  0
LINE
  5
96
330
8D
100
AcDbEntity
  8
FORMAT
  6
CENTERX2
100
AcDbLine
 10
76.4734604481
 20
68.2700462855
 30
0.0
 11
39.8388877958
 21
68.2700462855
 31
0.0
  0
LINE
  5
97
330
8D
100
AcDbEntity
  8
FORMAT
100
AcDbLine
 10
48.741006851
 20
76.8424572275
 30
0.0
 11
48.741006851
 21
59.6976353435
 31
0.0
  0
ENDBLK
  5
8F
330
8D
100
AcDbEntity
  8
0
100
AcDbBlockEnd
  0
BLOCK
  5
99
330
98
100
AcDbEntity
  8
0
100
AcDbBlockBegin
  2
Block3
 70
     0
 10
0.0
 20
0.0
 30
0.0
  3
Block3
  1

  0
ARC
  5
9B
330
98
100
AcDbEntity
  8
FORMAT
100
AcDbCircle
 10
253.5616893058
 20
61.9516976285
 30
0.0
 40
0.5251511718353873
100
AcDbArc
 50
349.3356822367
 51
90.0
  0
LINE
  5
9C
330
98
100
AcDbEntity
  8
FORMAT
100
AcDbLine
 10
250.6928867464
 20
62.4768488003
 30
0.0
 11
250.6928867464
 21
61.2321831396
 31
0.0
  0
LINE
  5
9D
330
98
100
AcDbEntity
  8
FORMAT
100
AcDbLine
 10
250.6928867464
 20
61.2321831396
 30
0.0
 11
251.7250485138
 21
61.2321831396
 31
0.0
  0
LINE
  5
9E
330
98
100
AcDbEntity
  8
FORMAT
100
AcDbLine
 10
251.7250485138
 20
61.2321831396
 30
0.0
 11
251.7250485138
 21
61.85451597
 31
0.0
  0
LINE
  5
9F
330
98
100
AcDbEntity
  8
FORMAT
100
AcDbLine
 10
251.7250485138
 20
61.85451597
 30
0.0
 11
251.2089676301
 21
62.4768488003
 31
0.0
  0
LINE
  5
A0
330
98
100
AcDbEntity
  8
FORMAT
100
AcDbLine
 10
251.2089676301
 20
62.4768488003
 30
0.0
 11
250.6928867464
 21
62.4768488003
 31
0.0
  0
LINE
  5
A1
330
98
100
AcDbEntity
  8
0
  6
Continuous
 62
     7
370
    18
100
AcDbLine
 10
253.0456084221
 20
61.2321831396
 30
0.0
 11
254.0777701895
 21
61.2321831396
 31
0.0
  0
LINE
  5
A2
330
98
100
AcDbEntity
  8
0
  6
Continuous
 62
     7
370
    18
100
AcDbLine
 10
254.0777701895
 20
61.2321831396
 30
0.0
 11
254.0777701895
 21
61.85451597
 31
0.0
  0
LINE
  5
A3
330
98
100
AcDbEntity
  8
0
  6
Continuous
 62
     7
370
    18
100
AcDbLine
 10
253.0456084221
 20
62.4768488003
 30
0.0
 11
253.0456084221
 21
61.2321831396
 31
0.0
  0
LINE
  5
A4
330
98
100
AcDbEntity
  8
0
  6
Continuous
 62
     7
370
    18
100
AcDbLine
 10
253.5616893058
 20
62.4768488003
 30
0.0
 11
253.0456084221
 21
62.4768488003
 31
0.0
  0
ENDBLK
  5
9A
330
98
100
AcDbEntity
  8
0
100
AcDbBlockEnd
  0
BLOCK
  5
A6
330
A5
100
AcDbEntity
  8
0
100
AcDbBlockBegin
  2
Block7
 70
     0
 10
0.0
 20
0.0
 30
0.0
  3
Block7
  1

  0
LINE
  5
A8
330
A5
100
AcDbEntity
  8
FORMAT
100
AcDbLine
 10
221.8284763776
 20
80.2705155621
 30
0.0
 11
222.3963943455
 21
79.286852787
 31
0.0
  0
LINE
  5
A9
330
A5
100
AcDbEntity
  8
FORMAT
100
AcDbLine
 10
222.3963943455
 20
79.286852787
 30
0.0
 11
222.9643123135
 21
80.2705155621
 31
0.0
  0
LINE
  5
AA
330
A5
100
AcDbEntity
  8
FORMAT
100
AcDbLine
 10
221.8284763776
 20
80.2705155621
 30
0.0
 11
222.9643123135
 21
80.2705155621
 31
0.0
  0
LINE
  5
AB
330
A5
100
AcDbEntity
  8
FORMAT
100
AcDbLine
 10
222.9643123135
 20
80.2705155621
 30
0.0
 11
223.3725273771
 21
80.9775647926
 31
0.0
  0
LINE
  5
AC
330
A5
100
AcDbEntity
  8
FORMAT
100
AcDbLine
 10
223.3725273771
 20
80.9775647926
 30
0.0
 11
224.1023154201
 21
80.9775647926
 31
0.0
  0
ENDBLK
  5
A7
330
A5
100
AcDbEntity
  8
0
100
AcDbBlockEnd
  0
ENDSEC
  0
SECTION
  2
ENTITIES
  0
LINE
  5
AD
330
1F
100
AcDbEntity
  8
0
  6
Continuous
 62
     7
370
    25
100
AcDbLine
 10
226.6929238104
 20
90.0663344834
 30
0.0
 11
228.2979287999
 21
91.2912067122
 31
0.0
  0
LINE
  5
AE
330
1F
100
AcDbEntity
  8
0
  6
Continuous
 62
     7
370
    25
100
AcDbLine
 10
228.2979287999
 20
103.1414622545
 30
0.0
 11
226.6929238104
 21
104.3663344834
 31
0.0
  0
ARC
  5
AF
330
1F
100
AcDbEntity
  8
0
  6
Continuous
 62
     7
370
    25
100
AcDbCircle
 10
227.8429238104
 20
91.8874201467
 30
0.0
 40
0.7500000000000014
100
AcDbArc
 50
307.3493490446
 51
0.0
  0
ARC
  5
B0
330
1F
100
AcDbEntity
  8
0
  6
Continuous
 62
     7
370
    25
100
AcDbCircle
 10
227.8429238104
 20
102.54524882
 30
0.0
 40
0.7500000000000014
100
AcDbArc
 50
0.0
 51
52.6506509554
  0
ARC
  5
B1
330
1F
100
AcDbEntity
  8
0
  6
Continuous
 62
     7
370
    25
100
AcDbCircle
 10
44.1929238104
 20
101.2163344834
 30
0.0
 40
0.5000000000000027
100
AcDbArc
 50
90.0
 51
156.742337232
  0
ARC
  5
B2
330
1F
100
AcDbEntity
  8
0
  6
Continuous
 62
     7
370
    25
100
AcDbCircle
 10
44.1929238104
 20
93.2163344834
 30
0.0
 40
0.5000000000000027
100
AcDbArc
 50
203.257662768
 51
270.0
  0
ARC
  5
B3
330
1F
100
AcDbEntity
  8
0
  6
Continuous
 62
     7
370
    25
100
AcDbCircle
 10
53.4997438903
 20
97.2163344834
 30
0.0
 40
10.63
100
AcDbArc
 50
186.6254221893
 51
203.257662768
  0
ARC
  5
B4
330
1F
100
AcDbEntity
  8
0
  6
Continuous
 62
     7
370
    25
100
AcDbCircle
 10
53.4997438903
 20
97.2163344834
 30
0.0
 40
10.63
100
AcDbArc
 50
156.742337232
 51
173.3911384651
  0
LINE
  5
B5
330
1F
100
AcDbEntity
  8
0
  6
Continuous
 62
     7
370
    25
100
AcDbLine
 10
42.9361216656
 20
98.3430323871
 30
0.0
 11
43.2009928425
 21
98.3430323871
 31
0.0
  0
LINE
  5
B6
330
1F
100
AcDbEntity
  8
0
  6
Continuous
 62
     7
370
    25
100
AcDbLine
 10
43.0364799492
 20
96.0896365797
 30
0.0
 11
42.9361216656
 21
96.0896365797
 31
0.0
  0
ARC
  5
B7
330
1F
100
AcDbEntity
  8
0
  6
Continuous
 62
     7
370
    25
100
AcDbCircle
 10
228.5929238104
 20
93.2163344834
 30
0.0
 40
0.5000000000000148
100
AcDbArc
 50
270.0
 51
336.742337232
  0
ARC
  5
B8
330
1F
100
AcDbEntity
  8
0
  6
Continuous
 62
     7
370
    25
100
AcDbCircle
 10
228.5929238104
 20
101.2163344834
 30
0.0
 40
0.5000000000000092
100
AcDbArc
 50
23.257662768
 51
90.0
  0
ARC
  5
B9
330
1F
100
AcDbEntity
  8
0
  6
Continuous
 62
     7
370
    25
100
AcDbCircle
 10
219.2861037305
 20
97.2163344834
 30
0.0
 40
10.63000000000003
100
AcDbArc
 50
6.615593631
 51
23.257662768
  0
ARC
  5
BA
330
1F
100
AcDbEntity
  8
0
  6
Continuous
 62
     7
370
    25
100
AcDbCircle
 10
219.2861037305
 20
97.2163344834
 30
0.0
 40
10.63000000000003
100
AcDbArc
 50
336.742337232
 51
353.4057139704
  0
LINE
  5
BB
330
1F
100
AcDbEntity
  8
0
  6
Continuous
 62
     7
370
    25
100
AcDbLine
 10
229.5848547783
 20
98.3430323871
 30
0.0
 11
229.8491994732
 21
98.3430323871
 31
0.0
  0
LINE
  5
BC
330
1F
100
AcDbEntity
  8
0
  6
Continuous
 62
     7
370
    25
100
AcDbLine
 10
229.8491994732
 20
96.0896365797
 30
0.0
 11
229.7493676716
 21
96.0896365797
 31
0.0
  0
LINE
  5
BD
330
1F
100
AcDbEntity
  8
0
  6
Continuous
 62
     7
370
    25
100
AcDbLine
 10
46.0929238104
 20
104.3663344834
 30
0.0
 11
44.4879188209
 21
103.1414622545
 31
0.0
  0
LINE
  5
BE
330
1F
100
AcDbEntity
  8
0
  6
Continuous
 62
     7
370
    25
100
AcDbLine
 10
44.4879188209
 20
91.2912067122
 30
0.0
 11
46.0929238104
 21
90.0663344834
 31
0.0
  0
ARC
  5
BF
330
1F
100
AcDbEntity
  8
0
  6
Continuous
 62
     7
370
    25
100
AcDbCircle
 10
44.9429238104
 20
102.54524882
 30
0.0
 40
0.75
100
AcDbArc
 50
127.3493490446
 51
180.0
  0
ARC
  5
C0
330
1F
100
AcDbEntity
  8
0
  6
Continuous
 62
     7
370
    25
100
AcDbCircle
 10
44.9429238104
 20
91.8874201467
 30
0.0
 40
0.7500000000000058
100
AcDbArc
 50
180.0
 51
232.6506509554
  0
LINE
  5
C1
330
1F
100
AcDbEntity
  8
0
  6
Continuous
 62
     7
370
    25
100
AcDbLine
 10
50.9548798532
 20
106.1919925276
 30
0.0
 11
46.5841976072
 21
106.1157019852
 31
0.0
  0
LINE
  5
C2
330
1F
100
AcDbEntity
  8
0
  6
Continuous
 62
     7
370
    25
100
AcDbLine
 10
46.5841976072
 20
88.3169669815
 30
0.0
 11
51.8883000671
 21
88.2243835287
 31
0.0
  0
ARC
  5
C3
330
1F
100
AcDbEntity
  8
0
  6
Continuous
 62
     7
370
    25
100
AcDbCircle
 10
46.5929238104
 20
105.6157781376
 30
0.0
 40
0.5
100
AcDbArc
 50
91.0
 51
180.0
  0
ARC
  5
C4
330
1F
100
AcDbEntity
  8
0
  6
Continuous
 62
     7
370
    25
100
AcDbCircle
 10
46.5929238104
 20
88.8168908291
 30
0.0
 40
0.5000000000000048
100
AcDbArc
 50
180.0
 51
269.0
  0
SPLINE
  5
C5
330
1F
100
AcDbEntity
  8
0
  6
Continuous
 62
     7
370
    25
100
AcDbSpline
210
0.0
220
0.0
230
1.0
 70
     8
 71
     3
 72
    13
 73
     9
 74
     0
 42
0.00000001
 43
0.00000001
 40
0.0
 40
0.0
 40
0.0
 40
0.0
 40
0.1762578682875442
 40
0.423907700379945
 40
0.634795564511241
 40
0.8168352853099415
 40
0.9739413297754815
 40
1.0
 40
1.0
 40
1.0
 40
1.0
 10
53.15770271286097
 20
87.86442467160406
 30
0.0
 10
53.30148625963885
 20
87.77730867638724
 30
0.0
 10
53.64729182996188
 20
87.56779098757447
 30
0.0
 10
54.06712066843818
 20
87.28592230969419
 30
0.0
 10
54.40702074929159
 20
87.03046327972052
 30
0.0
 10
54.58577748424734
 20
86.87665490119488
 30
0.0
 10
54.65357678854087
 20
86.79603321090539
 30
0.0
 10
54.64132150504636
 20
86.81350599014226
 30
0.0
 10
54.63957795748789
 20
86.81599182587111
 30
0.0
  0
ARC
  5
C6
330
1F
100
AcDbEntity
  8
0
  6
Continuous
 62
     7
370
    25
100
AcDbCircle
 10
51.8429238104
 20
85.6247795213
 30
0.0
 40
2.600000000000009
100
AcDbArc
 50
59.4420525213
 51
89.0
  0
SPLINE
  5
C7
330
1F
100
AcDbEntity
  8
0
  6
Continuous
 62
     7
370
    25
100
AcDbSpline
210
0.0
220
0.0
230
1.0
 70
     8
 71
     3
 72
    14
 73
    10
 74
     0
 42
0.00000001
 43
0.00000001
 40
0.0
 40
0.0
 40
0.0
 40
0.0
 40
0.0023197360793598
 40
0.1180227122126412
 40
0.252427666096456
 40
0.4095096168261814
 40
0.5902016145938437
 40
0.797564238065958
 40
1.0
 40
1.0
 40
1.0
 40
1.0
 10
54.68078470990279
 20
107.9657348338602
 30
0.0
 10
54.68102800595121
 20
107.9660675758428
 30
0.0
 10
54.69340633629673
 20
107.9829967048064
 30
0.0
 10
54.64213184667574
 20
107.9212431683288
 30
0.0
 10
54.50243295768871
 20
107.8032456887118
 30
0.0
 10
54.2252037482077
 20
107.5943278829456
 30
0.0
 10
53.80326503711596
 20
107.3173893336088
 30
0.0
 10
53.24757876719691
 20
106.9863690139598
 30
0.0
 10
52.78965515182961
 20
106.7362181461607
 30
0.0
 10
52.56344607125309
 20
106.6126464501151
 30
0.0
  0
ARC
  5
C8
330
1F
100
AcDbEntity
  8
0
  6
Continuous
 62
     7
370
    25
100
AcDbCircle
 10
50.8929238104
 20
109.7414518454
 30
0.0
 40
3.549999999999998
100
AcDbArc
 50
271.0
 51
298.1920130769
  0
ARC
  5
C9
330
1F
100
AcDbEntity
  8
0
  6
Continuous
 62
     7
370
    25
100
AcDbCircle
 10
60.4429238104
 20
85.7444448686
 30
0.0
 40
0.5000000000000063
100
AcDbArc
 50
269.0
 51
360.0
  0
ARC
  5
CA
330
1F
100
AcDbEntity
  8
0
  6
Continuous
 62
     7
370
    25
100
AcDbCircle
 10
60.4429238104
 20
108.6882240981
 30
0.0
 40
0.5000000000000063
100
AcDbArc
 50
0.0
 51
91.0
  0
LINE
  5
CB
330
1F
100
AcDbEntity
  8
0
  6
Continuous
 62
     7
370
    25
100
AcDbLine
 10
60.4341976072
 20
109.1881479457
 30
0.0
 11
56.4080189975
 21
109.1178707366
 31
0.0
  0
LINE
  5
CC
330
1F
100
AcDbEntity
  8
0
  6
Continuous
 62
     7
370
    25
100
AcDbLine
 10
56.4080189975
 20
85.3147982301
 30
0.0
 11
60.4341976072
 21
85.2445210211
 31
0.0
  0
ARC
  5
CD
330
1F
100
AcDbEntity
  8
0
  6
Continuous
 62
     7
370
    25
100
AcDbCircle
 10
56.4429238104
 20
87.3144936204
 30
0.0
 40
2.000000000000001
100
AcDbArc
 50
191.4299970243
 51
269.0
  0
SPLINE
  5
CE
330
1F
100
AcDbEntity
  8
0
  6
Continuous
 62
     7
370
    25
100
AcDbSpline
210
0.0
220
0.0
230
1.0
 70
     8
 71
     3
 72
     9
 73
     5
 74
     0
 42
0.00000001
 43
0.00000001
 40
0.0
 40
0.0
 40
0.0
 40
0.0
 40
0.1299781951860142
 40
1.0
 40
1.0
 40
1.0
 40
1.0
 10
46.09292381038514
 20
101.9404244402304
 30
0.0
 10
46.09044446966733
 20
101.9314476390499
 30
0.0
 10
46.0713694185462
 20
101.8623837382347
 30
0.0
 10
46.04188772538441
 20
101.7889742174942
 30
0.0
 10
46.01623800949083
 20
101.7251063337689
 30
0.0
  0
LINE
  5
CF
330
1F
100
AcDbEntity
  8
0
  6
Continuous
 62
     7
370
    25
100
AcDbLine
 10
46.0139443173
 20
92.7086495787
 30
0.0
 11
46.0929238104
 21
92.4458428678
 31
0.0
  0
ARC
  5
D0
330
1F
100
AcDbEntity
  8
0
  6
Continuous
 62
     7
370
    25
100
AcDbCircle
 10
56.4429238104
 20
107.1181753463
 30
0.0
 40
2.000000000000012
100
AcDbArc
 50
91.0
 51
154.1922659859
  0
LINE
  5
D1
330
1F
100
AcDbEntity
  8
0
  6
Continuous
 62
     7
370
    25
100
AcDbLine
 10
221.8309677675
 20
88.486097728
 30
0.0
 11
226.2016500136
 21
88.5623882704
 31
0.0
  0
LINE
  5
D2
330
1F
100
AcDbEntity
  8
0
  6
Continuous
 62
     7
370
    25
100
AcDbLine
 10
226.2016500136
 20
106.361123274
 30
0.0
 11
220.8975475536
 21
106.4537067269
 31
0.0
  0
ARC
  5
D3
330
1F
100
AcDbEntity
  8
0
  6
Continuous
 62
     7
370
    25
100
AcDbCircle
 10
226.1929238104
 20
89.0623121179
 30
0.0
 40
0.5000000000000053
100
AcDbArc
 50
271.0
 51
0.0
  0
ARC
  5
D4
330
1F
100
AcDbEntity
  8
0
  6
Continuous
 62
     7
370
    25
100
AcDbCircle
 10
226.1929238104
 20
105.8611994265
 30
0.0
 40
0.5000000000000053
100
AcDbArc
 50
0.0
 51
89.0
  0
SPLINE
  5
D5
330
1F
100
AcDbEntity
  8
0
  6
Continuous
 62
     7
370
    25
100
AcDbSpline
210
0.0
220
0.0
230
1.0
 70
     8
 71
     3
 72
    13
 73
     9
 74
     0
 42
0.00000001
 43
0.00000001
 40
0.0
 40
0.0
 40
0.0
 40
0.0
 40
0.1762578682875432
 40
0.423907700379943
 40
0.634795564511243
 40
0.8168352853099512
 40
0.9739413297754513
 40
1.0
 40
1.0
 40
1.0
 40
1.0
 10
219.6281449079093
 20
106.8136655839659
 30
0.0
 10
219.4843613611314
 20
106.9007815791827
 30
0.0
 10
219.1385557908084
 20
107.1102992679955
 30
0.0
 10
218.7187269523321
 20
107.3921679458758
 30
0.0
 10
218.3788268714787
 20
107.6476269758494
 30
0.0
 10
218.200070136523
 20
107.8014353543751
 30
0.0
 10
218.1322708322294
 20
107.8820570446645
 30
0.0
 10
218.1445261157239
 20
107.8645842654277
 30
0.0
 10
218.1462696632824
 20
107.8620984296988
 30
0.0
  0
ARC
  5
D6
330
1F
100
AcDbEntity
  8
0
  6
Continuous
 62
     7
370
    25
100
AcDbCircle
 10
220.9429238104
 20
109.0533107343
 30
0.0
 40
2.600000000000008
100
AcDbArc
 50
239.4420525213
 51
269.0
  0
SPLINE
  5
D7
330
1F
100
AcDbEntity
  8
0
  6
Continuous
 62
     7
370
    25
100
AcDbSpline
210
0.0
220
0.0
230
1.0
 70
     8
 71
     3
 72
    14
 73
    10
 74
     0
 42
0.00000001
 43
0.00000001
 40
0.0
 40
0.0
 40
0.0
 40
0.0
 40
0.0023197360793542
 40
0.1180227122126396
 40
0.2524276660964538
 40
0.409509616826192
 40
0.5902016145938581
 40
0.7975642380659717
 40
1.0
 40
1.0
 40
1.0
 40
1.0
 10
218.1050629108675
 20
86.71235542170974
 30
0.0
 10
218.1048196148191
 20
86.71202267972718
 30
0.0
 10
218.0924412844737
 20
86.69509355076349
 30
0.0
 10
218.1437157740945
 20
86.75684708724118
 30
0.0
 10
218.2834146630817
 20
86.87484456685813
 30
0.0
 10
218.5606438725626
 20
87.08376237262435
 30
0.0
 10
218.9825825836544
 20
87.36070092196118
 30
0.0
 10
219.5382688535734
 20
87.69172124161011
 30
0.0
 10
219.9961924689407
 20
87.94187210940925
 30
0.0
 10
220.2224015495172
 20
88.06544380545482
 30
0.0
  0
ARC
  5
D8
330
1F
100
AcDbEntity
  8
0
  6
Continuous
 62
     7
370
    25
100
AcDbCircle
 10
221.8929238104
 20
84.9366384102
 30
0.0
 40
3.550000000000001
100
AcDbArc
 50
91.0
 51
118.1920130769
  0
ARC
  5
D9
330
1F
100
AcDbEntity
  8
0
  6
Continuous
 62
     7
370
    25
100
AcDbCircle
 10
212.3429238104
 20
108.9336453869
 30
0.0
 40
0.5000000000000058
100
AcDbArc
 50
89.0
 51
180.0
  0
ARC
  5
DA
330
1F
100
AcDbEntity
  8
0
  6
Continuous
 62
     7
370
    25
100
AcDbCircle
 10
212.3429238104
 20
85.9898661575
 30
0.0
 40
0.5000000000000058
100
AcDbArc
 50
180.0
 51
271.0
  0
LINE
  5
DB
330
1F
100
AcDbEntity
  8
0
  6
Continuous
 62
     7
370
    25
100
AcDbLine
 10
216.3778286233
 20
109.3632920255
 30
0.0
 11
212.3516500136
 21
109.4335692345
 31
0.0
  0
LINE
  5
DC
330
1F
100
AcDbEntity
  8
0
  6
Continuous
 62
     7
370
    25
100
AcDbLine
 10
212.3516500136
 20
85.4899423099
 30
0.0
 11
216.3778286233
 21
85.5602195189
 31
0.0
  0
ARC
  5
DD
330
1F
100
AcDbEntity
  8
0
  6
Continuous
 62
     7
370
    25
100
AcDbCircle
 10
216.3429238104
 20
107.3635966352
 30
0.0
 40
1.999999999999997
100
AcDbArc
 50
11.4299970243
 51
89.0
  0
SPLINE
  5
DE
330
1F
100
AcDbEntity
  8
0
  6
Continuous
 62
     7
370
    25
100
AcDbSpline
210
0.0
220
0.0
230
1.0
 70
     8
 71
     3
 72
     9
 73
     5
 74
     0
 42
0.00000001
 43
0.00000001
 40
0.0
 40
0.0
 40
0.0
 40
0.0
 40
0.1018391340216781
 40
1.0
 40
1.0
 40
1.0
 40
1.0
 10
226.8458222581969
 20
101.7360109848344
 30
0.0
 10
226.8393947972715
 20
101.7530064448173
 30
0.0
 10
226.7762809365032
 20
101.9198917993149
 30
0.0
 10
226.7323662569773
 20
102.084448762862
 30
0.0
 10
226.6929238103851
 20
102.2322473877442
 30
0.0
  0
ARC
  5
DF
330
1F
100
AcDbEntity
  8
0
  6
Continuous
 62
     7
370
    25
100
AcDbCircle
 10
216.3429238104
 20
87.5599149092
 30
0.0
 40
1.999999999999997
100
AcDbArc
 50
271.0
 51
334.1922659859
  0
LINE
  5
E0
330
1F
100
AcDbEntity
  8
0
  6
Continuous
 62
     7
370
    25
100
AcDbLine
 10
211.8429238104
 20
102.8663344834
 30
0.0
 11
205.1929238104
 21
102.8663344834
 31
0.0
  0
LINE
  5
E1
330
1F
100
AcDbEntity
  8
0
  6
Continuous
 62
     7
370
    25
100
AcDbLine
 10
205.1929238104
 20
91.5663344834
 30
0.0
 11
211.8429238104
 21
91.5663344834
 31
0.0
  0
LINE
  5
E2
330
1F
100
AcDbEntity
  8
0
  6
Continuous
 62
     7
370
    25
100
AcDbLine
 10
70.123594995
 20
106.7790224476
 30
0.0
 11
68.8429238104
 21
105.4663344834
 31
0.0
  0
LINE
  5
E3
330
1F
100
AcDbEntity
  8
0
  6
Continuous
 62
     7
370
    25
100
AcDbLine
 10
68.8429238104
 20
88.9663344834
 30
0.0
 11
70.123594995
 21
87.6536465192
 31
0.0
  0
LINE
  5
E4
330
1F
100
AcDbEntity
  8
0
  6
Continuous
 62
     7
370
    25
100
AcDbLine
 10
76.242385311
 20
87.8163344834
 30
0.0
 11
76.2929238104
 21
87.8163344834
 31
0.0
  0
LINE
  5
E5
330
1F
100
AcDbEntity
  8
0
  6
Continuous
 62
     7
370
    25
100
AcDbLine
 10
75.8893616786
 20
106.6163344834
 30
0.0
 11
75.6429238104
 21
106.6163344834
 31
0.0
  0
SPLINE
  5
E6
330
1F
100
AcDbEntity
  8
0
  6
Continuous
 62
     7
370
    25
100
AcDbSpline
210
0.0
220
0.0
230
1.0
 70
     8
 71
     3
 72
     9
 73
     5
 74
     0
 42
0.00000001
 43
0.00000001
 40
0.0
 40
0.0
 40
0.0
 40
0.0
 40
0.2293630598918122
 40
0.9999999999999999
 40
0.9999999999999999
 40
0.9999999999999999
 40
0.9999999999999999
 10
75.35704355156047
 20
106.3132742373587
 30
0.0
 10
75.33997073559888
 20
106.2837259207781
 30
0.0
 10
75.26553496564692
 20
106.1548982159395
 30
0.0
 10
75.19106319716894
 20
106.0260661861962
 30
0.0
 10
75.13367250138467
 20
105.9267834650069
 30
0.0
  0
SPLINE
  5
E7
330
1F
100
AcDbEntity
  8
0
  6
Continuous
 62
     7
370
    25
100
AcDbSpline
210
0.0
220
0.0
230
1.0
 70
     8
 71
     3
 72
     9
 73
     5
 74
     0
 42
0.00000001
 43
0.00000001
 40
0.0
 40
0.0
 40
0.0
 40
0.0
 40
0.4987433617574211
 40
0.9999999999999999
 40
0.9999999999999999
 40
0.9999999999999999
 40
0.9999999999999999
 10
75.7912682317973
 20
88.58886294873922
 30
0.0
 10
75.86473135347671
 20
88.46175739330255
 30
0.0
 10
76.01202779351466
 20
88.20690576983672
 30
0.0
 10
76.15927963747326
 20
87.95206964140473
 30
0.0
 10
76.23309060175102
 20
87.82433134036415
 30
0.0
  0
SPLINE
  5
E8
330
1F
100
AcDbEntity
  8
0
  6
Continuous
 62
     7
370
    25
100
AcDbSpline
210
0.0
220
0.0
230
1.0
 70
     8
 71
     3
 72
     9
 73
     5
 74
     0
 42
0.00000001
 43
0.00000001
 40
0.0
 40
0.0
 40
0.0
 40
0.0
 40
0.5011130755725055
 40
1.0
 40
1.0
 40
1.0
 40
1.0
 10
76.34051961996703
 20
105.8440692399428
 30
0.0
 10
76.26671580385779
 20
105.9717628500521
 30
0.0
 10
76.11943603865728
 20
106.2265828025418
 30
0.0
 10
75.97220878435138
 20
106.4813977754202
 30
0.0
 10
75.8987590322588
 20
106.6085216335376
 30
0.0
  0
SPLINE
  5
E9
330
1F
100
AcDbEntity
  8
0
  6
Continuous
 62
     7
370
    25
100
AcDbSpline
210
0.0
220
0.0
230
1.0
 70
     8
 71
     3
 72
     9
 73
     5
 74
     0
 42
0.00000001
 43
0.00000001
 40
0.0
 40
0.0
 40
0.0
 40
0.0
 40
0.1964851983542813
 40
1.0
 40
1.0
 40
1.0
 40
1.0
 10
75.36425900320017
 20
88.12190584383978
 30
0.0
 10
75.38225630931362
 20
88.15299099559338
 30
0.0
 10
75.47385255302159
 20
88.31119706920073
 30
0.0
 10
75.56568564140615
 20
88.47031084267881
 30
0.0
 10
75.63947488720399
 20
88.59816111481413
 30
0.0
  0
LINE
  5
EA
330
1F
100
AcDbEntity
  8
0
  6
Continuous
 62
     7
370
    25
100
AcDbLine
 10
75.6429238104
 20
106.6163344834
 30
0.0
 11
75.3752997185
 21
106.3487103914
 31
0.0
  0
LINE
  5
EB
330
1F
100
AcDbEntity
  8
0
  6
Continuous
 62
     7
370
    25
100
AcDbLine
 10
75.1429238104
 20
88.3163344834
 30
0.0
 11
75.338652496
 21
88.1206057977
 31
0.0
  0
SPLINE
  5
EC
330
1F
100
AcDbEntity
  8
0
  6
Continuous
 62
     7
370
    25
100
AcDbSpline
210
0.0
220
0.0
230
1.0
 70
     8
 71
     3
 72
     9
 73
     5
 74
     0
 42
0.00000001
 43
0.00000001
 40
0.0
 40
0.0
 40
0.0
 40
0.0
 40
0.4973303336687868
 40
1.0
 40
1.0
 40
1.0
 40
1.0
 10
75.65593775928221
 20
88.66457458372749
 30
0.0
 10
75.6851671252162
 20
88.66321010385575
 30
0.0
 10
75.7439396632159
 20
88.66046649507231
 30
0.0
 10
75.80275963339004
 20
88.66320035517958
 30
0.0
 10
75.8323266481711
 20
88.66457458372749
 30
0.0
  0
LINE
  5
ED
330
1F
100
AcDbEntity
  8
0
  6
Continuous
 62
     7
370
    25
100
AcDbLine
 10
75.1429238104
 20
105.3413344834
 30
0.0
 11
73.6429238104
 21
105.3413344834
 31
0.0
  0
LINE
  5
EE
330
1F
100
AcDbEntity
  8
0
  6
Continuous
 62
     7
370
    25
100
AcDbLine
 10
73.6429238104
 20
89.0913344834
 30
0.0
 11
75.1429238104
 21
89.0913344834
 31
0.0
  0
LINE
  5
EF
330
1F
100
AcDbEntity
  8
0
  6
Continuous
 62
     7
370
    25
100
AcDbLine
 10
203.9129182792
 20
87.6543288139
 30
0.0
 11
205.1929238104
 21
88.9663344834
 31
0.0
  0
LINE
  5
F0
330
1F
100
AcDbEntity
  8
0
  6
Continuous
 62
     7
370
    25
100
AcDbLine
 10
205.1929238104
 20
105.4663344834
 30
0.0
 11
203.9129182792
 21
106.7783401528
 31
0.0
  0
LINE
  5
F1
330
1F
100
AcDbEntity
  8
0
  6
Continuous
 62
     7
370
    25
100
AcDbLine
 10
198.0699515798
 20
106.6163344834
 30
0.0
 11
197.7429238104
 21
106.6163344834
 31
0.0
  0
LINE
  5
F2
330
1F
100
AcDbEntity
  8
0
  6
Continuous
 62
     7
370
    25
100
AcDbLine
 10
197.7429238104
 20
88.4629873891
 30
0.0
 11
197.815557762
 21
88.5886654372
 31
0.0
  0
SPLINE
  5
F3
330
1F
100
AcDbEntity
  8
0
  6
Continuous
 62
     7
370
    25
100
AcDbSpline
210
0.0
220
0.0
230
1.0
 70
     8
 71
     3
 72
     9
 73
     5
 74
     0
 42
0.00000001
 43
0.00000001
 40
0.0
 40
0.0
 40
0.0
 40
0.0
 40
0.4981873554341621
 40
1.0
 40
1.0
 40
1.0
 40
1.0
 10
198.5211147033052
 20
105.8440011370846
 30
0.0
 10
198.447740135267
 20
105.9709390700573
 30
0.0
 10
198.3004570554419
 20
106.2257386581803
 30
0.0
 10
198.1532228283504
 20
106.4805914956097
 30
0.0
 10
198.079338831483
 20
106.6084798719353
 30
0.0
  0
SPLINE
  5
F4
330
1F
100
AcDbEntity
  8
0
  6
Continuous
 62
     7
370
    25
100
AcDbSpline
210
0.0
220
0.0
230
1.0
 70
     8
 71
     3
 72
     9
 73
     5
 74
     0
 42
0.00000001
 43
0.00000001
 40
0.0
 40
0.0
 40
0.0
 40
0.0
 40
0.5011659921197278
 40
1.0
 40
1.0
 40
1.0
 40
1.0
 10
197.9718625559523
 20
88.58879672181556
 30
0.0
 10
198.0456783351199
 20
88.46109142398655
 30
0.0
 10
198.1929664199626
 20
88.20627505608248
 30
0.0
 10
198.3402192647753
 20
87.95141613970485
 30
0.0
 10
198.413673991525
 20
87.82428384500417
 30
0.0
  0
LINE
  5
F5
330
1F
100
AcDbEntity
  8
0
  6
Continuous
 62
     7
370
    25
100
AcDbLine
 10
198.8395353345
 20
106.1243424272
 30
0.0
 11
198.6774178048
 21
105.8438717218
 31
0.0
  0
LINE
  5
F6
330
1F
100
AcDbEntity
  8
0
  6
Continuous
 62
     7
370
    25
100
AcDbLine
 10
198.4331833212
 20
87.8565939942
 30
0.0
 11
198.8929238104
 21
88.3163344834
 31
0.0
  0
LINE
  5
F7
330
1F
100
AcDbEntity
  8
0
  6
Continuous
 62
     7
370
    25
100
AcDbLine
 10
198.8929238104
 20
106.1163344834
 30
0.0
 11
198.8747953423
 21
106.1344629514
 31
0.0
  0
SPLINE
  5
F8
330
1F
100
AcDbEntity
  8
0
  6
Continuous
 62
     7
370
    25
100
AcDbSpline
210
0.0
220
0.0
230
1.0
 70
     8
 71
     3
 72
     9
 73
     5
 74
     0
 42
0.00000001
 43
0.00000001
 40
0.0
 40
0.0
 40
0.0
 40
0.0
 40
0.5178081832965965
 40
0.9999999999999999
 40
0.9999999999999999
 40
0.9999999999999999
 40
0.9999999999999999
 10
197.805587280572
 20
88.58012080456965
 30
0.0
 10
197.8351652467068
 20
88.58013201095442
 30
0.0
 10
197.8922867196556
 20
88.58015365291588
 30
0.0
 10
197.9493573199244
 20
88.58013235854386
 30
0.0
 10
197.9768762963483
 20
88.58012209057195
 30
0.0
  0
SPLINE
  5
F9
330
1F
100
AcDbEntity
  8
0
  6
Continuous
 62
     7
370
    25
100
AcDbSpline
210
0.0
220
0.0
230
1.0
 70
     8
 71
     3
 72
     9
 73
     5
 74
     0
 42
0.00000001
 43
0.00000001
 40
0.0
 40
0.0
 40
0.0
 40
0.0
 40
0.5105586537198662
 40
0.9999999999999999
 40
0.9999999999999999
 40
0.9999999999999999
 40
0.9999999999999999
 10
198.6875311199946
 20
105.8525481604138
 30
0.0
 10
198.6584098738484
 20
105.8525226612239
 30
0.0
 10
198.6013718706062
 20
105.8524727175206
 30
0.0
 10
198.5441722083337
 20
105.8525214406138
 30
0.0
 10
198.5161763286243
 20
105.8525452877102
 30
0.0
  0
LINE
  5
FA
330
1F
100
AcDbEntity
  8
0
  6
Continuous
 62
     7
370
    25
100
AcDbLine
 10
198.8929238104
 20
89.0913344834
 30
0.0
 11
200.3929238104
 21
89.0913344834
 31
0.0
  0
LINE
  5
FB
330
1F
100
AcDbEntity
  8
0
  6
Continuous
 62
     7
370
    25
100
AcDbLine
 10
200.3929238104
 20
105.3413344834
 30
0.0
 11
198.8929238104
 21
105.3413344834
 31
0.0
  0
LINE
  5
FC
330
1F
100
AcDbEntity
  8
0
  6
Continuous
 62
     7
370
    25
100
AcDbLine
 10
93.3428506091
 20
80.8662612821
 30
0.0
 11
93.4929238104
 21
81.0163344834
 31
0.0
  0
LINE
  5
FD
330
1F
100
AcDbEntity
  8
0
  6
Continuous
 62
     7
370
    25
100
AcDbLine
 10
93.4929238104
 20
113.4163344834
 30
0.0
 11
93.3428506091
 21
113.5664076846
 31
0.0
  0
LINE
  5
FE
330
1F
100
AcDbEntity
  8
0
  6
Continuous
 62
     7
370
    25
100
AcDbLine
 10
84.1857857146
 20
113.5591963876
 30
0.0
 11
84.0429238104
 21
113.4163344834
 31
0.0
  0
LINE
  5
FF
330
1F
100
AcDbEntity
  8
0
  6
Continuous
 62
     7
370
    25
100
AcDbLine
 10
84.0429238104
 20
81.0163344834
 30
0.0
 11
84.1857857146
 21
80.8734725792
 31
0.0
  0
ARC
  5
100
330
1F
100
AcDbEntity
  8
0
  6
Continuous
 62
     7
370
    25
100
AcDbCircle
 10
84.0429238104
 20
102.9573228555
 30
0.0
 40
9.134011627906986
100
AcDbArc
 50
90.0
 51
148.0464183091
  0
ARC
  5
101
330
1F
100
AcDbEntity
  8
0
  6
Continuous
 62
     7
370
    25
100
AcDbCircle
 10
84.0429238104
 20
91.4753461113
 30
0.0
 40
9.134011627906986
100
AcDbArc
 50
211.9535816909
 51
270.0
  0
LINE
  5
102
330
1F
100
AcDbEntity
  8
0
  6
Continuous
 62
     7
370
    25
100
AcDbLine
 10
92.2995704458
 20
113.9436192148
 30
0.0
 11
85.249270894
 21
113.9436192148
 31
0.0
  0
LINE
  5
103
330
1F
100
AcDbEntity
  8
0
  6
Continuous
 62
     7
370
    25
100
AcDbLine
 10
85.249270894
 20
80.4890497519
 30
0.0
 11
92.2995704458
 21
80.4890497519
 31
0.0
  0
LINE
  5
104
330
1F
100
AcDbEntity
  8
0
  6
Continuous
 62
     7
370
    25
100
AcDbLine
 10
180.6569064473
 20
113.5303171203
 30
0.0
 11
180.5429238104
 21
113.4163344834
 31
0.0
  0
LINE
  5
105
330
1F
100
AcDbEntity
  8
0
  6
Continuous
 62
     7
370
    25
100
AcDbLine
 10
180.5429238104
 20
81.0163344834
 30
0.0
 11
180.6569064473
 21
80.9023518464
 31
0.0
  0
LINE
  5
106
330
1F
100
AcDbEntity
  8
0
  6
Continuous
 62
     7
370
    25
100
AcDbLine
 10
189.8789411734
 20
80.9023518464
 30
0.0
 11
189.9929238104
 21
81.0163344834
 31
0.0
  0
LINE
  5
107
330
1F
100
AcDbEntity
  8
0
  6
Continuous
 62
     7
370
    25
100
AcDbLine
 10
189.9929238104
 20
113.4163344834
 30
0.0
 11
189.8789411734
 21
113.5303171203
 31
0.0
  0
ARC
  5
108
330
1F
100
AcDbEntity
  8
0
  6
Continuous
 62
     7
370
    25
100
AcDbCircle
 10
189.9929238104
 20
91.4753461113
 30
0.0
 40
9.134011627906975
100
AcDbArc
 50
270.0
 51
328.0464183091
  0
ARC
  5
109
330
1F
100
AcDbEntity
  8
0
  6
Continuous
 62
     7
370
    25
100
AcDbCircle
 10
189.9929238104
 20
102.9573228555
 30
0.0
 40
9.134011627906986
100
AcDbArc
 50
31.9535816909
 51
90.0
  0
LINE
  5
10A
330
1F
100
AcDbEntity
  8
0
  6
Continuous
 62
     7
370
    25
100
AcDbLine
 10
188.7995704458
 20
113.9436192148
 30
0.0
 11
181.749270894
 21
113.9436192148
 31
0.0
  0
LINE
  5
10B
330
1F
100
AcDbEntity
  8
0
  6
Continuous
 62
     7
370
    25
100
AcDbLine
 10
181.749270894
 20
80.4890497519
 30
0.0
 11
188.7995704458
 21
80.4890497519
 31
0.0
  0
LINE
  5
10C
330
1F
100
AcDbEntity
  8
0
  6
Continuous
 62
     7
370
    25
100
AcDbLine
 10
60.9429238104
 20
91.5663344834
 30
0.0
 11
68.8429238104
 21
91.5663344834
 31
0.0
  0
LINE
  5
10D
330
1F
100
AcDbEntity
  8
0
  6
Continuous
 62
     7
370
    25
100
AcDbLine
 10
68.8429238104
 20
102.8663344834
 30
0.0
 11
60.9429238104
 21
102.8663344834
 31
0.0
  0
SPLINE
  5
10E
330
1F
100
AcDbEntity
  8
0
  6
Continuous
 62
     7
370
    25
100
AcDbSpline
210
0.0
220
0.0
230
1.0
 70
     8
 71
     3
 72
     9
 73
     5
 74
     0
 42
0.00000001
 43
0.00000001
 40
0.0
 40
0.0
 40
0.0
 40
0.0
 40
0.5000043425884712
 40
0.9999999999999999
 40
0.9999999999999999
 40
0.9999999999999999
 40
0.9999999999999999
 10
94.14923210872894
 20
111.7109683294447
 30
0.0
 10
94.07104479634961
 20
111.5755951967152
 30
0.0
 10
93.91467152972041
 20
111.304851282715
 30
0.0
 10
93.7582941012018
 20
111.034109449073
 30
0.0
 10
93.68010606602532
 20
110.8987397079723
 30
0.0
  0
SPLINE
  5
10F
330
1F
100
AcDbEntity
  8
0
  6
Continuous
 62
     7
370
    25
100
AcDbSpline
210
0.0
220
0.0
230
1.0
 70
     8
 71
     3
 72
     9
 73
     5
 74
     0
 42
0.00000001
 43
0.00000001
 40
0.0
 40
0.0
 40
0.0
 40
0.0
 40
0.4964644755054036
 40
1.0
 40
1.0
 40
1.0
 40
1.0
 10
94.43339597112558
 20
83.52823329587079
 30
0.0
 10
94.51048736398926
 20
83.39476220543096
 30
0.0
 10
94.66576814774567
 20
83.12591902122537
 30
0.0
 10
94.82104479879902
 20
82.85707377125074
 30
0.0
 10
94.89923210872895
 20
82.72170063729688
 30
0.0
  0
LINE
  5
110
330
1F
100
AcDbEntity
  8
0
  6
Continuous
 62
     7
370
    25
100
AcDbLine
 10
94.9054238063
 20
82.7163344834
 30
0.0
 11
95.1929238104
 21
82.7163344834
 31
0.0
  0
LINE
  5
111
330
1F
100
AcDbEntity
  8
0
  6
Continuous
 62
     7
370
    25
100
AcDbLine
 10
93.4929238104
 20
82.7163344834
 30
0.0
 11
93.5929238104
 21
82.7163344834
 31
0.0
  0
LINE
  5
112
330
1F
100
AcDbEntity
  8
0
  6
Continuous
 62
     7
370
    25
100
AcDbLine
 10
95.1929238104
 20
111.7163344834
 30
0.0
 11
94.1554238063
 21
111.7163344834
 31
0.0
  0
SPLINE
  5
113
330
1F
100
AcDbEntity
  8
0
  6
Continuous
 62
     7
370
    25
100
AcDbSpline
210
0.0
220
0.0
230
1.0
 70
     8
 71
     3
 72
     9
 73
     5
 74
     0
 42
0.00000001
 43
0.00000001
 40
0.0
 40
0.0
 40
0.0
 40
0.0
 40
0.5036319833775984
 40
1.0
 40
1.0
 40
1.0
 40
1.0
 10
179.93663886386
 20
111.7108063775683
 30
0.0
 10
179.85845224577
 20
111.5754343888564
 30
0.0
 10
179.7032067080152
 20
111.3066429038439
 30
0.0
 10
179.5479571311209
 20
111.0378539049216
 30
0.0
 10
179.4708962065565
 20
110.9044356426366
 30
0.0
  0
SPLINE
  5
114
330
1F
100
AcDbEntity
  8
0
  6
Continuous
 62
     7
370
    25
100
AcDbSpline
210
0.0
220
0.0
230
1.0
 70
     8
 71
     3
 72
     9
 73
     5
 74
     0
 42
0.00000001
 43
0.00000001
 40
0.0
 40
0.0
 40
0.0
 40
0.0
 40
0.4999957547772969
 40
1.0
 40
1.0
 40
1.0
 40
1.0
 10
180.217517020912
 20
83.53408386002671
 30
0.0
 10
180.2957043479999
 20
83.39871542359964
 30
0.0
 10
180.4520803298775
 20
83.12797625204935
 30
0.0
 10
180.6084522433101
 20
82.85723457637114
 30
0.0
 10
180.68663886386
 20
82.72186258917333
 30
0.0
  0
SPLINE
  5
115
330
1F
100
AcDbEntity
  8
0
  6
Continuous
 62
     7
370
    25
100
AcDbSpline
210
0.0
220
0.0
230
1.0
 70
     8
 71
     3
 72
     9
 73
     5
 74
     0
 42
0.00000001
 43
0.00000001
 40
0.0
 40
0.0
 40
0.0
 40
0.0
 40
0.4999956574115309
 40
0.9999999999999999
 40
0.9999999999999999
 40
0.9999999999999999
 40
0.9999999999999999
 10
180.605741554745
 20
110.8987397079723
 30
0.0
 10
180.5275535195685
 20
111.034109449073
 30
0.0
 10
180.3711760910498
 20
111.304851282715
 30
0.0
 10
180.2148028244207
 20
111.5755951967152
 30
0.0
 10
180.1366155120413
 20
111.7109683294447
 30
0.0
  0
SPLINE
  5
116
330
1F
100
AcDbEntity
  8
0
  6
Continuous
 62
     7
370
    25
100
AcDbSpline
210
0.0
220
0.0
230
1.0
 70
     8
 71
     3
 72
     9
 73
     5
 74
     0
 42
0.00000001
 43
0.00000001
 40
0.0
 40
0.0
 40
0.0
 40
0.0
 40
0.4999956574115287
 40
0.9999999999999999
 40
0.9999999999999999
 40
0.9999999999999999
 40
0.9999999999999999
 10
179.105741554745
 20
110.8987397079723
 30
0.0
 10
179.0275535195685
 20
111.034109449073
 30
0.0
 10
178.8711760910499
 20
111.304851282715
 30
0.0
 10
178.7148028244207
 20
111.5755951967152
 30
0.0
 10
178.6366155120413
 20
111.7109683294447
 30
0.0
  0
SPLINE
  5
117
330
1F
100
AcDbEntity
  8
0
  6
Continuous
 62
     7
370
    25
100
AcDbSpline
210
0.0
220
0.0
230
1.0
 70
     8
 71
     3
 72
     9
 73
     5
 74
     0
 42
0.00000001
 43
0.00000001
 40
0.0
 40
0.0
 40
0.0
 40
0.0
 40
0.5035355068673537
 40
0.9999999999999999
 40
0.9999999999999999
 40
0.9999999999999999
 40
0.9999999999999999
 10
179.3866155120413
 20
82.72170063729688
 30
0.0
 10
179.4648028219713
 20
82.85707377125074
 30
0.0
 10
179.6200794784604
 20
83.12591903063682
 30
0.0
 10
179.7753602676528
 20
83.39476222425377
 30
0.0
 10
179.8524516659524
 20
83.52823332410497
 30
0.0
  0
SPLINE
  5
118
330
1F
100
AcDbEntity
  8
0
  6
Continuous
 62
     7
370
    25
100
AcDbSpline
210
0.0
220
0.0
230
1.0
 70
     8
 71
     3
 72
     9
 73
     5
 74
     0
 42
0.00000001
 43
0.00000001
 40
0.0
 40
0.0
 40
0.0
 40
0.0
 40
0.5035355244945965
 40
1.0
 40
1.0
 40
1.0
 40
1.0
 10
177.8866155120413
 20
82.72170063729688
 30
0.0
 10
177.9648028219712
 20
82.85707377125074
 30
0.0
 10
178.1200794730246
 20
83.12591902122539
 30
0.0
 10
178.275360256781
 20
83.39476220543096
 30
0.0
 10
178.3524516496447
 20
83.52823329587079
 30
0.0
  0
LINE
  5
119
330
1F
100
AcDbEntity
  8
0
  6
Continuous
 62
     7
370
    25
100
AcDbLine
 10
178.6304238145
 20
111.7163344834
 30
0.0
 11
177.5929238104
 21
111.7163344834
 31
0.0
  0
LINE
  5
11A
330
1F
100
AcDbEntity
  8
0
  6
Continuous
 62
     7
370
    25
100
AcDbLine
 10
180.1304238145
 20
111.7163344834
 30
0.0
 11
179.9429238104
 21
111.7163344834
 31
0.0
  0
LINE
  5
11B
330
1F
100
AcDbEntity
  8
0
  6
Continuous
 62
     7
370
    25
100
AcDbLine
 10
179.1929238104
 20
82.7163344834
 30
0.0
 11
179.3804238145
 21
82.7163344834
 31
0.0
  0
LINE
  5
11C
330
1F
100
AcDbEntity
  8
0
  6
Continuous
 62
     7
370
    25
100
AcDbLine
 10
177.5929238104
 20
82.7163344834
 30
0.0
 11
177.8804238145
 21
82.7163344834
 31
0.0
  0
LINE
  5
11D
330
1F
100
AcDbEntity
  8
0
  6
Continuous
 62
     7
370
    25
100
AcDbLine
 10
93.6833959548
 20
110.9044356426
 30
0.0
 11
93.4929238104
 21
110.9044356426
 31
0.0
  0
LINE
  5
11E
330
1F
100
AcDbEntity
  8
0
  6
Continuous
 62
     7
370
    25
100
AcDbLine
 10
179.4741592751
 20
110.9044356426
 30
0.0
 11
179.102451666
 21
110.9044356426
 31
0.0
  0
LINE
  5
11F
330
1F
100
AcDbEntity
  8
0
  6
Continuous
 62
     7
370
    25
100
AcDbLine
 10
179.8491592751
 20
83.5282333241
 30
0.0
 11
180.2208962066
 21
83.5282333241
 31
0.0
  0
LINE
  5
120
330
1F
100
AcDbEntity
  8
0
  6
Continuous
 62
     7
370
    25
100
AcDbLine
 10
228.5929238104
 20
92.2603040992
 30
0.0
 11
228.5929238104
 21
91.8874201467
 31
0.0
  0
LINE
  5
121
330
1F
100
AcDbEntity
  8
0
  6
Continuous
 62
     7
370
    25
100
AcDbLine
 10
228.5929238104
 20
102.54524882
 30
0.0
 11
228.5929238104
 21
92.2603040992
 31
0.0
  0
ARC
  5
122
330
1F
100
AcDbEntity
  8
0
  6
Continuous
 62
     7
370
    25
100
AcDbCircle
 10
46.4919066539
 20
95.0714129078
 30
0.0
 40
3.299286112126819
100
AcDbArc
 50
174.1006273552
 51
185.8993726448
  0
ARC
  5
123
330
1F
100
AcDbEntity
  8
0
  6
Continuous
 62
     7
370
    25
100
AcDbCircle
 10
50.2883186956
 20
97.5814840231
 30
0.0
 40
7.403671904245269
100
AcDbArc
 50
188.8555717152
 51
197.0513202202
  0
SPLINE
  5
124
330
1F
100
AcDbEntity
  8
0
  6
Continuous
 62
     7
370
    25
100
AcDbSpline
210
0.0
220
0.0
230
1.0
 70
     8
 71
     3
 72
    12
 73
     8
 74
     0
 42
0.00000001
 43
0.00000001
 40
0.0
 40
0.0
 40
0.0
 40
0.0
 40
0.2133534395476112
 40
0.4267919313634459
 40
0.638353973909151
 40
0.8490950351927568
 40
1.0
 40
1.0
 40
1.0
 40
1.0
 10
42.9729020087149
 20
97.48434120538464
 30
0.0
 10
42.96324286498753
 20
97.43046891410665
 30
0.0
 10
42.94392072696409
 20
97.3227028556346
 30
0.0
 10
42.93160765695596
 20
97.09109343495771
 30
0.0
 10
42.93394509725271
 20
96.84093570459929
 30
0.0
 10
42.94906261626653
 20
96.61451667251531
 30
0.0
 10
42.96588322864748
 20
96.49260263992869
 30
0.0
 10
42.97290200871488
 20
96.44173125888283
 30
0.0
  0
ARC
  5
125
330
1F
100
AcDbEntity
  8
0
  6
Continuous
 62
     7
370
    25
100
AcDbCircle
 10
46.6573926965
 20
96.6403571693
 30
0.0
 40
3.779918078700987
100
AcDbArc
 50
155.7837213117
 51
167.0981823598
  0
ARC
  5
126
330
1F
100
AcDbEntity
  8
0
  6
Continuous
 62
     7
370
    25
100
AcDbCircle
 10
50.2106486036
 20
98.6857940557
 30
0.0
 40
7.018032155406599
100
AcDbArc
 50
175.9555700063
 51
184.0444299937
  0
ARC
  5
127
330
1F
100
AcDbEntity
  8
0
  6
Continuous
 62
     7
370
    25
100
AcDbCircle
 10
46.6573926965
 20
97.6303209734
 30
0.0
 40
3.779918078702288
100
AcDbArc
 50
155.7837213117
 51
167.0981823598
  0
SPLINE
  5
128
330
1F
100
AcDbEntity
  8
0
  6
Continuous
 62
     7
370
    25
100
AcDbSpline
210
0.0
220
0.0
230
1.0
 70
     8
 71
     3
 72
    11
 73
     7
 74
     0
 42
0.00000001
 43
0.00000001
 40
0.0
 40
0.0
 40
0.0
 40
0.0
 40
0.1747537782703013
 40
0.4793391214032815
 40
0.782742499868067
 40
1.0
 40
1.0
 40
1.0
 40
1.0
 10
42.94123446137717
 20
98.4407978360246
 30
0.0
 10
42.93838353357929
 20
98.41699688665503
 30
0.0
 10
42.9305636098023
 20
98.35171231156716
 30
0.0
 10
42.93439801082295
 20
98.33227732063654
 30
0.0
 10
42.94898613692097
 20
98.37239570199881
 30
0.0
 10
42.96586071164302
 20
98.44430093042367
 30
0.0
 10
42.9729020087149
 20
98.47430500950122
 30
0.0
  0
ARC
  5
129
330
1F
100
AcDbEntity
  8
0
  6
Continuous
 62
     7
370
    25
100
AcDbCircle
 10
50.2209137954
 20
96.863947507
 30
0.0
 40
7.335106118660772
100
AcDbArc
 50
168.3668500212
 51
171.1618771205
  0
SPLINE
  5
12A
330
1F
100
AcDbEntity
  8
0
  6
Continuous
 62
     7
370
    25
100
AcDbSpline
210
0.0
220
0.0
230
1.0
 70
     8
 71
     3
 72
    10
 73
     6
 74
     0
 42
0.00000001
 43
0.00000001
 40
0.0
 40
0.0
 40
0.0
 40
0.0
 40
0.1074895227866036
 40
0.6275798641842448
 40
1.0
 40
1.0
 40
1.0
 40
1.0
 10
42.93587594126868
 20
97.54143345284398
 30
0.0
 10
42.93595949890655
 20
97.5583356560716
 30
0.0
 10
42.93644735195173
 20
97.65701952898321
 30
0.0
 10
42.94955801667981
 20
97.81842896082196
 30
0.0
 10
42.96602908414923
 20
97.94014778283119
 30
0.0
 10
42.9729020087149
 20
97.99093770785879
 30
0.0
  0
SPLINE
  5
12B
330
1F
100
AcDbEntity
  8
0
  6
Continuous
 62
     7
370
    25
100
AcDbSpline
210
0.0
220
0.0
230
1.0
 70
     8
 71
     3
 72
    10
 73
     6
 74
     0
 42
0.00000001
 43
0.00000001
 40
0.0
 40
0.0
 40
0.0
 40
0.0
 40
0.3456786151971759
 40
0.691495033423728
 40
1.0
 40
1.0
 40
1.0
 40
1.0
 10
42.9729020087149
 20
95.76351914859649
 30
0.0
 10
42.96331155334969
 20
95.82743706333758
 30
0.0
 10
42.9441268194328
 20
95.95529837337277
 30
0.0
 10
42.93122798353667
 20
96.06976293590478
 30
0.0
 10
42.93455365160831
 20
96.08073720081732
 30
0.0
 10
42.93612166564714
 20
96.08591143982078
 30
0.0
  0
ARC
  5
12C
330
1F
100
AcDbEntity
  8
0
  6
Continuous
 62
     7
370
    25
100
AcDbCircle
 10
50.2883186956
 20
96.9032719128
 30
0.0
 40
7.40367190424333
100
AcDbArc
 50
188.8555717152
 51
197.0513202202
  0
SPLINE
  5
12D
330
1F
100
AcDbEntity
  8
0
  6
Continuous
 62
     7
370
    25
100
AcDbSpline
210
0.0
220
0.0
230
1.0
 70
     8
 71
     3
 72
    11
 73
     7
 74
     0
 42
0.00000001
 43
0.00000001
 40
0.0
 40
0.0
 40
0.0
 40
0.0
 40
0.3060059841517141
 40
0.6121339560393471
 40
0.9155705970216294
 40
1.0
 40
1.0
 40
1.0
 40
1.0
 10
229.8129456120554
 20
98.47430500950122
 30
0.0
 10
229.8226630902691
 20
98.43350714214733
 30
0.0
 10
229.8421019205201
 20
98.35189514357637
 30
0.0
 10
229.8535420972173
 20
98.33486916051004
 30
0.0
 10
229.8542632232976
 20
98.36725483029487
 30
0.0
 10
229.8465018666571
 20
98.42727697876789
 30
0.0
 10
229.8448124001063
 20
98.44034240235928
 30
0.0
  0
ARC
  5
12E
330
1F
100
AcDbEntity
  8
0
  6
Continuous
 62
     7
370
    25
100
AcDbCircle
 10
226.1284549243
 20
97.6303209734
 30
0.0
 40
3.779918078694966
100
AcDbArc
 50
12.9018176402
 51
24.2162786883
  0
ARC
  5
12F
330
1F
100
AcDbEntity
  8
0
  6
Continuous
 62
     7
370
    25
100
AcDbCircle
 10
222.5751990172
 20
98.6857940557
 30
0.0
 40
7.018032155397739
100
AcDbArc
 50
355.9555700063
 51
4.0444299937
  0
ARC
  5
130
330
1F
100
AcDbEntity
  8
0
  6
Continuous
 62
     7
370
    25
100
AcDbCircle
 10
226.1284549243
 20
96.6403571693
 30
0.0
 40
3.779918078697348
100
AcDbArc
 50
12.9018176402
 51
24.2162786883
  0
SPLINE
  5
131
330
1F
100
AcDbEntity
  8
0
  6
Continuous
 62
     7
370
    25
100
AcDbSpline
210
0.0
220
0.0
230
1.0
 70
     8
 71
     3
 72
    12
 73
     8
 74
     0
 42
0.00000001
 43
0.00000001
 40
0.0
 40
0.0
 40
0.0
 40
0.0
 40
0.2133534395476133
 40
0.4267919313634468
 40
0.6383539739091508
 40
0.8490950351927574
 40
1.0
 40
1.0
 40
1.0
 40
1.0
 10
229.8129456120554
 20
96.44173125888283
 30
0.0
 10
229.8226047557827
 20
96.51518992915535
 30
0.0
 10
229.8419268938062
 20
96.6621365536273
 30
0.0
 10
229.8542399638143
 20
96.91879928517913
 30
0.0
 10
229.8519025235176
 20
97.16420064721568
 30
0.0
 10
229.8367850045038
 20
97.35988240697617
 30
0.0
 10
229.8199643921228
 20
97.44769811830197
 30
0.0
 10
229.8129456120554
 20
97.48434120538464
 30
0.0
  0
ARC
  5
132
330
1F
100
AcDbEntity
  8
0
  6
Continuous
 62
     7
370
    25
100
AcDbCircle
 10
222.4975289252
 20
97.5814840231
 30
0.0
 40
7.403671904230499
100
AcDbArc
 50
342.9486797797
 51
351.1444282848
  0
ARC
  5
133
330
1F
100
AcDbEntity
  8
0
  6
Continuous
 62
     7
370
    25
100
AcDbCircle
 10
226.2939409669
 20
95.0714129078
 30
0.0
 40
3.299286112121327
100
AcDbArc
 50
354.1006273552
 51
5.8993726448
  0
ARC
  5
134
330
1F
100
AcDbEntity
  8
0
  6
Continuous
 62
     7
370
    25
100
AcDbCircle
 10
222.4975289252
 20
96.9032719128
 30
0.0
 40
7.403671904234788
100
AcDbArc
 50
342.9486797797
 51
351.1444282848
  0
SPLINE
  5
135
330
1F
100
AcDbEntity
  8
0
  6
Continuous
 62
     7
370
    25
100
AcDbSpline
210
0.0
220
0.0
230
1.0
 70
     8
 71
     3
 72
    11
 73
     7
 74
     0
 42
0.00000001
 43
0.00000001
 40
0.0
 40
0.0
 40
0.0
 40
0.0
 40
0.0714051685223689
 40
0.4141348508035128
 40
0.7555345466478937
 40
1.0
 40
1.0
 40
1.0
 40
1.0
 10
229.8491994731582
 20
96.0827344786237
 30
0.0
 10
229.8501507672534
 20
96.08487620407087
 30
0.0
 10
229.8556680714816
 20
96.09729775795664
 30
0.0
 10
229.8510743437711
 20
96.0375359028387
 30
0.0
 10
229.8369248515942
 20
95.92139058199885
 30
0.0
 10
229.8200055658219
 20
95.80999956425212
 30
0.0
 10
229.8129456120554
 20
95.76351914859649
 30
0.0
  0
SPLINE
  5
136
330
1F
100
AcDbEntity
  8
0
  6
Continuous
 62
     7
370
    25
100
AcDbSpline
210
0.0
220
0.0
230
1.0
 70
     8
 71
     3
 72
    10
 73
     6
 74
     0
 42
0.00000001
 43
0.00000001
 40
0.0
 40
0.0
 40
0.0
 40
0.0
 40
0.4877233272611473
 40
0.9756410829567995
 40
1.0
 40
1.0
 40
1.0
 40
1.0
 10
229.8129456120554
 20
97.99093770785878
 30
0.0
 10
229.8222868401425
 20
97.9178398092969
 30
0.0
 10
229.84097302015
 20
97.77161487206608
 30
0.0
 10
229.8526708124462
 20
97.59203104091984
 30
0.0
 10
229.8517417746737
 20
97.50670745043314
 30
0.0
 10
229.8516975986352
 20
97.50265028684733
 30
0.0
  0
ARC
  5
137
330
1F
100
AcDbEntity
  8
0
  6
Continuous
 62
     7
370
    25
100
AcDbCircle
 10
222.5668945902
 20
96.8642796291
 30
0.0
 40
7.333117606989855
100
AcDbArc
 50
8.837912545
 51
11.3659567697
  0
LINE
  5
138
330
1F
100
AcDbEntity
  8
0
  6
Continuous
 62
     7
370
    25
100
AcDbLine
 10
44.1929238104
 20
91.8874201467
 30
0.0
 11
44.1929238104
 21
102.54524882
 31
0.0
  0
LINE
  5
139
330
1F
100
AcDbEntity
  8
0
  6
Continuous
 62
     7
370
    25
100
AcDbLine
 10
60.4341976072
 20
88.9656744748
 30
0.0
 11
60.4341976072
 21
105.4669942067
 31
0.0
  0
SPLINE
  5
13A
330
1F
100
AcDbEntity
  8
0
  6
Continuous
 62
     7
370
    25
100
AcDbSpline
210
0.0
220
0.0
230
1.0
 70
     8
 71
     3
 72
    11
 73
     7
 74
     0
 42
0.00000001
 43
0.00000001
 40
0.0
 40
0.0
 40
0.0
 40
0.0
 40
0.2499999999999918
 40
0.4999999999999998
 40
0.7499999999999961
 40
1.0
 40
1.0
 40
1.0
 40
1.0
 10
60.43419760716651
 20
105.4669957459108
 30
0.0
 10
60.50056865990387
 20
105.4611032685078
 30
0.0
 10
60.63331076537863
 20
105.4493183137019
 30
0.0
 10
60.80177450615937
 20
105.34539663127
 30
0.0
 10
60.91986186519441
 20
105.195216226814
 30
0.0
 10
60.93523649532157
 20
105.075657167782
 30
0.0
 10
60.94292381038515
 20
105.015877638266
 30
0.0
  0
LINE
  5
13B
330
1F
100
AcDbEntity
  8
0
  6
Continuous
 62
     7
370
    25
100
AcDbLine
 10
60.9429238104
 20
105.015822788
 30
0.0
 11
60.9429238104
 21
89.4168997178
 31
0.0
  0
SPLINE
  5
13C
330
1F
100
AcDbEntity
  8
0
  6
Continuous
 62
     7
370
    25
100
AcDbSpline
210
0.0
220
0.0
230
1.0
 70
     8
 71
     3
 72
    11
 73
     7
 74
     0
 42
0.00000001
 43
0.00000001
 40
0.0
 40
0.0
 40
0.0
 40
0.0
 40
0.2499999999999896
 40
0.4999999999999997
 40
0.7499999999999998
 40
1.0
 40
1.0
 40
1.0
 40
1.0
 10
60.43419760716651
 20
88.96567476007571
 30
0.0
 10
60.50056865990388
 20
88.97156863314822
 30
0.0
 10
60.63331076537863
 20
88.98335637929324
 30
0.0
 10
60.80177450615934
 20
89.08730267621543
 30
0.0
 10
60.91986186519445
 20
89.23751865182493
 30
0.0
 10
60.93523649532157
 20
89.35710602915616
 30
0.0
 10
60.94292381038515
 20
89.41689971782176
 30
0.0
  0
LWPOLYLINE
  5
13D
330
1F
100
AcDbEntity
  8
0
  6
Continuous
 62
     7
370
    25
100
AcDbPolyline
 90
        3
 70
   128
 43
0.0
 10
60.4341976072
 20
105.4669942067
 10
54.4427238104
 20
105.4007417954
 10
50.9548798532
 20
105.3619258291
  0
LWPOLYLINE
  5
13E
330
1F
100
AcDbEntity
  8
0
  6
Continuous
 62
     7
370
    25
100
AcDbPolyline
 90
        3
 70
   128
 43
0.0
 10
51.8883000671
 20
89.0603370669
 10
54.4427238104
 20
89.0319271713
 10
60.4341976241
 20
88.9656747599
  0
LINE
  5
13F
330
1F
100
AcDbEntity
  8
0
  6
Continuous
 62
     7
370
    25
100
AcDbLine
 10
46.0929238104
 20
88.8168908291
 30
0.0
 11
46.0929238104
 21
105.6157781376
 31
0.0
  0
LINE
  5
140
330
1F
100
AcDbEntity
  8
0
  6
Continuous
 62
     7
370
    25
100
AcDbLine
 10
60.4341976072
 20
105.46699546
 30
0.0
 11
60.4341976072
 21
108.9624683966
 31
0.0
  0
ARC
  5
141
330
1F
100
AcDbEntity
  8
0
  6
Continuous
 62
     7
370
    25
100
AcDbCircle
 10
60.4488625157
 20
108.4685820398
 30
0.0
 40
0.4941040304928842
100
AcDbArc
 50
0.7535768612
 51
91.7007770082
  0
LINE
  5
142
330
1F
100
AcDbEntity
  8
0
  6
Continuous
 62
     7
370
    25
100
AcDbLine
 10
60.9429238104
 20
108.475080505
 30
0.0
 11
60.9429238104
 21
105.0158240424
 31
0.0
  0
LINE
  5
143
330
1F
100
AcDbEntity
  8
0
  6
Continuous
 62
     7
370
    25
100
AcDbLine
 10
60.4341976072
 20
85.4702005701
 30
0.0
 11
60.4341976072
 21
88.9656732208
 31
0.0
  0
ARC
  5
144
330
1F
100
AcDbEntity
  8
0
  6
Continuous
 62
     7
370
    25
100
AcDbCircle
 10
60.4488625157
 20
85.9640869269
 30
0.0
 40
0.494104030492884
100
AcDbArc
 50
268.2992229918
 51
359.2464231388
  0
LINE
  5
145
330
1F
100
AcDbEntity
  8
0
  6
Continuous
 62
     7
370
    25
100
AcDbLine
 10
60.9429238104
 20
89.4168449244
 30
0.0
 11
60.9429238104
 21
85.9575884617
 31
0.0
  0
LINE
  5
146
330
1F
100
AcDbEntity
  8
0
  6
Continuous
 62
     7
370
    25
100
AcDbLine
 10
51.9208342064
 20
89.059750026
 30
0.0
 11
51.9590100104
 21
89.0590627233
 31
0.0
  0
LINE
  5
147
330
1F
100
AcDbEntity
  8
0
  6
Continuous
 62
     7
370
    25
100
AcDbLine
 10
51.9208342064
 20
89.059750026
 30
0.0
 11
51.8883000671
 21
89.0603370669
 31
0.0
  0
LWPOLYLINE
  5
148
330
1F
100
AcDbEntity
  8
0
  6
Continuous
 62
     7
370
    25
100
AcDbPolyline
 90
        3
 70
   128
 43
0.0
 10
51.9590100104
 20
89.0590627233
 10
54.4429238104
 20
89.0316712509
 10
60.4341976072
 20
88.9656732208
  0
SPLINE
  5
149
330
1F
100
AcDbEntity
  8
0
  6
Continuous
 62
     7
370
    25
100
AcDbSpline
210
0.0
220
0.0
230
1.0
 70
     8
 71
     3
 72
    12
 73
     8
 74
     0
 42
0.00000001
 43
0.00000001
 40
0.0
 40
0.0
 40
0.0
 40
0.0
 40
0.1662426524176548
 40
0.3368059756191302
 40
0.6054181071254584
 40
0.8801435087136187
 40
1.0
 40
1.0
 40
1.0
 40
1.0
 10
56.35168978044129
 20
108.8929948650418
 30
0.0
 10
56.25223307316607
 20
108.7375096895588
 30
0.0
 10
56.05073476428714
 20
108.4224982562035
 30
0.0
 10
55.22848700826463
 20
107.759533151205
 30
0.0
 10
53.86665784127806
 20
106.9073382343996
 30
0.0
 10
52.3055516526192
 20
106.0647095557875
 30
0.0
 10
51.33531196045757
 20
105.5268514630923
 30
0.0
 10
51.04059614275469
 20
105.3634740122651
 30
0.0
  0
LINE
  5
14A
330
1F
100
AcDbEntity
  8
0
  6
Continuous
 62
     7
370
    25
100
AcDbLine
 10
56.3516897804
 20
108.892994865
 30
0.0
 11
60.4341976072
 21
108.9624683966
 31
0.0
  0
LWPOLYLINE
  5
14B
330
1F
100
AcDbEntity
  8
0
  6
Continuous
 62
     7
370
    25
100
AcDbPolyline
 90
        3
 70
   128
 43
0.0
 10
51.0405961428
 20
105.3634740123
 10
54.4429238104
 20
105.4009977158
 10
60.4341975902
 20
105.4669957457
  0
LINE
  5
14C
330
1F
100
AcDbEntity
  8
0
  6
Continuous
 62
     7
370
    25
100
AcDbLine
 10
50.9548798532
 20
105.3619258291
 30
0.0
 11
50.9994861864
 21
105.3627324462
 31
0.0
  0
LINE
  5
14D
330
1F
100
AcDbEntity
  8
0
  6
Continuous
 62
     7
370
    25
100
AcDbLine
 10
51.0405961428
 20
105.3634740123
 30
0.0
 11
50.9994861864
 21
105.3627324462
 31
0.0
  0
LINE
  5
14E
330
1F
100
AcDbEntity
  8
0
  6
Continuous
 62
     7
370
    25
100
AcDbLine
 10
56.4080189975
 20
85.5856062686
 30
0.0
 11
56.4080189975
 21
85.5387155268
 31
0.0
  0
SPLINE
  5
14F
330
1F
100
AcDbEntity
  8
0
  6
Continuous
 62
     7
370
    25
100
AcDbSpline
210
0.0
220
0.0
230
1.0
 70
     8
 71
     3
 72
    13
 73
     9
 74
     0
 42
0.00000001
 43
0.00000001
 40
0.0
 40
0.0
 40
0.0
 40
0.0
 40
0.0460329529079882
 40
0.2492425848193729
 40
0.4775225570272889
 40
0.7051721168687848
 40
0.8526808263814666
 40
1.0
 40
1.0
 40
1.0
 40
1.0
 10
51.95901001036807
 20
89.05906272326831
 30
0.0
 10
52.0610005446766
 20
88.99655375483172
 30
0.0
 10
52.61322200326916
 20
88.65810279995436
 30
0.0
 10
53.65434092773076
 20
88.0401253759254
 30
0.0
 10
54.93954137111142
 20
87.22965304921226
 30
0.0
 10
55.83211227123423
 20
86.53702824794759
 30
0.0
 10
56.32065472862577
 20
85.9867944462495
 30
0.0
 10
56.37891005807648
 20
85.7192783351436
 30
0.0
 10
56.40801899751058
 20
85.58560626858325
 30
0.0
  0
LINE
  5
150
330
1F
100
AcDbEntity
  8
0
  6
Continuous
 62
     7
370
    25
100
AcDbLine
 10
56.4080189975
 20
85.5387155268
 30
0.0
 11
60.4341976072
 21
85.4702005701
 31
0.0
  0
LINE
  5
151
330
1F
100
AcDbEntity
  8
0
  6
Continuous
 62
     7
370
    25
100
AcDbLine
 10
60.9429238104
 20
85.9575884617
 30
0.0
 11
60.9429238104
 21
85.7444448686
 31
0.0
  0
LINE
  5
152
330
1F
100
AcDbEntity
  8
0
  6
Continuous
 62
     7
370
    25
100
AcDbLine
 10
60.9429238104
 20
108.6882240981
 30
0.0
 11
60.9429238104
 21
108.475080505
 31
0.0
  0
LINE
  5
153
330
1F
100
AcDbEntity
  8
0
  6
Continuous
 62
     7
370
    25
100
AcDbLine
 10
56.4080189975
 20
109.1012819303
 30
0.0
 11
56.3516897804
 21
108.892994865
 31
0.0
  0
LINE
  5
154
330
1F
100
AcDbEntity
  8
0
  6
Continuous
 62
     7
370
    25
100
AcDbLine
 10
212.3516500136
 20
105.7124157808
 30
0.0
 11
212.3516500136
 21
89.2110960489
 31
0.0
  0
SPLINE
  5
155
330
1F
100
AcDbEntity
  8
0
  6
Continuous
 62
     7
370
    25
100
AcDbSpline
210
0.0
220
0.0
230
1.0
 70
     8
 71
     3
 72
    11
 73
     7
 74
     0
 42
0.00000001
 43
0.00000001
 40
0.0
 40
0.0
 40
0.0
 40
0.0
 40
0.2499999999999913
 40
0.4999999999999988
 40
0.7499999999999947
 40
1.0
 40
1.0
 40
1.0
 40
1.0
 10
212.3516500136038
 20
89.21109450965919
 30
0.0
 10
212.2852789608664
 20
89.21698698706216
 30
0.0
 10
212.1525368553917
 20
89.22877194186806
 30
0.0
 10
211.9840731146109
 20
89.3326936242999
 30
0.0
 10
211.8659857555758
 20
89.48287402875594
 30
0.0
 10
211.8506111254487
 20
89.60243308778792
 30
0.0
 10
211.8429238103852
 20
89.66221261730391
 30
0.0
  0
LINE
  5
156
330
1F
100
AcDbEntity
  8
0
  6
Continuous
 62
     7
370
    25
100
AcDbLine
 10
211.8429238104
 20
89.6622674675
 30
0.0
 11
211.8429238104
 21
105.2611905377
 31
0.0
  0
SPLINE
  5
157
330
1F
100
AcDbEntity
  8
0
  6
Continuous
 62
     7
370
    25
100
AcDbSpline
210
0.0
220
0.0
230
1.0
 70
     8
 71
     3
 72
    11
 73
     7
 74
     0
 42
0.00000001
 43
0.00000001
 40
0.0
 40
0.0
 40
0.0
 40
0.0
 40
0.2499999999999901
 40
0.5000000000000007
 40
0.7500000000000012
 40
1.0
 40
1.0
 40
1.0
 40
1.0
 10
212.3516500136038
 20
105.7124154954942
 30
0.0
 10
212.2852789608664
 20
105.7065216224217
 30
0.0
 10
212.1525368553917
 20
105.6947338762767
 30
0.0
 10
211.9840731146109
 20
105.5907875793545
 30
0.0
 10
211.8659857555758
 20
105.440571603745
 30
0.0
 10
211.8506111254487
 20
105.3209842264138
 30
0.0
 10
211.8429238103852
 20
105.2611905377482
 30
0.0
  0
LWPOLYLINE
  5
158
330
1F
100
AcDbEntity
  8
0
  6
Continuous
 62
     7
370
    25
100
AcDbPolyline
 90
        3
 70
   128
 43
0.0
 10
212.3516500136
 20
89.2110960489
 10
218.3431238104
 20
89.2773484602
 10
221.8309677675
 20
89.3161644265
  0
LWPOLYLINE
  5
159
330
1F
100
AcDbEntity
  8
0
  6
Continuous
 62
     7
370
    25
100
AcDbPolyline
 90
        3
 70
   128
 43
0.0
 10
220.8975475536
 20
105.6177531887
 10
218.3431238104
 20
105.6461630842
 10
212.3516499967
 20
105.7124154957
  0
LINE
  5
15A
330
1F
100
AcDbEntity
  8
0
  6
Continuous
 62
     7
370
    25
100
AcDbLine
 10
226.6929238104
 20
105.8611994265
 30
0.0
 11
226.6929238104
 21
89.0623121179
 31
0.0
  0
LINE
  5
15B
330
1F
100
AcDbEntity
  8
0
  6
Continuous
 62
     7
370
    25
100
AcDbLine
 10
212.3516500136
 20
89.2110947955
 30
0.0
 11
212.3516500136
 21
85.715621859
 31
0.0
  0
ARC
  5
15C
330
1F
100
AcDbEntity
  8
0
  6
Continuous
 62
     7
370
    25
100
AcDbCircle
 10
212.3369851051
 20
86.2095082157
 30
0.0
 40
0.4941040304928138
100
AcDbArc
 50
180.7535768612
 51
271.7007770083
  0
LINE
  5
15D
330
1F
100
AcDbEntity
  8
0
  6
Continuous
 62
     7
370
    25
100
AcDbLine
 10
211.8429238104
 20
86.2030097505
 30
0.0
 11
211.8429238104
 21
89.6622662132
 31
0.0
  0
LINE
  5
15E
330
1F
100
AcDbEntity
  8
0
  6
Continuous
 62
     7
370
    25
100
AcDbLine
 10
212.3516500136
 20
109.2078896854
 30
0.0
 11
212.3516500136
 21
105.7124170347
 31
0.0
  0
ARC
  5
15F
330
1F
100
AcDbEntity
  8
0
  6
Continuous
 62
     7
370
    25
100
AcDbCircle
 10
212.3369851051
 20
108.7140033287
 30
0.0
 40
0.4941040304927863
100
AcDbArc
 50
88.2992229917
 51
179.2464231388
  0
LINE
  5
160
330
1F
100
AcDbEntity
  8
0
  6
Continuous
 62
     7
370
    25
100
AcDbLine
 10
211.8429238104
 20
105.2612453312
 30
0.0
 11
211.8429238104
 21
108.7205017939
 31
0.0
  0
SPLINE
  5
161
330
1F
100
AcDbEntity
  8
0
  6
Continuous
 62
     7
370
    25
100
AcDbSpline
210
0.0
220
0.0
230
1.0
 70
     8
 71
     3
 72
    12
 73
     8
 74
     0
 42
0.00000001
 43
0.00000001
 40
0.0
 40
0.0
 40
0.0
 40
0.0
 40
0.1662426524176543
 40
0.3368059756191298
 40
0.6054181071254586
 40
0.880143508713619
 40
1.0
 40
1.0
 40
1.0
 40
1.0
 10
216.434157840329
 20
85.78509539052818
 30
0.0
 10
216.5336145476042
 20
85.94058056601118
 30
0.0
 10
216.7351128564831
 20
86.25559199936642
 30
0.0
 10
217.5573606125056
 20
86.91855710436494
 30
0.0
 10
218.9191897794922
 20
87.77075202117034
 30
0.0
 10
220.4802959681511
 20
88.61338069978243
 30
0.0
 10
221.4505356603127
 20
89.1512387924776
 30
0.0
 10
221.7452514780156
 20
89.31461624330487
 30
0.0
  0
LINE
  5
162
330
1F
100
AcDbEntity
  8
0
  6
Continuous
 62
     7
370
    25
100
AcDbLine
 10
216.4341578403
 20
85.7850953905
 30
0.0
 11
212.3516500136
 21
85.715621859
 31
0.0
  0
LWPOLYLINE
  5
163
330
1F
100
AcDbEntity
  8
0
  6
Continuous
 62
     7
370
    25
100
AcDbPolyline
 90
        3
 70
   128
 43
0.0
 10
221.745251478
 20
89.3146162433
 10
218.3429238104
 20
89.2770925397
 10
212.3516500305
 20
89.2110945098
  0
LINE
  5
164
330
1F
100
AcDbEntity
  8
0
  6
Continuous
 62
     7
370
    25
100
AcDbLine
 10
221.8309677675
 20
89.3161644265
 30
0.0
 11
221.7863614344
 21
89.3153578094
 31
0.0
  0
LINE
  5
165
330
1F
100
AcDbEntity
  8
0
  6
Continuous
 62
     7
370
    25
100
AcDbLine
 10
221.745251478
 20
89.3146162433
 30
0.0
 11
221.7863614344
 21
89.3153578094
 31
0.0
  0
LINE
  5
166
330
1F
100
AcDbEntity
  8
0
  6
Continuous
 62
     7
370
    25
100
AcDbLine
 10
216.3778286233
 20
109.092483987
 30
0.0
 11
216.3778286233
 21
109.1393747288
 31
0.0
  0
SPLINE
  5
167
330
1F
100
AcDbEntity
  8
0
  6
Continuous
 62
     7
370
    25
100
AcDbSpline
210
0.0
220
0.0
230
1.0
 70
     8
 71
     3
 72
    13
 73
     9
 74
     0
 42
0.00000001
 43
0.00000001
 40
0.0
 40
0.0
 40
0.0
 40
0.0
 40
0.0460329529079872
 40
0.249242584819372
 40
0.477522557027288
 40
0.7051721168687841
 40
0.8526808263814666
 40
1.0
 40
1.0
 40
1.0
 40
1.0
 10
220.8268376104022
 20
105.6190275323016
 30
0.0
 10
220.7248470760937
 20
105.6815365007382
 30
0.0
 10
220.1726256175012
 20
106.0199874556156
 30
0.0
 10
219.1315066930395
 20
106.6379648796446
 30
0.0
 10
217.8463062496589
 20
107.4484372063577
 30
0.0
 10
216.9537353495361
 20
108.1410620076224
 30
0.0
 10
216.4651928921445
 20
108.6912958093204
 30
0.0
 10
216.4069375626938
 20
108.9588119204263
 30
0.0
 10
216.3778286232597
 20
109.0924839869867
 30
0.0
  0
LWPOLYLINE
  5
168
330
1F
100
AcDbEntity
  8
0
  6
Continuous
 62
     7
370
    25
100
AcDbPolyline
 90
        3
 70
   128
 43
0.0
 10
220.8268376104
 20
105.6190275323
 10
218.3429238104
 20
105.6464190047
 10
212.3516500136
 20
105.7124170347
  0
LINE
  5
169
330
1F
100
AcDbEntity
  8
0
  6
Continuous
 62
     7
370
    25
100
AcDbLine
 10
216.3778286233
 20
109.1393747288
 30
0.0
 11
212.3516500136
 21
109.2078896854
 31
0.0
  0
LINE
  5
16A
330
1F
100
AcDbEntity
  8
0
  6
Continuous
 62
     7
370
    25
100
AcDbLine
 10
220.8650134144
 20
105.6183402296
 30
0.0
 11
220.8268376104
 21
105.6190275323
 31
0.0
  0
LINE
  5
16B
330
1F
100
AcDbEntity
  8
0
  6
Continuous
 62
     7
370
    25
100
AcDbLine
 10
220.8650134144
 20
105.6183402296
 30
0.0
 11
220.8975475536
 21
105.6177531887
 31
0.0
  0
LINE
  5
16C
330
1F
100
AcDbEntity
  8
0
  6
Continuous
 62
     7
370
    25
100
AcDbLine
 10
211.8429238104
 20
108.7205017939
 30
0.0
 11
211.8429238104
 21
108.9336453869
 31
0.0
  0
LINE
  5
16D
330
1F
100
AcDbEntity
  8
0
  6
Continuous
 62
     7
370
    25
100
AcDbLine
 10
211.8429238104
 20
85.9898661575
 30
0.0
 11
211.8429238104
 21
86.2030097505
 31
0.0
  0
LINE
  5
16E
330
1F
100
AcDbEntity
  8
0
  6
Continuous
 62
     7
370
    25
100
AcDbLine
 10
216.3778286233
 20
85.5768083253
 30
0.0
 11
216.4341578403
 21
85.7850953905
 31
0.0
  0
LINE
  5
16F
330
1F
100
AcDbEntity
  8
0
  6
Continuous
 62
     7
370
    25
100
AcDbLine
 10
70.8429238104
 20
105.9327914906
 30
0.0
 11
70.8429238104
 21
107.0312176194
 31
0.0
  0
SPLINE
  5
170
330
1F
100
AcDbEntity
  8
0
  6
Continuous
 62
     7
370
    25
100
AcDbSpline
210
0.0
220
0.0
230
1.0
 70
     8
 71
     3
 72
    13
 73
     9
 74
     0
 42
0.00000001
 43
0.00000001
 40
0.0
 40
0.0
 40
0.0
 40
0.0
 40
0.0295448902054266
 40
0.2606471239688194
 40
0.4913152552054734
 40
0.7308682638478785
 40
0.9709134921287365
 40
1.0
 40
1.0
 40
1.0
 40
1.0
 10
70.84292381038514
 20
105.9327914906253
 30
0.0
 10
70.81499899256929
 20
105.8712461835182
 30
0.0
 10
70.56864426251423
 20
105.3282891043172
 30
0.0
 10
70.20655557861686
 20
104.2728429385598
 30
0.0
 10
69.99480800842274
 20
102.7145077184762
 30
0.0
 10
70.18964864327485
 20
101.1336971220472
 30
0.0
 10
70.56099379949636
 20
100.0396938430939
 30
0.0
 10
70.81542596394142
 20
99.47908216010136
 30
0.0
 10
70.84292381038513
 20
99.41849385355967
 30
0.0
  0
LINE
  5
171
330
1F
100
AcDbEntity
  8
0
  6
Continuous
 62
     7
370
    25
100
AcDbLine
 10
70.8429238104
 20
96.8221916915
 30
0.0
 11
70.8429238104
 21
99.4184938536
 31
0.0
  0
SPLINE
  5
172
330
1F
100
AcDbEntity
  8
0
  6
Continuous
 62
     7
370
    25
100
AcDbSpline
210
0.0
220
0.0
230
1.0
 70
     8
 71
     3
 72
    11
 73
     7
 74
     0
 42
0.00000001
 43
0.00000001
 40
0.0
 40
0.0
 40
0.0
 40
0.0
 40
0.2431641197380918
 40
0.4936284730588935
 40
0.7421706076863281
 40
1.0
 40
1.0
 40
1.0
 40
1.0
 10
70.84292381038513
 20
96.82219169147493
 30
0.0
 10
70.63278348717635
 20
96.25311547111765
 30
0.0
 10
70.20619404221475
 20
95.09787831683829
 30
0.0
 10
69.99580961207177
 20
93.2652987495158
 30
0.0
 10
70.18649630573877
 20
91.39405365487455
 30
0.0
 10
70.62145547613346
 20
90.2076780549092
 30
0.0
 10
70.84292381038514
 20
89.60361071754801
 30
0.0
  0
LINE
  5
173
330
1F
100
AcDbEntity
  8
0
  6
Continuous
 62
     7
370
    25
100
AcDbLine
 10
70.8429238104
 20
88.1057346842
 30
0.0
 11
70.8429238104
 21
89.6036107175
 31
0.0
  0
SPLINE
  5
174
330
1F
100
AcDbEntity
  8
0
  6
Continuous
 62
     7
370
    25
100
AcDbSpline
210
0.0
220
0.0
230
1.0
 70
     8
 71
     3
 72
    11
 73
     7
 74
     0
 42
0.00000001
 43
0.00000001
 40
0.0
 40
0.0
 40
0.0
 40
0.0
 40
0.2431641197380915
 40
0.493628473058893
 40
0.7421706076863287
 40
1.0
 40
1.0
 40
1.0
 40
1.0
 10
70.84292381038512
 20
88.10573468422038
 30
0.0
 10
70.63278348717635
 20
88.05021256694424
 30
0.0
 10
70.20619404221475
 20
87.93750145643365
 30
0.0
 10
69.99580961207178
 20
87.75870520029974
 30
0.0
 10
70.18649630573877
 20
87.57613652868697
 30
0.0
 10
70.62145547613346
 20
87.4603873850073
 30
0.0
 10
70.84292381038514
 20
87.40145134735913
 30
0.0
  0
SPLINE
  5
175
330
1F
100
AcDbEntity
  8
0
  6
Continuous
 62
     7
370
    25
100
AcDbSpline
210
0.0
220
0.0
230
1.0
 70
     8
 71
     3
 72
     9
 73
     5
 74
     0
 42
0.00000001
 43
0.00000001
 40
0.0
 40
0.0
 40
0.0
 40
0.0
 40
0.3487394647221058
 40
1.0
 40
1.0
 40
1.0
 40
1.0
 10
70.14953532580336
 20
106.7537148077283
 30
0.0
 10
70.1738771603179
 20
106.7869281618285
 30
0.0
 10
70.24367664382052
 20
106.8821664627954
 30
0.0
 10
70.60657950122076
 20
106.9724315381138
 30
0.0
 10
70.84292381038513
 20
107.0312176193825
 30
0.0
  0
LINE
  5
176
330
1F
100
AcDbEntity
  8
0
  6
Continuous
 62
     7
370
    25
100
AcDbLine
 10
68.8429238104
 20
101.9573126473
 30
0.0
 11
68.8429238104
 21
105.4663344834
 31
0.0
  0
LINE
  5
177
330
1F
100
AcDbEntity
  8
0
  6
Continuous
 62
     7
370
    25
100
AcDbLine
 10
68.8429238104
 20
88.9663344834
 30
0.0
 11
68.8429238104
 21
101.9573126473
 31
0.0
  0
SPLINE
  5
178
330
1F
100
AcDbEntity
  8
0
  6
Continuous
 62
     7
370
    25
100
AcDbSpline
210
0.0
220
0.0
230
1.0
 70
     8
 71
     3
 72
    35
 73
    31
 74
     0
 42
0.00000001
 43
0.00000001
 40
0.0
 40
0.0
 40
0.0
 40
0.0
 40
0.0136053649911189
 40
0.0552984196138
 40
0.098376266218434
 40
0.1348149799350663
 40
0.1770064274516295
 40
0.2042550548959033
 40
0.2230420103939437
 40
0.2449092652734821
 40
0.266776511049358
 40
0.2864544166507043
 40
0.3067492257224687
 40
0.3404867283890612
 40
0.3828982751630746
 40
0.4369796045311874
 40
0.4812895058762646
 40
0.515820467220288
 40
0.5466310247821016
 40
0.5860554319809754
 40
0.6343568210265954
 40
0.6908503236376174
 40
0.7425644665279544
 40
0.7724920882050155
 40
0.7987680170232465
 40
0.8208698689368132
 40
0.8484676124508884
 40
0.8875283916233073
 40
0.9380431105357357
 40
1.0
 40
1.0
 40
1.0
 40
1.0
 10
76.24238531098767
 20
87.82847866723274
 30
0.0
 10
76.23968387227394
 20
87.82515531975237
 30
0.0
 10
76.22870399105427
 20
87.811647717155
 30
0.0
 10
76.2085433648602
 20
87.90510501530215
 30
0.0
 10
76.18392905320552
 20
88.10478331027552
 30
0.0
 10
76.15925693618739
 20
88.41685758292945
 30
0.0
 10
76.13790658919345
 20
88.77348151091483
 30
0.0
 10
76.12034267046502
 20
89.13157476057384
 30
0.0
 10
76.10727832543004
 20
89.43679089547776
 30
0.0
 10
76.09518654231994
 20
89.74124714955444
 30
0.0
 10
76.08291298647266
 20
90.07451511888586
 30
0.0
 10
76.0710951629319
 20
90.42114582828202
 30
0.0
 10
76.05631174336239
 20
90.85793278695756
 30
0.0
 10
76.03671601957015
 20
91.46925196674074
 30
0.0
 10
76.01005888254237
 20
92.36272880729595
 30
0.0
 10
75.98147224485871
 20
93.40861300202064
 30
0.0
 10
75.95484499377736
 20
94.45309211729145
 30
0.0
 10
75.93340714293537
 20
95.34196208132491
 30
0.0
 10
75.91355777190329
 20
96.20604280970223
 30
0.0
 10
75.89001638677762
 20
97.19455490652112
 30
0.0
 10
75.86102457888182
 20
98.39890653735043
 30
0.0
 10
75.82898353310233
 20
99.68473228337167
 30
0.0
 10
75.8009186775393
 20
100.7752555599294
 30
0.0
 10
75.77942283553274
 20
101.5877897654428
 30
0.0
 10
75.76402080527986
 20
102.1545948188238
 30
0.0
 10
75.7496070974095
 20
102.6828371450959
 30
0.0
 10
75.73239780237397
 20
103.2721045822509
 30
0.0
 10
75.70900046897725
 20
103.9928486922193
 30
0.0
 10
75.67845235829162
 20
104.8296388944252
 30
0.0
 10
75.65554352759143
 20
105.3012132391873
 30
0.0
 10
75.64292381038516
 20
105.560987950106
 30
0.0
  0
LINE
  5
179
330
1F
100
AcDbEntity
  8
0
  6
Continuous
 62
     7
370
    25
100
AcDbLine
 10
75.6429238104
 20
106.6163344834
 30
0.0
 11
75.6429238104
 21
105.5609879502
 31
0.0
  0
SPLINE
  5
17A
330
1F
100
AcDbEntity
  8
0
  6
Continuous
 62
     7
370
    25
100
AcDbSpline
210
0.0
220
0.0
230
1.0
 70
     8
 71
     3
 72
    31
 73
    27
 74
     0
 42
0.00000001
 43
0.00000001
 40
0.0
 40
0.0
 40
0.0
 40
0.0
 40
0.0224573384495717
 40
0.0709381830869329
 40
0.1114959024979147
 40
0.1570139385109289
 40
0.2157726892648096
 40
0.2841609664569765
 40
0.3339468090491164
 40
0.3737127042257485
 40
0.4269186331467609
 40
0.4885343144134106
 40
0.5546748245075511
 40
0.5888537524948343
 40
0.6329889039893063
 40
0.687076734506979
 40
0.7383184795114914
 40
0.7774644987995495
 40
0.8045101487142701
 40
0.819452223539463
 40
0.845556923406608
 40
0.8716617251623734
 40
0.8977666295640836
 40
0.9238716373690546
 40
0.9499767493345935
 40
1.0
 40
1.0
 40
1.0
 40
1.0
 10
76.29292381038513
 20
95.07372532493275
 30
0.0
 10
76.28997730299037
 20
95.1966373493662
 30
0.0
 10
76.28066988299015
 20
95.58489153685262
 30
0.0
 10
76.26627156328902
 20
96.21006540714623
 30
0.0
 10
76.24837148455252
 20
96.96741984951423
 30
0.0
 10
76.22877335907773
 20
97.78538811020874
 30
0.0
 10
76.20500013677459
 20
98.75560655191194
 30
0.0
 10
76.18064457891998
 20
99.73217347889818
 30
0.0
 10
76.15895955363628
 20
100.577073410394
 30
0.0
 10
76.13927137158339
 20
101.3170980708383
 30
0.0
 10
76.11866521117548
 20
102.087377065416
 30
0.0
 10
76.09557345075024
 20
102.9349188167453
 30
0.0
 10
76.07414070954765
 20
103.6298958565411
 30
0.0
 10
76.05452974902357
 20
104.1981317016671
 30
0.0
 10
76.03636751591775
 20
104.6802188352607
 30
0.0
 10
76.01571928333989
 20
105.1655790107523
 30
0.0
 10
75.99573712756997
 20
105.5693051857561
 30
0.0
 10
75.97959616325711
 20
105.8493416274542
 30
0.0
 10
75.96848857806887
 20
106.0176881393189
 30
0.0
 10
75.95939805557155
 20
106.1453266792001
 30
0.0
 10
75.95088502003716
 20
106.2580047791357
 30
0.0
 10
75.94068098107323
 20
106.3692189676927
 30
0.0
 10
75.9304585578088
 20
106.4610243344208
 30
0.0
 10
75.920133887138
 20
106.5294226836301
 30
0.0
 10
75.90662426591105
 20
106.6064301079568
 30
0.0
 10
75.89620686042507
 20
106.5754056109551
 30
0.0
 10
75.88936167857827
 20
106.5550196977862
 30
0.0
  0
SPLINE
  5
17B
330
1F
100
AcDbEntity
  8
0
  6
Continuous
 62
     7
370
    25
100
AcDbSpline
210
0.0
220
0.0
230
1.0
 70
     8
 71
     3
 72
    21
 73
    17
 74
     0
 42
0.00000001
 43
0.00000001
 40
0.0
 40
0.0
 40
0.0
 40
0.0
 40
0.0222630550975887
 40
0.1047185829061949
 40
0.1859520820033723
 40
0.2600435802597113
 40
0.3353537215774386
 40
0.4111551074492708
 40
0.4915297347561885
 40
0.57306995276965
 40
0.655514419766858
 40
0.736585132712837
 40
0.8173181656753211
 40
0.8997085843024686
 40
0.9815037200866409
 40
0.9999999999999999
 40
0.9999999999999999
 40
0.9999999999999999
 40
0.9999999999999999
 10
75.7909603684703
 20
88.63608244538482
 30
0.0
 10
75.78618860904254
 20
88.63054899662069
 30
0.0
 10
75.76374371623452
 20
88.60452135079117
 30
0.0
 10
75.72171334798254
 20
89.03847984608834
 30
0.0
 10
75.67097183020721
 20
89.89908024276545
 30
0.0
 10
75.62334694157153
 20
91.12679073957008
 30
0.0
 10
75.57325815128574
 20
92.59982381347214
 30
0.0
 10
75.52182963493722
 20
94.33872120783646
 30
0.0
 10
75.47318431336451
 20
96.2736038229677
 30
0.0
 10
75.42021628000408
 20
98.31451742956189
 30
0.0
 10
75.36532185976252
 20
100.301067877267
 30
0.0
 10
75.31353700900166
 20
102.110344988714
 30
0.0
 10
75.26262552997271
 20
103.6536781573651
 30
0.0
 10
75.20782066135365
 20
104.844379065177
 30
0.0
 10
75.16771380126744
 20
105.4272066595923
 30
0.0
 10
75.14678382810877
 20
105.6180523646856
 30
0.0
 10
75.14292381038514
 20
105.6532491515404
 30
0.0
  0
SPLINE
  5
17C
330
1F
100
AcDbEntity
  8
0
  6
Continuous
 62
     7
370
    25
100
AcDbSpline
210
0.0
220
0.0
230
1.0
 70
    24
 71
     3
 72
     9
 73
     5
 74
     0
 42
0.00000001
 43
0.00000001
 40
0.0
 40
0.0
 40
0.0
 40
0.0
 40
0.8336373099721256
 40
1.0
 40
1.0
 40
1.0
 40
1.0
 10
75.14292381038514
 20
105.6532491515404
 30
0.0
 10
75.14292381038514
 20
105.7968977446507
 30
0.0
 10
75.14292381038514
 20
105.9692132005354
 30
0.0
 10
75.14292381038514
 20
105.9266544179941
 30
0.0
 10
75.14292381038514
 20
105.9195742244462
 30
0.0
  0
SPLINE
  5
17D
330
1F
100
AcDbEntity
  8
0
  6
Continuous
 62
     7
370
    25
100
AcDbSpline
210
0.0
220
0.0
230
1.0
 70
     8
 71
     3
 72
    11
 73
     7
 74
     0
 42
0.00000001
 43
0.00000001
 40
0.0
 40
0.0
 40
0.0
 40
0.0
 40
0.170158758569659
 40
0.5148066094740512
 40
0.7558205066443097
 40
0.9999999999999999
 40
0.9999999999999999
 40
0.9999999999999999
 40
0.9999999999999999
 10
75.39132841546814
 20
106.3326816944401
 30
0.0
 10
75.406101580033
 20
106.3539399066944
 30
0.0
 10
75.45079703282521
 20
106.4182555391432
 30
0.0
 10
75.51089579934411
 20
106.2597896524218
 30
0.0
 10
75.58069210370837
 20
105.9706787408021
 30
0.0
 10
75.62208987626057
 20
105.6981442551627
 30
0.0
 10
75.64292381036856
 20
105.5609879502237
 30
0.0
  0
SPLINE
  5
17E
330
1F
100
AcDbEntity
  8
0
  6
Continuous
 62
     7
370
    25
100
AcDbSpline
210
0.0
220
0.0
230
1.0
 70
     8
 71
     3
 72
    16
 73
    12
 74
     0
 42
0.00000001
 43
0.00000001
 40
0.0
 40
0.0
 40
0.0
 40
0.0
 40
0.07921406387135
 40
0.1934397168971926
 40
0.3076653699220779
 40
0.4218677295428687
 40
0.5346865681724862
 40
0.6475054053740946
 40
0.7603242420221167
 40
0.8782804502979503
 40
1.0
 40
1.0
 40
1.0
 40
1.0
 10
75.3519268714314
 20
88.13388017316257
 30
0.0
 10
75.34645714601331
 20
88.14043717203906
 30
0.0
 10
75.33310014746189
 20
88.15644927827847
 30
0.0
 10
75.31116545760258
 20
88.4700318086089
 30
0.0
 10
75.28692430000314
 20
89.0251429665686
 30
0.0
 10
75.26404415259438
 20
89.81093020579624
 30
0.0
 10
75.24114403081389
 20
90.79267469367997
 30
0.0
 10
75.21698633366336
 20
91.94505171452367
 30
0.0
 10
75.19226903036399
 20
93.2591924168242
 30
0.0
 10
75.16724269919712
 20
94.71912615299894
 30
0.0
 10
75.15111452048166
 20
95.76599759917131
 30
0.0
 10
75.14292381038514
 20
96.29765220662557
 30
0.0
  0
SPLINE
  5
17F
330
1F
100
AcDbEntity
  8
0
  6
Continuous
 62
     7
370
    25
100
AcDbSpline
210
0.0
220
0.0
230
1.0
 70
    24
 71
     3
 72
    11
 73
     7
 74
     0
 42
0.00000001
 43
0.00000001
 40
0.0
 40
0.0
 40
0.0
 40
0.0
 40
0.3288597515850207
 40
0.576873250531387
 40
0.8321686270520489
 40
1.0
 40
1.0
 40
1.0
 40
1.0
 10
75.14292381038514
 20
96.29765220662557
 30
0.0
 10
75.14292381038514
 20
96.94774424838425
 30
0.0
 10
75.14292381038514
 20
98.08811094715603
 30
0.0
 10
75.14292381038514
 20
99.68299716484516
 30
0.0
 10
75.14292381038514
 20
100.9040723667383
 30
0.0
 10
75.14292381038514
 20
101.6012511251501
 30
0.0
 10
75.14292381038514
 20
101.8777840277883
 30
0.0
  0
SPLINE
  5
180
330
1F
100
AcDbEntity
  8
0
  6
Continuous
 62
     7
370
    25
100
AcDbSpline
210
0.0
220
0.0
230
1.0
 70
     8
 71
     3
 72
    18
 73
    14
 74
     0
 42
0.00000001
 43
0.00000001
 40
0.0
 40
0.0
 40
0.0
 40
0.0
 40
0.0427511124186422
 40
0.1317347277792883
 40
0.1605268828733665
 40
0.2672993140448324
 40
0.372174065055051
 40
0.4794331305727548
 40
0.5868449105087904
 40
0.691840015536222
 40
0.7983577558499952
 40
0.906056736749947
 40
0.9999999999999999
 40
0.9999999999999999
 40
0.9999999999999999
 40
0.9999999999999999
 10
75.63911748514847
 20
88.63838075609806
 30
0.0
 10
75.63223162010364
 20
88.61266137127272
 30
0.0
 10
75.61101328200942
 20
88.53340878655776
 30
0.0
 10
75.58351963747228
 20
88.69993836720943
 30
0.0
 10
75.54561610416663
 20
89.05742885181058
 30
0.0
 10
75.50524692878439
 20
89.66927276927935
 30
0.0
 10
75.45556990477759
 20
90.88636790367872
 30
0.0
 10
75.40128056824149
 20
92.45444116270586
 30
0.0
 10
75.34675994693573
 20
94.28626830962202
 30
0.0
 10
75.2967927611675
 20
96.27437183931553
 30
0.0
 10
75.2438334451033
 20
98.3115465044613
 30
0.0
 10
75.19096357967892
 20
100.2374631200974
 30
0.0
 10
75.15819185492809
 20
101.3564556981242
 30
0.0
 10
75.14292381038514
 20
101.8777840277883
 30
0.0
  0
LINE
  5
181
330
1F
100
AcDbEntity
  8
0
  6
Continuous
 62
     7
370
    25
100
AcDbLine
 10
73.3929238104
 20
96.8221916915
 30
0.0
 11
73.6429238104
 21
96.1866136731
 31
0.0
  0
LINE
  5
182
330
1F
100
AcDbEntity
  8
0
  6
Continuous
 62
     7
370
    25
100
AcDbLine
 10
73.6429238104
 20
90.2391887359
 30
0.0
 11
73.3929238104
 21
89.6036107175
 31
0.0
  0
LINE
  5
183
330
1F
100
AcDbEntity
  8
0
  6
Continuous
 62
     7
370
    25
100
AcDbLine
 10
70.8429238104
 20
89.6036107175
 30
0.0
 11
73.3929238104
 21
89.6036107175
 31
0.0
  0
LINE
  5
184
330
1F
100
AcDbEntity
  8
0
  6
Continuous
 62
     7
370
    25
100
AcDbLine
 10
73.3929238104
 20
96.8221916915
 30
0.0
 11
70.8429238104
 21
96.8221916915
 31
0.0
  0
LINE
  5
185
330
1F
100
AcDbEntity
  8
0
  6
Continuous
 62
     7
370
    25
100
AcDbLine
 10
73.6429238104
 20
90.2391887359
 30
0.0
 11
73.6429238104
 21
96.1866136731
 31
0.0
  0
LINE
  5
186
330
1F
100
AcDbEntity
  8
0
  6
Continuous
 62
     7
370
    25
100
AcDbLine
 10
75.1429238104
 20
88.3163344834
 30
0.0
 11
75.1429238104
 21
96.2976522066
 31
0.0
  0
SPLINE
  5
187
330
1F
100
AcDbEntity
  8
0
  6
Continuous
 62
     7
370
    25
100
AcDbSpline
210
0.0
220
0.0
230
1.0
 70
    24
 71
     3
 72
    12
 73
     8
 74
     0
 42
0.00000001
 43
0.00000001
 40
0.0
 40
0.0
 40
0.0
 40
0.0
 40
0.0521018055011196
 40
0.2611691449968259
 40
0.4731768396375531
 40
0.6851845342782805
 40
1.0
 40
1.0
 40
1.0
 40
1.0
 10
75.14292381038514
 20
101.8777840277883
 30
0.0
 10
75.14292381038514
 20
101.9759673232056
 30
0.0
 10
75.14292381038511
 20
102.468127759307
 30
0.0
 10
75.14292381038516
 20
103.2931273146578
 30
0.0
 10
75.14292381038514
 20
104.2266660128242
 30
0.0
 10
75.14292381038514
 20
105.1163621534066
 30
0.0
 10
75.14292381038514
 20
105.4524262269275
 30
0.0
 10
75.14292381038514
 20
105.6532491515404
 30
0.0
  0
LINE
  5
188
330
1F
100
AcDbEntity
  8
0
  6
Continuous
 62
     7
370
    25
100
AcDbLine
 10
73.3929238104
 20
96.8221916915
 30
0.0
 11
73.3929238104
 21
99.4184938536
 31
0.0
  0
LINE
  5
189
330
1F
100
AcDbEntity
  8
0
  6
Continuous
 62
     7
370
    25
100
AcDbLine
 10
73.6429238104
 20
99.9920614838
 30
0.0
 11
73.3929238104
 21
99.4184938536
 31
0.0
  0
LINE
  5
18A
330
1F
100
AcDbEntity
  8
0
  6
Continuous
 62
     7
370
    25
100
AcDbLine
 10
73.6429238104
 20
99.9920614838
 30
0.0
 11
73.6429238104
 21
96.1866136731
 31
0.0
  0
LINE
  5
18B
330
1F
100
AcDbEntity
  8
0
  6
Continuous
 62
     7
370
    25
100
AcDbLine
 10
70.8429238104
 20
99.4184938536
 30
0.0
 11
73.3929238104
 21
99.4184938536
 31
0.0
  0
LINE
  5
18C
330
1F
100
AcDbEntity
  8
0
  6
Continuous
 62
     7
370
    25
100
AcDbLine
 10
73.3929238104
 20
105.9327914906
 30
0.0
 11
73.6429238104
 21
105.3592238604
 31
0.0
  0
LINE
  5
18D
330
1F
100
AcDbEntity
  8
0
  6
Continuous
 62
     7
370
    25
100
AcDbLine
 10
73.3929238104
 20
105.9327914906
 30
0.0
 11
70.8429238104
 21
105.9327914906
 31
0.0
  0
LINE
  5
18E
330
1F
100
AcDbEntity
  8
0
  6
Continuous
 62
     7
370
    25
100
AcDbLine
 10
73.6429238104
 20
99.9920614838
 30
0.0
 11
73.6429238104
 21
105.3592238604
 31
0.0
  0
LINE
  5
18F
330
1F
100
AcDbEntity
  8
0
  6
Continuous
 62
     7
370
    25
100
AcDbLine
 10
73.3929238104
 20
88.1057346842
 30
0.0
 11
73.6429238104
 21
88.0437242961
 31
0.0
  0
LINE
  5
190
330
1F
100
AcDbEntity
  8
0
  6
Continuous
 62
     7
370
    25
100
AcDbLine
 10
73.3929238104
 20
88.1057346842
 30
0.0
 11
73.3929238104
 21
89.6036107175
 31
0.0
  0
LINE
  5
191
330
1F
100
AcDbEntity
  8
0
  6
Continuous
 62
     7
370
    25
100
AcDbLine
 10
73.6429238104
 20
90.2391887359
 30
0.0
 11
73.6429238104
 21
88.0437242961
 31
0.0
  0
LINE
  5
192
330
1F
100
AcDbEntity
  8
0
  6
Continuous
 62
     7
370
    25
100
AcDbLine
 10
73.3929238104
 20
88.1057346842
 30
0.0
 11
70.8429238104
 21
88.1057346842
 31
0.0
  0
LINE
  5
193
330
1F
100
AcDbEntity
  8
0
  6
Continuous
 62
     7
370
    25
100
AcDbLine
 10
73.3929238104
 20
105.9327914906
 30
0.0
 11
73.3929238104
 21
107.0312176194
 31
0.0
  0
LINE
  5
194
330
1F
100
AcDbEntity
  8
0
  6
Continuous
 62
     7
370
    25
100
AcDbLine
 10
73.6429238104
 20
106.9692072313
 30
0.0
 11
73.3929238104
 21
107.0312176194
 31
0.0
  0
LINE
  5
195
330
1F
100
AcDbEntity
  8
0
  6
Continuous
 62
     7
370
    25
100
AcDbLine
 10
73.6429238104
 20
106.9692072313
 30
0.0
 11
73.6429238104
 21
105.3592238604
 31
0.0
  0
LINE
  5
196
330
1F
100
AcDbEntity
  8
0
  6
Continuous
 62
     7
370
    25
100
AcDbLine
 10
70.8429238104
 20
107.0312176194
 30
0.0
 11
73.3929238104
 21
107.0312176194
 31
0.0
  0
LINE
  5
197
330
1F
100
AcDbEntity
  8
0
  6
Continuous
 62
     7
370
    25
100
AcDbLine
 10
73.6429238104
 20
87.4634617354
 30
0.0
 11
73.3929238104
 21
87.4014513474
 31
0.0
  0
LINE
  5
198
330
1F
100
AcDbEntity
  8
0
  6
Continuous
 62
     7
370
    25
100
AcDbLine
 10
70.8429238104
 20
87.4014513474
 30
0.0
 11
73.3929238104
 21
87.4014513474
 31
0.0
  0
LINE
  5
199
330
1F
100
AcDbEntity
  8
0
  6
Continuous
 62
     7
370
    25
100
AcDbLine
 10
73.6429238104
 20
87.4634617354
 30
0.0
 11
73.6429238104
 21
88.0437242961
 31
0.0
  0
LINE
  5
19A
330
1F
100
AcDbEntity
  8
0
  6
Continuous
 62
     7
370
    25
100
AcDbLine
 10
203.1929238104
 20
99.4184938536
 30
0.0
 11
203.1929238104
 21
96.8221916915
 31
0.0
  0
SPLINE
  5
19B
330
1F
100
AcDbEntity
  8
0
  6
Continuous
 62
     7
370
    25
100
AcDbSpline
210
0.0
220
0.0
230
1.0
 70
     8
 71
     3
 72
    13
 73
     9
 74
     0
 42
0.00000001
 43
0.00000001
 40
0.0
 40
0.0
 40
0.0
 40
0.0
 40
0.0295448902054266
 40
0.2606471239688193
 40
0.491315255205473
 40
0.7308682638478775
 40
0.9709134921287355
 40
1.0
 40
1.0
 40
1.0
 40
1.0
 10
203.1929238103851
 20
99.41849385355967
 30
0.0
 10
203.220848628201
 20
99.4800391606668
 30
0.0
 10
203.4672033582561
 20
100.0229962398679
 30
0.0
 10
203.8292920421534
 20
101.0784424056252
 30
0.0
 10
204.0410396123476
 20
102.6367776257088
 30
0.0
 10
203.8461989774954
 20
104.2175882221378
 30
0.0
 10
203.474853821274
 20
105.3115915010911
 30
0.0
 10
203.2204216568288
 20
105.8722031840836
 30
0.0
 10
203.1929238103851
 20
105.9327914906253
 30
0.0
  0
LINE
  5
19C
330
1F
100
AcDbEntity
  8
0
  6
Continuous
 62
     7
370
    25
100
AcDbLine
 10
203.1929238104
 20
107.0312176194
 30
0.0
 11
203.1929238104
 21
105.9327914906
 31
0.0
  0
SPLINE
  5
19D
330
1F
100
AcDbEntity
  8
0
  6
Continuous
 62
     7
370
    25
100
AcDbSpline
210
0.0
220
0.0
230
1.0
 70
     8
 71
     3
 72
     9
 73
     5
 74
     0
 42
0.00000001
 43
0.00000001
 40
0.0
 40
0.0
 40
0.0
 40
0.0
 40
0.6141669735876237
 40
0.9999999999999999
 40
0.9999999999999999
 40
0.9999999999999999
 40
0.9999999999999999
 10
203.1929238103852
 20
107.0312176193825
 30
0.0
 10
203.4154752108052
 20
106.9758233871014
 30
0.0
 10
203.7778382325745
 20
106.8856292954891
 30
0.0
 10
203.8570786860585
 20
106.7904238088626
 30
0.0
 10
203.8876522700405
 20
106.7536903878264
 30
0.0
  0
SPLINE
  5
19E
330
1F
100
AcDbEntity
  8
0
  6
Continuous
 62
     7
370
    25
100
AcDbSpline
210
0.0
220
0.0
230
1.0
 70
     8
 71
     3
 72
    11
 73
     7
 74
     0
 42
0.00000001
 43
0.00000001
 40
0.0
 40
0.0
 40
0.0
 40
0.0
 40
0.243164119738092
 40
0.4936284730588932
 40
0.742170607686328
 40
1.0
 40
1.0
 40
1.0
 40
1.0
 10
203.1929238103852
 20
87.40145134735913
 30
0.0
 10
203.4030641335939
 20
87.45697346463527
 30
0.0
 10
203.8296535785555
 20
87.56968457514586
 30
0.0
 10
204.0400380086985
 20
87.74848083127976
 30
0.0
 10
203.8493513150316
 20
87.93104950289256
 30
0.0
 10
203.4143921446368
 20
88.04679864657223
 30
0.0
 10
203.1929238103851
 20
88.10573468422038
 30
0.0
  0
LINE
  5
19F
330
1F
100
AcDbEntity
  8
0
  6
Continuous
 62
     7
370
    25
100
AcDbLine
 10
203.1929238104
 20
89.6036107175
 30
0.0
 11
203.1929238104
 21
88.1057346842
 31
0.0
  0
SPLINE
  5
1A0
330
1F
100
AcDbEntity
  8
0
  6
Continuous
 62
     7
370
    25
100
AcDbSpline
210
0.0
220
0.0
230
1.0
 70
     8
 71
     3
 72
    11
 73
     7
 74
     0
 42
0.00000001
 43
0.00000001
 40
0.0
 40
0.0
 40
0.0
 40
0.0
 40
0.2431641197380919
 40
0.4936284730588941
 40
0.7421706076863291
 40
1.0
 40
1.0
 40
1.0
 40
1.0
 10
203.1929238103851
 20
89.603610717548
 30
0.0
 10
203.4030641335939
 20
90.17268693790525
 30
0.0
 10
203.8296535785555
 20
91.32792409218463
 30
0.0
 10
204.0400380086985
 20
93.16050365950713
 30
0.0
 10
203.8493513150316
 20
95.03174875414835
 30
0.0
 10
203.4143921446368
 20
96.21812435411373
 30
0.0
 10
203.1929238103851
 20
96.82219169147493
 30
0.0
  0
LINE
  5
1A1
330
1F
100
AcDbEntity
  8
0
  6
Continuous
 62
     7
370
    25
100
AcDbLine
 10
205.1929238104
 20
101.9573126473
 30
0.0
 11
205.1929238104
 21
88.9663344834
 31
0.0
  0
LINE
  5
1A2
330
1F
100
AcDbEntity
  8
0
  6
Continuous
 62
     7
370
    25
100
AcDbLine
 10
205.1929238104
 20
105.4663344834
 30
0.0
 11
205.1929238104
 21
101.9573126473
 31
0.0
  0
SPLINE
  5
1A3
330
1F
100
AcDbEntity
  8
0
  6
Continuous
 62
     7
370
    25
100
AcDbSpline
210
0.0
220
0.0
230
1.0
 70
     8
 71
     3
 72
    21
 73
    17
 74
     0
 42
0.00000001
 43
0.00000001
 40
0.0
 40
0.0
 40
0.0
 40
0.0
 40
0.0116710005380292
 40
0.0774648313207502
 40
0.136169962358004
 40
0.211287557553504
 40
0.3033189778715459
 40
0.4109593043044533
 40
0.5094932412111708
 40
0.5665160636206787
 40
0.6165811051670752
 40
0.6586930374211026
 40
0.7112766086880599
 40
0.7857013624476643
 40
0.8819499677224856
 40
1.0
 40
1.0
 40
1.0
 40
1.0
 10
198.0791696828026
 20
106.6006580810703
 30
0.0
 10
198.0803954807671
 20
106.6011195829614
 30
0.0
 10
198.0885315640657
 20
106.60418274503
 30
0.0
 10
198.1024176019235
 20
106.5229709238496
 30
0.0
 10
198.122297484657
 20
106.3645291931888
 30
0.0
 10
198.1458284264596
 20
106.0848858083615
 30
0.0
 10
198.1748240153217
 20
105.615467049928
 30
0.0
 10
198.2068638308076
 20
104.9413519574782
 30
0.0
 10
198.2349289794582
 20
104.2107016178574
 30
0.0
 10
198.2564247788003
 20
103.5688080819488
 30
0.0
 10
198.2718268168206
 20
103.0701300818966
 30
0.0
 10
198.2862405229419
 20
102.5610407354755
 30
0.0
 10
198.3034498185748
 20
101.9382520047244
 30
0.0
 10
198.3268471517213
 20
101.071273608118
 30
0.0
 10
198.3573952625037
 20
99.8883633706089
 30
0.0
 10
198.3803040931878
 20
98.96317547330501
 30
0.0
 10
198.3929238103852
 20
98.45352005791389
 30
0.0
  0
LINE
  5
1A4
330
1F
100
AcDbEntity
  8
0
  6
Continuous
 62
     7
370
    25
100
AcDbLine
 10
198.3929238104
 20
87.8981065712
 30
0.0
 11
198.3929238104
 21
98.4535200576
 31
0.0
  0
SPLINE
  5
1A5
330
1F
100
AcDbEntity
  8
0
  6
Continuous
 62
     7
370
    25
100
AcDbSpline
210
0.0
220
0.0
230
1.0
 70
     8
 71
     3
 72
    43
 73
    39
 74
     0
 42
0.00000001
 43
0.00000001
 40
0.0
 40
0.0
 40
0.0
 40
0.0
 40
0.0002030662691867
 40
0.0228724456299861
 40
0.0520682587240469
 40
0.0810820458872356
 40
0.1053541691890584
 40
0.1325948375158272
 40
0.1677595278404291
 40
0.2086870928148555
 40
0.2384818674627214
 40
0.2622801165988213
 40
0.294121671940544
 40
0.330996117416021
 40
0.3705784864339335
 40
0.3910331659987525
 40
0.4174462349428705
 40
0.4498155720387229
 40
0.4804816442689414
 40
0.503908923236654
 40
0.520094629904625
 40
0.5290368457838529
 40
0.5446594326337649
 40
0.5602820804598163
 40
0.5759047897152348
 40
0.5915275608532427
 40
0.6071503943270569
 40
0.6850931766547635
 40
0.7125476407739687
 40
0.7377809884516945
 40
0.760792938137617
 40
0.7815832331816781
 40
0.8164859762481163
 40
0.8425066813291721
 40
0.8663481433125491
 40
0.9005501427346124
 40
0.9451043711708834
 40
1.0
 40
1.0
 40
1.0
 40
1.0
 10
197.7173733532036
 20
106.6161522090674
 30
0.0
 10
197.7174192929153
 20
106.6162128835116
 30
0.0
 10
197.7225937296347
 20
106.62304697236
 30
0.0
 10
197.7340047885706
 20
106.5951572530547
 30
0.0
 10
197.7517594221755
 20
106.5145642809628
 30
0.0
 10
197.7695800731345
 20
106.3582045321071
 30
0.0
 10
197.787475014092
 20
106.1482632776712
 30
0.0
 10
197.8070746783762
 20
105.8616157871265
 30
0.0
 10
197.8308473366534
 20
105.4356393867653
 30
0.0
 10
197.8552030716381
 20
104.898694001845
 30
0.0
 10
197.8768880618435
 20
104.342806326242
 30
0.0
 10
197.8965762509557
 20
103.7915009044483
 30
0.0
 10
197.9171824089723
 20
103.1428682478157
 30
0.0
 10
197.9402741702127
 20
102.3166099954201
 30
0.0
 10
197.9617069112061
 20
101.519697992946
 30
0.0
 10
197.9813178717353
 20
100.7769760358343
 30
0.0
 10
197.9994801049507
 20
100.0758260249818
 30
0.0
 10
198.0201283369748
 20
99.26110924648705
 30
0.0
 10
198.0401104946342
 20
98.45694631069018
 30
0.0
 10
198.0562514540468
 20
97.79669685856922
 30
0.0
 10
198.067359049767
 20
97.33908983963411
 30
0.0
 10
198.0764495473454
 20
96.95498919577494
 30
0.0
 10
198.0849627282836
 20
96.57643521829891
 30
0.0
 10
198.0951661715163
 20
96.13638713527735
 30
0.0
 10
198.1053908081439
 20
95.69873148591765
 30
0.0
 10
198.1157072210476
 20
95.26437809983342
 30
0.0
 10
198.1398887663361
 20
94.26295947144938
 30
0.0
 10
198.1675128863644
 20
93.18823462632409
 30
0.0
 10
198.1976283499713
 20
92.12697602260616
 30
0.0
 10
198.2149703886978
 20
91.54219613426775
 30
0.0
 10
198.2307248642238
 20
91.03760587566681
 30
0.0
 10
198.2485609579244
 20
90.49459581769385
 30
0.0
 10
198.2669935684461
 20
89.9759602614322
 30
0.0
 10
198.2854052777733
 20
89.4951470987998
 30
0.0
 10
198.3037544112044
 20
89.06675437366037
 30
0.0
 10
198.3269475190108
 20
88.61887093707746
 30
0.0
 10
198.3573918287593
 20
88.15776878383288
 30
0.0
 10
198.3802862495193
 20
87.9904599066114
 30
0.0
 10
198.3929238103852
 20
87.89810657120883
 30
0.0
  0
SPLINE
  5
1A6
330
1F
100
AcDbEntity
  8
0
  6
Continuous
 62
     7
370
    25
100
AcDbSpline
210
0.0
220
0.0
230
1.0
 70
     8
 71
     3
 72
     9
 73
     5
 74
     0
 42
0.00000001
 43
0.00000001
 40
0.0
 40
0.0
 40
0.0
 40
0.0
 40
0.6910565533579961
 40
1.0
 40
1.0
 40
1.0
 40
1.0
 10
197.7429238103852
 20
88.93991536391259
 30
0.0
 10
197.7576264689951
 20
88.78599882504662
 30
0.0
 10
197.7789020918635
 20
88.563272424265
 30
0.0
 10
197.7991822439962
 20
88.6177907722512
 30
0.0
 10
197.8054476640945
 20
88.63463385858327
 30
0.0
  0
SPLINE
  5
1A7
330
1F
100
AcDbEntity
  8
0
  6
Continuous
 62
     7
370
    25
100
AcDbSpline
210
0.0
220
0.0
230
1.0
 70
     8
 71
     3
 72
    15
 73
    11
 74
     0
 42
0.00000001
 43
0.00000001
 40
0.0
 40
0.0
 40
0.0
 40
0.0
 40
0.1162215925187182
 40
0.2579476460315216
 40
0.4012453857990527
 40
0.542155386792747
 40
0.6824784620634426
 40
0.8256822596957425
 40
0.9678513889139251
 40
0.9999999999999999
 40
0.9999999999999999
 40
0.9999999999999999
 40
0.9999999999999999
 10
198.5208528953257
 20
105.811903115795
 30
0.0
 10
198.5347977671
 20
105.7693663117839
 30
0.0
 10
198.5657476686668
 20
105.6749581366198
 30
0.0
 10
198.6155854265083
 20
104.9688886869949
 30
0.0
 10
198.6705378933241
 20
103.8393480372853
 30
0.0
 10
198.7223074004889
 20
102.3365053347703
 30
0.0
 10
198.7732229720291
 20
100.558702653599
 30
0.0
 10
198.8280267139205
 20
98.59111797412866
 30
0.0
 10
198.8681338304243
 20
97.0635821547192
 30
0.0
 10
198.8890637943621
 20
96.23894969439118
 30
0.0
 10
198.8929238103852
 20
96.08686656039825
 30
0.0
  0
SPLINE
  5
1A8
330
1F
100
AcDbEntity
  8
0
  6
Continuous
 62
     7
370
    25
100
AcDbSpline
210
0.0
220
0.0
230
1.0
 70
    24
 71
     3
 72
    11
 73
     7
 74
     0
 42
0.00000001
 43
0.00000001
 40
0.0
 40
0.0
 40
0.0
 40
0.0
 40
0.3181620477431247
 40
0.5647114431461153
 40
0.818410819267221
 40
1.0
 40
1.0
 40
1.0
 40
1.0
 10
198.8929238103852
 20
96.08686656039825
 30
0.0
 10
198.8929238103852
 20
95.4628786835603
 30
0.0
 10
198.8929238103852
 20
94.35535156983198
 30
0.0
 10
198.8929238103852
 20
92.85599401740754
 30
0.0
 10
198.8929238103852
 20
91.69813668212684
 30
0.0
 10
198.8929238103852
 20
91.05542358230093
 30
0.0
 10
198.8929238103852
 20
90.78730317480124
 30
0.0
  0
SPLINE
  5
1A9
330
1F
100
AcDbEntity
  8
0
  6
Continuous
 62
     7
370
    25
100
AcDbSpline
210
0.0
220
0.0
230
1.0
 70
     8
 71
     3
 72
    13
 73
     9
 74
     0
 42
0.00000001
 43
0.00000001
 40
0.0
 40
0.0
 40
0.0
 40
0.0
 40
0.2187316754180425
 40
0.393147377746412
 40
0.5714254113794046
 40
0.7494200729435005
 40
0.8738925945231121
 40
1.0
 40
1.0
 40
1.0
 40
1.0
 10
198.8929238103852
 20
90.78730317480124
 30
0.0
 10
198.8551960034786
 20
91.22254672722447
 30
0.0
 10
198.7873842047298
 20
92.00485162654546
 30
0.0
 10
198.688570776117
 20
93.39907956099927
 30
0.0
 10
198.5995592398658
 20
94.80017436190381
 30
0.0
 10
198.5248463129287
 20
96.14778272749078
 30
0.0
 10
198.4551782340231
 20
97.37333613720702
 30
0.0
 10
198.4137653496952
 20
98.09189602656124
 30
0.0
 10
198.3929238104018
 20
98.45352005762655
 30
0.0
  0
LINE
  5
1AA
330
1F
100
AcDbEntity
  8
0
  6
Continuous
 62
     7
370
    25
100
AcDbLine
 10
198.3929238104
 20
87.8981065712
 30
0.0
 11
198.4118547291
 21
87.8779225863
 31
0.0
  0
SPLINE
  5
1AB
330
1F
100
AcDbEntity
  8
0
  6
Continuous
 62
     7
370
    25
100
AcDbSpline
210
0.0
220
0.0
230
1.0
 70
     8
 71
     3
 72
     9
 73
     5
 74
     0
 42
0.00000001
 43
0.00000001
 40
0.0
 40
0.0
 40
0.0
 40
0.0
 40
0.2575807037701688
 40
1.0
 40
1.0
 40
1.0
 40
1.0
 10
198.859184549401
 20
106.1188521585211
 30
0.0
 10
198.8621782035082
 20
106.1246778297088
 30
0.0
 10
198.8738004021565
 20
106.1472947070697
 30
0.0
 10
198.8847756067298
 20
105.9794575259742
 30
0.0
 10
198.8929238103852
 20
105.854851964104
 30
0.0
  0
SPLINE
  5
1AC
330
1F
100
AcDbEntity
  8
0
  6
Continuous
 62
     7
370
    25
100
AcDbSpline
210
0.0
220
0.0
230
1.0
 70
    24
 71
     3
 72
    11
 73
     7
 74
     0
 42
0.00000001
 43
0.00000001
 40
0.0
 40
0.0
 40
0.0
 40
0.0
 40
0.3288597515850213
 40
0.5768732505313877
 40
0.8321686270520492
 40
1.0
 40
1.0
 40
1.0
 40
1.0
 10
198.8929238103852
 20
105.854851964104
 30
0.0
 10
198.8929238103852
 20
105.6330375213838
 30
0.0
 10
198.8929238103852
 20
105.2439390744924
 30
0.0
 10
198.8929238103851
 20
104.3086610205681
 30
0.0
 10
198.8929238103852
 20
103.4029954121022
 30
0.0
 10
198.8929238103852
 20
102.7363692952514
 30
0.0
 10
198.8929238103852
 20
102.4719549641449
 30
0.0
  0
SPLINE
  5
1AD
330
1F
100
AcDbEntity
  8
0
  6
Continuous
 62
     7
370
    25
100
AcDbSpline
210
0.0
220
0.0
230
1.0
 70
     8
 71
     3
 72
    13
 73
     9
 74
     0
 42
0.00000001
 43
0.00000001
 40
0.0
 40
0.0
 40
0.0
 40
0.0
 40
0.0339587930802228
 40
0.2675476781701356
 40
0.4959088467197975
 40
0.7272597095461323
 40
0.9613965972535151
 40
1.0
 40
1.0
 40
1.0
 40
1.0
 10
197.7429238103852
 20
93.00408132192189
 30
0.0
 10
197.7455361621654
 20
92.9133789585789
 30
0.0
 10
197.7661178315936
 20
92.19877150301855
 30
0.0
 10
197.8054453234478
 20
91.09515039566423
 30
0.0
 10
197.8554229916491
 20
89.800565398278
 30
0.0
 10
197.9080996647754
 20
88.9720321581584
 30
0.0
 10
197.9482880614051
 20
88.57828585329688
 30
0.0
 10
197.968768007294
 20
88.6162974957134
 30
0.0
 10
197.9716667194647
 20
88.62167762762871
 30
0.0
  0
SPLINE
  5
1AE
330
1F
100
AcDbEntity
  8
0
  6
Continuous
 62
     7
370
    25
100
AcDbSpline
210
0.0
220
0.0
230
1.0
 70
     8
 71
     3
 72
    12
 73
     8
 74
     0
 42
0.00000001
 43
0.00000001
 40
0.0
 40
0.0
 40
0.0
 40
0.0
 40
0.0058596617562988
 40
0.2585005510515149
 40
0.514805229555886
 40
0.7739522279197002
 40
1.0
 40
1.0
 40
1.0
 40
1.0
 10
198.6875177569826
 20
105.8472003112277
 30
0.0
 10
198.687927400581
 20
105.8489793236451
 30
0.0
 10
198.7059989378685
 20
105.9274609339097
 30
0.0
 10
198.7388399194998
 20
105.6509061763735
 30
0.0
 10
198.7920728201802
 20
104.9837299668371
 30
0.0
 10
198.8448714851791
 20
103.8892045017847
 30
0.0
 10
198.8776517753104
 20
102.9223865417165
 30
0.0
 10
198.8929238103852
 20
102.4719549641449
 30
0.0
  0
LINE
  5
1AF
330
1F
100
AcDbEntity
  8
0
  6
Continuous
 62
     7
370
    25
100
AcDbLine
 10
200.6429238104
 20
89.6036107175
 30
0.0
 11
200.3929238104
 21
90.2391887359
 31
0.0
  0
LINE
  5
1B0
330
1F
100
AcDbEntity
  8
0
  6
Continuous
 62
     7
370
    25
100
AcDbLine
 10
200.3929238104
 20
96.1866136731
 30
0.0
 11
200.6429238104
 21
96.8221916915
 31
0.0
  0
LINE
  5
1B1
330
1F
100
AcDbEntity
  8
0
  6
Continuous
 62
     7
370
    25
100
AcDbLine
 10
203.1929238104
 20
96.8221916915
 30
0.0
 11
200.6429238104
 21
96.8221916915
 31
0.0
  0
LINE
  5
1B2
330
1F
100
AcDbEntity
  8
0
  6
Continuous
 62
     7
370
    25
100
AcDbLine
 10
200.6429238104
 20
89.6036107175
 30
0.0
 11
203.1929238104
 21
89.6036107175
 31
0.0
  0
LINE
  5
1B3
330
1F
100
AcDbEntity
  8
0
  6
Continuous
 62
     7
370
    25
100
AcDbLine
 10
200.3929238104
 20
96.1866136731
 30
0.0
 11
200.3929238104
 21
90.2391887359
 31
0.0
  0
LINE
  5
1B4
330
1F
100
AcDbEntity
  8
0
  6
Continuous
 62
     7
370
    25
100
AcDbLine
 10
198.8929238104
 20
90.7873031748
 30
0.0
 11
198.8929238104
 21
88.3163344834
 31
0.0
  0
LINE
  5
1B5
330
1F
100
AcDbEntity
  8
0
  6
Continuous
 62
     7
370
    25
100
AcDbLine
 10
198.8929238104
 20
106.1163344834
 30
0.0
 11
198.8929238104
 21
105.8548519641
 31
0.0
  0
SPLINE
  5
1B6
330
1F
100
AcDbEntity
  8
0
  6
Continuous
 62
     7
370
    25
100
AcDbSpline
210
0.0
220
0.0
230
1.0
 70
    24
 71
     3
 72
    12
 73
     8
 74
     0
 42
0.00000001
 43
0.00000001
 40
0.0
 40
0.0
 40
0.0
 40
0.0
 40
0.0521018055011193
 40
0.2611691449968252
 40
0.4731768396375525
 40
0.6851845342782795
 40
0.9999999999999999
 40
0.9999999999999999
 40
0.9999999999999999
 40
0.9999999999999999
 10
198.8929238103852
 20
102.4719549641449
 30
0.0
 10
198.8929238103852
 20
102.3777097227033
 30
0.0
 10
198.8929238103852
 20
101.9052894506881
 30
0.0
 10
198.8929238103852
 20
100.9772699846076
 30
0.0
 10
198.8929238103852
 20
99.63751896515241
 30
0.0
 10
198.8929238103852
 20
97.99352251587213
 30
0.0
 10
198.8929238103852
 20
96.80005243850644
 30
0.0
 10
198.8929238103852
 20
96.08686656039825
 30
0.0
  0
LINE
  5
1B7
330
1F
100
AcDbEntity
  8
0
  6
Continuous
 62
     7
370
    25
100
AcDbLine
 10
200.6429238104
 20
99.4184938536
 30
0.0
 11
200.3929238104
 21
99.9920614838
 31
0.0
  0
LINE
  5
1B8
330
1F
100
AcDbEntity
  8
0
  6
Continuous
 62
     7
370
    25
100
AcDbLine
 10
200.6429238104
 20
99.4184938536
 30
0.0
 11
200.6429238104
 21
96.8221916915
 31
0.0
  0
LINE
  5
1B9
330
1F
100
AcDbEntity
  8
0
  6
Continuous
 62
     7
370
    25
100
AcDbLine
 10
200.3929238104
 20
96.1866136731
 30
0.0
 11
200.3929238104
 21
99.9920614838
 31
0.0
  0
LINE
  5
1BA
330
1F
100
AcDbEntity
  8
0
  6
Continuous
 62
     7
370
    25
100
AcDbLine
 10
200.6429238104
 20
99.4184938536
 30
0.0
 11
203.1929238104
 21
99.4184938536
 31
0.0
  0
LINE
  5
1BB
330
1F
100
AcDbEntity
  8
0
  6
Continuous
 62
     7
370
    25
100
AcDbLine
 10
200.3929238104
 20
105.3592238604
 30
0.0
 11
200.6429238104
 21
105.9327914906
 31
0.0
  0
LINE
  5
1BC
330
1F
100
AcDbEntity
  8
0
  6
Continuous
 62
     7
370
    25
100
AcDbLine
 10
203.1929238104
 20
105.9327914906
 30
0.0
 11
200.6429238104
 21
105.9327914906
 31
0.0
  0
LINE
  5
1BD
330
1F
100
AcDbEntity
  8
0
  6
Continuous
 62
     7
370
    25
100
AcDbLine
 10
200.3929238104
 20
105.3592238604
 30
0.0
 11
200.3929238104
 21
99.9920614838
 31
0.0
  0
LINE
  5
1BE
330
1F
100
AcDbEntity
  8
0
  6
Continuous
 62
     7
370
    25
100
AcDbLine
 10
200.3929238104
 20
88.0437242961
 30
0.0
 11
200.6429238104
 21
88.1057346842
 31
0.0
  0
LINE
  5
1BF
330
1F
100
AcDbEntity
  8
0
  6
Continuous
 62
     7
370
    25
100
AcDbLine
 10
200.6429238104
 20
89.6036107175
 30
0.0
 11
200.6429238104
 21
88.1057346842
 31
0.0
  0
LINE
  5
1C0
330
1F
100
AcDbEntity
  8
0
  6
Continuous
 62
     7
370
    25
100
AcDbLine
 10
200.3929238104
 20
88.0437242961
 30
0.0
 11
200.3929238104
 21
90.2391887359
 31
0.0
  0
LINE
  5
1C1
330
1F
100
AcDbEntity
  8
0
  6
Continuous
 62
     7
370
    25
100
AcDbLine
 10
203.1929238104
 20
88.1057346842
 30
0.0
 11
200.6429238104
 21
88.1057346842
 31
0.0
  0
LINE
  5
1C2
330
1F
100
AcDbEntity
  8
0
  6
Continuous
 62
     7
370
    25
100
AcDbLine
 10
200.6429238104
 20
107.0312176194
 30
0.0
 11
200.3929238104
 21
106.9692072313
 31
0.0
  0
LINE
  5
1C3
330
1F
100
AcDbEntity
  8
0
  6
Continuous
 62
     7
370
    25
100
AcDbLine
 10
200.6429238104
 20
107.0312176194
 30
0.0
 11
200.6429238104
 21
105.9327914906
 31
0.0
  0
LINE
  5
1C4
330
1F
100
AcDbEntity
  8
0
  6
Continuous
 62
     7
370
    25
100
AcDbLine
 10
200.3929238104
 20
105.3592238604
 30
0.0
 11
200.3929238104
 21
106.9692072313
 31
0.0
  0
LINE
  5
1C5
330
1F
100
AcDbEntity
  8
0
  6
Continuous
 62
     7
370
    25
100
AcDbLine
 10
200.6429238104
 20
107.0312176194
 30
0.0
 11
203.1929238104
 21
107.0312176194
 31
0.0
  0
LINE
  5
1C6
330
1F
100
AcDbEntity
  8
0
  6
Continuous
 62
     7
370
    25
100
AcDbLine
 10
200.6429238104
 20
87.4014513474
 30
0.0
 11
200.3929238104
 21
87.4634617354
 31
0.0
  0
LINE
  5
1C7
330
1F
100
AcDbEntity
  8
0
  6
Continuous
 62
     7
370
    25
100
AcDbLine
 10
200.6429238104
 20
87.4014513474
 30
0.0
 11
203.1929238104
 21
87.4014513474
 31
0.0
  0
LINE
  5
1C8
330
1F
100
AcDbEntity
  8
0
  6
Continuous
 62
     7
370
    25
100
AcDbLine
 10
200.3929238104
 20
88.0437242961
 30
0.0
 11
200.3929238104
 21
87.4634617354
 31
0.0
  0
SPLINE
  5
1C9
330
1F
100
AcDbEntity
  8
0
  6
Continuous
 62
     7
370
    25
100
AcDbSpline
210
0.0
220
0.0
230
1.0
 70
     8
 71
     3
 72
     9
 73
     5
 74
     0
 42
0.00000001
 43
0.00000001
 40
0.0
 40
0.0
 40
0.0
 40
0.0
 40
0.5841917497409228
 40
1.0
 40
1.0
 40
1.0
 40
1.0
 10
91.99292381038514
 20
112.9480703643698
 30
0.0
 10
92.01909177420578
 20
112.6942283956937
 30
0.0
 10
92.06388522401443
 20
112.2597101595347
 30
0.0
 10
92.3064996415284
 20
111.6365234515895
 30
0.0
 10
92.40738071796251
 20
111.3773972769741
 30
0.0
  0
LINE
  5
1CA
330
1F
100
AcDbEntity
  8
0
  6
Continuous
 62
     7
370
    25
100
AcDbLine
 10
91.9929238104
 20
112.9480703644
 30
0.0
 11
91.9929238104
 21
113.5606604477
 31
0.0
  0
SPLINE
  5
1CB
330
1F
100
AcDbEntity
  8
0
  6
Continuous
 62
     7
370
    25
100
AcDbSpline
210
0.0
220
0.0
230
1.0
 70
     8
 71
     3
 72
     9
 73
     5
 74
     0
 42
0.00000001
 43
0.00000001
 40
0.0
 40
0.0
 40
0.0
 40
0.0
 40
0.5850553834536181
 40
1.0
 40
1.0
 40
1.0
 40
1.0
 10
92.40738071796251
 20
113.9240094609049
 30
0.0
 10
92.27082658393817
 20
113.9335467917845
 30
0.0
 10
92.03742281074624
 20
113.9498483781802
 30
0.0
 10
92.00597352302097
 20
113.6747931385832
 30
0.0
 10
91.99292381038512
 20
113.5606604476595
 30
0.0
  0
SPLINE
  5
1CC
330
1F
100
AcDbEntity
  8
0
  6
Continuous
 62
     7
370
    25
100
AcDbSpline
210
0.0
220
0.0
230
1.0
 70
     8
 71
     3
 72
     9
 73
     5
 74
     0
 42
0.00000001
 43
0.00000001
 40
0.0
 40
0.0
 40
0.0
 40
0.0
 40
0.2910559175694166
 40
1.0
 40
1.0
 40
1.0
 40
1.0
 10
93.30680716573288
 20
113.5303642412214
 30
0.0
 10
93.28551822373419
 20
113.5695112054995
 30
0.0
 10
93.21237440251774
 20
113.704011010915
 30
0.0
 10
92.7413269921131
 20
113.8327445676485
 30
0.0
 10
92.40738071796251
 20
113.9240094609049
 30
0.0
  0
LINE
  5
1CD
330
1F
100
AcDbEntity
  8
0
  6
Continuous
 62
     7
370
    25
100
AcDbLine
 10
92.407380718
 20
80.5086595058
 30
0.0
 11
92.2995704458
 21
80.5311743042
 31
0.0
  0
SPLINE
  5
1CE
330
1F
100
AcDbEntity
  8
0
  6
Continuous
 62
     7
370
    25
100
AcDbSpline
210
0.0
220
0.0
230
1.0
 70
     8
 71
     3
 72
    11
 73
     7
 74
     0
 42
0.00000001
 43
0.00000001
 40
0.0
 40
0.0
 40
0.0
 40
0.0
 40
0.2328716322111456
 40
0.4710265024313186
 40
0.7311421212560271
 40
1.0
 40
1.0
 40
1.0
 40
1.0
 10
92.40738071796251
 20
81.55147286128556
 30
0.0
 10
92.67777745263528
 20
81.4723854067681
 30
0.0
 10
93.22470550476608
 20
81.31241621372452
 30
0.0
 10
93.5259298227497
 20
81.05337888193704
 30
0.0
 10
93.31827805734
 20
80.78023569429355
 30
0.0
 10
92.71434022555974
 20
80.60017683658313
 30
0.0
 10
92.40738071796251
 20
80.50865950583672
 30
0.0
  0
SPLINE
  5
1CF
330
1F
100
AcDbEntity
  8
0
  6
Continuous
 62
     7
370
    25
100
AcDbSpline
210
0.0
220
0.0
230
1.0
 70
     8
 71
     3
 72
     9
 73
     5
 74
     0
 42
0.00000001
 43
0.00000001
 40
0.0
 40
0.0
 40
0.0
 40
0.0
 40
0.5841917497409185
 40
1.0
 40
1.0
 40
1.0
 40
1.0
 10
91.99292381038512
 20
82.325378313684
 30
0.0
 10
92.01909177420578
 20
82.09573003747023
 30
0.0
 10
92.06388522401443
 20
81.7026257590965
 30
0.0
 10
92.3064996415284
 20
81.59586490515792
 30
0.0
 10
92.4073807179625
 20
81.55147286128556
 30
0.0
  0
LINE
  5
1D0
330
1F
100
AcDbEntity
  8
0
  6
Continuous
 62
     7
370
    25
100
AcDbLine
 10
91.9929238104
 20
82.3253783137
 30
0.0
 11
91.9929238104
 21
83.1607408201
 31
0.0
  0
SPLINE
  5
1D1
330
1F
100
AcDbEntity
  8
0
  6
Continuous
 62
     7
370
    25
100
AcDbSpline
210
0.0
220
0.0
230
1.0
 70
     8
 71
     3
 72
     9
 73
     5
 74
     0
 42
0.00000001
 43
0.00000001
 40
0.0
 40
0.0
 40
0.0
 40
0.0
 40
0.5850553834536176
 40
1.0
 40
1.0
 40
1.0
 40
1.0
 10
92.40738071796251
 20
85.02417735786024
 30
0.0
 10
92.27082658393817
 20
84.6161622435456
 30
0.0
 10
92.03742281074625
 20
83.91876653391878
 30
0.0
 10
92.00597352302096
 20
83.38303834712589
 30
0.0
 10
91.99292381038512
 20
83.16074082008402
 30
0.0
  0
SPLINE
  5
1D2
330
1F
100
AcDbEntity
  8
0
  6
Continuous
 62
     7
370
    25
100
AcDbSpline
210
0.0
220
0.0
230
1.0
 70
     8
 71
     3
 72
    11
 73
     7
 74
     0
 42
0.00000001
 43
0.00000001
 40
0.0
 40
0.0
 40
0.0
 40
0.0
 40
0.2556279644380999
 40
0.5185037642963934
 40
0.7560467972580139
 40
1.0
 40
1.0
 40
1.0
 40
1.0
 10
92.40738071796251
 20
95.71253565488891
 30
0.0
 10
92.70100667806447
 20
94.82145936207614
 30
0.0
 10
93.29658379320006
 20
93.01404203543787
 30
0.0
 10
93.52847275482672
 20
90.25677970316396
 30
0.0
 10
93.24550229636588
 20
87.55120013389114
 30
0.0
 10
92.68922316280162
 20
85.87396132204056
 30
0.0
 10
92.40738071796251
 20
85.02417735786024
 30
0.0
  0
SPLINE
  5
1D3
330
1F
100
AcDbEntity
  8
0
  6
Continuous
 62
     7
370
    25
100
AcDbSpline
210
0.0
220
0.0
230
1.0
 70
     8
 71
     3
 72
     9
 73
     5
 74
     0
 42
0.00000001
 43
0.00000001
 40
0.0
 40
0.0
 40
0.0
 40
0.0
 40
0.5841917497409215
 40
1.0
 40
1.0
 40
1.0
 40
1.0
 10
91.99292381038512
 20
98.05711419468304
 30
0.0
 10
92.01909177420578
 20
97.57362394979316
 30
0.0
 10
92.06388522401443
 20
96.7460014352604
 30
0.0
 10
92.3064996415284
 20
96.01605387337666
 30
0.0
 10
92.4073807179625
 20
95.71253565488891
 30
0.0
  0
LINE
  5
1D4
330
1F
100
AcDbEntity
  8
0
  6
Continuous
 62
     7
370
    25
100
AcDbLine
 10
91.9929238104
 20
98.0571141947
 30
0.0
 11
91.9929238104
 21
99.5050667844
 31
0.0
  0
SPLINE
  5
1D5
330
1F
100
AcDbEntity
  8
0
  6
Continuous
 62
     7
370
    25
100
AcDbSpline
210
0.0
220
0.0
230
1.0
 70
     8
 71
     3
 72
     9
 73
     5
 74
     0
 42
0.00000001
 43
0.00000001
 40
0.0
 40
0.0
 40
0.0
 40
0.0
 40
0.5850553834536164
 40
1.0
 40
1.0
 40
1.0
 40
1.0
 10
92.40738071796251
 20
101.7318523353943
 30
0.0
 10
92.27082658393817
 20
101.3333745519593
 30
0.0
 10
92.03742281074625
 20
100.6522804287282
 30
0.0
 10
92.00597352302096
 20
99.8414970023383
 30
0.0
 10
91.99292381038512
 20
99.50506678437276
 30
0.0
  0
SPLINE
  5
1D6
330
1F
100
AcDbEntity
  8
0
  6
Continuous
 62
     7
370
    25
100
AcDbSpline
210
0.0
220
0.0
230
1.0
 70
     8
 71
     3
 72
    11
 73
     7
 74
     0
 42
0.00000001
 43
0.00000001
 40
0.0
 40
0.0
 40
0.0
 40
0.0
 40
0.2328716322111445
 40
0.4710265024313167
 40
0.7311421212560263
 40
1.0
 40
1.0
 40
1.0
 40
1.0
 10
92.40738071796251
 20
111.3773972769741
 30
0.0
 10
92.67777745263528
 20
110.6458746196574
 30
0.0
 10
93.2247055047661
 20
109.1662330014256
 30
0.0
 10
93.52592982274969
 20
106.7702565668624
 30
0.0
 10
93.31827805734001
 20
104.2438074394751
 30
0.0
 10
92.71434022555974
 20
102.5783456431714
 30
0.0
 10
92.40738071796251
 20
101.7318523353943
 30
0.0
  0
LINE
  5
1D7
330
1F
100
AcDbEntity
  8
0
  6
Continuous
 62
     7
370
    25
100
AcDbLine
 10
93.4929238104
 20
113.4163344834
 30
0.0
 11
93.4929238104
 21
81.0163344834
 31
0.0
  0
SPLINE
  5
1D8
330
1F
100
AcDbEntity
  8
0
  6
Continuous
 62
     7
370
    25
100
AcDbSpline
210
0.0
220
0.0
230
1.0
 70
     8
 71
     3
 72
     9
 73
     5
 74
     0
 42
0.00000001
 43
0.00000001
 40
0.0
 40
0.0
 40
0.0
 40
0.0
 40
0.5850553834534112
 40
1.0
 40
1.0
 40
1.0
 40
1.0
 10
85.12846690280725
 20
95.71253565488745
 30
0.0
 10
85.2650210368317
 20
96.14726708449895
 30
0.0
 10
85.49842481002393
 20
96.8903273859791
 30
0.0
 10
85.52987409774929
 20
97.71494397878377
 30
0.0
 10
85.54292381038515
 20
98.05711419468304
 30
0.0
  0
SPLINE
  5
1D9
330
1F
100
AcDbEntity
  8
0
  6
Continuous
 62
     7
370
    25
100
AcDbSpline
210
0.0
220
0.0
230
1.0
 70
     8
 71
     3
 72
    11
 73
     7
 74
     0
 42
0.00000001
 43
0.00000001
 40
0.0
 40
0.0
 40
0.0
 40
0.0
 40
0.2379053903768483
 40
0.4814905141303177
 40
0.7366519444348059
 40
1.0
 40
1.0
 40
1.0
 40
1.0
 10
85.12846690280789
 20
85.02417735785998
 30
0.0
 10
84.85288146783485
 20
85.8525691550999
 30
0.0
 10
84.29513129428138
 20
87.5291297060087
 30
0.0
 10
84.00856806962506
 20
90.20679654011585
 30
0.0
 10
84.23344847582301
 20
92.98568310846485
 30
0.0
 10
84.82700359274087
 20
94.79406742013013
 30
0.0
 10
85.12846690280725
 20
95.71253565488745
 30
0.0
  0
SPLINE
  5
1DA
330
1F
100
AcDbEntity
  8
0
  6
Continuous
 62
     7
370
    25
100
AcDbSpline
210
0.0
220
0.0
230
1.0
 70
     8
 71
     3
 72
     9
 73
     5
 74
     0
 42
0.00000001
 43
0.00000001
 40
0.0
 40
0.0
 40
0.0
 40
0.0
 40
0.5841917497409935
 40
1.0
 40
1.0
 40
1.0
 40
1.0
 10
85.54292381038515
 20
83.16074082008402
 30
0.0
 10
85.5167558465645
 20
83.48318160669609
 30
0.0
 10
85.47196239675584
 20
84.03512501698054
 30
0.0
 10
85.22934797924195
 20
84.73370290752364
 30
0.0
 10
85.12846690280789
 20
85.02417735785998
 30
0.0
  0
LINE
  5
1DB
330
1F
100
AcDbEntity
  8
0
  6
Continuous
 62
     7
370
    25
100
AcDbLine
 10
85.5429238104
 20
83.1607408201
 30
0.0
 11
85.5429238104
 21
82.3253783137
 31
0.0
  0
SPLINE
  5
1DC
330
1F
100
AcDbEntity
  8
0
  6
Continuous
 62
     7
370
    25
100
AcDbSpline
210
0.0
220
0.0
230
1.0
 70
     8
 71
     3
 72
     9
 73
     5
 74
     0
 42
0.00000001
 43
0.00000001
 40
0.0
 40
0.0
 40
0.0
 40
0.0
 40
0.5850553834536193
 40
1.0
 40
1.0
 40
1.0
 40
1.0
 10
85.12846690280779
 20
81.55147286128556
 30
0.0
 10
85.26502103683212
 20
81.62415838697959
 30
0.0
 10
85.49842481002403
 20
81.7483953870136
 30
0.0
 10
85.52987409774931
 20
82.15617313316928
 30
0.0
 10
85.54292381038515
 20
82.325378313684
 30
0.0
  0
SPLINE
  5
1DD
330
1F
100
AcDbEntity
  8
0
  6
Continuous
 62
     7
370
    25
100
AcDbSpline
210
0.0
220
0.0
230
1.0
 70
     8
 71
     3
 72
    11
 73
     7
 74
     0
 42
0.00000001
 43
0.00000001
 40
0.0
 40
0.0
 40
0.0
 40
0.0
 40
0.2328716322111473
 40
0.4710265024313225
 40
0.7311421212560294
 40
1.0
 40
1.0
 40
1.0
 40
1.0
 10
85.12846690280779
 20
80.50865950583672
 30
0.0
 10
84.85807016813501
 20
80.58774696035418
 30
0.0
 10
84.31114211600418
 20
80.74771615339775
 30
0.0
 10
84.00991779802064
 20
81.00675348518527
 30
0.0
 10
84.21756956343026
 20
81.27989667282873
 30
0.0
 10
84.82150739521053
 20
81.45995553053915
 30
0.0
 10
85.12846690280779
 20
81.55147286128556
 30
0.0
  0
LINE
  5
1DE
330
1F
100
AcDbEntity
  8
0
  6
Continuous
 62
     7
370
    25
100
AcDbLine
 10
85.249270894
 20
80.5130024327
 30
0.0
 11
85.1284669028
 21
80.5086595058
 31
0.0
  0
SPLINE
  5
1DF
330
1F
100
AcDbEntity
  8
0
  6
Continuous
 62
     7
370
    25
100
AcDbSpline
210
0.0
220
0.0
230
1.0
 70
     8
 71
     3
 72
     9
 73
     5
 74
     0
 42
0.00000001
 43
0.00000001
 40
0.0
 40
0.0
 40
0.0
 40
0.0
 40
0.6137694938147381
 40
1.0
 40
1.0
 40
1.0
 40
1.0
 10
85.12846690280779
 20
113.9240094609049
 30
0.0
 10
84.84335526439932
 20
113.8450781051802
 30
0.0
 10
84.3788296708635
 20
113.7164771295369
 30
0.0
 10
84.26044061458013
 20
113.5821486927916
 30
0.0
 10
84.21471514944504
 20
113.5302669526723
 30
0.0
  0
SPLINE
  5
1E0
330
1F
100
AcDbEntity
  8
0
  6
Continuous
 62
     7
370
    25
100
AcDbSpline
210
0.0
220
0.0
230
1.0
 70
     8
 71
     3
 72
     9
 73
     5
 74
     0
 42
0.00000001
 43
0.00000001
 40
0.0
 40
0.0
 40
0.0
 40
0.0
 40
0.5841917497409246
 40
1.0
 40
1.0
 40
1.0
 40
1.0
 10
85.54292381038515
 20
113.5606604476595
 30
0.0
 10
85.51675584656451
 20
113.7116777854387
 30
0.0
 10
85.47196239675586
 20
113.9701842396057
 30
0.0
 10
85.2293479792419
 20
113.9375705161779
 30
0.0
 10
85.12846690280779
 20
113.9240094609049
 30
0.0
  0
LINE
  5
1E1
330
1F
100
AcDbEntity
  8
0
  6
Continuous
 62
     7
370
    25
100
AcDbLine
 10
85.5429238104
 20
113.5606604477
 30
0.0
 11
85.5429238104
 21
112.9480703644
 31
0.0
  0
SPLINE
  5
1E2
330
1F
100
AcDbEntity
  8
0
  6
Continuous
 62
     7
370
    25
100
AcDbSpline
210
0.0
220
0.0
230
1.0
 70
     8
 71
     3
 72
     9
 73
     5
 74
     0
 42
0.00000001
 43
0.00000001
 40
0.0
 40
0.0
 40
0.0
 40
0.0
 40
0.5850553834536214
 40
1.0
 40
1.0
 40
1.0
 40
1.0
 10
85.12846690280779
 20
111.3773972769741
 30
0.0
 10
85.26502103683212
 20
111.7394431808915
 30
0.0
 10
85.49842481002403
 20
112.3582664823373
 30
0.0
 10
85.52987409774931
 20
112.7751053289857
 30
0.0
 10
85.54292381038515
 20
112.9480703643698
 30
0.0
  0
SPLINE
  5
1E3
330
1F
100
AcDbEntity
  8
0
  6
Continuous
 62
     7
370
    25
100
AcDbSpline
210
0.0
220
0.0
230
1.0
 70
     8
 71
     3
 72
    11
 73
     7
 74
     0
 42
0.00000001
 43
0.00000001
 40
0.0
 40
0.0
 40
0.0
 40
0.0
 40
0.2328716322111489
 40
0.471026502431326
 40
0.7311421212560306
 40
1.0
 40
1.0
 40
1.0
 40
1.0
 10
85.12846690280779
 20
101.7318523353943
 30
0.0
 10
84.85807016813501
 20
102.4633749927111
 30
0.0
 10
84.31114211600418
 20
103.943016610943
 30
0.0
 10
84.00991779802058
 20
106.3389930455061
 30
0.0
 10
84.2175695634303
 20
108.8654421728934
 30
0.0
 10
84.82150739521055
 20
110.5309039691971
 30
0.0
 10
85.12846690280779
 20
111.3773972769741
 30
0.0
  0
SPLINE
  5
1E4
330
1F
100
AcDbEntity
  8
0
  6
Continuous
 62
     7
370
    25
100
AcDbSpline
210
0.0
220
0.0
230
1.0
 70
     8
 71
     3
 72
     9
 73
     5
 74
     0
 42
0.00000001
 43
0.00000001
 40
0.0
 40
0.0
 40
0.0
 40
0.0
 40
0.5841917497409261
 40
1.0
 40
1.0
 40
1.0
 40
1.0
 10
85.54292381038515
 20
99.50506678437276
 30
0.0
 10
85.5167558465645
 20
99.978524908764
 30
0.0
 10
85.47196239675586
 20
100.7889747732155
 30
0.0
 10
85.22934797924188
 20
101.4549389403309
 30
0.0
 10
85.12846690280779
 20
101.7318523353943
 30
0.0
  0
LINE
  5
1E5
330
1F
100
AcDbEntity
  8
0
  6
Continuous
 62
     7
370
    25
100
AcDbLine
 10
85.5429238104
 20
99.5050667844
 30
0.0
 11
85.5429238104
 21
98.0571141947
 31
0.0
  0
LINE
  5
1E6
330
1F
100
AcDbEntity
  8
0
  6
Continuous
 62
     7
370
    25
100
AcDbLine
 10
84.0429238104
 20
90.3894272078
 30
0.0
 11
84.0429238104
 21
113.4163344834
 31
0.0
  0
LINE
  5
1E7
330
1F
100
AcDbEntity
  8
0
  6
Continuous
 62
     7
370
    25
100
AcDbLine
 10
84.0429238104
 20
81.0163344834
 30
0.0
 11
84.0429238104
 21
90.3894272078
 31
0.0
  0
LINE
  5
1E8
330
1F
100
AcDbEntity
  8
0
  6
Continuous
 62
     7
370
    25
100
AcDbLine
 10
76.2929238104
 20
107.7913344834
 30
0.0
 11
76.2929238104
 21
86.6413344834
 31
0.0
  0
LINE
  5
1E9
330
1F
100
AcDbEntity
  8
0
  6
Continuous
 62
     7
370
    25
100
AcDbLine
 10
92.407380718
 20
111.377397277
 30
0.0
 11
85.1284669028
 21
111.377397277
 31
0.0
  0
LINE
  5
1EA
330
1F
100
AcDbEntity
  8
0
  6
Continuous
 62
     7
370
    25
100
AcDbLine
 10
85.1284669028
 20
101.7318523354
 30
0.0
 11
92.407380718
 21
101.7318523354
 31
0.0
  0
LINE
  5
1EB
330
1F
100
AcDbEntity
  8
0
  6
Continuous
 62
     7
370
    25
100
AcDbLine
 10
91.9929238104
 20
99.5050667844
 30
0.0
 11
85.5429238104
 21
99.5050667844
 31
0.0
  0
LINE
  5
1EC
330
1F
100
AcDbEntity
  8
0
  6
Continuous
 62
     7
370
    25
100
AcDbLine
 10
85.5429238104
 20
98.0571141947
 30
0.0
 11
91.9929238104
 21
98.0571141947
 31
0.0
  0
LINE
  5
1ED
330
1F
100
AcDbEntity
  8
0
  6
Continuous
 62
     7
370
    25
100
AcDbLine
 10
92.407380718
 20
95.7125356549
 30
0.0
 11
85.1284669028
 21
95.7125356549
 31
0.0
  0
LINE
  5
1EE
330
1F
100
AcDbEntity
  8
0
  6
Continuous
 62
     7
370
    25
100
AcDbLine
 10
85.1284669028
 20
85.0241773579
 30
0.0
 11
92.407380718
 21
85.0241773579
 31
0.0
  0
LINE
  5
1EF
330
1F
100
AcDbEntity
  8
0
  6
Continuous
 62
     7
370
    25
100
AcDbLine
 10
91.9929238104
 20
83.1607408201
 30
0.0
 11
85.5429238104
 21
83.1607408201
 31
0.0
  0
LINE
  5
1F0
330
1F
100
AcDbEntity
  8
0
  6
Continuous
 62
     7
370
    25
100
AcDbLine
 10
85.5429238104
 20
82.3253783137
 30
0.0
 11
91.9929238104
 21
82.3253783137
 31
0.0
  0
LINE
  5
1F1
330
1F
100
AcDbEntity
  8
0
  6
Continuous
 62
     7
370
    25
100
AcDbLine
 10
85.5429238104
 20
112.9480703644
 30
0.0
 11
91.9929238104
 21
112.9480703644
 31
0.0
  0
LINE
  5
1F2
330
1F
100
AcDbEntity
  8
0
  6
Continuous
 62
     7
370
    25
100
AcDbLine
 10
92.407380718
 20
81.5514728613
 30
0.0
 11
85.1284669028
 21
81.5514728613
 31
0.0
  0
LINE
  5
1F3
330
1F
100
AcDbEntity
  8
0
  6
Continuous
 62
     7
370
    25
100
AcDbLine
 10
91.9929238104
 20
113.5606604477
 30
0.0
 11
85.5429238104
 21
113.5606604477
 31
0.0
  0
LINE
  5
1F4
330
1F
100
AcDbEntity
  8
0
  6
Continuous
 62
     7
370
    25
100
AcDbLine
 10
85.1284669028
 20
80.5086595058
 30
0.0
 11
92.407380718
 21
80.5086595058
 31
0.0
  0
SPLINE
  5
1F5
330
1F
100
AcDbEntity
  8
0
  6
Continuous
 62
     7
370
    25
100
AcDbSpline
210
0.0
220
0.0
230
1.0
 70
     8
 71
     3
 72
     9
 73
     5
 74
     0
 42
0.00000001
 43
0.00000001
 40
0.0
 40
0.0
 40
0.0
 40
0.0
 40
0.5841917497409234
 40
0.9999999999999999
 40
0.9999999999999999
 40
0.9999999999999999
 40
0.9999999999999999
 10
182.0429238103852
 20
99.50506678437276
 30
0.0
 10
182.0167558465645
 20
99.97852490876399
 30
0.0
 10
181.9719623967558
 20
100.7889747732155
 30
0.0
 10
181.7293479792419
 20
101.4549389403309
 30
0.0
 10
181.6284669028078
 20
101.7318523353943
 30
0.0
  0
LINE
  5
1F6
330
1F
100
AcDbEntity
  8
0
  6
Continuous
 62
     7
370
    25
100
AcDbLine
 10
182.0429238104
 20
99.5050667844
 30
0.0
 11
182.0429238104
 21
98.0571141947
 31
0.0
  0
SPLINE
  5
1F7
330
1F
100
AcDbEntity
  8
0
  6
Continuous
 62
     7
370
    25
100
AcDbSpline
210
0.0
220
0.0
230
1.0
 70
     8
 71
     3
 72
     9
 73
     5
 74
     0
 42
0.00000001
 43
0.00000001
 40
0.0
 40
0.0
 40
0.0
 40
0.0
 40
0.5850553834536164
 40
1.0
 40
1.0
 40
1.0
 40
1.0
 10
181.6284669028078
 20
95.71253565488891
 30
0.0
 10
181.7650210368321
 20
96.14726708450031
 30
0.0
 10
181.998424810024
 20
96.8903273859801
 30
0.0
 10
182.0298740977493
 20
97.71494397878416
 30
0.0
 10
182.0429238103852
 20
98.05711419468304
 30
0.0
  0
SPLINE
  5
1F8
330
1F
100
AcDbEntity
  8
0
  6
Continuous
 62
     7
370
    25
100
AcDbSpline
210
0.0
220
0.0
230
1.0
 70
     8
 71
     3
 72
    11
 73
     7
 74
     0
 42
0.00000001
 43
0.00000001
 40
0.0
 40
0.0
 40
0.0
 40
0.0
 40
0.232871632211145
 40
0.4710265024313184
 40
0.731142121256027
 40
0.9999999999999999
 40
0.9999999999999999
 40
0.9999999999999999
 40
0.9999999999999999
 10
181.6284669028078
 20
85.02417735786024
 30
0.0
 10
181.358070168135
 20
85.83478746969448
 30
0.0
 10
180.8111421160042
 20
87.47439828096987
 30
0.0
 10
180.5099177980206
 20
90.12941204732051
 30
0.0
 10
180.7175695634303
 20
92.92900436235128
 30
0.0
 10
181.3215073952105
 20
94.77452501636537
 30
0.0
 10
181.6284669028078
 20
95.71253565488891
 30
0.0
  0
SPLINE
  5
1F9
330
1F
100
AcDbEntity
  8
0
  6
Continuous
 62
     7
370
    25
100
AcDbSpline
210
0.0
220
0.0
230
1.0
 70
     8
 71
     3
 72
     9
 73
     5
 74
     0
 42
0.00000001
 43
0.00000001
 40
0.0
 40
0.0
 40
0.0
 40
0.0
 40
0.5841917497409213
 40
1.0
 40
1.0
 40
1.0
 40
1.0
 10
182.0429238103852
 20
83.16074082008402
 30
0.0
 10
182.0167558465645
 20
83.48318160669609
 30
0.0
 10
181.9719623967559
 20
84.0351250169806
 30
0.0
 10
181.7293479792419
 20
84.73370290752379
 30
0.0
 10
181.6284669028078
 20
85.02417735786024
 30
0.0
  0
LINE
  5
1FA
330
1F
100
AcDbEntity
  8
0
  6
Continuous
 62
     7
370
    25
100
AcDbLine
 10
182.0429238104
 20
83.1607408201
 30
0.0
 11
182.0429238104
 21
82.3253783137
 31
0.0
  0
SPLINE
  5
1FB
330
1F
100
AcDbEntity
  8
0
  6
Continuous
 62
     7
370
    25
100
AcDbSpline
210
0.0
220
0.0
230
1.0
 70
     8
 71
     3
 72
     9
 73
     5
 74
     0
 42
0.00000001
 43
0.00000001
 40
0.0
 40
0.0
 40
0.0
 40
0.0
 40
0.5850553834536157
 40
1.0
 40
1.0
 40
1.0
 40
1.0
 10
181.6284669028078
 20
81.55147286128555
 30
0.0
 10
181.7650210368321
 20
81.62415838697956
 30
0.0
 10
181.998424810024
 20
81.74839538701357
 30
0.0
 10
182.0298740977493
 20
82.15617313316926
 30
0.0
 10
182.0429238103852
 20
82.32537831368398
 30
0.0
  0
SPLINE
  5
1FC
330
1F
100
AcDbEntity
  8
0
  6
Continuous
 62
     7
370
    25
100
AcDbSpline
210
0.0
220
0.0
230
1.0
 70
     8
 71
     3
 72
    11
 73
     7
 74
     0
 42
0.00000001
 43
0.00000001
 40
0.0
 40
0.0
 40
0.0
 40
0.0
 40
0.2379053903768113
 40
0.4814905141302429
 40
0.7366519444347657
 40
1.0
 40
1.0
 40
1.0
 40
1.0
 10
181.6284669028079
 20
80.50865950583669
 30
0.0
 10
181.3528814678348
 20
80.58948183660998
 30
0.0
 10
180.7951312942814
 20
80.75305604371646
 30
0.0
 10
180.508568069625
 20
81.01430352985527
 30
0.0
 10
180.7334484758231
 20
81.28542655419828
 30
0.0
 10
181.3270035927412
 20
81.46186219188769
 30
0.0
 10
181.6284669028078
 20
81.55147286128555
 30
0.0
  0
LINE
  5
1FD
330
1F
100
AcDbEntity
  8
0
  6
Continuous
 62
     7
370
    25
100
AcDbLine
 10
181.749270894
 20
80.5130024327
 30
0.0
 11
181.6284669028
 21
80.5086595058
 31
0.0
  0
SPLINE
  5
1FE
330
1F
100
AcDbEntity
  8
0
  6
Continuous
 62
     7
370
    25
100
AcDbSpline
210
0.0
220
0.0
230
1.0
 70
     8
 71
     3
 72
     9
 73
     5
 74
     0
 42
0.00000001
 43
0.00000001
 40
0.0
 40
0.0
 40
0.0
 40
0.0
 40
0.6729790475587056
 40
1.0
 40
1.0
 40
1.0
 40
1.0
 10
181.6284669028078
 20
113.9240094609049
 30
0.0
 10
181.3115846182035
 20
113.837294372688
 30
0.0
 10
180.8407196102159
 20
113.7084417902317
 30
0.0
 10
180.7581859795509
 20
113.5737374333839
 30
0.0
 10
180.7311957530424
 20
113.5296862863096
 30
0.0
  0
SPLINE
  5
1FF
330
1F
100
AcDbEntity
  8
0
  6
Continuous
 62
     7
370
    25
100
AcDbSpline
210
0.0
220
0.0
230
1.0
 70
     8
 71
     3
 72
     9
 73
     5
 74
     0
 42
0.00000001
 43
0.00000001
 40
0.0
 40
0.0
 40
0.0
 40
0.0
 40
0.5841917497409217
 40
1.0
 40
1.0
 40
1.0
 40
1.0
 10
182.0429238103852
 20
113.5606604476595
 30
0.0
 10
182.0167558465645
 20
113.7116777854387
 30
0.0
 10
181.9719623967559
 20
113.9701842396057
 30
0.0
 10
181.7293479792419
 20
113.9375705161779
 30
0.0
 10
181.6284669028078
 20
113.9240094609049
 30
0.0
  0
LINE
  5
200
330
1F
100
AcDbEntity
  8
0
  6
Continuous
 62
     7
370
    25
100
AcDbLine
 10
182.0429238104
 20
113.5606604477
 30
0.0
 11
182.0429238104
 21
112.9480703644
 31
0.0
  0
SPLINE
  5
201
330
1F
100
AcDbEntity
  8
0
  6
Continuous
 62
     7
370
    25
100
AcDbSpline
210
0.0
220
0.0
230
1.0
 70
     8
 71
     3
 72
     9
 73
     5
 74
     0
 42
0.00000001
 43
0.00000001
 40
0.0
 40
0.0
 40
0.0
 40
0.0
 40
0.5850553834536191
 40
1.0
 40
1.0
 40
1.0
 40
1.0
 10
181.6284669028078
 20
111.3773972769741
 30
0.0
 10
181.7650210368321
 20
111.7394431808915
 30
0.0
 10
181.998424810024
 20
112.3582664823373
 30
0.0
 10
182.0298740977493
 20
112.7751053289857
 30
0.0
 10
182.0429238103852
 20
112.9480703643698
 30
0.0
  0
SPLINE
  5
202
330
1F
100
AcDbEntity
  8
0
  6
Continuous
 62
     7
370
    25
100
AcDbSpline
210
0.0
220
0.0
230
1.0
 70
     8
 71
     3
 72
    11
 73
     7
 74
     0
 42
0.00000001
 43
0.00000001
 40
0.0
 40
0.0
 40
0.0
 40
0.0
 40
0.2328716322111445
 40
0.4710265024313174
 40
0.7311421212560267
 40
1.0
 40
1.0
 40
1.0
 40
1.0
 10
181.6284669028078
 20
101.7318523353943
 30
0.0
 10
181.358070168135
 20
102.4633749927111
 30
0.0
 10
180.8111421160042
 20
103.9430166109429
 30
0.0
 10
180.5099177980206
 20
106.3389930455061
 30
0.0
 10
180.7175695634303
 20
108.8654421728933
 30
0.0
 10
181.3215073952105
 20
110.530903969197
 30
0.0
 10
181.6284669028078
 20
111.3773972769741
 30
0.0
  0
LINE
  5
203
330
1F
100
AcDbEntity
  8
0
  6
Continuous
 62
     7
370
    25
100
AcDbLine
 10
180.5429238104
 20
81.0163344834
 30
0.0
 11
180.5429238104
 21
113.4163344834
 31
0.0
  0
SPLINE
  5
204
330
1F
100
AcDbEntity
  8
0
  6
Continuous
 62
     7
370
    25
100
AcDbSpline
210
0.0
220
0.0
230
1.0
 70
     8
 71
     3
 72
     9
 73
     5
 74
     0
 42
0.00000001
 43
0.00000001
 40
0.0
 40
0.0
 40
0.0
 40
0.0
 40
0.5850553834534123
 40
1.0
 40
1.0
 40
1.0
 40
1.0
 10
188.907380717963
 20
113.9240094609048
 30
0.0
 10
188.7708265839386
 20
113.9335467917845
 30
0.0
 10
188.5374228107464
 20
113.9498483781804
 30
0.0
 10
188.505973523021
 20
113.6747931385833
 30
0.0
 10
188.4929238103852
 20
113.5606604476595
 30
0.0
  0
SPLINE
  5
205
330
1F
100
AcDbEntity
  8
0
  6
Continuous
 62
     7
370
    25
100
AcDbSpline
210
0.0
220
0.0
230
1.0
 70
     8
 71
     3
 72
     9
 73
     5
 74
     0
 42
0.00000001
 43
0.00000001
 40
0.0
 40
0.0
 40
0.0
 40
0.0
 40
0.3067256939865429
 40
1.0
 40
1.0
 40
1.0
 40
1.0
 10
189.8092086266439
 20
113.5297084457485
 30
0.0
 10
189.7843875906484
 20
113.5710220947115
 30
0.0
 10
189.7034650058044
 20
113.7057145895791
 30
0.0
 10
189.2333201007443
 20
113.8346333776044
 30
0.0
 10
188.907380717963
 20
113.9240094609048
 30
0.0
  0
LINE
  5
206
330
1F
100
AcDbEntity
  8
0
  6
Continuous
 62
     7
370
    25
100
AcDbLine
 10
188.907380718
 20
80.5086595058
 30
0.0
 11
188.7995704458
 21
80.5311743042
 31
0.0
  0
SPLINE
  5
207
330
1F
100
AcDbEntity
  8
0
  6
Continuous
 62
     7
370
    25
100
AcDbSpline
210
0.0
220
0.0
230
1.0
 70
     8
 71
     3
 72
    11
 73
     7
 74
     0
 42
0.00000001
 43
0.00000001
 40
0.0
 40
0.0
 40
0.0
 40
0.0
 40
0.2556279644380967
 40
0.5185037642963866
 40
0.7560467972580099
 40
1.0
 40
1.0
 40
1.0
 40
1.0
 10
188.9073807179625
 20
81.55147286128555
 30
0.0
 10
189.2010066780645
 20
81.46453469612997
 30
0.0
 10
189.7965837932
 20
81.28819340266753
 30
0.0
 10
190.0284727548267
 20
81.01918015435879
 30
0.0
 10
189.7455022963659
 20
80.75520935260793
 30
0.0
 10
189.1892231628016
 20
80.59156897073927
 30
0.0
 10
188.9073807179625
 20
80.5086595058367
 30
0.0
  0
SPLINE
  5
208
330
1F
100
AcDbEntity
  8
0
  6
Continuous
 62
     7
370
    25
100
AcDbSpline
210
0.0
220
0.0
230
1.0
 70
     8
 71
     3
 72
     9
 73
     5
 74
     0
 42
0.00000001
 43
0.00000001
 40
0.0
 40
0.0
 40
0.0
 40
0.0
 40
0.5841917497409268
 40
0.9999999999999999
 40
0.9999999999999999
 40
0.9999999999999999
 40
0.9999999999999999
 10
188.4929238103851
 20
82.32537831368398
 30
0.0
 10
188.5190917742058
 20
82.09573003747022
 30
0.0
 10
188.5638852240144
 20
81.70262575909649
 30
0.0
 10
188.8064996415284
 20
81.59586490515791
 30
0.0
 10
188.9073807179625
 20
81.55147286128555
 30
0.0
  0
LINE
  5
209
330
1F
100
AcDbEntity
  8
0
  6
Continuous
 62
     7
370
    25
100
AcDbLine
 10
188.4929238104
 20
82.3253783137
 30
0.0
 11
188.4929238104
 21
83.1607408201
 31
0.0
  0
SPLINE
  5
20A
330
1F
100
AcDbEntity
  8
0
  6
Continuous
 62
     7
370
    25
100
AcDbSpline
210
0.0
220
0.0
230
1.0
 70
     8
 71
     3
 72
     9
 73
     5
 74
     0
 42
0.00000001
 43
0.00000001
 40
0.0
 40
0.0
 40
0.0
 40
0.0
 40
0.5850553834536173
 40
1.0
 40
1.0
 40
1.0
 40
1.0
 10
188.9073807179625
 20
85.02417735786024
 30
0.0
 10
188.7708265839382
 20
84.6161622435456
 30
0.0
 10
188.5374228107462
 20
83.91876653391877
 30
0.0
 10
188.505973523021
 20
83.38303834712588
 30
0.0
 10
188.4929238103852
 20
83.16074082008402
 30
0.0
  0
SPLINE
  5
20B
330
1F
100
AcDbEntity
  8
0
  6
Continuous
 62
     7
370
    25
100
AcDbSpline
210
0.0
220
0.0
230
1.0
 70
     8
 71
     3
 72
    11
 73
     7
 74
     0
 42
0.00000001
 43
0.00000001
 40
0.0
 40
0.0
 40
0.0
 40
0.0
 40
0.2328716322111473
 40
0.4710265024313233
 40
0.7311421212560294
 40
1.0
 40
1.0
 40
1.0
 40
1.0
 10
188.9073807179625
 20
95.71253565488891
 30
0.0
 10
189.1777774526353
 20
94.90192554305467
 30
0.0
 10
189.7247055047661
 20
93.26231473177924
 30
0.0
 10
190.0259298227497
 20
90.6073009654286
 30
0.0
 10
189.81827805734
 20
87.80770865039781
 30
0.0
 10
189.2143402255597
 20
85.96218799638375
 30
0.0
 10
188.9073807179625
 20
85.02417735786024
 30
0.0
  0
SPLINE
  5
20C
330
1F
100
AcDbEntity
  8
0
  6
Continuous
 62
     7
370
    25
100
AcDbSpline
210
0.0
220
0.0
230
1.0
 70
     8
 71
     3
 72
     9
 73
     5
 74
     0
 42
0.00000001
 43
0.00000001
 40
0.0
 40
0.0
 40
0.0
 40
0.0
 40
0.5841917497409242
 40
1.0
 40
1.0
 40
1.0
 40
1.0
 10
188.4929238103851
 20
98.05711419468304
 30
0.0
 10
188.5190917742058
 20
97.57362394979316
 30
0.0
 10
188.5638852240145
 20
96.7460014352604
 30
0.0
 10
188.8064996415284
 20
96.01605387337666
 30
0.0
 10
188.9073807179625
 20
95.71253565488891
 30
0.0
  0
LINE
  5
20D
330
1F
100
AcDbEntity
  8
0
  6
Continuous
 62
     7
370
    25
100
AcDbLine
 10
188.4929238104
 20
98.0571141947
 30
0.0
 11
188.4929238104
 21
99.5050667844
 31
0.0
  0
SPLINE
  5
20E
330
1F
100
AcDbEntity
  8
0
  6
Continuous
 62
     7
370
    25
100
AcDbSpline
210
0.0
220
0.0
230
1.0
 70
     8
 71
     3
 72
     9
 73
     5
 74
     0
 42
0.00000001
 43
0.00000001
 40
0.0
 40
0.0
 40
0.0
 40
0.0
 40
0.5850553834536175
 40
1.0
 40
1.0
 40
1.0
 40
1.0
 10
188.9073807179625
 20
101.7318523353943
 30
0.0
 10
188.7708265839382
 20
101.3333745519593
 30
0.0
 10
188.5374228107462
 20
100.6522804287282
 30
0.0
 10
188.505973523021
 20
99.84149700233829
 30
0.0
 10
188.4929238103851
 20
99.50506678437276
 30
0.0
  0
SPLINE
  5
20F
330
1F
100
AcDbEntity
  8
0
  6
Continuous
 62
     7
370
    25
100
AcDbSpline
210
0.0
220
0.0
230
1.0
 70
     8
 71
     3
 72
    11
 73
     7
 74
     0
 42
0.00000001
 43
0.00000001
 40
0.0
 40
0.0
 40
0.0
 40
0.0
 40
0.2328716322111489
 40
0.4710265024313259
 40
0.7311421212560307
 40
1.0
 40
1.0
 40
1.0
 40
1.0
 10
188.9073807179625
 20
111.3773972769741
 30
0.0
 10
189.1777774526353
 20
110.6458746196574
 30
0.0
 10
189.7247055047661
 20
109.1662330014255
 30
0.0
 10
190.0259298227497
 20
106.7702565668624
 30
0.0
 10
189.81827805734
 20
104.2438074394751
 30
0.0
 10
189.2143402255597
 20
102.5783456431714
 30
0.0
 10
188.9073807179625
 20
101.7318523353943
 30
0.0
  0
SPLINE
  5
210
330
1F
100
AcDbEntity
  8
0
  6
Continuous
 62
     7
370
    25
100
AcDbSpline
210
0.0
220
0.0
230
1.0
 70
     8
 71
     3
 72
     9
 73
     5
 74
     0
 42
0.00000001
 43
0.00000001
 40
0.0
 40
0.0
 40
0.0
 40
0.0
 40
0.5841917497409261
 40
1.0
 40
1.0
 40
1.0
 40
1.0
 10
188.4929238103852
 20
112.9480703643698
 30
0.0
 10
188.5190917742058
 20
112.6942283956937
 30
0.0
 10
188.5638852240145
 20
112.2597101595347
 30
0.0
 10
188.8064996415284
 20
111.6365234515895
 30
0.0
 10
188.9073807179625
 20
111.3773972769741
 30
0.0
  0
LINE
  5
211
330
1F
100
AcDbEntity
  8
0
  6
Continuous
 62
     7
370
    25
100
AcDbLine
 10
188.4929238104
 20
112.9480703644
 30
0.0
 11
188.4929238104
 21
113.5606604477
 31
0.0
  0
LINE
  5
212
330
1F
100
AcDbEntity
  8
0
  6
Continuous
 62
     7
370
    25
100
AcDbLine
 10
189.9929238104
 20
113.4163344834
 30
0.0
 11
189.9929238104
 21
81.0163344834
 31
0.0
  0
LINE
  5
213
330
1F
100
AcDbEntity
  8
0
  6
Continuous
 62
     7
370
    25
100
AcDbLine
 10
181.6284669028
 20
85.0241773579
 30
0.0
 11
188.907380718
 21
85.0241773579
 31
0.0
  0
LINE
  5
214
330
1F
100
AcDbEntity
  8
0
  6
Continuous
 62
     7
370
    25
100
AcDbLine
 10
188.907380718
 20
95.7125356549
 30
0.0
 11
181.6284669028
 21
95.7125356549
 31
0.0
  0
LINE
  5
215
330
1F
100
AcDbEntity
  8
0
  6
Continuous
 62
     7
370
    25
100
AcDbLine
 10
182.0429238104
 20
98.0571141947
 30
0.0
 11
188.4929238104
 21
98.0571141947
 31
0.0
  0
LINE
  5
216
330
1F
100
AcDbEntity
  8
0
  6
Continuous
 62
     7
370
    25
100
AcDbLine
 10
181.6284669028
 20
101.7318523354
 30
0.0
 11
188.907380718
 21
101.7318523354
 31
0.0
  0
LINE
  5
217
330
1F
100
AcDbEntity
  8
0
  6
Continuous
 62
     7
370
    25
100
AcDbLine
 10
188.907380718
 20
111.377397277
 30
0.0
 11
181.6284669028
 21
111.377397277
 31
0.0
  0
LINE
  5
218
330
1F
100
AcDbEntity
  8
0
  6
Continuous
 62
     7
370
    25
100
AcDbLine
 10
188.4929238104
 20
99.5050667844
 30
0.0
 11
182.0429238104
 21
99.5050667844
 31
0.0
  0
LINE
  5
219
330
1F
100
AcDbEntity
  8
0
  6
Continuous
 62
     7
370
    25
100
AcDbLine
 10
197.7429238104
 20
86.6413344834
 30
0.0
 11
197.7429238104
 21
107.7913344834
 31
0.0
  0
LINE
  5
21A
330
1F
100
AcDbEntity
  8
0
  6
Continuous
 62
     7
370
    25
100
AcDbLine
 10
188.4929238104
 20
83.1607408201
 30
0.0
 11
182.0429238104
 21
83.1607408201
 31
0.0
  0
LINE
  5
21B
330
1F
100
AcDbEntity
  8
0
  6
Continuous
 62
     7
370
    25
100
AcDbLine
 10
182.0429238104
 20
82.3253783137
 30
0.0
 11
188.4929238104
 21
82.3253783137
 31
0.0
  0
LINE
  5
21C
330
1F
100
AcDbEntity
  8
0
  6
Continuous
 62
     7
370
    25
100
AcDbLine
 10
182.0429238104
 20
112.9480703644
 30
0.0
 11
188.4929238104
 21
112.9480703644
 31
0.0
  0
LINE
  5
21D
330
1F
100
AcDbEntity
  8
0
  6
Continuous
 62
     7
370
    25
100
AcDbLine
 10
188.907380718
 20
81.5514728613
 30
0.0
 11
181.6284669028
 21
81.5514728613
 31
0.0
  0
LINE
  5
21E
330
1F
100
AcDbEntity
  8
0
  6
Continuous
 62
     7
370
    25
100
AcDbLine
 10
188.4929238104
 20
113.5606604477
 30
0.0
 11
182.0429238104
 21
113.5606604477
 31
0.0
  0
LINE
  5
21F
330
1F
100
AcDbEntity
  8
0
  6
Continuous
 62
     7
370
    25
100
AcDbLine
 10
181.6284669028
 20
80.5086595058
 30
0.0
 11
188.907380718
 21
80.5086595058
 31
0.0
  0
CIRCLE
  5
220
330
1F
100
AcDbEntity
  8
0
  6
Continuous
 62
     7
370
    25
100
AcDbCircle
 10
136.3929238104
 20
97.2163344834
 30
0.0
 40
8.499999999999957
  0
SPLINE
  5
221
330
1F
100
AcDbEntity
  8
0
  6
Continuous
 62
     7
370
    25
100
AcDbSpline
210
0.0
220
0.0
230
1.0
 70
     8
 71
     3
 72
    14
 73
    10
 74
     0
 42
0.00000001
 43
0.00000001
 40
0.0
 40
0.0
 40
0.0
 40
0.0
 40
0.2499999999999999
 40
0.2499999999999999
 40
0.4999999999999999
 40
0.4999999999999999
 40
0.7499999999999999
 40
0.7499999999999999
 40
1.0
 40
1.0
 40
1.0
 40
1.0
 10
128.8929238103851
 20
97.2163344833708
 30
0.0
 10
128.8929238103851
 20
96.07035941098869
 30
0.0
 10
129.160078613468
 20
94.92521920387193
 30
0.0
 10
130.1742778143735
 20
92.86987605807673
 30
0.0
 10
130.920583348232
 20
91.9611704771002
 30
0.0
 10
132.7395822307462
 20
90.56679659198299
 30
0.0
 10
133.8109504031208
 20
90.0821441165036
 30
0.0
 10
136.0591841952935
 20
89.63663285759161
 30
0.0
 10
137.2344119327793
 20
89.67609863782917
 30
0.0
 10
138.3410522951926
 20
89.97376619534742
 30
0.0
  0
SPLINE
  5
222
330
1F
100
AcDbEntity
  8
0
  6
Continuous
 62
     7
370
    25
100
AcDbSpline
210
0.0
220
0.0
230
1.0
 70
     8
 71
     3
 72
    61
 73
    57
 74
     0
 42
0.00000001
 43
0.00000001
 40
0.0
 40
0.0
 40
0.0
 40
0.0
 40
0.03125
 40
0.03125
 40
0.0625
 40
0.0625
 40
0.1249999999999999
 40
0.1249999999999999
 40
0.1562499999999999
 40
0.1562499999999999
 40
0.1874999999999999
 40
0.1874999999999999
 40
0.2187499999999999
 40
0.2187499999999999
 40
0.2499999999999999
 40
0.2812499999999999
 40
0.2812499999999999
 40
0.3124999999999998
 40
0.3124999999999998
 40
0.3437499999999998
 40
0.3437499999999998
 40
0.3749999999999998
 40
0.3749999999999998
 40
0.4374999999999998
 40
0.4374999999999998
 40
0.4687499999999998
 40
0.4687499999999998
 40
0.4999999999999999
 40
0.4999999999999999
 40
0.5312499999999999
 40
0.5312499999999999
 40
0.5624999999999999
 40
0.5624999999999999
 40
0.5937499999999998
 40
0.5937499999999998
 40
0.6249999999999998
 40
0.6249999999999998
 40
0.6562499999999998
 40
0.6562499999999998
 40
0.6874999999999999
 40
0.6874999999999999
 40
0.71875
 40
0.71875
 40
0.75
 40
0.75
 40
0.8125000000000001
 40
0.8125000000000001
 40
0.8437500000000001
 40
0.8437500000000001
 40
0.8750000000000001
 40
0.8750000000000001
 40
0.9062500000000001
 40
0.9062500000000001
 40
0.9375
 40
0.9375
 40
1.0
 40
1.0
 40
1.0
 40
1.0
 10
128.2589492141696
 20
97.2163344833708
 30
0.0
 10
128.2650158333028
 20
97.58189625400419
 30
0.0
 10
128.2957397900498
 20
97.94414071367054
 30
0.0
 10
128.4055208404984
 20
98.66212699410664
 30
0.0
 10
128.4852895397466
 20
99.02004462918421
 30
0.0
 10
128.7940704738847
 20
100.0662154297964
 30
0.0
 10
129.0887919378707
 20
100.7240393894293
 30
0.0
 10
129.664377329402
 20
101.6512504207413
 30
0.0
 10
129.878202648146
 20
101.9485409930272
 30
0.0
 10
130.3383403566927
 20
102.5054335024409
 30
0.0
 10
130.585919329859
 20
102.7673370318781
 30
0.0
 10
131.1165076036899
 20
103.2576576072958
 30
0.0
 10
131.4018756131619
 20
103.487477062021
 30
0.0
 10
131.9985365026953
 20
103.9036661622208
 30
0.0
 10
132.6180089699909
 20
104.2752981226499
 30
0.0
 10
133.281855126309
 20
104.5602561584223
 30
0.0
 10
133.9685183666791
 20
104.8006461755538
 30
0.0
 10
134.3218146911792
 20
104.8975964647632
 30
0.0
 10
135.0299526813498
 20
105.0410202498028
 30
0.0
 10
135.3873038340285
 20
105.0884357075641
 30
0.0
 10
136.1085766937632
 20
105.1346279650363
 30
0.0
 10
136.4753249805449
 20
105.1332299308754
 30
0.0
 10
137.56290801771
 20
105.0528402289378
 30
0.0
 10
138.2675358840908
 20
104.9014430851111
 30
0.0
 10
139.293681255361
 20
104.5268999036669
 30
0.0
 10
139.6276303838913
 20
104.3777852030928
 30
0.0
 10
140.2652216299038
 20
104.0386990821286
 30
0.0
 10
140.5711351926583
 20
103.8479353131511
 30
0.0
 10
141.157069155126
 20
103.4237537205153
 30
0.0
 10
141.4390729062133
 20
103.1882215113063
 30
0.0
 10
141.9624771091823
 20
102.6851806714816
 30
0.0
 10
142.2046316760736
 20
102.4176424521763
 30
0.0
 10
142.649982094283
 20
101.8506619255688
 30
0.0
 10
142.8532737973915
 20
101.551295442759
 30
0.0
 10
143.2195741548962
 20
100.9195683978067
 30
0.0
 10
143.379205731651
 20
100.5927048499881
 30
0.0
 10
143.6500735885303
 20
99.92391418782701
 30
0.0
 10
143.7618788909985
 20
99.58100228875851
 30
0.0
 10
143.9376111371438
 20
98.87792147414079
 30
0.0
 10
144.0014449268344
 20
98.51561540429573
 30
0.0
 10
144.0765946057982
 20
97.79510193725193
 30
0.0
 10
144.0888337957816
 20
97.43465394319692
 30
0.0
 10
144.0626992266081
 20
96.71338506158078
 30
0.0
 10
144.0238311264399
 20
96.35091836378413
 30
0.0
 10
143.8289496029743
 20
95.27381740087051
 30
0.0
 10
143.6009219134645
 20
94.5897110006955
 30
0.0
 10
143.1132257736405
 20
93.61397185551323
 30
0.0
 10
142.9260340126757
 20
93.29843068389502
 30
0.0
 10
142.5140396541118
 20
92.70454284368398
 30
0.0
 10
142.2880061365915
 20
92.42354095362603
 30
0.0
 10
141.7957759144529
 20
91.89349315666534
 30
0.0
 10
141.5271357041141
 20
91.64261449360065
 30
0.0
 10
140.961543028894
 20
91.18709395077626
 30
0.0
 10
140.6647844509048
 20
90.98168942753554
 30
0.0
 10
139.7334772660374
 20
90.43117389375492
 30
0.0
 10
139.0511642978519
 20
90.15014079345227
 30
0.0
 10
138.3410522951984
 20
89.97376619534899
 30
0.0
  0
LINE
  5
223
330
1F
100
AcDbEntity
  8
0
  6
Continuous
 62
     7
370
    25
100
AcDbLine
 10
128.2589492142
 20
97.2163344834
 30
0.0
 11
128.8929238104
 21
97.2163344834
 31
0.0
  0
SPLINE
  5
224
330
1F
100
AcDbEntity
  8
0
  6
Continuous
 62
     7
370
    25
100
AcDbSpline
210
0.0
220
0.0
230
1.0
 70
     8
 71
     3
 72
    10
 73
     6
 74
     0
 42
0.00000001
 43
0.00000001
 40
0.0
 40
0.0
 40
0.0
 40
0.0
 40
0.5
 40
0.5
 40
1.0
 40
1.0
 40
1.0
 40
1.0
 10
125.1764738615541
 20
87.9778556551788
 30
0.0
 10
124.7009246576721
 20
88.56680414325814
 30
0.0
 10
124.2785887705309
 20
89.18460131533551
 30
0.0
 10
123.535566729543
 20
90.4737777258787
 30
0.0
 10
123.215078376056
 20
91.14627482228101
 30
0.0
 10
122.9506212985386
 20
91.83253156945342
 30
0.0
  0
SPLINE
  5
225
330
1F
100
AcDbEntity
  8
0
  6
Continuous
 62
     7
370
    25
100
AcDbSpline
210
0.0
220
0.0
230
1.0
 70
     8
 71
     3
 72
    18
 73
    14
 74
     0
 42
0.00000001
 43
0.00000001
 40
0.0
 40
0.0
 40
0.0
 40
0.0
 40
0.125
 40
0.125
 40
0.2500000000000001
 40
0.2500000000000001
 40
0.5000000000000001
 40
0.5000000000000001
 40
0.6250000000000001
 40
0.6250000000000001
 40
0.75
 40
0.75
 40
1.0
 40
1.0
 40
1.0
 40
1.0
 10
122.9506212985386
 20
91.83253156945342
 30
0.0
 10
122.7911142478264
 20
92.24644671515654
 30
0.0
 10
122.648627159368
 20
92.67087540129805
 30
0.0
 10
122.3999071427031
 20
93.54217046360989
 30
0.0
 10
122.2932247383914
 20
93.99157547944051
 30
0.0
 10
122.0361530367587
 20
95.35735418809497
 30
0.0
 10
121.9486327945111
 20
96.28306979192014
 30
0.0
 10
121.9494274562851
 20
97.69560146318837
 30
0.0
 10
121.9723338975456
 20
98.17265548339643
 30
0.0
 10
122.0618187704595
 20
99.1089454906787
 30
0.0
 10
122.127777091567
 20
99.56693111253917
 30
0.0
 10
122.383959828436
 20
100.9129898208269
 30
0.0
 10
122.6320229314587
 20
101.7733859217775
 30
0.0
 10
122.9506212985386
 20
102.6001373972882
 30
0.0
  0
SPLINE
  5
226
330
1F
100
AcDbEntity
  8
0
  6
Continuous
 62
     7
370
    25
100
AcDbSpline
210
0.0
220
0.0
230
1.0
 70
     8
 71
     3
 72
    10
 73
     6
 74
     0
 42
0.00000001
 43
0.00000001
 40
0.0
 40
0.0
 40
0.0
 40
0.0
 40
0.5000000000000002
 40
0.5000000000000002
 40
1.0
 40
1.0
 40
1.0
 40
1.0
 10
122.9506212985386
 20
102.6001373972882
 30
0.0
 10
123.2158604286043
 20
103.2884235431176
 30
0.0
 10
123.5362477992806
 20
103.9600430444845
 30
0.0
 10
124.2776193002643
 20
105.2464154483699
 30
0.0
 10
124.6994333816339
 20
105.8640179383224
 30
0.0
 10
125.1764738615541
 20
106.4548133115628
 30
0.0
  0
SPLINE
  5
227
330
1F
100
AcDbEntity
  8
0
  6
Continuous
 62
     7
370
    25
100
AcDbSpline
210
0.0
220
0.0
230
1.0
 70
     8
 71
     3
 72
    20
 73
    16
 74
     0
 42
0.00000001
 43
0.00000001
 40
0.0
 40
0.0
 40
0.0
 40
0.0
 40
0.2499999999999991
 40
0.2499999999999991
 40
0.3749999999999992
 40
0.3749999999999992
 40
0.4999999999999993
 40
0.4999999999999993
 40
0.6249999999999994
 40
0.6249999999999994
 40
0.7499999999999996
 40
0.7499999999999996
 40
0.8749999999999998
 40
0.8749999999999998
 40
1.0
 40
1.0
 40
1.0
 40
1.0
 10
125.1764738615541
 20
106.4548133115628
 30
0.0
 10
125.8520513353979
 20
107.2914887355837
 30
0.0
 10
126.6053157279217
 20
108.0371831533387
 30
0.0
 10
127.8425203061611
 20
109.0245993481576
 30
0.0
 10
128.272966635226
 20
109.3317104531834
 30
0.0
 10
129.1700569382863
 20
109.9006617146386
 30
0.0
 10
129.6311796589048
 20
110.1589125631217
 30
0.0
 10
130.5734566695669
 20
110.6224813315286
 30
0.0
 10
131.0551789838285
 20
110.8281372932866
 30
0.0
 10
132.0380824780217
 20
111.1872943596847
 30
0.0
 10
132.5408320608422
 20
111.3409485204086
 30
0.0
 10
133.5458546549609
 20
111.5914707939923
 30
0.0
 10
134.0500827734127
 20
111.6890915938646
 30
0.0
 10
135.0534220206103
 20
111.8317358256342
 30
0.0
 10
135.553662359316
 20
111.8764580810063
 30
0.0
 10
136.0376594600529
 20
111.8979990006136
 30
0.0
  0
SPLINE
  5
228
330
1F
100
AcDbEntity
  8
0
  6
Continuous
 62
     7
370
    25
100
AcDbSpline
210
0.0
220
0.0
230
1.0
 70
     8
 71
     3
 72
    10
 73
     6
 74
     0
 42
0.00000001
 43
0.00000001
 40
0.0
 40
0.0
 40
0.0
 40
0.0
 40
0.5
 40
0.5
 40
1.0
 40
1.0
 40
1.0
 40
1.0
 10
136.7481881607174
 20
111.8979990006135
 30
0.0
 10
136.6396758005234
 20
111.9028284841451
 30
0.0
 10
136.5184256220327
 20
111.9059549361484
 30
0.0
 10
136.2664877204427
 20
111.9059400308187
 30
0.0
 10
136.1461989661771
 20
111.90282969231
 30
0.0
 10
136.0376594600528
 20
111.8979990006136
 30
0.0
  0
SPLINE
  5
229
330
1F
100
AcDbEntity
  8
0
  6
Continuous
 62
     7
370
    25
100
AcDbSpline
210
0.0
220
0.0
230
1.0
 70
     8
 71
     3
 72
    20
 73
    16
 74
     0
 42
0.00000001
 43
0.00000001
 40
0.0
 40
0.0
 40
0.0
 40
0.0
 40
0.2499999999999991
 40
0.2499999999999991
 40
0.3749999999999992
 40
0.3749999999999992
 40
0.4999999999999993
 40
0.4999999999999993
 40
0.6249999999999994
 40
0.6249999999999994
 40
0.7499999999999996
 40
0.7499999999999996
 40
0.8749999999999998
 40
0.8749999999999998
 40
1.0
 40
1.0
 40
1.0
 40
1.0
 10
147.6093737592162
 20
106.4548133115628
 30
0.0
 10
146.9337962853724
 20
107.2914887355837
 30
0.0
 10
146.1805318928485
 20
108.0371831533387
 30
0.0
 10
144.9433273146092
 20
109.0245993481576
 30
0.0
 10
144.5128809855443
 20
109.3317104531834
 30
0.0
 10
143.615790682484
 20
109.9006617146386
 30
0.0
 10
143.1546679618655
 20
110.1589125631217
 30
0.0
 10
142.2123909512034
 20
110.6224813315286
 30
0.0
 10
141.7306686369418
 20
110.8281372932866
 30
0.0
 10
140.7477651427486
 20
111.1872943596847
 30
0.0
 10
140.2450155599281
 20
111.3409485204086
 30
0.0
 10
139.2399929658094
 20
111.5914707939923
 30
0.0
 10
138.7357648473576
 20
111.6890915938646
 30
0.0
 10
137.73242560016
 20
111.8317358256342
 30
0.0
 10
137.2321852614543
 20
111.8764580810063
 30
0.0
 10
136.7481881607174
 20
111.8979990006136
 30
0.0
  0
SPLINE
  5
22A
330
1F
100
AcDbEntity
  8
0
  6
Continuous
 62
     7
370
    25
100
AcDbSpline
210
0.0
220
0.0
230
1.0
 70
     8
 71
     3
 72
    10
 73
     6
 74
     0
 42
0.00000001
 43
0.00000001
 40
0.0
 40
0.0
 40
0.0
 40
0.0
 40
0.5000000000000002
 40
0.5000000000000002
 40
1.0
 40
1.0
 40
1.0
 40
1.0
 10
149.8352263222317
 20
102.6001373972882
 30
0.0
 10
149.569987192166
 20
103.2884235431176
 30
0.0
 10
149.2495998214897
 20
103.9600430444845
 30
0.0
 10
148.508228320506
 20
105.2464154483699
 30
0.0
 10
148.0864142391364
 20
105.8640179383224
 30
0.0
 10
147.6093737592162
 20
106.4548133115628
 30
0.0
  0
SPLINE
  5
22B
330
1F
100
AcDbEntity
  8
0
  6
Continuous
 62
     7
370
    25
100
AcDbSpline
210
0.0
220
0.0
230
1.0
 70
     8
 71
     3
 72
    18
 73
    14
 74
     0
 42
0.00000001
 43
0.00000001
 40
0.0
 40
0.0
 40
0.0
 40
0.0
 40
0.125
 40
0.125
 40
0.2500000000000001
 40
0.2500000000000001
 40
0.5000000000000001
 40
0.5000000000000001
 40
0.6250000000000001
 40
0.6250000000000001
 40
0.75
 40
0.75
 40
1.0
 40
1.0
 40
1.0
 40
1.0
 10
149.8352263222317
 20
91.83253156945342
 30
0.0
 10
149.9947333729439
 20
92.24644671515654
 30
0.0
 10
150.1372204614023
 20
92.67087540129805
 30
0.0
 10
150.3859404780672
 20
93.54217046360989
 30
0.0
 10
150.4926228823789
 20
93.99157547944051
 30
0.0
 10
150.7496945840116
 20
95.35735418809497
 30
0.0
 10
150.8372148262592
 20
96.28306979192014
 30
0.0
 10
150.8364201644851
 20
97.69560146318837
 30
0.0
 10
150.8135137232247
 20
98.17265548339643
 30
0.0
 10
150.7240288503108
 20
99.1089454906787
 30
0.0
 10
150.6580705292033
 20
99.56693111253917
 30
0.0
 10
150.4018877923343
 20
100.9129898208269
 30
0.0
 10
150.1538246893116
 20
101.7733859217775
 30
0.0
 10
149.8352263222317
 20
102.6001373972882
 30
0.0
  0
SPLINE
  5
22C
330
1F
100
AcDbEntity
  8
0
  6
Continuous
 62
     7
370
    25
100
AcDbSpline
210
0.0
220
0.0
230
1.0
 70
     8
 71
     3
 72
    10
 73
     6
 74
     0
 42
0.00000001
 43
0.00000001
 40
0.0
 40
0.0
 40
0.0
 40
0.0
 40
0.5
 40
0.5
 40
1.0
 40
1.0
 40
1.0
 40
1.0
 10
147.6093737592162
 20
87.9778556551788
 30
0.0
 10
148.0849229630982
 20
88.56680414325814
 30
0.0
 10
148.5072588502394
 20
89.18460131533551
 30
0.0
 10
149.2502808912273
 20
90.4737777258787
 30
0.0
 10
149.5707692447143
 20
91.14627482228101
 30
0.0
 10
149.8352263222317
 20
91.83253156945342
 30
0.0
  0
SPLINE
  5
22D
330
1F
100
AcDbEntity
  8
0
  6
Continuous
 62
     7
370
    25
100
AcDbSpline
210
0.0
220
0.0
230
1.0
 70
     8
 71
     3
 72
    20
 73
    16
 74
     0
 42
0.00000001
 43
0.00000001
 40
0.0
 40
0.0
 40
0.0
 40
0.0
 40
0.1249999999999999
 40
0.1249999999999999
 40
0.2499999999999999
 40
0.2499999999999999
 40
0.3749999999999998
 40
0.3749999999999998
 40
0.4999999999999998
 40
0.4999999999999998
 40
0.6249999999999998
 40
0.6249999999999998
 40
0.7499999999999996
 40
0.7499999999999996
 40
1.0
 40
1.0
 40
1.0
 40
1.0
 10
136.7481881607175
 20
82.53466996612806
 30
0.0
 10
137.2315128207497
 20
82.55618095788836
 30
0.0
 10
137.7310398632713
 20
82.60080795576533
 30
0.0
 10
138.7329686545949
 20
82.74310831456809
 30
0.0
 10
139.2364942980333
 20
82.84048194682049
 30
0.0
 10
140.2401362018491
 20
83.09034957526457
 30
0.0
 10
140.742417393307
 20
83.24368817604349
 30
0.0
 10
141.7227734265975
 20
83.60138266301325
 30
0.0
 10
142.2025581249176
 20
83.80590185728184
 30
0.0
 10
143.1398367250488
 20
84.2659226186037
 30
0.0
 10
143.5973531654917
 20
84.521417359589
 30
0.0
 10
144.4885670454142
 20
85.08448636503934
 30
0.0
 10
144.9236453872781
 20
85.39334320527325
 30
0.0
 10
146.1712877203981
 20
86.38620075736974
 30
0.0
 10
146.9347929883047
 20
87.14241460749628
 30
0.0
 10
147.6093737592162
 20
87.9778556551788
 30
0.0
  0
SPLINE
  5
22E
330
1F
100
AcDbEntity
  8
0
  6
Continuous
 62
     7
370
    25
100
AcDbSpline
210
0.0
220
0.0
230
1.0
 70
     8
 71
     3
 72
    10
 73
     6
 74
     0
 42
0.00000001
 43
0.00000001
 40
0.0
 40
0.0
 40
0.0
 40
0.0
 40
0.5
 40
0.5
 40
1.0
 40
1.0
 40
1.0
 40
1.0
 10
136.0376594600528
 20
82.53466996612806
 30
0.0
 10
136.1461718202468
 20
82.52984048259648
 30
0.0
 10
136.2674219987376
 20
82.52671403059317
 30
0.0
 10
136.5193599003277
 20
82.52672893592295
 30
0.0
 10
136.6396486545933
 20
82.52983927443161
 30
0.0
 10
136.7481881607175
 20
82.53466996612806
 30
0.0
  0
SPLINE
  5
22F
330
1F
100
AcDbEntity
  8
0
  6
Continuous
 62
     7
370
    25
100
AcDbSpline
210
0.0
220
0.0
230
1.0
 70
     8
 71
     3
 72
    20
 73
    16
 74
     0
 42
0.00000001
 43
0.00000001
 40
0.0
 40
0.0
 40
0.0
 40
0.0
 40
0.1249999999999999
 40
0.1249999999999999
 40
0.2499999999999999
 40
0.2499999999999999
 40
0.3749999999999998
 40
0.3749999999999998
 40
0.4999999999999998
 40
0.4999999999999998
 40
0.6249999999999998
 40
0.6249999999999998
 40
0.7499999999999996
 40
0.7499999999999996
 40
1.0
 40
1.0
 40
1.0
 40
1.0
 10
136.0376594600528
 20
82.53466996612806
 30
0.0
 10
135.5543348000205
 20
82.55618095788836
 30
0.0
 10
135.054807757499
 20
82.60080795576533
 30
0.0
 10
134.0528789661753
 20
82.74310831456809
 30
0.0
 10
133.549353322737
 20
82.84048194682049
 30
0.0
 10
132.5457114189212
 20
83.09034957526457
 30
0.0
 10
132.0434302274633
 20
83.24368817604349
 30
0.0
 10
131.0630741941728
 20
83.60138266301325
 30
0.0
 10
130.5832894958527
 20
83.80590185728184
 30
0.0
 10
129.6460108957214
 20
84.2659226186037
 30
0.0
 10
129.1884944552786
 20
84.521417359589
 30
0.0
 10
128.2972805753561
 20
85.08448636503934
 30
0.0
 10
127.8622022334922
 20
85.39334320527325
 30
0.0
 10
126.6145599003722
 20
86.38620075736974
 30
0.0
 10
125.8510546324656
 20
87.14241460749628
 30
0.0
 10
125.1764738615541
 20
87.9778556551788
 30
0.0
  0
CIRCLE
  5
230
330
1F
100
AcDbEntity
  8
0
  6
Continuous
 62
     7
370
    25
100
AcDbCircle
 10
136.3929238104
 20
97.2163344834
 30
0.0
 40
14.0
  0
SPLINE
  5
231
330
1F
100
AcDbEntity
  8
0
  6
Continuous
 62
     7
370
    25
100
AcDbSpline
210
0.0
220
0.0
230
1.0
 70
     8
 71
     3
 72
    62
 73
    58
 74
     0
 42
0.00000001
 43
0.00000001
 40
0.0
 40
0.0
 40
0.0
 40
0.0
 40
0.0172337117230782
 40
0.0402535424319293
 40
0.0588190802759799
 40
0.0799563124363463
 40
0.1036645784007883
 40
0.1324803431246464
 40
0.1556374545472154
 40
0.1683731443025374
 40
0.1811087388019903
 40
0.1938442388788764
 40
0.2065796453665172
 40
0.2248090747525963
 40
0.2397567316264646
 40
0.2585905486750039
 40
0.2929176717539548
 40
0.3007302735957821
 40
0.3067230628478524
 40
0.3108959458095601
 40
0.3619828353394661
 40
0.3712132865998117
 40
0.3809800186318314
 40
0.3912830198074738
 40
0.4021222775272256
 40
0.4134977782660044
 40
0.4192154716856757
 40
0.4298459021223229
 40
0.4453878574895231
 40
0.465839565635713
 40
0.4945599433279813
 40
0.5177898653813007
 40
0.5305259420288871
 40
0.5432619318260908
 40
0.5559978354665918
 40
0.5687336536440829
 40
0.586860005309127
 40
0.6018414583008684
 40
0.6207659415900825
 40
0.6536923712716883
 40
0.6819289042743378
 40
0.7054725993532049
 40
0.7243210082777107
 40
0.7410043509937122
 40
0.7638548087950855
 40
0.7775975203098962
 40
0.7928826805612832
 40
0.8097101179852616
 40
0.8280796435856072
 40
0.8794278039733286
 40
0.892289705732638
 40
0.905151506075067
 40
0.9180132059313036
 40
0.9308748062320573
 40
0.9487569351531465
 40
0.972852810087891
 40
0.9999999999999999
 40
0.9999999999999999
 40
0.9999999999999999
 40
0.9999999999999999
 10
128.8929238103851
 20
97.2163344833708
 30
0.0
 10
128.8970594859271
 20
97.40373156623991
 30
0.0
 10
128.9067193661427
 20
97.84144321815238
 30
0.0
 10
128.9898378518194
 20
98.47705612780634
 30
0.0
 10
129.1350052651308
 20
99.14383797865126
 30
0.0
 10
129.34045701134
 20
99.80299323733225
 30
0.0
 10
129.652292506482
 20
100.542034320754
 30
0.0
 10
130.0576958306488
 20
101.260600340759
 30
0.0
 10
130.4710083489607
 20
101.8313602292417
 30
0.0
 10
130.813679863265
 20
102.2342605566726
 30
0.0
 10
131.1000438502246
 20
102.535449562218
 30
0.0
 10
131.4026427721824
 20
102.8203191081125
 30
0.0
 10
131.7662472277595
 20
103.1264823274466
 30
0.0
 10
132.1692847286657
 20
103.4218905775358
 30
0.0
 10
132.6485843557267
 20
103.7226037451832
 30
0.0
 10
133.3035321068976
 20
104.0693784841695
 30
0.0
 10
133.9241176886781
 20
104.3109364292639
 30
0.0
 10
134.4270921283333
 20
104.4552912262837
 30
0.0
 10
134.616527021429
 20
104.5035593987165
 30
0.0
 10
135.2652023271492
 20
104.6536894940687
 30
0.0
 10
135.9703644389263
 20
104.7294292233505
 30
0.0
 10
136.7320220505081
 20
104.7107941461919
 30
0.0
 10
137.0500081197936
 20
104.6898882758314
 30
0.0
 10
137.3841389186649
 20
104.6532110382203
 30
0.0
 10
137.733532025436
 20
104.5985127569059
 30
0.0
 10
138.0310607355484
 20
104.5370829820279
 30
0.0
 10
138.3237824908639
 20
104.4652096223518
 30
0.0
 10
138.6574405699214
 20
104.3705952604131
 30
0.0
 10
139.1367945898898
 20
104.2046720655905
 30
0.0
 10
139.7824034111938
 20
103.9229287303744
 30
0.0
 10
140.467973820224
 20
103.5317900501862
 30
0.0
 10
141.0365566291231
 20
103.1158872259828
 30
0.0
 10
141.4383666896974
 20
102.7707072297093
 30
0.0
 10
141.7381455553392
 20
102.4828486358003
 30
0.0
 10
142.0215240102828
 20
102.1788349925626
 30
0.0
 10
142.3251721220784
 20
101.8145754343917
 30
0.0
 10
142.6182293169827
 20
101.4107562552103
 30
0.0
 10
142.9168675137447
 20
100.929901377509
 30
0.0
 10
143.2540535087256
 20
100.2854981728523
 30
0.0
 10
143.5694671387852
 20
99.47047402742383
 30
0.0
 10
143.7853917924658
 20
98.57294960922898
 30
0.0
 10
143.8801359494522
 20
97.80960580594886
 30
0.0
 10
143.9002359472742
 20
97.16693562010906
 30
0.0
 10
143.8710360762179
 20
96.5323872284959
 30
0.0
 10
143.7946685013974
 20
95.95715857165301
 30
0.0
 10
143.6761602258968
 20
95.40546401017325
 30
0.0
 10
143.5408462449668
 20
94.92528874032193
 30
0.0
 10
143.3552656657069
 20
94.40821599388975
 30
0.0
 10
142.9706164685113
 20
93.54901175149375
 30
0.0
 10
142.47870498808
 20
92.78644677657728
 30
0.0
 10
141.9306343080759
 20
92.1525152548816
 30
0.0
 10
141.638834459735
 20
91.85076845355324
 30
0.0
 10
141.3306273964508
 20
91.56590850061056
 30
0.0
 10
140.964937619191
 20
91.26374425406868
 30
0.0
 10
140.4800320401218
 20
90.91630236616331
 30
0.0
 10
139.8332385722982
 20
90.52914358978362
 30
0.0
 10
139.3177239615481
 20
90.31615313525158
 30
0.0
 10
139.0446182626145
 20
90.20331655266371
 30
0.0
  0
ARC
  5
232
330
1F
100
AcDbEntity
  8
0
  6
Continuous
 62
     7
370
    25
100
AcDbCircle
 10
131.4976268318
 20
100.160759771
 30
0.0
 40
1.788543282854823
100
AcDbArc
 50
143.4888454046
 51
151.3488814499
  0
LWPOLYLINE
  5
233
330
1F
100
AcDbEntity
  8
0
  6
Continuous
 62
     7
370
    25
100
AcDbPolyline
 90
        9
 70
   128
 43
0.0
 10
149.8352263222
 20
102.6001373973
 10
150.0419562933
 20
102.3971593313
 10
150.3845257271
 20
102.2528662493
 10
150.8578044538
 20
102.1694190212
 10
151.4547048585
 20
102.1480673162
 10
152.166288022
 20
102.1891308881
 10
152.9818975866
 20
102.2919947869
 10
153.8893193405
 20
102.4551185677
 10
154.874964133
 20
102.6760593604
  0
SPLINE
  5
234
330
1F
100
AcDbEntity
  8
0
  6
Continuous
 62
     7
370
    25
100
AcDbSpline
210
0.0
220
0.0
230
1.0
 70
     8
 71
     3
 72
    22
 73
    18
 74
     0
 42
0.00000001
 43
0.00000001
 40
0.0
 40
0.0
 40
0.0
 40
0.0
 40
0.2500000000000001
 40
0.2500000000000001
 40
0.3750000000000001
 40
0.3750000000000001
 40
0.4375000000000001
 40
0.4375000000000001
 40
0.5000000000000001
 40
0.5000000000000001
 40
0.6250000000000001
 40
0.6250000000000001
 40
0.7500000000000002
 40
0.7500000000000002
 40
0.8750000000000002
 40
0.8750000000000002
 40
1.0
 40
1.0
 40
1.0
 40
1.0
 10
154.8749641329995
 20
102.6760593603583
 30
0.0
 10
155.3222974243477
 20
101.8383787847911
 30
0.0
 10
155.6703895669927
 20
100.9662751390688
 30
0.0
 10
156.0298964095911
 20
99.60169929419857
 30
0.0
 10
156.1224606807037
 20
99.13737972450863
 30
0.0
 10
156.216688723259
 20
98.4254208080288
 30
0.0
 10
156.2405281072632
 20
98.18574576634329
 30
0.0
 10
156.2722953647393
 20
97.70926834970469
 30
0.0
 10
156.2803730335965
 20
97.47146429376626
 30
0.0
 10
156.2815245152401
 20
96.75933735806257
 30
0.0
 10
156.2515680266822
 20
96.28629686061343
 30
0.0
 10
156.1307215023283
 20
95.34360875147115
 30
0.0
 10
156.039184966911
 20
94.87184062788286
 30
0.0
 10
155.7977339708945
 20
93.94451436731701
 30
0.0
 10
155.6482779636189
 20
93.48995410463567
 30
0.0
 10
155.2990809946903
 20
92.60644102857928
 30
0.0
 10
155.0989998833817
 20
92.17614108315348
 30
0.0
 10
154.8749641329995
 20
91.7566096063833
 30
0.0
  0
LWPOLYLINE
  5
235
330
1F
100
AcDbEntity
  8
0
  6
Continuous
 62
     7
370
    25
100
AcDbPolyline
 90
        9
 70
   128
 43
0.0
 10
149.8352263222
 20
91.8325315695
 10
150.0419562933
 20
92.0355096354
 10
150.3845257271
 20
92.1798027175
 10
150.8578044538
 20
92.2632499456
 10
151.4547048585
 20
92.2846016505
 10
152.166288022
 20
92.2435380786
 10
152.9818975866
 20
92.1406741799
 10
153.8893193405
 20
91.977550399
 10
154.874964133
 20
91.7566096064
  0
SPLINE
  5
236
330
1F
100
AcDbEntity
  8
0
  6
Continuous
 62
     7
370
    25
100
AcDbSpline
210
0.0
220
0.0
230
1.0
 70
     8
 71
     3
 72
    22
 73
    18
 74
     0
 42
0.00000001
 43
0.00000001
 40
0.0
 40
0.0
 40
0.0
 40
0.0
 40
0.2500000000000001
 40
0.2500000000000001
 40
0.3750000000000001
 40
0.3750000000000001
 40
0.4375000000000001
 40
0.4375000000000001
 40
0.5000000000000001
 40
0.5000000000000001
 40
0.6250000000000001
 40
0.6250000000000001
 40
0.7500000000000002
 40
0.7500000000000002
 40
0.8750000000000002
 40
0.8750000000000002
 40
1.0
 40
1.0
 40
1.0
 40
1.0
 10
117.9108834877708
 20
102.6760593603583
 30
0.0
 10
117.4635501964225
 20
101.8383787847911
 30
0.0
 10
117.1154580537776
 20
100.9662751390688
 30
0.0
 10
116.7559512111792
 20
99.60169929419857
 30
0.0
 10
116.6633869400666
 20
99.13737972450863
 30
0.0
 10
116.5691588975113
 20
98.4254208080288
 30
0.0
 10
116.5453195135071
 20
98.18574576634329
 30
0.0
 10
116.513552256031
 20
97.70926834970469
 30
0.0
 10
116.5054745871738
 20
97.47146429376626
 30
0.0
 10
116.5043231055302
 20
96.75933735806257
 30
0.0
 10
116.534279594088
 20
96.28629686061343
 30
0.0
 10
116.655126118442
 20
95.34360875147115
 30
0.0
 10
116.7466626538593
 20
94.87184062788286
 30
0.0
 10
116.9881136498758
 20
93.94451436731701
 30
0.0
 10
117.1375696571515
 20
93.48995410463567
 30
0.0
 10
117.48676662608
 20
92.60644102857928
 30
0.0
 10
117.6868477373886
 20
92.17614108315348
 30
0.0
 10
117.9108834877708
 20
91.7566096063833
 30
0.0
  0
LWPOLYLINE
  5
237
330
1F
100
AcDbEntity
  8
0
  6
Continuous
 62
     7
370
    25
100
AcDbPolyline
 90
        9
 70
   128
 43
0.0
 10
122.9506212985
 20
102.6001373973
 10
122.7438913275
 20
102.3971593313
 10
122.4013218937
 20
102.2528662493
 10
121.9280431669
 20
102.1694190212
 10
121.3311427623
 20
102.1480673162
 10
120.6195595987
 20
102.1891308881
 10
119.8039500342
 20
102.2919947869
 10
118.8965282802
 20
102.4551185677
 10
117.9108834878
 20
102.6760593604
  0
LWPOLYLINE
  5
238
330
1F
100
AcDbEntity
  8
0
  6
Continuous
 62
     7
370
    25
100
AcDbPolyline
 90
        9
 70
   128
 43
0.0
 10
122.9506212985
 20
91.8325315695
 10
122.7438913275
 20
92.0355096354
 10
122.4013218937
 20
92.1798027175
 10
121.9280431669
 20
92.2632499456
 10
121.3311427623
 20
92.2846016505
 10
120.6195595987
 20
92.2435380786
 10
119.8039500342
 20
92.1406741799
 10
118.8965282802
 20
91.977550399
 10
117.9108834878
 20
91.7566096064
  0
SPLINE
  5
239
330
1F
100
AcDbEntity
  8
0
  6
Continuous
 62
     7
370
    25
100
AcDbSpline
210
0.0
220
0.0
230
1.0
 70
     8
 71
     3
 72
    14
 73
    10
 74
     0
 42
0.00000001
 43
0.00000001
 40
0.0
 40
0.0
 40
0.0
 40
0.0
 40
0.2500000000000001
 40
0.2500000000000001
 40
0.5000000000000002
 40
0.5000000000000002
 40
0.7500000000000001
 40
0.7500000000000001
 40
1.0
 40
1.0
 40
1.0
 40
1.0
 10
124.0062326620871
 20
106.5716865871305
 30
0.0
 10
123.5231482121851
 20
106.1882890543905
 30
0.0
 10
123.0456692015924
 20
105.805562362892
 30
0.0
 10
122.0847738874614
 20
105.0666751950229
 30
0.0
 10
121.601151367887
 20
104.7107825144165
 30
0.0
 10
120.6078847955516
 20
104.0445928609817
 30
0.0
 10
120.0980815276735
 20
103.7343577405148
 30
0.0
 10
119.0358266204996
 20
103.1659941832302
 30
0.0
 10
118.4829112003179
 20
102.9077661447201
 30
0.0
 10
117.9108834877708
 20
102.6760593603583
 30
0.0
  0
ARC
  5
23A
330
1F
100
AcDbEntity
  8
0
  6
Continuous
 62
     7
370
    25
100
AcDbCircle
 10
124.7191003265
 20
107.7923693845
 30
0.0
 40
1.413593576234271
100
AcDbArc
 50
239.7154597792
 51
288.8779787662
  0
ARC
  5
23B
330
1F
100
AcDbEntity
  8
0
  6
Continuous
 62
     7
370
    25
100
AcDbCircle
 10
148.0667472942
 20
107.7923693845
 30
0.0
 40
1.413593576234381
100
AcDbArc
 50
251.1220212338
 51
300.2845402208
  0
SPLINE
  5
23C
330
1F
100
AcDbEntity
  8
0
  6
Continuous
 62
     7
370
    25
100
AcDbSpline
210
0.0
220
0.0
230
1.0
 70
     8
 71
     3
 72
    14
 73
    10
 74
     0
 42
0.00000001
 43
0.00000001
 40
0.0
 40
0.0
 40
0.0
 40
0.0
 40
0.2500000000000001
 40
0.2500000000000001
 40
0.5000000000000002
 40
0.5000000000000002
 40
0.7500000000000001
 40
0.7500000000000001
 40
1.0
 40
1.0
 40
1.0
 40
1.0
 10
148.7796149586833
 20
106.5716865871305
 30
0.0
 10
149.2626994085852
 20
106.1882890543905
 30
0.0
 10
149.7401784191779
 20
105.805562362892
 30
0.0
 10
150.7010737333089
 20
105.0666751950229
 30
0.0
 10
151.1846962528833
 20
104.7107825144165
 30
0.0
 10
152.1779628252187
 20
104.0445928609817
 30
0.0
 10
152.6877660930968
 20
103.7343577405148
 30
0.0
 10
153.7500210002706
 20
103.1659941832302
 30
0.0
 10
154.3029364204524
 20
102.9077661447201
 30
0.0
 10
154.8749641329995
 20
102.6760593603583
 30
0.0
  0
SPLINE
  5
23D
330
1F
100
AcDbEntity
  8
0
  6
Continuous
 62
     7
370
    25
100
AcDbSpline
210
0.0
220
0.0
230
1.0
 70
     8
 71
     3
 72
    14
 73
    10
 74
     0
 42
0.00000001
 43
0.00000001
 40
0.0
 40
0.0
 40
0.0
 40
0.0
 40
0.25
 40
0.25
 40
0.5
 40
0.5
 40
0.75
 40
0.75
 40
1.0
 40
1.0
 40
1.0
 40
1.0
 10
154.8749641329995
 20
91.75660960638328
 30
0.0
 10
154.3045460644364
 20
91.52555482790054
 30
0.0
 10
153.7566016359099
 20
91.26983389716945
 30
0.0
 10
152.6967656077275
 20
90.70348305006134
 30
0.0
 10
152.1838211623827
 20
90.3918369704941
 30
0.0
 10
151.1868574934742
 20
89.72350301624408
 30
0.0
 10
150.7022728953115
 20
89.3669012218077
 30
0.0
 10
149.7403320757902
 20
88.62723939249788
 30
0.0
 10
149.2627702944598
 20
88.2444361705673
 30
0.0
 10
148.7796149586833
 20
87.8609823796111
 30
0.0
  0
ARC
  5
23E
330
1F
100
AcDbEntity
  8
0
  6
Continuous
 62
     7
370
    25
100
AcDbCircle
 10
148.0667472942
 20
86.6402995823
 30
0.0
 40
1.413593576234445
100
AcDbArc
 50
59.7154597792
 51
108.8779787662
  0
SPLINE
  5
23F
330
1F
100
AcDbEntity
  8
0
  6
Continuous
 62
     7
370
    25
100
AcDbSpline
210
0.0
220
0.0
230
1.0
 70
     8
 71
     3
 72
    14
 73
    10
 74
     0
 42
0.00000001
 43
0.00000001
 40
0.0
 40
0.0
 40
0.0
 40
0.0
 40
0.25
 40
0.25
 40
0.5
 40
0.5
 40
0.75
 40
0.75
 40
1.0
 40
1.0
 40
1.0
 40
1.0
 10
117.9108834877708
 20
91.75660960638328
 30
0.0
 10
118.4813015563338
 20
91.52555482790054
 30
0.0
 10
119.0292459848604
 20
91.26983389716945
 30
0.0
 10
120.0890820130427
 20
90.70348305006134
 30
0.0
 10
120.6020264583876
 20
90.3918369704941
 30
0.0
 10
121.5989901272961
 20
89.72350301624408
 30
0.0
 10
122.0835747254588
 20
89.3669012218077
 30
0.0
 10
123.0455155449801
 20
88.62723939249788
 30
0.0
 10
123.5230773263105
 20
88.2444361705673
 30
0.0
 10
124.0062326620871
 20
87.8609823796111
 30
0.0
  0
ARC
  5
240
330
1F
100
AcDbEntity
  8
0
  6
Continuous
 62
     7
370
    25
100
AcDbCircle
 10
124.7191003265
 20
86.6402995823
 30
0.0
 40
1.413593576234365
100
AcDbArc
 50
71.1220212338
 51
120.2845402208
  0
CIRCLE
  5
241
330
1F
100
AcDbEntity
  8
0
  6
Continuous
 62
     7
370
    25
100
AcDbCircle
 10
136.3929238104
 20
97.2163344834
 30
0.0
 40
7.349999999999994
  0
ARC
  5
242
330
1F
100
AcDbEntity
  8
0
  6
Continuous
 62
     7
370
    25
100
AcDbCircle
 10
136.6584768486
 20
113.0386886549
 30
0.0
 40
1.144211958952646
100
AcDbArc
 50
274.4968594967
 51
286.8396396658
  0
SPLINE
  5
243
330
1F
100
AcDbEntity
  8
0
  6
Continuous
 62
     7
370
    25
100
AcDbSpline
210
0.0
220
0.0
230
1.0
 70
     8
 71
     3
 72
    22
 73
    18
 74
     0
 42
0.00000001
 43
0.00000001
 40
0.0
 40
0.0
 40
0.0
 40
0.0
 40
0.0625
 40
0.0625
 40
0.1249999999999999
 40
0.1249999999999999
 40
0.2499999999999999
 40
0.2499999999999999
 40
0.3749999999999999
 40
0.3749999999999999
 40
0.5
 40
0.5
 40
0.6249999999999999
 40
0.6249999999999999
 40
0.7499999999999999
 40
0.7499999999999999
 40
1.0
 40
1.0
 40
1.0
 40
1.0
 10
136.9899482361153
 20
111.9435413012658
 30
0.0
 10
137.259166871257
 20
111.9347510881758
 30
0.0
 10
137.5297394160681
 20
111.9195405298228
 30
0.0
 10
138.0708573937472
 20
111.8755991942634
 30
0.0
 10
138.3414699025504
 20
111.8468912169187
 30
0.0
 10
139.1518735597175
 20
111.7402587958501
 30
0.0
 10
139.6901802050853
 20
111.6418542586433
 30
0.0
 10
140.7597827559207
 20
111.3896006813788
 30
0.0
 10
141.2917961278867
 20
111.2355659086658
 30
0.0
 10
142.3452446225608
 20
110.8713844516214
 30
0.0
 10
142.8597137618624
 20
110.6637321547598
 30
0.0
 10
143.8650489684967
 20
110.1994078770707
 30
0.0
 10
144.3559107444034
 20
109.9427215767424
 30
0.0
 10
145.3146553711452
 20
109.381439776587
 30
0.0
 10
145.7841268577891
 20
109.0756328789303
 30
0.0
 10
147.1468003989978
 20
108.0962874624837
 30
0.0
 10
147.9888291089042
 20
107.3644120789467
 30
0.0
 10
148.7796149586851
 20
106.5716865871319
 30
0.0
  0
SPLINE
  5
244
330
1F
100
AcDbEntity
  8
0
  6
Continuous
 62
     7
370
    25
100
AcDbSpline
210
0.0
220
0.0
230
1.0
 70
     8
 71
     3
 72
    22
 73
    18
 74
     0
 42
0.00000001
 43
0.00000001
 40
0.0
 40
0.0
 40
0.0
 40
0.0
 40
0.0625
 40
0.0625
 40
0.1249999999999999
 40
0.1249999999999999
 40
0.2499999999999999
 40
0.2499999999999999
 40
0.3749999999999999
 40
0.3749999999999999
 40
0.5
 40
0.5
 40
0.6249999999999999
 40
0.6249999999999999
 40
0.7499999999999999
 40
0.7499999999999999
 40
1.0
 40
1.0
 40
1.0
 40
1.0
 10
135.795899384655
 20
111.9435413012658
 30
0.0
 10
135.5266807495134
 20
111.9347510881758
 30
0.0
 10
135.2561082047021
 20
111.9195405298228
 30
0.0
 10
134.7149902270231
 20
111.8755991942634
 30
0.0
 10
134.4443777182199
 20
111.8468912169187
 30
0.0
 10
133.6339740610528
 20
111.7402587958501
 30
0.0
 10
133.095667415685
 20
111.6418542586433
 30
0.0
 10
132.0260648648496
 20
111.3896006813788
 30
0.0
 10
131.4940514928836
 20
111.2355659086658
 30
0.0
 10
130.4406029982095
 20
110.8713844516214
 30
0.0
 10
129.9261338589079
 20
110.6637321547598
 30
0.0
 10
128.9207986522736
 20
110.1994078770707
 30
0.0
 10
128.4299368763669
 20
109.9427215767424
 30
0.0
 10
127.471192249625
 20
109.381439776587
 30
0.0
 10
127.0017207629812
 20
109.0756328789303
 30
0.0
 10
125.6390472217725
 20
108.0962874624837
 30
0.0
 10
124.7970185118661
 20
107.3644120789467
 30
0.0
 10
124.0062326620852
 20
106.5716865871319
 30
0.0
  0
ARC
  5
245
330
1F
100
AcDbEntity
  8
0
  6
Continuous
 62
     7
370
    25
100
AcDbCircle
 10
136.1273707722
 20
113.0386886549
 30
0.0
 40
1.144211958952707
100
AcDbArc
 50
253.1603603342
 51
265.5031405033
  0
SPLINE
  5
246
330
1F
100
AcDbEntity
  8
0
  6
Continuous
 62
     7
370
    25
100
AcDbSpline
210
0.0
220
0.0
230
1.0
 70
     8
 71
     3
 72
    20
 73
    16
 74
     0
 42
0.00000001
 43
0.00000001
 40
0.0
 40
0.0
 40
0.0
 40
0.0
 40
0.2500000000000004
 40
0.2500000000000004
 40
0.3750000000000004
 40
0.3750000000000004
 40
0.5000000000000004
 40
0.5000000000000004
 40
0.7500000000000007
 40
0.7500000000000007
 40
0.8750000000000007
 40
0.8750000000000007
 40
0.9375000000000003
 40
0.9375000000000003
 40
1.0
 40
1.0
 40
1.0
 40
1.0
 10
148.7796149586833
 20
87.86098237961113
 30
0.0
 10
147.9877255578655
 20
87.06715062996544
 30
0.0
 10
147.1468750356403
 20
86.33690770825574
 30
0.0
 10
145.7918166119095
 20
85.36232840223437
 30
0.0
 10
145.3246990781807
 20
85.0573518324542
 30
0.0
 10
144.3570597287281
 20
84.4903801220234
 30
0.0
 10
143.863936033413
 20
84.23275215659706
 30
0.0
 10
142.3596563330852
 20
83.53797003611263
 30
0.0
 10
141.3223195777688
 20
83.17760663694682
 30
0.0
 10
139.7151944103526
 20
82.79581232650624
 30
0.0
 10
139.1680013456628
 20
82.69486635906053
 30
0.0
 10
138.3478436570981
 20
82.5864537249757
 30
0.0
 10
138.0747144370142
 20
82.55741968792188
 30
0.0
 10
137.5302711189049
 20
82.51313520308003
 30
0.0
 10
137.2588804912458
 20
82.4979085280195
 30
0.0
 10
136.9899482361153
 20
82.48912766547583
 30
0.0
  0
ARC
  5
247
330
1F
100
AcDbEntity
  8
0
  6
Continuous
 62
     7
370
    25
100
AcDbCircle
 10
136.6584768486
 20
81.3939803118
 30
0.0
 40
1.144211958954534
100
AcDbArc
 50
73.1603603342
 51
85.5031405033
  0
ARC
  5
248
330
1F
100
AcDbEntity
  8
0
  6
Continuous
 62
     7
370
    25
100
AcDbCircle
 10
136.1273707722
 20
81.3939803118
 30
0.0
 40
1.144211958954531
100
AcDbArc
 50
94.4968594967
 51
106.8396396658
  0
SPLINE
  5
249
330
1F
100
AcDbEntity
  8
0
  6
Continuous
 62
     7
370
    25
100
AcDbSpline
210
0.0
220
0.0
230
1.0
 70
     8
 71
     3
 72
    20
 73
    16
 74
     0
 42
0.00000001
 43
0.00000001
 40
0.0
 40
0.0
 40
0.0
 40
0.0
 40
0.2500000000000004
 40
0.2500000000000004
 40
0.3750000000000004
 40
0.3750000000000004
 40
0.5000000000000004
 40
0.5000000000000004
 40
0.7500000000000007
 40
0.7500000000000007
 40
0.8750000000000007
 40
0.8750000000000007
 40
0.9375000000000003
 40
0.9375000000000003
 40
1.0
 40
1.0
 40
1.0
 40
1.0
 10
124.006232662087
 20
87.86098237961113
 30
0.0
 10
124.7981220629048
 20
87.06715062996544
 30
0.0
 10
125.63897258513
 20
86.33690770825574
 30
0.0
 10
126.9940310088608
 20
85.36232840223437
 30
0.0
 10
127.4611485425896
 20
85.0573518324542
 30
0.0
 10
128.4287878920422
 20
84.4903801220234
 30
0.0
 10
128.9219115873572
 20
84.23275215659706
 30
0.0
 10
130.4261912876851
 20
83.53797003611263
 30
0.0
 10
131.4635280430015
 20
83.17760663694682
 30
0.0
 10
133.0706532104177
 20
82.79581232650624
 30
0.0
 10
133.6178462751074
 20
82.69486635906053
 30
0.0
 10
134.4380039636721
 20
82.5864537249757
 30
0.0
 10
134.7111331837561
 20
82.55741968792188
 30
0.0
 10
135.2555765018654
 20
82.51313520308003
 30
0.0
 10
135.5269671295245
 20
82.4979085280195
 30
0.0
 10
135.795899384655
 20
82.48912766547583
 30
0.0
  0
SPLINE
  5
24A
330
1F
100
AcDbEntity
  8
0
  6
Continuous
 62
     7
370
    25
100
AcDbSpline
210
0.0
220
0.0
230
1.0
 70
     8
 71
     3
 72
     8
 73
     4
 74
     0
 42
0.00000001
 43
0.00000001
 40
0.0
 40
0.0
 40
0.0
 40
0.0
 40
1.0
 40
1.0
 40
1.0
 40
1.0
 10
133.8220608263183
 20
82.21633448337079
 30
0.0
 10
134.6006426914176
 20
82.21633448337079
 30
0.0
 10
135.2529301331212
 20
82.30321215049585
 30
0.0
 10
135.795899384655
 20
82.48912766547585
 30
0.0
  0
ARC
  5
24B
330
1F
100
AcDbEntity
  8
0
  6
Continuous
 62
     7
370
    25
100
AcDbCircle
 10
134.15658127
 20
94.1550528309
 30
0.0
 40
11.94340402517812
100
AcDbArc
 50
211.8023960484
 51
268.3950039333
  0
SPLINE
  5
24C
330
1F
100
AcDbEntity
  8
0
  6
Continuous
 62
     7
370
    25
100
AcDbSpline
210
0.0
220
0.0
230
1.0
 70
     8
 71
     3
 72
     8
 73
     4
 74
     0
 42
0.00000001
 43
0.00000001
 40
0.0
 40
0.0
 40
0.0
 40
0.0
 40
1.0
 40
1.0
 40
1.0
 40
1.0
 10
138.9637867944519
 20
82.21633448337079
 30
0.0
 10
138.1852049293527
 20
82.21633448337079
 30
0.0
 10
137.5329174876491
 20
82.30321215049585
 30
0.0
 10
136.9899482361153
 20
82.48912766547585
 30
0.0
  0
ARC
  5
24D
330
1F
100
AcDbEntity
  8
0
  6
Continuous
 62
     7
370
    25
100
AcDbCircle
 10
138.6292663507
 20
94.1550528309
 30
0.0
 40
11.9434040251781
100
AcDbArc
 50
271.6049960667
 51
328.1976039516
  0
ARC
  5
24E
330
1F
100
AcDbEntity
  8
0
  6
Continuous
 62
     7
370
    25
100
AcDbCircle
 10
134.15658127
 20
100.2776161359
 30
0.0
 40
11.94340402517807
100
AcDbArc
 50
91.6049960667
 51
148.1976039516
  0
SPLINE
  5
24F
330
1F
100
AcDbEntity
  8
0
  6
Continuous
 62
     7
370
    25
100
AcDbSpline
210
0.0
220
0.0
230
1.0
 70
     8
 71
     3
 72
     8
 73
     4
 74
     0
 42
0.00000001
 43
0.00000001
 40
0.0
 40
0.0
 40
0.0
 40
0.0
 40
1.0
 40
1.0
 40
1.0
 40
1.0
 10
133.8220608263183
 20
112.2163344833708
 30
0.0
 10
134.6006426914176
 20
112.2163344833708
 30
0.0
 10
135.2529301331212
 20
112.1294568162457
 30
0.0
 10
135.795899384655
 20
111.9435413012658
 30
0.0
  0
ARC
  5
250
330
1F
100
AcDbEntity
  8
0
  6
Continuous
 62
     7
370
    25
100
AcDbCircle
 10
138.6292663507
 20
100.2776161359
 30
0.0
 40
11.94340402517812
100
AcDbArc
 50
31.8023960484
 51
88.3950039333
  0
SPLINE
  5
251
330
1F
100
AcDbEntity
  8
0
  6
Continuous
 62
     7
370
    25
100
AcDbSpline
210
0.0
220
0.0
230
1.0
 70
     8
 71
     3
 72
     8
 73
     4
 74
     0
 42
0.00000001
 43
0.00000001
 40
0.0
 40
0.0
 40
0.0
 40
0.0
 40
1.0
 40
1.0
 40
1.0
 40
1.0
 10
138.9637867944519
 20
112.2163344833708
 30
0.0
 10
138.1852049293527
 20
112.2163344833708
 30
0.0
 10
137.5329174876491
 20
112.1294568162457
 30
0.0
 10
136.9899482361153
 20
111.9435413012658
 30
0.0
  0
LINE
  5
252
330
1F
100
AcDbEntity
  8
0
  6
Continuous
 62
     7
370
    25
100
AcDbLine
 10
148.518362619
 20
112.2163344834
 30
0.0
 11
138.9637867945
 21
112.2163344834
 31
0.0
  0
LWPOLYLINE
  5
253
330
1F
100
AcDbEntity
  8
0
  6
Continuous
 62
     7
370
    25
100
AcDbPolyline
 90
       12
 70
   128
 43
0.0
 10
148.518362619
 20
112.2163344834
 10
149.26032857
 20
112.1274253424
 10
149.993498847
 20
111.8617518975
 10
150.7091820447
 20
111.4224635884
 10
151.3988940592
 20
110.8147679812
 10
152.0544586637
 20
110.0458690353
 10
152.6681044333
 20
109.1248817032
 10
153.2325568722
 20
108.0627238773
 10
153.7411246495
 20
106.8719869629
 10
154.1877789221
 20
105.5667866128
 10
154.5672248036
 20
104.1625953926
 10
154.874964133
 20
102.6760593604
  0
LINE
  5
254
330
1F
100
AcDbEntity
  8
0
  6
Continuous
 62
     7
370
    25
100
AcDbLine
 10
148.518362619
 20
82.2163344834
 30
0.0
 11
138.9637867945
 21
82.2163344834
 31
0.0
  0
LWPOLYLINE
  5
255
330
1F
100
AcDbEntity
  8
0
  6
Continuous
 62
     7
370
    25
100
AcDbPolyline
 90
       12
 70
   128
 43
0.0
 10
154.874964133
 20
91.7566096064
 10
154.5672248036
 20
90.2700735741
 10
154.1877789221
 20
88.865882354
 10
153.7411246495
 20
87.5606820039
 10
153.2325568722
 20
86.3699450895
 10
152.6681044333
 20
85.3077872635
 10
152.0544586637
 20
84.3867999314
 10
151.3988940592
 20
83.6179009855
 10
150.7091820447
 20
83.0102053783
 10
149.993498847
 20
82.5709170692
 10
149.26032857
 20
82.3052436244
 10
148.518362619
 20
82.2163344834
  0
LINE
  5
256
330
1F
100
AcDbEntity
  8
0
  6
Continuous
 62
     7
370
    25
100
AcDbLine
 10
124.2674850018
 20
82.2163344834
 30
0.0
 11
133.8220608263
 21
82.2163344834
 31
0.0
  0
LWPOLYLINE
  5
257
330
1F
100
AcDbEntity
  8
0
  6
Continuous
 62
     7
370
    25
100
AcDbPolyline
 90
       12
 70
   128
 43
0.0
 10
117.9108834878
 20
91.7566096064
 10
118.2186228172
 20
90.2700735741
 10
118.5980686987
 20
88.865882354
 10
119.0447229713
 20
87.5606820039
 10
119.5532907486
 20
86.3699450895
 10
120.1177431875
 20
85.3077872635
 10
120.7313889571
 20
84.3867999314
 10
121.3869535615
 20
83.6179009855
 10
122.0766655761
 20
83.0102053783
 10
122.7923487738
 20
82.5709170692
 10
123.5255190508
 20
82.3052436244
 10
124.2674850018
 20
82.2163344834
  0
LWPOLYLINE
  5
258
330
1F
100
AcDbEntity
  8
0
  6
Continuous
 62
     7
370
    25
100
AcDbPolyline
 90
       12
 70
   128
 43
0.0
 10
124.2674850018
 20
112.2163344834
 10
123.5255190508
 20
112.1274253424
 10
122.7923487738
 20
111.8617518975
 10
122.0766655761
 20
111.4224635884
 10
121.3869535615
 20
110.8147679812
 10
120.7313889571
 20
110.0458690353
 10
120.1177431875
 20
109.1248817032
 10
119.5532907486
 20
108.0627238773
 10
119.0447229713
 20
106.8719869629
 10
118.5980686987
 20
105.5667866128
 10
118.2186228172
 20
104.1625953926
 10
117.9108834878
 20
102.6760593604
  0
LINE
  5
259
330
1F
100
AcDbEntity
  8
0
  6
Continuous
 62
     7
370
    25
100
AcDbLine
 10
124.2674850018
 20
112.2163344834
 30
0.0
 11
133.8220608263
 21
112.2163344834
 31
0.0
  0
SPLINE
  5
25A
330
1F
100
AcDbEntity
  8
0
  6
Continuous
 62
     7
370
    25
100
AcDbSpline
210
0.0
220
0.0
230
1.0
 70
     8
 71
     3
 72
    10
 73
     6
 74
     0
 42
0.00000001
 43
0.00000001
 40
0.0
 40
0.0
 40
0.0
 40
0.0
 40
0.5
 40
0.5
 40
1.0
 40
1.0
 40
1.0
 40
1.0
 10
136.9899482361152
 20
82.48912766547583
 30
0.0
 10
136.7949510315414
 20
82.48323222587794
 30
0.0
 10
136.5962415787893
 20
82.48006754526156
 30
0.0
 10
136.1897599705828
 20
82.48006594824527
 30
0.0
 10
135.990902753271
 20
82.48323203951766
 30
0.0
 10
135.7958993846551
 20
82.48912766547583
 30
0.0
  0
SPLINE
  5
25B
330
1F
100
AcDbEntity
  8
0
  6
Continuous
 62
     7
370
    25
100
AcDbSpline
210
0.0
220
0.0
230
1.0
 70
     8
 71
     3
 72
    10
 73
     6
 74
     0
 42
0.00000001
 43
0.00000001
 40
0.0
 40
0.0
 40
0.0
 40
0.0
 40
0.5
 40
0.5
 40
1.0
 40
1.0
 40
1.0
 40
1.0
 10
135.795899384655
 20
111.9435413012658
 30
0.0
 10
135.990896589229
 20
111.9494367408636
 30
0.0
 10
136.1896060419809
 20
111.9526014214801
 30
0.0
 10
136.5960876501874
 20
111.9526030184964
 30
0.0
 10
136.7949448674993
 20
111.949436927224
 30
0.0
 10
136.9899482361153
 20
111.9435413012658
 30
0.0
  0
LINE
  5
25C
330
1F
100
AcDbEntity
  8
0
  6
Continuous
 62
     7
370
    25
100
AcDbLine
 10
138.9637867945
 20
82.2163344834
 30
0.0
 11
133.8220608263
 21
82.2163344834
 31
0.0
  0
LINE
  5
25D
330
1F
100
AcDbEntity
  8
0
  6
Continuous
 62
     7
370
    25
100
AcDbLine
 10
138.9637867945
 20
112.2163344834
 30
0.0
 11
133.8220608263
 21
112.2163344834
 31
0.0
  0
LINE
  5
25E
330
1F
100
AcDbEntity
  8
0
  6
Continuous
 62
     7
370
    25
100
AcDbLine
 10
115.7039548098
 20
82.2163344834
 30
0.0
 11
124.2674850018
 21
82.2163344834
 31
0.0
  0
LWPOLYLINE
  5
25F
330
1F
100
AcDbEntity
  8
0
  6
Continuous
 62
     7
370
    25
100
AcDbPolyline
 90
       30
 70
   128
 43
0.0
 10
115.7039548098
 20
112.2163344834
 10
114.9660709752
 20
112.1284038407
 10
114.2368381538
 20
111.865642819
 10
113.5248059339
 20
111.4311320511
 10
112.8383222422
 20
110.8299657784
 10
112.1854354722
 20
110.0691921259
 10
111.5738001245
 20
109.157730469
 10
111.0105870641
 20
108.1062668622
 10
110.5023994495
 20
106.9271287551
 10
110.0551953156
 20
105.6341404638
 10
109.674217722
 20
104.2424610939
 10
109.3639332828
 20
102.7684068135
 10
109.1279797992
 20
101.2292595613
 10
108.9691236102
 20
99.6430644317
 10
108.8892271593
 20
98.0284181122
 10
108.8892271593
 20
96.4042508546
 10
108.9691236102
 20
94.7896045351
 10
109.1279797992
 20
93.2034094054
 10
109.3639332828
 20
91.6642621533
 10
109.674217722
 20
90.1902078729
 10
110.0551953156
 20
88.7985285029
 10
110.5023994495
 20
87.5055402116
 10
111.0105870641
 20
86.3264021045
 10
111.5738001245
 20
85.2749384978
 10
112.1854354722
 20
84.3634768409
 10
112.8383222422
 20
83.6027031883
 10
113.5248059339
 20
83.0015369156
 10
114.2368381538
 20
82.5670261477
 10
114.9660709752
 20
82.3042651261
 10
115.7039548098
 20
82.2163344834
  0
LINE
  5
260
330
1F
100
AcDbEntity
  8
0
  6
Continuous
 62
     7
370
    25
100
AcDbLine
 10
115.7039548098
 20
112.2163344834
 30
0.0
 11
124.2674850018
 21
112.2163344834
 31
0.0
  0
LINE
  5
261
330
1F
100
AcDbEntity
  8
0
  6
Continuous
 62
     7
370
    25
100
AcDbLine
 10
157.081892811
 20
112.2163344834
 30
0.0
 11
148.518362619
 21
112.2163344834
 31
0.0
  0
LWPOLYLINE
  5
262
330
1F
100
AcDbEntity
  8
0
  6
Continuous
 62
     7
370
    25
100
AcDbPolyline
 90
       30
 70
   128
 43
0.0
 10
157.081892811
 20
112.2163344834
 10
157.8197766456
 20
112.1284038407
 10
158.5490094669
 20
111.865642819
 10
159.2610416868
 20
111.4311320511
 10
159.9475253786
 20
110.8299657784
 10
160.6004121486
 20
110.0691921259
 10
161.2120474963
 20
109.157730469
 10
161.7752605566
 20
108.1062668622
 10
162.2834481713
 20
106.9271287551
 10
162.7306523052
 20
105.6341404638
 10
163.1116298987
 20
104.2424610939
 10
163.421914338
 20
102.7684068135
 10
163.6578678215
 20
101.2292595613
 10
163.8167240106
 20
99.6430644317
 10
163.8966204615
 20
98.0284181122
 10
163.8966204615
 20
96.4042508546
 10
163.8167240106
 20
94.7896045351
 10
163.6578678215
 20
93.2034094054
 10
163.421914338
 20
91.6642621533
 10
163.1116298987
 20
90.1902078729
 10
162.7306523052
 20
88.7985285029
 10
162.2834481713
 20
87.5055402116
 10
161.7752605566
 20
86.3264021045
 10
161.2120474963
 20
85.2749384978
 10
160.6004121486
 20
84.3634768409
 10
159.9475253786
 20
83.6027031883
 10
159.2610416868
 20
83.0015369156
 10
158.5490094669
 20
82.5670261477
 10
157.8197766456
 20
82.3042651261
 10
157.081892811
 20
82.2163344834
  0
LINE
  5
263
330
1F
100
AcDbEntity
  8
0
  6
Continuous
 62
     7
370
    25
100
AcDbLine
 10
157.081892811
 20
82.2163344834
 30
0.0
 11
148.518362619
 21
82.2163344834
 31
0.0
  0
ELLIPSE
  5
264
330
1F
100
AcDbEntity
  8
0
  6
Continuous
 62
     7
370
    25
100
AcDbEllipse
 10
125.43885158
 20
97.2163344834
 30
0.0
 11
-7.453534986930379
 21
0.0
 31
0.0
210
0.0
220
0.0
230
1.0
 40
0.4226182617
 41
2.151937362825796
 42
4.131247944353804
  0
ELLIPSE
  5
265
330
1F
100
AcDbEntity
  8
0
  6
Continuous
 62
     7
370
    25
100
AcDbEllipse
 10
147.3469960408
 20
97.2163344834
 30
0.0
 11
7.453534986930349
 21
0.0
 31
0.0
210
0.0
220
0.0
230
1.0
 40
0.4226182617
 41
2.151937362825798
 42
4.131247944353802
  0
LINE
  5
266
330
1F
100
AcDbEntity
  8
0
  6
Continuous
 62
     7
370
    25
100
AcDbLine
 10
99.7795691418
 20
82.2163344834
 30
0.0
 11
115.7039548098
 21
82.2163344834
 31
0.0
  0
LINE
  5
267
330
1F
100
AcDbEntity
  8
0
  6
Continuous
 62
     7
370
    25
100
AcDbLine
 10
99.7795691418
 20
112.2163344834
 30
0.0
 11
99.7795691418
 21
82.2163344834
 31
0.0
  0
LINE
  5
268
330
1F
100
AcDbEntity
  8
0
  6
Continuous
 62
     7
370
    25
100
AcDbLine
 10
99.7795691418
 20
112.2163344834
 30
0.0
 11
115.7039548098
 21
112.2163344834
 31
0.0
  0
LINE
  5
269
330
1F
100
AcDbEntity
  8
0
  6
Continuous
 62
     7
370
    25
100
AcDbLine
 10
173.006278479
 20
112.2163344834
 30
0.0
 11
157.081892811
 21
112.2163344834
 31
0.0
  0
LINE
  5
26A
330
1F
100
AcDbEntity
  8
0
  6
Continuous
 62
     7
370
    25
100
AcDbLine
 10
173.006278479
 20
112.2163344834
 30
0.0
 11
173.006278479
 21
82.2163344834
 31
0.0
  0
LINE
  5
26B
330
1F
100
AcDbEntity
  8
0
  6
Continuous
 62
     7
370
    25
100
AcDbLine
 10
173.006278479
 20
82.2163344834
 30
0.0
 11
157.081892811
 21
82.2163344834
 31
0.0
  0
LINE
  5
26C
330
1F
100
AcDbEntity
  8
0
  6
Continuous
 62
     7
370
    25
100
AcDbLine
 10
95.1929238104
 20
82.2163344834
 30
0.0
 11
95.1929238104
 21
112.2163344834
 31
0.0
  0
LINE
  5
26D
330
1F
100
AcDbEntity
  8
0
  6
Continuous
 62
     7
370
    25
100
AcDbLine
 10
95.1929238104
 20
112.2163344834
 30
0.0
 11
99.7795691418
 21
112.2163344834
 31
0.0
  0
LINE
  5
26E
330
1F
100
AcDbEntity
  8
0
  6
Continuous
 62
     7
370
    25
100
AcDbLine
 10
95.1929238104
 20
82.2163344834
 30
0.0
 11
99.7795691418
 21
82.2163344834
 31
0.0
  0
LINE
  5
26F
330
1F
100
AcDbEntity
  8
0
  6
Continuous
 62
     7
370
    25
100
AcDbLine
 10
177.5929238104
 20
112.2163344834
 30
0.0
 11
173.006278479
 21
112.2163344834
 31
0.0
  0
LINE
  5
270
330
1F
100
AcDbEntity
  8
0
  6
Continuous
 62
     7
370
    25
100
AcDbLine
 10
177.5929238104
 20
82.2163344834
 30
0.0
 11
173.006278479
 21
82.2163344834
 31
0.0
  0
LINE
  5
271
330
1F
100
AcDbEntity
  8
0
  6
Continuous
 62
     7
370
    25
100
AcDbLine
 10
177.5929238104
 20
82.2163344834
 30
0.0
 11
177.5929238104
 21
112.2163344834
 31
0.0
  0
SPLINE
  5
272
330
1F
100
AcDbEntity
  8
0
  6
Continuous
 62
     7
370
    25
100
AcDbSpline
210
0.0
220
0.0
230
1.0
 70
     8
 71
     3
 72
    23
 73
    19
 74
     0
 42
0.00000001
 43
0.00000001
 40
0.0
 40
0.0
 40
0.0
 40
0.0
 40
0.0092538973436129
 40
0.0806975443418229
 40
0.1507676718227754
 40
0.220837799303728
 40
0.2922814463019375
 40
0.3637250933001469
 40
0.4337952207811007
 40
0.5038653482620533
 40
0.5753089952602631
 40
0.646752642258473
 40
0.716822769739426
 40
0.7785001512629475
 40
0.8413690041054177
 40
0.9044966102577086
 40
0.9526628893389523
 40
1.0
 40
1.0
 40
1.0
 40
1.0
 10
93.49292381038514
 20
83.71250724530333
 30
0.0
 10
93.49500581998002
 20
83.74717874452173
 30
0.0
 10
93.51316174449101
 20
84.04952755407557
 30
0.0
 10
93.54764618979978
 20
85.12012796103807
 30
0.0
 10
93.5929073414688
 20
86.88984113850162
 30
0.0
 10
93.63826792754458
 20
89.10310377064981
 30
0.0
 10
93.68667260530596
 20
91.63031044830191
 30
0.0
 10
93.73508444278379
 20
94.37877566108119
 30
0.0
 10
93.78042396176356
 20
97.21629134116375
 30
0.0
 10
93.82576254179718
 20
100.0540675658416
 30
0.0
 10
93.87417725144876
 20
102.8017357900412
 30
0.0
 10
93.92257142260618
 20
105.3318579053291
 30
0.0
 10
93.96616962619022
 20
107.4470885325787
 30
0.0
 10
94.00768444669016
 20
109.1332203544569
 30
0.0
 10
94.05015518498391
 20
110.4054485144756
 30
0.0
 10
94.08965696949322
 20
111.2091174620485
 30
0.0
 10
94.12507544667373
 20
111.6434924959676
 30
0.0
 10
94.1453664090278
 20
111.6921947666326
 30
0.0
 10
94.15542380628841
 20
111.7163344833708
 30
0.0
  0
LINE
  5
273
330
1F
100
AcDbEntity
  8
0
  6
Continuous
 62
     7
370
    25
100
AcDbLine
 10
94.8990267723
 20
82.7547515884
 30
0.0
 11
94.9054238063
 21
82.7163344834
 31
0.0
  0
SPLINE
  5
274
330
1F
100
AcDbEntity
  8
0
  6
Continuous
 62
     7
370
    25
100
AcDbSpline
210
0.0
220
0.0
230
1.0
 70
     8
 71
     3
 72
    12
 73
     8
 74
     0
 42
0.00000001
 43
0.00000001
 40
0.0
 40
0.0
 40
0.0
 40
0.0
 40
0.0340911518765739
 40
0.2822618782524793
 40
0.5352975951457684
 40
0.7883333120390557
 40
0.9999999999999999
 40
0.9999999999999999
 40
0.9999999999999999
 40
0.9999999999999999
 10
93.49292381038514
 20
106.6133303441081
 30
0.0
 10
93.49500855103895
 20
106.7081742507837
 30
0.0
 10
93.51226941728211
 20
107.4934460226497
 30
0.0
 10
93.54445476521111
 20
108.6474710911904
 30
0.0
 10
93.59292975693701
 20
109.9423011085281
 30
0.0
 10
93.63902489494836
 20
110.7216994043257
 30
0.0
 10
93.66716427973532
 20
110.8211821476688
 30
0.0
 10
93.67998145114845
 20
110.8664954117552
 30
0.0
  0
LINE
  5
275
330
1F
100
AcDbEntity
  8
0
  6
Continuous
 62
     7
370
    25
100
AcDbLine
 10
94.0616738083
 20
83.5282332959
 30
0.0
 11
94.4366738083
 21
83.5282332959
 31
0.0
  0
LINE
  5
276
330
1F
100
AcDbEntity
  8
0
  6
Continuous
 62
     7
370
    25
100
AcDbLine
 10
93.5929238104
 20
82.7163344834
 30
0.0
 11
94.0616738083
 21
83.5282332959
 31
0.0
  0
LINE
  5
277
330
1F
100
AcDbEntity
  8
0
  6
Continuous
 62
     7
370
    25
100
AcDbLine
 10
94.4366738083
 20
83.5282332959
 30
0.0
 11
94.9054238063
 21
82.7163344834
 31
0.0
  0
SPLINE
  5
278
330
1F
100
AcDbEntity
  8
0
  6
Continuous
 62
     7
370
    25
100
AcDbSpline
210
0.0
220
0.0
230
1.0
 70
     8
 71
     3
 72
    24
 73
    20
 74
     0
 42
0.00000001
 43
0.00000001
 40
0.0
 40
0.0
 40
0.0
 40
0.0
 40
0.053156380758922
 40
0.1168520921320619
 40
0.1805478035052017
 40
0.2430188694581892
 40
0.3054899354111767
 40
0.3691856467843162
 40
0.4328813581574557
 40
0.4953524241104443
 40
0.557823490063432
 40
0.621519201436572
 40
0.6852149128097119
 40
0.7476859787626995
 40
0.816829083087686
 40
0.8873120406016046
 40
0.9574735844070346
 40
0.9999794289154947
 40
1.0
 40
1.0
 40
1.0
 40
1.0
 10
180.2173899346266
 20
83.56669240296236
 30
0.0
 10
180.2046039031476
 20
83.61157581154265
 30
0.0
 10
180.1764967501198
 20
83.71024167478889
 30
0.0
 10
180.1304129700075
 20
84.49604050890028
 30
0.0
 10
180.082016308134
 20
85.76435356330653
 30
0.0
 10
180.0366730583922
 20
87.47683694038203
 30
0.0
 10
179.9913343624619
 20
89.55498445604194
 30
0.0
 10
179.9429237707634
 20
91.94373924827356
 30
0.0
 10
179.8945134274831
 20
94.53748594837647
 30
0.0
 10
179.8491740005958
 20
97.21634157376414
 30
0.0
 10
179.8038334373574
 20
99.89515437880004
 30
0.0
 10
179.7554265701041
 20
102.4890320636816
 30
0.0
 10
179.7070032628679
 20
104.8773077048905
 30
0.0
 10
179.6601091083476
 20
107.0307728477326
 30
0.0
 10
179.6113313711488
 20
108.8370231133955
 30
0.0
 10
179.557666025084
 20
110.1878477039667
 30
0.0
 10
179.5110306281933
 20
110.753211236115
 30
0.0
 10
179.4844878589314
 20
110.9629299146296
 30
0.0
 10
179.4741638245212
 20
110.90437905808
 30
0.0
 10
179.474158830529
 20
110.904350735575
 30
0.0
  0
SPLINE
  5
279
330
1F
100
AcDbEntity
  8
0
  6
Continuous
 62
     7
370
    25
100
AcDbSpline
210
0.0
220
0.0
230
1.0
 70
     8
 71
     3
 72
    22
 73
    18
 74
     0
 42
0.00000001
 43
0.00000001
 40
0.0
 40
0.0
 40
0.0
 40
0.0
 40
0.0629815610721764
 40
0.1393952039903556
 40
0.2173067124570363
 40
0.2952182209237173
 40
0.3716318638418952
 40
0.4388929553243777
 40
0.5074533831087519
 40
0.576295989436088
 40
0.6288228110323443
 40
0.6804453987152718
 40
0.7568590416334507
 40
0.8347705501001311
 40
0.9126820585668113
 40
0.9890957014849902
 40
1.0
 40
1.0
 40
1.0
 40
1.0
 10
180.5429238103852
 20
85.4897100798492
 30
0.0
 10
180.5303934755856
 20
85.95960923919812
 30
0.0
 10
180.5026604606251
 20
86.99962298381254
 30
0.0
 10
180.4601217162389
 20
89.10873540287466
 30
0.0
 10
180.411660447077
 20
91.62880751664228
 30
0.0
 10
180.3632788439389
 20
94.3790979671247
 30
0.0
 10
180.3196772477986
 20
97.10391944376329
 30
0.0
 10
180.278163790952
 20
99.71305783303062
 30
0.0
 10
180.2356906121302
 20
102.1550978613413
 30
0.0
 10
180.1961966603481
 20
104.2832512975739
 30
0.0
 10
180.1607557091493
 20
106.0563106730818
 30
0.0
 10
180.1256669701806
 20
107.7286176421573
 30
0.0
 10
180.0850436799062
 20
109.3428486026172
 30
0.0
 10
180.036700196357
 20
110.709661492507
 30
0.0
 10
179.9881994115285
 20
111.4977641850591
 30
0.0
 10
179.9559392656207
 20
111.8074979708948
 30
0.0
 10
179.9385969690088
 20
111.6917930162495
 30
0.0
 10
179.9364312562573
 20
111.6773437364748
 30
0.0
  0
SPLINE
  5
27A
330
1F
100
AcDbEntity
  8
0
  6
Continuous
 62
     7
370
    25
100
AcDbSpline
210
0.0
220
0.0
230
1.0
 70
     8
 71
     3
 72
    17
 73
    13
 74
     0
 42
0.00000001
 43
0.00000001
 40
0.0
 40
0.0
 40
0.0
 40
0.0
 40
0.0925593074012156
 40
0.2048587569034222
 40
0.3193595080332082
 40
0.4338602591629941
 40
0.5461597086652012
 40
0.6450083370441325
 40
0.7457665034534032
 40
0.846939366614262
 40
0.9241341259196975
 40
1.0
 40
1.0
 40
1.0
 40
1.0
 10
180.5429238103852
 20
94.90717887052091
 30
0.0
 10
180.5303934771353
 20
95.67571459014339
 30
0.0
 10
180.5026604639439
 20
97.37669179684696
 30
0.0
 10
180.4601217174283
 20
100.0554860321264
 30
0.0
 10
180.4116604622499
 20
102.8013522354653
 30
0.0
 10
180.3632788070644
 20
105.3319589095089
 30
0.0
 10
180.3196773935352
 20
107.44706526299
 30
0.0
 10
180.278163329739
 20
109.1332263808267
 30
0.0
 10
180.2356923931832
 20
110.405446865083
 30
0.0
 10
180.1961906596967
 20
111.2091177880164
 30
0.0
 10
180.1607721722706
 20
111.6434924252755
 30
0.0
 10
180.1404812111374
 20
111.6921947432054
 30
0.0
 10
180.1304238144819
 20
111.7163344833708
 30
0.0
  0
SPLINE
  5
27B
330
1F
100
AcDbEntity
  8
0
  6
Continuous
 62
     7
370
    25
100
AcDbSpline
210
0.0
220
0.0
230
1.0
 70
     8
 71
     3
 72
    25
 73
    21
 74
     0
 42
0.00000001
 43
0.00000001
 40
0.0
 40
0.0
 40
0.0
 40
0.0
 40
0.0086260938908899
 40
0.0699774650602839
 40
0.1325314500787043
 40
0.1950854350971248
 40
0.2564368062665184
 40
0.3177881774359121
 40
0.3803421624543323
 40
0.4428961474727522
 40
0.504247518642147
 40
0.5655988898115408
 40
0.6281528748299613
 40
0.6907068598483816
 40
0.7520582310177757
 40
0.8060611572666896
 40
0.8611073012426781
 40
0.9163800021113514
 40
0.9585529989646149
 40
1.0
 40
1.0
 40
1.0
 40
1.0
 10
179.3868208484805
 20
82.75475158835222
 30
0.0
 10
179.3846870250317
 20
82.74053297623628
 30
0.0
 10
179.3673768081804
 20
82.62518732325204
 30
0.0
 10
179.3351456445746
 20
82.93503728954573
 30
0.0
 10
179.2866572040456
 20
83.72293642723308
 30
0.0
 10
179.2382677874561
 20
85.08996931247957
 30
0.0
 10
179.1929226565582
 20
86.89785057598212
 30
0.0
 10
179.1475845185979
 20
89.10091066618409
 30
0.0
 10
179.0991737110775
 20
91.6309032847744
 30
0.0
 10
179.0507635200075
 20
94.37862021447492
 30
0.0
 10
179.0054235681738
 20
97.21633262424139
 30
0.0
 10
178.9600851038451
 20
100.0540562616698
 30
0.0
 10
178.9116703625961
 20
102.8017388466995
 30
0.0
 10
178.8632761999351
 20
105.3318571003973
 30
0.0
 10
178.819677994172
 20
107.4470887180209
 30
0.0
 10
178.7781631741858
 20
109.133220306431
 30
0.0
 10
178.7356924357574
 20
110.4054485276201
 30
0.0
 10
178.6961906512828
 20
111.2091174594508
 30
0.0
 10
178.6607721740953
 20
111.643492496531
 30
0.0
 10
178.6404812117421
 20
111.6921947668193
 30
0.0
 10
178.6304238144819
 20
111.7163344833708
 30
0.0
  0
LINE
  5
27C
330
1F
100
AcDbEntity
  8
0
  6
Continuous
 62
     7
370
    25
100
AcDbLine
 10
177.8868208485
 20
82.7547515884
 30
0.0
 11
177.8804238145
 21
82.7163344834
 31
0.0
  0
SPLINE
  5
27D
330
1F
100
AcDbEntity
  8
0
  6
Continuous
 62
     7
370
    25
100
AcDbSpline
210
0.0
220
0.0
230
1.0
 70
     8
 71
     3
 72
    23
 73
    19
 74
     0
 42
0.00000001
 43
0.00000001
 40
0.0
 40
0.0
 40
0.0
 40
0.0
 40
0.0624548593453922
 40
0.1261445324948025
 40
0.1898342056442127
 40
0.2522993494673627
 40
0.3214358991668624
 40
0.3919121750399407
 40
0.4620670676738949
 40
0.5045688827148485
 40
0.5670340265379988
 40
0.6307236996874089
 40
0.6944133728368191
 40
0.7568785166599693
 40
0.8193436604831194
 40
0.8830333336325298
 40
0.9467230067819397
 40
0.9999999999999999
 40
0.9999999999999999
 40
0.9999999999999999
 40
0.9999999999999999
 10
179.8491663215464
 20
83.52827576314935
 30
0.0
 10
179.834153471583
 20
83.5782898993569
 30
0.0
 10
179.8038309480852
 20
83.67930701629803
 30
0.0
 10
179.7554263780351
 20
84.49343727855849
 30
0.0
 10
179.7070038906593
 20
85.765104810752
 30
0.0
 10
179.6601067344266
 20
87.53691448172142
 30
0.0
 10
179.6113413720417
 20
89.78603637069351
 30
0.0
 10
179.5576280987984
 20
92.47199338324698
 30
0.0
 10
179.5111478948084
 20
95.01528853682461
 30
0.0
 10
179.4694798045641
 20
97.49902588801015
 30
0.0
 10
179.4288010126269
 20
99.89544521774776
 30
0.0
 10
179.3804328237992
 20
102.488859022342
 30
0.0
 10
179.3320109132912
 20
104.8777023773435
 30
0.0
 10
179.2866751801005
 20
106.9558297250362
 30
0.0
 10
179.2413311872858
 20
108.6683068323123
 30
0.0
 10
179.1929345424514
 20
109.9366659358621
 30
0.0
 10
179.1468193413701
 20
110.7228429025588
 30
0.0
 10
179.1186822818859
 20
110.8215400003357
 30
0.0
 10
179.1058661696218
 20
110.8664954117552
 30
0.0
  0
LINE
  5
27E
330
1F
100
AcDbEntity
  8
0
  6
Continuous
 62
     7
370
    25
100
AcDbLine
 10
179.1929238104
 20
82.7163344834
 30
0.0
 11
178.7241738124
 21
83.5282332959
 31
0.0
  0
LINE
  5
27F
330
1F
100
AcDbEntity
  8
0
  6
Continuous
 62
     7
370
    25
100
AcDbLine
 10
178.7241738124
 20
83.5282332959
 30
0.0
 11
178.3491738124
 21
83.5282332959
 31
0.0
  0
LINE
  5
280
330
1F
100
AcDbEntity
  8
0
  6
Continuous
 62
     7
370
    25
100
AcDbLine
 10
178.3491738124
 20
83.5282332959
 30
0.0
 11
177.8804238145
 21
82.7163344834
 31
0.0
  0
ARC
  5
281
330
1F
100
AcDbEntity
  8
0
  6
Continuous
 62
     7
370
    25
100
AcDbCircle
 10
136.485866034
 20
112.3070220753
 30
0.0
 40
0.090700124896168
100
AcDbArc
 50
238.6525055213
 51
269.0475002897
  0
ARC
  5
282
330
1F
100
AcDbEntity
  8
0
  6
Continuous
 62
     7
370
    25
100
AcDbCircle
 10
136.2999815868
 20
112.3070220753
 30
0.0
 40
0.0907001248962211
100
AcDbArc
 50
270.9524997103
 51
301.3474944787
  0
ARC
  5
283
330
1F
100
AcDbEntity
  8
0
  6
Continuous
 62
     7
370
    25
100
AcDbCircle
 10
136.2999815868
 20
82.1256468914
 30
0.0
 40
0.0907001248962211
100
AcDbArc
 50
58.6525055213
 51
89.0475002897
  0
ARC
  5
284
330
1F
100
AcDbEntity
  8
0
  6
Continuous
 62
     7
370
    25
100
AcDbCircle
 10
136.485866034
 20
82.1256468914
 30
0.0
 40
0.090700124896168
100
AcDbArc
 50
90.9524997103
 51
121.3474944787
  0
SPLINE
  5
285
330
1F
100
AcDbEntity
  8
0
  6
Continuous
 62
     7
370
    25
100
AcDbSpline
210
0.0
220
0.0
230
1.0
 70
     8
 71
     3
 72
     8
 73
     4
 74
     0
 42
0.00000001
 43
0.00000001
 40
0.0
 40
0.0
 40
0.0
 40
0.0
 40
1.0
 40
1.0
 40
1.0
 40
1.0
 10
136.347166260964
 20
112.2295616391456
 30
0.0
 10
136.3776712939114
 20
112.2294688309759
 30
0.0
 10
136.4081763268589
 20
112.2294688309759
 30
0.0
 10
136.4386813598063
 20
112.2295616391456
 30
0.0
  0
SPLINE
  5
286
330
1F
100
AcDbEntity
  8
0
  6
Continuous
 62
     7
370
    25
100
AcDbSpline
210
0.0
220
0.0
230
1.0
 70
     8
 71
     3
 72
     8
 73
     4
 74
     0
 42
0.00000001
 43
0.00000001
 40
0.0
 40
0.0
 40
0.0
 40
0.0
 40
1.0
 40
1.0
 40
1.0
 40
1.0
 10
136.4386813598063
 20
82.20310732759602
 30
0.0
 10
136.4081763268589
 20
82.20320013576573
 30
0.0
 10
136.3776712939114
 20
82.20320013576573
 30
0.0
 10
136.347166260964
 20
82.20310732759603
 30
0.0
  0
ARC
  5
287
330
1F
100
AcDbEntity
  8
0
  6
Continuous
 62
     7
370
    25
100
AcDbCircle
 10
136.3929238104
 20
97.2163344834
 30
0.0
 40
28.25
100
AcDbArc
 50
32.0712506327
 51
90.0
  0
ARC
  5
288
330
1F
100
AcDbEntity
  8
0
  6
Continuous
 62
     7
370
    25
100
AcDbCircle
 10
136.3929238104
 20
97.2163344834
 30
0.0
 40
28.25
100
AcDbArc
 50
212.0712506327
 51
327.9287493673
  0
ARC
  5
289
330
1F
100
AcDbEntity
  8
0
  6
Continuous
 62
     7
370
    25
100
AcDbCircle
 10
136.3929238104
 20
97.2163344834
 30
0.0
 40
28.25
100
AcDbArc
 50
90.0
 51
147.9287493673
  0
LINE
  5
28A
330
1F
100
AcDbEntity
  8
0
  6
Continuous
 62
     8
370
    25
100
AcDbLine
 10
228.2979287999
 20
91.2912067122
 30
0.0
 11
228.2979287999
 21
103.1414622545
 31
0.0
  0
LINE
  5
28B
330
1F
100
AcDbEntity
  8
0
  6
Continuous
 62
     8
370
    25
100
AcDbLine
 10
43.733554606
 20
99.5886262676
 30
0.0
 11
43.733554606
 21
101.4137678496
 31
0.0
  0
LINE
  5
28C
330
1F
100
AcDbEntity
  8
0
  6
Continuous
 62
     8
370
    25
100
AcDbLine
 10
43.733554606
 20
93.0189011171
 30
0.0
 11
43.733554606
 21
99.5886262676
 31
0.0
  0
LINE
  5
28D
330
1F
100
AcDbEntity
  8
0
  6
Continuous
 62
     8
370
    25
100
AcDbLine
 10
42.9729020087
 20
98.4743050095
 30
0.0
 11
43.1958038823
 21
98.4743050095
 31
0.0
  0
LINE
  5
28E
330
1F
100
AcDbEntity
  8
0
  6
Continuous
 62
     8
370
    25
100
AcDbLine
 10
43.1113437064
 20
95.7635191486
 30
0.0
 11
42.9729020087
 21
95.7635191486
 31
0.0
  0
LINE
  5
28F
330
1F
100
AcDbEntity
  8
0
  6
Continuous
 62
     8
370
    25
100
AcDbLine
 10
42.9729020087
 20
97.9909377079
 30
0.0
 11
43.1271449308
 21
97.9909377079
 31
0.0
  0
LINE
  5
290
330
1F
100
AcDbEntity
  8
0
  6
Continuous
 62
     8
370
    25
100
AcDbLine
 10
229.0522930147
 20
99.5886262676
 30
0.0
 11
229.0522930147
 21
93.0189011171
 31
0.0
  0
LINE
  5
291
330
1F
100
AcDbEntity
  8
0
  6
Continuous
 62
     8
370
    25
100
AcDbLine
 10
229.0522930147
 20
101.4137678496
 30
0.0
 11
229.0522930147
 21
99.5886262676
 31
0.0
  0
LINE
  5
292
330
1F
100
AcDbEntity
  8
0
  6
Continuous
 62
     8
370
    25
100
AcDbLine
 10
229.5900437384
 20
98.4743050095
 30
0.0
 11
229.8129456121
 21
98.4743050095
 31
0.0
  0
LINE
  5
293
330
1F
100
AcDbEntity
  8
0
  6
Continuous
 62
     8
370
    25
100
AcDbLine
 10
229.8129456121
 20
95.7635191486
 30
0.0
 11
229.6745039144
 21
95.7635191486
 31
0.0
  0
LINE
  5
294
330
1F
100
AcDbEntity
  8
0
  6
Continuous
 62
     8
370
    25
100
AcDbLine
 10
229.6587026899
 20
97.9909377079
 30
0.0
 11
229.8129456121
 21
97.9909377079
 31
0.0
  0
LINE
  5
295
330
1F
100
AcDbEntity
  8
0
  6
Continuous
 62
     8
370
    25
100
AcDbLine
 10
44.4879188209
 20
91.7058099358
 30
0.0
 11
44.4879188209
 21
91.2912067122
 31
0.0
  0
LINE
  5
296
330
1F
100
AcDbEntity
  8
0
  6
Continuous
 62
     8
370
    25
100
AcDbLine
 10
44.4879188209
 20
103.1414622545
 30
0.0
 11
44.4879188209
 21
91.7058099358
 31
0.0
  0
LINE
  5
297
330
1F
100
AcDbEntity
  8
0
  6
Continuous
 62
     8
370
    25
100
AcDbLine
 10
50.9548798532
 20
105.3619258291
 30
0.0
 11
50.9548798532
 21
106.1919925276
 31
0.0
  0
LINE
  5
298
330
1F
100
AcDbEntity
  8
0
  6
Continuous
 62
     8
370
    25
100
AcDbLine
 10
51.8883000671
 20
88.2243835287
 30
0.0
 11
51.8883000671
 21
89.0603370669
 31
0.0
  0
LINE
  5
299
330
1F
100
AcDbEntity
  8
0
  6
Continuous
 62
     8
370
    25
100
AcDbLine
 10
46.5841976072
 20
106.1157019852
 30
0.0
 11
46.5841976072
 21
88.3169669815
 31
0.0
  0
ARC
  5
29A
330
1F
100
AcDbEntity
  8
0
  6
Continuous
 62
     8
370
    25
100
AcDbCircle
 10
56.4282688949
 20
87.5832970656
 30
0.0
 40
1.997793427422648
100
AcDbArc
 50
201.7109659857
 51
269.419232486
  0
SPLINE
  5
29B
330
1F
100
AcDbEntity
  8
0
  6
Continuous
 62
     8
370
    25
100
AcDbSpline
210
0.0
220
0.0
230
1.0
 70
     8
 71
     3
 72
    11
 73
     7
 74
     0
 42
0.00000001
 43
0.00000001
 40
0.0
 40
0.0
 40
0.0
 40
0.0
 40
0.2772555781635519
 40
0.857082177919387
 40
0.8603223642088067
 40
1.0
 40
1.0
 40
1.0
 40
1.0
 10
53.17481034957957
 20
87.89186548915264
 30
0.0
 10
53.06548543758848
 20
87.95130371038982
 30
0.0
 10
52.72752854492362
 20
88.13504551442152
 30
0.0
 10
52.35282376483286
 20
88.52937622226231
 30
0.0
 10
52.0424448685841
 20
88.90357066001509
 30
0.0
 10
51.98094235502047
 20
88.98255570461284
 30
0.0
 10
51.92083420640245
 20
89.0597500260184
 30
0.0
  0
SPLINE
  5
29C
330
1F
100
AcDbEntity
  8
0
  6
Continuous
 62
     8
370
    25
100
AcDbSpline
210
0.0
220
0.0
230
1.0
 70
     8
 71
     3
 72
     9
 73
     5
 74
     0
 42
0.00000001
 43
0.00000001
 40
0.0
 40
0.0
 40
0.0
 40
0.0
 40
0.3578036204682878
 40
1.0
 40
1.0
 40
1.0
 40
1.0
 10
50.99948618641898
 20
105.3627324461912
 30
0.0
 10
51.19159715640201
 20
105.5561804009984
 30
0.0
 10
51.7285145015413
 20
106.0968343903405
 30
0.0
 10
52.24183633927114
 20
106.3973727583454
 30
0.0
 10
52.57148976499583
 20
106.5903774101885
 30
0.0
  0
ARC
  5
29D
330
1F
100
AcDbEntity
  8
0
  6
Continuous
 62
     8
370
    25
100
AcDbCircle
 10
56.3226001958
 20
106.9567660743
 30
0.0
 40
1.936447297043476
100
AcDbArc
 50
89.1392623365
 51
154.4864248277
  0
ARC
  5
29E
330
1F
100
AcDbEntity
  8
0
  6
Continuous
 62
     8
370
    25
100
AcDbCircle
 10
56.4286480769
 20
87.5359374875
 30
0.0
 40
1.997328495626666
100
AcDbArc
 50
201.0424455628
 51
269.4082194287
  0
LINE
  5
29F
330
1F
100
AcDbEntity
  8
0
  6
Continuous
 62
     8
370
    25
100
AcDbLine
 10
60.4341976072
 20
85.2445210211
 30
0.0
 11
60.4341976072
 21
85.4702005701
 31
0.0
  0
LINE
  5
2A0
330
1F
100
AcDbEntity
  8
0
  6
Continuous
 62
     8
370
    25
100
AcDbLine
 10
60.4341976072
 20
108.9624683966
 30
0.0
 11
60.4341976072
 21
109.1881479457
 31
0.0
  0
LINE
  5
2A1
330
1F
100
AcDbEntity
  8
0
  6
Continuous
 62
     8
370
    25
100
AcDbLine
 10
56.4080189975
 20
109.1178707366
 30
0.0
 11
56.4080189975
 21
109.1012819303
 31
0.0
  0
LINE
  5
2A2
330
1F
100
AcDbEntity
  8
0
  6
Continuous
 62
     8
370
    25
100
AcDbLine
 10
56.4080189975
 20
85.5387155268
 30
0.0
 11
56.4080189975
 21
85.3147982301
 31
0.0
  0
ARC
  5
2A3
330
1F
100
AcDbEntity
  8
0
  6
Continuous
 62
     8
370
    25
100
AcDbCircle
 10
56.4419760588
 20
107.101430452
 30
0.0
 40
2.000139749435281
100
AcDbArc
 50
90.9727769134
 51
153.4946140881
  0
LINE
  5
2A4
330
1F
100
AcDbEntity
  8
0
  6
Continuous
 62
     8
370
    25
100
AcDbLine
 10
221.8309677675
 20
89.3161644265
 30
0.0
 11
221.8309677675
 21
88.486097728
 31
0.0
  0
LINE
  5
2A5
330
1F
100
AcDbEntity
  8
0
  6
Continuous
 62
     8
370
    25
100
AcDbLine
 10
220.8975475536
 20
106.4537067269
 30
0.0
 11
220.8975475536
 21
105.6177531887
 31
0.0
  0
LINE
  5
2A6
330
1F
100
AcDbEntity
  8
0
  6
Continuous
 62
     8
370
    25
100
AcDbLine
 10
226.2016500136
 20
88.5623882704
 30
0.0
 11
226.2016500136
 21
106.361123274
 31
0.0
  0
ARC
  5
2A7
330
1F
100
AcDbEntity
  8
0
  6
Continuous
 62
     8
370
    25
100
AcDbCircle
 10
216.3575787259
 20
107.09479319
 30
0.0
 40
1.997793427422762
100
AcDbArc
 50
21.7109659857
 51
89.419232486
  0
SPLINE
  5
2A8
330
1F
100
AcDbEntity
  8
0
  6
Continuous
 62
     8
370
    25
100
AcDbSpline
210
0.0
220
0.0
230
1.0
 70
     8
 71
     3
 72
    11
 73
     7
 74
     0
 42
0.00000001
 43
0.00000001
 40
0.0
 40
0.0
 40
0.0
 40
0.0
 40
0.2772555781635521
 40
0.8570821779193872
 40
0.8603223642088069
 40
1.0
 40
1.0
 40
1.0
 40
1.0
 10
219.6110372711908
 20
106.7862247664173
 30
0.0
 10
219.7203621831818
 20
106.7267865451801
 30
0.0
 10
220.0583190758466
 20
106.5430447411484
 30
0.0
 10
220.4330238559378
 20
106.1487140333077
 30
0.0
 10
220.7434027521861
 20
105.7745195955548
 30
0.0
 10
220.8049052657498
 20
105.6955345509571
 30
0.0
 10
220.8650134143678
 20
105.6183402295515
 30
0.0
  0
SPLINE
  5
2A9
330
1F
100
AcDbEntity
  8
0
  6
Continuous
 62
     8
370
    25
100
AcDbSpline
210
0.0
220
0.0
230
1.0
 70
     8
 71
     3
 72
     9
 73
     5
 74
     0
 42
0.00000001
 43
0.00000001
 40
0.0
 40
0.0
 40
0.0
 40
0.0
 40
0.3578036204682863
 40
1.0
 40
1.0
 40
1.0
 40
1.0
 10
221.7863614343513
 20
89.3153578093788
 30
0.0
 10
221.5942504643683
 20
89.12190985457156
 30
0.0
 10
221.057333119229
 20
88.58125586522938
 30
0.0
 10
220.5440112814991
 20
88.28071749722452
 30
0.0
 10
220.2143578557744
 20
88.08771284538143
 30
0.0
  0
ARC
  5
2AA
330
1F
100
AcDbEntity
  8
0
  6
Continuous
 62
     8
370
    25
100
AcDbCircle
 10
216.463247425
 20
87.7213241813
 30
0.0
 40
1.936447297043428
100
AcDbArc
 50
269.1392623365
 51
334.4864248277
  0
ARC
  5
2AB
330
1F
100
AcDbEntity
  8
0
  6
Continuous
 62
     8
370
    25
100
AcDbCircle
 10
216.3571995439
 20
107.142152768
 30
0.0
 40
1.997328495626672
100
AcDbArc
 50
21.0424455628
 51
89.4082194287
  0
LINE
  5
2AC
330
1F
100
AcDbEntity
  8
0
  6
Continuous
 62
     8
370
    25
100
AcDbLine
 10
212.3516500136
 20
109.4335692345
 30
0.0
 11
212.3516500136
 21
109.2078896854
 31
0.0
  0
LINE
  5
2AD
330
1F
100
AcDbEntity
  8
0
  6
Continuous
 62
     8
370
    25
100
AcDbLine
 10
212.3516500136
 20
85.715621859
 30
0.0
 11
212.3516500136
 21
85.4899423099
 31
0.0
  0
LINE
  5
2AE
330
1F
100
AcDbEntity
  8
0
  6
Continuous
 62
     8
370
    25
100
AcDbLine
 10
216.3778286233
 20
109.1393747288
 30
0.0
 11
216.3778286233
 21
109.3632920255
 31
0.0
  0
LINE
  5
2AF
330
1F
100
AcDbEntity
  8
0
  6
Continuous
 62
     8
370
    25
100
AcDbLine
 10
216.3778286233
 20
85.5602195189
 30
0.0
 11
216.3778286233
 21
85.5768083253
 31
0.0
  0
ARC
  5
2B0
330
1F
100
AcDbEntity
  8
0
  6
Continuous
 62
     8
370
    25
100
AcDbCircle
 10
216.343871562
 20
87.5766598036
 30
0.0
 40
2.000139749435383
100
AcDbArc
 50
270.9727769134
 51
333.4946140881
  0
LINE
  5
2B1
330
1F
100
AcDbEntity
  8
0
  6
Continuous
 62
     8
370
    25
100
AcDbLine
 10
136.4386813598
 20
112.2295616391
 30
0.0
 11
136.7033300733
 21
112.2163344834
 31
0.0
  0
LINE
  5
2B2
330
1F
100
AcDbEntity
  8
0
  6
Continuous
 62
     8
370
    25
100
AcDbLine
 10
136.347166261
 20
112.2295616391
 30
0.0
 11
135.4341293533
 21
112.1839280094
 31
0.0
  0
LINE
  5
2B3
330
1F
100
AcDbEntity
  8
0
  6
Continuous
 62
     8
370
    25
100
AcDbLine
 10
136.1877799511
 20
82.2163344834
 30
0.0
 11
136.347166261
 21
82.2031073276
 31
0.0
  0
LINE
  5
2B4
330
1F
100
AcDbEntity
  8
0
  6
Continuous
 62
     8
370
    25
100
AcDbLine
 10
136.9114727546
 20
82.2423433538
 30
0.0
 11
136.4386813598
 21
82.2031073276
 31
0.0
  0
ARC
  5
2B5
330
1F
100
AcDbEntity
  8
0
  6
Continuous
 62
     8
370
    25
100
AcDbCircle
 10
136.3929238104
 20
97.2163344834
 30
0.0
 40
15.79423749544209
100
AcDbArc
 50
270.0
 51
288.2473766402
  0
ARC
  5
2B6
330
1F
100
AcDbEntity
  8
0
  6
Continuous
 62
     8
370
    25
100
AcDbCircle
 10
136.3929238104
 20
97.2163344834
 30
0.0
 40
15.7942374954421
100
AcDbArc
 50
71.7526233598
 51
108.2473766402
  0
ARC
  5
2B7
330
1F
100
AcDbEntity
  8
0
  6
Continuous
 62
     8
370
    25
100
AcDbCircle
 10
136.3929238104
 20
97.2163344834
 30
0.0
 40
15.7942374954421
100
AcDbArc
 50
251.7526233598
 51
270.0
  0
ARC
  5
2B8
330
1F
100
AcDbEntity
  8
0
  6
Continuous
 62
     8
370
    25
100
AcDbCircle
 10
136.3929238104
 20
97.2163344834
 30
0.0
 40
18.44627261143964
100
AcDbArc
 50
234.407052935
 51
270.0
  0
ARC
  5
2B9
330
1F
100
AcDbEntity
  8
0
  6
Continuous
 62
     8
370
    25
100
AcDbCircle
 10
136.3929238104
 20
97.2163344834
 30
0.0
 40
18.44627261143964
100
AcDbArc
 50
54.407052935
 51
125.592947065
  0
ARC
  5
2BA
330
1F
100
AcDbEntity
  8
0
  6
Continuous
 62
     8
370
    25
100
AcDbCircle
 10
136.3929238104
 20
97.2163344834
 30
0.0
 40
18.44627261143964
100
AcDbArc
 50
270.0
 51
305.592947065
  0
ARC
  5
2BB
330
1F
100
AcDbEntity
  8
0
  6
Continuous
 62
     8
370
    25
100
AcDbCircle
 10
136.3929238104
 20
97.2163344834
 30
0.0
 40
27.18743161379871
100
AcDbArc
 50
270.0
 51
326.5145280392
  0
ARC
  5
2BC
330
1F
100
AcDbEntity
  8
0
  6
Continuous
 62
     8
370
    25
100
AcDbCircle
 10
136.3929238104
 20
97.2163344834
 30
0.0
 40
27.1874316137987
100
AcDbArc
 50
33.4854719608
 51
146.5145280392
  0
ARC
  5
2BD
330
1F
100
AcDbEntity
  8
0
  6
Continuous
 62
     8
370
    25
100
AcDbCircle
 10
136.3929238104
 20
97.2163344834
 30
0.0
 40
27.18743161379871
100
AcDbArc
 50
213.4854719608
 51
270.0
  0
ENDSEC
  0
SECTION
  2
OBJECTS
  0
DICTIONARY
  5
C
330
0
100
AcDbDictionary
281
     1
  3
ACAD_GROUP
350
D
  3
ACAD_LAYOUT
350
1A
  3
ACAD_MLINESTYLE
350
17
  3
ACAD_PLOTSETTINGS
350
19
  3
ACAD_PLOTSTYLENAME
350
E
  3
ACAD_SCALELIST
350
47
  3
DWGPROPS
350
2BE
  0
DICTIONARY
  5
D
102
{ACAD_REACTORS
330
C
102
}
330
C
100
AcDbDictionary
281
     1
  0
DICTIONARY
  5
1A
102
{ACAD_REACTORS
330
C
102
}
330
C
100
AcDbDictionary
281
     1
  3
Layout1
350
1E
  3
Layout2
350
26
  3
Model
350
22
  0
DICTIONARY
  5
17
102
{ACAD_REACTORS
330
C
102
}
330
C
100
AcDbDictionary
281
     1
  3
Standard
350
18
  0
DICTIONARY
  5
19
102
{ACAD_REACTORS
330
C
102
}
330
C
100
AcDbDictionary
281
     1
  0
ACDBDICTIONARYWDFLT
  5
E
102
{ACAD_REACTORS
330
C
102
}
330
C
100
AcDbDictionary
281
     1
  3
Normal
350
F
100
AcDbDictionaryWithDefault
340
F
  0
DICTIONARY
  5
47
102
{ACAD_REACTORS
330
C
102
}
330
C
100
AcDbDictionary
281
     1
  3
A0
350
48
  3
A1
350
49
  3
A2
350
4A
  3
A3
350
4B
  3
A4
350
4C
  3
A5
350
4D
  3
A6
350
4E
  3
A7
350
4F
  3
A8
350
50
  3
A9
350
51
  3
B0
350
52
  3
B1
350
53
  3
B2
350
54
  3
B3
350
55
  3
B4
350
56
  3
B5
350
57
  3
B6
350
58
  3
B7
350
59
  3
B8
350
5A
  3
B9
350
5B
  3
C0
350
5C
  3
C1
350
5D
  3
C2
350
5E
  3
C3
350
5F
  3
C4
350
60
  3
C5
350
61
  3
C6
350
62
  3
C7
350
63
  3
C8
350
64
  3
C9
350
65
  3
D0
350
66
  3
D1
350
67
  3
D2
350
68
  0
XRECORD
  5
2BE
102
{ACAD_REACTORS
330
C
102
}
330
C
100
AcDbXrecord
280
     1
  1
DWGPROPS COOKIE
  2

  3

  4

  6

  7

  8
DS-1
  9

300
=
301
=
302
=
303
=
304
=
305
=
306
=
307
=
308
=
309
=
 40
0.0
 41
2460383.507253055
 42
2460383.507253692
  1

 90
        0
  0
LAYOUT
  5
1E
102
{ACAD_REACTORS
330
1A
102
}
330
1A
100
AcDbPlotSettings
  1

  2
none_device
  4

  6

 40
0.0
 41
0.0
 42
0.0
 43
0.0
 44
0.0
 45
0.0
 46
0.0
 47
0.0
 48
0.0
 49
0.0
140
0.0
141
0.0
142
1.0
143
1.0
 70
   688
 72
     1
 73
     0
 74
     5
  7

 75
    16
147
1.0
148
0.0
149
0.0
100
AcDbLayout
  1
Layout1
 70
     1
 71
     1
 10
0.0
 20
0.0
 11
420.0
 21
297.0
 12
0.0
 22
0.0
 32
0.0
 14
1.0000000000E+20
 24
1.0000000000E+20
 34
1.0000000000E+20
 15
-1.0000000000E+20
 25
-1.0000000000E+20
 35
-1.0000000000E+20
146
0.0
 13
0.0
 23
0.0
 33
0.0
 16
1.0
 26
0.0
 36
0.0
 17
0.0
 27
1.0
 37
0.0
 76
     0
330
1B
  0
LAYOUT
  5
26
102
{ACAD_REACTORS
330
1A
102
}
330
1A
100
AcDbPlotSettings
  1

  2
none_device
  4

  6

 40
0.0
 41
0.0
 42
0.0
 43
0.0
 44
0.0
 45
0.0
 46
0.0
 47
0.0
 48
0.0
 49
0.0
140
0.0
141
0.0
142
1.0
143
1.0
 70
   688
 72
     1
 73
     0
 74
     5
  7

 75
    16
147
1.0
148
0.0
149
0.0
100
AcDbLayout
  1
Layout2
 70
     1
 71
     2
 10
0.0
 20
0.0
 11
0.0
 21
0.0
 12
0.0
 22
0.0
 32
0.0
 14
0.0
 24
0.0
 34
0.0
 15
0.0
 25
0.0
 35
0.0
146
0.0
 13
0.0
 23
0.0
 33
0.0
 16
1.0
 26
0.0
 36
0.0
 17
0.0
 27
1.0
 37
0.0
 76
     0
330
23
  0
LAYOUT
  5
22
102
{ACAD_REACTORS
330
1A
102
}
330
1A
100
AcDbPlotSettings
  1

  2
none_device
  4
Letter_(8.50_x_11.00_Inches)
  6

 40
6.35
 41
6.35
 42
6.35000508
 43
6.35000508
 44
215.9
 45
279.4
 46
0.0
 47
0.0
 48
0.0
 49
0.0
140
0.0
141
0.0
142
1.0
143
1.0
 70
  1712
 72
     1
 73
     0
 74
     0
  7

 75
     0
147
1.0
148
0.0
149
0.0
100
AcDbLayout
  1
Model
 70
     1
 71
     0
 10
0.0
 20
0.0
 11
279.4
 21
215.9
 12
0.0
 22
0.0
 32
0.0
 14
0.0
 24
0.0
 34
0.0
 15
279.4
 25
215.9
 35
0.0
146
0.0
 13
0.0
 23
0.0
 33
0.0
 16
1.0
 26
0.0
 36
0.0
 17
0.0
 27
1.0
 37
0.0
 76
     0
330
1F
331
29
  0
MLINESTYLE
  5
18
102
{ACAD_REACTORS
330
17
102
}
330
17
100
AcDbMlineStyle
  2
Standard
 70
     0
  3

 62
   256
 51
90.0
 52
90.0
 71
     2
 49
0.5
 62
   256
  6
BYLAYER
 49
-0.5
 62
   256
  6
BYLAYER
  0
ACDBPLACEHOLDER
  5
F
102
{ACAD_REACTORS
330
E
102
}
330
E
  0
SCALE
  5
48
102
{ACAD_REACTORS
330
47
102
}
330
47
100
AcDbScale
 70
     0
300
1:1
140
1.0
141
1.0
290
     1
  0
SCALE
  5
49
102
{ACAD_REACTORS
330
47
102
}
330
47
100
AcDbScale
 70
     0
300
1:2
140
1.0
141
2.0
290
     0
  0
SCALE
  5
4A
102
{ACAD_REACTORS
330
47
102
}
330
47
100
AcDbScale
 70
     0
300
1:4
140
1.0
141
4.0
290
     0
  0
SCALE
  5
4B
102
{ACAD_REACTORS
330
47
102
}
330
47
100
AcDbScale
 70
     0
300
1:5
140
1.0
141
5.0
290
     0
  0
SCALE
  5
4C
102
{ACAD_REACTORS
330
47
102
}
330
47
100
AcDbScale
 70
     0
300
1:8
140
1.0
141
8.0
290
     0
  0
SCALE
  5
4D
102
{ACAD_REACTORS
330
47
102
}
330
47
100
AcDbScale
 70
     0
300
1:10
140
1.0
141
10.0
290
     0
  0
SCALE
  5
4E
102
{ACAD_REACTORS
330
47
102
}
330
47
100
AcDbScale
 70
     0
300
1:16
140
1.0
141
16.0
290
     0
  0
SCALE
  5
4F
102
{ACAD_REACTORS
330
47
102
}
330
47
100
AcDbScale
 70
     0
300
1:20
140
1.0
141
20.0
290
     0
  0
SCALE
  5
50
102
{ACAD_REACTORS
330
47
102
}
330
47
100
AcDbScale
 70
     0
300
1:30
140
1.0
141
30.0
290
     0
  0
SCALE
  5
51
102
{ACAD_REACTORS
330
47
102
}
330
47
100
AcDbScale
 70
     0
300
1:40
140
1.0
141
40.0
290
     0
  0
SCALE
  5
52
102
{ACAD_REACTORS
330
47
102
}
330
47
100
AcDbScale
 70
     0
300
1:50
140
1.0
141
50.0
290
     0
  0
SCALE
  5
53
102
{ACAD_REACTORS
330
47
102
}
330
47
100
AcDbScale
 70
     0
300
1:100
140
1.0
141
100.0
290
     0
  0
SCALE
  5
54
102
{ACAD_REACTORS
330
47
102
}
330
47
100
AcDbScale
 70
     0
300
2:1
140
2.0
141
1.0
290
     0
  0
SCALE
  5
55
102
{ACAD_REACTORS
330
47
102
}
330
47
100
AcDbScale
 70
     0
300
4:1
140
4.0
141
1.0
290
     0
  0
SCALE
  5
56
102
{ACAD_REACTORS
330
47
102
}
330
47
100
AcDbScale
 70
     0
300
8:1
140
8.0
141
1.0
290
     0
  0
SCALE
  5
57
102
{ACAD_REACTORS
330
47
102
}
330
47
100
AcDbScale
 70
     0
300
10:1
140
10.0
141
1.0
290
     0
  0
SCALE
  5
58
102
{ACAD_REACTORS
330
47
102
}
330
47
100
AcDbScale
 70
     0
300
100:1
140
100.0
141
1.0
290
     0
  0
SCALE
  5
59
102
{ACAD_REACTORS
330
47
102
}
330
47
100
AcDbScale
 70
     0
300
1/128" = 1'-0"
140
0.0078125
141
12.0
290
     0
  0
SCALE
  5
5A
102
{ACAD_REACTORS
330
47
102
}
330
47
100
AcDbScale
 70
     0
300
1/64" = 1'-0"
140
0.015625
141
12.0
290
     0
  0
SCALE
  5
5B
102
{ACAD_REACTORS
330
47
102
}
330
47
100
AcDbScale
 70
     0
300
1/32" = 1'-0"
140
0.03125
141
12.0
290
     0
  0
SCALE
  5
5C
102
{ACAD_REACTORS
330
47
102
}
330
47
100
AcDbScale
 70
     0
300
1/16" = 1'-0"
140
0.0625
141
12.0
290
     0
  0
SCALE
  5
5D
102
{ACAD_REACTORS
330
47
102
}
330
47
100
AcDbScale
 70
     0
300
3/32" = 1'-0"
140
0.09375
141
12.0
290
     0
  0
SCALE
  5
5E
102
{ACAD_REACTORS
330
47
102
}
330
47
100
AcDbScale
 70
     0
300
1/8" = 1'-0"
140
0.125
141
12.0
290
     0
  0
SCALE
  5
5F
102
{ACAD_REACTORS
330
47
102
}
330
47
100
AcDbScale
 70
     0
300
3/16" = 1'-0"
140
0.1875
141
12.0
290
     0
  0
SCALE
  5
60
102
{ACAD_REACTORS
330
47
102
}
330
47
100
AcDbScale
 70
     0
300
1/4" = 1'-0"
140
0.25
141
12.0
290
     0
  0
SCALE
  5
61
102
{ACAD_REACTORS
330
47
102
}
330
47
100
AcDbScale
 70
     0
300
3/8" = 1'-0"
140
0.375
141
12.0
290
     0
  0
SCALE
  5
62
102
{ACAD_REACTORS
330
47
102
}
330
47
100
AcDbScale
 70
     0
300
1/2" = 1'-0"
140
0.5
141
12.0
290
     0
  0
SCALE
  5
63
102
{ACAD_REACTORS
330
47
102
}
330
47
100
AcDbScale
 70
     0
300
3/4" = 1'-0"
140
0.75
141
12.0
290
     0
  0
SCALE
  5
64
102
{ACAD_REACTORS
330
47
102
}
330
47
100
AcDbScale
 70
     0
300
1" = 1'-0"
140
1.0
141
12.0
290
     0
  0
SCALE
  5
65
102
{ACAD_REACTORS
330
47
102
}
330
47
100
AcDbScale
 70
     0
300
1-1/2" = 1'-0"
140
1.5
141
12.0
290
     0
  0
SCALE
  5
66
102
{ACAD_REACTORS
330
47
102
}
330
47
100
AcDbScale
 70
     0
300
3" = 1'-0"
140
3.0
141
12.0
290
     0
  0
SCALE
  5
67
102
{ACAD_REACTORS
330
47
102
}
330
47
100
AcDbScale
 70
     0
300
6" = 1'-0"
140
6.0
141
12.0
290
     0
  0
SCALE
  5
68
102
{ACAD_REACTORS
330
47
102
}
330
47
100
AcDbScale
 70
     0
300
1'-0" = 1'-0"
140
12.0
141
12.0
290
     0
  0
ENDSEC
  0
EOF
