  0
SECTION
  2
HEADER
  9
$ACADVER
  1
AC1015
  9
$ACADMAINTVER
 70
     6
  9
$DWGCODEPAGE
  3
ANSI_1252
  9
$INSBASE
 10
0.0
 20
0.0
 30
0.0
  9
$EXTMIN
 10
0.0
 20
0.0
 30
0.0
  9
$EXTMAX
 10
279.4
 20
215.9
 30
0.0
  9
$LIMMIN
 10
0.0
 20
0.0
  9
$LIMMAX
 10
279.4
 20
215.9
  9
$ORTHOMODE
 70
     0
  9
$REGENMODE
 70
     1
  9
$FILLMODE
 70
     1
  9
$QTEXTMODE
 70
     0
  9
$MIRRTEXT
 70
     1
  9
$LTSCALE
 40
1.0
  9
$ATTMODE
 70
     1
  9
$TEXTSIZE
 40
3.5
  9
$TRACEWID
 40
1.0
  9
$TEXTSTYLE
  7
Standard
  9
$CLAYER
  8
0
  9
$CELTYPE
  6
ByLayer
  9
$CECOLOR
 62
   256
  9
$CELTSCALE
 40
1.0
  9
$DISPSILH
 70
     0
  9
$DIMSCALE
 40
1.0
  9
$DIMASZ
 40
3.556
  9
$DIMEXO
 40
1.0
  9
$DIMDLI
 40
3.75
  9
$DIMRND
 40
0.0
  9
$DIMDLE
 40
0.0
  9
$DIMEXE
 40
1.0
  9
$DIMTP
 40
0.0
  9
$DIMTM
 40
0.0
  9
$DIMTXT
 40
3.5
  9
$DIMCEN
 40
2.5
  9
$DIMTSZ
 40
0.0
  9
$DIMTOL
 70
     0
  9
$DIMLIM
 70
     0
  9
$DIMTIH
 70
     1
  9
$DIMTOH
 70
     1
  9
$DIMSE1
 70
     0
  9
$DIMSE2
 70
     0
  9
$DIMTAD
 70
     1
  9
$DIMZIN
 70
     1
  9
$DIMBLK
  1

  9
$DIMASO
 70
     1
  9
$DIMSHO
 70
     1
  9
$DIMPOST
  1

  9
$DIMAPOST
  1

  9
$DIMALT
 70
     0
  9
$DIMALTD
 70
     3
  9
$DIMALTF
 40
0.0393700787
  9
$DIMLFAC
 40
2.0
  9
$DIMTOFL
 70
     1
  9
$DIMTVP
 40
0.0
  9
$DIMTIX
 70
     0
  9
$DIMSOXD
 70
     0
  9
$DIMSAH
 70
     0
  9
$DIMBLK1
  1

  9
$DIMBLK2
  1

  9
$DIMSTYLE
  2
ISO-25
  9
$DIMCLRD
 70
     0
  9
$DIMCLRE
 70
     0
  9
$DIMCLRT
 70
     0
  9
$DIMTFAC
 40
1.0
  9
$DIMGAP
 40
1.524
  9
$DIMJUST
 70
     0
  9
$DIMSD1
 70
     0
  9
$DIMSD2
 70
     0
  9
$DIMTOLJ
 70
     0
  9
$DIMTZIN
 70
     1
  9
$DIMALTZ
 70
     0
  9
$DIMALTTZ
 70
     0
  9
$DIMUPT
 70
     0
  9
$DIMDEC
 70
     2
  9
$DIMTDEC
 70
     2
  9
$DIMALTU
 70
     2
  9
$DIMALTTD
 70
     3
  9
$DIMTXSTY
  7
Standard
  9
$DIMAUNIT
 70
     0
  9
$DIMADEC
 70
     2
  9
$DIMALTRND
 40
0.0
  9
$DIMAZIN
 70
     0
  9
$DIMDSEP
 70
    44
  9
$DIMATFIT
 70
     3
  9
$DIMFRAC
 70
     0
  9
$DIMLDRBLK
  1

  9
$DIMLUNIT
 70
     2
  9
$DIMLWD
 70
    -2
  9
$DIMLWE
 70
    -2
  9
$DIMTMOVE
 70
     0
  9
$LUNITS
 70
     2
  9
$LUPREC
 70
     2
  9
$SKETCHINC
 40
1.0
  9
$FILLETRAD
 40
10.0
  9
$AUNITS
 70
     0
  9
$AUPREC
 70
     2
  9
$MENU
  1
.
  9
$ELEVATION
 40
0.0
  9
$PELEVATION
 40
0.0
  9
$THICKNESS
 40
0.0
  9
$LIMCHECK
 70
     0
  9
$CHAMFERA
 40
0.0
  9
$CHAMFERB
 40
0.0
  9
$CHAMFERC
 40
0.0
  9
$CHAMFERD
 40
0.0
  9
$SKPOLY
 70
     0
  9
$TDCREATE
 40
2460383.730494827
  9
$TDUCREATE
 40
2460383.50132816
  9
$TDUPDATE
 40
2460383.730495185
  9
$TDUUPDATE
 40
2460383.501328519
  9
$TDINDWG
 40
0.0000000116
  9
$TDUSRTIMER
 40
0.0000000116
  9
$USRTIMER
 70
     1
  9
$ANGBASE
 50
0.0
  9
$ANGDIR
 70
     0
  9
$PDMODE
 70
     0
  9
$PDSIZE
 40
-1.0
  9
$PLINEWID
 40
0.0
  9
$SPLFRAME
 70
     0
  9
$SPLINETYPE
 70
     6
  9
$SPLINESEGS
 70
     8
  9
$HANDSEED
  5
241
  9
$SURFTAB1
 70
     6
  9
$SURFTAB2
 70
     6
  9
$SURFTYPE
 70
     6
  9
$SURFU
 70
     6
  9
$SURFV
 70
     6
  9
$UCSBASE
  2

  9
$UCSNAME
  2

  9
$UCSORG
 10
0.0
 20
0.0
 30
0.0
  9
$UCSXDIR
 10
1.0
 20
0.0
 30
0.0
  9
$UCSYDIR
 10
0.0
 20
1.0
 30
0.0
  9
$UCSORTHOREF
  2

  9
$UCSORTHOVIEW
 70
     0
  9
$UCSORGTOP
 10
0.0
 20
0.0
 30
0.0
  9
$UCSORGBOTTOM
 10
0.0
 20
0.0
 30
0.0
  9
$UCSORGLEFT
 10
0.0
 20
0.0
 30
0.0
  9
$UCSORGRIGHT
 10
0.0
 20
0.0
 30
0.0
  9
$UCSORGFRONT
 10
0.0
 20
0.0
 30
0.0
  9
$UCSORGBACK
 10
0.0
 20
0.0
 30
0.0
  9
$PUCSBASE
  2

  9
$PUCSNAME
  2

  9
$PUCSORG
 10
0.0
 20
0.0
 30
0.0
  9
$PUCSXDIR
 10
1.0
 20
0.0
 30
0.0
  9
$PUCSYDIR
 10
0.0
 20
1.0
 30
0.0
  9
$PUCSORTHOREF
  2

  9
$PUCSORTHOVIEW
 70
     0
  9
$PUCSORGTOP
 10
0.0
 20
0.0
 30
0.0
  9
$PUCSORGBOTTOM
 10
0.0
 20
0.0
 30
0.0
  9
$PUCSORGLEFT
 10
0.0
 20
0.0
 30
0.0
  9
$PUCSORGRIGHT
 10
0.0
 20
0.0
 30
0.0
  9
$PUCSORGFRONT
 10
0.0
 20
0.0
 30
0.0
  9
$PUCSORGBACK
 10
0.0
 20
0.0
 30
0.0
  9
$USERI1
 70
     0
  9
$USERI2
 70
     0
  9
$USERI3
 70
     0
  9
$USERI4
 70
     0
  9
$USERI5
 70
     0
  9
$USERR1
 40
0.0
  9
$USERR2
 40
0.0
  9
$USERR3
 40
0.0
  9
$USERR4
 40
0.0
  9
$USERR5
 40
0.0
  9
$WORLDVIEW
 70
     1
  9
$SHADEDGE
 70
     3
  9
$SHADEDIF
 70
    70
  9
$TILEMODE
 70
     1
  9
$MAXACTVP
 70
    64
  9
$PINSBASE
 10
0.0
 20
0.0
 30
0.0
  9
$PLIMCHECK
 70
     0
  9
$PEXTMIN
 10
1.0000000000E+20
 20
1.0000000000E+20
 30
1.0000000000E+20
  9
$PEXTMAX
 10
-1.0000000000E+20
 20
-1.0000000000E+20
 30
-1.0000000000E+20
  9
$PLIMMIN
 10
0.0
 20
0.0
  9
$PLIMMAX
 10
420.0
 20
297.0
  9
$UNITMODE
 70
     0
  9
$VISRETAIN
 70
     1
  9
$PLINEGEN
 70
     0
  9
$PSLTSCALE
 70
     1
  9
$TREEDEPTH
 70
  3020
  9
$CMLSTYLE
  2
Standard
  9
$CMLJUST
 70
     0
  9
$CMLSCALE
 40
20.0
  9
$PROXYGRAPHICS
 70
     1
  9
$MEASUREMENT
 70
     1
  9
$CELWEIGHT
370
    -1
  9
$ENDCAPS
280
     0
  9
$JOINSTYLE
280
     0
  9
$LWDISPLAY
290
     1
  9
$INSUNITS
 70
     4
  9
$HYPERLINKBASE
  1

  9
$STYLESHEET
  1

  9
$XEDIT
290
     1
  9
$CEPSNTYPE
380
     0
  9
$PSTYLEMODE
290
     1
  9
$FINGERPRINTGUID
  2
{caa19f91-3141-4138-a885-f774e894578a}
  9
$VERSIONGUID
  2
{FAEB1C32-E019-11D5-929B-00C0DF256EC4}
  9
$EXTNAMES
290
     1
  9
$PSVPSCALE
 40
0.0
  9
$OLESTARTUP
290
     0
  0
ENDSEC
  0
SECTION
  2
CLASSES
  0
CLASS
  1
ACDBDICTIONARYWDFLT
  2
AcDbDictionaryWithDefault
  3
ObjectDBX Classes
 90
        0
280
     0
281
     0
  0
CLASS
  1
VISUALSTYLE
  2
AcDbVisualStyle
  3
ObjectDBX Classes
 90
     4095
280
     0
281
     0
  0
CLASS
  1
MATERIAL
  2
AcDbMaterial
  3
ObjectDBX Classes
 90
     1153
280
     0
281
     0
  0
CLASS
  1
SCALE
  2
AcDbScale
  3
ObjectDBX Classes
 90
     1153
280
     0
281
     0
  0
CLASS
  1
TABLESTYLE
  2
AcDbTableStyle
  3
ObjectDBX Classes
 90
     4095
280
     0
281
     0
  0
CLASS
  1
MLEADERSTYLE
  2
AcDbMLeaderStyle
  3
ACDB_MLEADERSTYLE_CLASS
 90
     4095
280
     0
281
     0
  0
CLASS
  1
SUN
  2
AcDbSun
  3
SCENEOE
 90
     1153
280
     0
281
     0
  0
CLASS
  1
ACDBPLACEHOLDER
  2
AcDbPlaceHolder
  3
ObjectDBX Classes
 90
        0
280
     0
281
     0
  0
CLASS
  1
LAYOUT
  2
AcDbLayout
  3
ObjectDBX Classes
 90
        0
280
     0
281
     0
  0
ENDSEC
  0
SECTION
  2
TABLES
  0
TABLE
  2
VPORT
  5
8
330
0
100
AcDbSymbolTable
 70
     1
  0
VPORT
  5
29
330
8
100
AcDbSymbolTableRecord
100
AcDbViewportTableRecord
  2
*Active
 70
     0
 10
0.0
 20
0.0
 11
1.0
 21
1.0
 12
139.7
 22
107.95
 13
0.0
 23
0.0
 14
10.0
 24
10.0
 15
10.0
 25
10.0
 16
0.0
 26
0.0
 36
1.0
 17
0.0
 27
0.0
 37
0.0
 40
215.9
 41
1.2941176471
 42
50.0
 43
0.0
 44
0.0
 50
0.0
 51
0.0
 71
     0
 72
  2000
 73
     1
 74
     3
 75
     0
 76
     0
 77
     0
 78
     0
281
     0
 65
     1
110
0.0
120
0.0
130
0.0
111
1.0
121
0.0
131
0.0
112
0.0
122
1.0
132
0.0
 79
     0
146
0.0
  0
ENDTAB
  0
TABLE
  2
LTYPE
  5
5
330
0
100
AcDbSymbolTable
 70
     6
  0
LTYPE
  5
14
330
5
100
AcDbSymbolTableRecord
100
AcDbLinetypeTableRecord
  2
ByBlock
 70
     0
  3

 72
    65
 73
     0
 40
0.0
  0
LTYPE
  5
15
330
5
100
AcDbSymbolTableRecord
100
AcDbLinetypeTableRecord
  2
ByLayer
 70
     0
  3

 72
    65
 73
     0
 40
0.0
  0
LTYPE
  5
16
330
5
100
AcDbSymbolTableRecord
100
AcDbLinetypeTableRecord
  2
Continuous
 70
     0
  3
Solid line
 72
    65
 73
     0
 40
0.0
  0
LTYPE
  5
6E
330
5
100
AcDbSymbolTableRecord
100
AcDbLinetypeTableRecord
  2
HIDDEN
 70
     0
  3
Hidden __ __ __ __ __ __ __ __ __ __ __ __ __ __
 72
    65
 73
     2
 40
1.905
 49
1.27
 74
     0
 49
-0.635
 74
     0
  0
LTYPE
  5
6F
330
5
100
AcDbSymbolTableRecord
100
AcDbLinetypeTableRecord
  2
PHANTOM
 70
     0
  3
Phantom ______  __  __  ______  __  __  ______
 72
    65
 73
     6
 40
12.7
 49
6.35
 74
     0
 49
-1.27
 74
     0
 49
1.27
 74
     0
 49
-1.27
 74
     0
 49
1.27
 74
     0
 49
-1.27
 74
     0
  0
LTYPE
  5
70
330
5
100
AcDbSymbolTableRecord
100
AcDbLinetypeTableRecord
  2
CENTER
 70
     0
  3
Center ____ _ ____ _ ____ _ ____ _ ____ _ ____
 72
    65
 73
     4
 40
10.16
 49
6.35
 74
     0
 49
-1.27
 74
     0
 49
1.27
 74
     0
 49
-1.27
 74
     0
  0
LTYPE
  5
71
330
5
100
AcDbSymbolTableRecord
100
AcDbLinetypeTableRecord
  2
CENTERX2
 70
     0
  3
Center (2x) ________  __  ________  __  _____
 72
    65
 73
     4
 40
20.32
 49
12.7
 74
     0
 49
-2.54
 74
     0
 49
2.54
 74
     0
 49
-2.54
 74
     0
  0
LTYPE
  5
72
330
5
100
AcDbSymbolTableRecord
100
AcDbLinetypeTableRecord
  2
DOT2
 70
     0
  3
Dot (.5x) ........................................
 72
    65
 73
     2
 40
0.635
 49
0.0
 74
     0
 49
-0.635
 74
     0
  0
ENDTAB
  0
TABLE
  2
LAYER
  5
2
330
0
100
AcDbSymbolTable
 70
     1
  0
LAYER
  5
10
330
2
100
AcDbSymbolTableRecord
100
AcDbLayerTableRecord
  2
0
 70
     0
 62
     7
  6
Continuous
370
    -3
390
F
  0
ENDTAB
  0
TABLE
  2
STYLE
  5
3
330
0
100
AcDbSymbolTable
 70
     1
  0
STYLE
  5
11
330
3
100
AcDbSymbolTableRecord
100
AcDbTextStyleTableRecord
  2
Standard
 70
     0
 40
0.0
 41
1.0
 50
0.0
 71
     0
 42
3.5
  3
txt
  4

  0
ENDTAB
  0
TABLE
  2
VIEW
  5
6
330
0
100
AcDbSymbolTable
 70
     0
  0
ENDTAB
  0
TABLE
  2
UCS
  5
7
330
0
100
AcDbSymbolTable
 70
     0
  0
ENDTAB
  0
TABLE
  2
APPID
  5
9
330
0
100
AcDbSymbolTable
 70
     1
  0
APPID
  5
12
330
9
100
AcDbSymbolTableRecord
100
AcDbRegAppTableRecord
  2
ACAD
 70
     0
  0
ENDTAB
  0
TABLE
  2
DIMSTYLE
  5
A
330
0
100
AcDbSymbolTable
 70
     1
100
AcDbDimStyleTable
  0
DIMSTYLE
105
27
330
A
100
AcDbSymbolTableRecord
100
AcDbDimStyleTableRecord
  2
ISO-25
 70
     0
 41
2.5
 42
0.625
 43
3.75
 44
1.25
 73
     0
 74
     0
 77
     1
 78
     8
140
2.5
141
2.5
143
0.0393700787
147
0.625
171
     3
172
     1
178
     0
271
     2
272
     2
274
     3
278
    44
283
     0
284
     8
340
11
  0
ENDTAB
  0
TABLE
  2
BLOCK_RECORD
  5
1
330
0
100
AcDbSymbolTable
 70
     1
  0
BLOCK_RECORD
  5
1F
330
1
100
AcDbSymbolTableRecord
100
AcDbBlockTableRecord
  2
*Model_Space
340
22
  0
BLOCK_RECORD
  5
1B
330
1
100
AcDbSymbolTableRecord
100
AcDbBlockTableRecord
  2
*Paper_Space
340
1E
  0
BLOCK_RECORD
  5
23
330
1
100
AcDbSymbolTableRecord
100
AcDbBlockTableRecord
  2
*Paper_Space0
340
26
  0
ENDTAB
  0
ENDSEC
  0
SECTION
  2
BLOCKS
  0
BLOCK
  5
20
330
1F
100
AcDbEntity
  8
0
100
AcDbBlockBegin
  2
*Model_Space
 70
     0
 10
0.0
 20
0.0
 30
0.0
  3
*Model_Space
  1

  0
ENDBLK
  5
21
330
1F
100
AcDbEntity
  8
0
100
AcDbBlockEnd
  0
BLOCK
  5
1C
330
1B
100
AcDbEntity
 67
     1
  8
0
100
AcDbBlockBegin
  2
*Paper_Space
 70
     0
 10
0.0
 20
0.0
 30
0.0
  3
*Paper_Space
  1

  0
ENDBLK
  5
1D
330
1B
100
AcDbEntity
 67
     1
  8
0
100
AcDbBlockEnd
  0
BLOCK
  5
24
330
23
100
AcDbEntity
  8
0
100
AcDbBlockBegin
  2
*Paper_Space0
 70
     0
 10
0.0
 20
0.0
 30
0.0
  3
*Paper_Space0
  1

  0
ENDBLK
  5
25
330
23
100
AcDbEntity
  8
0
100
AcDbBlockEnd
  0
ENDSEC
  0
SECTION
  2
ENTITIES
  0
SPLINE
  5
73
330
1F
100
AcDbEntity
  8
0
  6
Continuous
 62
     7
370
    25
100
AcDbSpline
210
0.0
220
0.0
230
1.0
 70
     8
 71
     3
 72
    17
 73
    13
 74
     0
 42
0.00000001
 43
0.00000001
 40
0.0
 40
0.0
 40
0.0
 40
0.0
 40
0.1116576776519485
 40
0.3275723399187375
 40
0.5489973325031955
 40
0.6371554159418756
 40
0.672596415349512
 40
0.7267304592475062
 40
0.7928209600874071
 40
0.8759450956604337
 40
0.9676048602907433
 40
1.0
 40
1.0
 40
1.0
 40
1.0
 10
124.2487915711623
 20
101.2271170116052
 30
0.0
 10
124.2493630143892
 20
101.2000955856073
 30
0.0
 10
124.2510394686993
 20
101.1208222930921
 30
0.0
 10
124.2541627895585
 20
101.0172165283231
 30
0.0
 10
124.2577855742161
 20
100.9594867929261
 30
0.0
 10
124.2608989969642
 20
100.9222253708106
 30
0.0
 10
124.2712590627417
 20
100.8785787048687
 30
0.0
 10
124.2898369252232
 20
100.8331468851881
 30
0.0
 10
124.3278475812749
 20
100.7796472095009
 30
0.0
 10
124.3897656450888
 20
100.7325431510744
 30
0.0
 10
124.4542242372722
 20
100.7058407311857
 30
0.0
 10
124.494196693385
 20
100.7088287575184
 30
0.0
 10
124.5046349207747
 20
100.7096090372745
 30
0.0
  0
SPLINE
  5
74
330
1F
100
AcDbEntity
  8
0
  6
Continuous
 62
     7
370
    25
100
AcDbSpline
210
0.0
220
0.0
230
1.0
 70
     8
 71
     3
 72
    19
 73
    15
 74
     0
 42
0.00000001
 43
0.00000001
 40
0.0
 40
0.0
 40
0.0
 40
0.0
 40
0.0520308653164672
 40
0.1325896416545009
 40
0.1994440462674831
 40
0.2561938794211792
 40
0.3026649478248336
 40
0.3368564003223216
 40
0.3665116358135568
 40
0.4080274876969887
 40
0.5023488557176783
 40
0.7242840795488461
 40
0.9360490093586039
 40
1.0
 40
1.0
 40
1.0
 40
1.0
 10
127.2730235428883
 20
100.5739204732047
 30
0.0
 10
127.289411945604
 20
100.5735228940672
 30
0.0
 10
127.331174319344
 20
100.5725097478309
 30
0.0
 10
127.3896180694847
 20
100.59966898805
 30
0.0
 10
127.4404242678874
 20
100.6382043688265
 30
0.0
 10
127.4737349554226
 20
100.6794956432499
 30
0.0
 10
127.4932855916608
 20
100.7161397219264
 30
0.0
 10
127.5031492805501
 20
100.7427714982683
 30
0.0
 10
127.5084653635529
 20
100.7613347496816
 30
0.0
 10
127.5131234986837
 20
100.7815445826579
 30
0.0
 10
127.5191515543146
 20
100.8150089628488
 30
0.0
 10
127.5291916442685
 20
100.88392110799
 30
0.0
 10
127.5417601315765
 20
100.9824689605729
 30
0.0
 10
127.5496285341715
 20
101.0478398718981
 30
0.0
 10
127.5514535725656
 20
101.0630023425002
 30
0.0
  0
LINE
  5
75
330
1F
100
AcDbEntity
  8
0
  6
Continuous
 62
     7
370
    25
100
AcDbLine
 10
127.5514535726
 20
101.0630023425
 30
0.0
 11
127.758827412
 21
102.7965069221
 31
0.0
  0
LINE
  5
76
330
1F
100
AcDbEntity
  8
0
  6
Continuous
 62
     7
370
    25
100
AcDbLine
 10
124.2142963168
 20
102.9726404615
 30
0.0
 11
124.2487915712
 21
101.2271170116
 31
0.0
  0
ARC
  5
77
330
1F
100
AcDbEntity
  8
0
  6
Continuous
 62
     7
370
    25
100
AcDbCircle
 10
125.6147921865
 20
125.343304639
 30
0.0
 40
4.49999756946151
100
AcDbArc
 50
164.2971381625
 51
177.1552190944
  0
ARC
  5
78
330
1F
100
AcDbEntity
  8
0
  6
Continuous
 62
     7
370
    25
100
AcDbCircle
 10
125.6147921865
 20
125.343304639
 30
0.0
 40
4.49999756946151
100
AcDbArc
 50
177.1552190944
 51
212.3271485114
  0
ARC
  5
79
330
1F
100
AcDbEntity
  8
0
  6
Continuous
 62
     7
370
    25
100
AcDbCircle
 10
159.4568959317
 20
141.7190675298
 30
0.0
 40
0.2500000000000284
100
AcDbArc
 50
90.0
 51
154.1790080258
  0
ARC
  5
7A
330
1F
100
AcDbEntity
  8
0
  6
Continuous
 62
     7
370
    25
100
AcDbCircle
 10
159.4568959317
 20
116.9190675298
 30
0.0
 40
0.2500000000000006
100
AcDbArc
 50
205.8209919742
 51
270.0
  0
ARC
  5
7B
330
1F
100
AcDbEntity
  8
0
  6
Continuous
 62
     7
370
    25
100
AcDbCircle
 10
161.0501350388
 20
141.7190675298
 30
0.0
 40
0.2500000000000284
100
AcDbArc
 50
0.0
 51
90.0
  0
ARC
  5
7C
330
1F
100
AcDbEntity
  8
0
  6
Continuous
 62
     7
370
    25
100
AcDbCircle
 10
161.0501350388
 20
116.9190675298
 30
0.0
 40
0.25
100
AcDbArc
 50
270.0
 51
0.0
  0
LINE
  5
7D
330
1F
100
AcDbEntity
  8
0
  6
Continuous
 62
     7
370
    25
100
AcDbLine
 10
159.4568959317
 20
116.6690675298
 30
0.0
 11
161.0501350388
 21
116.6690675298
 31
0.0
  0
LINE
  5
7E
330
1F
100
AcDbEntity
  8
0
  6
Continuous
 62
     7
370
    25
100
AcDbLine
 10
161.0501350388
 20
141.9690675298
 30
0.0
 11
159.4568959317
 21
141.9690675298
 31
0.0
  0
LINE
  5
7F
330
1F
100
AcDbEntity
  8
0
  6
Continuous
 62
     7
370
    25
100
AcDbLine
 10
159.2318561188
 20
141.8279577618
 30
0.0
 11
157.3232507188
 21
137.8835066017
 31
0.0
  0
LINE
  5
80
330
1F
100
AcDbEntity
  8
0
  6
Continuous
 62
     7
370
    25
100
AcDbLine
 10
157.3232507188
 20
120.7546284579
 30
0.0
 11
159.2318561188
 21
116.8101772978
 31
0.0
  0
ARC
  5
81
330
1F
100
AcDbEntity
  8
0
  6
Continuous
 62
     7
370
    25
100
AcDbCircle
 10
156.4230914674
 20
120.3190675298
 30
0.0
 40
1.0
100
AcDbArc
 50
25.8209919742
 51
90.0
  0
ARC
  5
82
330
1F
100
AcDbEntity
  8
0
  6
Continuous
 62
     7
370
    25
100
AcDbCircle
 10
156.4230914674
 20
138.3190675298
 30
0.0
 40
1.0
100
AcDbArc
 50
270.0
 51
334.1790080258
  0
LINE
  5
83
330
1F
100
AcDbEntity
  8
0
  6
Continuous
 62
     7
370
    25
100
AcDbLine
 10
135.0540280538
 20
140.8948971811
 30
0.0
 11
134.8001350388
 21
146.8190675298
 31
0.0
  0
LINE
  5
84
330
1F
100
AcDbEntity
  8
0
  6
Continuous
 62
     7
370
    25
100
AcDbLine
 10
119.8001350388
 20
146.8190675298
 30
0.0
 11
119.2427896504
 21
133.8143418003
 31
0.0
  0
LINE
  5
85
330
1F
100
AcDbEntity
  8
0
  6
Continuous
 62
     7
370
    25
100
AcDbLine
 10
148.4830791383
 20
136.3088465841
 30
0.0
 11
140.1549140427
 21
136.1162878536
 31
0.0
  0
LINE
  5
86
330
1F
100
AcDbEntity
  8
0
  6
Continuous
 62
     7
370
    25
100
AcDbLine
 10
134.2219278233
 20
122.6590260781
 30
0.0
 11
148.4830791383
 21
122.3292884755
 31
0.0
  0
SPLINE
  5
87
330
1F
100
AcDbEntity
  8
0
  6
Continuous
 62
     7
370
    25
100
AcDbSpline
210
0.0
220
0.0
230
1.0
 70
     8
 71
     3
 72
     9
 73
     5
 74
     0
 42
0.00000001
 43
0.00000001
 40
0.0
 40
0.0
 40
0.0
 40
0.0
 40
0.5041004488632954
 40
1.0
 40
1.0
 40
1.0
 40
1.0
 10
121.0532185614168
 20
151.5029900389899
 30
0.0
 10
121.1209139700744
 20
151.4638860489619
 30
0.0
 10
121.2552034927484
 20
151.3863142274803
 30
0.0
 10
121.3894912222741
 20
151.3087392647574
 30
0.0
 10
121.4560844470691
 20
151.2702698755637
 30
0.0
  0
SPLINE
  5
88
330
1F
100
AcDbEntity
  8
0
  6
Continuous
 62
     7
370
    25
100
AcDbSpline
210
0.0
220
0.0
230
1.0
 70
     8
 71
     3
 72
     9
 73
     5
 74
     0
 42
0.00000001
 43
0.00000001
 40
0.0
 40
0.0
 40
0.0
 40
0.0
 40
0.504100448863297
 40
1.0
 40
1.0
 40
1.0
 40
1.0
 10
121.0532185614168
 20
150.7529900389899
 30
0.0
 10
121.1209139700744
 20
150.7138860489619
 30
0.0
 10
121.2552034927484
 20
150.6363142274803
 30
0.0
 10
121.3894912222741
 20
150.5587392647574
 30
0.0
 10
121.4560844470691
 20
150.5202698755637
 30
0.0
  0
SPLINE
  5
89
330
1F
100
AcDbEntity
  8
0
  6
Continuous
 62
     7
370
    25
100
AcDbSpline
210
0.0
220
0.0
230
1.0
 70
     8
 71
     3
 72
     9
 73
     5
 74
     0
 42
0.00000001
 43
0.00000001
 40
0.0
 40
0.0
 40
0.0
 40
0.0
 40
0.5041004488632992
 40
1.0
 40
1.0
 40
1.0
 40
1.0
 10
121.0532185614168
 20
150.0029900389899
 30
0.0
 10
121.1209139700744
 20
149.9638860489619
 30
0.0
 10
121.2552034927484
 20
149.8863142274803
 30
0.0
 10
121.3894912222741
 20
149.8087392647574
 30
0.0
 10
121.4560844470691
 20
149.7702698755637
 30
0.0
  0
SPLINE
  5
8A
330
1F
100
AcDbEntity
  8
0
  6
Continuous
 62
     7
370
    25
100
AcDbSpline
210
0.0
220
0.0
230
1.0
 70
     8
 71
     3
 72
     9
 73
     5
 74
     0
 42
0.00000001
 43
0.00000001
 40
0.0
 40
0.0
 40
0.0
 40
0.0
 40
0.5041004488632991
 40
0.9999999999999999
 40
0.9999999999999999
 40
0.9999999999999999
 40
0.9999999999999999
 10
121.0532185614168
 20
149.2529900389899
 30
0.0
 10
121.1209139700744
 20
149.2138860489619
 30
0.0
 10
121.2552034927484
 20
149.1363142274803
 30
0.0
 10
121.3894912222741
 20
149.0587392647574
 30
0.0
 10
121.4560844470691
 20
149.0202698755637
 30
0.0
  0
SPLINE
  5
8B
330
1F
100
AcDbEntity
  8
0
  6
Continuous
 62
     7
370
    25
100
AcDbSpline
210
0.0
220
0.0
230
1.0
 70
     8
 71
     3
 72
     9
 73
     5
 74
     0
 42
0.00000001
 43
0.00000001
 40
0.0
 40
0.0
 40
0.0
 40
0.0
 40
0.5041004488633064
 40
1.0
 40
1.0
 40
1.0
 40
1.0
 10
121.0532185614168
 20
148.5029900389899
 30
0.0
 10
121.1209139700744
 20
148.4638860489619
 30
0.0
 10
121.2552034927484
 20
148.3863142274803
 30
0.0
 10
121.3894912222741
 20
148.3087392647574
 30
0.0
 10
121.4560844470691
 20
148.2702698755637
 30
0.0
  0
SPLINE
  5
8C
330
1F
100
AcDbEntity
  8
0
  6
Continuous
 62
     7
370
    25
100
AcDbSpline
210
0.0
220
0.0
230
1.0
 70
     8
 71
     3
 72
     9
 73
     5
 74
     0
 42
0.00000001
 43
0.00000001
 40
0.0
 40
0.0
 40
0.0
 40
0.0
 40
0.5041004488633029
 40
0.9999999999999999
 40
0.9999999999999999
 40
0.9999999999999999
 40
0.9999999999999999
 10
121.0532185614168
 20
147.7529900389899
 30
0.0
 10
121.1209139700744
 20
147.7138860489619
 30
0.0
 10
121.2552034927484
 20
147.6363142274803
 30
0.0
 10
121.3894912222741
 20
147.5587392647574
 30
0.0
 10
121.4560844470691
 20
147.5202698755637
 30
0.0
  0
SPLINE
  5
8D
330
1F
100
AcDbEntity
  8
0
  6
Continuous
 62
     7
370
    25
100
AcDbSpline
210
0.0
220
0.0
230
1.0
 70
     8
 71
     3
 72
     9
 73
     5
 74
     0
 42
0.00000001
 43
0.00000001
 40
0.0
 40
0.0
 40
0.0
 40
0.0
 40
0.4999934141216426
 40
1.0
 40
1.0
 40
1.0
 40
1.0
 10
133.140887133352
 20
150.8933644258054
 30
0.0
 10
133.2085798535617
 20
150.9324689713308
 30
0.0
 10
133.3439670772686
 20
151.0106790925462
 30
0.0
 10
133.4793561088053
 20
151.088886046801
 30
0.0
 10
133.5470515162294
 20
151.1279900389899
 30
0.0
  0
SPLINE
  5
8E
330
1F
100
AcDbEntity
  8
0
  6
Continuous
 62
     7
370
    25
100
AcDbSpline
210
0.0
220
0.0
230
1.0
 70
     8
 71
     3
 72
     9
 73
     5
 74
     0
 42
0.00000001
 43
0.00000001
 40
0.0
 40
0.0
 40
0.0
 40
0.0
 40
0.4999934141216426
 40
1.0
 40
1.0
 40
1.0
 40
1.0
 10
133.140887133352
 20
150.1433644258054
 30
0.0
 10
133.2085798535617
 20
150.1824689713308
 30
0.0
 10
133.3439670772686
 20
150.2606790925462
 30
0.0
 10
133.4793561088053
 20
150.338886046801
 30
0.0
 10
133.5470515162294
 20
150.3779900389899
 30
0.0
  0
SPLINE
  5
8F
330
1F
100
AcDbEntity
  8
0
  6
Continuous
 62
     7
370
    25
100
AcDbSpline
210
0.0
220
0.0
230
1.0
 70
     8
 71
     3
 72
     9
 73
     5
 74
     0
 42
0.00000001
 43
0.00000001
 40
0.0
 40
0.0
 40
0.0
 40
0.0
 40
0.4999934141216467
 40
1.0
 40
1.0
 40
1.0
 40
1.0
 10
133.140887133352
 20
149.3933644258054
 30
0.0
 10
133.2085798535617
 20
149.4324689713308
 30
0.0
 10
133.3439670772686
 20
149.5106790925462
 30
0.0
 10
133.4793561088053
 20
149.588886046801
 30
0.0
 10
133.5470515162294
 20
149.6279900389899
 30
0.0
  0
SPLINE
  5
90
330
1F
100
AcDbEntity
  8
0
  6
Continuous
 62
     7
370
    25
100
AcDbSpline
210
0.0
220
0.0
230
1.0
 70
     8
 71
     3
 72
     9
 73
     5
 74
     0
 42
0.00000001
 43
0.00000001
 40
0.0
 40
0.0
 40
0.0
 40
0.0
 40
0.4999934141216463
 40
1.0
 40
1.0
 40
1.0
 40
1.0
 10
133.140887133352
 20
148.6433644258054
 30
0.0
 10
133.2085798535617
 20
148.6824689713308
 30
0.0
 10
133.3439670772686
 20
148.7606790925462
 30
0.0
 10
133.4793561088053
 20
148.838886046801
 30
0.0
 10
133.5470515162294
 20
148.8779900389899
 30
0.0
  0
SPLINE
  5
91
330
1F
100
AcDbEntity
  8
0
  6
Continuous
 62
     7
370
    25
100
AcDbSpline
210
0.0
220
0.0
230
1.0
 70
     8
 71
     3
 72
     9
 73
     5
 74
     0
 42
0.00000001
 43
0.00000001
 40
0.0
 40
0.0
 40
0.0
 40
0.0
 40
0.4999934141216425
 40
1.0
 40
1.0
 40
1.0
 40
1.0
 10
133.140887133352
 20
147.8933644258054
 30
0.0
 10
133.2085798535617
 20
147.9324689713308
 30
0.0
 10
133.3439670772686
 20
148.0106790925462
 30
0.0
 10
133.4793561088053
 20
148.088886046801
 30
0.0
 10
133.5470515162294
 20
148.1279900389899
 30
0.0
  0
SPLINE
  5
92
330
1F
100
AcDbEntity
  8
0
  6
Continuous
 62
     7
370
    25
100
AcDbSpline
210
0.0
220
0.0
230
1.0
 70
     8
 71
     3
 72
     9
 73
     5
 74
     0
 42
0.00000001
 43
0.00000001
 40
0.0
 40
0.0
 40
0.0
 40
0.0
 40
0.5524618174426965
 40
1.0
 40
1.0
 40
1.0
 40
1.0
 10
133.140887133352
 20
151.6433644258054
 30
0.0
 10
133.2085798377529
 20
151.6824689990246
 30
0.0
 10
133.331109037534
 20
151.7532513987934
 30
0.0
 10
133.4536398734518
 20
151.8240309323742
 30
0.0
 10
133.5084771010656
 20
151.8557074761952
 30
0.0
  0
LINE
  5
93
330
1F
100
AcDbEntity
  8
0
  6
Continuous
 62
     7
370
    25
100
AcDbLine
 10
121.3437023516
 20
152.0851898746
 30
0.0
 11
121.4560844471
 21
152.0202698756
 31
0.0
  0
SPLINE
  5
94
330
1F
100
AcDbEntity
  8
0
  6
Continuous
 62
     7
370
    25
100
AcDbSpline
210
0.0
220
0.0
230
1.0
 70
     8
 71
     3
 72
     9
 73
     5
 74
     0
 42
0.00000001
 43
0.00000001
 40
0.0
 40
0.0
 40
0.0
 40
0.0
 40
0.4999933964002415
 40
1.0
 40
1.0
 40
1.0
 40
1.0
 10
121.4593436081959
 20
151.0884975905238
 30
0.0
 10
121.391650770171
 20
151.0493929909063
 30
0.0
 10
121.256263306032
 20
150.9711827587332
 30
0.0
 10
121.1208741383411
 20
150.892975702088
 30
0.0
 10
121.0531786604398
 20
150.8538716573173
 30
0.0
  0
SPLINE
  5
95
330
1F
100
AcDbEntity
  8
0
  6
Continuous
 62
     7
370
    25
100
AcDbSpline
210
0.0
220
0.0
230
1.0
 70
     8
 71
     3
 72
     9
 73
     5
 74
     0
 42
0.00000001
 43
0.00000001
 40
0.0
 40
0.0
 40
0.0
 40
0.0
 40
0.4999933964002469
 40
1.0
 40
1.0
 40
1.0
 40
1.0
 10
121.4593436081959
 20
150.3384975905238
 30
0.0
 10
121.391650770171
 20
150.2993929909063
 30
0.0
 10
121.256263306032
 20
150.2211827587332
 30
0.0
 10
121.1208741383411
 20
150.142975702088
 30
0.0
 10
121.0531786604398
 20
150.1038716573173
 30
0.0
  0
SPLINE
  5
96
330
1F
100
AcDbEntity
  8
0
  6
Continuous
 62
     7
370
    25
100
AcDbSpline
210
0.0
220
0.0
230
1.0
 70
     8
 71
     3
 72
     9
 73
     5
 74
     0
 42
0.00000001
 43
0.00000001
 40
0.0
 40
0.0
 40
0.0
 40
0.0
 40
0.499993396400245
 40
0.9999999999999999
 40
0.9999999999999999
 40
0.9999999999999999
 40
0.9999999999999999
 10
121.4593436081959
 20
149.5884975905238
 30
0.0
 10
121.391650770171
 20
149.5493929909063
 30
0.0
 10
121.256263306032
 20
149.4711827587332
 30
0.0
 10
121.1208741383411
 20
149.392975702088
 30
0.0
 10
121.0531786604398
 20
149.3538716573173
 30
0.0
  0
SPLINE
  5
97
330
1F
100
AcDbEntity
  8
0
  6
Continuous
 62
     7
370
    25
100
AcDbSpline
210
0.0
220
0.0
230
1.0
 70
     8
 71
     3
 72
     9
 73
     5
 74
     0
 42
0.00000001
 43
0.00000001
 40
0.0
 40
0.0
 40
0.0
 40
0.0
 40
0.4999933964002416
 40
1.0
 40
1.0
 40
1.0
 40
1.0
 10
121.4593436081959
 20
148.8384975905238
 30
0.0
 10
121.391650770171
 20
148.7993929909063
 30
0.0
 10
121.256263306032
 20
148.7211827587332
 30
0.0
 10
121.1208741383411
 20
148.642975702088
 30
0.0
 10
121.0531786604398
 20
148.6038716573173
 30
0.0
  0
SPLINE
  5
98
330
1F
100
AcDbEntity
  8
0
  6
Continuous
 62
     7
370
    25
100
AcDbSpline
210
0.0
220
0.0
230
1.0
 70
     8
 71
     3
 72
     9
 73
     5
 74
     0
 42
0.00000001
 43
0.00000001
 40
0.0
 40
0.0
 40
0.0
 40
0.0
 40
0.49999339640024
 40
1.0
 40
1.0
 40
1.0
 40
1.0
 10
121.4593436081959
 20
148.0884975905238
 30
0.0
 10
121.391650770171
 20
148.0493929909063
 30
0.0
 10
121.256263306032
 20
147.9711827587332
 30
0.0
 10
121.1208741383411
 20
147.892975702088
 30
0.0
 10
121.0531786604398
 20
147.8538716573173
 30
0.0
  0
SPLINE
  5
99
330
1F
100
AcDbEntity
  8
0
  6
Continuous
 62
     7
370
    25
100
AcDbSpline
210
0.0
220
0.0
230
1.0
 70
     8
 71
     3
 72
     9
 73
     5
 74
     0
 42
0.00000001
 43
0.00000001
 40
0.0
 40
0.0
 40
0.0
 40
0.0
 40
0.4999933964002415
 40
1.0
 40
1.0
 40
1.0
 40
1.0
 10
121.4593436081959
 20
147.3384975905238
 30
0.0
 10
121.391650770171
 20
147.2993929909063
 30
0.0
 10
121.256263306032
 20
147.2211827587332
 30
0.0
 10
121.1208741383411
 20
147.142975702088
 30
0.0
 10
121.0531786604398
 20
147.1038716573173
 30
0.0
  0
SPLINE
  5
9A
330
1F
100
AcDbEntity
  8
0
  6
Continuous
 62
     7
370
    25
100
AcDbSpline
210
0.0
220
0.0
230
1.0
 70
     8
 71
     3
 72
     9
 73
     5
 74
     0
 42
0.00000001
 43
0.00000001
 40
0.0
 40
0.0
 40
0.0
 40
0.0
 40
0.5040512438855304
 40
1.0
 40
1.0
 40
1.0
 40
1.0
 10
133.5470914172064
 20
151.2288716573173
 30
0.0
 10
133.4793959381567
 20
151.2679756999473
 30
0.0
 10
133.3450931666213
 20
151.3455551982709
 30
0.0
 10
133.2107920849679
 20
151.4231378466411
 30
0.0
 10
133.1441856305771
 20
151.4616148645964
 30
0.0
  0
SPLINE
  5
9B
330
1F
100
AcDbEntity
  8
0
  6
Continuous
 62
     7
370
    25
100
AcDbSpline
210
0.0
220
0.0
230
1.0
 70
     8
 71
     3
 72
     9
 73
     5
 74
     0
 42
0.00000001
 43
0.00000001
 40
0.0
 40
0.0
 40
0.0
 40
0.0
 40
0.504051243885525
 40
1.0
 40
1.0
 40
1.0
 40
1.0
 10
133.5470914172064
 20
150.4788716573173
 30
0.0
 10
133.4793959381567
 20
150.5179756999473
 30
0.0
 10
133.3450931666213
 20
150.5955551982709
 30
0.0
 10
133.2107920849679
 20
150.6731378466411
 30
0.0
 10
133.1441856305771
 20
150.7116148645964
 30
0.0
  0
SPLINE
  5
9C
330
1F
100
AcDbEntity
  8
0
  6
Continuous
 62
     7
370
    25
100
AcDbSpline
210
0.0
220
0.0
230
1.0
 70
     8
 71
     3
 72
     9
 73
     5
 74
     0
 42
0.00000001
 43
0.00000001
 40
0.0
 40
0.0
 40
0.0
 40
0.0
 40
0.5040512438855279
 40
1.0
 40
1.0
 40
1.0
 40
1.0
 10
133.5470914172064
 20
149.7288716573173
 30
0.0
 10
133.4793959381567
 20
149.7679756999473
 30
0.0
 10
133.3450931666213
 20
149.8455551982709
 30
0.0
 10
133.2107920849679
 20
149.9231378466411
 30
0.0
 10
133.1441856305771
 20
149.9616148645964
 30
0.0
  0
SPLINE
  5
9D
330
1F
100
AcDbEntity
  8
0
  6
Continuous
 62
     7
370
    25
100
AcDbSpline
210
0.0
220
0.0
230
1.0
 70
     8
 71
     3
 72
     9
 73
     5
 74
     0
 42
0.00000001
 43
0.00000001
 40
0.0
 40
0.0
 40
0.0
 40
0.0
 40
0.5040512438855247
 40
1.0
 40
1.0
 40
1.0
 40
1.0
 10
133.5470914172064
 20
148.9788716573173
 30
0.0
 10
133.4793959381567
 20
149.0179756999473
 30
0.0
 10
133.3450931666213
 20
149.0955551982709
 30
0.0
 10
133.2107920849679
 20
149.1731378466412
 30
0.0
 10
133.1441856305771
 20
149.2116148645964
 30
0.0
  0
SPLINE
  5
9E
330
1F
100
AcDbEntity
  8
0
  6
Continuous
 62
     7
370
    25
100
AcDbSpline
210
0.0
220
0.0
230
1.0
 70
     8
 71
     3
 72
     9
 73
     5
 74
     0
 42
0.00000001
 43
0.00000001
 40
0.0
 40
0.0
 40
0.0
 40
0.0
 40
0.5040512438855266
 40
1.0
 40
1.0
 40
1.0
 40
1.0
 10
133.5470914172064
 20
148.2288716573173
 30
0.0
 10
133.4793959381567
 20
148.2679756999473
 30
0.0
 10
133.3450931666213
 20
148.3455551982709
 30
0.0
 10
133.2107920849679
 20
148.4231378466411
 30
0.0
 10
133.1441856305771
 20
148.4616148645964
 30
0.0
  0
SPLINE
  5
9F
330
1F
100
AcDbEntity
  8
0
  6
Continuous
 62
     7
370
    25
100
AcDbSpline
210
0.0
220
0.0
230
1.0
 70
     8
 71
     3
 72
     9
 73
     5
 74
     0
 42
0.00000001
 43
0.00000001
 40
0.0
 40
0.0
 40
0.0
 40
0.0
 40
0.5040512438855266
 40
1.0
 40
1.0
 40
1.0
 40
1.0
 10
133.5470914172064
 20
147.4788716573173
 30
0.0
 10
133.4793959381567
 20
147.5179756999473
 30
0.0
 10
133.3450931666213
 20
147.5955551982709
 30
0.0
 10
133.2107920849679
 20
147.6731378466412
 30
0.0
 10
133.1441856305771
 20
147.7116148645964
 30
0.0
  0
SPLINE
  5
A0
330
1F
100
AcDbEntity
  8
0
  6
Continuous
 62
     7
370
    25
100
AcDbSpline
210
0.0
220
0.0
230
1.0
 70
     8
 71
     3
 72
     9
 73
     5
 74
     0
 42
0.00000001
 43
0.00000001
 40
0.0
 40
0.0
 40
0.0
 40
0.0
 40
0.4999933964002453
 40
1.0
 40
1.0
 40
1.0
 40
1.0
 10
121.4593436081959
 20
151.8384975905238
 30
0.0
 10
121.391650770171
 20
151.7993929909063
 30
0.0
 10
121.256263306032
 20
151.7211827587331
 30
0.0
 10
121.1208741383411
 20
151.642975702088
 30
0.0
 10
121.0531786604398
 20
151.6038716573173
 30
0.0
  0
LINE
  5
A1
330
1F
100
AcDbEntity
  8
0
  6
Continuous
 62
     7
370
    25
100
AcDbLine
 10
133.5501350388
 20
151.1315675298
 30
0.0
 11
133.5501350388
 21
151.2253175319
 31
0.0
  0
LINE
  5
A2
330
1F
100
AcDbEntity
  8
0
  6
Continuous
 62
     7
370
    25
100
AcDbLine
 10
133.5501350388
 20
150.3815675298
 30
0.0
 11
133.5501350388
 21
150.4753175319
 31
0.0
  0
LINE
  5
A3
330
1F
100
AcDbEntity
  8
0
  6
Continuous
 62
     7
370
    25
100
AcDbLine
 10
133.5501350388
 20
149.6315675298
 30
0.0
 11
133.5501350388
 21
149.7253175319
 31
0.0
  0
LINE
  5
A4
330
1F
100
AcDbEntity
  8
0
  6
Continuous
 62
     7
370
    25
100
AcDbLine
 10
133.5501350388
 20
148.8815675298
 30
0.0
 11
133.5501350388
 21
148.9753175319
 31
0.0
  0
LINE
  5
A5
330
1F
100
AcDbEntity
  8
0
  6
Continuous
 62
     7
370
    25
100
AcDbLine
 10
133.5501350388
 20
148.1315675298
 30
0.0
 11
133.5501350388
 21
148.2253175319
 31
0.0
  0
LINE
  5
A6
330
1F
100
AcDbEntity
  8
0
  6
Continuous
 62
     7
370
    25
100
AcDbLine
 10
133.5501350388
 20
146.8190675298
 30
0.0
 11
133.5501350388
 21
147.4753175319
 31
0.0
  0
LINE
  5
A7
330
1F
100
AcDbEntity
  8
0
  6
Continuous
 62
     7
370
    25
100
AcDbLine
 10
121.0501350388
 20
147.1003175319
 30
0.0
 11
121.0501350388
 21
146.8190675298
 31
0.0
  0
LINE
  5
A8
330
1F
100
AcDbEntity
  8
0
  6
Continuous
 62
     7
370
    25
100
AcDbLine
 10
121.0501350388
 20
147.8503175319
 30
0.0
 11
121.0501350388
 21
147.7565675298
 31
0.0
  0
LINE
  5
A9
330
1F
100
AcDbEntity
  8
0
  6
Continuous
 62
     7
370
    25
100
AcDbLine
 10
121.0501350388
 20
148.6003175319
 30
0.0
 11
121.0501350388
 21
148.5065675298
 31
0.0
  0
LINE
  5
AA
330
1F
100
AcDbEntity
  8
0
  6
Continuous
 62
     7
370
    25
100
AcDbLine
 10
121.0501350388
 20
149.3503175319
 30
0.0
 11
121.0501350388
 21
149.2565675298
 31
0.0
  0
LINE
  5
AB
330
1F
100
AcDbEntity
  8
0
  6
Continuous
 62
     7
370
    25
100
AcDbLine
 10
121.0501350388
 20
150.1003175319
 30
0.0
 11
121.0501350388
 21
150.0065675298
 31
0.0
  0
LINE
  5
AC
330
1F
100
AcDbEntity
  8
0
  6
Continuous
 62
     7
370
    25
100
AcDbLine
 10
121.0501350388
 20
150.8503175319
 30
0.0
 11
121.0501350388
 21
150.7565675298
 31
0.0
  0
LINE
  5
AD
330
1F
100
AcDbEntity
  8
0
  6
Continuous
 62
     7
370
    25
100
AcDbLine
 10
121.0501350388
 20
151.6003175319
 30
0.0
 11
121.0501350388
 21
151.5065675298
 31
0.0
  0
LINE
  5
AE
330
1F
100
AcDbEntity
  8
0
  6
Continuous
 62
     7
370
    25
100
AcDbLine
 10
133.1427112266
 20
152.226491342
 30
0.0
 11
133.0501350388
 21
152.3190675298
 31
0.0
  0
LINE
  5
AF
330
1F
100
AcDbEntity
  8
0
  6
Continuous
 62
     7
370
    25
100
AcDbLine
 10
133.5033278539
 20
151.8658747147
 30
0.0
 11
133.1728549403
 21
152.1963476284
 31
0.0
  0
LINE
  5
B0
330
1F
100
AcDbEntity
  8
0
  6
Continuous
 62
     7
370
    25
100
AcDbLine
 10
121.5501350388
 20
152.3190675298
 30
0.0
 11
121.3350510119
 21
152.1039835029
 31
0.0
  0
LINE
  5
B1
330
1F
100
AcDbEntity
  8
0
  6
Continuous
 62
     7
370
    25
100
AcDbLine
 10
121.4560844471
 20
151.2721895731
 30
0.0
 11
121.4560844471
 21
151.0866148646
 31
0.0
  0
LINE
  5
B2
330
1F
100
AcDbEntity
  8
0
  6
Continuous
 62
     7
370
    25
100
AcDbLine
 10
121.4560844471
 20
150.5221895731
 30
0.0
 11
121.4560844471
 21
150.3366148646
 31
0.0
  0
LINE
  5
B3
330
1F
100
AcDbEntity
  8
0
  6
Continuous
 62
     7
370
    25
100
AcDbLine
 10
121.4560844471
 20
149.7721895731
 30
0.0
 11
121.4560844471
 21
149.5866148646
 31
0.0
  0
LINE
  5
B4
330
1F
100
AcDbEntity
  8
0
  6
Continuous
 62
     7
370
    25
100
AcDbLine
 10
121.4560844471
 20
149.0221895731
 30
0.0
 11
121.4560844471
 21
148.8366148646
 31
0.0
  0
LINE
  5
B5
330
1F
100
AcDbEntity
  8
0
  6
Continuous
 62
     7
370
    25
100
AcDbLine
 10
121.4560844471
 20
148.2721895731
 30
0.0
 11
121.4560844471
 21
148.0866148646
 31
0.0
  0
LINE
  5
B6
330
1F
100
AcDbEntity
  8
0
  6
Continuous
 62
     7
370
    25
100
AcDbLine
 10
121.4560844471
 20
147.5221895731
 30
0.0
 11
121.4560844471
 21
147.3366148646
 31
0.0
  0
LINE
  5
B7
330
1F
100
AcDbEntity
  8
0
  6
Continuous
 62
     7
370
    25
100
AcDbLine
 10
133.1441856306
 20
151.4596895731
 30
0.0
 11
133.1441856306
 21
151.6452698756
 31
0.0
  0
LINE
  5
B8
330
1F
100
AcDbEntity
  8
0
  6
Continuous
 62
     7
370
    25
100
AcDbLine
 10
133.1441856306
 20
150.7096895731
 30
0.0
 11
133.1441856306
 21
150.8952698756
 31
0.0
  0
LINE
  5
B9
330
1F
100
AcDbEntity
  8
0
  6
Continuous
 62
     7
370
    25
100
AcDbLine
 10
133.1441856306
 20
149.9596895731
 30
0.0
 11
133.1441856306
 21
150.1452698756
 31
0.0
  0
LINE
  5
BA
330
1F
100
AcDbEntity
  8
0
  6
Continuous
 62
     7
370
    25
100
AcDbLine
 10
133.1441856306
 20
149.2096895731
 30
0.0
 11
133.1441856306
 21
149.3952698756
 31
0.0
  0
LINE
  5
BB
330
1F
100
AcDbEntity
  8
0
  6
Continuous
 62
     7
370
    25
100
AcDbLine
 10
133.1441856306
 20
148.4596895731
 30
0.0
 11
133.1441856306
 21
148.6452698756
 31
0.0
  0
LINE
  5
BC
330
1F
100
AcDbEntity
  8
0
  6
Continuous
 62
     7
370
    25
100
AcDbLine
 10
133.1441856306
 20
147.7096895731
 30
0.0
 11
133.1441856306
 21
147.8952698756
 31
0.0
  0
LINE
  5
BD
330
1F
100
AcDbEntity
  8
0
  6
Continuous
 62
     7
370
    25
100
AcDbLine
 10
121.4560844471
 20
152.0221895731
 30
0.0
 11
121.4560844471
 21
151.8366148646
 31
0.0
  0
SPLINE
  5
BE
330
1F
100
AcDbEntity
  8
0
  6
Continuous
 62
     7
370
    25
100
AcDbSpline
210
0.0
220
0.0
230
1.0
 70
     8
 71
     3
 72
    23
 73
    19
 74
     0
 42
0.00000001
 43
0.00000001
 40
0.0
 40
0.0
 40
0.0
 40
0.0
 40
0.0522503384884298
 40
0.1160375624392444
 40
0.1801931464071076
 40
0.2446102564402847
 40
0.3092139637850523
 40
0.3739494303973098
 40
0.4446737347350224
 40
0.513855290983111
 40
0.5814613924601861
 40
0.6476097512608778
 40
0.7123740132464672
 40
0.7757916320456287
 40
0.8378697841926421
 40
0.8985880022875249
 40
0.95789838244489
 40
1.0
 40
1.0
 40
1.0
 40
1.0
 10
140.1559058655107
 20
136.1187078586824
 30
0.0
 10
140.0209996203127
 20
136.1175682402236
 30
0.0
 10
139.7213998032882
 20
136.1150373753163
 30
0.0
 10
139.2584117902666
 20
136.1694323652261
 30
0.0
 10
138.7719838876537
 20
136.2709083672836
 30
0.0
 10
138.2961259856295
 20
136.4222697179336
 30
0.0
 10
137.8363296382319
 20
136.6205626561788
 30
0.0
 10
137.3844366063534
 20
136.8718493487882
 30
0.0
 10
136.951487518357
 20
137.1759637316264
 30
0.0
 10
136.5484444151054
 20
137.5299747010773
 30
0.0
 10
136.1931260750287
 20
137.9158812250699
 30
0.0
 10
135.8864708982345
 20
138.3272706282068
 30
0.0
 10
135.6285691060248
 20
138.7582602853256
 30
0.0
 10
135.4192563885389
 20
139.2031407194013
 30
0.0
 10
135.2572053831394
 20
139.6563400430474
 30
0.0
 10
135.1430256219126
 20
140.1126024643685
 30
0.0
 10
135.0746074160456
 20
140.5263164962635
 30
0.0
 10
135.0620500007487
 20
140.7878186990815
 30
0.0
 10
135.0568367369512
 20
140.8963824388874
 30
0.0
  0
LINE
  5
BF
330
1F
100
AcDbEntity
  8
0
  6
Continuous
 62
     7
370
    25
100
AcDbLine
 10
156.4230914674
 20
137.3190675298
 30
0.0
 11
156.0501350388
 21
137.3190675298
 31
0.0
  0
LINE
  5
C0
330
1F
100
AcDbEntity
  8
0
  6
Continuous
 62
     7
370
    25
100
AcDbLine
 10
156.0501350388
 20
121.3190675298
 30
0.0
 11
156.4230914674
 21
121.3190675298
 31
0.0
  0
ARC
  5
C1
330
1F
100
AcDbEntity
  8
0
  6
Continuous
 62
     7
370
    25
100
AcDbCircle
 10
94.265717255
 20
134.8847877601
 30
0.0
 40
25.00000000000001
100
AcDbArc
 50
350.4364817848
 51
357.5459683255
  0
SPLINE
  5
C2
330
1F
100
AcDbEntity
  8
0
  6
Continuous
 62
     7
370
    25
100
AcDbSpline
210
0.0
220
0.0
230
1.0
 70
     8
 71
     3
 72
    15
 73
    11
 74
     0
 42
0.00000001
 43
0.00000001
 40
0.0
 40
0.0
 40
0.0
 40
0.0
 40
0.1108368165555353
 40
0.2349415033706564
 40
0.3454790293190535
 40
0.4454167465412642
 40
0.5380082539197936
 40
0.6438898427019242
 40
0.7906582150331163
 40
1.0
 40
1.0
 40
1.0
 40
1.0
 10
148.4817802669118
 20
122.3257758744918
 30
0.0
 10
148.5188041759154
 20
122.3239476772634
 30
0.0
 10
148.5972839907665
 20
122.3200724359977
 30
0.0
 10
148.7036176303127
 20
122.2755692375012
 30
0.0
 10
148.7914297420576
 20
122.2158916552596
 30
0.0
 10
148.8512738102839
 20
122.1540648494778
 30
0.0
 10
148.8879529660146
 20
122.1027520889456
 30
0.0
 10
148.9103386201317
 20
122.0627328081108
 30
0.0
 10
148.9241158004197
 20
122.031538317943
 30
0.0
 10
148.9272265025422
 20
122.0222919218629
 30
0.0
 10
148.9290551500028
 20
122.0168563648584
 30
0.0
  0
SPLINE
  5
C3
330
1F
100
AcDbEntity
  8
0
  6
Continuous
 62
     7
370
    25
100
AcDbSpline
210
0.0
220
0.0
230
1.0
 70
     8
 71
     3
 72
     9
 73
     5
 74
     0
 42
0.00000001
 43
0.00000001
 40
0.0
 40
0.0
 40
0.0
 40
0.0
 40
0.5372767609285716
 40
1.0
 40
1.0
 40
1.0
 40
1.0
 10
148.9302683047665
 20
122.0129798120036
 30
0.0
 10
148.9305501613216
 20
122.0118700768638
 30
0.0
 10
148.9310747634925
 20
122.0098045954946
 30
0.0
 10
148.9303282073772
 20
122.0139739219089
 30
0.0
 10
148.9299827585133
 20
122.0159031661321
 30
0.0
  0
SPLINE
  5
C4
330
1F
100
AcDbEntity
  8
0
  6
Continuous
 62
     7
370
    25
100
AcDbSpline
210
0.0
220
0.0
230
1.0
 70
     8
 71
     3
 72
    16
 73
    12
 74
     0
 42
0.00000001
 43
0.00000001
 40
0.0
 40
0.0
 40
0.0
 40
0.0
 40
0.044983577978421
 40
0.2582719427643849
 40
0.4198040752102793
 40
0.5320931929980739
 40
0.6231029875105848
 40
0.7130927308446092
 40
0.8175821361093317
 40
0.9328336272380415
 40
1.0
 40
1.0
 40
1.0
 40
1.0
 10
148.9305000197413
 20
136.6253070239434
 30
0.0
 10
148.9306449431014
 20
136.6260434815287
 30
0.0
 10
148.9314770164812
 20
136.6302718319596
 30
0.0
 10
148.9285758725776
 20
136.6185373484862
 30
0.0
 10
148.9187447097557
 20
136.5933563901381
 30
0.0
 10
148.8984113276124
 20
136.5523427937872
 30
0.0
 10
148.8611798617958
 20
136.4957105384945
 30
0.0
 10
148.7950080793193
 20
136.4240328845473
 30
0.0
 10
148.6946688151948
 20
136.356955930833
 30
0.0
 10
148.5845782672596
 20
136.3136329492172
 30
0.0
 10
148.5100160402935
 20
136.3143913263391
 30
0.0
 10
148.4825621812057
 20
136.3146705612747
 30
0.0
  0
LWPOLYLINE
  5
C5
330
1F
100
AcDbEntity
  8
0
  6
Continuous
 62
     7
370
    25
100
AcDbPolyline
 90
        3
 70
   128
 43
0.0
 10
118.9182678399
 20
130.7312652002
 10
118.8271551955
 20
129.9962769324
 10
118.8021530726
 20
129.5042768763
  0
ARC
  5
C6
330
1F
100
AcDbEntity
  8
0
  6
Continuous
 62
     7
370
    25
100
AcDbCircle
 10
127.3001350388
 20
129.3190675298
 30
0.0
 40
8.499999999999995
100
AcDbArc
 50
205.2525973352
 51
231.0048530107
  0
ARC
  5
C7
330
1F
100
AcDbEntity
  8
0
  6
Continuous
 62
     7
370
    25
100
AcDbCircle
 10
134.1063517762
 20
117.6603620389
 30
0.0
 40
4.999999999999995
100
AcDbArc
 50
88.6754780877
 51
103.0256104777
  0
LINE
  5
C8
330
1F
100
AcDbEntity
  8
0
  6
Continuous
 62
     7
370
    25
100
AcDbLine
 10
126.3587435627
 20
130.264468021
 30
0.0
 11
126.8682170733
 21
130.5813855844
 31
0.0
  0
LINE
  5
C9
330
1F
100
AcDbEntity
  8
0
  6
Continuous
 62
     7
370
    25
100
AcDbLine
 10
126.6888660247
 20
129.7337664475
 30
0.0
 11
126.3587435627
 21
130.264468021
 31
0.0
  0
SPLINE
  5
CA
330
1F
100
AcDbEntity
  8
0
  6
Continuous
 62
     7
370
    25
100
AcDbSpline
210
0.0
220
0.0
230
1.0
 70
     8
 71
     3
 72
    12
 73
     8
 74
     0
 42
0.00000001
 43
0.00000001
 40
0.0
 40
0.0
 40
0.0
 40
0.0
 40
0.2133534395476156
 40
0.4267919313634527
 40
0.6383539739091617
 40
0.8490950351927563
 40
1.0
 40
1.0
 40
1.0
 40
1.0
 10
126.5685185577001
 20
129.2172720262243
 30
0.0
 10
126.6018271799268
 20
129.2427621747065
 30
0.0
 10
126.6684577026937
 20
129.2937526331895
 30
0.0
 10
126.7298437415341
 20
129.4069570494459
 30
0.0
 10
126.7521406089343
 20
129.5311724842944
 30
0.0
 10
126.7357627887199
 20
129.6452164679441
 30
0.0
 10
126.7026733426765
 20
129.707695613982
 30
0.0
 10
126.6888660246626
 20
129.7337664474872
 30
0.0
  0
LINE
  5
CB
330
1F
100
AcDbEntity
  8
0
  6
Continuous
 62
     7
370
    25
100
AcDbLine
 10
126.0378169842
 20
128.8871495643
 30
0.0
 11
126.5685185577
 21
129.2172720262
 31
0.0
  0
LINE
  5
CC
330
1F
100
AcDbEntity
  8
0
  6
Continuous
 62
     7
370
    25
100
AcDbLine
 10
126.3547345476
 20
128.3776760537
 30
0.0
 11
126.0378169842
 21
128.8871495643
 31
0.0
  0
LINE
  5
CD
330
1F
100
AcDbEntity
  8
0
  6
Continuous
 62
     7
370
    25
100
AcDbLine
 10
126.8854361211
 20
128.7077985156
 30
0.0
 11
126.3547345476
 21
128.3776760537
 31
0.0
  0
SPLINE
  5
CE
330
1F
100
AcDbEntity
  8
0
  6
Continuous
 62
     7
370
    25
100
AcDbSpline
210
0.0
220
0.0
230
1.0
 70
     8
 71
     3
 72
    12
 73
     8
 74
     0
 42
0.00000001
 43
0.00000001
 40
0.0
 40
0.0
 40
0.0
 40
0.0
 40
0.2133534395476109
 40
0.4267919313634471
 40
0.6383539739091423
 40
0.8490950351927515
 40
1.0
 40
1.0
 40
1.0
 40
1.0
 10
127.4019305424033
 20
128.5874510486814
 30
0.0
 10
127.3764403939211
 20
128.6207596709081
 30
0.0
 10
127.325449935438
 20
128.6873901936751
 30
0.0
 10
127.2122455191817
 20
128.7487762325155
 30
0.0
 10
127.0880300843332
 20
128.7710730999156
 30
0.0
 10
126.9739861006835
 20
128.7546952797012
 30
0.0
 10
126.9115069546456
 20
128.7216058336578
 30
0.0
 10
126.8854361211404
 20
128.707798515644
 30
0.0
  0
LINE
  5
CF
330
1F
100
AcDbEntity
  8
0
  6
Continuous
 62
     7
370
    25
100
AcDbLine
 10
127.7320530043
 20
128.0567494752
 30
0.0
 11
127.4019305424
 21
128.5874510487
 31
0.0
  0
LINE
  5
D0
330
1F
100
AcDbEntity
  8
0
  6
Continuous
 62
     7
370
    25
100
AcDbLine
 10
128.2415265149
 20
128.3736670386
 30
0.0
 11
127.7320530043
 21
128.0567494752
 31
0.0
  0
LINE
  5
D1
330
1F
100
AcDbEntity
  8
0
  6
Continuous
 62
     7
370
    25
100
AcDbLine
 10
127.911404053
 20
128.9043686121
 30
0.0
 11
128.2415265149
 21
128.3736670386
 31
0.0
  0
SPLINE
  5
D2
330
1F
100
AcDbEntity
  8
0
  6
Continuous
 62
     7
370
    25
100
AcDbSpline
210
0.0
220
0.0
230
1.0
 70
     8
 71
     3
 72
    12
 73
     8
 74
     0
 42
0.00000001
 43
0.00000001
 40
0.0
 40
0.0
 40
0.0
 40
0.0
 40
0.2133534395476083
 40
0.4267919313634431
 40
0.6383539739091453
 40
0.8490950351927583
 40
1.0
 40
1.0
 40
1.0
 40
1.0
 10
128.0317515199462
 20
129.4208630333846
 30
0.0
 10
127.9984428977194
 20
129.3953728849024
 30
0.0
 10
127.9318123749525
 20
129.3443824264194
 30
0.0
 10
127.8704263361121
 20
129.231178010163
 30
0.0
 10
127.8481294687119
 20
129.1069625753146
 30
0.0
 10
127.8645072889263
 20
128.9929185916648
 30
0.0
 10
127.8975967349698
 20
128.9304394456269
 30
0.0
 10
127.9114040529836
 20
128.9043686121217
 30
0.0
  0
LINE
  5
D3
330
1F
100
AcDbEntity
  8
0
  6
Continuous
 62
     7
370
    25
100
AcDbLine
 10
128.5624530935
 20
129.7509854953
 30
0.0
 11
128.0317515199
 21
129.4208630334
 31
0.0
  0
LINE
  5
D4
330
1F
100
AcDbEntity
  8
0
  6
Continuous
 62
     7
370
    25
100
AcDbLine
 10
128.24553553
 20
130.2604590059
 30
0.0
 11
128.5624530935
 21
129.7509854953
 31
0.0
  0
LINE
  5
D5
330
1F
100
AcDbEntity
  8
0
  6
Continuous
 62
     7
370
    25
100
AcDbLine
 10
127.7148339565
 20
129.930336544
 30
0.0
 11
128.24553553
 21
130.2604590059
 31
0.0
  0
SPLINE
  5
D6
330
1F
100
AcDbEntity
  8
0
  6
Continuous
 62
     7
370
    25
100
AcDbSpline
210
0.0
220
0.0
230
1.0
 70
     8
 71
     3
 72
    12
 73
     8
 74
     0
 42
0.00000001
 43
0.00000001
 40
0.0
 40
0.0
 40
0.0
 40
0.0
 40
0.213353439547615
 40
0.4267919313634486
 40
0.638353973909168
 40
0.8490950351927649
 40
1.0
 40
1.0
 40
1.0
 40
1.0
 10
127.198339535243
 20
130.0506840109275
 30
0.0
 10
127.2238296837252
 20
130.0173753887008
 30
0.0
 10
127.2748201422082
 20
129.9507448659339
 30
0.0
 10
127.3880245584645
 20
129.8893588270934
 30
0.0
 10
127.512239993313
 20
129.8670619596933
 30
0.0
 10
127.6262839769627
 20
129.8834397799077
 30
0.0
 10
127.6887631230007
 20
129.9165292259511
 30
0.0
 10
127.7148339565059
 20
129.930336543965
 30
0.0
  0
LINE
  5
D7
330
1F
100
AcDbEntity
  8
0
  6
Continuous
 62
     7
370
    25
100
AcDbLine
 10
126.8682170733
 20
130.5813855844
 30
0.0
 11
127.1983395352
 21
130.0506840109
 31
0.0
  0
CIRCLE
  5
D8
330
1F
100
AcDbEntity
  8
0
  6
Continuous
 62
     7
370
    25
100
AcDbCircle
 10
127.3001350388
 20
129.3190675298
 30
0.0
 40
2.098716683119461
  0
CIRCLE
  5
D9
330
1F
100
AcDbEntity
  8
0
  6
Continuous
 62
     7
370
    25
100
AcDbCircle
 10
127.3001350388
 20
129.3190675298
 30
0.0
 40
2.664457168313806
  0
CIRCLE
  5
DA
330
1F
100
AcDbEntity
  8
0
  6
Continuous
 62
     7
370
    25
100
AcDbCircle
 10
127.3001350388
 20
129.3190675298
 30
0.0
 40
2.96256388558068
  0
CIRCLE
  5
DB
330
1F
100
AcDbEntity
  8
0
  6
Continuous
 62
     7
370
    25
100
AcDbCircle
 10
127.3001350388
 20
129.3190675298
 30
0.0
 40
2.226052935528679
  0
CIRCLE
  5
DC
330
1F
100
AcDbEntity
  8
0
  6
Continuous
 62
     7
370
    25
100
AcDbCircle
 10
127.3001350388
 20
129.3190675298
 30
0.0
 40
2.537284626844575
  0
CIRCLE
  5
DD
330
1F
100
AcDbEntity
  8
0
  6
Continuous
 62
     7
370
    25
100
AcDbCircle
 10
127.3001350388
 20
129.3190675298
 30
0.0
 40
3.574999999999972
  0
SPLINE
  5
DE
330
1F
100
AcDbEntity
  8
0
  6
Continuous
 62
     7
370
    25
100
AcDbSpline
210
0.0
220
0.0
230
1.0
 70
     8
 71
     3
 72
    12
 73
     8
 74
     0
 42
0.00000001
 43
0.00000001
 40
0.0
 40
0.0
 40
0.0
 40
0.0
 40
0.2197727842247472
 40
0.442012590090147
 40
0.6641932146568139
 40
0.8891706289034113
 40
1.0
 40
1.0
 40
1.0
 40
1.0
 10
130.0183194866752
 20
125.8410818002876
 30
0.0
 10
129.8809922872391
 20
125.7457130538928
 30
0.0
 10
129.6047963454771
 20
125.5539050156213
 30
0.0
 10
129.1440073225484
 20
125.3424459344411
 30
0.0
 10
128.6565213587243
 20
125.2007085099809
 30
0.0
 10
128.2336520159135
 20
125.1309955042563
 30
0.0
 10
127.9789245163303
 20
125.1540567300038
 30
0.0
 10
127.8948544801904
 20
125.1616678363241
 30
0.0
  0
SPLINE
  5
DF
330
1F
100
AcDbEntity
  8
0
  6
Continuous
 62
     7
370
    25
100
AcDbSpline
210
0.0
220
0.0
230
1.0
 70
     8
 71
     3
 72
     9
 73
     5
 74
     0
 42
0.00000001
 43
0.00000001
 40
0.0
 40
0.0
 40
0.0
 40
0.0
 40
0.9209630919903052
 40
1.0
 40
1.0
 40
1.0
 40
1.0
 10
129.8176572477132
 20
125.0300200551693
 30
0.0
 10
129.8588012341366
 20
125.2855036763555
 30
0.0
 10
129.9034761910173
 20
125.5629128618137
 30
0.0
 10
130.0099074861894
 20
125.8207065817589
 30
0.0
 10
130.0183194866752
 20
125.8410818002876
 30
0.0
  0
SPLINE
  5
E0
330
1F
100
AcDbEntity
  8
0
  6
Continuous
 62
     7
370
    25
100
AcDbSpline
210
0.0
220
0.0
230
1.0
 70
     8
 71
     3
 72
    11
 73
     7
 74
     0
 42
0.00000001
 43
0.00000001
 40
0.0
 40
0.0
 40
0.0
 40
0.0
 40
0.1297919720086889
 40
0.259620213862115
 40
0.6297632173135241
 40
0.9999999999999999
 40
0.9999999999999999
 40
0.9999999999999999
 40
0.9999999999999999
 10
127.3528143543574
 20
101.5358176867787
 30
0.0
 10
127.4834593529361
 20
102.549458878335
 30
0.0
 10
127.744785858313
 20
104.5770245194032
 30
0.0
 10
128.3031685949126
 20
109.5050442022789
 30
0.0
 10
129.0195860437433
 20
116.3205357111154
 30
0.0
 10
129.5516110503065
 20
122.1266134674087
 30
0.0
 10
129.8176572477132
 20
125.0300200551693
 30
0.0
  0
SPLINE
  5
E1
330
1F
100
AcDbEntity
  8
0
  6
Continuous
 62
     7
370
    25
100
AcDbSpline
210
0.0
220
0.0
230
1.0
 70
     8
 71
     3
 72
    11
 73
     7
 74
     0
 42
0.00000001
 43
0.00000001
 40
0.0
 40
0.0
 40
0.0
 40
0.0
 40
0.0614641195413922
 40
0.4999988937835373
 40
0.9375097801832794
 40
1.0
 40
1.0
 40
1.0
 40
1.0
 10
124.4933264115117
 20
101.6779103130756
 30
0.0
 10
124.5511935665978
 20
101.6691930023996
 30
0.0
 10
125.0219318403308
 20
101.5982793420838
 30
0.0
 10
125.9173694226809
 20
101.5118805333409
 30
0.0
 10
126.8179336204575
 20
101.5089665463442
 30
0.0
 10
127.2933915453466
 20
101.5328346475914
 30
0.0
 10
127.3528143543574
 20
101.5358176867787
 30
0.0
  0
SPLINE
  5
E2
330
1F
100
AcDbEntity
  8
0
  6
Continuous
 62
     7
370
    25
100
AcDbSpline
210
0.0
220
0.0
230
1.0
 70
     8
 71
     3
 72
    11
 73
     7
 74
     0
 42
0.00000001
 43
0.00000001
 40
0.0
 40
0.0
 40
0.0
 40
0.0
 40
0.2594589277291895
 40
0.6296002946237425
 40
0.8147836738016294
 40
1.0
 40
1.0
 40
1.0
 40
1.0
 10
124.3698054352179
 20
125.3007327097374
 30
0.0
 10
124.3511322831068
 20
123.2576413425795
 30
0.0
 10
124.305820209348
 20
118.2998974022808
 30
0.0
 10
124.3265185350972
 20
111.8833942955135
 30
0.0
 10
124.3758566507005
 20
106.051622723397
 30
0.0
 10
124.4541675026602
 20
103.135900900914
 30
0.0
 10
124.4933264115117
 20
101.6779103130756
 30
0.0
  0
SPLINE
  5
E3
330
1F
100
AcDbEntity
  8
0
  6
Continuous
 62
     7
370
    25
100
AcDbSpline
210
0.0
220
0.0
230
1.0
 70
     8
 71
     3
 72
     9
 73
     5
 74
     0
 42
0.00000001
 43
0.00000001
 40
0.0
 40
0.0
 40
0.0
 40
0.0
 40
0.0790369080192144
 40
1.0
 40
1.0
 40
1.0
 40
1.0
 10
124.2505391481155
 20
126.1276922258564
 30
0.0
 10
124.256889740171
 20
126.1065834299899
 30
0.0
 10
124.3372394427915
 20
125.8395082571941
 30
0.0
 10
124.3541923934038
 20
125.5590366803554
 30
0.0
 10
124.3698054352179
 20
125.3007327097374
 30
0.0
  0
SPLINE
  5
E4
330
1F
100
AcDbEntity
  8
0
  6
Continuous
 62
     7
370
    25
100
AcDbSpline
210
0.0
220
0.0
230
1.0
 70
     8
 71
     3
 72
    13
 73
     9
 74
     0
 42
0.00000001
 43
0.00000001
 40
0.0
 40
0.0
 40
0.0
 40
0.0
 40
0.0726971755494154
 40
0.2431008939421291
 40
0.4138365650808734
 40
0.6674651287265061
 40
0.9211692527377843
 40
1.0
 40
1.0
 40
1.0
 40
1.0
 10
126.2961871580662
 20
125.2411082266741
 30
0.0
 10
126.240844358761
 20
125.2397392311586
 30
0.0
 10
126.055776866349
 20
125.2351612811748
 30
0.0
 10
125.745093481614
 20
125.3004853196522
 30
0.0
 10
125.3145049918517
 20
125.435585507381
 30
0.0
 10
124.8496290244936
 20
125.662179605712
 30
0.0
 10
124.4833924710964
 20
125.918985078174
 30
0.0
 10
124.2951612570765
 20
126.0876972927131
 30
0.0
 10
124.2505391481155
 20
126.1276922258564
 30
0.0
  0
SPLINE
  5
E5
330
1F
100
AcDbEntity
  8
0
  6
Continuous
 62
     7
370
    25
100
AcDbSpline
210
0.0
220
0.0
230
1.0
 70
     8
 71
     3
 72
    11
 73
     7
 74
     0
 42
0.00000001
 43
0.00000001
 40
0.0
 40
0.0
 40
0.0
 40
0.0
 40
0.3874789999477543
 40
0.6805811178340889
 40
0.9790930069035333
 40
1.0
 40
1.0
 40
1.0
 40
1.0
 10
127.8948544801904
 20
125.1616678363241
 30
0.0
 10
127.6913370469272
 20
125.2093061896571
 30
0.0
 10
127.3338721978704
 20
125.2929797920138
 30
0.0
 10
126.8051449515687
 20
125.3058603158739
 30
0.0
 10
126.4758528842443
 20
125.2760958758644
 30
0.0
 10
126.3072244325432
 20
125.2432575975954
 30
0.0
 10
126.2961871580662
 20
125.2411082266741
 30
0.0
  0
ARC
  5
E6
330
1F
100
AcDbEntity
  8
0
  6
Continuous
 62
     7
370
    25
100
AcDbCircle
 10
127.3001350388
 20
129.3190675298
 30
0.0
 40
4.199721827132272
100
AcDbArc
 50
278.1409770874
 51
256.1694611015
  0
SPLINE
  5
E7
330
1F
100
AcDbEntity
  8
0
  6
Continuous
 62
     7
370
    25
100
AcDbSpline
210
0.0
220
0.0
230
1.0
 70
     8
 71
     3
 72
     9
 73
     5
 74
     0
 42
0.00000001
 43
0.00000001
 40
0.0
 40
0.0
 40
0.0
 40
0.0
 40
0.6817923421274448
 40
1.0
 40
1.0
 40
1.0
 40
1.0
 10
124.2505391481155
 20
126.1276922258564
 30
0.0
 10
124.1592312867549
 20
126.2034490101697
 30
0.0
 10
124.0253080146399
 20
126.3145631715241
 30
0.0
 10
123.9146925852105
 20
126.4349142904182
 30
0.0
 10
123.8794939084872
 20
126.4732109380838
 30
0.0
  0
ARC
  5
E8
330
1F
100
AcDbEntity
  8
0
  6
Continuous
 62
     7
370
    25
100
AcDbCircle
 10
127.3001350388
 20
129.3190675298
 30
0.0
 40
4.449683750918161
100
AcDbArc
 50
314.5511382905
 51
219.7592998983
  0
SPLINE
  5
E9
330
1F
100
AcDbEntity
  8
0
  6
Continuous
 62
     7
370
    25
100
AcDbSpline
210
0.0
220
0.0
230
1.0
 70
     8
 71
     3
 72
     9
 73
     5
 74
     0
 42
0.00000001
 43
0.00000001
 40
0.0
 40
0.0
 40
0.0
 40
0.0
 40
0.4941867114119795
 40
1.0
 40
1.0
 40
1.0
 40
1.0
 10
130.42179102253
 20
126.1481135089186
 30
0.0
 10
130.3600269717513
 20
126.0958693482877
 30
0.0
 10
130.2350457665662
 20
125.9901518948951
 30
0.0
 10
130.091119370423
 20
125.8911554949183
 30
0.0
 10
130.0183194866752
 20
125.8410818002876
 30
0.0
  0
SPLINE
  5
EA
330
1F
100
AcDbEntity
  8
0
  6
Continuous
 62
     7
370
    25
100
AcDbSpline
210
0.0
220
0.0
230
1.0
 70
     8
 71
     3
 72
    11
 73
     7
 74
     0
 42
0.00000001
 43
0.00000001
 40
0.0
 40
0.0
 40
0.0
 40
0.0
 40
0.1851296338675983
 40
0.3702933375482647
 40
0.7405333240509896
 40
1.0
 40
1.0
 40
1.0
 40
1.0
 10
124.2718836417714
 20
101.68314732765
 30
0.0
 10
124.2642921023996
 20
103.1401141646026
 30
0.0
 10
124.2491076265684
 20
106.0543159673143
 30
0.0
 10
124.217070970361
 20
111.8832492795804
 30
0.0
 10
124.1815069055505
 20
118.2972399495758
 30
0.0
 10
124.1530376398936
 20
123.2533641977117
 30
0.0
 10
124.1413070577557
 20
125.2955040716131
 30
0.0
  0
ARC
  5
EB
330
1F
100
AcDbEntity
  8
0
  6
Continuous
 62
     7
370
    25
100
AcDbCircle
 10
124.3384921571
 20
121.6737097844
 30
0.0
 40
3.627158091690382
100
AcDbArc
 50
89.5053590393
 51
93.1163368258
  0
ARC
  5
EC
330
1F
100
AcDbEntity
  8
0
  6
Continuous
 62
     7
370
    25
100
AcDbCircle
 10
124.4329195187
 20
103.8080349237
 30
0.0
 40
2.130980959440639
100
AcDbArc
 50
265.666089633
 51
271.6243804009
  0
SPLINE
  5
ED
330
1F
100
AcDbEntity
  8
0
  6
Continuous
 62
     7
370
    25
100
AcDbSpline
210
0.0
220
0.0
230
1.0
 70
     8
 71
     3
 72
    10
 73
     6
 74
     0
 42
0.00000001
 43
0.00000001
 40
0.0
 40
0.0
 40
0.0
 40
0.0
 40
0.3702717503651154
 40
0.7405122151371749
 40
1.0
 40
1.0
 40
1.0
 40
1.0
 10
130.0445116024703
 20
125.0021641960511
 30
0.0
 10
129.7390297788589
 20
122.1039177024272
 30
0.0
 10
129.1280919428949
 20
116.3076695984585
 30
0.0
 10
128.3041464790528
 20
108.479345330712
 30
0.0
 10
127.786845897991
 20
103.5501960269937
 30
0.0
 10
127.5736854085802
 20
101.5190754050086
 30
0.0
  0
ARC
  5
EE
330
1F
100
AcDbEntity
  8
0
  6
Continuous
 62
     7
370
    25
100
AcDbCircle
 10
127.6241009525
 20
103.6494599075
 30
0.0
 40
2.130980960890726
100
AcDbArc
 50
262.6860577904
 51
268.6443485542
  0
ARC
  5
EF
330
1F
100
AcDbEntity
  8
0
  6
Continuous
 62
     7
370
    25
100
AcDbCircle
 10
129.4892387689
 20
121.4177607725
 30
0.0
 40
3.627158091742489
100
AcDbArc
 50
81.1941013631
 51
84.8050791495
  0
SPLINE
  5
F0
330
1F
100
AcDbEntity
  8
0
  6
Continuous
 62
     7
370
    25
100
AcDbSpline
210
0.0
220
0.0
230
1.0
 70
     8
 71
     3
 72
    12
 73
     8
 74
     0
 42
0.00000001
 43
0.00000001
 40
0.0
 40
0.0
 40
0.0
 40
0.0
 40
0.1224290494151342
 40
0.342352244977043
 40
0.5614228816909413
 40
0.7807229538533575
 40
1.0
 40
1.0
 40
1.0
 40
1.0
 10
127.2495099046975
 20
100.5718931211229
 30
0.0
 10
127.2509112314837
 20
100.5763310797587
 30
0.0
 10
127.2548298061481
 20
100.5887410846498
 30
0.0
 10
127.2686830872845
 20
100.6961797844509
 30
0.0
 10
127.2922397535556
 20
100.913227200469
 30
0.0
 10
127.3214878652564
 20
101.2040968643056
 30
0.0
 10
127.3423725568172
 20
101.4252479495522
 30
0.0
 10
127.3528143543574
 20
101.5358176867787
 30
0.0
  0
SPLINE
  5
F1
330
1F
100
AcDbEntity
  8
0
  6
Continuous
 62
     7
370
    25
100
AcDbSpline
210
0.0
220
0.0
230
1.0
 70
     8
 71
     3
 72
    11
 73
     7
 74
     0
 42
0.00000001
 43
0.00000001
 40
0.0
 40
0.0
 40
0.0
 40
0.0
 40
0.0800485240044432
 40
0.5000005853538801
 40
0.9209248322279646
 40
1.0
 40
1.0
 40
1.0
 40
1.0
 10
127.2495099046975
 20
100.5718931211229
 30
0.0
 10
127.1764849073305
 20
100.5756651513152
 30
0.0
 10
126.7203548052073
 20
100.5992260767359
 30
0.0
 10
125.8742247260493
 20
100.6418902731163
 30
0.0
 10
125.0289235385836
 20
100.683275057131
 30
0.0
 10
124.572710302991
 20
100.7050493231271
 30
0.0
 10
124.5005599422354
 20
100.7084929346321
 30
0.0
  0
SPLINE
  5
F2
330
1F
100
AcDbEntity
  8
0
  6
Continuous
 62
     7
370
    25
100
AcDbSpline
210
0.0
220
0.0
230
1.0
 70
     8
 71
     3
 72
    12
 73
     8
 74
     0
 42
0.00000001
 43
0.00000001
 40
0.0
 40
0.0
 40
0.0
 40
0.0
 40
0.1130367476169238
 40
0.3328594693547979
 40
0.5544127937944977
 40
0.7774207483513255
 40
0.9999999999999999
 40
0.9999999999999999
 40
0.9999999999999999
 40
0.9999999999999999
 10
124.4933264115117
 20
101.6779103130756
 30
0.0
 10
124.4930002536225
 20
101.6208207262211
 30
0.0
 10
124.4920398160282
 20
101.4527089396853
 30
0.0
 10
124.4915671492512
 20
101.1853690144544
 30
0.0
 10
124.4926699187195
 20
100.9267327348682
 30
0.0
 10
124.4955199981861
 20
100.7479235707026
 30
0.0
 10
124.4988810387801
 20
100.7216280469465
 30
0.0
 10
124.5005599422354
 20
100.7084929346321
 30
0.0
  0
SPLINE
  5
F3
330
1F
100
AcDbEntity
  8
0
  6
Continuous
 62
     7
370
    25
100
AcDbSpline
210
0.0
220
0.0
230
1.0
 70
     8
 71
     3
 72
     9
 73
     5
 74
     0
 42
0.00000001
 43
0.00000001
 40
0.0
 40
0.0
 40
0.0
 40
0.0
 40
0.5000106123815518
 40
1.0
 40
1.0
 40
1.0
 40
1.0
 10
130.649838651493
 20
126.3868935992529
 30
0.0
 10
130.4954321214302
 20
126.1794405187936
 30
0.0
 10
130.1866256156498
 20
125.7645431639731
 30
0.0
 10
130.0918822698951
 20
125.256286922819
 30
0.0
 10
130.0445116024703
 20
125.0021641960511
 30
0.0
  0
SPLINE
  5
F4
330
1F
100
AcDbEntity
  8
0
  6
Continuous
 62
     7
370
    25
100
AcDbSpline
210
0.0
220
0.0
230
1.0
 70
     8
 71
     3
 72
     9
 73
     5
 74
     0
 42
0.00000001
 43
0.00000001
 40
0.0
 40
0.0
 40
0.0
 40
0.0
 40
0.9838702326459415
 40
1.0
 40
1.0
 40
1.0
 40
1.0
 10
130.42179102253
 20
126.1481135089186
 30
0.0
 10
130.4981216913766
 20
126.2250904574135
 30
0.0
 10
130.5757037406285
 20
126.3033293815527
 30
0.0
 10
130.6486618540961
 20
126.3855671236059
 30
0.0
 10
130.649838651493
 20
126.3868935992529
 30
0.0
  0
SPLINE
  5
F5
330
1F
100
AcDbEntity
  8
0
  6
Continuous
 62
     7
370
    25
100
AcDbSpline
210
0.0
220
0.0
230
1.0
 70
     8
 71
     3
 72
     9
 73
     5
 74
     0
 42
0.00000001
 43
0.00000001
 40
0.0
 40
0.0
 40
0.0
 40
0.0
 40
0.5055561057107266
 40
0.9999999999999999
 40
0.9999999999999999
 40
0.9999999999999999
 40
0.9999999999999999
 10
124.1413070577557
 20
125.2955040716131
 30
0.0
 10
124.1188783264972
 20
125.5559679590979
 30
0.0
 10
124.074513851407
 20
126.0711706923703
 30
0.0
 10
123.8080121526495
 20
126.5143136676929
 30
0.0
 10
123.6762420148811
 20
126.7334230061384
 30
0.0
  0
SPLINE
  5
F6
330
1F
100
AcDbEntity
  8
0
  6
Continuous
 62
     7
370
    25
100
AcDbSpline
210
0.0
220
0.0
230
1.0
 70
     8
 71
     3
 72
     9
 73
     5
 74
     0
 42
0.00000001
 43
0.00000001
 40
0.0
 40
0.0
 40
0.0
 40
0.0
 40
0.016129767353335
 40
1.0
 40
1.0
 40
1.0
 40
1.0
 10
123.6762420148811
 20
126.7334230061384
 30
0.0
 10
123.6772815101956
 20
126.7319863992867
 30
0.0
 10
123.7417272825188
 20
126.6429208337239
 30
0.0
 10
123.8111706481691
 20
126.5573759765819
 30
0.0
 10
123.8794939084872
 20
126.4732109380838
 30
0.0
  0
SPLINE
  5
F7
330
1F
100
AcDbEntity
  8
0
  6
Continuous
 62
     7
370
    25
100
AcDbSpline
210
0.0
220
0.0
230
1.0
 70
     8
 71
     3
 72
    12
 73
     8
 74
     0
 42
0.00000001
 43
0.00000001
 40
0.0
 40
0.0
 40
0.0
 40
0.0
 40
0.2230315344150318
 40
0.4461337558340298
 40
0.6675099896776845
 40
0.8870667292264887
 40
1.0
 40
1.0
 40
1.0
 40
1.0
 10
124.2630075424798
 20
100.9567658453189
 30
0.0
 10
124.2644362361764
 20
100.9664737953153
 30
0.0
 10
124.2672940763758
 20
100.9858927721193
 30
0.0
 10
124.2704672147622
 20
101.119694769582
 30
0.0
 10
124.2722990198759
 20
101.3136073659735
 30
0.0
 10
124.2725862935209
 20
101.5142013662031
 30
0.0
 10
124.2720617931246
 20
101.6403125212536
 30
0.0
 10
124.2718836417714
 20
101.68314732765
 30
0.0
  0
ARC
  5
F8
330
1F
100
AcDbEntity
  8
0
  6
Continuous
 62
     7
370
    25
100
AcDbCircle
 10
124.51305321
 20
100.9582305962
 30
0.0
 40
0.2500499576734491
100
AcDbArc
 50
180.3356310191
 51
267.1361336327
  0
SPLINE
  5
F9
330
1F
100
AcDbEntity
  8
0
  6
Continuous
 62
     7
370
    25
100
AcDbSpline
210
0.0
220
0.0
230
1.0
 70
     8
 71
     3
 72
    12
 73
     8
 74
     0
 42
0.00000001
 43
0.00000001
 40
0.0
 40
0.0
 40
0.0
 40
0.0
 40
0.2190444340109382
 40
0.4380981679380344
 40
0.657102749369184
 40
0.8772791087290044
 40
1.0
 40
1.0
 40
1.0
 40
1.0
 10
127.5736854085802
 20
101.5190754050086
 30
0.0
 10
127.5651467530043
 20
101.4361881656029
 30
0.0
 10
127.5480690793287
 20
101.2704101676682
 30
0.0
 10
127.5274488729062
 20
101.0520852832433
 30
0.0
 10
127.513689225695
 20
100.8890843928726
 30
0.0
 10
127.5087622276273
 20
100.8083074379567
 30
0.0
 10
127.5100459846379
 20
100.7987963374014
 30
0.0
 10
127.5105054336542
 20
100.795392370951
 30
0.0
  0
ARC
  5
FA
330
1F
100
AcDbEntity
  8
0
  6
Continuous
 62
     7
370
    25
100
AcDbCircle
 10
127.2618367924
 20
100.8216390504
 30
0.0
 40
0.2500499576735241
100
AcDbArc
 50
267.1743045568
 51
353.9748071697
  0
LINE
  5
FB
330
1F
100
AcDbEntity
  8
0
  6
Continuous
 62
     7
370
    25
100
AcDbLine
 10
124.1413070578
 20
125.2955040716
 30
0.0
 11
124.1050361798
 21
125.2837966912
 31
0.0
  0
LINE
  5
FC
330
1F
100
AcDbEntity
  8
0
  6
Continuous
 62
     7
370
    25
100
AcDbLine
 10
124.2606746586
 20
100.9545336962
 30
0.0
 11
124.2630075425
 21
100.9567658453
 31
0.0
  0
ELLIPSE
  5
FD
330
1F
100
AcDbEntity
  8
0
  6
Continuous
 62
     7
370
    25
100
AcDbEllipse
 10
124.2562968839
 20
101.7055622663
 30
0.0
 11
-0.004162473075282946
 21
0.7511318929644659
 31
0.0
210
0.0
220
0.0
230
1.0
 40
0.0174284859
 41
2.255125316696905
 42
3.158083049613857
  0
LINE
  5
FE
330
1F
100
AcDbEntity
  8
0
  6
Continuous
 62
     7
370
    25
100
AcDbLine
 10
124.2144711981
 20
102.9669999557
 30
0.0
 11
124.2487846587
 21
101.2306756055
 31
0.0
  0
LINE
  5
FF
330
1F
100
AcDbEntity
  8
0
  6
Continuous
 62
     7
370
    25
100
AcDbLine
 10
124.2145203331
 20
102.9669975141
 30
0.0
 11
124.2144711981
 21
102.9669999557
 31
0.0
  0
ELLIPSE
  5
100
330
1F
100
AcDbEntity
  8
0
  6
Continuous
 62
     7
370
    25
100
AcDbEllipse
 10
124.2843913029
 20
107.6940984314
 30
0.0
 11
-0.04023723972781568
 21
7.26094163198988
 31
0.0
210
0.0
220
0.0
230
1.0
 40
0.0174284859
 41
1.543516838852417
 42
2.279642175407896
  0
ELLIPSE
  5
101
330
1F
100
AcDbEntity
  8
0
  6
Continuous
 62
     7
370
    25
100
AcDbEllipse
 10
123.8426161906
 20
108.377370892
 30
0.0
 11
-0.09907418957685366
 21
17.87826184452226
 31
0.0
210
0.0
220
0.0
230
1.0
 40
0.0174284859
 41
4.685109492442214
 42
5.167309992307978
  0
ELLIPSE
  5
102
330
1F
100
AcDbEntity
  8
0
  6
Continuous
 62
     7
370
    25
100
AcDbEllipse
 10
124.1286383316
 20
117.8850059456
 30
0.0
 11
-0.02081236537644315
 21
3.755659464822329
 31
0.0
210
0.0
220
0.0
230
1.0
 40
0.0174284859
 41
1.834826681007933
 42
2.025717338718059
  0
LINE
  5
103
330
1F
100
AcDbEntity
  8
0
  6
Continuous
 62
     7
370
    25
100
AcDbLine
 10
124.1464720757
 20
116.9105938351
 30
0.0
 11
124.0708826392
 21
116.9045287658
 31
0.0
  0
SPLINE
  5
104
330
1F
100
AcDbEntity
  8
0
  6
Continuous
 62
     7
370
    25
100
AcDbSpline
210
0.0
220
0.0
230
1.0
 70
     8
 71
     3
 72
    10
 73
     6
 74
     0
 42
0.00000001
 43
0.00000001
 40
0.0
 40
0.0
 40
0.0
 40
0.0
 40
0.0186368637457422
 40
0.3939469944633029
 40
1.0
 40
1.0
 40
1.0
 40
1.0
 10
124.1507895126443
 20
117.0023783121793
 30
0.0
 10
124.1507723825453
 20
117.0011495444598
 30
0.0
 10
124.1504102856222
 20
116.9751757885432
 30
0.0
 10
124.1491678729631
 20
116.9231739413933
 30
0.0
 10
124.1475012929502
 20
116.9153967415322
 30
0.0
 10
124.1464720757436
 20
116.9105938350684
 30
0.0
  0
LINE
  5
105
330
1F
100
AcDbEntity
  8
0
  6
Continuous
 62
     7
370
    25
100
AcDbLine
 10
124.1050361798
 20
125.2837966912
 30
0.0
 11
124.1507895126
 21
117.0023783122
 31
0.0
  0
LINE
  5
106
330
1F
100
AcDbEntity
  8
0
  6
Continuous
 62
     7
370
    25
100
AcDbLine
 10
129.2209486564
 20
116.7493996828
 30
0.0
 11
130.0872754119
 21
124.9835050333
 31
0.0
  0
SPLINE
  5
107
330
1F
100
AcDbEntity
  8
0
  6
Continuous
 62
     7
370
    25
100
AcDbSpline
210
0.0
220
0.0
230
1.0
 70
     8
 71
     3
 72
    11
 73
     7
 74
     0
 42
0.00000001
 43
0.00000001
 40
0.0
 40
0.0
 40
0.0
 40
0.0
 40
0.4177469294495337
 40
0.8392770662410761
 40
0.9817832068819753
 40
1.0
 40
1.0
 40
1.0
 40
1.0
 10
129.21571607841
 20
116.6576936437188
 30
0.0
 10
129.2152902190207
 20
116.6600361801236
 30
0.0
 10
129.2144346435666
 20
116.6647424674539
 30
0.0
 10
129.2169084510064
 20
116.7024143491332
 30
0.0
 10
129.2198857131893
 20
116.7374398503051
 30
0.0
 10
129.2208404444833
 20
116.7481821231542
 30
0.0
 10
129.2209486564358
 20
116.7493996828237
 30
0.0
  0
LINE
  5
108
330
1F
100
AcDbEntity
  8
0
  6
Continuous
 62
     7
370
    25
100
AcDbLine
 10
129.2827206477
 20
116.6455440226
 30
0.0
 11
129.2157160784
 21
116.6576936437
 31
0.0
  0
ELLIPSE
  5
109
330
1F
100
AcDbEntity
  8
0
  6
Continuous
 62
     7
370
    25
100
AcDbEllipse
 10
129.3224524858
 20
117.6269168372
 30
0.0
 11
0.3930401624282354
 21
3.735094456768237
 31
0.0
210
0.0
220
0.0
230
1.0
 40
0.0174284859
 41
4.257467968461723
 42
4.448358626171736
  0
ELLIPSE
  5
10A
330
1F
100
AcDbEntity
  8
0
  6
Continuous
 62
     7
370
    25
100
AcDbEllipse
 10
128.6644932064
 20
108.1377639475
 30
0.0
 11
1.871009607000701
 21
17.78036516292215
 31
0.0
210
0.0
220
0.0
230
1.0
 40
0.0174284859
 41
1.115875314871823
 42
1.598075814737373
  0
ELLIPSE
  5
10B
330
1F
100
AcDbEntity
  8
0
  6
Continuous
 62
     7
370
    25
100
AcDbEllipse
 10
128.1571558489
 20
107.5016544357
 30
0.0
 11
0.7598776473612645
 21
7.221182616418531
 31
0.0
210
0.0
220
0.0
230
1.0
 40
0.0174284859
 41
4.003543131771794
 42
4.739668468327166
  0
LINE
  5
10C
330
1F
100
AcDbEntity
  8
0
  6
Continuous
 62
     7
370
    25
100
AcDbLine
 10
127.7580942011
 20
102.7909115409
 30
0.0
 11
127.7580450661
 21
102.7909139825
 31
0.0
  0
LINE
  5
10D
330
1F
100
AcDbEntity
  8
0
  6
Continuous
 62
     7
370
    25
100
AcDbLine
 10
127.5518132445
 20
101.0665427202
 30
0.0
 11
127.7580942011
 21
102.7909115409
 31
0.0
  0
ELLIPSE
  5
10E
330
1F
100
AcDbEntity
  8
0
  6
Continuous
 62
     7
370
    25
100
AcDbEllipse
 10
127.5914175632
 20
101.5398346725
 30
0.0
 11
0.07860803248563286
 21
0.7470188913536475
 31
0.0
210
0.0
220
0.0
230
1.0
 40
0.0174284859
 41
3.125102257565991
 42
4.028059990480898
  0
LINE
  5
10F
330
1F
100
AcDbEntity
  8
0
  6
Continuous
 62
     7
370
    25
100
AcDbLine
 10
127.5105054337
 20
100.795392371
 30
0.0
 11
127.5126055331
 21
100.7929399396
 31
0.0
  0
LINE
  5
110
330
1F
100
AcDbEntity
  8
0
  6
Continuous
 62
     7
370
    25
100
AcDbLine
 10
130.0872754119
 20
124.9835050333
 30
0.0
 11
130.0445116025
 21
125.0021641961
 31
0.0
  0
SPLINE
  5
111
330
1F
100
AcDbEntity
  8
0
  6
Continuous
 62
     7
370
    25
100
AcDbSpline
210
0.0
220
0.0
230
1.0
 70
     8
 71
     3
 72
     9
 73
     5
 74
     0
 42
0.00000001
 43
0.00000001
 40
0.0
 40
0.0
 40
0.0
 40
0.0
 40
0.5001021276704751
 40
1.0
 40
1.0
 40
1.0
 40
1.0
 10
123.6426124360067
 20
126.7184641879645
 30
0.0
 10
123.7750542795102
 20
126.4971444161231
 30
0.0
 10
124.0398838736583
 20
126.0545952654681
 30
0.0
 10
124.0833217019077
 20
125.5406945603265
 30
0.0
 10
124.1050361798281
 20
125.2837966912375
 30
0.0
  0
LINE
  5
112
330
1F
100
AcDbEntity
  8
0
  6
Continuous
 62
     7
370
    25
100
AcDbLine
 10
123.642612436
 20
126.718464188
 30
0.0
 11
123.6762420149
 21
126.7334230061
 31
0.0
  0
SPLINE
  5
113
330
1F
100
AcDbEntity
  8
0
  6
Continuous
 62
     7
370
    25
100
AcDbSpline
210
0.0
220
0.0
230
1.0
 70
     8
 71
     3
 72
    10
 73
     6
 74
     0
 42
0.00000001
 43
0.00000001
 40
0.0
 40
0.0
 40
0.0
 40
0.0
 40
0.3997096520007264
 40
0.694766030008492
 40
1.0
 40
1.0
 40
1.0
 40
1.0
 10
130.0872754119266
 20
124.98350503331
 30
0.0
 10
130.1231447327942
 20
125.1846624291402
 30
0.0
 10
130.1854919529165
 20
125.5343095407582
 30
0.0
 10
130.4055390895869
 20
125.9999740097792
 30
0.0
 10
130.5934819686599
 20
126.24167003332
 30
0.0
 10
130.6890466421588
 20
126.3645669565213
 30
0.0
  0
LINE
  5
114
330
1F
100
AcDbEntity
  8
0
  6
Continuous
 62
     7
370
    25
100
AcDbLine
 10
130.6498386515
 20
126.3868935993
 30
0.0
 11
130.6890466422
 21
126.3645669565
 31
0.0
  0
ARC
  5
115
330
1F
100
AcDbEntity
  8
0
  6
Continuous
 62
     7
370
    25
100
AcDbCircle
 10
127.3001350388
 20
129.3190675298
 30
0.0
 40
4.48782902211103
100
AcDbArc
 50
152.3201044891
 51
215.4139170773
  0
LWPOLYLINE
  5
116
330
1F
100
AcDbEntity
  8
0
  6
Continuous
 62
     7
370
    25
100
AcDbPolyline
 90
        3
 70
   128
 43
0.0
 10
123.2775445986
 20
131.4890411597
 10
123.308034769
 20
131.4351707513
 10
123.3259080721
 20
131.403804767
  0
ARC
  5
117
330
1F
100
AcDbEntity
  8
0
  6
Continuous
 62
     7
370
    25
100
AcDbCircle
 10
127.3001350388
 20
129.3190675298
 30
0.0
 40
4.570560075546076
100
AcDbArc
 50
22.654935512
 51
151.6554985234
  0
LWPOLYLINE
  5
118
330
1F
100
AcDbEntity
  8
0
  6
Continuous
 62
     7
370
    25
100
AcDbPolyline
 90
        3
 70
   128
 43
0.0
 10
131.4670621543
 20
131.0074140306
 10
131.4823560476
 20
131.0289753758
 10
131.5180366426
 20
131.0795576509
  0
ARC
  5
119
330
1F
100
AcDbEntity
  8
0
  6
Continuous
 62
     7
370
    25
100
AcDbCircle
 10
127.3001350388
 20
129.3190675298
 30
0.0
 40
4.495975477330385
100
AcDbArc
 50
318.9176262415
 51
22.056700261
  0
LINE
  5
11A
330
1F
100
AcDbEntity
  8
0
  6
Continuous
 62
     7
370
    25
100
AcDbLine
 10
127.2516100041
 20
100.5694406898
 30
0.0
 11
127.2495099047
 21
100.5718931211
 31
0.0
  0
LINE
  5
11B
330
1F
100
AcDbEntity
  8
0
  6
Continuous
 62
     7
370
    25
100
AcDbLine
 10
124.4982270583
 20
100.7062607855
 30
0.0
 11
127.2516100041
 21
100.5694406898
 31
0.0
  0
LINE
  5
11C
330
1F
100
AcDbEntity
  8
0
  6
Continuous
 62
     7
370
    25
100
AcDbLine
 10
124.5005599422
 20
100.7084929346
 30
0.0
 11
124.4982270583
 21
100.7062607855
 31
0.0
  0
ARC
  5
11D
330
1F
100
AcDbEntity
  8
0
  6
Continuous
 62
     7
370
    25
100
AcDbCircle
 10
127.2639368918
 20
100.819186619
 30
0.0
 40
0.2500499576734931
100
AcDbArc
 50
267.1743045561
 51
353.9748071697
  0
ARC
  5
11E
330
1F
100
AcDbEntity
  8
0
  6
Continuous
 62
     7
370
    25
100
AcDbCircle
 10
124.5107203261
 20
100.955998447
 30
0.0
 40
0.2500499576734814
100
AcDbArc
 50
180.3356310191
 51
267.1361336327
  0
LINE
  5
11F
330
1F
100
AcDbEntity
  8
0
  6
Continuous
 62
     7
370
    25
100
AcDbLine
 10
124.2487846587
 20
101.2306756055
 30
0.0
 11
124.2487915712
 21
101.2271170116
 31
0.0
  0
LINE
  5
120
330
1F
100
AcDbEntity
  8
0
  6
Continuous
 62
     7
370
    25
100
AcDbLine
 10
127.5518132445
 20
101.0665427202
 30
0.0
 11
127.5514535726
 21
101.0630023425
 31
0.0
  0
SPLINE
  5
121
330
1F
100
AcDbEntity
  8
0
  6
Continuous
 62
     7
370
    25
100
AcDbSpline
210
0.0
220
0.0
230
1.0
 70
     8
 71
     3
 72
    13
 73
     9
 74
     0
 42
0.00000001
 43
0.00000001
 40
0.0
 40
0.0
 40
0.0
 40
0.0
 40
0.1662008419838825
 40
0.3367212680923139
 40
0.4710851329452113
 40
0.6055173454368006
 40
0.8801736529143879
 40
1.0
 40
1.0
 40
1.0
 40
1.0
 10
121.3170795870276
 20
126.5515687972201
 30
0.0
 10
121.4105291232304
 20
126.8661641242592
 30
0.0
 10
121.5998569627122
 20
127.5035311567728
 30
0.0
 10
121.9000294033321
 20
128.3395827731196
 30
0.0
 10
122.1914961891405
 20
129.0732546507316
 30
0.0
 10
122.5644769761244
 20
129.9296578357216
 30
0.0
 10
122.9389384914399
 20
130.696945553331
 30
0.0
 10
123.2351853856408
 20
131.2397196425963
 30
0.0
 10
123.3251720625122
 20
131.4045903553058
 30
0.0
  0
LINE
  5
122
330
1F
100
AcDbEntity
  8
0
  6
Continuous
 62
     7
370
    25
100
AcDbLine
 10
121.317079587
 20
126.5515687972
 30
0.0
 11
121.2827791503
 21
126.5612120638
 31
0.0
  0
ARC
  5
123
330
1F
100
AcDbEntity
  8
0
  6
Continuous
 62
     7
370
    25
100
AcDbCircle
 10
144.4735908199
 20
120.0413190065
 30
0.0
 40
24.08988898629529
100
AcDbArc
 50
151.6270670067
 51
164.2971381625
  0
LWPOLYLINE
  5
124
330
1F
100
AcDbEntity
  8
0
  6
Continuous
 62
     7
370
    25
100
AcDbPolyline
 90
        3
 70
   128
 43
0.0
 10
123.3251720625
 20
131.4045903553
 10
123.3079070531
 20
131.4351788454
 10
123.27754383
 20
131.4890411977
  0
SPLINE
  5
125
330
1F
100
AcDbEntity
  8
0
  6
Continuous
 62
     7
370
    25
100
AcDbSpline
210
0.0
220
0.0
230
1.0
 70
     8
 71
     3
 72
    13
 73
     9
 74
     0
 42
0.00000001
 43
0.00000001
 40
0.0
 40
0.0
 40
0.0
 40
0.0
 40
0.1345135221180635
 40
0.2735674491860803
 40
0.4126468379141687
 40
0.6967155585531841
 40
0.8475901399771841
 40
1.0
 40
1.0
 40
1.0
 40
1.0
 10
123.3255245818014
 20
131.4042136068704
 30
0.0
 10
123.2193118034723
 20
131.1946631430438
 30
0.0
 10
123.0033011126441
 20
130.7684889936932
 30
0.0
 10
122.752192239146
 20
130.0901862347815
 30
0.0
 10
122.4804358256499
 20
129.139262066851
 30
0.0
 10
122.3108822780516
 20
128.1280775170686
 30
0.0
 10
122.2045675815959
 20
127.0598740534029
 30
0.0
 10
122.1735932134207
 20
126.4925065502822
 30
0.0
 10
122.1580276305133
 20
126.2073867422248
 30
0.0
  0
ARC
  5
126
330
1F
100
AcDbEntity
  8
0
  6
Continuous
 62
     7
370
    25
100
AcDbCircle
 10
122.5790407795
 20
128.4355030028
 30
0.0
 40
2.267543636258601
100
AcDbArc
 50
236.1836817351
 51
259.2998457927
  0
LINE
  5
127
330
1F
100
AcDbEntity
  8
0
  6
Continuous
 62
     7
370
    25
100
AcDbLine
 10
123.3251720625
 20
131.4045903553
 30
0.0
 11
123.3255245818
 21
131.4042136069
 31
0.0
  0
LINE
  5
128
330
1F
100
AcDbEntity
  8
0
  6
Continuous
 62
     7
370
    25
100
AcDbLine
 10
123.642612436
 20
126.718464188
 30
0.0
 11
122.1962307202
 21
125.6900453558
 31
0.0
  0
ARC
  5
129
330
1F
100
AcDbEntity
  8
0
  6
Continuous
 62
     7
370
    25
100
AcDbCircle
 10
127.3001350388
 20
129.3190675298
 30
0.0
 40
6.262558681013644
100
AcDbArc
 50
215.0135259646
 51
215.4139170773
  0
LINE
  5
12A
330
1F
100
AcDbEntity
  8
0
  6
Continuous
 62
     7
370
    25
100
AcDbLine
 10
122.1580276305
 20
126.2073867422
 30
0.0
 11
122.1709954218
 21
125.7258004896
 31
0.0
  0
LINE
  5
12B
330
1F
100
AcDbEntity
  8
0
  6
Continuous
 62
     7
370
    25
100
AcDbLine
 10
123.3259080721
 20
131.403804767
 30
0.0
 11
123.3255245818
 21
131.4042136069
 31
0.0
  0
LINE
  5
12C
330
1F
100
AcDbEntity
  8
0
  6
Continuous
 62
     7
370
    25
100
AcDbLine
 10
122.3361436463
 20
124.222366201
 30
0.0
 11
122.3303336059
 21
125.2739917818
 31
0.0
  0
LINE
  5
12D
330
1F
100
AcDbEntity
  8
0
  6
Continuous
 62
     7
370
    25
100
AcDbLine
 10
124.1050361798
 20
125.2837966912
 30
0.0
 11
122.3303336059
 21
125.2739917818
 31
0.0
  0
SPLINE
  5
12E
330
1F
100
AcDbEntity
  8
0
  6
Continuous
 62
     7
370
    25
100
AcDbSpline
210
0.0
220
0.0
230
1.0
 70
     8
 71
     3
 72
    18
 73
    14
 74
     0
 42
0.00000001
 43
0.00000001
 40
0.0
 40
0.0
 40
0.0
 40
0.0
 40
0.142654717766823
 40
0.2861185404783975
 40
0.521682786271701
 40
0.7592854570726403
 40
0.8521772160689
 40
0.9266847383469566
 40
0.9605133122021791
 40
0.9835448294831216
 40
0.9930804087764493
 40
0.9972261316679644
 40
1.0
 40
1.0
 40
1.0
 40
1.0
 10
122.5621420530807
 20
123.4899129927291
 30
0.0
 10
122.6837947097651
 20
123.1787169735636
 30
0.0
 10
122.9277900091899
 20
122.5545599025591
 30
0.0
 10
123.3018920647088
 20
121.4004674159441
 30
0.0
 10
123.6657932394339
 20
120.0270815002372
 30
0.0
 10
123.9099075128442
 20
118.7613871950006
 30
0.0
 10
124.0429761725742
 20
117.86859828539
 30
0.0
 10
124.0987343290745
 20
117.4327247749013
 30
0.0
 10
124.1298902461425
 20
117.1680595206462
 30
0.0
 10
124.1436233100284
 20
117.0504017875959
 30
0.0
 10
124.1488474952951
 20
117.0112692133468
 30
0.0
 10
124.1503129993879
 20
117.0031456410383
 30
0.0
 10
124.1506531542034
 20
117.0025978900513
 30
0.0
 10
124.1507895126443
 20
117.0023783121793
 30
0.0
  0
LINE
  5
12F
330
1F
100
AcDbEntity
  8
0
  6
Continuous
 62
     7
370
    25
100
AcDbLine
 10
122.3361436463
 20
124.222366201
 30
0.0
 11
122.5621420531
 21
123.4899129927
 31
0.0
  0
ARC
  5
130
330
1F
100
AcDbEntity
  8
0
  6
Continuous
 62
     7
370
    25
100
AcDbCircle
 10
124.2204560758
 20
120.5022119298
 30
0.0
 40
3.417069364108901
100
AcDbArc
 50
119.0323262247
 51
134.1040198372
  0
SPLINE
  5
131
330
1F
100
AcDbEntity
  8
0
  6
Continuous
 62
     7
370
    25
100
AcDbSpline
210
0.0
220
0.0
230
1.0
 70
     8
 71
     3
 72
    10
 73
     6
 74
     0
 42
0.00000001
 43
0.00000001
 40
0.0
 40
0.0
 40
0.0
 40
0.0
 40
0.5975855365574498
 40
0.9790563563182347
 40
1.0
 40
1.0
 40
1.0
 40
1.0
 10
124.1435013876387
 20
116.9476599328104
 30
0.0
 10
124.1453062195032
 20
116.9463091239478
 30
0.0
 10
124.148263172108
 20
116.9440960215177
 30
0.0
 10
124.1502967537396
 20
116.9812264148793
 30
0.0
 10
124.1507651357238
 20
117.0013319219182
 30
0.0
 10
124.1507895126443
 20
117.0023783121793
 30
0.0
  0
SPLINE
  5
132
330
1F
100
AcDbEntity
  8
0
  6
Continuous
 62
     7
370
    25
100
AcDbSpline
210
0.0
220
0.0
230
1.0
 70
     8
 71
     3
 72
    15
 73
    11
 74
     0
 42
0.00000001
 43
0.00000001
 40
0.0
 40
0.0
 40
0.0
 40
0.0
 40
0.0128981401598388
 40
0.0519443541565605
 40
0.1318327952014332
 40
0.22790572123612
 40
0.4677439605522729
 40
0.7076088995729002
 40
0.853851708197699
 40
1.0
 40
1.0
 40
1.0
 40
1.0
 10
124.1435013876387
 20
116.9476599328104
 30
0.0
 10
124.1404143028369
 20
116.9645682847778
 30
0.0
 10
124.1279817641707
 20
117.0326628636797
 30
0.0
 10
124.0877500644445
 20
117.2545682333647
 30
0.0
 10
124.0068504137459
 20
117.6648166936935
 30
0.0
 10
123.8143402484201
 20
118.502035960338
 30
0.0
 10
123.4572846276697
 20
119.6944057514143
 30
0.0
 10
122.9243446236709
 20
120.9942555623312
 30
0.0
 10
122.3742051561038
 20
122.0822887466645
 30
0.0
 10
122.0195645863406
 20
122.6647806517599
 30
0.0
 10
121.8423016210896
 20
122.9559324576596
 30
0.0
  0
LWPOLYLINE
  5
133
330
1F
100
AcDbEntity
  8
0
  6
Continuous
 62
     7
370
    25
100
AcDbPolyline
 90
        4
 70
   128
 43
0.0
 10
124.0675621389
 20
116.9416580243
 10
124.0762862177
 20
116.9423482132
 10
124.1111825254
 20
116.9451072127
 10
124.1435013876
 20
116.9476599328
  0
LINE
  5
134
330
1F
100
AcDbEntity
  8
0
  6
Continuous
 62
     7
370
    25
100
AcDbLine
 10
123.8974357089
 20
117.845277181
 30
0.0
 11
124.0675621389
 21
116.9416580243
 31
0.0
  0
ARC
  5
135
330
1F
100
AcDbEntity
  8
0
  6
Continuous
 62
     7
370
    25
100
AcDbCircle
 10
108.5002101726
 20
114.5125613178
 30
0.0
 40
15.75377888764167
100
AcDbArc
 50
12.2132163423
 51
32.3271485114
  0
LINE
  5
136
330
1F
100
AcDbEntity
  8
0
  6
Continuous
 62
     7
370
    25
100
AcDbLine
 10
121.8423016211
 20
122.9559324577
 30
0.0
 11
121.8122879595
 21
122.9369386976
 31
0.0
  0
SPLINE
  5
137
330
1F
100
AcDbEntity
  8
0
  6
Continuous
 62
     7
370
    25
100
AcDbSpline
210
0.0
220
0.0
230
1.0
 70
     8
 71
     3
 72
     9
 73
     5
 74
     0
 42
0.00000001
 43
0.00000001
 40
0.0
 40
0.0
 40
0.0
 40
0.0
 40
0.4998978730609393
 40
1.0
 40
1.0
 40
1.0
 40
1.0
 10
122.3303336058911
 20
125.2739917817645
 30
0.0
 10
122.3240402257995
 20
125.34849339453
 30
0.0
 10
122.3114508941964
 20
125.4975270607654
 30
0.0
 10
122.234642674313
 20
125.6258638530362
 30
0.0
 10
122.1962307201829
 20
125.6900453558153
 30
0.0
  0
ARC
  5
138
330
1F
100
AcDbEntity
  8
0
  6
Continuous
 62
     7
370
    25
100
AcDbCircle
 10
123.896437753
 20
116.9092067537
 30
0.0
 40
0.25003817018786
100
AcDbArc
 50
0.3178487343
 51
8.8465826562
  0
SPLINE
  5
139
330
1F
100
AcDbEntity
  8
0
  6
Continuous
 62
     7
370
    25
100
AcDbSpline
210
0.0
220
0.0
230
1.0
 70
     8
 71
     3
 72
    14
 73
    10
 74
     0
 42
0.00000001
 43
0.00000001
 40
0.0
 40
0.0
 40
0.0
 40
0.0
 40
0.0460224639700068
 40
0.2491857931114929
 40
0.4012957910237266
 40
0.5535651818786741
 40
0.7052392955133412
 40
0.8527143941101893
 40
1.0
 40
1.0
 40
1.0
 40
1.0
 10
131.4677291690311
 20
131.0079987702991
 30
0.0
 10
131.4957600375655
 20
130.9423599009728
 30
0.0
 10
131.647531446673
 20
130.5869622907387
 30
0.0
 10
131.8786344295457
 20
130.0032623027791
 30
0.0
 10
132.1551026713326
 20
129.2244840307465
 30
0.0
 10
132.3901352095393
 20
128.4849714426709
 30
0.0
 10
132.6063554003717
 20
127.7094475279418
 30
0.0
 10
132.8017882342458
 20
126.902909586155
 30
0.0
 10
132.9082623058692
 20
126.3507655923816
 30
0.0
 10
132.9614651172071
 20
126.0748710737992
 30
0.0
  0
LINE
  5
13A
330
1F
100
AcDbEntity
  8
0
  6
Continuous
 62
     7
370
    25
100
AcDbLine
 10
131.9776112125
 20
125.8967505874
 30
0.0
 11
132.9614651172
 21
126.0748710738
 31
0.0
  0
SPLINE
  5
13B
330
1F
100
AcDbEntity
  8
0
  6
Continuous
 62
     7
370
    25
100
AcDbSpline
210
0.0
220
0.0
230
1.0
 70
     8
 71
     3
 72
    14
 73
    10
 74
     0
 42
0.00000001
 43
0.00000001
 40
0.0
 40
0.0
 40
0.0
 40
0.0
 40
0.1287979975174486
 40
0.2577402562244582
 40
0.4892610666678056
 40
0.7206947598225051
 40
0.944769277470945
 40
0.9460214504140269
 40
1.0
 40
1.0
 40
1.0
 40
1.0
 10
131.9776112124905
 20
125.8967505873763
 30
0.0
 10
131.9976901332892
 20
126.1260103084808
 30
0.0
 10
132.0378704644364
 20
126.5847865348068
 30
0.0
 10
132.0781101724282
 20
127.4468894953444
 30
0.0
 10
132.0649388363366
 20
128.4751435733208
 30
0.0
 10
131.91486121052
 20
129.6413848782041
 30
0.0
 10
131.7022850113573
 20
130.3915153504212
 30
0.0
 10
131.5370144324751
 20
130.8358960318537
 30
0.0
 10
131.5017926504911
 20
130.9227743826958
 30
0.0
 10
131.4673694052705
 20
131.0076830558787
 30
0.0
  0
LINE
  5
13C
330
1F
100
AcDbEntity
  8
0
  6
Continuous
 62
     7
370
    25
100
AcDbLine
 10
131.4673694053
 20
131.0076830559
 30
0.0
 11
131.467729169
 21
131.0079987703
 31
0.0
  0
ARC
  5
13D
330
1F
100
AcDbEntity
  8
0
  6
Continuous
 62
     7
370
    25
100
AcDbCircle
 10
109.2914999768
 20
121.7895745636
 30
0.0
 40
24.05475038177318
100
AcDbArc
 50
10.0133000263
 51
10.2618824158
  0
LWPOLYLINE
  5
13E
330
1F
100
AcDbEntity
  8
0
  6
Continuous
 62
     7
370
    25
100
AcDbPolyline
 90
        3
 70
   128
 43
0.0
 10
131.467729169
 20
131.0079987703
 10
131.4824839368
 20
131.0289707684
 10
131.5180374112
 20
131.0795576126
  0
ARC
  5
13F
330
1F
100
AcDbEntity
  8
0
  6
Continuous
 62
     7
370
    25
100
AcDbCircle
 10
109.2914999768
 20
121.7895745636
 30
0.0
 40
24.08988898629526
100
AcDbArc
 50
10.0133000263
 51
22.6833703932
  0
LINE
  5
140
330
1F
100
AcDbEntity
  8
0
  6
Continuous
 62
     7
370
    25
100
AcDbLine
 10
132.9798343927
 20
125.9721369996
 30
0.0
 11
133.0144377455
 21
125.9782467868
 31
0.0
  0
LINE
  5
141
330
1F
100
AcDbEntity
  8
0
  6
Continuous
 62
     7
370
    25
100
AcDbLine
 10
131.1729701852
 20
122.8803082773
 30
0.0
 11
131.9690111315
 21
122.275317182
 31
0.0
  0
SPLINE
  5
142
330
1F
100
AcDbEntity
  8
0
  6
Continuous
 62
     7
370
    25
100
AcDbSpline
210
0.0
220
0.0
230
1.0
 70
     8
 71
     3
 72
    16
 73
    12
 74
     0
 42
0.00000001
 43
0.00000001
 40
0.0
 40
0.0
 40
0.0
 40
0.0
 40
0.1502347727095517
 40
0.301125566694615
 40
0.4517232882091649
 40
0.6338859505178632
 40
0.8159323092087671
 40
0.8947033917758654
 40
0.9638153173828139
 40
0.994084932700768
 40
1.0
 40
1.0
 40
1.0
 40
1.0
 10
131.9690111314713
 20
122.2753171819779
 30
0.0
 10
131.7712777484044
 20
122.0049501470161
 30
0.0
 10
131.3749475516293
 20
121.4630354813895
 30
0.0
 10
130.8517725536261
 20
120.6166150353821
 30
0.0
 10
130.3517911404916
 20
119.6973450163519
 30
0.0
 10
129.8972986985953
 20
118.7019299806823
 30
0.0
 10
129.5761989378203
 20
117.8468862680361
 30
0.0
 10
129.3769602962338
 20
117.2271414993138
 30
0.0
 10
129.2833923549583
 20
116.9093323315083
 30
0.0
 10
129.2375247615314
 20
116.7474360919839
 30
0.0
 10
129.2244813215512
 20
116.701758440604
 30
0.0
 10
129.2223491258342
 20
116.6942915689213
 30
0.0
  0
SPLINE
  5
143
330
1F
100
AcDbEntity
  8
0
  6
Continuous
 62
     7
370
    25
100
AcDbSpline
210
0.0
220
0.0
230
1.0
 70
     8
 71
     3
 72
    11
 73
     7
 74
     0
 42
0.00000001
 43
0.00000001
 40
0.0
 40
0.0
 40
0.0
 40
0.0
 40
0.0195561212295558
 40
0.1681891996744421
 40
0.5898876540792748
 40
1.0
 40
1.0
 40
1.0
 40
1.0
 10
129.2209486564358
 20
116.7493996828237
 30
0.0
 10
129.2208710295315
 20
116.7484229752606
 30
0.0
 10
129.2202034121268
 20
116.7400229627314
 30
0.0
 10
129.2184928021955
 20
116.714125664631
 30
0.0
 10
129.2183131561839
 20
116.6894618701369
 30
0.0
 10
129.2210163533625
 20
116.6926966883487
 30
0.0
 10
129.2223491258342
 20
116.6942915689213
 30
0.0
  0
SPLINE
  5
144
330
1F
100
AcDbEntity
  8
0
  6
Continuous
 62
     7
370
    25
100
AcDbSpline
210
0.0
220
0.0
230
1.0
 70
     8
 71
     3
 72
    18
 73
    14
 74
     0
 42
0.00000001
 43
0.00000001
 40
0.0
 40
0.0
 40
0.0
 40
0.0
 40
0.0068249813837701
 40
0.0088431264212304
 40
0.0223946643382404
 40
0.0309532673067064
 40
0.0563109112313683
 40
0.1198590465636682
 40
0.1957078948349348
 40
0.3758049948178019
 40
0.5559487793964775
 40
0.7780768822670783
 40
1.0
 40
1.0
 40
1.0
 40
1.0
 10
129.2209486564358
 20
116.7493996828237
 30
0.0
 10
129.2215569429447
 20
116.7511817619789
 30
0.0
 10
129.2223450995999
 20
116.7534908014291
 30
0.0
 10
129.22721568912
 20
116.7750419876689
 30
0.0
 10
129.2349337398181
 20
116.8119703942782
 30
0.0
 10
129.2519172498351
 20
116.8946455662131
 30
0.0
 10
129.2906085430912
 20
117.0837452700621
 30
0.0
 10
129.3620730057113
 20
117.4220784543231
 30
0.0
 10
129.5128795491442
 20
118.0886082455199
 30
0.0
 10
129.7473161458758
 20
119.0056485227486
 30
0.0
 10
130.1163815712592
 20
120.2265810827883
 30
0.0
 10
130.574327781451
 20
121.5255026445637
 30
0.0
 10
130.9734841374892
 20
122.4288454015863
 30
0.0
 10
131.172970185235
 20
122.8803082773047
 30
0.0
  0
LINE
  5
145
330
1F
100
AcDbEntity
  8
0
  6
Continuous
 62
     7
370
    25
100
AcDbLine
 10
130.0872754119
 20
124.9835050333
 30
0.0
 11
131.3799424744
 21
124.8475009364
 31
0.0
  0
LINE
  5
146
330
1F
100
AcDbEntity
  8
0
  6
Continuous
 62
     7
370
    25
100
AcDbLine
 10
131.3799424744
 20
124.8475009364
 30
0.0
 11
131.1729701852
 21
122.8803082773
 31
0.0
  0
LINE
  5
147
330
1F
100
AcDbEntity
  8
0
  6
Continuous
 62
     7
370
    25
100
AcDbLine
 10
130.6890466422
 20
126.3645669565
 30
0.0
 11
131.6687926649
 21
125.5104106595
 31
0.0
  0
LINE
  5
148
330
1F
100
AcDbEntity
  8
0
  6
Continuous
 62
     7
370
    25
100
AcDbLine
 10
131.4673694053
 20
131.0076830559
 30
0.0
 11
131.4670621543
 21
131.0074140306
 31
0.0
  0
ARC
  5
149
330
1F
100
AcDbEntity
  8
0
  6
Continuous
 62
     7
370
    25
100
AcDbCircle
 10
127.3001350388
 20
129.3190675298
 30
0.0
 40
5.795777481033706
100
AcDbArc
 50
318.9176262415
 51
323.8086005316
  0
LWPOLYLINE
  5
14A
330
1F
100
AcDbEntity
  8
0
  6
Continuous
 62
     7
370
    25
100
AcDbPolyline
 90
        4
 70
   128
 43
0.0
 10
129.2223491258
 20
116.6942915689
 10
129.2309619158
 20
116.6927410788
 10
129.26541291
 20
116.6865373758
 10
129.2897057279
 20
116.68216118
  0
ARC
  5
14B
330
1F
100
AcDbEntity
  8
0
  6
Continuous
 62
     7
370
    25
100
AcDbCircle
 10
144.539550506
 20
112.7217076334
 30
0.0
 40
15.78891749216379
100
AcDbArc
 50
141.9832896775
 51
142.7651671049
  0
LINE
  5
14C
330
1F
100
AcDbEntity
  8
0
  6
Continuous
 62
     7
370
    25
100
AcDbLine
 10
132.1005492861
 20
122.4459641204
 30
0.0
 11
132.1282325738
 21
122.4243225606
 31
0.0
  0
ARC
  5
14D
330
1F
100
AcDbEntity
  8
0
  6
Continuous
 62
     7
370
    25
100
AcDbCircle
 10
144.539550506
 20
112.7217076334
 30
0.0
 40
15.75377888764172
100
AcDbArc
 50
141.9832896775
 51
162.0972218466
  0
LINE
  5
14E
330
1F
100
AcDbEntity
  8
0
  6
Continuous
 62
     7
370
    25
100
AcDbLine
 10
129.2897057279
 20
116.68216118
 30
0.0
 11
129.5485774741
 21
117.5644627167
 31
0.0
  0
LINE
  5
14F
330
1F
100
AcDbEntity
  8
0
  6
Continuous
 62
     7
370
    25
100
AcDbLine
 10
124.0708826392
 20
116.9045287658
 30
0.0
 11
124.0675621389
 21
116.9416580243
 31
0.0
  0
SPLINE
  5
150
330
1F
100
AcDbEntity
  8
0
  6
Continuous
 62
     7
370
    25
100
AcDbSpline
210
0.0
220
0.0
230
1.0
 70
     8
 71
     3
 72
    10
 73
     6
 74
     0
 42
0.00000001
 43
0.00000001
 40
0.0
 40
0.0
 40
0.0
 40
0.0
 40
0.0490769085761829
 40
0.5995805843665302
 40
1.0
 40
1.0
 40
1.0
 40
1.0
 10
131.6687926649296
 20
125.5104106595265
 30
0.0
 10
131.6610201203586
 20
125.501311431396
 30
0.0
 10
131.5660616775569
 20
125.3901446794952
 30
0.0
 10
131.4381154515403
 20
125.1732905743424
 30
0.0
 10
131.3971798434666
 20
124.9440364155613
 30
0.0
 10
131.3799424744182
 20
124.8475009363847
 30
0.0
  0
ARC
  5
151
330
1F
100
AcDbEntity
  8
0
  6
Continuous
 62
     7
370
    25
100
AcDbCircle
 10
129.4643811308
 20
116.6315253744
 30
0.0
 40
0.250038170257841
100
AcDbArc
 50
165.4617394323
 51
173.9925891289
  0
SPLINE
  5
152
330
1F
100
AcDbEntity
  8
0
  6
Continuous
 62
     7
370
    25
100
AcDbSpline
210
0.0
220
0.0
230
1.0
 70
     8
 71
     3
 72
     9
 73
     5
 74
     0
 42
0.00000001
 43
0.00000001
 40
0.0
 40
0.0
 40
0.0
 40
0.0
 40
0.8458911907786882
 40
1.0
 40
1.0
 40
1.0
 40
1.0
 10
129.28970572791
 20
116.6821611800315
 30
0.0
 10
129.2872835114792
 20
116.6718483885944
 30
0.0
 10
129.2844200031969
 20
116.6596567597542
 30
0.0
 10
129.2829475636125
 20
116.6474285044665
 30
0.0
 10
129.2827206477015
 20
116.6455440226053
 30
0.0
  0
SPLINE
  5
153
330
1F
100
AcDbEntity
  8
0
  6
Continuous
 62
     7
370
    25
100
AcDbSpline
210
0.0
220
0.0
230
1.0
 70
     8
 71
     3
 72
     9
 73
     5
 74
     0
 42
0.00000001
 43
0.00000001
 40
0.0
 40
0.0
 40
0.0
 40
0.0
 40
0.4963200776138855
 40
1.0
 40
1.0
 40
1.0
 40
1.0
 10
121.8423016210896
 20
122.9559324576596
 30
0.0
 10
121.7536785896119
 20
123.1052330327199
 30
0.0
 10
121.5751183510178
 20
123.4060481353006
 30
0.0
 10
121.4520490578711
 20
123.7338184741862
 30
0.0
 10
121.3900615258508
 20
123.8989098130365
 30
0.0
  0
LINE
  5
154
330
1F
100
AcDbEntity
  8
0
  6
Continuous
 62
     7
370
    25
100
AcDbLine
 10
122.3361436463
 20
124.222366201
 30
0.0
 11
121.3900615259
 21
123.898909813
 31
0.0
  0
LINE
  5
155
330
1F
100
AcDbEntity
  8
0
  6
Continuous
 62
     7
370
    25
100
AcDbLine
 10
122.1709954218
 20
125.7258004896
 30
0.0
 11
121.1772583666
 21
125.8361729436
 31
0.0
  0
LINE
  5
156
330
1F
100
AcDbEntity
  8
0
  6
Continuous
 62
     7
370
    25
100
AcDbLine
 10
121.1772583666
 20
125.8361729436
 30
0.0
 11
121.317079587
 21
126.5515687972
 31
0.0
  0
ARC
  5
157
330
1F
100
AcDbEntity
  8
0
  6
Continuous
 62
     7
370
    25
100
AcDbCircle
 10
128.5830242558
 20
125.1958083395
 30
0.0
 40
3.464973193572159
100
AcDbArc
 50
321.9832896775
 51
10.0133000263
  0
LINE
  5
158
330
1F
100
AcDbEntity
  8
0
  6
Continuous
 62
     7
370
    25
100
AcDbLine
 10
131.9952169598
 20
125.7982867062
 30
0.0
 11
132.9798343927
 21
125.9721369996
 31
0.0
  0
ARC
  5
159
330
1F
100
AcDbEntity
  8
0
  6
Continuous
 62
     7
370
    25
100
AcDbCircle
 10
128.5830242558
 20
125.1958083395
 30
0.0
 40
4.464820888728547
100
AcDbArc
 50
321.9832896775
 51
10.0133000263
  0
LINE
  5
15A
330
1F
100
AcDbEntity
  8
0
  6
Continuous
 62
     7
370
    25
100
AcDbLine
 10
131.3128381143
 20
123.0617615898
 30
0.0
 11
132.1005492861
 21
122.4459641204
 31
0.0
  0
ARC
  5
15B
330
1F
100
AcDbEntity
  8
0
  6
Continuous
 62
     7
370
    25
100
AcDbCircle
 10
125.6147921865
 20
125.343304639
 30
0.0
 40
3.464973193572145
100
AcDbArc
 50
173.662244423
 51
198.8750653779
  0
ARC
  5
15C
330
1F
100
AcDbEntity
  8
0
  6
Continuous
 62
     7
370
    25
100
AcDbCircle
 10
125.6147921865
 20
125.343304639
 30
0.0
 40
4.464820888728538
100
AcDbArc
 50
173.662244423
 51
198.8750653779
  0
ARC
  5
15D
330
1F
100
AcDbEntity
  8
0
  6
Continuous
 62
     7
370
    25
100
AcDbCircle
 10
144.539550506
 20
112.7217076334
 30
0.0
 40
16.78876518732018
100
AcDbArc
 50
141.9832896775
 51
142.7651671049
  0
ARC
  5
15E
330
1F
100
AcDbEntity
  8
0
  6
Continuous
 62
     7
370
    25
100
AcDbCircle
 10
109.2914999768
 20
121.7895745636
 30
0.0
 40
23.0549026866168
100
AcDbArc
 50
10.0133000263
 51
10.2618824158
  0
ARC
  5
15F
330
1F
100
AcDbEntity
  8
0
  6
Continuous
 62
     7
370
    25
100
AcDbCircle
 10
125.6147921865
 20
125.343304639
 30
0.0
 40
4.499959493250624
100
AcDbArc
 50
164.2971381625
 51
212.3271485114
  0
ARC
  5
160
330
1F
100
AcDbEntity
  8
0
  6
Continuous
 62
     7
370
    25
100
AcDbCircle
 10
128.5830242558
 20
125.1958083395
 30
0.0
 40
4.499959493250617
100
AcDbArc
 50
321.9832896775
 51
10.0133000263
  0
SPLINE
  5
161
330
1F
100
AcDbEntity
  8
0
  6
Continuous
 62
     7
370
    25
100
AcDbSpline
210
0.0
220
0.0
230
1.0
 70
    24
 71
     3
 72
    11
 73
     7
 74
     0
 42
0.00000001
 43
0.00000001
 40
0.0
 40
0.0
 40
0.0
 40
0.0
 40
0.0147808842826519
 40
0.3408255065487691
 40
0.6643678602905144
 40
1.0
 40
1.0
 40
1.0
 40
1.0
 10
122.4464076764555
 20
129.7433846268927
 30
0.0
 10
122.4509372455441
 20
129.7574439916648
 30
0.0
 10
122.5553824634048
 20
130.0816323168393
 30
0.0
 10
122.7708664969842
 20
130.7504748869334
 30
0.0
 10
123.0863065321101
 20
131.7295716687207
 30
0.0
 10
123.2870177514025
 20
132.3525607854933
 30
0.0
 10
123.3892139629733
 20
132.6697684025285
 30
0.0
  0
ARC
  5
162
330
1F
100
AcDbEntity
  8
0
  6
Continuous
 62
     7
370
    25
100
AcDbCircle
 10
127.3001350388
 20
129.3190675298
 30
0.0
 40
5.149999999999977
100
AcDbArc
 50
124.8732429755
 51
139.4115211222
  0
SPLINE
  5
163
330
1F
100
AcDbEntity
  8
0
  6
Continuous
 62
     7
370
    25
100
AcDbSpline
210
0.0
220
0.0
230
1.0
 70
    24
 71
     3
 72
    11
 73
     7
 74
     0
 42
0.00000001
 43
0.00000001
 40
0.0
 40
0.0
 40
0.0
 40
0.0
 40
0.2431641197380908
 40
0.4936284730588918
 40
0.7421706076863277
 40
1.0
 40
1.0
 40
1.0
 40
1.0
 10
124.3555566103734
 20
133.5442252639853
 30
0.0
 10
124.6622961684177
 20
133.6102218902365
 30
0.0
 10
125.2849841695391
 20
133.7441964826988
 30
0.0
 10
126.2727686287256
 20
133.9567234948169
 30
0.0
 10
127.2813943150395
 20
134.1737346063648
 30
0.0
 10
127.9208663474141
 20
134.311320371265
 30
0.0
 10
128.2464665771599
 20
134.3813749700484
 30
0.0
  0
ARC
  5
164
330
1F
100
AcDbEntity
  8
0
  6
Continuous
 62
     7
370
    25
100
AcDbCircle
 10
127.3001350388
 20
129.3190675298
 30
0.0
 40
5.150000000000009
100
AcDbArc
 50
64.8732429755
 51
79.4115211222
  0
SPLINE
  5
165
330
1F
100
AcDbEntity
  8
0
  6
Continuous
 62
     7
370
    25
100
AcDbSpline
210
0.0
220
0.0
230
1.0
 70
    24
 71
     3
 72
    13
 73
     9
 74
     0
 42
0.00000001
 43
0.00000001
 40
0.0
 40
0.0
 40
0.0
 40
0.0
 40
0.029086507871262
 40
0.2691317361521209
 40
0.5086847447945265
 40
0.7393528760311802
 40
0.9704551097945733
 40
1.0
 40
1.0
 40
1.0
 40
1.0
 10
129.4869397573952
 20
133.981726119368
 30
0.0
 10
129.511777111277
 20
133.9542789171532
 30
0.0
 10
129.7415922613533
 20
133.7003153537963
 30
0.0
 10
130.1900640562946
 20
133.2047192407008
 30
0.0
 10
130.8380959034394
 20
132.4885937937276
 30
0.0
 10
131.4769142751171
 20
131.782649951665
 30
0.0
 10
131.909580104852
 20
131.3045206558996
 30
0.0
 10
132.1321579897358
 20
131.0585548318417
 30
0.0
 10
132.1573876530097
 20
131.0306740973244
 30
0.0
  0
ARC
  5
166
330
1F
100
AcDbEntity
  8
0
  6
Continuous
 62
     7
370
    25
100
AcDbCircle
 10
127.3001350388
 20
129.3190675298
 30
0.0
 40
5.150000000000017
100
AcDbArc
 50
4.8732429755
 51
19.4115211222
  0
LINE
  5
167
330
1F
100
AcDbEntity
  8
0
  6
Continuous
 62
     7
370
    25
100
AcDbLine
 10
132.4315181858
 20
129.7565683852
 30
0.0
 11
132.2185711463
 21
129.0956004107
 31
0.0
  0
LWPOLYLINE
  5
168
330
1F
100
AcDbEntity
  8
0
  6
Continuous
 62
     7
370
    25
100
AcDbPolyline
 90
        3
 70
   128
 43
0.0
 10
122.6600052402
 20
130.8139991177
 10
122.8606601937
 20
131.3331896957
 10
123.1146883733
 20
131.8185997281
  0
ARC
  5
169
330
1F
100
AcDbEntity
  8
0
  6
Continuous
 62
     7
370
    25
100
AcDbCircle
 10
127.3001350388
 20
129.3190675298
 30
0.0
 40
4.875000000000009
100
AcDbArc
 50
90.8442044771
 51
113.8305688181
  0
ARC
  5
16A
330
1F
100
AcDbEntity
  8
0
  6
Continuous
 62
     7
370
    25
100
AcDbCircle
 10
127.3001350388
 20
129.3190675298
 30
0.0
 40
4.875000000000033
100
AcDbArc
 50
30.1383002066
 51
53.5364369985
  0
LWPOLYLINE
  5
16B
330
1F
100
AcDbEntity
  8
0
  6
Continuous
 62
     7
370
    25
100
AcDbPolyline
 90
        3
 70
   128
 43
0.0
 10
122.4489457122
 20
129.8003025219
 10
122.5198414749
 20
130.2753198201
 10
122.6600052402
 20
130.8139991177
  0
ARC
  5
16C
330
1F
100
AcDbEntity
  8
0
  6
Continuous
 62
     7
370
    25
100
AcDbCircle
 10
127.3001350388
 20
129.3190675298
 30
0.0
 40
7.437500000000029
100
AcDbArc
 50
320.5389661359
 51
342.1423820489
  0
ARC
  5
16D
330
1F
100
AcDbEntity
  8
0
  6
Continuous
 62
     7
370
    25
100
AcDbCircle
 10
127.3001350388
 20
129.3190675298
 30
0.0
 40
7.437500000000029
100
AcDbArc
 50
342.1423820489
 51
213.7709146537
  0
ARC
  5
16E
330
1F
100
AcDbEntity
  8
0
  6
Continuous
 62
     7
370
    25
100
AcDbCircle
 10
127.3001350388
 20
129.3190675298
 30
0.0
 40
5.287500000000004
100
AcDbArc
 50
348.8061208551
 51
185.5043173337
  0
ARC
  5
16F
330
1F
100
AcDbEntity
  8
0
  6
Continuous
 62
     7
370
    25
100
AcDbCircle
 10
127.3001350388
 20
129.3190675298
 30
0.0
 40
8.099999999999998
100
AcDbArc
 50
162.1423820489
 51
223.2294473595
  0
ARC
  5
170
330
1F
100
AcDbEntity
  8
0
  6
Continuous
 62
     7
370
    25
100
AcDbCircle
 10
127.3001350388
 20
129.3190675298
 30
0.0
 40
8.100000000000005
100
AcDbArc
 50
311.0802952606
 51
162.1423820489
  0
SPLINE
  5
171
330
1F
100
AcDbEntity
  8
0
  6
Continuous
 62
     7
370
    25
100
AcDbSpline
210
0.0
220
0.0
230
1.0
 70
     8
 71
     3
 72
    10
 73
     6
 74
     0
 42
0.00000001
 43
0.00000001
 40
0.0
 40
0.0
 40
0.0
 40
0.0
 40
0.2890591409987965
 40
0.585872576111942
 40
1.0
 40
1.0
 40
1.0
 40
1.0
 10
118.6630327267308
 20
129.0060760755348
 30
0.0
 10
118.6327771684976
 20
128.8972244437712
 30
0.0
 10
118.5714544170962
 20
128.6766011287812
 30
0.0
 10
118.5276784966392
 20
128.2734698580789
 30
0.0
 10
118.5600993336679
 20
127.9833769534644
 30
0.0
 10
118.5789846706815
 20
127.8143960519517
 30
0.0
  0
SPLINE
  5
172
330
1F
100
AcDbEntity
  8
0
  6
Continuous
 62
     7
370
    25
100
AcDbSpline
210
0.0
220
0.0
230
1.0
 70
    24
 71
     3
 72
    14
 73
    10
 74
     0
 42
0.00000001
 43
0.00000001
 40
0.0
 40
0.0
 40
0.0
 40
0.0
 40
0.2377383206909889
 40
0.3595674781643257
 40
0.4813803261013375
 40
0.6089975839697594
 40
0.7366305954003295
 40
0.8682972537486904
 40
0.9999999999999999
 40
0.9999999999999999
 40
0.9999999999999999
 40
0.9999999999999999
 10
120.4701380223194
 20
134.6151642768958
 30
0.0
 10
120.3301326639263
 20
134.1806005545675
 30
0.0
 10
120.1183814683235
 20
133.5233443693419
 30
0.0
 10
119.8251037233774
 20
132.6130372926512
 30
0.0
 10
119.5972948590376
 20
131.90593958437
 30
0.0
 10
119.3654679245646
 20
131.1863701569081
 30
0.0
 10
119.1294994281513
 20
130.4539457030835
 30
0.0
 10
118.8943081358541
 20
129.7239336191684
 30
0.0
 10
118.74013157173
 20
129.245383781001
 30
0.0
 10
118.6630327267308
 20
129.0060760755348
 30
0.0
  0
SPLINE
  5
173
330
1F
100
AcDbEntity
  8
0
  6
Continuous
 62
     7
370
    25
100
AcDbSpline
210
0.0
220
0.0
230
1.0
 70
     8
 71
     3
 72
    10
 73
     6
 74
     0
 42
0.00000001
 43
0.00000001
 40
0.0
 40
0.0
 40
0.0
 40
0.0
 40
0.2880620166975739
 40
0.5851147100082393
 40
1.0
 40
1.0
 40
1.0
 40
1.0
 10
121.0975487440611
 20
135.6317866947944
 30
0.0
 10
121.016982176448
 20
135.5455749050654
 30
0.0
 10
120.8533344856287
 20
135.3704605775157
 30
0.0
 10
120.6293799200604
 20
135.0285062980641
 30
0.0
 10
120.5287693290105
 20
134.7673527596708
 30
0.0
 10
120.4701380223194
 20
134.6151642768958
 30
0.0
  0
ARC
  5
174
330
1F
100
AcDbEntity
  8
0
  6
Continuous
 62
     7
370
    25
100
AcDbCircle
 10
127.3001350388
 20
129.3190675298
 30
0.0
 40
8.850000000000001
100
AcDbArc
 50
129.7889456215
 51
134.4958184763
  0
SPLINE
  5
175
330
1F
100
AcDbEntity
  8
0
  6
Continuous
 62
     7
370
    25
100
AcDbSpline
210
0.0
220
0.0
230
1.0
 70
     8
 71
     3
 72
    10
 73
     6
 74
     0
 42
0.00000001
 43
0.00000001
 40
0.0
 40
0.0
 40
0.0
 40
0.0
 40
0.2890591409991864
 40
0.5858725761121495
 40
1.0
 40
1.0
 40
1.0
 40
1.0
 10
122.7105253322112
 20
136.6425218200267
 30
0.0
 10
122.6011292747439
 20
136.6142980861804
 30
0.0
 10
122.3794025035947
 20
136.557093489229
 30
0.0
 10
122.0083926218784
 20
136.3934389130676
 30
0.0
 10
121.7733752155393
 20
136.2203151922818
 30
0.0
 10
121.6364761305819
 20
136.1194695599127
 30
0.0
  0
SPLINE
  5
176
330
1F
100
AcDbEntity
  8
0
  6
Continuous
 62
     7
370
    25
100
AcDbSpline
210
0.0
220
0.0
230
1.0
 70
    24
 71
     3
 72
    14
 73
    10
 74
     0
 42
0.00000001
 43
0.00000001
 40
0.0
 40
0.0
 40
0.0
 40
0.0
 40
0.2327045309339696
 40
0.351810162144474
 40
0.4709002018076953
 40
0.6009993727147351
 40
0.7311144054074782
 40
0.8655376115084792
 40
1.0
 40
1.0
 40
1.0
 40
1.0
 10
128.4716908544524
 20
137.8820668274142
 30
0.0
 10
128.0349323716381
 20
137.7880959469185
 30
0.0
 10
127.3746269102871
 20
137.6460277604016
 30
0.0
 10
126.4606818328272
 20
137.449387678908
 30
0.0
 10
125.7405541306718
 20
137.294448423224
 30
0.0
 10
124.9968647045498
 20
137.134439738933
 30
0.0
 10
124.2290639259399
 20
136.9692433705732
 30
0.0
 10
123.4634157797529
 20
136.8045101523801
 30
0.0
 10
122.9615131940442
 20
136.6965231761496
 30
0.0
 10
122.7105253322112
 20
136.6425218200267
 30
0.0
  0
SPLINE
  5
177
330
1F
100
AcDbEntity
  8
0
  6
Continuous
 62
     7
370
    25
100
AcDbSpline
210
0.0
220
0.0
230
1.0
 70
     8
 71
     3
 72
    10
 73
     6
 74
     0
 42
0.00000001
 43
0.00000001
 40
0.0
 40
0.0
 40
0.0
 40
0.0
 40
0.2880620166975427
 40
0.5851147100081737
 40
1.0
 40
1.0
 40
1.0
 40
1.0
 10
129.6658170552803
 20
137.8470244127285
 30
0.0
 10
129.5508721714627
 20
137.8736912121126
 30
0.0
 10
129.3173948698284
 20
137.927857105858
 30
0.0
 10
128.9092764941063
 20
137.9508303092079
 30
0.0
 10
128.6328056000445
 20
137.9073848677502
 30
0.0
 10
128.4716908544524
 20
137.8820668274142
 30
0.0
  0
ARC
  5
178
330
1F
100
AcDbEntity
  8
0
  6
Continuous
 62
     7
370
    25
100
AcDbCircle
 10
127.3001350388
 20
129.3190675298
 30
0.0
 40
8.85000000000002
100
AcDbArc
 50
69.7889456215
 51
74.4958184763
  0
SPLINE
  5
179
330
1F
100
AcDbEntity
  8
0
  6
Continuous
 62
     7
370
    25
100
AcDbSpline
210
0.0
220
0.0
230
1.0
 70
     8
 71
     3
 72
    10
 73
     6
 74
     0
 42
0.00000001
 43
0.00000001
 40
0.0
 40
0.0
 40
0.0
 40
0.0
 40
0.2890591409991826
 40
0.5858725761121456
 40
1.0
 40
1.0
 40
1.0
 40
1.0
 10
131.3476276443037
 20
136.9555132742971
 30
0.0
 10
131.2684871450696
 20
137.0361411722146
 30
0.0
 10
131.1080831253218
 20
137.1995598902531
 30
0.0
 10
130.7808491640623
 20
137.4390365847938
 30
0.0
 10
130.5134109206945
 20
137.5560057686221
 30
0.0
 10
130.3576264987235
 20
137.6241410377655
 30
0.0
  0
SPLINE
  5
17A
330
1F
100
AcDbEntity
  8
0
  6
Continuous
 62
     7
370
    25
100
AcDbSpline
210
0.0
220
0.0
230
1.0
 70
    24
 71
     3
 72
    14
 73
    10
 74
     0
 42
0.00000001
 43
0.00000001
 40
0.0
 40
0.0
 40
0.0
 40
0.0
 40
0.2327045309339709
 40
0.351810162144476
 40
0.4709002018076977
 40
0.600999372714737
 40
0.7311144054074794
 40
0.8655376115084797
 40
1.0
 40
1.0
 40
1.0
 40
1.0
 10
135.3016878709561
 20
132.585970080323
 30
0.0
 10
135.0019274598237
 20
132.9172285815106
 30
0.0
 10
134.5487400705549
 20
133.4180357920398
 30
0.0
 10
133.9214722258493
 20
134.1112154060369
 30
0.0
 10
133.4272270433058
 20
134.6573946622305
 30
0.0
 10
132.9168107448227
 20
135.2214442556325
 30
0.0
 10
132.3898461039051
 20
135.8037810507743
 30
0.0
 10
131.8643588790094
 20
136.3844851866361
 30
0.0
 10
131.5198881214615
 20
136.7651520879697
 30
0.0
 10
131.3476276443037
 20
136.9555132742971
 30
0.0
  0
SPLINE
  5
17B
330
1F
100
AcDbEntity
  8
0
  6
Continuous
 62
     7
370
    25
100
AcDbSpline
210
0.0
220
0.0
230
1.0
 70
     8
 71
     3
 72
    10
 73
     6
 74
     0
 42
0.00000001
 43
0.00000001
 40
0.0
 40
0.0
 40
0.0
 40
0.0
 40
0.2880620166975402
 40
0.585114710008171
 40
1.0
 40
1.0
 40
1.0
 40
1.0
 10
135.8684033500423
 20
131.5343052477385
 30
0.0
 10
135.8340250338378
 20
131.6471838368518
 30
0.0
 10
135.7641954230228
 20
131.8764640581468
 30
0.0
 10
135.580031612869
 20
132.2413915409483
 30
0.0
 10
135.4041713098572
 20
132.459099637884
 30
0.0
 10
135.3016878709561
 20
132.585970080323
 30
0.0
  0
ARC
  5
17C
330
1F
100
AcDbEntity
  8
0
  6
Continuous
 62
     7
370
    25
100
AcDbCircle
 10
127.3001350388
 20
129.3190675298
 30
0.0
 40
8.850000000000046
100
AcDbArc
 50
9.7889456215
 51
14.4958184763
  0
SPLINE
  5
17D
330
1F
100
AcDbEntity
  8
0
  6
Continuous
 62
     7
370
    25
100
AcDbSpline
210
0.0
220
0.0
230
1.0
 70
     8
 71
     3
 72
    10
 73
     6
 74
     0
 42
0.00000001
 43
0.00000001
 40
0.0
 40
0.0
 40
0.0
 40
0.0
 40
0.2890591409991863
 40
0.5858725761121483
 40
1.0
 40
1.0
 40
1.0
 40
1.0
 10
135.9372373509156
 20
129.6320589840749
 30
0.0
 10
135.9674929091488
 20
129.7409106158386
 30
0.0
 10
136.0288156605502
 20
129.9615339308286
 30
0.0
 10
136.072591581007
 20
130.3646652015306
 30
0.0
 10
136.0401707439783
 20
130.6547581061448
 30
0.0
 10
136.0212854069647
 20
130.8237390076572
 30
0.0
  0
SPLINE
  5
17E
330
1F
100
AcDbEntity
  8
0
  6
Continuous
 62
     7
370
    25
100
AcDbSpline
210
0.0
220
0.0
230
1.0
 70
    24
 71
     3
 72
    14
 73
    10
 74
     0
 42
0.00000001
 43
0.00000001
 40
0.0
 40
0.0
 40
0.0
 40
0.0
 40
0.1278352862507392
 40
0.2556385174896444
 40
0.3871406799049942
 40
0.5186245741933397
 40
0.6374127658539499
 40
0.7562154651190033
 40
1.0
 40
1.0
 40
1.0
 40
1.0
 10
134.1301320553268
 20
124.0229707827132
 30
0.0
 10
134.2049498168727
 20
124.2551982154829
 30
0.0
 10
134.3545665792269
 20
124.7195948494233
 30
0.0
 10
134.5872116469524
 20
125.4417036870596
 30
0.0
 10
134.8254312977097
 20
126.1811155163852
 30
0.0
 10
135.0601637389046
 20
126.9097033687903
 30
0.0
 10
135.2866291789891
 20
127.6126312120627
 30
0.0
 10
135.5800166318612
 20
128.5232788120389
 30
0.0
 10
135.7936210229585
 20
129.1862871451933
 30
0.0
 10
135.9372373509156
 20
129.6320589840749
 30
0.0
  0
SPLINE
  5
17F
330
1F
100
AcDbEntity
  8
0
  6
Continuous
 62
     7
370
    25
100
AcDbSpline
210
0.0
220
0.0
230
1.0
 70
     8
 71
     3
 72
    10
 73
     6
 74
     0
 42
0.00000001
 43
0.00000001
 40
0.0
 40
0.0
 40
0.0
 40
0.0
 40
0.2880620166975412
 40
0.5851147100081706
 40
1.0
 40
1.0
 40
1.0
 40
1.0
 10
133.5027213335851
 20
123.0063483648145
 30
0.0
 10
133.5832879011982
 20
123.0925601545436
 30
0.0
 10
133.7469355920175
 20
123.2676744820932
 30
0.0
 10
133.9708901575858
 20
123.6096287615449
 30
0.0
 10
134.0715007486358
 20
123.8707822999382
 30
0.0
 10
134.1301320553268
 20
124.0229707827132
 30
0.0
  0
ARC
  5
180
330
1F
100
AcDbEntity
  8
0
  6
Continuous
 62
     7
370
    25
100
AcDbCircle
 10
127.3001350388
 20
129.3190675298
 30
0.0
 40
8.850000000000021
100
AcDbArc
 50
309.7889456215
 51
314.4958184763
  0
SPLINE
  5
181
330
1F
100
AcDbEntity
  8
0
  6
Continuous
 62
     7
370
    25
100
AcDbSpline
210
0.0
220
0.0
230
1.0
 70
     8
 71
     3
 72
    10
 73
     6
 74
     0
 42
0.00000001
 43
0.00000001
 40
0.0
 40
0.0
 40
0.0
 40
0.0
 40
0.2890591409991863
 40
0.5858725761121532
 40
1.0
 40
1.0
 40
1.0
 40
1.0
 10
131.889744745435
 20
121.9956132395823
 30
0.0
 10
131.9991408029023
 20
122.0238369734285
 30
0.0
 10
132.2208675740515
 20
122.0810415703799
 30
0.0
 10
132.5918774557678
 20
122.2446961465413
 30
0.0
 10
132.8268948621069
 20
122.4178198673272
 30
0.0
 10
132.9637939470643
 20
122.5186654996962
 30
0.0
  0
LINE
  5
182
330
1F
100
AcDbEntity
  8
0
  6
Continuous
 62
     7
370
    25
100
AcDbLine
 10
131.8148565976
 20
121.9795006614
 30
0.0
 11
131.8897447454
 21
121.9956132396
 31
0.0
  0
SPLINE
  5
183
330
1F
100
AcDbEntity
  8
0
  6
Continuous
 62
     7
370
    25
100
AcDbSpline
210
0.0
220
0.0
230
1.0
 70
    24
 71
     3
 72
    11
 73
     7
 74
     0
 42
0.00000001
 43
0.00000001
 40
0.0
 40
0.0
 40
0.0
 40
0.0
 40
0.427040166824097
 40
0.6456130000116703
 40
0.8641572208773175
 40
1.0
 40
1.0
 40
1.0
 40
1.0
 10
119.2985822066901
 20
126.0521649792859
 30
0.0
 10
119.5983505186371
 20
125.7208977470855
 30
0.0
 10
120.0515498526103
 20
125.2200773367315
 30
0.0
 10
120.6787611715748
 20
124.526960188062
 30
0.0
 10
121.0979093154502
 20
124.0637689834889
 30
0.0
 10
121.3573423927773
 20
123.7770753136036
 30
0.0
 10
121.4567876608646
 20
123.6671805802319
 30
0.0
  0
SPLINE
  5
184
330
1F
100
AcDbEntity
  8
0
  6
Continuous
 62
     7
370
    25
100
AcDbSpline
210
0.0
220
0.0
230
1.0
 70
     8
 71
     3
 72
    10
 73
     6
 74
     0
 42
0.00000001
 43
0.00000001
 40
0.0
 40
0.0
 40
0.0
 40
0.0
 40
0.2880620166975423
 40
0.5851147100081734
 40
1.0
 40
1.0
 40
1.0
 40
1.0
 10
118.731866727604
 20
127.1038298118704
 30
0.0
 10
118.7662450438085
 20
126.9909512227572
 30
0.0
 10
118.8360746546234
 20
126.7616710014621
 30
0.0
 10
119.0202384647772
 20
126.3967435186606
 30
0.0
 10
119.1960987677891
 20
126.179035421725
 30
0.0
 10
119.2985822066901
 20
126.0521649792859
 30
0.0
  0
ARC
  5
185
330
1F
100
AcDbEntity
  8
0
  6
Continuous
 62
     7
370
    25
100
AcDbCircle
 10
127.3001350388
 20
129.3190675298
 30
0.0
 40
8.84999999999999
100
AcDbArc
 50
189.7889456215
 51
194.4958184763
  0
SPLINE
  5
186
330
1F
100
AcDbEntity
  8
0
  6
Continuous
 62
     7
370
    25
100
AcDbSpline
210
0.0
220
0.0
230
1.0
 70
     8
 71
     3
 72
    48
 73
    44
 74
     0
 42
0.00000001
 43
0.00000001
 40
0.0
 40
0.0
 40
0.0
 40
0.0
 40
0.1249999999999998
 40
0.1249999999999998
 40
0.1874999999999998
 40
0.1874999999999998
 40
0.2499999999999999
 40
0.2499999999999999
 40
0.3124999999999999
 40
0.3124999999999999
 40
0.34375
 40
0.34375
 40
0.3750000000000001
 40
0.3750000000000001
 40
0.4375000000000003
 40
0.4375000000000003
 40
0.4687500000000003
 40
0.4687500000000003
 40
0.5000000000000003
 40
0.5000000000000003
 40
0.5312500000000004
 40
0.5312500000000004
 40
0.5625000000000004
 40
0.5625000000000004
 40
0.5937500000000006
 40
0.5937500000000006
 40
0.6250000000000006
 40
0.6250000000000006
 40
0.6562500000000007
 40
0.6562500000000007
 40
0.6875000000000007
 40
0.6875000000000007
 40
0.7187500000000007
 40
0.7187500000000007
 40
0.7500000000000006
 40
0.7500000000000006
 40
0.8125000000000006
 40
0.8125000000000006
 40
0.8437500000000004
 40
0.8437500000000004
 40
0.8750000000000004
 40
0.8750000000000004
 40
1.0
 40
1.0
 40
1.0
 40
1.0
 10
120.2060627746177
 20
134.8593505420878
 30
0.0
 10
120.4378542825907
 20
135.5506151206711
 30
0.0
 10
120.7109297841412
 20
136.2240839608837
 30
0.0
 10
121.1985457363586
 20
137.208424522207
 30
0.0
 10
121.3742925319918
 20
137.5322707674923
 30
0.0
 10
121.7567602987981
 20
138.1693380535634
 30
0.0
 10
121.9615335884951
 20
138.4793391719245
 30
0.0
 10
122.402927884087
 20
139.0796248573289
 30
0.0
 10
122.6394847850513
 20
139.3699466553811
 30
0.0
 10
123.0240135919446
 20
139.7872018220411
 30
0.0
 10
123.1571674041836
 20
139.9232307566459
 30
0.0
 10
123.4349281940545
 20
140.1882724438323
 30
0.0
 10
123.5801790675772
 20
140.3177997929628
 30
0.0
 10
124.0302572994362
 20
140.6892598561088
 30
0.0
 10
124.3490428527082
 20
140.914544129848
 30
0.0
 10
124.8632813418529
 20
141.2094628287954
 30
0.0
 10
125.0407468281379
 20
141.3005498496167
 30
0.0
 10
125.4099349511777
 20
141.4657180794588
 30
0.0
 10
125.6017338590145
 20
141.539586511084
 30
0.0
 10
125.9901690130286
 20
141.663652573981
 30
0.0
 10
126.1880760685299
 20
141.7144766127902
 30
0.0
 10
126.5919253450155
 20
141.791710296937
 30
0.0
 10
126.7990294183017
 20
141.8181740723347
 30
0.0
 10
127.2163307244309
 20
141.8436819574012
 30
0.0
 10
127.4269564559071
 20
141.8426727702357
 30
0.0
 10
127.8412773826221
 20
141.8137455879366
 30
0.0
 10
128.0446559796601
 20
141.7861002968835
 30
0.0
 10
128.4444994657384
 20
141.7067136848627
 30
0.0
 10
128.6409624649718
 20
141.6549658095072
 30
0.0
 10
129.0274373948339
 20
141.5289890559144
 30
0.0
 10
129.2182817467154
 20
141.4543241054351
 30
0.0
 10
129.5880074069193
 20
141.2865145577682
 30
0.0
 10
129.767347397111
 20
141.1932206112867
 30
0.0
 10
130.1106535245131
 20
140.9937667536993
 30
0.0
 10
130.2754682319185
 20
140.8872441683464
 30
0.0
 10
130.7524178647745
 20
140.550288238272
 30
0.0
 10
131.0472165057636
 20
140.3026258243655
 30
0.0
 10
131.4622283675983
 20
139.9040718495632
 30
0.0
 10
131.5963401569734
 20
139.7662484384055
 30
0.0
 10
131.8535915882955
 20
139.4852783075797
 30
0.0
 10
131.9769680002309
 20
139.3419555962488
 30
0.0
 10
132.5707750810433
 20
138.6128188843793
 30
0.0
 10
132.9737171598452
 20
137.9904522605737
 30
0.0
 10
133.326275898255
 20
137.3396433468913
 30
0.0
  0
LINE
  5
187
330
1F
100
AcDbEntity
  8
0
  6
Continuous
 62
     7
370
    25
100
AcDbLine
 10
161.3001350388
 20
141.7190675298
 30
0.0
 11
161.3001350388
 21
116.9190675298
 31
0.0
  0
SPLINE
  5
188
330
1F
100
AcDbEntity
  8
0
  6
Continuous
 62
     7
370
    25
100
AcDbSpline
210
0.0
220
0.0
230
1.0
 70
     8
 71
     3
 72
    44
 73
    40
 74
     0
 42
0.00000001
 43
0.00000001
 40
0.0
 40
0.0
 40
0.0
 40
0.0
 40
0.1249999999999995
 40
0.1249999999999995
 40
0.1874999999999993
 40
0.1874999999999993
 40
0.2499999999999992
 40
0.2499999999999992
 40
0.2812499999999993
 40
0.2812499999999993
 40
0.3124999999999993
 40
0.3124999999999993
 40
0.3437499999999994
 40
0.3437499999999994
 40
0.3749999999999995
 40
0.3749999999999995
 40
0.4062499999999996
 40
0.4062499999999996
 40
0.4374999999999997
 40
0.4374999999999997
 40
0.4687499999999998
 40
0.4687499999999998
 40
0.4999999999999999
 40
0.4999999999999999
 40
0.5625000000000001
 40
0.5625000000000001
 40
0.6250000000000002
 40
0.6250000000000002
 40
0.6875000000000004
 40
0.6875000000000004
 40
0.7187500000000006
 40
0.7187500000000006
 40
0.7500000000000006
 40
0.7500000000000006
 40
0.8750000000000003
 40
0.8750000000000003
 40
0.9375000000000001
 40
0.9375000000000001
 40
1.0
 40
1.0
 40
1.0
 40
1.0
 10
137.2493497200929
 20
134.0441951712702
 30
0.0
 10
137.6848344481497
 20
133.7386091467501
 30
0.0
 10
138.1039503092878
 20
133.3957028951937
 30
0.0
 10
138.6889989498449
 20
132.8000985619165
 30
0.0
 10
138.8757975572658
 20
132.5884167349737
 30
0.0
 10
139.2225006934177
 20
132.1398086763941
 30
0.0
 10
139.3832812482949
 20
131.9021533506366
 30
0.0
 10
139.5998412647236
 20
131.5200373458377
 30
0.0
 10
139.6682004016156
 20
131.3876624095314
 30
0.0
 10
139.7933537978399
 20
131.1170678510328
 30
0.0
 10
139.8502033183873
 20
130.9789060608803
 30
0.0
 10
139.9513979407198
 20
130.6963525838815
 30
0.0
 10
139.9957465618473
 20
130.5519626315384
 30
0.0
 10
140.0705821354472
 20
130.256295484334
 30
0.0
 10
140.1011168144599
 20
130.1043938491108
 30
0.0
 10
140.1459510466439
 20
129.7980876979996
 30
0.0
 10
140.1603780706784
 20
129.6426627430714
 30
0.0
 10
140.172431871198
 20
129.3341291901138
 30
0.0
 10
140.1702023039986
 20
129.1804930663817
 30
0.0
 10
140.1496017638092
 20
128.8744538791673
 30
0.0
 10
140.1312302163122
 20
128.7220508592744
 30
0.0
 10
140.0785151420204
 20
128.4184660746129
 30
0.0
 10
140.0441961278199
 20
128.2678553643405
 30
0.0
 10
139.9202934065213
 20
127.8257957009046
 30
0.0
 10
139.808783674232
 20
127.541424214758
 30
0.0
 10
139.5477593751651
 20
127.0098482595215
 30
0.0
 10
139.398860722131
 20
126.7622110407893
 30
0.0
 10
139.0732561418405
 20
126.2948235024288
 30
0.0
 10
138.8964648132869
 20
126.0751546175069
 30
0.0
 10
138.6144272142648
 20
125.7629879807047
 30
0.0
 10
138.5176123840074
 20
125.6619117509922
 30
0.0
 10
138.3213421293694
 20
125.4674394718805
 30
0.0
 10
138.2215800441236
 20
125.3736964298953
 30
0.0
 10
137.7157929954037
 20
124.9205364491542
 30
0.0
 10
137.2891578697844
 20
124.6067906591256
 30
0.0
 10
136.6322549783309
 20
124.1882988929718
 30
0.0
 10
136.4099204576968
 20
124.057427430146
 30
0.0
 10
135.9643034737291
 20
123.8128067825744
 30
0.0
 10
135.7416738838434
 20
123.6993815747343
 30
0.0
 10
135.520867892038
 20
123.5939080443558
 30
0.0
  0
LINE
  5
189
330
1F
100
AcDbEntity
  8
0
  6
Continuous
 62
     7
370
    25
100
AcDbLine
 10
148.9251350388
 20
129.0065675298
 30
0.0
 11
148.9251350388
 21
129.6315675298
 31
0.0
  0
LWPOLYLINE
  5
18A
330
1F
100
AcDbEntity
  8
0
  6
Continuous
 62
     7
370
    25
100
AcDbPolyline
 90
        9
 70
   128
 43
0.0
 10
148.9251350388
 20
129.6315675298
 10
148.9419479185
 20
129.7169195457
 10
148.9917404479
 20
129.7989915315
 10
149.0725991281
 20
129.8746295068
 10
149.1814166053
 20
129.9409267466
 10
149.3140110849
 20
129.9953354852
 10
149.4652870355
 20
130.0357648253
 10
149.6294310071
 20
130.06066109
 10
149.8001350388
 20
130.0690675298
  0
LINE
  5
18B
330
1F
100
AcDbEntity
  8
0
  6
Continuous
 62
     7
370
    25
100
AcDbLine
 10
149.8001350388
 20
130.0690675298
 30
0.0
 11
149.8001350388
 21
128.5690675298
 31
0.0
  0
LWPOLYLINE
  5
18C
330
1F
100
AcDbEntity
  8
0
  6
Continuous
 62
     7
370
    25
100
AcDbPolyline
 90
        9
 70
   128
 43
0.0
 10
148.9251350388
 20
129.0065675298
 10
148.9419479185
 20
128.9212155139
 10
148.9917404479
 20
128.8391435281
 10
149.0725991281
 20
128.7635055529
 10
149.1814166053
 20
128.697208313
 10
149.3140110849
 20
128.6427995744
 10
149.4652870355
 20
128.6023702343
 10
149.6294310071
 20
128.5774739696
 10
149.8001350388
 20
128.5690675298
  0
LINE
  5
18D
330
1F
100
AcDbEntity
  8
0
  6
Continuous
 62
     7
370
    25
100
AcDbLine
 10
155.1751350388
 20
128.5690675298
 30
0.0
 11
155.1751350388
 21
130.0690675298
 31
0.0
  0
ARC
  5
18E
330
1F
100
AcDbEntity
  8
0
  6
Continuous
 62
     7
370
    25
100
AcDbCircle
 10
155.262257202
 20
128.9910027658
 30
0.0
 40
1.081579357580081
100
AcDbArc
 50
47.7463214853
 51
94.6202307185
  0
SPLINE
  5
18F
330
1F
100
AcDbEntity
  8
0
  6
Continuous
 62
     7
370
    25
100
AcDbSpline
210
0.0
220
0.0
230
1.0
 70
     8
 71
     3
 72
    10
 73
     6
 74
     0
 42
0.00000001
 43
0.00000001
 40
0.0
 40
0.0
 40
0.0
 40
0.0
 40
0.5
 40
0.5
 40
1.0
 40
1.0
 40
1.0
 40
1.0
 10
155.9895266607622
 20
128.8465743376713
 30
0.0
 10
156.0107386736053
 20
129.0021824688706
 30
0.0
 10
156.0169492159121
 20
129.1595909508164
 30
0.0
 10
156.0169492159121
 20
129.4785441087925
 30
0.0
 10
156.0107386736055
 20
129.6359525907384
 30
0.0
 10
155.9895266607624
 20
129.7915607219376
 30
0.0
  0
ARC
  5
190
330
1F
100
AcDbEntity
  8
0
  6
Continuous
 62
     7
370
    25
100
AcDbCircle
 10
155.262257202
 20
129.6471322938
 30
0.0
 40
1.081579357579961
100
AcDbArc
 50
265.3797692815
 51
312.2536785147
  0
LINE
  5
191
330
1F
100
AcDbEntity
  8
0
  6
Continuous
 62
     7
370
    25
100
AcDbLine
 10
155.1751350388
 20
128.5690675298
 30
0.0
 11
149.8001350388
 21
128.5690675298
 31
0.0
  0
LINE
  5
192
330
1F
100
AcDbEntity
  8
0
  6
Continuous
 62
     7
370
    25
100
AcDbLine
 10
149.8001350388
 20
130.0690675298
 30
0.0
 11
155.1751350388
 21
130.0690675298
 31
0.0
  0
LWPOLYLINE
  5
193
330
1F
100
AcDbEntity
  8
0
  6
Continuous
 62
     7
370
    25
100
AcDbPolyline
 90
        9
 70
   128
 43
0.0
 10
148.9251350388
 20
136.1315675298
 10
148.9419479185
 20
136.2169195457
 10
148.9917404479
 20
136.2989915315
 10
149.0725991281
 20
136.3746295068
 10
149.1814166053
 20
136.4409267466
 10
149.3140110849
 20
136.4953354852
 10
149.4652870355
 20
136.5357648253
 10
149.6294310071
 20
136.56066109
 10
149.8001350388
 20
136.5690675298
  0
LINE
  5
194
330
1F
100
AcDbEntity
  8
0
  6
Continuous
 62
     7
370
    25
100
AcDbLine
 10
149.8001350388
 20
136.5690675298
 30
0.0
 11
149.8001350388
 21
130.0690675298
 31
0.0
  0
LINE
  5
195
330
1F
100
AcDbEntity
  8
0
  6
Continuous
 62
     7
370
    25
100
AcDbLine
 10
148.9251350388
 20
129.6315675298
 30
0.0
 11
148.9251350388
 21
130.8853649506
 31
0.0
  0
LINE
  5
196
330
1F
100
AcDbEntity
  8
0
  6
Continuous
 62
     7
370
    25
100
AcDbLine
 10
148.9251350388
 20
134.877770109
 30
0.0
 11
148.9260424598
 21
134.8252423003
 31
0.0
  0
LINE
  5
197
330
1F
100
AcDbEntity
  8
0
  6
Continuous
 62
     7
370
    25
100
AcDbLine
 10
148.9251350388
 20
134.877770109
 30
0.0
 11
148.9251350388
 21
136.1315675298
 31
0.0
  0
LINE
  5
198
330
1F
100
AcDbEntity
  8
0
  6
Continuous
 62
     7
370
    25
100
AcDbLine
 10
155.1751350388
 20
130.0690675298
 30
0.0
 11
155.1751350388
 21
130.1685467395
 31
0.0
  0
ARC
  5
199
330
1F
100
AcDbEntity
  8
0
  6
Continuous
 62
     7
370
    25
100
AcDbCircle
 10
155.2546006292
 20
129.0531395015
 30
0.0
 40
1.118234361217354
100
AcDbArc
 50
49.8883732106
 51
94.0750704806
  0
SPLINE
  5
19A
330
1F
100
AcDbEntity
  8
0
  6
Continuous
 62
     7
370
    25
100
AcDbSpline
210
0.0
220
0.0
230
1.0
 70
     8
 71
     3
 72
     8
 73
     4
 74
     0
 42
0.00000001
 43
0.00000001
 40
0.0
 40
0.0
 40
0.0
 40
0.0
 40
0.0002416894103822
 40
0.0002416894103822
 40
0.0002416894103822
 40
0.0002416894103822
 10
155.9895266607622
 20
129.7915607219376
 30
0.0
 10
155.9849450803382
 20
129.8305456840357
 30
0.0
 10
155.9801254739813
 20
129.8694764850296
 30
0.0
 10
155.9750553649139
 20
129.9083547144609
 30
0.0
  0
LINE
  5
19B
330
1F
100
AcDbEntity
  8
0
  6
Continuous
 62
     7
370
    25
100
AcDbLine
 10
149.8001350388
 20
128.5690675298
 30
0.0
 11
149.8001350388
 21
122.0690675298
 31
0.0
  0
LWPOLYLINE
  5
19C
330
1F
100
AcDbEntity
  8
0
  6
Continuous
 62
     7
370
    25
100
AcDbPolyline
 90
        9
 70
   128
 43
0.0
 10
148.9251350388
 20
122.5065675298
 10
148.9419479185
 20
122.4212155139
 10
148.9917404479
 20
122.3391435281
 10
149.0725991281
 20
122.2635055529
 10
149.1814166053
 20
122.197208313
 10
149.3140110849
 20
122.1427995744
 10
149.4652870355
 20
122.1023702343
 10
149.6294310071
 20
122.0774739696
 10
149.8001350388
 20
122.0690675298
  0
LINE
  5
19D
330
1F
100
AcDbEntity
  8
0
  6
Continuous
 62
     7
370
    25
100
AcDbLine
 10
148.9251350388
 20
122.5065675298
 30
0.0
 11
148.9251350388
 21
123.7603649506
 31
0.0
  0
SPLINE
  5
19E
330
1F
100
AcDbEntity
  8
0
  6
Continuous
 62
     7
370
    25
100
AcDbSpline
210
0.0
220
0.0
230
1.0
 70
     8
 71
     3
 72
    14
 73
    10
 74
     0
 42
0.00000001
 43
0.00000001
 40
0.0
 40
0.0
 40
0.0
 40
0.0
 40
0.25
 40
0.25
 40
0.5
 40
0.5
 40
0.75
 40
0.75
 40
1.0
 40
1.0
 40
1.0
 40
1.0
 10
148.9251350388232
 20
127.7527701090444
 30
0.0
 10
148.9251350388232
 20
127.3847693670835
 30
0.0
 10
148.9348623546893
 20
127.0249108603724
 30
0.0
 10
148.9505270976875
 20
126.3201855152259
 30
0.0
 10
148.9564897557118
 20
125.9748591664484
 30
0.0
 10
148.956463376896
 20
125.3036807439827
 30
0.0
 10
148.9504934371897
 20
124.9785681638009
 30
0.0
 10
148.9348529044695
 20
124.352045388121
 30
0.0
 10
148.92513503882
 20
124.0501796694269
 30
0.0
 10
148.92513503882
 20
123.7603649505646
 30
0.0
  0
LINE
  5
19F
330
1F
100
AcDbEntity
  8
0
  6
Continuous
 62
     7
370
    25
100
AcDbLine
 10
148.9251350388
 20
127.752770109
 30
0.0
 11
148.9251350388
 21
129.0065675298
 31
0.0
  0
LINE
  5
1A0
330
1F
100
AcDbEntity
  8
0
  6
Continuous
 62
     7
370
    25
100
AcDbLine
 10
155.1751350388
 20
128.4695883201
 30
0.0
 11
155.1751350388
 21
128.5690675298
 31
0.0
  0
SPLINE
  5
1A1
330
1F
100
AcDbEntity
  8
0
  6
Continuous
 62
     7
370
    25
100
AcDbSpline
210
0.0
220
0.0
230
1.0
 70
     8
 71
     3
 72
     8
 73
     4
 74
     0
 42
0.00000001
 43
0.00000001
 40
0.0000000000000002
 40
0.0000000000000002
 40
0.0000000000000002
 40
0.0000000000000002
 40
0.0002416894103824
 40
0.0002416894103824
 40
0.0002416894103824
 40
0.0002416894103824
 10
155.9750553649138
 20
128.729780345148
 30
0.0
 10
155.9801254739812
 20
128.7686585745793
 30
0.0
 10
155.9849450803383
 20
128.8075893755732
 30
0.0
 10
155.9895266607623
 20
128.8465743376713
 30
0.0
  0
ARC
  5
1A2
330
1F
100
AcDbEntity
  8
0
  6
Continuous
 62
     7
370
    25
100
AcDbCircle
 10
155.2546006292
 20
129.5849955581
 30
0.0
 40
1.118234361217956
100
AcDbArc
 50
265.9249295194
 51
310.1116267894
  0
LINE
  5
1A3
330
1F
100
AcDbEntity
  8
0
  6
Continuous
 62
     7
370
    25
100
AcDbLine
 10
155.1751350388
 20
136.4695883201
 30
0.0
 11
155.1751350388
 21
136.5690675298
 31
0.0
  0
SPLINE
  5
1A4
330
1F
100
AcDbEntity
  8
0
  6
Continuous
 62
     7
370
    25
100
AcDbSpline
210
0.0
220
0.0
230
1.0
 70
     8
 71
     3
 72
    16
 73
    12
 74
     0
 42
0.00000001
 43
0.00000001
 40
0.0
 40
0.0
 40
0.0
 40
0.0
 40
0.2500000000000001
 40
0.2500000000000001
 40
0.5000000000000001
 40
0.5000000000000001
 40
0.7500000000000002
 40
0.7500000000000002
 40
0.8750000000000001
 40
0.8750000000000001
 40
1.0
 40
1.0
 40
1.0
 40
1.0
 10
155.1751350388233
 20
136.4695883200866
 30
0.0
 10
155.1751350388233
 20
136.1961953381793
 30
0.0
 10
155.2090577850384
 20
135.9272823194813
 30
0.0
 10
155.3140361407827
 20
135.3943601852201
 30
0.0
 10
155.3858728291073
 20
135.1301506729394
 30
0.0
 10
155.5516289455761
 20
134.6059826842475
 30
0.0
 10
155.645349335653
 20
134.3469217277365
 30
0.0
 10
155.7933810127877
 20
133.9604077919261
 30
0.0
 10
155.8439901534774
 20
133.8319225873911
 30
0.0
 10
155.9464500536144
 20
133.5752983640436
 30
0.0
 10
155.9985299123254
 20
133.4465977550671
 30
0.0
 10
156.0501350388233
 20
133.3190675298045
 30
0.0
  0
SPLINE
  5
1A5
330
1F
100
AcDbEntity
  8
0
  6
Continuous
 62
     7
370
    25
100
AcDbSpline
210
0.0
220
0.0
230
1.0
 70
     8
 71
     3
 72
    16
 73
    12
 74
     0
 42
0.00000001
 43
0.00000001
 40
0.0
 40
0.0
 40
0.0
 40
0.0
 40
0.2499999999999998
 40
0.2499999999999998
 40
0.4999999999999996
 40
0.4999999999999996
 40
0.7499999999999993
 40
0.7499999999999993
 40
0.8749999999999997
 40
0.8749999999999997
 40
1.0
 40
1.0
 40
1.0
 40
1.0
 10
155.1751350388233
 20
130.1685467395223
 30
0.0
 10
155.1751350388233
 20
130.4423648766439
 30
0.0
 10
155.2091326232147
 20
130.7113028669621
 30
0.0
 10
155.3140699121282
 20
131.243876030569
 30
0.0
 10
155.3857133490237
 20
131.5074101873487
 30
0.0
 10
155.5513289376919
 20
132.031273349469
 30
0.0
 10
155.6451866261516
 20
132.2907766261666
 30
0.0
 10
155.793282851663
 20
132.6774768898907
 30
0.0
 10
155.8439128975667
 20
132.8060176900754
 30
0.0
 10
155.9464136548284
 20
133.0627468132317
 30
0.0
 10
155.9985558779914
 20
133.1916014725756
 30
0.0
 10
156.0501350388233
 20
133.3190675298045
 30
0.0
  0
LINE
  5
1A6
330
1F
100
AcDbEntity
  8
0
  6
Continuous
 62
     7
370
    25
100
AcDbLine
 10
155.1751350388
 20
136.5690675298
 30
0.0
 11
149.8001350388
 21
136.5690675298
 31
0.0
  0
SPLINE
  5
1A7
330
1F
100
AcDbEntity
  8
0
  6
Continuous
 62
     7
370
    25
100
AcDbSpline
210
0.0
220
0.0
230
1.0
 70
     8
 71
     3
 72
    16
 73
    12
 74
     0
 42
0.00000001
 43
0.00000001
 40
0.0
 40
0.0
 40
0.0
 40
0.0
 40
0.2499999999999999
 40
0.2499999999999999
 40
0.4999999999999998
 40
0.4999999999999998
 40
0.7499999999999993
 40
0.7499999999999993
 40
0.8749999999999997
 40
0.8749999999999997
 40
1.0
 40
1.0
 40
1.0
 40
1.0
 10
155.1751350388233
 20
128.4695883200866
 30
0.0
 10
155.1751350388233
 20
128.1961953381793
 30
0.0
 10
155.2090577850384
 20
127.9272823194813
 30
0.0
 10
155.3140361407827
 20
127.3943601852201
 30
0.0
 10
155.3858728291073
 20
127.1301506729394
 30
0.0
 10
155.5516289455761
 20
126.6059826842475
 30
0.0
 10
155.645349335653
 20
126.3469217277365
 30
0.0
 10
155.7933810127877
 20
125.9604077919261
 30
0.0
 10
155.8439901534774
 20
125.8319225873911
 30
0.0
 10
155.9464500536144
 20
125.5752983640436
 30
0.0
 10
155.9985299123248
 20
125.4465977550669
 30
0.0
 10
156.0501350388233
 20
125.3190675298045
 30
0.0
  0
SPLINE
  5
1A8
330
1F
100
AcDbEntity
  8
0
  6
Continuous
 62
     7
370
    25
100
AcDbSpline
210
0.0
220
0.0
230
1.0
 70
     8
 71
     3
 72
    16
 73
    12
 74
     0
 42
0.00000001
 43
0.00000001
 40
0.0
 40
0.0
 40
0.0
 40
0.0
 40
0.25
 40
0.25
 40
0.5
 40
0.5
 40
0.75
 40
0.75
 40
0.875
 40
0.875
 40
1.0
 40
1.0
 40
1.0
 40
1.0
 10
155.1751350388233
 20
122.1685467395223
 30
0.0
 10
155.1751350388233
 20
122.442364876644
 30
0.0
 10
155.2091326232147
 20
122.7113028669621
 30
0.0
 10
155.3140699121282
 20
123.243876030569
 30
0.0
 10
155.3857133490237
 20
123.5074101873487
 30
0.0
 10
155.5513289376919
 20
124.031273349469
 30
0.0
 10
155.6451866261516
 20
124.2907766261666
 30
0.0
 10
155.793282851663
 20
124.6774768898907
 30
0.0
 10
155.8439128975667
 20
124.8060176900754
 30
0.0
 10
155.9464136548284
 20
125.0627468132317
 30
0.0
 10
155.9985558779873
 20
125.1916014725769
 30
0.0
 10
156.0501350388233
 20
125.3190675298045
 30
0.0
  0
LINE
  5
1A9
330
1F
100
AcDbEntity
  8
0
  6
Continuous
 62
     7
370
    25
100
AcDbLine
 10
155.1751350388
 20
122.0690675298
 30
0.0
 11
155.1751350388
 21
122.1685467395
 31
0.0
  0
LINE
  5
1AA
330
1F
100
AcDbEntity
  8
0
  6
Continuous
 62
     7
370
    25
100
AcDbLine
 10
149.8001350388
 20
122.0690675298
 30
0.0
 11
155.1751350388
 21
122.0690675298
 31
0.0
  0
SPLINE
  5
1AB
330
1F
100
AcDbEntity
  8
0
  6
Continuous
 62
     7
370
    25
100
AcDbSpline
210
0.0
220
0.0
230
1.0
 70
     8
 71
     3
 72
     8
 73
     4
 74
     0
 42
0.00000001
 43
0.00000001
 40
0.0
 40
0.0
 40
0.0
 40
0.0
 40
0.000105507294285
 40
0.000105507294285
 40
0.000105507294285
 40
0.000105507294285
 10
155.9694532337049
 20
128.6792216873353
 30
0.0
 10
155.9712481491854
 20
128.6960840001189
 30
0.0
 10
155.9731134534063
 20
128.7129377249593
 30
0.0
 10
155.9750553649138
 20
128.729780345148
 30
0.0
  0
SPLINE
  5
1AC
330
1F
100
AcDbEntity
  8
0
  6
Continuous
 62
     7
370
    25
100
AcDbSpline
210
0.0
220
0.0
230
1.0
 70
     8
 71
     3
 72
    14
 73
    10
 74
     0
 42
0.00000001
 43
0.00000001
 40
0.0
 40
0.0
 40
0.0
 40
0.0
 40
0.2500000000000002
 40
0.2500000000000002
 40
0.5000000000000003
 40
0.5000000000000003
 40
0.7500000000000001
 40
0.7500000000000001
 40
1.0
 40
1.0
 40
1.0
 40
1.0
 10
155.9694532337049
 20
128.6792216873353
 30
0.0
 10
155.9384264176118
 20
128.3877406213419
 30
0.0
 10
155.9291641859754
 20
128.0971682502401
 30
0.0
 10
155.9266928278748
 20
127.5213863524346
 30
0.0
 10
155.9344236297734
 20
127.2357677423643
 30
0.0
 10
155.9582558325868
 20
126.672076758103
 30
0.0
 10
155.9744752027478
 20
126.3947549440437
 30
0.0
 10
156.010463307383
 20
125.8494822951534
 30
0.0
 10
156.0303710793027
 20
125.5805942645768
 30
0.0
 10
156.0501350388233
 20
125.3190675298045
 30
0.0
  0
SPLINE
  5
1AD
330
1F
100
AcDbEntity
  8
0
  6
Continuous
 62
     7
370
    25
100
AcDbSpline
210
0.0
220
0.0
230
1.0
 70
     8
 71
     3
 72
    14
 73
    10
 74
     0
 42
0.00000001
 43
0.00000001
 40
0.0
 40
0.0
 40
0.0
 40
0.0
 40
0.2499999999999999
 40
0.2499999999999999
 40
0.4999999999999998
 40
0.4999999999999998
 40
0.7499999999999999
 40
0.7499999999999999
 40
1.0
 40
1.0
 40
1.0
 40
1.0
 10
155.9694532337058
 20
129.9589133722648
 30
0.0
 10
155.9384264176122
 20
130.250394438259
 30
0.0
 10
155.9291641859756
 20
130.5409668093615
 30
0.0
 10
155.9266928278747
 20
131.1167487071686
 30
0.0
 10
155.9344236297732
 20
131.4023673172396
 30
0.0
 10
155.9582558325866
 20
131.9660583015024
 30
0.0
 10
155.9744752027476
 20
132.2433801155625
 30
0.0
 10
156.0104633073829
 20
132.7886527644542
 30
0.0
 10
156.0303710792975
 20
133.0575407950318
 30
0.0
 10
156.0501350388233
 20
133.3190675298045
 30
0.0
  0
SPLINE
  5
1AE
330
1F
100
AcDbEntity
  8
0
  6
Continuous
 62
     7
370
    25
100
AcDbSpline
210
0.0
220
0.0
230
1.0
 70
     8
 71
     3
 72
     8
 73
     4
 74
     0
 42
0.00000001
 43
0.00000001
 40
0.0
 40
0.0
 40
0.0
 40
0.0
 40
0.0001055072942668
 40
0.0001055072942668
 40
0.0001055072942668
 40
0.0001055072942668
 10
155.9750553649138
 20
129.9083547144609
 30
0.0
 10
155.9731134534067
 20
129.9251973346466
 30
0.0
 10
155.9712481491858
 20
129.9420510594841
 30
0.0
 10
155.9694532337056
 20
129.9589133722648
 30
0.0
  0
SPLINE
  5
1AF
330
1F
100
AcDbEntity
  8
0
  6
Continuous
 62
     7
370
    25
100
AcDbSpline
210
0.0
220
0.0
230
1.0
 70
     8
 71
     3
 72
     8
 73
     4
 74
     0
 42
0.00000001
 43
0.00000001
 40
0.0
 40
0.0
 40
0.0
 40
0.0
 40
0.0000988236428927
 40
0.0000988236428927
 40
0.0000988236428927
 40
0.0000988236428927
 10
156.4412139208595
 20
122.0886325893603
 30
0.0
 10
156.4350934855089
 20
122.0821886133442
 30
0.0
 10
156.4290556554811
 20
122.0757178855202
 30
0.0
 10
156.4230914673573
 20
122.069226941549
 30
0.0
  0
SPLINE
  5
1B0
330
1F
100
AcDbEntity
  8
0
  6
Continuous
 62
     7
370
    25
100
AcDbSpline
210
0.0
220
0.0
230
1.0
 70
     8
 71
     3
 72
     8
 73
     4
 74
     0
 42
0.00000001
 43
0.00000001
 40
0.0
 40
0.0
 40
0.0
 40
0.0
 40
0.0002560048126397
 40
0.0002560048126397
 40
0.0002560048126397
 40
0.0002560048126397
 10
156.4866951363829
 20
122.1389661730743
 30
0.0
 10
156.4722306439076
 20
122.1220777992175
 30
0.0
 10
156.4570690427688
 20
122.1053258504497
 30
0.0
 10
156.4412139208634
 20
122.0886325893599
 30
0.0
  0
SPLINE
  5
1B1
330
1F
100
AcDbEntity
  8
0
  6
Continuous
 62
     7
370
    25
100
AcDbSpline
210
0.0
220
0.0
230
1.0
 70
     8
 71
     3
 72
    14
 73
    10
 74
     0
 42
0.00000001
 43
0.00000001
 40
0.0
 40
0.0
 40
0.0
 40
0.0
 40
0.25
 40
0.25
 40
0.5
 40
0.5
 40
0.75
 40
0.75
 40
1.0
 40
1.0
 40
1.0
 40
1.0
 10
156.4866951363829
 20
122.6697835139286
 30
0.0
 10
156.5176209149887
 20
122.6204108783739
 30
0.0
 10
156.5387259848436
 20
122.5707732470107
 30
0.0
 10
156.5663020587345
 20
122.4740832388047
 30
0.0
 10
156.5728391806405
 20
122.4269651307889
 30
0.0
 10
156.5729210635215
 20
122.3360556213061
 30
0.0
 10
156.5664660683842
 20
122.2933642008971
 30
0.0
 10
156.5389278250297
 20
122.2129179000987
 30
0.0
 10
156.5175810538978
 20
122.1750277855212
 30
0.0
 10
156.4866951363836
 20
122.1389661730741
 30
0.0
  0
SPLINE
  5
1B2
330
1F
100
AcDbEntity
  8
0
  6
Continuous
 62
     7
370
    25
100
AcDbSpline
210
0.0
220
0.0
230
1.0
 70
     8
 71
     3
 72
     8
 73
     4
 74
     0
 42
0.00000001
 43
0.00000001
 40
0.0
 40
0.0
 40
0.0
 40
0.0
 40
0.0002560048126397
 40
0.0002560048126397
 40
0.0002560048126397
 40
0.0002560048126397
 10
156.4412139208595
 20
122.7386217967035
 30
0.0
 10
156.457069042765
 20
122.7158581833358
 30
0.0
 10
156.4722306439116
 20
122.6928759031165
 30
0.0
 10
156.4866951363869
 20
122.6697835139297
 30
0.0
  0
SPLINE
  5
1B3
330
1F
100
AcDbEntity
  8
0
  6
Continuous
 62
     7
370
    25
100
AcDbSpline
210
0.0
220
0.0
230
1.0
 70
     8
 71
     3
 72
     8
 73
     4
 74
     0
 42
0.00000001
 43
0.00000001
 40
0.0000000000000011
 40
0.0000000000000011
 40
0.0000000000000011
 40
0.0000000000000011
 40
0.0000988236428765
 40
0.0000988236428765
 40
0.0000988236428765
 40
0.0000988236428765
 10
156.4230914673589
 20
122.7650076719669
 30
0.0
 10
156.4290556554817
 20
122.7562039632898
 30
0.0
 10
156.4350934855099
 20
122.7474090658756
 30
0.0
 10
156.4412139208595
 20
122.7386217967035
 30
0.0
  0
LINE
  5
1B4
330
1F
100
AcDbEntity
  8
0
  6
Continuous
 62
     7
370
    25
100
AcDbLine
 10
156.4230914674
 20
122.765007672
 30
0.0
 11
156.4230914674
 21
128.6232867994
 31
0.0
  0
SPLINE
  5
1B5
330
1F
100
AcDbEntity
  8
0
  6
Continuous
 62
     7
370
    25
100
AcDbSpline
210
0.0
220
0.0
230
1.0
 70
     8
 71
     3
 72
     8
 73
     4
 74
     0
 42
0.00000001
 43
0.00000001
 40
0.0
 40
0.0
 40
0.0
 40
0.0
 40
0.000098823642892
 40
0.000098823642892
 40
0.000098823642892
 40
0.000098823642892
 10
156.4412139208594
 20
128.669078322461
 30
0.0
 10
156.4350934855088
 20
128.6538470772714
 30
0.0
 10
156.429055655481
 20
128.6385814520316
 30
0.0
 10
156.4230914673573
 20
128.623286799382
 30
0.0
  0
SPLINE
  5
1B6
330
1F
100
AcDbEntity
  8
0
  6
Continuous
 62
     7
370
    25
100
AcDbSpline
210
0.0
220
0.0
230
1.0
 70
     8
 71
     3
 72
     8
 73
     4
 74
     0
 42
0.00000001
 43
0.00000001
 40
0.0
 40
0.0
 40
0.0
 40
0.0
 40
0.0002560048126404
 40
0.0002560048126404
 40
0.0002560048126404
 40
0.0002560048126404
 10
156.4866951363829
 20
128.7882501889501
 30
0.0
 10
156.4722306439076
 20
128.7482694259064
 30
0.0
 10
156.4570690427688
 20
128.7085351969172
 30
0.0
 10
156.4412139208633
 20
128.6690783224596
 30
0.0
  0
SPLINE
  5
1B7
330
1F
100
AcDbEntity
  8
0
  6
Continuous
 62
     7
370
    25
100
AcDbSpline
210
0.0
220
0.0
230
1.0
 70
     8
 71
     3
 72
    14
 73
    10
 74
     0
 42
0.00000001
 43
0.00000001
 40
0.0
 40
0.0
 40
0.0
 40
0.0
 40
0.25
 40
0.25
 40
0.5
 40
0.5
 40
0.75
 40
0.75
 40
1.0
 40
1.0
 40
1.0
 40
1.0
 10
156.4866951363829
 20
129.8498848706588
 30
0.0
 10
156.5176209149887
 20
129.7644040818594
 30
0.0
 10
156.5387259848436
 20
129.6772967083571
 30
0.0
 10
156.5663020587345
 20
129.5004786272136
 30
0.0
 10
156.5728391806405
 20
129.4107829376525
 30
0.0
 10
156.5729210635215
 20
129.2290181403565
 30
0.0
 10
156.5664660683842
 20
129.1391463721188
 30
0.0
 10
156.5389278250297
 20
128.9617000164125
 30
0.0
 10
156.5175810538978
 20
128.8736207991959
 30
0.0
 10
156.4866951363836
 20
128.7882501889499
 30
0.0
  0
SPLINE
  5
1B8
330
1F
100
AcDbEntity
  8
0
  6
Continuous
 62
     7
370
    25
100
AcDbSpline
210
0.0
220
0.0
230
1.0
 70
     8
 71
     3
 72
     8
 73
     4
 74
     0
 42
0.00000001
 43
0.00000001
 40
0.0
 40
0.0
 40
0.0
 40
0.0
 40
0.0002560048126397
 40
0.0002560048126397
 40
0.0002560048126397
 40
0.0002560048126397
 10
156.4412139208595
 20
129.9690567371476
 30
0.0
 10
156.457069042765
 20
129.9295998626901
 30
0.0
 10
156.4722306439116
 20
129.889865633704
 30
0.0
 10
156.4866951363869
 20
129.8498848706604
 30
0.0
  0
SPLINE
  5
1B9
330
1F
100
AcDbEntity
  8
0
  6
Continuous
 62
     7
370
    25
100
AcDbSpline
210
0.0
220
0.0
230
1.0
 70
     8
 71
     3
 72
     8
 73
     4
 74
     0
 42
0.00000001
 43
0.00000001
 40
0.0000000000000011
 40
0.0000000000000011
 40
0.0000000000000011
 40
0.0000000000000011
 40
0.0000988236428765
 40
0.0000988236428765
 40
0.0000988236428765
 40
0.0000988236428765
 10
156.4230914673589
 20
130.0148482602189
 30
0.0
 10
156.4290556554817
 20
129.9995536075717
 30
0.0
 10
156.4350934855099
 20
129.9842879823348
 30
0.0
 10
156.4412139208595
 20
129.9690567371476
 30
0.0
  0
LINE
  5
1BA
330
1F
100
AcDbEntity
  8
0
  6
Continuous
 62
     7
370
    25
100
AcDbLine
 10
156.4230914674
 20
130.0148482602
 30
0.0
 11
156.4230914674
 21
135.8731273876
 31
0.0
  0
SPLINE
  5
1BB
330
1F
100
AcDbEntity
  8
0
  6
Continuous
 62
     7
370
    25
100
AcDbSpline
210
0.0
220
0.0
230
1.0
 70
     8
 71
     3
 72
     8
 73
     4
 74
     0
 42
0.00000001
 43
0.00000001
 40
0.0
 40
0.0
 40
0.0
 40
0.0
 40
0.000098823642892
 40
0.000098823642892
 40
0.000098823642892
 40
0.000098823642892
 10
156.4412139208594
 20
135.8995132629053
 30
0.0
 10
156.4350934855088
 20
135.8907259937318
 30
0.0
 10
156.429055655481
 20
135.881931096316
 30
0.0
 10
156.4230914673573
 20
135.8731273876374
 30
0.0
  0
SPLINE
  5
1BC
330
1F
100
AcDbEntity
  8
0
  6
Continuous
 62
     7
370
    25
100
AcDbSpline
210
0.0
220
0.0
230
1.0
 70
     8
 71
     3
 72
     8
 73
     4
 74
     0
 42
0.00000001
 43
0.00000001
 40
0.0
 40
0.0
 40
0.0
 40
0.0
 40
0.0002560048126404
 40
0.0002560048126404
 40
0.0002560048126404
 40
0.0002560048126404
 10
156.4866951363829
 20
135.9683515456803
 30
0.0
 10
156.4722306439076
 20
135.9452591564935
 30
0.0
 10
156.4570690427688
 20
135.9222768762721
 30
0.0
 10
156.4412139208633
 20
135.8995132629043
 30
0.0
  0
SPLINE
  5
1BD
330
1F
100
AcDbEntity
  8
0
  6
Continuous
 62
     7
370
    25
100
AcDbSpline
210
0.0
220
0.0
230
1.0
 70
     8
 71
     3
 72
    14
 73
    10
 74
     0
 42
0.00000001
 43
0.00000001
 40
0.0
 40
0.0
 40
0.0
 40
0.0
 40
0.25
 40
0.25
 40
0.5
 40
0.5
 40
0.75
 40
0.75
 40
1.0
 40
1.0
 40
1.0
 40
1.0
 10
156.4866951363829
 20
136.4991688865347
 30
0.0
 10
156.5176209149887
 20
136.4630607332899
 30
0.0
 10
156.5387259848436
 20
136.4255909911509
 30
0.0
 10
156.5663020587345
 20
136.3454629182134
 30
0.0
 10
156.5728391806405
 20
136.302885336668
 30
0.0
 10
156.5729210635215
 20
136.2120300488549
 30
0.0
 10
156.5664660683842
 20
136.1648497010262
 30
0.0
 10
156.5389278250297
 20
136.0678496461183
 30
0.0
 10
156.5175810538978
 20
136.0176605434791
 30
0.0
 10
156.4866951363836
 20
135.9683515456802
 30
0.0
  0
SPLINE
  5
1BE
330
1F
100
AcDbEntity
  8
0
  6
Continuous
 62
     7
370
    25
100
AcDbSpline
210
0.0
220
0.0
230
1.0
 70
     8
 71
     3
 72
     8
 73
     4
 74
     0
 42
0.00000001
 43
0.00000001
 40
0.0
 40
0.0
 40
0.0
 40
0.0
 40
0.0002560048126397
 40
0.0002560048126397
 40
0.0002560048126397
 40
0.0002560048126397
 10
156.4412139208595
 20
136.5495024702486
 30
0.0
 10
156.457069042765
 20
136.5328092091588
 30
0.0
 10
156.4722306439116
 20
136.516057260392
 30
0.0
 10
156.4866951363869
 20
136.4991688865352
 30
0.0
  0
SPLINE
  5
1BF
330
1F
100
AcDbEntity
  8
0
  6
Continuous
 62
     7
370
    25
100
AcDbSpline
210
0.0
220
0.0
230
1.0
 70
     8
 71
     3
 72
     8
 73
     4
 74
     0
 42
0.00000001
 43
0.00000001
 40
0.0000000000000011
 40
0.0000000000000011
 40
0.0000000000000011
 40
0.0000000000000011
 40
0.0000988236428765
 40
0.0000988236428765
 40
0.0000988236428765
 40
0.0000988236428765
 10
156.4230914673589
 20
136.5689081180565
 30
0.0
 10
156.4290556554817
 20
136.5624171740864
 30
0.0
 10
156.4350934855099
 20
136.5559464462636
 30
0.0
 10
156.4412139208595
 20
136.5495024702486
 30
0.0
  0
ARC
  5
1C0
330
1F
100
AcDbEntity
  8
0
  6
Continuous
 62
     7
370
    25
100
AcDbCircle
 10
155.8727875395
 20
132.9348232423
 30
0.0
 40
3.145429588194784
100
AcDbArc
 50
272.1269576243
 51
281.2549166406
  0
ARC
  5
1C1
330
1F
100
AcDbEntity
  8
0
  6
Continuous
 62
     7
370
    25
100
AcDbCircle
 10
155.8727875395
 20
125.7033118173
 30
0.0
 40
3.145429588188458
100
AcDbArc
 50
78.7450833594
 51
87.8730423758
  0
ARC
  5
1C2
330
1F
100
AcDbEntity
  8
0
  6
Continuous
 62
     7
370
    25
100
AcDbCircle
 10
155.8342435444
 20
125.8281488259
 30
0.0
 40
2.905046203169578
100
AcDbArc
 50
77.9399604445
 51
87.2217014672
  0
ARC
  5
1C3
330
1F
100
AcDbEntity
  8
0
  6
Continuous
 62
     7
370
    25
100
AcDbCircle
 10
155.8342435444
 20
132.8099862338
 30
0.0
 40
2.905046203170449
100
AcDbArc
 50
272.7782985327
 51
282.0600395555
  0
LINE
  5
1C4
330
1F
100
AcDbEntity
  8
0
  6
Continuous
 62
     7
370
    25
100
AcDbLine
 10
135.0511842664
 20
140.8960199383
 30
0.0
 11
135.0505372818
 21
140.8947475766
 31
0.0
  0
SPLINE
  5
1C5
330
1F
100
AcDbEntity
  8
0
  6
Continuous
 62
     7
370
    25
100
AcDbSpline
210
0.0
220
0.0
230
1.0
 70
     8
 71
     3
 72
     8
 73
     4
 74
     0
 42
0.00000001
 43
0.00000001
 40
0.0
 40
0.0
 40
0.0
 40
0.0
 40
1.0
 40
1.0
 40
1.0
 40
1.0
 10
119.8739351779369
 20
133.8143418002913
 30
0.0
 10
119.9783680872518
 20
134.158698365923
 30
0.0
 10
120.088460520772
 20
134.5086290115366
 30
0.0
 10
120.2060627746177
 20
134.8593505420878
 30
0.0
  0
LINE
  5
1C6
330
1F
100
AcDbEntity
  8
0
  6
Continuous
 62
     7
370
    25
100
AcDbLine
 10
134.8001350388
 20
146.8190675298
 30
0.0
 11
119.8001350388
 21
146.8190675298
 31
0.0
  0
ARC
  5
1C7
330
1F
100
AcDbEntity
  8
0
  6
Continuous
 62
     7
370
    25
100
AcDbCircle
 10
155.8470917381
 20
125.8193601956
 30
0.0
 40
2.86247796279419
100
AcDbArc
 50
78.3914461788
 51
87.5500478123
  0
ARC
  5
1C8
330
1F
100
AcDbEntity
  8
0
  6
Continuous
 62
     7
370
    25
100
AcDbCircle
 10
155.8470917381
 20
132.8187748641
 30
0.0
 40
2.862477962852485
100
AcDbArc
 50
272.4499521879
 51
281.6085538212
  0
SPLINE
  5
1C9
330
1F
100
AcDbEntity
  8
0
  6
Continuous
 62
     7
370
    25
100
AcDbSpline
210
0.0
220
0.0
230
1.0
 70
     8
 71
     3
 72
    12
 73
     8
 74
     0
 42
0.00000001
 43
0.00000001
 40
0.0
 40
0.0
 40
0.0
 40
0.0
 40
0.2499999999999999
 40
0.2499999999999999
 40
0.4999999999999999
 40
0.4999999999999999
 40
1.0
 40
1.0
 40
1.0
 40
1.0
 10
156.4230914673588
 20
130.0148482602192
 30
0.0
 10
156.3671329115075
 20
130.3018501645075
 30
0.0
 10
156.3274428387349
 20
130.5893010450874
 30
0.0
 10
156.2565689201771
 20
131.1607296687752
 30
0.0
 10
156.2267315217065
 20
131.4423773566241
 30
0.0
 10
156.1437623615555
 20
132.2742179849892
 30
0.0
 10
156.0971248742378
 20
132.8134043489766
 30
0.0
 10
156.0501350388233
 20
133.3190675298045
 30
0.0
  0
SPLINE
  5
1CA
330
1F
100
AcDbEntity
  8
0
  6
Continuous
 62
     7
370
    25
100
AcDbSpline
210
0.0
220
0.0
230
1.0
 70
     8
 71
     3
 72
    18
 73
    14
 74
     0
 42
0.00000001
 43
0.00000001
 40
0.0
 40
0.0
 40
0.0
 40
0.0
 40
0.25
 40
0.25
 40
0.5
 40
0.5
 40
0.7500000000000004
 40
0.7500000000000004
 40
0.8750000000000003
 40
0.8750000000000003
 40
0.9375000000000002
 40
0.9375000000000002
 40
1.0
 40
1.0
 40
1.0
 40
1.0
 10
156.4230914673573
 20
128.623286799382
 30
0.0
 10
156.3668899752597
 20
128.3350389164522
 30
0.0
 10
156.3274074621493
 20
128.048378805846
 30
0.0
 10
156.257018849617
 20
127.4812019785326
 30
0.0
 10
156.2272319919649
 20
127.2005432899582
 30
0.0
 10
156.1718722304416
 20
126.645971967305
 30
0.0
 10
156.1463559472066
 20
126.3709702035662
 30
0.0
 10
156.1095471303283
 20
125.9686752453971
 30
0.0
 10
156.0975353402382
 20
125.836296549562
 30
0.0
 10
156.0796815109884
 20
125.6403235954902
 30
0.0
 10
156.0737579192862
 20
125.5754319911532
 30
0.0
 10
156.0619319129399
 20
125.4465193469091
 30
0.0
 10
156.0559720652427
 20
125.381880472981
 30
0.0
 10
156.0501350388233
 20
125.3190675298045
 30
0.0
  0
ARC
  5
1CB
330
1F
100
AcDbEntity
  8
0
  6
Continuous
 62
     7
370
    25
100
AcDbCircle
 10
139.9903395976
 20
141.2900530355
 30
0.0
 40
7.746965967188737
100
AcDbArc
 50
210.6591614551
 51
249.2791868822
  0
SPLINE
  5
1CC
330
1F
100
AcDbEntity
  8
0
  6
Continuous
 62
     7
370
    25
100
AcDbSpline
210
0.0
220
0.0
230
1.0
 70
     8
 71
     3
 72
    12
 73
     8
 74
     0
 42
0.00000001
 43
0.00000001
 40
0.0
 40
0.0
 40
0.0
 40
0.0
 40
0.25
 40
0.25
 40
0.5
 40
0.5
 40
1.0
 40
1.0
 40
1.0
 40
1.0
 10
156.4230914673588
 20
122.765007671967
 30
0.0
 10
156.3671329115075
 20
122.9302079686598
 30
0.0
 10
156.3274428387349
 20
123.1092217857961
 30
0.0
 10
156.2565689201771
 20
123.4930591939894
 30
0.0
 10
156.2267315217065
 20
123.6962601754025
 30
0.0
 10
156.1437623615555
 20
124.3387954812822
 30
0.0
 10
156.0971248742385
 20
124.8134043489767
 30
0.0
 10
156.0501350388233
 20
125.3190675298045
 30
0.0
  0
SPLINE
  5
1CD
330
1F
100
AcDbEntity
  8
0
  6
Continuous
 62
     7
370
    25
100
AcDbSpline
210
0.0
220
0.0
230
1.0
 70
     8
 71
     3
 72
    18
 73
    14
 74
     0
 42
0.00000001
 43
0.00000001
 40
0.0
 40
0.0
 40
0.0
 40
0.0
 40
0.2500000000000003
 40
0.2500000000000003
 40
0.5000000000000006
 40
0.5000000000000006
 40
0.7500000000000009
 40
0.7500000000000009
 40
0.875000000000001
 40
0.875000000000001
 40
0.9375000000000004
 40
0.9375000000000004
 40
1.0
 40
1.0
 40
1.0
 40
1.0
 10
156.4230914673573
 20
135.8731273876374
 30
0.0
 10
156.3668899752597
 20
135.7072098969531
 30
0.0
 10
156.3274074621493
 20
135.5285530032555
 30
0.0
 10
156.2570188496171
 20
135.1476802717978
 30
0.0
 10
156.2272319919649
 20
134.9454047182512
 30
0.0
 10
156.1718722304416
 20
134.5173699314967
 30
0.0
 10
156.1463559472066
 20
134.2906289592167
 30
0.0
 10
156.1095471303283
 20
133.9365052254787
 30
0.0
 10
156.0975353402382
 20
133.816176460627
 30
0.0
 10
156.0796815109883
 20
133.6322684413907
 30
0.0
 10
156.0737579192862
 20
133.570396301477
 30
0.0
 10
156.0619319129398
 20
133.4455120344647
 30
0.0
 10
156.0559720652413
 20
133.3818804729811
 30
0.0
 10
156.0501350388233
 20
133.3190675298045
 30
0.0
  0
ARC
  5
1CE
330
1F
100
AcDbEntity
  8
0
  6
Continuous
 62
     7
370
    25
100
AcDbCircle
 10
148.5511872238
 20
127.19898892
 30
0.0
 40
0.6682144668423748
100
AcDbArc
 50
55.9703085493
 51
99.8659747896
  0
LINE
  5
1CF
330
1F
100
AcDbEntity
  8
0
  6
Continuous
 62
     7
370
    25
100
AcDbLine
 10
148.4366926435
 20
127.857321332
 30
0.0
 11
148.4366926435
 21
130.7808137276
 31
0.0
  0
ARC
  5
1D0
330
1F
100
AcDbEntity
  8
0
  6
Continuous
 62
     7
370
    25
100
AcDbCircle
 10
148.5511872238
 20
131.4391461396
 30
0.0
 40
0.6682144668418746
100
AcDbArc
 50
260.1340252104
 51
304.0296914507
  0
SPLINE
  5
1D1
330
1F
100
AcDbEntity
  8
0
  6
Continuous
 62
     7
370
    25
100
AcDbSpline
210
0.0
220
0.0
230
1.0
 70
     8
 71
     3
 72
    16
 73
    12
 74
     0
 42
0.00000001
 43
0.00000001
 40
0.0
 40
0.0
 40
0.0
 40
0.0
 40
0.1250000000000001
 40
0.1250000000000001
 40
0.2500000000000002
 40
0.2500000000000002
 40
0.5000000000000003
 40
0.5000000000000003
 40
0.7500000000000004
 40
0.7500000000000004
 40
1.0
 40
1.0
 40
1.0
 40
1.0
 10
134.2219278233473
 20
122.8275022309835
 30
0.0
 10
134.2219278233473
 20
122.8516995458594
 30
0.0
 10
134.2348619937739
 20
122.8782612199242
 30
0.0
 10
134.2811962638148
 20
122.9334240159192
 30
0.0
 10
134.3143565271463
 20
122.9621517354091
 30
0.0
 10
134.4364906824935
 20
123.0514773302156
 30
0.0
 10
134.5490241150211
 20
123.1157613352065
 30
0.0
 10
134.796334779266
 20
123.2458127750618
 30
0.0
 10
134.9323970060443
 20
123.3123893323513
 30
0.0
 10
135.2178051253222
 20
123.4497736873523
 30
0.0
 10
135.3673401543045
 20
123.5205716625966
 30
0.0
 10
135.520867892038
 20
123.5939080443558
 30
0.0
  0
LINE
  5
1D2
330
1F
100
AcDbEntity
  8
0
  6
Continuous
 62
     7
370
    25
100
AcDbLine
 10
148.4366926435
 20
134.5067236237
 30
0.0
 11
148.4366926435
 21
135.9684698215
 31
0.0
  0
SPLINE
  5
1D3
330
1F
100
AcDbEntity
  8
0
  6
Continuous
 62
     7
370
    25
100
AcDbSpline
210
0.0
220
0.0
230
1.0
 70
     8
 71
     3
 72
    16
 73
    12
 74
     0
 42
0.00000001
 43
0.00000001
 40
0.0
 40
0.0
 40
0.0
 40
0.0
 40
0.2499999999999998
 40
0.2499999999999998
 40
0.3749999999999998
 40
0.3749999999999998
 40
0.4999999999999999
 40
0.4999999999999999
 40
0.7499999999999999
 40
0.7499999999999999
 40
1.0
 40
1.0
 40
1.0
 40
1.0
 10
148.4366926435383
 20
130.7808137275665
 30
0.0
 10
148.4366926435383
 20
131.140408040926
 30
0.0
 10
148.4517150986642
 20
131.4895946177433
 30
0.0
 10
148.4702195834681
 20
131.9986757694875
 30
0.0
 10
148.4758885570169
 20
132.1659041139434
 30
0.0
 10
148.483770186444
 20
132.4954025188907
 30
0.0
 10
148.4859702559256
 20
132.6583245450695
 30
0.0
 10
148.4858896910785
 20
133.1342910914192
 30
0.0
 10
148.4762871530872
 20
133.4332957401731
 30
0.0
 10
148.4516833087929
 20
133.9963433866058
 30
0.0
 10
148.4366926435383
 20
134.2603932448351
 30
0.0
 10
148.4366926435383
 20
134.5067236237222
 30
0.0
  0
SPLINE
  5
1D4
330
1F
100
AcDbEntity
  8
0
  6
Continuous
 62
     7
370
    25
100
AcDbSpline
210
0.0
220
0.0
230
1.0
 70
     8
 71
     3
 72
    16
 73
    12
 74
     0
 42
0.00000001
 43
0.00000001
 40
0.0
 40
0.0
 40
0.0
 40
0.0
 40
0.2499999999999999
 40
0.2499999999999999
 40
0.3749999999999998
 40
0.3749999999999998
 40
0.4999999999999998
 40
0.4999999999999998
 40
0.7499999999999999
 40
0.7499999999999999
 40
1.0
 40
1.0
 40
1.0
 40
1.0
 10
148.4366926435383
 20
124.1314114358867
 30
0.0
 10
148.4366926435383
 20
124.3778174919021
 30
0.0
 10
148.4517150986642
 20
124.6423103918967
 30
0.0
 10
148.470219583468
 20
125.0660910126657
 30
0.0
 10
148.4758885570169
 20
125.2118762975964
 30
0.0
 10
148.483770186444
 20
125.5126930340419
 30
0.0
 10
148.4859702559256
 20
125.6683889719842
 30
0.0
 10
148.4858896910785
 20
126.1446289560085
 30
0.0
 10
148.4762871530872
 20
126.4726705670382
 30
0.0
 10
148.4516833087929
 20
127.1492766909911
 30
0.0
 10
148.4366926435383
 20
127.4978374586023
 30
0.0
 10
148.4366926435383
 20
127.8573213320425
 30
0.0
  0
LINE
  5
1D5
330
1F
100
AcDbEntity
  8
0
  6
Continuous
 62
     7
370
    25
100
AcDbLine
 10
148.4366926435
 20
122.6696652381
 30
0.0
 11
148.4366926435
 21
124.1314114359
 31
0.0
  0
ARC
  5
1D6
330
1F
100
AcDbEntity
  8
0
  6
Continuous
 62
     7
370
    25
100
AcDbCircle
 10
148.484322199
 20
134.9510384098
 30
0.0
 40
0.4468603849636521
100
AcDbArc
 50
263.8813857303
 51
350.563036573
  0
ARC
  5
1D7
330
1F
100
AcDbEntity
  8
0
  6
Continuous
 62
     7
370
    25
100
AcDbCircle
 10
148.484322199
 20
123.6870966498
 30
0.0
 40
0.4468603849636494
100
AcDbArc
 50
9.436963427
 51
96.1186142697
  0
SPLINE
  5
1D8
330
1F
100
AcDbEntity
  8
0
  6
Continuous
 62
     7
370
    25
100
AcDbSpline
210
0.0
220
0.0
230
1.0
 70
     8
 71
     3
 72
    14
 73
    10
 74
     0
 42
0.00000001
 43
0.00000001
 40
0.0
 40
0.0
 40
0.0
 40
0.0
 40
0.25
 40
0.25
 40
0.5
 40
0.5
 40
0.75
 40
0.75
 40
1.0
 40
1.0
 40
1.0
 40
1.0
 10
155.9694532337058
 20
122.4661234290717
 30
0.0
 10
155.9384264176122
 20
122.6815303833503
 30
0.0
 10
155.9291641859756
 20
122.9000715406871
 30
0.0
 10
155.9266928278747
 20
123.3497275758726
 30
0.0
 10
155.9344236297732
 20
123.5808306900143
 30
0.0
 10
155.9582558325866
 20
124.0562802010446
 30
0.0
 10
155.9744752027476
 20
124.2999268000581
 30
0.0
 10
156.0104633073829
 20
124.8000838179092
 30
0.0
 10
156.0303710793014
 20
125.0575407950315
 30
0.0
 10
156.0501350388233
 20
125.3190675298045
 30
0.0
  0
SPLINE
  5
1D9
330
1F
100
AcDbEntity
  8
0
  6
Continuous
 62
     7
370
    25
100
AcDbSpline
210
0.0
220
0.0
230
1.0
 70
     8
 71
     3
 72
     8
 73
     4
 74
     0
 42
0.00000001
 43
0.00000001
 40
0.0
 40
0.0
 40
0.0
 40
0.0
 40
0.0001055072942668
 40
0.0001055072942668
 40
0.0001055072942668
 40
0.0001055072942668
 10
155.9750553649139
 20
122.4287387645838
 30
0.0
 10
155.9731134534067
 20
122.4412009430928
 30
0.0
 10
155.9712481491858
 20
122.4536620383951
 30
0.0
 10
155.9694532337056
 20
122.4661234290717
 30
0.0
  0
ARC
  5
1DA
330
1F
100
AcDbEntity
  8
0
  6
Continuous
 62
     7
370
    25
100
AcDbCircle
 10
155.2546006292
 20
123.2839539775
 30
0.0
 40
1.118234361217669
100
AcDbArc
 50
265.9249295194
 51
310.1116267894
  0
ARC
  5
1DB
330
1F
100
AcDbEntity
  8
0
  6
Continuous
 62
     7
370
    25
100
AcDbCircle
 10
156.4708122893
 20
122.198876428
 30
0.0
 40
0.5681389462382641
100
AcDbArc
 50
94.8182350454
 51
151.9403707867
  0
ARC
  5
1DC
330
1F
100
AcDbEntity
  8
0
  6
Continuous
 62
     7
370
    25
100
AcDbCircle
 10
155.2546006292
 20
135.3541810821
 30
0.0
 40
1.118234361217611
100
AcDbArc
 50
49.8883732106
 51
94.0750704806
  0
SPLINE
  5
1DD
330
1F
100
AcDbEntity
  8
0
  6
Continuous
 62
     7
370
    25
100
AcDbSpline
210
0.0
220
0.0
230
1.0
 70
     8
 71
     3
 72
     8
 73
     4
 74
     0
 42
0.00000001
 43
0.00000001
 40
0.0
 40
0.0
 40
0.0
 40
0.0
 40
0.000105507294285
 40
0.000105507294285
 40
0.000105507294285
 40
0.000105507294285
 10
155.9694532337049
 20
136.1720116305307
 30
0.0
 10
155.9712481491854
 20
136.1844730212094
 30
0.0
 10
155.9731134534063
 20
136.1969341165139
 30
0.0
 10
155.9750553649138
 20
136.2093962950251
 30
0.0
  0
SPLINE
  5
1DE
330
1F
100
AcDbEntity
  8
0
  6
Continuous
 62
     7
370
    25
100
AcDbSpline
210
0.0
220
0.0
230
1.0
 70
     8
 71
     3
 72
    14
 73
    10
 74
     0
 42
0.00000001
 43
0.00000001
 40
0.0
 40
0.0
 40
0.0
 40
0.0
 40
0.25
 40
0.25
 40
0.5
 40
0.5
 40
0.75
 40
0.75
 40
1.0
 40
1.0
 40
1.0
 40
1.0
 10
155.9694532337049
 20
136.1720116305307
 30
0.0
 10
155.9384264176118
 20
135.9566046762526
 30
0.0
 10
155.9291641859754
 20
135.7380635189163
 30
0.0
 10
155.9266928278748
 20
135.2884074837317
 30
0.0
 10
155.9344236297734
 20
135.0573043695905
 30
0.0
 10
155.9582558325868
 20
134.5818548585613
 30
0.0
 10
155.9744752027478
 20
134.3382082595484
 30
0.0
 10
156.010463307383
 20
133.8380512416984
 30
0.0
 10
156.0303710793004
 20
133.5805942645767
 30
0.0
 10
156.0501350388233
 20
133.3190675298045
 30
0.0
  0
ARC
  5
1DF
330
1F
100
AcDbEntity
  8
0
  6
Continuous
 62
     7
370
    25
100
AcDbCircle
 10
156.4708122893
 20
136.4392586316
 30
0.0
 40
0.5681389462389849
100
AcDbArc
 50
208.0596292136
 51
265.1817649548
  0
SPLINE
  5
1E0
330
1F
100
AcDbEntity
  8
0
  6
Continuous
 62
     7
370
    25
100
AcDbSpline
210
0.0
220
0.0
230
1.0
 70
     8
 71
     3
 72
    11
 73
     7
 74
     0
 42
0.00000001
 43
0.00000001
 40
0.0
 40
0.0
 40
0.0
 40
0.0
 40
0.3083393259046447
 40
0.6166786518173711
 40
0.9332988365917517
 40
0.9999999999999999
 40
0.9999999999999999
 40
0.9999999999999999
 40
0.9999999999999999
 10
132.7221135070567
 20
151.8190675298044
 30
0.0
 10
132.8716023962279
 20
151.8232011924601
 30
0.0
 10
133.1705801745741
 20
151.8314685177715
 30
0.0
 10
133.4193331833464
 20
151.8440424030255
 30
0.0
 10
133.5319270911374
 20
151.8529939505484
 30
0.0
 10
133.5014816919451
 20
151.8578804951056
 30
0.0
 10
133.4961839344469
 20
151.8587307952742
 30
0.0
  0
SPLINE
  5
1E1
330
1F
100
AcDbEntity
  8
0
  6
Continuous
 62
     7
370
    25
100
AcDbSpline
210
0.0
220
0.0
230
1.0
 70
     8
 71
     3
 72
    18
 73
    14
 74
     0
 42
0.00000001
 43
0.00000001
 40
0.0
 40
0.0
 40
0.0
 40
0.0
 40
0.0237464187311284
 40
0.1258397527648419
 40
0.2244163743397302
 40
0.3258747697691458
 40
0.4240760683725705
 40
0.5251336545052885
 40
0.6230434844914297
 40
0.7238353249066509
 40
0.8210546810822433
 40
0.9210934051676679
 40
1.0
 40
1.0
 40
1.0
 40
1.0
 10
121.3426338518022
 20
152.096400663001
 30
0.0
 10
121.3390216059534
 20
152.0973741550962
 30
0.0
 10
121.3198791773755
 20
152.1025329963497
 30
0.0
 10
121.4549085572906
 20
152.111981172012
 30
0.0
 10
121.7529742555929
 20
152.1252025333698
 30
0.0
 10
122.2177443620117
 20
152.1382955578544
 30
0.0
 10
122.8270163647531
 20
152.151181772124
 30
0.0
 10
123.5558452965758
 20
152.1632123293014
 30
0.0
 10
124.3970632045519
 20
152.1762693343754
 30
0.0
 10
125.3090469716382
 20
152.1893769043869
 30
0.0
 10
126.2816724568618
 20
152.2025741119906
 30
0.0
 10
127.2100294731265
 20
152.2141532948199
 30
0.0
 10
127.8071060982701
 20
152.2216924971359
 30
0.0
 10
128.0703892264849
 20
152.2250169360545
 30
0.0
  0
SPLINE
  5
1E2
330
1F
100
AcDbEntity
  8
0
  6
Continuous
 62
     7
370
    25
100
AcDbSpline
210
0.0
220
0.0
230
1.0
 70
     8
 71
     3
 72
    17
 73
    13
 74
     0
 42
0.00000001
 43
0.00000001
 40
0.0
 40
0.0
 40
0.0
 40
0.0
 40
0.0776812220610341
 40
0.1918498507672814
 40
0.3082570921027879
 40
0.4246643334382943
 40
0.538832962144542
 40
0.6530015908507889
 40
0.7694088321862954
 40
0.885816073521802
 40
0.9999847022280498
 40
1.0
 40
1.0
 40
1.0
 40
1.0
 10
128.0703892264849
 20
152.2250169360545
 30
0.0
 10
127.8138489563901
 20
152.2199088163036
 30
0.0
 10
127.1802696790866
 20
152.2072932576666
 30
0.0
 10
126.1560511007614
 20
152.1870226041116
 30
0.0
 10
125.0490902908519
 20
152.1628175876553
 30
0.0
 10
124.0293074862445
 20
152.1386122324248
 30
0.0
 10
123.1413289469142
 20
152.1159432032238
 30
0.0
 10
122.4130169335853
 20
152.0932701132834
 30
0.0
 10
121.8607481084048
 20
152.0690771796565
 30
0.0
 10
121.5480627744106
 20
152.0448267241734
 30
0.0
 10
121.4193769862916
 20
152.0297744585065
 30
0.0
 10
121.456094281657
 20
152.0221904987116
 30
0.0
 10
121.4560992008503
 20
152.0221894826519
 30
0.0
  0
SPLINE
  5
1E3
330
1F
100
AcDbEntity
  8
0
  6
Continuous
 62
     7
370
    25
100
AcDbSpline
210
0.0
220
0.0
230
1.0
 70
     8
 71
     3
 72
    25
 73
    21
 74
     0
 42
0.00000001
 43
0.00000001
 40
0.0
 40
0.0
 40
0.0
 40
0.0
 40
0.05180159998904
 40
0.1155771808349879
 40
0.1793527616809358
 40
0.2419018825654399
 40
0.2936790218682995
 40
0.3464409602496309
 40
0.3994971830420471
 40
0.4521339040916277
 40
0.4946928119475977
 40
0.5572419328321019
 40
0.6210175136780495
 40
0.6847930945239972
 40
0.7473422154085017
 40
0.8098913362930056
 40
0.8736669171389533
 40
0.937442497984901
 40
0.9999916188694056
 40
1.0
 40
1.0
 40
1.0
 40
1.0
 10
133.1252636002617
 20
151.643283709281
 30
0.0
 10
133.1064513955304
 20
151.6370607548427
 30
0.0
 10
133.0644785300476
 20
151.6231764051199
 30
0.0
 10
132.7307880553902
 20
151.600308703405
 30
0.0
 10
132.1895856091499
 20
151.5761233043408
 30
0.0
 10
131.4998819854199
 20
151.554703890201
 30
0.0
 10
130.7275205370933
 20
151.5347756874865
 30
0.0
 10
129.9077640463278
 20
151.5148556884971
 30
0.0
 10
129.0134841427895
 20
151.4947299744474
 30
0.0
 10
128.1334834145891
 20
151.4760791696471
 30
0.0
 10
127.1793904649826
 20
151.4573484748868
 30
0.0
 10
126.1563293589868
 20
151.4370051286803
 30
0.0
 10
125.0490150723312
 20
151.4128223115987
 30
0.0
 10
124.0293272090664
 20
151.3886109937738
 30
0.0
 10
123.1413237088752
 20
151.365943532188
 30
0.0
 10
122.4130183683341
 20
151.3432700231769
 30
0.0
 10
121.8607477187089
 20
151.3190772041307
 30
0.0
 10
121.5480628834571
 20
151.2948267173241
 30
0.0
 10
121.4193769862906
 20
151.2797744585083
 30
0.0
 10
121.456094281657
 20
151.2721904987116
 30
0.0
 10
121.4560992008503
 20
151.2721894826519
 30
0.0
  0
SPLINE
  5
1E4
330
1F
100
AcDbEntity
  8
0
  6
Continuous
 62
     7
370
    25
100
AcDbSpline
210
0.0
220
0.0
230
1.0
 70
     8
 71
     3
 72
    25
 73
    21
 74
     0
 42
0.00000001
 43
0.00000001
 40
0.0
 40
0.0
 40
0.0
 40
0.0
 40
0.05180159998904
 40
0.1155771808349879
 40
0.1793527616809358
 40
0.2419018825654399
 40
0.2936790218682995
 40
0.3464409602496309
 40
0.3994971830420471
 40
0.4521339040916276
 40
0.4946928119475976
 40
0.5572419328321018
 40
0.6210175136780495
 40
0.6847930945239972
 40
0.7473422154085017
 40
0.8098913362930056
 40
0.8736669171389533
 40
0.937442497984901
 40
0.9999916188694056
 40
1.0
 40
1.0
 40
1.0
 40
1.0
 10
133.1252636002617
 20
150.893283709281
 30
0.0
 10
133.1064513955304
 20
150.8870607548427
 30
0.0
 10
133.0644785300476
 20
150.8731764051199
 30
0.0
 10
132.7307880553902
 20
150.850308703405
 30
0.0
 10
132.1895856091499
 20
150.8261233043408
 30
0.0
 10
131.4998819854199
 20
150.804703890201
 30
0.0
 10
130.7275205370933
 20
150.7847756874865
 30
0.0
 10
129.9077640463278
 20
150.7648556884971
 30
0.0
 10
129.0134841427895
 20
150.7447299744474
 30
0.0
 10
128.1334834145891
 20
150.7260791696471
 30
0.0
 10
127.1793904649826
 20
150.7073484748868
 30
0.0
 10
126.1563293589868
 20
150.6870051286803
 30
0.0
 10
125.0490150723312
 20
150.6628223115987
 30
0.0
 10
124.0293272090664
 20
150.6386109937738
 30
0.0
 10
123.1413237088752
 20
150.615943532188
 30
0.0
 10
122.4130183683341
 20
150.5932700231769
 30
0.0
 10
121.8607477187089
 20
150.5690772041308
 30
0.0
 10
121.5480628834571
 20
150.544826717324
 30
0.0
 10
121.4193769862906
 20
150.5297744585086
 30
0.0
 10
121.456094281657
 20
150.5221904987116
 30
0.0
 10
121.4560992008503
 20
150.5221894826519
 30
0.0
  0
SPLINE
  5
1E5
330
1F
100
AcDbEntity
  8
0
  6
Continuous
 62
     7
370
    25
100
AcDbSpline
210
0.0
220
0.0
230
1.0
 70
     8
 71
     3
 72
    25
 73
    21
 74
     0
 42
0.00000001
 43
0.00000001
 40
0.0
 40
0.0
 40
0.0
 40
0.0
 40
0.0518015999890402
 40
0.1155771808349881
 40
0.179352761680936
 40
0.2419018825654402
 40
0.2936790218682998
 40
0.3464409602496313
 40
0.3994971830420475
 40
0.452133904091628
 40
0.4946928119475981
 40
0.5572419328321023
 40
0.62101751367805
 40
0.6847930945239976
 40
0.7473422154085022
 40
0.8098913362930062
 40
0.873666917138954
 40
0.9374424979849018
 40
0.9999916188694064
 40
1.0
 40
1.0
 40
1.0
 40
1.0
 10
133.1252636002617
 20
150.143283709281
 30
0.0
 10
133.1064513955304
 20
150.1370607548427
 30
0.0
 10
133.0644785300476
 20
150.1231764051199
 30
0.0
 10
132.7307880553902
 20
150.100308703405
 30
0.0
 10
132.1895856091499
 20
150.0761233043408
 30
0.0
 10
131.4998819854199
 20
150.054703890201
 30
0.0
 10
130.7275205370933
 20
150.0347756874865
 30
0.0
 10
129.9077640463278
 20
150.0148556884971
 30
0.0
 10
129.0134841427895
 20
149.9947299744474
 30
0.0
 10
128.1334834145891
 20
149.9760791696471
 30
0.0
 10
127.1793904649826
 20
149.9573484748868
 30
0.0
 10
126.1563293589868
 20
149.9370051286803
 30
0.0
 10
125.0490150723312
 20
149.9128223115987
 30
0.0
 10
124.0293272090664
 20
149.8886109937738
 30
0.0
 10
123.1413237088752
 20
149.8659435321882
 30
0.0
 10
122.4130183683341
 20
149.8432700231763
 30
0.0
 10
121.8607477187087
 20
149.8190772041333
 30
0.0
 10
121.5480628834578
 20
149.7948267173148
 30
0.0
 10
121.4193769862894
 20
149.779774458528
 30
0.0
 10
121.456094281657
 20
149.7721904987116
 30
0.0
 10
121.4560992008503
 20
149.7721894826519
 30
0.0
  0
SPLINE
  5
1E6
330
1F
100
AcDbEntity
  8
0
  6
Continuous
 62
     7
370
    25
100
AcDbSpline
210
0.0
220
0.0
230
1.0
 70
     8
 71
     3
 72
    25
 73
    21
 74
     0
 42
0.00000001
 43
0.00000001
 40
0.0
 40
0.0
 40
0.0
 40
0.0
 40
0.0518015999890393
 40
0.1155771808349873
 40
0.1793527616809352
 40
0.2419018825654394
 40
0.2936790218682991
 40
0.3464409602496306
 40
0.3994971830420468
 40
0.4521339040916275
 40
0.4946928119475976
 40
0.5572419328321019
 40
0.6210175136780496
 40
0.6847930945239973
 40
0.7473422154085019
 40
0.809891336293006
 40
0.8736669171389538
 40
0.9374424979849015
 40
0.9999916188694062
 40
0.9999999999999999
 40
0.9999999999999999
 40
0.9999999999999999
 40
0.9999999999999999
 10
133.1252636002617
 20
149.393283709281
 30
0.0
 10
133.1064513955304
 20
149.3870607548427
 30
0.0
 10
133.0644785300476
 20
149.3731764051199
 30
0.0
 10
132.7307880553902
 20
149.350308703405
 30
0.0
 10
132.1895856091499
 20
149.3261233043408
 30
0.0
 10
131.4998819854199
 20
149.304703890201
 30
0.0
 10
130.7275205370933
 20
149.2847756874865
 30
0.0
 10
129.9077640463278
 20
149.2648556884971
 30
0.0
 10
129.0134841427895
 20
149.2447299744474
 30
0.0
 10
128.1334834145891
 20
149.2260791696471
 30
0.0
 10
127.1793904649826
 20
149.2073484748868
 30
0.0
 10
126.1563293589868
 20
149.1870051286803
 30
0.0
 10
125.0490150723312
 20
149.1628223115987
 30
0.0
 10
124.0293272090664
 20
149.1386109937738
 30
0.0
 10
123.1413237088752
 20
149.1159435321883
 30
0.0
 10
122.4130183683341
 20
149.093270023176
 30
0.0
 10
121.8607477187087
 20
149.0690772041343
 30
0.0
 10
121.5480628834578
 20
149.0448267173108
 30
0.0
 10
121.4193769862893
 20
149.0297744585365
 30
0.0
 10
121.456094281657
 20
149.0221904987116
 30
0.0
 10
121.4560992008503
 20
149.0221894826519
 30
0.0
  0
SPLINE
  5
1E7
330
1F
100
AcDbEntity
  8
0
  6
Continuous
 62
     7
370
    25
100
AcDbSpline
210
0.0
220
0.0
230
1.0
 70
     8
 71
     3
 72
    25
 73
    21
 74
     0
 42
0.00000001
 43
0.00000001
 40
0.0
 40
0.0
 40
0.0
 40
0.0
 40
0.0518015999890408
 40
0.1155771808349887
 40
0.1793527616809365
 40
0.2419018825654407
 40
0.2936790218683002
 40
0.3464409602496317
 40
0.3994971830420478
 40
0.4521339040916283
 40
0.4946928119475984
 40
0.5572419328321025
 40
0.6210175136780502
 40
0.6847930945239978
 40
0.7473422154085024
 40
0.8098913362930064
 40
0.8736669171389541
 40
0.9374424979849018
 40
0.9999916188694064
 40
1.0
 40
1.0
 40
1.0
 40
1.0
 10
133.1252636002617
 20
148.643283709281
 30
0.0
 10
133.1064513955304
 20
148.6370607548427
 30
0.0
 10
133.0644785300476
 20
148.6231764051199
 30
0.0
 10
132.7307880553902
 20
148.600308703405
 30
0.0
 10
132.1895856091499
 20
148.5761233043408
 30
0.0
 10
131.49988198542
 20
148.554703890201
 30
0.0
 10
130.7275205370933
 20
148.5347756874865
 30
0.0
 10
129.9077640463278
 20
148.5148556884971
 30
0.0
 10
129.0134841427895
 20
148.4947299744474
 30
0.0
 10
128.1334834145891
 20
148.4760791696471
 30
0.0
 10
127.1793904649826
 20
148.4573484748868
 30
0.0
 10
126.1563293589868
 20
148.4370051286803
 30
0.0
 10
125.0490150723312
 20
148.4128223115987
 30
0.0
 10
124.0293272090664
 20
148.3886109937738
 30
0.0
 10
123.1413237088752
 20
148.3659435321882
 30
0.0
 10
122.4130183683341
 20
148.3432700231762
 30
0.0
 10
121.8607477187087
 20
148.3190772041337
 30
0.0
 10
121.5480628834578
 20
148.294826717313
 30
0.0
 10
121.4193769862894
 20
148.279774458532
 30
0.0
 10
121.456094281657
 20
148.2721904987116
 30
0.0
 10
121.4560992008503
 20
148.2721894826519
 30
0.0
  0
SPLINE
  5
1E8
330
1F
100
AcDbEntity
  8
0
  6
Continuous
 62
     7
370
    25
100
AcDbSpline
210
0.0
220
0.0
230
1.0
 70
     8
 71
     3
 72
    25
 73
    21
 74
     0
 42
0.00000001
 43
0.00000001
 40
0.0
 40
0.0
 40
0.0
 40
0.0
 40
0.0518015999890408
 40
0.1155771808349887
 40
0.1793527616809365
 40
0.2419018825654407
 40
0.2936790218683002
 40
0.3464409602496317
 40
0.3994971830420478
 40
0.4521339040916283
 40
0.4946928119475984
 40
0.5572419328321025
 40
0.6210175136780502
 40
0.6847930945239978
 40
0.7473422154085024
 40
0.8098913362930064
 40
0.8736669171389541
 40
0.9374424979849018
 40
0.9999916188694064
 40
1.0
 40
1.0
 40
1.0
 40
1.0
 10
133.1252636002617
 20
147.893283709281
 30
0.0
 10
133.1064513955304
 20
147.8870607548427
 30
0.0
 10
133.0644785300476
 20
147.8731764051199
 30
0.0
 10
132.7307880553902
 20
147.850308703405
 30
0.0
 10
132.1895856091499
 20
147.8261233043408
 30
0.0
 10
131.49988198542
 20
147.804703890201
 30
0.0
 10
130.7275205370933
 20
147.7847756874865
 30
0.0
 10
129.9077640463278
 20
147.7648556884971
 30
0.0
 10
129.0134841427895
 20
147.7447299744474
 30
0.0
 10
128.1334834145891
 20
147.7260791696471
 30
0.0
 10
127.1793904649826
 20
147.7073484748868
 30
0.0
 10
126.1563293589868
 20
147.6870051286803
 30
0.0
 10
125.0490150723312
 20
147.6628223115987
 30
0.0
 10
124.0293272090664
 20
147.6386109937738
 30
0.0
 10
123.1413237088752
 20
147.6159435321882
 30
0.0
 10
122.4130183683341
 20
147.5932700231763
 30
0.0
 10
121.8607477187087
 20
147.5690772041332
 30
0.0
 10
121.5480628834578
 20
147.5448267173151
 30
0.0
 10
121.4193769862894
 20
147.5297744585275
 30
0.0
 10
121.456094281657
 20
147.5221904987116
 30
0.0
 10
121.4560992008503
 20
147.5221894826519
 30
0.0
  0
SPLINE
  5
1E9
330
1F
100
AcDbEntity
  8
0
  6
Continuous
 62
     7
370
    25
100
AcDbSpline
210
0.0
220
0.0
230
1.0
 70
     8
 71
     3
 72
    25
 73
    21
 74
     0
 42
0.00000001
 43
0.00000001
 40
0.0
 40
0.0
 40
0.0
 40
0.0
 40
0.0503599513390049
 40
0.0998528102844197
 40
0.1583357642189195
 40
0.2179181510745518
 40
0.2778762372670992
 40
0.3374586241227315
 40
0.3959415780572322
 40
0.4544245319917318
 40
0.514006918847364
 40
0.5739650050399113
 40
0.6335473918955437
 40
0.6920303458300446
 40
0.7505132997645444
 40
0.8100956866201771
 40
0.870053772812725
 40
0.9296361596683579
 40
0.9881191136028571
 40
1.0
 40
1.0
 40
1.0
 40
1.0
 10
132.7221135070579
 20
151.8190675298045
 30
0.0
 10
132.574405198656
 20
151.8136737365858
 30
0.0
 10
132.2815318081118
 20
151.802979019918
 30
0.0
 10
131.6981503258799
 20
151.7869202244099
 30
0.0
 10
130.9942143695494
 20
151.7698190317368
 30
0.0
 10
130.1530332465211
 20
151.7506571435292
 30
0.0
 10
129.2357321801481
 20
151.7312290196585
 30
0.0
 10
128.275744582026
 20
151.7120605986422
 30
0.0
 10
127.3001369055183
 20
151.6940675020076
 30
0.0
 10
126.3245179586549
 20
151.6760745731995
 30
0.0
 10
125.3645648813927
 20
151.6569056381342
 30
0.0
 10
124.4471362333071
 20
151.6374794140783
 30
0.0
 10
123.6064254003758
 20
151.6183105227976
 30
0.0
 10
122.8629994557459
 20
151.6003174221701
 30
0.0
 10
122.2265488911849
 20
151.5823249713958
 30
0.0
 10
121.7104262027761
 20
151.5631540896283
 30
0.0
 10
121.3275578926159
 20
151.5437352219861
 30
0.0
 10
121.1091253378797
 20
151.5245391698015
 30
0.0
 10
121.024923574414
 20
151.5113687461494
 30
0.0
 10
121.0595373274993
 20
151.504124311767
 30
0.0
 10
121.0653818360743
 20
151.5029010939678
 30
0.0
  0
SPLINE
  5
1EA
330
1F
100
AcDbEntity
  8
0
  6
Continuous
 62
     7
370
    25
100
AcDbSpline
210
0.0
220
0.0
230
1.0
 70
     8
 71
     3
 72
    28
 73
    24
 74
     0
 42
0.00000001
 43
0.00000001
 40
0.0
 40
0.0
 40
0.0
 40
0.0
 40
0.0444132640154806
 40
0.0999146067667129
 40
0.1556444248089884
 40
0.1981661304884252
 40
0.2399557018711286
 40
0.2893361100793626
 40
0.3396448306041033
 40
0.3902707749585639
 40
0.4405794954833047
 40
0.4899599036915395
 40
0.5393403118997734
 40
0.5896490324245142
 40
0.6402749767789747
 40
0.6905836973037154
 40
0.7399641055119505
 40
0.7893445137201844
 40
0.8396532342449257
 40
0.8902791785993867
 40
0.9405878991241278
 40
0.9899683073323613
 40
1.0
 40
1.0
 40
1.0
 40
1.0
 10
133.5333159090586
 20
151.1278900835798
 30
0.0
 10
133.5179065026858
 20
151.1225129765387
 30
0.0
 10
133.4832406249942
 20
151.1104163304699
 30
0.0
 10
133.2068929790064
 20
151.0904469031613
 30
0.0
 10
132.7869076326521
 20
151.0707030769674
 30
0.0
 10
132.2771631502285
 20
151.0529882306765
 30
0.0
 10
131.6995487997221
 20
151.0369172759059
 30
0.0
 10
130.9938053469147
 20
151.0198198941089
 30
0.0
 10
130.1531445085139
 20
151.0006569089475
 30
0.0
 10
129.2357024784032
 20
150.9812290822809
 30
0.0
 10
128.27575235615
 20
150.9620605822514
 30
0.0
 10
127.3001348401773
 20
150.9440675063621
 30
0.0
 10
126.3245185235483
 20
150.9260745720085
 30
0.0
 10
125.3645647277309
 20
150.9069056384581
 30
0.0
 10
124.4471362743277
 20
150.8874794139918
 30
0.0
 10
123.6064253896391
 20
150.8683105228203
 30
0.0
 10
122.8629994585983
 20
150.850317422164
 30
0.0
 10
122.2265488904047
 20
150.8323249713974
 30
0.0
 10
121.7104262029884
 20
150.8131540896278
 30
0.0
 10
121.3275578925591
 20
150.7937352219862
 30
0.0
 10
121.1091253378952
 20
150.7745391698014
 30
0.0
 10
121.0249235744134
 20
150.7613687461494
 30
0.0
 10
121.0595373274992
 20
150.754124311767
 30
0.0
 10
121.0653818360743
 20
150.7529010939678
 30
0.0
  0
SPLINE
  5
1EB
330
1F
100
AcDbEntity
  8
0
  6
Continuous
 62
     7
370
    25
100
AcDbSpline
210
0.0
220
0.0
230
1.0
 70
     8
 71
     3
 72
    28
 73
    24
 74
     0
 42
0.00000001
 43
0.00000001
 40
0.0
 40
0.0
 40
0.0
 40
0.0
 40
0.0539082756300995
 40
0.108858139510597
 40
0.1640342084794859
 40
0.2061334050615317
 40
0.2475077420644485
 40
0.2963974909407604
 40
0.3462063281292105
 40
0.3963292371112187
 40
0.4461380742996688
 40
0.4950278231759814
 40
0.5439175720522932
 40
0.5937264092407433
 40
0.6438493182227514
 40
0.6936581554112015
 40
0.7425479042875144
 40
0.7914376531638262
 40
0.8412464903522766
 40
0.891369399334285
 40
0.9411782365227356
 40
0.9900679853990471
 40
0.9999999999999999
 40
0.9999999999999999
 40
0.9999999999999999
 40
0.9999999999999999
 10
133.5501350388231
 20
150.3815675298045
 30
0.0
 10
133.5324639590124
 20
150.3749815392226
 30
0.0
 10
133.4967803677854
 20
150.3616823069027
 30
0.0
 10
133.2080645679459
 20
150.3404528340879
 30
0.0
 10
132.7866748679457
 20
150.3207018986443
 30
0.0
 10
132.2772169161409
 20
150.3029885028553
 30
0.0
 10
131.6995315884357
 20
150.2869171887774
 30
0.0
 10
130.9938103808348
 20
150.2698199195921
 30
0.0
 10
130.1531431391911
 20
150.2506569020155
 30
0.0
 10
129.2357028439482
 20
150.2312290841314
 30
0.0
 10
128.2757522604724
 20
150.212060581767
 30
0.0
 10
127.3001348655958
 20
150.1940675064907
 30
0.0
 10
126.324518516596
 20
150.1760745719733
 30
0.0
 10
125.364564729622
 20
150.1569056384677
 30
0.0
 10
124.4471362738228
 20
150.1374794139892
 30
0.0
 10
123.6064253897712
 20
150.1183105228209
 30
0.0
 10
122.8629994585632
 20
150.1003174221639
 30
0.0
 10
122.2265488904143
 20
150.0823249713975
 30
0.0
 10
121.7104262029858
 20
150.0631540896278
 30
0.0
 10
121.3275578925598
 20
150.0437352219862
 30
0.0
 10
121.109125337895
 20
150.0245391698014
 30
0.0
 10
121.0249235744134
 20
150.0113687461494
 30
0.0
 10
121.0595373274992
 20
150.004124311767
 30
0.0
 10
121.0653818360743
 20
150.0029010939678
 30
0.0
  0
SPLINE
  5
1EC
330
1F
100
AcDbEntity
  8
0
  6
Continuous
 62
     7
370
    25
100
AcDbSpline
210
0.0
220
0.0
230
1.0
 70
     8
 71
     3
 72
    28
 73
    24
 74
     0
 42
0.00000001
 43
0.00000001
 40
0.0
 40
0.0
 40
0.0
 40
0.0
 40
0.0444132640154806
 40
0.0999146067667129
 40
0.1556444248089884
 40
0.1981661304884252
 40
0.2399557018711286
 40
0.2893361100793626
 40
0.3396448306041033
 40
0.3902707749585639
 40
0.4405794954833047
 40
0.4899599036915395
 40
0.5393403118997734
 40
0.5896490324245142
 40
0.6402749767789747
 40
0.6905836973037154
 40
0.7399641055119505
 40
0.7893445137201844
 40
0.8396532342449257
 40
0.8902791785993867
 40
0.9405878991241278
 40
0.9899683073323613
 40
1.0
 40
1.0
 40
1.0
 40
1.0
 10
133.5333159090586
 20
149.6278900835798
 30
0.0
 10
133.5179065026858
 20
149.6225129765387
 30
0.0
 10
133.4832406249942
 20
149.6104163304699
 30
0.0
 10
133.2068929790064
 20
149.5904469031613
 30
0.0
 10
132.7869076326521
 20
149.5707030769674
 30
0.0
 10
132.2771631502285
 20
149.5529882306765
 30
0.0
 10
131.6995487997221
 20
149.5369172759059
 30
0.0
 10
130.9938053469147
 20
149.5198198941089
 30
0.0
 10
130.1531445085139
 20
149.5006569089475
 30
0.0
 10
129.2357024784032
 20
149.4812290822809
 30
0.0
 10
128.27575235615
 20
149.4620605822514
 30
0.0
 10
127.3001348401773
 20
149.4440675063621
 30
0.0
 10
126.3245185235483
 20
149.4260745720085
 30
0.0
 10
125.3645647277309
 20
149.4069056384581
 30
0.0
 10
124.4471362743277
 20
149.3874794139918
 30
0.0
 10
123.6064253896391
 20
149.3683105228202
 30
0.0
 10
122.8629994585983
 20
149.350317422164
 30
0.0
 10
122.2265488904047
 20
149.3323249713974
 30
0.0
 10
121.7104262029884
 20
149.3131540896278
 30
0.0
 10
121.3275578925591
 20
149.2937352219862
 30
0.0
 10
121.1091253378952
 20
149.2745391698014
 30
0.0
 10
121.0249235744134
 20
149.2613687461494
 30
0.0
 10
121.0595373274992
 20
149.254124311767
 30
0.0
 10
121.0653818360743
 20
149.2529010939678
 30
0.0
  0
SPLINE
  5
1ED
330
1F
100
AcDbEntity
  8
0
  6
Continuous
 62
     7
370
    25
100
AcDbSpline
210
0.0
220
0.0
230
1.0
 70
     8
 71
     3
 72
    28
 73
    24
 74
     0
 42
0.00000001
 43
0.00000001
 40
0.0
 40
0.0
 40
0.0
 40
0.0
 40
0.0444132640154806
 40
0.0999146067667129
 40
0.1556444248089884
 40
0.1981661304884252
 40
0.2399557018711286
 40
0.2893361100793626
 40
0.3396448306041033
 40
0.3902707749585639
 40
0.4405794954833047
 40
0.4899599036915395
 40
0.5393403118997734
 40
0.5896490324245142
 40
0.6402749767789747
 40
0.6905836973037154
 40
0.7399641055119505
 40
0.7893445137201844
 40
0.8396532342449257
 40
0.8902791785993867
 40
0.9405878991241278
 40
0.9899683073323613
 40
1.0
 40
1.0
 40
1.0
 40
1.0
 10
133.5333159090586
 20
148.8778900835798
 30
0.0
 10
133.5179065026858
 20
148.8725129765387
 30
0.0
 10
133.4832406249942
 20
148.8604163304699
 30
0.0
 10
133.2068929790064
 20
148.8404469031613
 30
0.0
 10
132.7869076326521
 20
148.8207030769674
 30
0.0
 10
132.2771631502285
 20
148.8029882306766
 30
0.0
 10
131.6995487997221
 20
148.7869172759059
 30
0.0
 10
130.9938053469147
 20
148.7698198941089
 30
0.0
 10
130.1531445085139
 20
148.7506569089475
 30
0.0
 10
129.2357024784032
 20
148.7312290822809
 30
0.0
 10
128.27575235615
 20
148.7120605822514
 30
0.0
 10
127.3001348401773
 20
148.6940675063621
 30
0.0
 10
126.3245185235483
 20
148.6760745720084
 30
0.0
 10
125.3645647277309
 20
148.6569056384581
 30
0.0
 10
124.4471362743277
 20
148.6374794139918
 30
0.0
 10
123.6064253896391
 20
148.6183105228203
 30
0.0
 10
122.8629994585983
 20
148.600317422164
 30
0.0
 10
122.2265488904047
 20
148.5823249713974
 30
0.0
 10
121.7104262029884
 20
148.5631540896278
 30
0.0
 10
121.3275578925591
 20
148.5437352219862
 30
0.0
 10
121.1091253378952
 20
148.5245391698014
 30
0.0
 10
121.0249235744134
 20
148.5113687461494
 30
0.0
 10
121.0595373274992
 20
148.504124311767
 30
0.0
 10
121.0653818360743
 20
148.5029010939678
 30
0.0
  0
SPLINE
  5
1EE
330
1F
100
AcDbEntity
  8
0
  6
Continuous
 62
     7
370
    25
100
AcDbSpline
210
0.0
220
0.0
230
1.0
 70
     8
 71
     3
 72
    28
 73
    24
 74
     0
 42
0.00000001
 43
0.00000001
 40
0.0
 40
0.0
 40
0.0
 40
0.0
 40
0.0539082756300995
 40
0.108858139510597
 40
0.1640342084794859
 40
0.2061334050615317
 40
0.2475077420644485
 40
0.2963974909407604
 40
0.3462063281292105
 40
0.3963292371112187
 40
0.4461380742996688
 40
0.4950278231759814
 40
0.5439175720522932
 40
0.5937264092407433
 40
0.6438493182227514
 40
0.6936581554112015
 40
0.7425479042875144
 40
0.7914376531638262
 40
0.8412464903522766
 40
0.891369399334285
 40
0.9411782365227356
 40
0.9900679853990471
 40
0.9999999999999999
 40
0.9999999999999999
 40
0.9999999999999999
 40
0.9999999999999999
 10
133.5501350388231
 20
148.1315675298045
 30
0.0
 10
133.5324639590124
 20
148.1249815392226
 30
0.0
 10
133.4967803677854
 20
148.1116823069027
 30
0.0
 10
133.2080645679459
 20
148.0904528340879
 30
0.0
 10
132.7866748679457
 20
148.0707018986443
 30
0.0
 10
132.2772169161409
 20
148.0529885028553
 30
0.0
 10
131.6995315884357
 20
148.0369171887774
 30
0.0
 10
130.9938103808348
 20
148.0198199195921
 30
0.0
 10
130.1531431391911
 20
148.0006569020155
 30
0.0
 10
129.2357028439482
 20
147.9812290841314
 30
0.0
 10
128.2757522604724
 20
147.962060581767
 30
0.0
 10
127.3001348655958
 20
147.9440675064907
 30
0.0
 10
126.324518516596
 20
147.9260745719733
 30
0.0
 10
125.364564729622
 20
147.9069056384677
 30
0.0
 10
124.4471362738228
 20
147.8874794139892
 30
0.0
 10
123.6064253897712
 20
147.8683105228209
 30
0.0
 10
122.8629994585632
 20
147.8503174221639
 30
0.0
 10
122.2265488904143
 20
147.8323249713975
 30
0.0
 10
121.7104262029858
 20
147.8131540896278
 30
0.0
 10
121.3275578925598
 20
147.7937352219862
 30
0.0
 10
121.109125337895
 20
147.7745391698014
 30
0.0
 10
121.0249235744134
 20
147.7613687461494
 30
0.0
 10
121.0595373274992
 20
147.754124311767
 30
0.0
 10
121.0653818360743
 20
147.7529010939678
 30
0.0
  0
SPLINE
  5
1EF
330
1F
100
AcDbEntity
  8
0
  6
Continuous
 62
     7
370
    25
100
AcDbSpline
210
0.0
220
0.0
230
1.0
 70
     8
 71
     3
 72
    16
 73
    12
 74
     0
 42
0.00000001
 43
0.00000001
 40
0.0
 40
0.0
 40
0.0
 40
0.0
 40
0.0283620011810603
 40
0.1539829034356507
 40
0.283246822297225
 40
0.4088676824390388
 40
0.5381315553298627
 40
0.663742752982632
 40
0.7927926337207225
 40
0.8954885895505288
 40
1.0
 40
1.0
 40
1.0
 40
1.0
 10
133.1654687193215
 20
152.1889614074418
 30
0.0
 10
133.1734937215221
 20
152.1854749887383
 30
0.0
 10
133.2170630427078
 20
152.1665465333338
 30
0.0
 10
133.1292107286645
 20
152.1313706564199
 30
0.0
 10
132.8968401587965
 20
152.0824916324224
 30
0.0
 10
132.4849437365206
 20
152.0335880026696
 30
0.0
 10
131.9309193031738
 20
151.9866181688988
 30
0.0
 10
131.2361643429273
 20
151.942412775716
 30
0.0
 10
130.4854798758231
 20
151.8987067188533
 30
0.0
 10
129.7103365431799
 20
151.8571709883202
 30
0.0
 10
129.1954809878677
 20
151.8318426543391
 30
0.0
 10
128.9357977476933
 20
151.8190675298044
 30
0.0
  0
SPLINE
  5
1F0
330
1F
100
AcDbEntity
  8
0
  6
Continuous
 62
     7
370
    25
100
AcDbSpline
210
0.0
220
0.0
230
1.0
 70
     8
 71
     3
 72
    26
 73
    22
 74
     0
 42
0.00000001
 43
0.00000001
 40
0.0
 40
0.0
 40
0.0
 40
0.0
 40
0.1249999999999997
 40
0.1249999999999997
 40
0.1874999999999996
 40
0.1874999999999996
 40
0.2499999999999994
 40
0.2499999999999994
 40
0.3749999999999992
 40
0.3749999999999992
 40
0.4999999999999989
 40
0.4999999999999989
 40
0.562499999999999
 40
0.562499999999999
 40
0.624999999999999
 40
0.624999999999999
 40
0.7499999999999993
 40
0.7499999999999993
 40
0.8749999999999996
 40
0.8749999999999996
 40
1.0
 40
1.0
 40
1.0
 40
1.0
 10
128.9357977476957
 20
151.8190675298045
 30
0.0
 10
128.4699537490076
 20
151.8096853034203
 30
0.0
 10
127.9930472675367
 20
151.8005199649919
 30
0.0
 10
127.2894328007217
 20
151.7875907837305
 30
0.0
 10
127.0566475526007
 20
151.7834067388723
 30
0.0
 10
126.5853884385701
 20
151.7746020922195
 30
0.0
 10
126.348644632337
 20
151.770077805373
 30
0.0
 10
125.6421360270414
 20
151.7562603350553
 30
0.0
 10
125.1762253594445
 20
151.746720667082
 30
0.0
 10
124.2925775260073
 20
151.7277371616667
 30
0.0
 10
123.8751460883627
 20
151.7183000620021
 30
0.0
 10
123.3080537000841
 20
151.7047706835691
 30
0.0
 10
123.1287712478057
 20
151.7003643861826
 30
0.0
 10
122.7921094234094
 20
151.6918323382493
 30
0.0
 10
122.6329576557656
 20
151.6875785524762
 30
0.0
 10
122.1801046604194
 20
151.674258231077
 30
0.0
 10
121.9150687300505
 20
151.664909263007
 30
0.0
 10
121.4851480912657
 20
151.6459773285122
 30
0.0
 10
121.3204558221781
 20
151.6364009743778
 30
0.0
 10
121.1029657631528
 20
151.6177887965985
 30
0.0
 10
121.0501350388231
 20
151.6087588283553
 30
0.0
 10
121.0501350388231
 20
151.6003175318529
 30
0.0
  0
SPLINE
  5
1F1
330
1F
100
AcDbEntity
  8
0
  6
Continuous
 62
     7
370
    25
100
AcDbSpline
210
0.0
220
0.0
230
1.0
 70
     8
 71
     3
 72
    28
 73
    24
 74
     0
 42
0.00000001
 43
0.00000001
 40
0.0
 40
0.0
 40
0.0
 40
0.0
 40
0.0098682995168222
 40
0.0587611946567415
 40
0.1085732372560477
 40
0.1586993718607697
 40
0.2085114144600758
 40
0.2574043095999948
 40
0.3113160562094995
 40
0.3662694581412222
 40
0.4214490796790422
 40
0.4635509828354927
 40
0.504927979833655
 40
0.5538208749735745
 40
0.6036329175728804
 40
0.6537590521776022
 40
0.7035710947769082
 40
0.7524639899168276
 40
0.801356885056747
 40
0.8511689276560529
 40
0.9012950622607746
 40
0.9511071048600805
 40
1.0
 40
1.0
 40
1.0
 40
1.0
 10
133.5349870264736
 20
151.2289602126347
 30
0.0
 10
133.5407896862748
 20
151.2277449254221
 30
0.0
 10
133.5753418623127
 20
151.2205084478156
 30
0.0
 10
133.4911263674745
 20
151.2073459742725
 30
0.0
 10
133.272716209639
 20
151.188149626579
 30
0.0
 10
132.8898464450884
 20
151.1687317431215
 30
0.0
 10
132.373707114461
 20
151.1495572626746
 30
0.0
 10
131.7156839581485
 20
151.1309666160253
 30
0.0
 10
130.9149283586127
 20
151.1116788308493
 30
0.0
 10
129.9740192930288
 20
151.0904537868096
 30
0.0
 10
129.0254820270085
 20
151.0707017100556
 30
0.0
 10
128.1252071255145
 20
151.0529885476145
 30
0.0
 10
127.2505260625089
 20
151.0369171765259
 30
0.0
 10
126.3244973726431
 20
151.0198199257286
 30
0.0
 10
125.3645718928323
 20
151.0006569029546
 30
0.0
 10
124.4471290739498
 20
150.9812290864656
 30
0.0
 10
123.6064467140919
 20
150.9620605837784
 30
0.0
 10
122.8629228303365
 20
150.9440675084111
 30
0.0
 10
122.2268369600992
 20
150.9260745745756
 30
0.0
 10
121.7093257083326
 20
150.9069056383798
 30
0.0
 10
121.3316802908629
 20
150.8874794240457
 30
0.0
 10
121.0939705363112
 20
150.8683104954285
 30
0.0
 10
121.0646558779187
 20
150.8562778367178
 30
0.0
 10
121.0501350388231
 20
150.8503175318529
 30
0.0
  0
SPLINE
  5
1F2
330
1F
100
AcDbEntity
  8
0
  6
Continuous
 62
     7
370
    25
100
AcDbSpline
210
0.0
220
0.0
230
1.0
 70
     8
 71
     3
 72
    28
 73
    24
 74
     0
 42
0.00000001
 43
0.00000001
 40
0.0
 40
0.0
 40
0.0
 40
0.0
 40
0.0098682995168222
 40
0.0587611946567415
 40
0.1085732372560477
 40
0.1586993718607697
 40
0.2085114144600758
 40
0.2574043095999948
 40
0.3113160562094995
 40
0.3662694581412222
 40
0.4214490796790422
 40
0.4635509828354927
 40
0.504927979833655
 40
0.5538208749735745
 40
0.6036329175728804
 40
0.6537590521776022
 40
0.7035710947769082
 40
0.7524639899168276
 40
0.801356885056747
 40
0.8511689276560529
 40
0.9012950622607746
 40
0.9511071048600805
 40
1.0
 40
1.0
 40
1.0
 40
1.0
 10
133.5349870264736
 20
150.4789602126347
 30
0.0
 10
133.5407896862748
 20
150.4777449254221
 30
0.0
 10
133.5753418623127
 20
150.4705084478156
 30
0.0
 10
133.4911263674745
 20
150.4573459742725
 30
0.0
 10
133.272716209639
 20
150.438149626579
 30
0.0
 10
132.8898464450884
 20
150.4187317431215
 30
0.0
 10
132.373707114461
 20
150.3995572626746
 30
0.0
 10
131.7156839581485
 20
150.3809666160253
 30
0.0
 10
130.9149283586127
 20
150.3616788308493
 30
0.0
 10
129.9740192930288
 20
150.3404537868095
 30
0.0
 10
129.0254820270085
 20
150.3207017100556
 30
0.0
 10
128.1252071255145
 20
150.3029885476145
 30
0.0
 10
127.2505260625089
 20
150.2869171765259
 30
0.0
 10
126.3244973726431
 20
150.2698199257286
 30
0.0
 10
125.3645718928323
 20
150.2506569029546
 30
0.0
 10
124.4471290739498
 20
150.2312290864656
 30
0.0
 10
123.6064467140919
 20
150.2120605837784
 30
0.0
 10
122.8629228303365
 20
150.1940675084111
 30
0.0
 10
122.2268369600992
 20
150.1760745745756
 30
0.0
 10
121.7093257083326
 20
150.1569056383798
 30
0.0
 10
121.3316802908629
 20
150.1374794240457
 30
0.0
 10
121.0939705363112
 20
150.1183104954285
 30
0.0
 10
121.0646558779187
 20
150.1062778367178
 30
0.0
 10
121.0501350388231
 20
150.1003175318529
 30
0.0
  0
SPLINE
  5
1F3
330
1F
100
AcDbEntity
  8
0
  6
Continuous
 62
     7
370
    25
100
AcDbSpline
210
0.0
220
0.0
230
1.0
 70
     8
 71
     3
 72
    28
 73
    24
 74
     0
 42
0.00000001
 43
0.00000001
 40
0.0
 40
0.0
 40
0.0
 40
0.0
 40
0.0098682995168222
 40
0.0587611946567415
 40
0.1085732372560477
 40
0.1586993718607697
 40
0.2085114144600758
 40
0.2574043095999948
 40
0.3113160562094995
 40
0.3662694581412222
 40
0.4214490796790422
 40
0.4635509828354927
 40
0.504927979833655
 40
0.5538208749735745
 40
0.6036329175728804
 40
0.6537590521776022
 40
0.7035710947769082
 40
0.7524639899168276
 40
0.801356885056747
 40
0.8511689276560529
 40
0.9012950622607746
 40
0.9511071048600805
 40
1.0
 40
1.0
 40
1.0
 40
1.0
 10
133.5349870264736
 20
149.7289602126347
 30
0.0
 10
133.5407896862748
 20
149.7277449254221
 30
0.0
 10
133.5753418623127
 20
149.7205084478156
 30
0.0
 10
133.4911263674745
 20
149.7073459742725
 30
0.0
 10
133.272716209639
 20
149.688149626579
 30
0.0
 10
132.8898464450884
 20
149.6687317431215
 30
0.0
 10
132.373707114461
 20
149.6495572626746
 30
0.0
 10
131.7156839581485
 20
149.6309666160253
 30
0.0
 10
130.9149283586127
 20
149.6116788308493
 30
0.0
 10
129.9740192930288
 20
149.5904537868095
 30
0.0
 10
129.0254820270085
 20
149.5707017100556
 30
0.0
 10
128.1252071255145
 20
149.5529885476145
 30
0.0
 10
127.2505260625089
 20
149.5369171765259
 30
0.0
 10
126.3244973726431
 20
149.5198199257286
 30
0.0
 10
125.3645718928323
 20
149.5006569029546
 30
0.0
 10
124.4471290739498
 20
149.4812290864656
 30
0.0
 10
123.6064467140919
 20
149.4620605837784
 30
0.0
 10
122.8629228303365
 20
149.4440675084111
 30
0.0
 10
122.2268369600992
 20
149.4260745745756
 30
0.0
 10
121.7093257083326
 20
149.4069056383798
 30
0.0
 10
121.3316802908629
 20
149.3874794240457
 30
0.0
 10
121.0939705363112
 20
149.3683104954285
 30
0.0
 10
121.0646558779187
 20
149.3562778367178
 30
0.0
 10
121.0501350388231
 20
149.3503175318529
 30
0.0
  0
SPLINE
  5
1F4
330
1F
100
AcDbEntity
  8
0
  6
Continuous
 62
     7
370
    25
100
AcDbSpline
210
0.0
220
0.0
230
1.0
 70
     8
 71
     3
 72
    28
 73
    24
 74
     0
 42
0.00000001
 43
0.00000001
 40
0.0
 40
0.0
 40
0.0
 40
0.0
 40
0.0098682995168221
 40
0.0587611946567414
 40
0.1085732372560475
 40
0.1586993718607695
 40
0.2085114144600757
 40
0.2574043095999946
 40
0.3113160562094994
 40
0.3662694581412221
 40
0.4214490796790421
 40
0.4635509828354926
 40
0.5049279798336549
 40
0.5538208749735744
 40
0.6036329175728803
 40
0.6537590521776021
 40
0.703571094776908
 40
0.7524639899168275
 40
0.8013568850567468
 40
0.8511689276560528
 40
0.9012950622607746
 40
0.9511071048600805
 40
1.0
 40
1.0
 40
1.0
 40
1.0
 10
133.5349870264736
 20
148.9789602126347
 30
0.0
 10
133.5407896862748
 20
148.9777449254221
 30
0.0
 10
133.5753418623127
 20
148.9705084478156
 30
0.0
 10
133.4911263674745
 20
148.9573459742725
 30
0.0
 10
133.272716209639
 20
148.938149626579
 30
0.0
 10
132.8898464450884
 20
148.9187317431215
 30
0.0
 10
132.373707114461
 20
148.8995572626746
 30
0.0
 10
131.7156839581485
 20
148.8809666160253
 30
0.0
 10
130.9149283586128
 20
148.8616788308493
 30
0.0
 10
129.9740192930288
 20
148.8404537868095
 30
0.0
 10
129.0254820270085
 20
148.8207017100556
 30
0.0
 10
128.1252071255145
 20
148.8029885476145
 30
0.0
 10
127.2505260625089
 20
148.786917176526
 30
0.0
 10
126.3244973726431
 20
148.7698199257286
 30
0.0
 10
125.3645718928323
 20
148.7506569029546
 30
0.0
 10
124.4471290739498
 20
148.7312290864656
 30
0.0
 10
123.6064467140919
 20
148.7120605837784
 30
0.0
 10
122.8629228303365
 20
148.6940675084111
 30
0.0
 10
122.2268369600992
 20
148.6760745745756
 30
0.0
 10
121.7093257083326
 20
148.6569056383798
 30
0.0
 10
121.3316802908629
 20
148.6374794240457
 30
0.0
 10
121.0939705363112
 20
148.6183104954285
 30
0.0
 10
121.0646558779187
 20
148.6062778367178
 30
0.0
 10
121.0501350388231
 20
148.6003175318529
 30
0.0
  0
SPLINE
  5
1F5
330
1F
100
AcDbEntity
  8
0
  6
Continuous
 62
     7
370
    25
100
AcDbSpline
210
0.0
220
0.0
230
1.0
 70
     8
 71
     3
 72
    28
 73
    24
 74
     0
 42
0.00000001
 43
0.00000001
 40
0.0
 40
0.0
 40
0.0
 40
0.0
 40
0.0098682995168221
 40
0.0587611946567414
 40
0.1085732372560476
 40
0.1586993718607696
 40
0.2085114144600757
 40
0.2574043095999946
 40
0.3113160562094994
 40
0.3662694581412221
 40
0.4214490796790421
 40
0.4635509828354926
 40
0.5049279798336549
 40
0.5538208749735744
 40
0.6036329175728803
 40
0.6537590521776021
 40
0.703571094776908
 40
0.7524639899168275
 40
0.8013568850567468
 40
0.8511689276560528
 40
0.9012950622607746
 40
0.9511071048600805
 40
1.0
 40
1.0
 40
1.0
 40
1.0
 10
133.5349870264736
 20
148.2289602126347
 30
0.0
 10
133.5407896862748
 20
148.2277449254221
 30
0.0
 10
133.5753418623127
 20
148.2205084478156
 30
0.0
 10
133.4911263674745
 20
148.2073459742725
 30
0.0
 10
133.272716209639
 20
148.188149626579
 30
0.0
 10
132.8898464450884
 20
148.1687317431215
 30
0.0
 10
132.373707114461
 20
148.1495572626746
 30
0.0
 10
131.7156839581485
 20
148.1309666160253
 30
0.0
 10
130.9149283586127
 20
148.1116788308493
 30
0.0
 10
129.9740192930288
 20
148.0904537868096
 30
0.0
 10
129.0254820270085
 20
148.0707017100556
 30
0.0
 10
128.1252071255145
 20
148.0529885476145
 30
0.0
 10
127.2505260625089
 20
148.0369171765259
 30
0.0
 10
126.3244973726431
 20
148.0198199257286
 30
0.0
 10
125.3645718928323
 20
148.0006569029546
 30
0.0
 10
124.4471290739498
 20
147.9812290864656
 30
0.0
 10
123.6064467140919
 20
147.9620605837784
 30
0.0
 10
122.8629228303365
 20
147.9440675084111
 30
0.0
 10
122.2268369600992
 20
147.9260745745756
 30
0.0
 10
121.7093257083326
 20
147.9069056383798
 30
0.0
 10
121.3316802908629
 20
147.8874794240457
 30
0.0
 10
121.0939705363112
 20
147.8683104954285
 30
0.0
 10
121.0646558779187
 20
147.8562778367178
 30
0.0
 10
121.0501350388231
 20
147.8503175318529
 30
0.0
  0
SPLINE
  5
1F6
330
1F
100
AcDbEntity
  8
0
  6
Continuous
 62
     7
370
    25
100
AcDbSpline
210
0.0
220
0.0
230
1.0
 70
     8
 71
     3
 72
    28
 73
    24
 74
     0
 42
0.00000001
 43
0.00000001
 40
0.0
 40
0.0
 40
0.0
 40
0.0
 40
0.0098682995168221
 40
0.0587611946567414
 40
0.1085732372560476
 40
0.1586993718607696
 40
0.2085114144600757
 40
0.2574043095999946
 40
0.3113160562094994
 40
0.3662694581412221
 40
0.4214490796790421
 40
0.4635509828354926
 40
0.5049279798336549
 40
0.5538208749735744
 40
0.6036329175728803
 40
0.6537590521776021
 40
0.703571094776908
 40
0.7524639899168275
 40
0.8013568850567468
 40
0.8511689276560528
 40
0.9012950622607746
 40
0.9511071048600805
 40
1.0
 40
1.0
 40
1.0
 40
1.0
 10
133.5349870264736
 20
147.4789602126347
 30
0.0
 10
133.5407896862748
 20
147.4777449254221
 30
0.0
 10
133.5753418623127
 20
147.4705084478156
 30
0.0
 10
133.4911263674745
 20
147.4573459742725
 30
0.0
 10
133.272716209639
 20
147.438149626579
 30
0.0
 10
132.8898464450884
 20
147.4187317431215
 30
0.0
 10
132.373707114461
 20
147.3995572626746
 30
0.0
 10
131.7156839581485
 20
147.3809666160253
 30
0.0
 10
130.9149283586127
 20
147.3616788308493
 30
0.0
 10
129.9740192930288
 20
147.3404537868096
 30
0.0
 10
129.0254820270085
 20
147.3207017100556
 30
0.0
 10
128.1252071255145
 20
147.3029885476145
 30
0.0
 10
127.2505260625089
 20
147.2869171765259
 30
0.0
 10
126.3244973726431
 20
147.2698199257286
 30
0.0
 10
125.3645718928323
 20
147.2506569029546
 30
0.0
 10
124.4471290739498
 20
147.2312290864656
 30
0.0
 10
123.6064467140919
 20
147.2120605837784
 30
0.0
 10
122.8629228303365
 20
147.1940675084111
 30
0.0
 10
122.2268369600992
 20
147.1760745745756
 30
0.0
 10
121.7093257083326
 20
147.1569056383798
 30
0.0
 10
121.3316802908629
 20
147.1374794240457
 30
0.0
 10
121.0939705363112
 20
147.1183104954285
 30
0.0
 10
121.0646558779187
 20
147.1062778367178
 30
0.0
 10
121.0501350388231
 20
147.1003175318529
 30
0.0
  0
SPLINE
  5
1F7
330
1F
100
AcDbEntity
  8
0
  6
Continuous
 62
     7
370
    25
100
AcDbSpline
210
0.0
220
0.0
230
1.0
 70
     8
 71
     3
 72
    24
 73
    20
 74
     0
 42
0.00000001
 43
0.00000001
 40
0.0
 40
0.0
 40
0.0
 40
0.0
 40
0.0408249141137838
 40
0.1008255724164989
 40
0.1620027205567676
 40
0.2231798686970362
 40
0.2831805269997514
 40
0.3431811853024665
 40
0.4043583334427351
 40
0.4655354815830039
 40
0.525536139885719
 40
0.5855367981884341
 40
0.6467139463287026
 40
0.7078910944689712
 40
0.7678917527716864
 40
0.8278924110744014
 40
0.88906955921467
 40
0.9502467073549387
 40
1.0
 40
1.0
 40
1.0
 40
1.0
 10
133.0932029504481
 20
152.2250169360545
 30
0.0
 10
133.1171269122227
 20
152.2199088157047
 30
0.0
 10
133.1762120858908
 20
152.2072932555885
 30
0.0
 10
133.0674060402836
 20
152.1870226172661
 30
0.0
 10
132.735413946493
 20
152.1628175378925
 30
0.0
 10
132.1883284962965
 20
152.1386124164075
 30
0.0
 10
131.458662096726
 20
152.1159425313321
 30
0.0
 10
130.571014317759
 20
152.0932726432162
 30
0.0
 10
129.5512601069547
 20
152.0690675310321
 30
0.0
 10
128.4438490591393
 20
152.0448624176352
 30
0.0
 10
127.3001366914699
 20
152.022192533088
 30
0.0
 10
126.1564143431096
 20
151.9995226348964
 30
0.0
 10
125.0490338257403
 20
151.9753175632369
 30
0.0
 10
124.0291679325958
 20
151.9511122983744
 30
0.0
 10
123.1419286243145
 20
151.9284429686696
 30
0.0
 10
122.4107342607455
 20
151.905770994749
 30
0.0
 10
121.8694605873547
 20
151.8815738184131
 30
0.0
 10
121.5357027263853
 20
151.8587010156837
 30
0.0
 10
121.4937212601899
 20
151.84480861208
 30
0.0
 10
121.4748921979551
 20
151.8385777450868
 30
0.0
  0
SPLINE
  5
1F8
330
1F
100
AcDbEntity
  8
0
  6
Continuous
 62
     7
370
    25
100
AcDbSpline
210
0.0
220
0.0
230
1.0
 70
     8
 71
     3
 72
    23
 73
    19
 74
     0
 42
0.00000001
 43
0.00000001
 40
0.0
 40
0.0
 40
0.0
 40
0.0
 40
0.0625505091252333
 40
0.1263317784962855
 40
0.1901130478673378
 40
0.2526677478816549
 40
0.3152224478959719
 40
0.3790037172670241
 40
0.4427849866380765
 40
0.5053396866523936
 40
0.5678943866667104
 40
0.6316756560377628
 40
0.6954569254088151
 40
0.7580116254231322
 40
0.8205663254374489
 40
0.8843475948085012
 40
0.9481288641795536
 40
1.0
 40
1.0
 40
1.0
 40
1.0
 10
133.1441782547725
 20
151.4596910067584
 30
0.0
 10
133.1228242063735
 20
151.4521839475024
 30
0.0
 10
133.0796959417108
 20
151.4370221181207
 30
0.0
 10
132.7320896801125
 20
151.4128175285867
 30
0.0
 10
132.1892001406157
 20
151.3886124188476
 30
0.0
 10
131.4584306088286
 20
151.3659425306841
 30
0.0
 10
130.5710777030351
 20
151.3432726433936
 30
0.0
 10
129.5512429727044
 20
151.3190675309841
 30
0.0
 10
128.4438535518514
 20
151.2948624176478
 30
0.0
 10
127.300135498313
 20
151.2721925330846
 30
0.0
 10
126.1564146698161
 20
151.2495226348973
 30
0.0
 10
125.0490337374253
 20
151.2253175632367
 30
0.0
 10
124.0291679557526
 20
151.2011122983745
 30
0.0
 10
123.1419286181646
 20
151.1784429686695
 30
0.0
 10
122.4107342624296
 20
151.155770994749
 30
0.0
 10
121.8694605868988
 20
151.1315738184131
 30
0.0
 10
121.5357027264748
 20
151.1087010156837
 30
0.0
 10
121.4937212602177
 20
151.09480861208
 30
0.0
 10
121.4748921979551
 20
151.0885777450868
 30
0.0
  0
SPLINE
  5
1F9
330
1F
100
AcDbEntity
  8
0
  6
Continuous
 62
     7
370
    25
100
AcDbSpline
210
0.0
220
0.0
230
1.0
 70
     8
 71
     3
 72
    23
 73
    19
 74
     0
 42
0.00000001
 43
0.00000001
 40
0.0
 40
0.0
 40
0.0
 40
0.0
 40
0.0625505091252333
 40
0.1263317784962856
 40
0.1901130478673379
 40
0.2526677478816551
 40
0.3152224478959721
 40
0.3790037172670244
 40
0.4427849866380769
 40
0.5053396866523939
 40
0.5678943866667109
 40
0.6316756560377632
 40
0.6954569254088155
 40
0.7580116254231327
 40
0.8205663254374496
 40
0.8843475948085019
 40
0.9481288641795542
 40
1.0
 40
1.0
 40
1.0
 40
1.0
 10
133.1441782547725
 20
150.7096910067584
 30
0.0
 10
133.1228242063735
 20
150.7021839475024
 30
0.0
 10
133.0796959417108
 20
150.6870221181207
 30
0.0
 10
132.7320896801125
 20
150.6628175285867
 30
0.0
 10
132.1892001406157
 20
150.6386124188476
 30
0.0
 10
131.4584306088286
 20
150.6159425306841
 30
0.0
 10
130.5710777030351
 20
150.5932726433936
 30
0.0
 10
129.5512429727044
 20
150.5690675309841
 30
0.0
 10
128.4438535518514
 20
150.5448624176478
 30
0.0
 10
127.300135498313
 20
150.5221925330846
 30
0.0
 10
126.1564146698161
 20
150.4995226348973
 30
0.0
 10
125.0490337374253
 20
150.4753175632367
 30
0.0
 10
124.0291679557526
 20
150.4511122983745
 30
0.0
 10
123.1419286181646
 20
150.4284429686695
 30
0.0
 10
122.4107342624296
 20
150.405770994749
 30
0.0
 10
121.8694605868988
 20
150.3815738184131
 30
0.0
 10
121.5357027264748
 20
150.3587010156837
 30
0.0
 10
121.4937212602177
 20
150.34480861208
 30
0.0
 10
121.4748921979551
 20
150.3385777450868
 30
0.0
  0
SPLINE
  5
1FA
330
1F
100
AcDbEntity
  8
0
  6
Continuous
 62
     7
370
    25
100
AcDbSpline
210
0.0
220
0.0
230
1.0
 70
     8
 71
     3
 72
    23
 73
    19
 74
     0
 42
0.00000001
 43
0.00000001
 40
0.0
 40
0.0
 40
0.0
 40
0.0
 40
0.0625505091252333
 40
0.1263317784962856
 40
0.190113047867338
 40
0.2526677478816551
 40
0.3152224478959721
 40
0.3790037172670245
 40
0.4427849866380769
 40
0.505339686652394
 40
0.567894386666711
 40
0.6316756560377633
 40
0.6954569254088157
 40
0.7580116254231328
 40
0.8205663254374497
 40
0.884347594808502
 40
0.9481288641795543
 40
1.0
 40
1.0
 40
1.0
 40
1.0
 10
133.1441782547725
 20
149.9596910067584
 30
0.0
 10
133.1228242063735
 20
149.9521839475024
 30
0.0
 10
133.0796959417108
 20
149.9370221181207
 30
0.0
 10
132.7320896801125
 20
149.9128175285867
 30
0.0
 10
132.1892001406157
 20
149.8886124188476
 30
0.0
 10
131.4584306088286
 20
149.8659425306841
 30
0.0
 10
130.5710777030351
 20
149.8432726433936
 30
0.0
 10
129.5512429727044
 20
149.8190675309841
 30
0.0
 10
128.4438535518514
 20
149.7948624176478
 30
0.0
 10
127.300135498313
 20
149.7721925330846
 30
0.0
 10
126.1564146698161
 20
149.7495226348973
 30
0.0
 10
125.0490337374253
 20
149.7253175632367
 30
0.0
 10
124.0291679557526
 20
149.7011122983745
 30
0.0
 10
123.1419286181646
 20
149.6784429686695
 30
0.0
 10
122.4107342624296
 20
149.655770994749
 30
0.0
 10
121.8694605868988
 20
149.6315738184131
 30
0.0
 10
121.5357027264748
 20
149.6087010156837
 30
0.0
 10
121.4937212602177
 20
149.59480861208
 30
0.0
 10
121.4748921979551
 20
149.5885777450868
 30
0.0
  0
SPLINE
  5
1FB
330
1F
100
AcDbEntity
  8
0
  6
Continuous
 62
     7
370
    25
100
AcDbSpline
210
0.0
220
0.0
230
1.0
 70
     8
 71
     3
 72
    23
 73
    19
 74
     0
 42
0.00000001
 43
0.00000001
 40
0.0
 40
0.0
 40
0.0
 40
0.0
 40
0.062550509125234
 40
0.1263317784962861
 40
0.1901130478673383
 40
0.2526677478816554
 40
0.3152224478959723
 40
0.3790037172670244
 40
0.4427849866380767
 40
0.5053396866523937
 40
0.5678943866667105
 40
0.6316756560377628
 40
0.6954569254088149
 40
0.7580116254231319
 40
0.8205663254374487
 40
0.8843475948085009
 40
0.948128864179553
 40
1.0
 40
1.0
 40
1.0
 40
1.0
 10
133.1441782547725
 20
149.2096910067584
 30
0.0
 10
133.1228242063735
 20
149.2021839475024
 30
0.0
 10
133.0796959417108
 20
149.1870221181207
 30
0.0
 10
132.7320896801125
 20
149.1628175285867
 30
0.0
 10
132.1892001406157
 20
149.1386124188476
 30
0.0
 10
131.4584306088286
 20
149.1159425306841
 30
0.0
 10
130.5710777030351
 20
149.0932726433936
 30
0.0
 10
129.5512429727044
 20
149.0690675309841
 30
0.0
 10
128.4438535518514
 20
149.0448624176478
 30
0.0
 10
127.300135498313
 20
149.0221925330846
 30
0.0
 10
126.1564146698161
 20
148.9995226348973
 30
0.0
 10
125.0490337374253
 20
148.9753175632367
 30
0.0
 10
124.0291679557526
 20
148.9511122983745
 30
0.0
 10
123.1419286181646
 20
148.9284429686695
 30
0.0
 10
122.4107342624296
 20
148.905770994749
 30
0.0
 10
121.8694605868988
 20
148.8815738184131
 30
0.0
 10
121.5357027264748
 20
148.8587010156837
 30
0.0
 10
121.4937212602177
 20
148.84480861208
 30
0.0
 10
121.4748921979551
 20
148.8385777450868
 30
0.0
  0
SPLINE
  5
1FC
330
1F
100
AcDbEntity
  8
0
  6
Continuous
 62
     7
370
    25
100
AcDbSpline
210
0.0
220
0.0
230
1.0
 70
     8
 71
     3
 72
    23
 73
    19
 74
     0
 42
0.00000001
 43
0.00000001
 40
0.0
 40
0.0
 40
0.0
 40
0.0
 40
0.062550509125234
 40
0.1263317784962861
 40
0.1901130478673383
 40
0.2526677478816554
 40
0.3152224478959723
 40
0.3790037172670244
 40
0.4427849866380767
 40
0.5053396866523937
 40
0.5678943866667105
 40
0.6316756560377628
 40
0.6954569254088149
 40
0.7580116254231319
 40
0.8205663254374487
 40
0.8843475948085009
 40
0.948128864179553
 40
1.0
 40
1.0
 40
1.0
 40
1.0
 10
133.1441782547725
 20
148.4596910067584
 30
0.0
 10
133.1228242063735
 20
148.4521839475024
 30
0.0
 10
133.0796959417108
 20
148.4370221181207
 30
0.0
 10
132.7320896801125
 20
148.4128175285867
 30
0.0
 10
132.1892001406157
 20
148.3886124188476
 30
0.0
 10
131.4584306088286
 20
148.3659425306841
 30
0.0
 10
130.5710777030351
 20
148.3432726433936
 30
0.0
 10
129.5512429727044
 20
148.3190675309841
 30
0.0
 10
128.4438535518514
 20
148.2948624176478
 30
0.0
 10
127.300135498313
 20
148.2721925330846
 30
0.0
 10
126.1564146698161
 20
148.2495226348973
 30
0.0
 10
125.0490337374253
 20
148.2253175632367
 30
0.0
 10
124.0291679557526
 20
148.2011122983745
 30
0.0
 10
123.1419286181646
 20
148.1784429686695
 30
0.0
 10
122.4107342624296
 20
148.155770994749
 30
0.0
 10
121.8694605868988
 20
148.1315738184131
 30
0.0
 10
121.5357027264748
 20
148.1087010156837
 30
0.0
 10
121.4937212602177
 20
148.09480861208
 30
0.0
 10
121.4748921979551
 20
148.0885777450868
 30
0.0
  0
SPLINE
  5
1FD
330
1F
100
AcDbEntity
  8
0
  6
Continuous
 62
     7
370
    25
100
AcDbSpline
210
0.0
220
0.0
230
1.0
 70
     8
 71
     3
 72
    23
 73
    19
 74
     0
 42
0.00000001
 43
0.00000001
 40
0.0
 40
0.0
 40
0.0
 40
0.0
 40
0.062550509125234
 40
0.1263317784962861
 40
0.1901130478673383
 40
0.2526677478816554
 40
0.3152224478959723
 40
0.3790037172670244
 40
0.4427849866380767
 40
0.5053396866523937
 40
0.5678943866667105
 40
0.6316756560377628
 40
0.6954569254088149
 40
0.7580116254231319
 40
0.8205663254374487
 40
0.8843475948085009
 40
0.948128864179553
 40
1.0
 40
1.0
 40
1.0
 40
1.0
 10
133.1441782547725
 20
147.7096910067584
 30
0.0
 10
133.1228242063735
 20
147.7021839475024
 30
0.0
 10
133.0796959417108
 20
147.6870221181207
 30
0.0
 10
132.7320896801125
 20
147.6628175285867
 30
0.0
 10
132.1892001406157
 20
147.6386124188476
 30
0.0
 10
131.4584306088286
 20
147.6159425306841
 30
0.0
 10
130.5710777030351
 20
147.5932726433936
 30
0.0
 10
129.5512429727044
 20
147.5690675309841
 30
0.0
 10
128.4438535518514
 20
147.5448624176478
 30
0.0
 10
127.300135498313
 20
147.5221925330846
 30
0.0
 10
126.1564146698161
 20
147.4995226348973
 30
0.0
 10
125.0490337374253
 20
147.4753175632367
 30
0.0
 10
124.0291679557526
 20
147.4511122983745
 30
0.0
 10
123.1419286181646
 20
147.4284429686695
 30
0.0
 10
122.4107342624296
 20
147.405770994749
 30
0.0
 10
121.8694605868988
 20
147.3815738184131
 30
0.0
 10
121.5357027264748
 20
147.3587010156837
 30
0.0
 10
121.4937212602177
 20
147.34480861208
 30
0.0
 10
121.4748921979551
 20
147.3385777450868
 30
0.0
  0
LINE
  5
1FE
330
1F
100
AcDbEntity
  8
0
  6
Continuous
 62
     7
370
    25
100
AcDbLine
 10
132.7221135071
 20
151.8190675298
 30
0.0
 11
128.9357977477
 21
151.8190675298
 31
0.0
  0
SPLINE
  5
1FF
330
1F
100
AcDbEntity
  8
0
  6
Continuous
 62
     7
370
    25
100
AcDbSpline
210
0.0
220
0.0
230
1.0
 70
    24
 71
     3
 72
    17
 73
    13
 74
     0
 42
0.00000001
 43
0.00000001
 40
0.0
 40
0.0
 40
0.0
 40
0.0
 40
0.0446715121679667
 40
0.1341536716361566
 40
0.2251601929385536
 40
0.3407174713180848
 40
0.4562747496976282
 40
0.5751831969785838
 40
0.690740475358127
 40
0.8062977537376698
 40
0.9218550321172128
 40
1.0
 40
1.0
 40
1.0
 40
1.0
 10
128.0703892264849
 20
152.2250169360545
 30
0.0
 10
128.1940515390029
 20
152.2250169360545
 30
0.0
 10
128.5654236386293
 20
152.2250169360545
 30
0.0
 10
129.1759229047609
 20
152.2250169360545
 30
0.0
 10
129.9445371682338
 20
152.2250169360545
 30
0.0
 10
130.7221422768165
 20
152.2250169360545
 30
0.0
 10
131.4716795446681
 20
152.2250169360545
 30
0.0
 10
132.1034579530299
 20
152.2250169360545
 30
0.0
 10
132.6001257867966
 20
152.2250169360545
 30
0.0
 10
132.9427587424476
 20
152.2250169360545
 30
0.0
 10
133.1200045111935
 20
152.2250169360545
 30
0.0
 10
133.1351333991575
 20
152.2250169360545
 30
0.0
 10
133.1412368207072
 20
152.2250169360545
 30
0.0
  0
LINE
  5
200
330
1F
100
AcDbEntity
  8
0
  6
Continuous
 62
     7
370
    25
100
AcDbLine
 10
121.5501350388
 20
152.3190675298
 30
0.0
 11
133.0501350388
 21
152.3190675298
 31
0.0
  0
SPLINE
  5
201
330
1F
100
AcDbEntity
  8
0
  6
Continuous
 62
     7
370
    25
100
AcDbSpline
210
0.0
220
0.0
230
1.0
 70
     8
 71
     3
 72
     8
 73
     4
 74
     0
 42
0.00000001
 43
0.00000001
 40
0.0
 40
0.0
 40
0.0
 40
0.0
 40
0.0002416894103821
 40
0.0002416894103821
 40
0.0002416894103821
 40
0.0002416894103821
 10
155.9895266607622
 20
122.3465743376714
 30
0.0
 10
155.9849450803382
 20
122.3738988013982
 30
0.0
 10
155.9801254739813
 20
122.4012973678721
 30
0.0
 10
155.9750553649139
 20
122.4287387645838
 30
0.0
  0
ARC
  5
202
330
1F
100
AcDbEntity
  8
0
  6
Continuous
 62
     7
370
    25
100
AcDbCircle
 10
155.262257202
 20
123.1471322938
 30
0.0
 40
1.081579357580001
100
AcDbArc
 50
265.3797692815
 51
312.2536785147
  0
ARC
  5
203
330
1F
100
AcDbEntity
  8
0
  6
Continuous
 62
     7
370
    25
100
AcDbCircle
 10
155.262257202
 20
135.4910027658
 30
0.0
 40
1.081579357580081
100
AcDbArc
 50
47.7463214853
 51
94.6202307185
  0
SPLINE
  5
204
330
1F
100
AcDbEntity
  8
0
  6
Continuous
 62
     7
370
    25
100
AcDbSpline
210
0.0
220
0.0
230
1.0
 70
     8
 71
     3
 72
     8
 73
     4
 74
     0
 42
0.00000001
 43
0.00000001
 40
0.0000000000000002
 40
0.0000000000000002
 40
0.0000000000000002
 40
0.0000000000000002
 40
0.0002416894103824
 40
0.0002416894103824
 40
0.0002416894103824
 40
0.0002416894103824
 10
155.9750553649138
 20
136.2093962950251
 30
0.0
 10
155.9801254739812
 20
136.2368376917368
 30
0.0
 10
155.9849450803383
 20
136.2642362582106
 30
0.0
 10
155.9895266607623
 20
136.2915607219375
 30
0.0
  0
LINE
  5
205
330
1F
100
AcDbEntity
  8
0
  6
Continuous
 62
     7
370
    25
100
AcDbLine
 10
155.1751350388
 20
121.3190675298
 30
0.0
 11
155.1751350388
 21
122.0690675298
 31
0.0
  0
SPLINE
  5
206
330
1F
100
AcDbEntity
  8
0
  6
Continuous
 62
     7
370
    25
100
AcDbSpline
210
0.0
220
0.0
230
1.0
 70
     8
 71
     3
 72
    10
 73
     6
 74
     0
 42
0.00000001
 43
0.00000001
 40
0.0
 40
0.0
 40
0.0
 40
0.0
 40
0.5
 40
0.5
 40
1.0
 40
1.0
 40
1.0
 40
1.0
 10
155.9895266607622
 20
121.8740811455383
 30
0.0
 10
156.0107386736053
 20
121.9280674599356
 30
0.0
 10
156.0169492159121
 20
121.9913499902785
 30
0.0
 10
156.0169492159121
 20
122.1508265692666
 30
0.0
 10
156.0107386736055
 20
122.2449525208697
 30
0.0
 10
155.9895266607624
 20
122.3465743376715
 30
0.0
  0
ARC
  5
207
330
1F
100
AcDbEntity
  8
0
  6
Continuous
 62
     7
370
    25
100
AcDbCircle
 10
155.1751350388
 20
122.1940675298
 30
0.0
 40
0.8750000000000046
100
AcDbArc
 50
270.0
 51
338.5494102519
  0
LINE
  5
208
330
1F
100
AcDbEntity
  8
0
  6
Continuous
 62
     7
370
    25
100
AcDbLine
 10
155.1751350388
 20
121.3190675298
 30
0.0
 11
149.8001350388
 21
121.3190675298
 31
0.0
  0
LINE
  5
209
330
1F
100
AcDbEntity
  8
0
  6
Continuous
 62
     7
370
    25
100
AcDbLine
 10
149.8001350388
 20
122.0690675298
 30
0.0
 11
149.8001350388
 21
121.3190675298
 31
0.0
  0
LINE
  5
20A
330
1F
100
AcDbEntity
  8
0
  6
Continuous
 62
     7
370
    25
100
AcDbLine
 10
148.9251350388
 20
122.1940675298
 30
0.0
 11
148.9251350388
 21
122.5065675298
 31
0.0
  0
ARC
  5
20B
330
1F
100
AcDbEntity
  8
0
  6
Continuous
 62
     7
370
    25
100
AcDbCircle
 10
149.8001350388
 20
122.1940675298
 30
0.0
 40
0.875
100
AcDbArc
 50
180.0
 51
270.0
  0
LINE
  5
20C
330
1F
100
AcDbEntity
  8
0
  6
Continuous
 62
     7
370
    25
100
AcDbLine
 10
155.1751350388
 20
136.5690675298
 30
0.0
 11
155.1751350388
 21
137.3190675298
 31
0.0
  0
ARC
  5
20D
330
1F
100
AcDbEntity
  8
0
  6
Continuous
 62
     7
370
    25
100
AcDbCircle
 10
155.1751350388
 20
136.4440675298
 30
0.0
 40
0.875
100
AcDbArc
 50
21.4505897481
 51
90.0
  0
SPLINE
  5
20E
330
1F
100
AcDbEntity
  8
0
  6
Continuous
 62
     7
370
    25
100
AcDbSpline
210
0.0
220
0.0
230
1.0
 70
     8
 71
     3
 72
    10
 73
     6
 74
     0
 42
0.00000001
 43
0.00000001
 40
0.0
 40
0.0
 40
0.0
 40
0.0
 40
0.5
 40
0.5
 40
1.0
 40
1.0
 40
1.0
 40
1.0
 10
155.9895266607622
 20
136.2915607219376
 30
0.0
 10
156.0107386736053
 20
136.3931825387394
 30
0.0
 10
156.0169492159121
 20
136.4873084903423
 30
0.0
 10
156.0169492159121
 20
136.6467850693304
 30
0.0
 10
156.0107386736055
 20
136.7100675996732
 30
0.0
 10
155.9895266607624
 20
136.7640539140705
 30
0.0
  0
LINE
  5
20F
330
1F
100
AcDbEntity
  8
0
  6
Continuous
 62
     7
370
    25
100
AcDbLine
 10
149.8001350388
 20
137.3190675298
 30
0.0
 11
149.8001350388
 21
136.5690675298
 31
0.0
  0
LINE
  5
210
330
1F
100
AcDbEntity
  8
0
  6
Continuous
 62
     7
370
    25
100
AcDbLine
 10
149.8001350388
 20
137.3190675298
 30
0.0
 11
155.1751350388
 21
137.3190675298
 31
0.0
  0
LINE
  5
211
330
1F
100
AcDbEntity
  8
0
  6
Continuous
 62
     7
370
    25
100
AcDbLine
 10
148.9251350388
 20
136.1315675298
 30
0.0
 11
148.9251350388
 21
136.4440675298
 31
0.0
  0
ARC
  5
212
330
1F
100
AcDbEntity
  8
0
  6
Continuous
 62
     7
370
    25
100
AcDbCircle
 10
149.8001350388
 20
136.4440675298
 30
0.0
 40
0.875
100
AcDbArc
 50
90.0
 51
180.0
  0
ARC
  5
213
330
1F
100
AcDbEntity
  8
0
  6
Continuous
 62
     7
370
    25
100
AcDbCircle
 10
148.4376240339
 20
122.1820059365
 30
0.0
 40
0.4876601910528018
100
AcDbArc
 50
1.4172755605
 51
90.1094302369
  0
ARC
  5
214
330
1F
100
AcDbEntity
  8
0
  6
Continuous
 62
     7
370
    25
100
AcDbCircle
 10
148.4376240339
 20
136.4561291231
 30
0.0
 40
0.4876601910527727
100
AcDbArc
 50
269.8905697631
 51
358.5827244395
  0
SPLINE
  5
215
330
1F
100
AcDbEntity
  8
0
  6
Continuous
 62
     7
370
    25
100
AcDbSpline
210
0.0
220
0.0
230
1.0
 70
     8
 71
     3
 72
     8
 73
     4
 74
     0
 42
0.00000001
 43
0.00000001
 40
0.0
 40
0.0
 40
0.0
 40
0.0
 40
1.0
 40
1.0
 40
1.0
 40
1.0
 10
119.8739351779369
 20
133.8143418002913
 30
0.0
 10
119.6164056910293
 20
132.7863446805409
 30
0.0
 10
119.3554850004028
 20
131.7555061835965
 30
0.0
 10
119.0804057274965
 20
130.7312652001765
 30
0.0
  0
ARC
  5
216
330
1F
100
AcDbEntity
  8
0
  6
Continuous
 62
     7
370
    25
100
AcDbCircle
 10
156.4817519308
 20
136.4660585991
 30
0.0
 40
0.5679937924534061
100
AcDbArc
 50
206.8640581284
 51
265.9072910924
  0
ARC
  5
217
330
1F
100
AcDbEntity
  8
0
  6
Continuous
 62
     7
370
    25
100
AcDbCircle
 10
156.4817519308
 20
122.1720764605
 30
0.0
 40
0.5679937924532811
100
AcDbArc
 50
94.0927089075
 51
153.1359418716
  0
ARC
  5
218
330
1F
100
AcDbEntity
  8
0
  6
Continuous
 62
     7
370
    25
100
AcDbCircle
 10
156.4967826809
 20
136.5278515686
 30
0.0
 40
0.5595909525679498
100
AcDbArc
 50
204.9771239963
 51
268.9670936738
  0
ARC
  5
219
330
1F
100
AcDbEntity
  8
0
  6
Continuous
 62
     7
370
    25
100
AcDbCircle
 10
156.4967826809
 20
122.110283491
 30
0.0
 40
0.5595909525678832
100
AcDbArc
 50
91.0329063262
 51
155.0228760037
  0
ARC
  5
21A
330
1F
100
AcDbEntity
  8
0
  6
Continuous
 62
     7
370
    25
100
AcDbCircle
 10
156.4070107929
 20
121.6895117702
 30
0.0
 40
0.4564634211955023
100
AcDbArc
 50
79.9464249272
 51
156.1498196092
  0
ARC
  5
21B
330
1F
100
AcDbEntity
  8
0
  6
Continuous
 62
     7
370
    25
100
AcDbCircle
 10
156.4070107929
 20
136.9486232894
 30
0.0
 40
0.4564634211955456
100
AcDbArc
 50
203.8501803908
 51
280.0535750728
  0
ARC
  5
21C
330
1F
100
AcDbEntity
  8
0
  6
Continuous
 62
     7
370
    25
100
AcDbCircle
 10
156.3801627434
 20
121.6422183184
 30
0.0
 40
0.4505695812529695
100
AcDbArc
 50
82.212595
 51
154.0400951235
  0
ARC
  5
21D
330
1F
100
AcDbEntity
  8
0
  6
Continuous
 62
     7
370
    25
100
AcDbCircle
 10
156.3801627434
 20
136.9959167412
 30
0.0
 40
0.4505695812529004
100
AcDbArc
 50
205.9599048765
 51
277.787405
  0
SPLINE
  5
21E
330
1F
100
AcDbEntity
  8
0
  6
Continuous
 62
     7
370
    25
100
AcDbSpline
210
0.0
220
0.0
230
1.0
 70
     8
 71
     3
 72
     8
 73
     4
 74
     0
 42
0.00000001
 43
0.00000001
 40
0.0
 40
0.0
 40
0.0
 40
0.0
 40
0.0001055072942852
 40
0.0001055072942852
 40
0.0001055072942852
 40
0.0001055072942852
 10
155.9694532337049
 20
121.8262775866091
 30
0.0
 10
155.9712481491854
 20
121.8306785087139
 30
0.0
 10
155.9731134534063
 20
121.8350711382499
 30
0.0
 10
155.9750553649139
 20
121.8394515799273
 30
0.0
  0
SPLINE
  5
21F
330
1F
100
AcDbEntity
  8
0
  6
Continuous
 62
     7
370
    25
100
AcDbSpline
210
0.0
220
0.0
230
1.0
 70
     8
 71
     3
 72
    14
 73
    10
 74
     0
 42
0.00000001
 43
0.00000001
 40
0.0
 40
0.0
 40
0.0
 40
0.0
 40
0.2499999999999999
 40
0.2499999999999999
 40
0.4999999999999998
 40
0.4999999999999998
 40
0.7499999999999999
 40
0.7499999999999999
 40
1.0
 40
1.0
 40
1.0
 40
1.0
 10
155.9694532337049
 20
121.8262775866091
 30
0.0
 10
155.9384264176108
 20
121.7502034748912
 30
0.0
 10
155.9291641859747
 20
121.6781722611234
 30
0.0
 10
155.9266928278753
 20
121.5520463984993
 30
0.0
 10
155.9344236297748
 20
121.4975309025694
 30
0.0
 10
155.9582558325903
 20
121.409289429337
 30
0.0
 10
155.9744752027523
 20
121.3756142142914
 30
0.0
 10
156.0104633073895
 20
121.3304985832541
 30
0.0
 10
156.0303710792955
 20
121.3190675298045
 30
0.0
 10
156.0501350388233
 20
121.3190675298045
 30
0.0
  0
SPLINE
  5
220
330
1F
100
AcDbEntity
  8
0
  6
Continuous
 62
     7
370
    25
100
AcDbSpline
210
0.0
220
0.0
230
1.0
 70
    24
 71
     3
 72
    16
 73
    12
 74
     0
 42
0.00000001
 43
0.00000001
 40
0.0
 40
0.0
 40
0.0
 40
0.0
 40
0.25
 40
0.25
 40
0.5
 40
0.5
 40
0.75
 40
0.75
 40
0.875
 40
0.875
 40
1.0
 40
1.0
 40
1.0
 40
1.0
 10
155.1751350388233
 20
121.3190675298045
 30
0.0
 10
155.1751350388233
 20
121.3190675298045
 30
0.0
 10
155.2091326232147
 20
121.3190675298045
 30
0.0
 10
155.3140699121281
 20
121.3190675298045
 30
0.0
 10
155.3857133490237
 20
121.3190675298045
 30
0.0
 10
155.5513289376919
 20
121.3190675298045
 30
0.0
 10
155.6451866261516
 20
121.3190675298045
 30
0.0
 10
155.793282851663
 20
121.3190675298045
 30
0.0
 10
155.8439128975667
 20
121.3190675298045
 30
0.0
 10
155.9464136548284
 20
121.3190675298045
 30
0.0
 10
155.9985558779971
 20
121.3190675298045
 30
0.0
 10
156.0501350388233
 20
121.3190675298045
 30
0.0
  0
ARC
  5
221
330
1F
100
AcDbEntity
  8
0
  6
Continuous
 62
     7
370
    25
100
AcDbCircle
 10
156.3719228564
 20
121.6197753273
 30
0.0
 40
0.4523549273223245
100
AcDbArc
 50
83.505025332
 51
152.8381933586
  0
SPLINE
  5
222
330
1F
100
AcDbEntity
  8
0
  6
Continuous
 62
     7
370
    25
100
AcDbSpline
210
0.0
220
0.0
230
1.0
 70
     8
 71
     3
 72
    14
 73
    10
 74
     0
 42
0.00000001
 43
0.00000001
 40
0.0
 40
0.0
 40
0.0
 40
0.0
 40
0.25
 40
0.25
 40
0.5
 40
0.5
 40
0.75
 40
0.75
 40
1.0
 40
1.0
 40
1.0
 40
1.0
 10
155.9694532337058
 20
136.8118574729976
 30
0.0
 10
155.9384264176122
 20
136.8879315847131
 30
0.0
 10
155.9291641859756
 20
136.9599627984789
 30
0.0
 10
155.9266928278747
 20
137.0860886611004
 30
0.0
 10
155.9344236297732
 20
137.1406041570297
 30
0.0
 10
155.9582558325866
 20
137.2288456302623
 30
0.0
 10
155.9744752027476
 20
137.2625208453089
 30
0.0
 10
156.0104633073829
 20
137.3076364763494
 30
0.0
 10
156.0303710792992
 20
137.3190675298045
 30
0.0
 10
156.0501350388233
 20
137.3190675298045
 30
0.0
  0
SPLINE
  5
223
330
1F
100
AcDbEntity
  8
0
  6
Continuous
 62
     7
370
    25
100
AcDbSpline
210
0.0
220
0.0
230
1.0
 70
     8
 71
     3
 72
     8
 73
     4
 74
     0
 42
0.00000001
 43
0.00000001
 40
0.0
 40
0.0
 40
0.0
 40
0.0
 40
0.0001055072942668
 40
0.0001055072942668
 40
0.0001055072942668
 40
0.0001055072942668
 10
155.9750553649139
 20
136.7986834796816
 30
0.0
 10
155.9731134534067
 20
136.8030639213582
 30
0.0
 10
155.9712481491858
 20
136.8074565508935
 30
0.0
 10
155.9694532337056
 20
136.8118574729976
 30
0.0
  0
SPLINE
  5
224
330
1F
100
AcDbEntity
  8
0
  6
Continuous
 62
     7
370
    25
100
AcDbSpline
210
0.0
220
0.0
230
1.0
 70
    24
 71
     3
 72
    16
 73
    12
 74
     0
 42
0.00000001
 43
0.00000001
 40
0.0
 40
0.0
 40
0.0
 40
0.0
 40
0.25
 40
0.25
 40
0.5
 40
0.5
 40
0.75
 40
0.75
 40
0.875
 40
0.875
 40
1.0
 40
1.0
 40
1.0
 40
1.0
 10
155.1751350388233
 20
137.3190675298045
 30
0.0
 10
155.1751350388233
 20
137.3190675298045
 30
0.0
 10
155.2091326232147
 20
137.3190675298045
 30
0.0
 10
155.3140699121281
 20
137.3190675298045
 30
0.0
 10
155.3857133490237
 20
137.3190675298045
 30
0.0
 10
155.5513289376919
 20
137.3190675298045
 30
0.0
 10
155.6451866261516
 20
137.3190675298045
 30
0.0
 10
155.793282851663
 20
137.3190675298045
 30
0.0
 10
155.8439128975667
 20
137.3190675298045
 30
0.0
 10
155.9464136548284
 20
137.3190675298045
 30
0.0
 10
155.9985558779893
 20
137.3190675298045
 30
0.0
 10
156.0501350388233
 20
137.3190675298045
 30
0.0
  0
ARC
  5
225
330
1F
100
AcDbEntity
  8
0
  6
Continuous
 62
     7
370
    25
100
AcDbCircle
 10
156.3719228564
 20
137.0183597323
 30
0.0
 40
0.4523549273215297
100
AcDbArc
 50
207.1618066412
 51
276.4949746679
  0
SPLINE
  5
226
330
1F
100
AcDbEntity
  8
0
  6
Continuous
 62
     7
370
    25
100
AcDbSpline
210
0.0
220
0.0
230
1.0
 70
     8
 71
     3
 72
    12
 73
     8
 74
     0
 42
0.00000001
 43
0.00000001
 40
0.0
 40
0.0
 40
0.0
 40
0.0
 40
0.2499999999999999
 40
0.2499999999999999
 40
0.4999999999999998
 40
0.4999999999999998
 40
1.0
 40
1.0
 40
1.0
 40
1.0
 10
156.4230914673588
 20
136.5689081180566
 30
0.0
 10
156.3671329115075
 20
136.6907097256521
 30
0.0
 10
156.3274428387349
 20
136.7991467890958
 30
0.0
 10
156.2565689201771
 20
136.9867380045903
 30
0.0
 10
156.2267315217065
 20
137.0651847110261
 30
0.0
 10
156.1437623615555
 20
137.2544900335114
 30
0.0
 10
156.0971248742372
 20
137.3190675298045
 30
0.0
 10
156.0501350388233
 20
137.3190675298045
 30
0.0
  0
SPLINE
  5
227
330
1F
100
AcDbEntity
  8
0
  6
Continuous
 62
     7
370
    25
100
AcDbSpline
210
0.0
220
0.0
230
1.0
 70
     8
 71
     3
 72
    18
 73
    14
 74
     0
 42
0.00000001
 43
0.00000001
 40
0.0
 40
0.0
 40
0.0
 40
0.0
 40
0.25
 40
0.25
 40
0.5
 40
0.5
 40
0.75
 40
0.75
 40
0.8750000000000002
 40
0.8750000000000002
 40
0.9375000000000001
 40
0.9375000000000001
 40
1.0
 40
1.0
 40
1.0
 40
1.0
 10
156.4230914673573
 20
122.069226941549
 30
0.0
 10
156.3668899752508
 20
121.9468965492842
 30
0.0
 10
156.3274074621364
 20
121.8388933323609
 30
0.0
 10
156.2570188495966
 20
121.6525892364852
 30
0.0
 10
156.2272319919416
 20
121.5742061014521
 30
0.0
 10
156.1718722304123
 20
121.4476695655525
 30
0.0
 10
156.1463559471746
 20
121.3994087740982
 30
0.0
 10
156.109547130292
 20
121.3512375496824
 30
0.0
 10
156.0975353402004
 20
121.3391876187053
 30
0.0
 10
156.0796815109481
 20
121.327122683881
 30
0.0
 10
156.0737579192451
 20
121.324103219462
 30
0.0
 10
156.0619319128969
 20
121.320074842239
 30
0.0
 10
156.055972065241
 20
121.3190675298045
 30
0.0
 10
156.0501350388233
 20
121.3190675298045
 30
0.0
  0
ARC
  5
228
330
1F
100
AcDbEntity
  8
0
  6
Continuous
 62
     8
370
    25
100
AcDbCircle
 10
136.4660702065
 20
135.6569054806
 30
0.0
 40
3.562290699067749
100
AcDbArc
 50
151.8114117608
 51
188.0279570591
  0
ARC
  5
229
330
1F
100
AcDbEntity
  8
0
  6
Continuous
 62
     8
370
    25
100
AcDbCircle
 10
117.1641977892
 20
133.5927705572
 30
0.0
 40
3.295021615664107
100
AcDbArc
 50
12.0670096593
 51
22.6060007466
  0
LINE
  5
22A
330
1F
100
AcDbEntity
  8
0
  6
Continuous
 62
     8
370
    25
100
AcDbLine
 10
159.2318561188
 20
129.3190675298
 30
0.0
 11
159.2318561188
 21
141.8279577618
 31
0.0
  0
LINE
  5
22B
330
1F
100
AcDbEntity
  8
0
  6
Continuous
 62
     8
370
    25
100
AcDbLine
 10
159.2318561188
 20
116.8101772978
 30
0.0
 11
159.2318561188
 21
129.3190675298
 31
0.0
  0
LINE
  5
22C
330
1F
100
AcDbEntity
  8
0
  6
Continuous
 62
     8
370
    25
100
AcDbLine
 10
159.4568959317
 20
141.9690675298
 30
0.0
 11
159.4568959317
 21
116.6690675298
 31
0.0
  0
LINE
  5
22D
330
1F
100
AcDbEntity
  8
0
  6
Continuous
 62
     8
370
    25
100
AcDbLine
 10
161.0501350388
 20
116.6690675298
 30
0.0
 11
161.0501350388
 21
141.9690675298
 31
0.0
  0
LINE
  5
22E
330
1F
100
AcDbEntity
  8
0
  6
Continuous
 62
     8
370
    25
100
AcDbLine
 10
157.3232507188
 20
137.8835066017
 30
0.0
 11
157.3232507188
 21
120.7546284579
 31
0.0
  0
ARC
  5
22F
330
1F
100
AcDbEntity
  8
0
  6
Continuous
 62
     8
370
    25
100
AcDbCircle
 10
135.3593087072
 20
137.7664160022
 30
0.0
 40
4.174587757461242
100
AcDbArc
 50
253.9514102943
 51
296.9202031358
  0
ARC
  5
230
330
1F
100
AcDbEntity
  8
0
  6
Continuous
 62
     8
370
    25
100
AcDbCircle
 10
134.159370944
 20
119.5894517692
 30
0.0
 40
4.229579648024488
100
AcDbArc
 50
71.2222000141
 51
91.7919584135
  0
SPLINE
  5
231
330
1F
100
AcDbEntity
  8
0
  6
Continuous
 62
     8
370
    25
100
AcDbSpline
210
0.0
220
0.0
230
1.0
 70
     8
 71
     3
 72
    12
 73
     8
 74
     0
 42
0.00000001
 43
0.00000001
 40
0.0
 40
0.0
 40
0.0
 40
0.0
 40
0.1766700096133601
 40
0.3693787987693445
 40
0.5247928337707989
 40
0.7613316789436931
 40
1.0
 40
1.0
 40
1.0
 40
1.0
 10
148.9260424597842
 20
134.8252423002687
 30
0.0
 10
148.9291080834072
 20
134.6197073701595
 30
0.0
 10
148.9355176396972
 20
134.1899782624575
 30
0.0
 10
148.954499716676
 20
133.5308631959808
 30
0.0
 10
148.9592509268627
 20
132.7671251903305
 30
0.0
 10
148.9401286120601
 20
131.9083180798887
 30
0.0
 10
148.9301478050756
 20
131.2273664763817
 30
0.0
 10
148.9251350388232
 20
130.8853649505645
 30
0.0
  0
LINE
  5
232
330
1F
100
AcDbEntity
  8
0
  6
Continuous
 62
     8
370
    25
100
AcDbLine
 10
156.4230914674
 20
121.3190675298
 30
0.0
 11
156.4230914674
 21
122.0692269415
 31
0.0
  0
LINE
  5
233
330
1F
100
AcDbEntity
  8
0
  6
Continuous
 62
     8
370
    25
100
AcDbLine
 10
156.4230914674
 20
136.5689081181
 30
0.0
 11
156.4230914674
 21
137.3190675298
 31
0.0
  0
SPLINE
  5
234
330
1F
100
AcDbEntity
  8
0
  6
Continuous
 62
     8
370
    25
100
AcDbSpline
210
0.0
220
0.0
230
1.0
 70
     8
 71
     3
 72
    17
 73
    13
 74
     0
 42
0.00000001
 43
0.00000001
 40
0.0
 40
0.0
 40
0.0
 40
0.0
 40
0.0125201912050892
 40
0.2419887393244765
 40
0.3595300150585564
 40
0.4770127104489431
 40
0.6286463666443238
 40
0.7070945906515803
 40
0.785508355611527
 40
0.8849781509816396
 40
0.9872773696308544
 40
1.0
 40
1.0
 40
1.0
 40
1.0
 10
133.326275898255
 20
137.3396433468913
 30
0.0
 10
133.3364767359504
 20
137.3621250566704
 30
0.0
 10
133.5336372915312
 20
137.7966488205799
 30
0.0
 10
133.8252619855268
 20
138.4174664125274
 30
0.0
 10
134.1797884076659
 20
139.1506240176197
 30
0.0
 10
134.4553404875307
 20
139.7111252703323
 30
0.0
 10
134.6743003866754
 20
140.1499182603893
 30
0.0
 10
134.8333123944915
 20
140.4659917642007
 30
0.0
 10
134.9423804771667
 20
140.681762757935
 30
0.0
 10
135.0217071864603
 20
140.8380796243853
 30
0.0
 10
135.0581254235347
 20
140.9096697516304
 30
0.0
 10
135.0518755665677
 20
140.8973793828276
 30
0.0
 10
135.0511842664301
 20
140.8960199383333
 30
0.0
  0
LINE
  5
235
330
1F
100
AcDbEntity
  8
0
  6
Continuous
 62
     8
370
    25
100
AcDbLine
 10
119.2427896504
 20
133.8143418003
 30
0.0
 11
119.8739351779
 21
133.8143418003
 31
0.0
  0
LINE
  5
236
330
1F
100
AcDbEntity
  8
0
  6
Continuous
 62
     8
370
    25
100
AcDbLine
 10
134.2219278233
 20
122.827502231
 30
0.0
 11
134.2219278233
 21
122.6590260781
 31
0.0
  0
SPLINE
  5
237
330
1F
100
AcDbEntity
  8
0
  6
Continuous
 62
     8
370
    25
100
AcDbSpline
210
0.0
220
0.0
230
1.0
 70
     8
 71
     3
 72
    15
 73
    11
 74
     0
 42
0.00000001
 43
0.00000001
 40
0.0
 40
0.0
 40
0.0
 40
0.0
 40
0.0314511581987099
 40
0.1360252687601369
 40
0.2236353079516823
 40
0.3761608566556781
 40
0.5344713720692457
 40
0.6492559455040524
 40
0.7640922459273335
 40
1.0
 40
1.0
 40
1.0
 40
1.0
 10
140.1550604904235
 20
136.1099539897101
 30
0.0
 10
140.1578078549005
 20
136.111813817906
 30
0.0
 10
140.1696901197444
 20
136.1198575162845
 30
0.0
 10
140.0998007239256
 20
136.0725567068837
 30
0.0
 10
139.9298623383915
 20
135.9572197495521
 30
0.0
 10
139.6115902234262
 20
135.7401435596998
 30
0.0
 10
139.1625441370602
 20
135.4302865319044
 30
0.0
 10
138.6927823603565
 20
135.1006115832086
 30
0.0
 10
138.0856832224287
 20
134.6690625735822
 30
0.0
 10
137.5856608936205
 20
134.295470396744
 30
0.0
 10
137.2493497200929
 20
134.0441951712702
 30
0.0
  0
SPLINE
  5
238
330
1F
100
AcDbEntity
  8
0
  6
Continuous
 62
     8
370
    25
100
AcDbSpline
210
0.0
220
0.0
230
1.0
 70
     8
 71
     3
 72
    10
 73
     6
 74
     0
 42
0.00000001
 43
0.00000001
 40
0.0
 40
0.0
 40
0.0
 40
0.0
 40
0.4636124524036579
 40
0.9372878518976459
 40
1.0
 40
1.0
 40
1.0
 40
1.0
 10
148.4366926435383
 20
135.9684698214842
 30
0.0
 10
148.4433197714885
 20
136.0560904460045
 30
0.0
 10
148.456717872615
 20
136.2332335458347
 30
0.0
 10
148.4915648657375
 20
136.3297582205672
 30
0.0
 10
148.4841718693158
 20
136.3021923252452
 30
0.0
 10
148.4833075116539
 20
136.298969438141
 30
0.0
  0
SPLINE
  5
239
330
1F
100
AcDbEntity
  8
0
  6
Continuous
 62
     8
370
    25
100
AcDbSpline
210
0.0
220
0.0
230
1.0
 70
     8
 71
     3
 72
     9
 73
     5
 74
     0
 42
0.00000001
 43
0.00000001
 40
0.0
 40
0.0
 40
0.0
 40
0.0
 40
0.4611585452716277
 40
1.0
 40
1.0
 40
1.0
 40
1.0
 10
148.4833075116539
 20
122.339165621468
 30
0.0
 10
148.4785465356385
 20
122.3474680079811
 30
0.0
 10
148.468222589429
 20
122.3654713315631
 30
0.0
 10
148.4477331843679
 20
122.5631485553128
 30
0.0
 10
148.4366926435383
 20
122.6696652381248
 30
0.0
  0
ARC
  5
23A
330
1F
100
AcDbEntity
  8
0
  6
Continuous
 62
     8
370
    25
100
AcDbCircle
 10
134.1062771813
 20
117.7020375851
 30
0.0
 40
5.12676924651519
100
AcDbArc
 50
88.7074011947
 51
99.7814412622
  0
ARC
  5
23B
330
1F
100
AcDbEntity
  8
0
  6
Continuous
 62
     8
370
    25
100
AcDbCircle
 10
127.3001350388
 20
129.3190675298
 30
0.0
 40
8.340159003984168
100
AcDbArc
 50
209.7203830021
 51
227.6651165925
  0
LINE
  5
23C
330
1F
100
AcDbEntity
  8
0
  6
Continuous
 62
     8
370
    25
100
AcDbLine
 10
118.9982940542
 20
130.1176215219
 30
0.0
 11
119.0804057275
 21
130.7312652002
 31
0.0
  0
SPLINE
  5
23D
330
1F
100
AcDbEntity
  8
0
  6
Continuous
 62
     8
370
    25
100
AcDbSpline
210
0.0
220
0.0
230
1.0
 70
     8
 71
     3
 72
    10
 73
     6
 74
     0
 42
0.00000001
 43
0.00000001
 40
0.0
 40
0.0
 40
0.0
 40
0.0
 40
0.011389494893597
 40
0.4493929282414209
 40
1.0
 40
1.0
 40
1.0
 40
1.0
 10
119.0804057274934
 20
130.7312652001771
 30
0.0
 10
119.0816541258259
 20
130.7334200962711
 30
0.0
 10
119.1309119188608
 20
130.8184453827153
 30
0.0
 10
119.2405754684467
 20
131.0073244200005
 30
0.0
 10
119.3430527019218
 20
131.1914187099802
 30
0.0
 10
119.4001274438492
 20
131.2939501087562
 30
0.0
  0
ARC
  5
23E
330
1F
100
AcDbEntity
  8
0
  6
Continuous
 62
     8
370
    25
100
AcDbCircle
 10
116.9444025813
 20
132.8800969561
 30
0.0
 40
3.074894252432639
100
AcDbArc
 50
4.5726259943
 51
17.6877823431
  0
LINE
  5
23F
330
1F
100
AcDbEntity
  8
0
  6
Continuous
 62
     8
370
    25
100
AcDbLine
 10
119.0804057275
 20
130.7312652002
 30
0.0
 11
118.9182678399
 21
130.7312652002
 31
0.0
  0
ENDSEC
  0
SECTION
  2
OBJECTS
  0
DICTIONARY
  5
C
330
0
100
AcDbDictionary
281
     1
  3
ACAD_GROUP
350
D
  3
ACAD_LAYOUT
350
1A
  3
ACAD_MLINESTYLE
350
17
  3
ACAD_PLOTSETTINGS
350
19
  3
ACAD_PLOTSTYLENAME
350
E
  3
ACAD_SCALELIST
350
47
  3
DWGPROPS
350
240
  0
DICTIONARY
  5
D
102
{ACAD_REACTORS
330
C
102
}
330
C
100
AcDbDictionary
281
     1
  0
DICTIONARY
  5
1A
102
{ACAD_REACTORS
330
C
102
}
330
C
100
AcDbDictionary
281
     1
  3
Layout1
350
1E
  3
Layout2
350
26
  3
Model
350
22
  0
DICTIONARY
  5
17
102
{ACAD_REACTORS
330
C
102
}
330
C
100
AcDbDictionary
281
     1
  3
Standard
350
18
  0
DICTIONARY
  5
19
102
{ACAD_REACTORS
330
C
102
}
330
C
100
AcDbDictionary
281
     1
  0
ACDBDICTIONARYWDFLT
  5
E
102
{ACAD_REACTORS
330
C
102
}
330
C
100
AcDbDictionary
281
     1
  3
Normal
350
F
100
AcDbDictionaryWithDefault
340
F
  0
DICTIONARY
  5
47
102
{ACAD_REACTORS
330
C
102
}
330
C
100
AcDbDictionary
281
     1
  3
A0
350
48
  3
A1
350
49
  3
A2
350
4A
  3
A3
350
4B
  3
A4
350
4C
  3
A5
350
4D
  3
A6
350
4E
  3
A7
350
4F
  3
A8
350
50
  3
A9
350
51
  3
B0
350
52
  3
B1
350
53
  3
B2
350
54
  3
B3
350
55
  3
B4
350
56
  3
B5
350
57
  3
B6
350
58
  3
B7
350
59
  3
B8
350
5A
  3
B9
350
5B
  3
C0
350
5C
  3
C1
350
5D
  3
C2
350
5E
  3
C3
350
5F
  3
C4
350
60
  3
C5
350
61
  3
C6
350
62
  3
C7
350
63
  3
C8
350
64
  3
C9
350
65
  3
D0
350
66
  3
D1
350
67
  3
D2
350
68
  0
XRECORD
  5
240
102
{ACAD_REACTORS
330
C
102
}
330
C
100
AcDbXrecord
280
     1
  1
DWGPROPS COOKIE
  2

  3

  4

  6

  7

  8
vishesh
  9

300
=
301
=
302
=
303
=
304
=
305
=
306
=
307
=
308
=
309
=
 40
0.0
 41
2460383.50132816
 42
2460383.501328519
  1

 90
        0
  0
LAYOUT
  5
1E
102
{ACAD_REACTORS
330
1A
102
}
330
1A
100
AcDbPlotSettings
  1

  2
none_device
  4

  6

 40
0.0
 41
0.0
 42
0.0
 43
0.0
 44
0.0
 45
0.0
 46
0.0
 47
0.0
 48
0.0
 49
0.0
140
0.0
141
0.0
142
1.0
143
1.0
 70
   688
 72
     1
 73
     0
 74
     5
  7

 75
    16
147
1.0
148
0.0
149
0.0
100
AcDbLayout
  1
Layout1
 70
     1
 71
     1
 10
0.0
 20
0.0
 11
420.0
 21
297.0
 12
0.0
 22
0.0
 32
0.0
 14
1.0000000000E+20
 24
1.0000000000E+20
 34
1.0000000000E+20
 15
-1.0000000000E+20
 25
-1.0000000000E+20
 35
-1.0000000000E+20
146
0.0
 13
0.0
 23
0.0
 33
0.0
 16
1.0
 26
0.0
 36
0.0
 17
0.0
 27
1.0
 37
0.0
 76
     0
330
1B
  0
LAYOUT
  5
26
102
{ACAD_REACTORS
330
1A
102
}
330
1A
100
AcDbPlotSettings
  1

  2
none_device
  4

  6

 40
0.0
 41
0.0
 42
0.0
 43
0.0
 44
0.0
 45
0.0
 46
0.0
 47
0.0
 48
0.0
 49
0.0
140
0.0
141
0.0
142
1.0
143
1.0
 70
   688
 72
     1
 73
     0
 74
     5
  7

 75
    16
147
1.0
148
0.0
149
0.0
100
AcDbLayout
  1
Layout2
 70
     1
 71
     2
 10
0.0
 20
0.0
 11
0.0
 21
0.0
 12
0.0
 22
0.0
 32
0.0
 14
0.0
 24
0.0
 34
0.0
 15
0.0
 25
0.0
 35
0.0
146
0.0
 13
0.0
 23
0.0
 33
0.0
 16
1.0
 26
0.0
 36
0.0
 17
0.0
 27
1.0
 37
0.0
 76
     0
330
23
  0
LAYOUT
  5
22
102
{ACAD_REACTORS
330
1A
102
}
330
1A
100
AcDbPlotSettings
  1

  2
none_device
  4
Letter_(8.50_x_11.00_Inches)
  6

 40
6.35
 41
6.35
 42
6.35000508
 43
6.35000508
 44
215.9
 45
279.4
 46
0.0
 47
0.0
 48
0.0
 49
0.0
140
0.0
141
0.0
142
1.0
143
1.0
 70
  1712
 72
     1
 73
     0
 74
     0
  7

 75
     0
147
1.0
148
0.0
149
0.0
100
AcDbLayout
  1
Model
 70
     1
 71
     0
 10
0.0
 20
0.0
 11
279.4
 21
215.9
 12
0.0
 22
0.0
 32
0.0
 14
0.0
 24
0.0
 34
0.0
 15
279.4
 25
215.9
 35
0.0
146
0.0
 13
0.0
 23
0.0
 33
0.0
 16
1.0
 26
0.0
 36
0.0
 17
0.0
 27
1.0
 37
0.0
 76
     0
330
1F
331
29
  0
MLINESTYLE
  5
18
102
{ACAD_REACTORS
330
17
102
}
330
17
100
AcDbMlineStyle
  2
Standard
 70
     0
  3

 62
   256
 51
90.0
 52
90.0
 71
     2
 49
0.5
 62
   256
  6
BYLAYER
 49
-0.5
 62
   256
  6
BYLAYER
  0
ACDBPLACEHOLDER
  5
F
102
{ACAD_REACTORS
330
E
102
}
330
E
  0
SCALE
  5
48
102
{ACAD_REACTORS
330
47
102
}
330
47
100
AcDbScale
 70
     0
300
1:1
140
1.0
141
1.0
290
     1
  0
SCALE
  5
49
102
{ACAD_REACTORS
330
47
102
}
330
47
100
AcDbScale
 70
     0
300
1:2
140
1.0
141
2.0
290
     0
  0
SCALE
  5
4A
102
{ACAD_REACTORS
330
47
102
}
330
47
100
AcDbScale
 70
     0
300
1:4
140
1.0
141
4.0
290
     0
  0
SCALE
  5
4B
102
{ACAD_REACTORS
330
47
102
}
330
47
100
AcDbScale
 70
     0
300
1:5
140
1.0
141
5.0
290
     0
  0
SCALE
  5
4C
102
{ACAD_REACTORS
330
47
102
}
330
47
100
AcDbScale
 70
     0
300
1:8
140
1.0
141
8.0
290
     0
  0
SCALE
  5
4D
102
{ACAD_REACTORS
330
47
102
}
330
47
100
AcDbScale
 70
     0
300
1:10
140
1.0
141
10.0
290
     0
  0
SCALE
  5
4E
102
{ACAD_REACTORS
330
47
102
}
330
47
100
AcDbScale
 70
     0
300
1:16
140
1.0
141
16.0
290
     0
  0
SCALE
  5
4F
102
{ACAD_REACTORS
330
47
102
}
330
47
100
AcDbScale
 70
     0
300
1:20
140
1.0
141
20.0
290
     0
  0
SCALE
  5
50
102
{ACAD_REACTORS
330
47
102
}
330
47
100
AcDbScale
 70
     0
300
1:30
140
1.0
141
30.0
290
     0
  0
SCALE
  5
51
102
{ACAD_REACTORS
330
47
102
}
330
47
100
AcDbScale
 70
     0
300
1:40
140
1.0
141
40.0
290
     0
  0
SCALE
  5
52
102
{ACAD_REACTORS
330
47
102
}
330
47
100
AcDbScale
 70
     0
300
1:50
140
1.0
141
50.0
290
     0
  0
SCALE
  5
53
102
{ACAD_REACTORS
330
47
102
}
330
47
100
AcDbScale
 70
     0
300
1:100
140
1.0
141
100.0
290
     0
  0
SCALE
  5
54
102
{ACAD_REACTORS
330
47
102
}
330
47
100
AcDbScale
 70
     0
300
2:1
140
2.0
141
1.0
290
     0
  0
SCALE
  5
55
102
{ACAD_REACTORS
330
47
102
}
330
47
100
AcDbScale
 70
     0
300
4:1
140
4.0
141
1.0
290
     0
  0
SCALE
  5
56
102
{ACAD_REACTORS
330
47
102
}
330
47
100
AcDbScale
 70
     0
300
8:1
140
8.0
141
1.0
290
     0
  0
SCALE
  5
57
102
{ACAD_REACTORS
330
47
102
}
330
47
100
AcDbScale
 70
     0
300
10:1
140
10.0
141
1.0
290
     0
  0
SCALE
  5
58
102
{ACAD_REACTORS
330
47
102
}
330
47
100
AcDbScale
 70
     0
300
100:1
140
100.0
141
1.0
290
     0
  0
SCALE
  5
59
102
{ACAD_REACTORS
330
47
102
}
330
47
100
AcDbScale
 70
     0
300
1/128" = 1'-0"
140
0.0078125
141
12.0
290
     0
  0
SCALE
  5
5A
102
{ACAD_REACTORS
330
47
102
}
330
47
100
AcDbScale
 70
     0
300
1/64" = 1'-0"
140
0.015625
141
12.0
290
     0
  0
SCALE
  5
5B
102
{ACAD_REACTORS
330
47
102
}
330
47
100
AcDbScale
 70
     0
300
1/32" = 1'-0"
140
0.03125
141
12.0
290
     0
  0
SCALE
  5
5C
102
{ACAD_REACTORS
330
47
102
}
330
47
100
AcDbScale
 70
     0
300
1/16" = 1'-0"
140
0.0625
141
12.0
290
     0
  0
SCALE
  5
5D
102
{ACAD_REACTORS
330
47
102
}
330
47
100
AcDbScale
 70
     0
300
3/32" = 1'-0"
140
0.09375
141
12.0
290
     0
  0
SCALE
  5
5E
102
{ACAD_REACTORS
330
47
102
}
330
47
100
AcDbScale
 70
     0
300
1/8" = 1'-0"
140
0.125
141
12.0
290
     0
  0
SCALE
  5
5F
102
{ACAD_REACTORS
330
47
102
}
330
47
100
AcDbScale
 70
     0
300
3/16" = 1'-0"
140
0.1875
141
12.0
290
     0
  0
SCALE
  5
60
102
{ACAD_REACTORS
330
47
102
}
330
47
100
AcDbScale
 70
     0
300
1/4" = 1'-0"
140
0.25
141
12.0
290
     0
  0
SCALE
  5
61
102
{ACAD_REACTORS
330
47
102
}
330
47
100
AcDbScale
 70
     0
300
3/8" = 1'-0"
140
0.375
141
12.0
290
     0
  0
SCALE
  5
62
102
{ACAD_REACTORS
330
47
102
}
330
47
100
AcDbScale
 70
     0
300
1/2" = 1'-0"
140
0.5
141
12.0
290
     0
  0
SCALE
  5
63
102
{ACAD_REACTORS
330
47
102
}
330
47
100
AcDbScale
 70
     0
300
3/4" = 1'-0"
140
0.75
141
12.0
290
     0
  0
SCALE
  5
64
102
{ACAD_REACTORS
330
47
102
}
330
47
100
AcDbScale
 70
     0
300
1" = 1'-0"
140
1.0
141
12.0
290
     0
  0
SCALE
  5
65
102
{ACAD_REACTORS
330
47
102
}
330
47
100
AcDbScale
 70
     0
300
1-1/2" = 1'-0"
140
1.5
141
12.0
290
     0
  0
SCALE
  5
66
102
{ACAD_REACTORS
330
47
102
}
330
47
100
AcDbScale
 70
     0
300
3" = 1'-0"
140
3.0
141
12.0
290
     0
  0
SCALE
  5
67
102
{ACAD_REACTORS
330
47
102
}
330
47
100
AcDbScale
 70
     0
300
6" = 1'-0"
140
6.0
141
12.0
290
     0
  0
SCALE
  5
68
102
{ACAD_REACTORS
330
47
102
}
330
47
100
AcDbScale
 70
     0
300
1'-0" = 1'-0"
140
12.0
141
12.0
290
     0
  0
ENDSEC
  0
EOF
