  0
SECTION
  2
HEADER
  9
$ACADVER
  1
AC1015
  9
$ACADMAINTVER
 70
     6
  9
$DWGCODEPAGE
  3
ANSI_1252
  9
$INSBASE
 10
0.0
 20
0.0
 30
0.0
  9
$EXTMIN
 10
0.0
 20
0.0
 30
0.0
  9
$EXTMAX
 10
279.4
 20
215.9
 30
0.0
  9
$LIMMIN
 10
0.0
 20
0.0
  9
$LIMMAX
 10
279.4
 20
215.9
  9
$ORTHOMODE
 70
     0
  9
$REGENMODE
 70
     1
  9
$FILLMODE
 70
     1
  9
$QTEXTMODE
 70
     0
  9
$MIRRTEXT
 70
     1
  9
$LTSCALE
 40
1.0
  9
$ATTMODE
 70
     1
  9
$TEXTSIZE
 40
3.5
  9
$TRACEWID
 40
1.0
  9
$TEXTSTYLE
  7
Standard
  9
$CLAYER
  8
0
  9
$CELTYPE
  6
ByLayer
  9
$CECOLOR
 62
   256
  9
$CELTSCALE
 40
1.0
  9
$DISPSILH
 70
     0
  9
$DIMSCALE
 40
1.0
  9
$DIMASZ
 40
3.556
  9
$DIMEXO
 40
1.0
  9
$DIMDLI
 40
3.75
  9
$DIMRND
 40
0.0
  9
$DIMDLE
 40
0.0
  9
$DIMEXE
 40
1.0
  9
$DIMTP
 40
0.0
  9
$DIMTM
 40
0.0
  9
$DIMTXT
 40
3.5
  9
$DIMCEN
 40
2.5
  9
$DIMTSZ
 40
0.0
  9
$DIMTOL
 70
     0
  9
$DIMLIM
 70
     0
  9
$DIMTIH
 70
     1
  9
$DIMTOH
 70
     1
  9
$DIMSE1
 70
     0
  9
$DIMSE2
 70
     0
  9
$DIMTAD
 70
     1
  9
$DIMZIN
 70
     1
  9
$DIMBLK
  1

  9
$DIMASO
 70
     1
  9
$DIMSHO
 70
     1
  9
$DIMPOST
  1

  9
$DIMAPOST
  1

  9
$DIMALT
 70
     0
  9
$DIMALTD
 70
     3
  9
$DIMALTF
 40
0.0393700787
  9
$DIMLFAC
 40
10.0
  9
$DIMTOFL
 70
     1
  9
$DIMTVP
 40
0.0
  9
$DIMTIX
 70
     0
  9
$DIMSOXD
 70
     0
  9
$DIMSAH
 70
     0
  9
$DIMBLK1
  1

  9
$DIMBLK2
  1

  9
$DIMSTYLE
  2
ISO-25
  9
$DIMCLRD
 70
     0
  9
$DIMCLRE
 70
     0
  9
$DIMCLRT
 70
     0
  9
$DIMTFAC
 40
1.0
  9
$DIMGAP
 40
1.524
  9
$DIMJUST
 70
     0
  9
$DIMSD1
 70
     0
  9
$DIMSD2
 70
     0
  9
$DIMTOLJ
 70
     0
  9
$DIMTZIN
 70
     1
  9
$DIMALTZ
 70
     0
  9
$DIMALTTZ
 70
     0
  9
$DIMUPT
 70
     0
  9
$DIMDEC
 70
     2
  9
$DIMTDEC
 70
     2
  9
$DIMALTU
 70
     2
  9
$DIMALTTD
 70
     3
  9
$DIMTXSTY
  7
Standard
  9
$DIMAUNIT
 70
     0
  9
$DIMADEC
 70
     2
  9
$DIMALTRND
 40
0.0
  9
$DIMAZIN
 70
     0
  9
$DIMDSEP
 70
    44
  9
$DIMATFIT
 70
     3
  9
$DIMFRAC
 70
     0
  9
$DIMLDRBLK
  1

  9
$DIMLUNIT
 70
     2
  9
$DIMLWD
 70
    -2
  9
$DIMLWE
 70
    -2
  9
$DIMTMOVE
 70
     0
  9
$LUNITS
 70
     2
  9
$LUPREC
 70
     2
  9
$SKETCHINC
 40
1.0
  9
$FILLETRAD
 40
10.0
  9
$AUNITS
 70
     0
  9
$AUPREC
 70
     2
  9
$MENU
  1
.
  9
$ELEVATION
 40
0.0
  9
$PELEVATION
 40
0.0
  9
$THICKNESS
 40
0.0
  9
$LIMCHECK
 70
     0
  9
$CHAMFERA
 40
0.0
  9
$CHAMFERB
 40
0.0
  9
$CHAMFERC
 40
0.0
  9
$CHAMFERD
 40
0.0
  9
$SKPOLY
 70
     0
  9
$TDCREATE
 40
2460383.717192095
  9
$TDUCREATE
 40
2460383.488025428
  9
$TDUPDATE
 40
2460383.717192465
  9
$TDUUPDATE
 40
2460383.488025798
  9
$TDINDWG
 40
0.0000000116
  9
$TDUSRTIMER
 40
0.0000000116
  9
$USRTIMER
 70
     1
  9
$ANGBASE
 50
0.0
  9
$ANGDIR
 70
     0
  9
$PDMODE
 70
     0
  9
$PDSIZE
 40
-1.0
  9
$PLINEWID
 40
0.0
  9
$SPLFRAME
 70
     0
  9
$SPLINETYPE
 70
     6
  9
$SPLINESEGS
 70
     8
  9
$HANDSEED
  5
2CA
  9
$SURFTAB1
 70
     6
  9
$SURFTAB2
 70
     6
  9
$SURFTYPE
 70
     6
  9
$SURFU
 70
     6
  9
$SURFV
 70
     6
  9
$UCSBASE
  2

  9
$UCSNAME
  2

  9
$UCSORG
 10
0.0
 20
0.0
 30
0.0
  9
$UCSXDIR
 10
1.0
 20
0.0
 30
0.0
  9
$UCSYDIR
 10
0.0
 20
1.0
 30
0.0
  9
$UCSORTHOREF
  2

  9
$UCSORTHOVIEW
 70
     0
  9
$UCSORGTOP
 10
0.0
 20
0.0
 30
0.0
  9
$UCSORGBOTTOM
 10
0.0
 20
0.0
 30
0.0
  9
$UCSORGLEFT
 10
0.0
 20
0.0
 30
0.0
  9
$UCSORGRIGHT
 10
0.0
 20
0.0
 30
0.0
  9
$UCSORGFRONT
 10
0.0
 20
0.0
 30
0.0
  9
$UCSORGBACK
 10
0.0
 20
0.0
 30
0.0
  9
$PUCSBASE
  2

  9
$PUCSNAME
  2

  9
$PUCSORG
 10
0.0
 20
0.0
 30
0.0
  9
$PUCSXDIR
 10
1.0
 20
0.0
 30
0.0
  9
$PUCSYDIR
 10
0.0
 20
1.0
 30
0.0
  9
$PUCSORTHOREF
  2

  9
$PUCSORTHOVIEW
 70
     0
  9
$PUCSORGTOP
 10
0.0
 20
0.0
 30
0.0
  9
$PUCSORGBOTTOM
 10
0.0
 20
0.0
 30
0.0
  9
$PUCSORGLEFT
 10
0.0
 20
0.0
 30
0.0
  9
$PUCSORGRIGHT
 10
0.0
 20
0.0
 30
0.0
  9
$PUCSORGFRONT
 10
0.0
 20
0.0
 30
0.0
  9
$PUCSORGBACK
 10
0.0
 20
0.0
 30
0.0
  9
$USERI1
 70
     0
  9
$USERI2
 70
     0
  9
$USERI3
 70
     0
  9
$USERI4
 70
     0
  9
$USERI5
 70
     0
  9
$USERR1
 40
0.0
  9
$USERR2
 40
0.0
  9
$USERR3
 40
0.0
  9
$USERR4
 40
0.0
  9
$USERR5
 40
0.0
  9
$WORLDVIEW
 70
     1
  9
$SHADEDGE
 70
     3
  9
$SHADEDIF
 70
    70
  9
$TILEMODE
 70
     1
  9
$MAXACTVP
 70
    64
  9
$PINSBASE
 10
0.0
 20
0.0
 30
0.0
  9
$PLIMCHECK
 70
     0
  9
$PEXTMIN
 10
1.0000000000E+20
 20
1.0000000000E+20
 30
1.0000000000E+20
  9
$PEXTMAX
 10
-1.0000000000E+20
 20
-1.0000000000E+20
 30
-1.0000000000E+20
  9
$PLIMMIN
 10
0.0
 20
0.0
  9
$PLIMMAX
 10
420.0
 20
297.0
  9
$UNITMODE
 70
     0
  9
$VISRETAIN
 70
     1
  9
$PLINEGEN
 70
     0
  9
$PSLTSCALE
 70
     1
  9
$TREEDEPTH
 70
  3020
  9
$CMLSTYLE
  2
Standard
  9
$CMLJUST
 70
     0
  9
$CMLSCALE
 40
20.0
  9
$PROXYGRAPHICS
 70
     1
  9
$MEASUREMENT
 70
     1
  9
$CELWEIGHT
370
    -1
  9
$ENDCAPS
280
     0
  9
$JOINSTYLE
280
     0
  9
$LWDISPLAY
290
     1
  9
$INSUNITS
 70
     4
  9
$HYPERLINKBASE
  1

  9
$STYLESHEET
  1

  9
$XEDIT
290
     1
  9
$CEPSNTYPE
380
     0
  9
$PSTYLEMODE
290
     1
  9
$FINGERPRINTGUID
  2
{c7a6a2ea-38fe-4e55-9e7d-af50aaa26f09}
  9
$VERSIONGUID
  2
{FAEB1C32-E019-11D5-929B-00C0DF256EC4}
  9
$EXTNAMES
290
     1
  9
$PSVPSCALE
 40
0.0
  9
$OLESTARTUP
290
     0
  0
ENDSEC
  0
SECTION
  2
CLASSES
  0
CLASS
  1
ACDBDICTIONARYWDFLT
  2
AcDbDictionaryWithDefault
  3
ObjectDBX Classes
 90
        0
280
     0
281
     0
  0
CLASS
  1
VISUALSTYLE
  2
AcDbVisualStyle
  3
ObjectDBX Classes
 90
     4095
280
     0
281
     0
  0
CLASS
  1
MATERIAL
  2
AcDbMaterial
  3
ObjectDBX Classes
 90
     1153
280
     0
281
     0
  0
CLASS
  1
SCALE
  2
AcDbScale
  3
ObjectDBX Classes
 90
     1153
280
     0
281
     0
  0
CLASS
  1
TABLESTYLE
  2
AcDbTableStyle
  3
ObjectDBX Classes
 90
     4095
280
     0
281
     0
  0
CLASS
  1
MLEADERSTYLE
  2
AcDbMLeaderStyle
  3
ACDB_MLEADERSTYLE_CLASS
 90
     4095
280
     0
281
     0
  0
CLASS
  1
SUN
  2
AcDbSun
  3
SCENEOE
 90
     1153
280
     0
281
     0
  0
CLASS
  1
ACDBPLACEHOLDER
  2
AcDbPlaceHolder
  3
ObjectDBX Classes
 90
        0
280
     0
281
     0
  0
CLASS
  1
LAYOUT
  2
AcDbLayout
  3
ObjectDBX Classes
 90
        0
280
     0
281
     0
  0
ENDSEC
  0
SECTION
  2
TABLES
  0
TABLE
  2
VPORT
  5
8
330
0
100
AcDbSymbolTable
 70
     1
  0
VPORT
  5
29
330
8
100
AcDbSymbolTableRecord
100
AcDbViewportTableRecord
  2
*Active
 70
     0
 10
0.0
 20
0.0
 11
1.0
 21
1.0
 12
139.7
 22
107.95
 13
0.0
 23
0.0
 14
10.0
 24
10.0
 15
10.0
 25
10.0
 16
0.0
 26
0.0
 36
1.0
 17
0.0
 27
0.0
 37
0.0
 40
215.9
 41
1.2941176471
 42
50.0
 43
0.0
 44
0.0
 50
0.0
 51
0.0
 71
     0
 72
  2000
 73
     1
 74
     3
 75
     0
 76
     0
 77
     0
 78
     0
281
     0
 65
     1
110
0.0
120
0.0
130
0.0
111
1.0
121
0.0
131
0.0
112
0.0
122
1.0
132
0.0
 79
     0
146
0.0
  0
ENDTAB
  0
TABLE
  2
LTYPE
  5
5
330
0
100
AcDbSymbolTable
 70
     6
  0
LTYPE
  5
14
330
5
100
AcDbSymbolTableRecord
100
AcDbLinetypeTableRecord
  2
ByBlock
 70
     0
  3

 72
    65
 73
     0
 40
0.0
  0
LTYPE
  5
15
330
5
100
AcDbSymbolTableRecord
100
AcDbLinetypeTableRecord
  2
ByLayer
 70
     0
  3

 72
    65
 73
     0
 40
0.0
  0
LTYPE
  5
16
330
5
100
AcDbSymbolTableRecord
100
AcDbLinetypeTableRecord
  2
Continuous
 70
     0
  3
Solid line
 72
    65
 73
     0
 40
0.0
  0
LTYPE
  5
6E
330
5
100
AcDbSymbolTableRecord
100
AcDbLinetypeTableRecord
  2
HIDDEN
 70
     0
  3
Hidden __ __ __ __ __ __ __ __ __ __ __ __ __ __
 72
    65
 73
     2
 40
1.905
 49
1.27
 74
     0
 49
-0.635
 74
     0
  0
LTYPE
  5
6F
330
5
100
AcDbSymbolTableRecord
100
AcDbLinetypeTableRecord
  2
PHANTOM
 70
     0
  3
Phantom ______  __  __  ______  __  __  ______
 72
    65
 73
     6
 40
12.7
 49
6.35
 74
     0
 49
-1.27
 74
     0
 49
1.27
 74
     0
 49
-1.27
 74
     0
 49
1.27
 74
     0
 49
-1.27
 74
     0
  0
LTYPE
  5
70
330
5
100
AcDbSymbolTableRecord
100
AcDbLinetypeTableRecord
  2
CENTER
 70
     0
  3
Center ____ _ ____ _ ____ _ ____ _ ____ _ ____
 72
    65
 73
     4
 40
10.16
 49
6.35
 74
     0
 49
-1.27
 74
     0
 49
1.27
 74
     0
 49
-1.27
 74
     0
  0
LTYPE
  5
71
330
5
100
AcDbSymbolTableRecord
100
AcDbLinetypeTableRecord
  2
CENTERX2
 70
     0
  3
Center (2x) ________  __  ________  __  _____
 72
    65
 73
     4
 40
20.32
 49
12.7
 74
     0
 49
-2.54
 74
     0
 49
2.54
 74
     0
 49
-2.54
 74
     0
  0
LTYPE
  5
72
330
5
100
AcDbSymbolTableRecord
100
AcDbLinetypeTableRecord
  2
DOT2
 70
     0
  3
Dot (.5x) ........................................
 72
    65
 73
     2
 40
0.635
 49
0.0
 74
     0
 49
-0.635
 74
     0
  0
ENDTAB
  0
TABLE
  2
LAYER
  5
2
330
0
100
AcDbSymbolTable
 70
     1
  0
LAYER
  5
10
330
2
100
AcDbSymbolTableRecord
100
AcDbLayerTableRecord
  2
0
 70
     0
 62
     7
  6
Continuous
370
    -3
390
F
  0
ENDTAB
  0
TABLE
  2
STYLE
  5
3
330
0
100
AcDbSymbolTable
 70
     1
  0
STYLE
  5
11
330
3
100
AcDbSymbolTableRecord
100
AcDbTextStyleTableRecord
  2
Standard
 70
     0
 40
0.0
 41
1.0
 50
0.0
 71
     0
 42
3.5
  3
txt
  4

  0
ENDTAB
  0
TABLE
  2
VIEW
  5
6
330
0
100
AcDbSymbolTable
 70
     0
  0
ENDTAB
  0
TABLE
  2
UCS
  5
7
330
0
100
AcDbSymbolTable
 70
     0
  0
ENDTAB
  0
TABLE
  2
APPID
  5
9
330
0
100
AcDbSymbolTable
 70
     1
  0
APPID
  5
12
330
9
100
AcDbSymbolTableRecord
100
AcDbRegAppTableRecord
  2
ACAD
 70
     0
  0
ENDTAB
  0
TABLE
  2
DIMSTYLE
  5
A
330
0
100
AcDbSymbolTable
 70
     1
100
AcDbDimStyleTable
  0
DIMSTYLE
105
27
330
A
100
AcDbSymbolTableRecord
100
AcDbDimStyleTableRecord
  2
ISO-25
 70
     0
 41
2.5
 42
0.625
 43
3.75
 44
1.25
 73
     0
 74
     0
 77
     1
 78
     8
140
2.5
141
2.5
143
0.0393700787
147
0.625
171
     3
172
     1
178
     0
271
     2
272
     2
274
     3
278
    44
283
     0
284
     8
340
11
  0
ENDTAB
  0
TABLE
  2
BLOCK_RECORD
  5
1
330
0
100
AcDbSymbolTable
 70
     1
  0
BLOCK_RECORD
  5
1F
330
1
100
AcDbSymbolTableRecord
100
AcDbBlockTableRecord
  2
*Model_Space
340
22
  0
BLOCK_RECORD
  5
1B
330
1
100
AcDbSymbolTableRecord
100
AcDbBlockTableRecord
  2
*Paper_Space
340
1E
  0
BLOCK_RECORD
  5
23
330
1
100
AcDbSymbolTableRecord
100
AcDbBlockTableRecord
  2
*Paper_Space0
340
26
  0
ENDTAB
  0
ENDSEC
  0
SECTION
  2
BLOCKS
  0
BLOCK
  5
20
330
1F
100
AcDbEntity
  8
0
100
AcDbBlockBegin
  2
*Model_Space
 70
     0
 10
0.0
 20
0.0
 30
0.0
  3
*Model_Space
  1

  0
ENDBLK
  5
21
330
1F
100
AcDbEntity
  8
0
100
AcDbBlockEnd
  0
BLOCK
  5
1C
330
1B
100
AcDbEntity
 67
     1
  8
0
100
AcDbBlockBegin
  2
*Paper_Space
 70
     0
 10
0.0
 20
0.0
 30
0.0
  3
*Paper_Space
  1

  0
ENDBLK
  5
1D
330
1B
100
AcDbEntity
 67
     1
  8
0
100
AcDbBlockEnd
  0
BLOCK
  5
24
330
23
100
AcDbEntity
  8
0
100
AcDbBlockBegin
  2
*Paper_Space0
 70
     0
 10
0.0
 20
0.0
 30
0.0
  3
*Paper_Space0
  1

  0
ENDBLK
  5
25
330
23
100
AcDbEntity
  8
0
100
AcDbBlockEnd
  0
ENDSEC
  0
SECTION
  2
ENTITIES
  0
LINE
  5
73
330
1F
100
AcDbEntity
  8
0
  6
Continuous
 62
     7
370
    25
100
AcDbLine
 10
116.5086383744
 20
-15.4391762699
 30
0.0
 11
116.5086383744
 21
-62.7661881815
 31
0.0
  0
LINE
  5
74
330
1F
100
AcDbEntity
  8
0
  6
Continuous
 62
     7
370
    25
100
AcDbLine
 10
132.3086383744
 20
-62.7661881815
 30
0.0
 11
132.3086383744
 21
-15.4391762699
 31
0.0
  0
LINE
  5
75
330
1F
100
AcDbEntity
  8
0
  6
Continuous
 62
     7
370
    25
100
AcDbLine
 10
132.3086383744
 20
-15.4391762699
 30
0.0
 11
132.3086383744
 21
219.5608237301
 31
0.0
  0
LINE
  5
76
330
1F
100
AcDbEntity
  8
0
  6
Continuous
 62
     7
370
    25
100
AcDbLine
 10
116.5086383744
 20
219.5608237301
 30
0.0
 11
116.5086383744
 21
-15.4391762699
 31
0.0
  0
LINE
  5
77
330
1F
100
AcDbEntity
  8
0
  6
Continuous
 62
     7
370
    25
100
AcDbLine
 10
116.5086383744
 20
242.2338118185
 30
0.0
 11
116.5086383744
 21
219.5608237301
 31
0.0
  0
LINE
  5
78
330
1F
100
AcDbEntity
  8
0
  6
Continuous
 62
     7
370
    25
100
AcDbLine
 10
132.3086383744
 20
219.5608237301
 30
0.0
 11
132.3086383744
 21
242.2338118185
 31
0.0
  0
LINE
  5
79
330
1F
100
AcDbEntity
  8
0
  6
Continuous
 62
     7
370
    25
100
AcDbLine
 10
190.7586383744
 20
247.8838118185
 30
0.0
 11
182.8086383744
 21
247.8838118185
 31
0.0
  0
LINE
  5
7A
330
1F
100
AcDbEntity
  8
0
  6
Continuous
 62
     7
370
    25
100
AcDbLine
 10
182.8086383744
 20
236.5838118185
 30
0.0
 11
190.7586383744
 21
236.5838118185
 31
0.0
  0
ARC
  5
7B
330
1F
100
AcDbEntity
  8
0
  6
Continuous
 62
     7
370
    25
100
AcDbCircle
 10
99.6086383744
 20
306.5473336043
 30
0.0
 40
0.5000000000000462
100
AcDbArc
 50
180.0
 51
244.1790080258
  0
ARC
  5
7C
330
1F
100
AcDbEntity
  8
0
  6
Continuous
 62
     7
370
    25
100
AcDbCircle
 10
149.2086383744
 20
306.5473336043
 30
0.0
 40
0.5000000000000523
100
AcDbArc
 50
295.8209919742
 51
0.0
  0
ARC
  5
7D
330
1F
100
AcDbEntity
  8
0
  6
Continuous
 62
     7
370
    25
100
AcDbCircle
 10
99.6086383744
 20
309.7338118185
 30
0.0
 40
0.5
100
AcDbArc
 50
90.0
 51
180.0
  0
ARC
  5
7E
330
1F
100
AcDbEntity
  8
0
  6
Continuous
 62
     7
370
    25
100
AcDbCircle
 10
149.2086383744
 20
309.7338118185
 30
0.0
 40
0.5000000000000284
100
AcDbArc
 50
0.0
 51
90.0
  0
LINE
  5
7F
330
1F
100
AcDbEntity
  8
0
  6
Continuous
 62
     7
370
    25
100
AcDbLine
 10
149.7086383744
 20
306.5473336043
 30
0.0
 11
149.7086383744
 21
309.7338118185
 31
0.0
  0
LINE
  5
80
330
1F
100
AcDbEntity
  8
0
  6
Continuous
 62
     7
370
    25
100
AcDbLine
 10
99.1086383744
 20
309.7338118185
 30
0.0
 11
99.1086383744
 21
306.5473336043
 31
0.0
  0
LINE
  5
81
330
1F
100
AcDbEntity
  8
0
  6
Continuous
 62
     7
370
    25
100
AcDbLine
 10
99.3908579103
 20
306.0972539785
 30
0.0
 11
107.2797602306
 21
302.2800431784
 31
0.0
  0
LINE
  5
82
330
1F
100
AcDbEntity
  8
0
  6
Continuous
 62
     7
370
    25
100
AcDbLine
 10
141.5375165182
 20
302.2800431784
 30
0.0
 11
149.4264188384
 21
306.0972539785
 31
0.0
  0
ARC
  5
83
330
1F
100
AcDbEntity
  8
0
  6
Continuous
 62
     7
370
    25
100
AcDbCircle
 10
142.4086383744
 20
300.4797246756
 30
0.0
 40
1.999999999999992
100
AcDbArc
 50
115.8209919742
 51
171.4096175468
  0
ARC
  5
84
330
1F
100
AcDbEntity
  8
0
  6
Continuous
 62
     7
370
    25
100
AcDbCircle
 10
106.4086383744
 20
300.4797246756
 30
0.0
 40
1.999999999999996
100
AcDbArc
 50
8.6121549306
 51
64.1790080258
  0
LINE
  5
85
330
1F
100
AcDbEntity
  8
0
  6
Continuous
 62
     7
370
    25
100
AcDbLine
 10
136.2937366448
 20
226.4827691373
 30
0.0
 11
153.4086383744
 21
226.8412752219
 31
0.0
  0
LINE
  5
86
330
1F
100
AcDbEntity
  8
0
  6
Continuous
 62
     7
370
    25
100
AcDbLine
 10
153.4086383744
 20
257.6263484151
 30
0.0
 11
147.7856275664
 21
257.7441337007
 31
0.0
  0
SPLINE
  5
87
330
1F
100
AcDbEntity
  8
0
  6
Continuous
 62
     7
370
    25
100
AcDbSpline
210
0.0
220
0.0
230
1.0
 70
     8
 71
     3
 72
     9
 73
     5
 74
     0
 42
0.00000001
 43
0.00000001
 40
0.0
 40
0.0
 40
0.0
 40
0.0
 40
0.4999961779725279
 40
1.0
 40
1.0
 40
1.0
 40
1.0
 10
154.4335803585355
 20
228.0511593931429
 30
0.0
 10
154.5117634198158
 20
227.9157943633319
 30
0.0
 10
154.6681307376568
 20
227.6450622342188
 30
0.0
 10
154.8244943952035
 20
227.3743281489456
 30
0.0
 10
154.9026768216031
 20
227.2389600715559
 30
0.0
  0
SPLINE
  5
88
330
1F
100
AcDbEntity
  8
0
  6
Continuous
 62
     7
370
    25
100
AcDbSpline
210
0.0
220
0.0
230
1.0
 70
     8
 71
     3
 72
     9
 73
     5
 74
     0
 42
0.00000001
 43
0.00000001
 40
0.0
 40
0.0
 40
0.0
 40
0.0
 40
0.4999960105738658
 40
1.0
 40
1.0
 40
1.0
 40
1.0
 10
155.93341958769
 20
228.0514390737451
 30
0.0
 10
156.0116039329924
 20
227.916071923835
 30
0.0
 10
156.1679738712496
 20
227.6453354638484
 30
0.0
 10
156.3243399889632
 20
227.374596899076
 30
0.0
 10
156.4025236716311
 20
227.2392265365983
 30
0.0
  0
SPLINE
  5
89
330
1F
100
AcDbEntity
  8
0
  6
Continuous
 62
     7
370
    25
100
AcDbSpline
210
0.0
220
0.0
230
1.0
 70
     8
 71
     3
 72
     9
 73
     5
 74
     0
 42
0.00000001
 43
0.00000001
 40
0.0
 40
0.0
 40
0.0
 40
0.0
 40
0.4999960910112498
 40
1.0
 40
1.0
 40
1.0
 40
1.0
 10
157.4335029384919
 20
228.0512932106002
 30
0.0
 10
157.511686669489
 20
227.9159270756724
 30
0.0
 10
157.6680553539701
 20
227.6451926892212
 30
0.0
 10
157.8244202949036
 20
227.3744562872391
 30
0.0
 10
157.902603376599
 20
227.2390870279425
 30
0.0
  0
LINE
  5
8A
330
1F
100
AcDbEntity
  8
0
  6
Continuous
 62
     7
370
    25
100
AcDbLine
 10
158.1867268409
 20
256.4219119995
 30
0.0
 11
158.1835837736
 21
256.4164701096
 31
0.0
  0
SPLINE
  5
8B
330
1F
100
AcDbEntity
  8
0
  6
Continuous
 62
     7
370
    25
100
AcDbSpline
210
0.0
220
0.0
230
1.0
 70
     8
 71
     3
 72
     9
 73
     5
 74
     0
 42
0.00000001
 43
0.00000001
 40
0.0
 40
0.0
 40
0.0
 40
0.0
 40
0.5035653169057721
 40
1.0
 40
1.0
 40
1.0
 40
1.0
 10
157.1525105787056
 20
257.2283740114412
 30
0.0
 10
157.0743274476164
 20
257.0930046108718
 30
0.0
 10
156.9190682816961
 20
256.8241826804791
 30
0.0
 10
156.7638053932817
 20
256.555362992239
 30
0.0
 10
156.6867275104754
 20
256.4219115754981
 30
0.0
  0
SPLINE
  5
8C
330
1F
100
AcDbEntity
  8
0
  6
Continuous
 62
     7
370
    25
100
AcDbSpline
210
0.0
220
0.0
230
1.0
 70
     8
 71
     3
 72
     9
 73
     5
 74
     0
 42
0.00000001
 43
0.00000001
 40
0.0
 40
0.0
 40
0.0
 40
0.0
 40
0.5000038267495226
 40
0.9999999999999999
 40
0.9999999999999999
 40
0.9999999999999999
 40
0.9999999999999999
 10
155.6525842584884
 20
257.2285033106795
 30
0.0
 10
155.5744017880448
 20
257.0931351069575
 30
0.0
 10
155.4180380438873
 20
256.8224007715787
 30
0.0
 10
155.2616706349885
 20
256.5516686331861
 30
0.0
 10
155.1834875289182
 20
256.4163036000139
 30
0.0
  0
SPLINE
  5
8D
330
1F
100
AcDbEntity
  8
0
  6
Continuous
 62
     7
370
    25
100
AcDbSpline
210
0.0
220
0.0
230
1.0
 70
     8
 71
     3
 72
     9
 73
     5
 74
     0
 42
0.00000001
 43
0.00000001
 40
0.0
 40
0.0
 40
0.0
 40
0.0
 40
0.4987844281256549
 40
1.0
 40
1.0
 40
1.0
 40
1.0
 10
157.8211948531931
 20
256.4164668913366
 30
0.0
 10
157.7431954753093
 20
256.5514959654715
 30
0.0
 10
157.5868165398702
 20
256.8222122639784
 30
0.0
 10
157.4304664560787
 20
257.0929587543303
 30
0.0
 10
157.3521013594186
 20
257.2286611113249
 30
0.0
  0
SPLINE
  5
8E
330
1F
100
AcDbEntity
  8
0
  6
Continuous
 62
     7
370
    25
100
AcDbSpline
210
0.0
220
0.0
230
1.0
 70
     8
 71
     3
 72
     9
 73
     5
 74
     0
 42
0.00000001
 43
0.00000001
 40
0.0
 40
0.0
 40
0.0
 40
0.0
 40
0.4984739077222076
 40
0.9999999999999999
 40
0.9999999999999999
 40
0.9999999999999999
 40
0.9999999999999999
 10
156.3211948531931
 20
256.4164668913366
 30
0.0
 10
156.2432407458384
 20
256.5514064686041
 30
0.0
 10
156.0868552136226
 20
256.822111865972
 30
0.0
 10
155.9305117072318
 20
257.0928692290599
 30
0.0
 10
155.8521013594186
 20
257.2286611113249
 30
0.0
  0
SPLINE
  5
8F
330
1F
100
AcDbEntity
  8
0
  6
Continuous
 62
     7
370
    25
100
AcDbSpline
210
0.0
220
0.0
230
1.0
 70
     8
 71
     3
 72
     9
 73
     5
 74
     0
 42
0.00000001
 43
0.00000001
 40
0.0
 40
0.0
 40
0.0
 40
0.0
 40
0.498161709893871
 40
0.9999999999999999
 40
0.9999999999999999
 40
0.9999999999999999
 40
0.9999999999999999
 10
154.8211948531931
 20
256.4164668913366
 30
0.0
 10
154.7432859126357
 20
256.5513145033295
 30
0.0
 10
154.5868930405823
 20
256.8220049424273
 30
0.0
 10
154.4305568473247
 20
257.0927772163643
 30
0.0
 10
154.3521013594186
 20
257.2286611113249
 30
0.0
  0
LINE
  5
90
330
1F
100
AcDbEntity
  8
0
  6
Continuous
 62
     7
370
    25
100
AcDbLine
 10
158.1021022662
 20
227.2389640842
 30
0.0
 11
158.1489717274
 21
227.320119074
 31
0.0
  0
SPLINE
  5
91
330
1F
100
AcDbEntity
  8
0
  6
Continuous
 62
     7
370
    25
100
AcDbSpline
210
0.0
220
0.0
230
1.0
 70
     8
 71
     3
 72
     9
 73
     5
 74
     0
 42
0.00000001
 43
0.00000001
 40
0.0
 40
0.0
 40
0.0
 40
0.0
 40
0.5012156693466736
 40
1.0
 40
1.0
 40
1.0
 40
1.0
 10
156.6021022661838
 20
227.2389640841779
 30
0.0
 10
156.6804673621269
 20
227.3746665114069
 30
0.0
 10
156.8368174140822
 20
227.6454130892343
 30
0.0
 10
156.9931964066942
 20
227.9161293430071
 30
0.0
 10
157.0711957978525
 20
228.0511583684422
 30
0.0
  0
SPLINE
  5
92
330
1F
100
AcDbEntity
  8
0
  6
Continuous
 62
     7
370
    25
100
AcDbSpline
210
0.0
220
0.0
230
1.0
 70
     8
 71
     3
 72
     9
 73
     5
 74
     0
 42
0.00000001
 43
0.00000001
 40
0.0
 40
0.0
 40
0.0
 40
0.0
 40
0.501526213537508
 40
1.0
 40
1.0
 40
1.0
 40
1.0
 10
155.1021022661838
 20
227.2389640841779
 30
0.0
 10
155.1805126115558
 20
227.3747560515152
 30
0.0
 10
155.3368560752781
 20
227.6455135187661
 30
0.0
 10
155.4932416755412
 20
227.916218854649
 30
0.0
 10
155.5711957978525
 20
228.0511583684422
 30
0.0
  0
SPLINE
  5
93
330
1F
100
AcDbEntity
  8
0
  6
Continuous
 62
     7
370
    25
100
AcDbSpline
210
0.0
220
0.0
230
1.0
 70
     8
 71
     3
 72
     9
 73
     5
 74
     0
 42
0.00000001
 43
0.00000001
 40
0.0
 40
0.0
 40
0.0
 40
0.0
 40
0.5018384349021637
 40
0.9999999999999999
 40
0.9999999999999999
 40
0.9999999999999999
 40
0.9999999999999999
 10
153.6021022661838
 20
227.2389640841779
 30
0.0
 10
153.6805577499391
 20
227.3748480790965
 30
0.0
 10
153.8368938898177
 20
227.6456204740907
 30
0.0
 10
153.9932868406804
 20
227.9163108347295
 30
0.0
 10
154.0711957978524
 20
228.0511583684421
 30
0.0
  0
LINE
  5
94
330
1F
100
AcDbEntity
  8
0
  6
Continuous
 62
     7
370
    25
100
AcDbLine
 10
154.3461158642
 20
257.2338118185
 30
0.0
 11
153.4086383744
 21
257.2338118185
 31
0.0
  0
LINE
  5
95
330
1F
100
AcDbEntity
  8
0
  6
Continuous
 62
     7
370
    25
100
AcDbLine
 10
155.8461158642
 20
257.2338118185
 30
0.0
 11
155.6587872597
 21
257.2338118185
 31
0.0
  0
LINE
  5
96
330
1F
100
AcDbEntity
  8
0
  6
Continuous
 62
     7
370
    25
100
AcDbLine
 10
157.3461158642
 20
257.2338118185
 30
0.0
 11
157.1587872597
 21
257.2338118185
 31
0.0
  0
LINE
  5
97
330
1F
100
AcDbEntity
  8
0
  6
Continuous
 62
     7
370
    25
100
AcDbLine
 10
157.9086908356
 20
227.2338118185
 30
0.0
 11
158.0959364051
 21
227.2338118185
 31
0.0
  0
LINE
  5
98
330
1F
100
AcDbEntity
  8
0
  6
Continuous
 62
     7
370
    25
100
AcDbLine
 10
156.4086908356
 20
227.2338118185
 30
0.0
 11
156.5959364051
 21
227.2338118185
 31
0.0
  0
LINE
  5
99
330
1F
100
AcDbEntity
  8
0
  6
Continuous
 62
     7
370
    25
100
AcDbLine
 10
154.9086908356
 20
227.2338118185
 30
0.0
 11
155.0959364051
 21
227.2338118185
 31
0.0
  0
LINE
  5
9A
330
1F
100
AcDbEntity
  8
0
  6
Continuous
 62
     7
370
    25
100
AcDbLine
 10
153.4086383744
 20
227.2338118185
 30
0.0
 11
153.5959364051
 21
227.2338118185
 31
0.0
  0
LINE
  5
9B
330
1F
100
AcDbEntity
  8
0
  6
Continuous
 62
     7
370
    25
100
AcDbLine
 10
110.4312253059
 20
284.506927028
 30
0.0
 11
111.088555471
 21
256.0773973876
 31
0.0
  0
LINE
  5
9C
330
1F
100
AcDbEntity
  8
0
  6
Continuous
 62
     7
370
    25
100
AcDbLine
 10
138.0019526072
 20
267.8946523895
 30
0.0
 11
138.3860514428
 21
284.506927028
 31
0.0
  0
SPLINE
  5
9D
330
1F
100
AcDbEntity
  8
0
  6
Continuous
 62
     7
370
    25
100
AcDbSpline
210
0.0
220
0.0
230
1.0
 70
     8
 71
     3
 72
     9
 73
     5
 74
     0
 42
0.00000001
 43
0.00000001
 40
0.0
 40
0.0
 40
0.0
 40
0.0
 40
0.5027752844605812
 40
1.0
 40
1.0
 40
1.0
 40
1.0
 10
158.1899263303164
 20
256.4219128065477
 30
0.0
 10
158.1276116664251
 20
256.4218892065219
 30
0.0
 10
158.0036702838289
 20
256.4218422670111
 30
0.0
 10
157.8796938041058
 20
256.4218888574079
 30
0.0
 10
157.8180496342419
 20
256.4219120233047
 30
0.0
  0
SPLINE
  5
9E
330
1F
100
AcDbEntity
  8
0
  6
Continuous
 62
     7
370
    25
100
AcDbSpline
210
0.0
220
0.0
230
1.0
 70
     8
 71
     3
 72
     9
 73
     5
 74
     0
 42
0.00000001
 43
0.00000001
 40
0.0
 40
0.0
 40
0.0
 40
0.0
 40
0.5024505677200952
 40
1.0
 40
1.0
 40
1.0
 40
1.0
 10
156.6899263303164
 20
256.4219128065477
 30
0.0
 10
156.6276600130274
 20
256.4218768418373
 30
0.0
 10
156.5037347529334
 20
256.4218052632329
 30
0.0
 10
156.3797421479437
 20
256.4218762792801
 30
0.0
 10
156.3180496977242
 20
256.4219116132742
 30
0.0
  0
SPLINE
  5
9F
330
1F
100
AcDbEntity
  8
0
  6
Continuous
 62
     7
370
    25
100
AcDbSpline
210
0.0
220
0.0
230
1.0
 70
     8
 71
     3
 72
     9
 73
     5
 74
     0
 42
0.00000001
 43
0.00000001
 40
0.0
 40
0.0
 40
0.0
 40
0.0
 40
0.5021449888945522
 40
1.0
 40
1.0
 40
1.0
 40
1.0
 10
155.1899263303164
 20
256.4219128065477
 30
0.0
 10
155.1277095741783
 20
256.4218618947982
 30
0.0
 10
155.0038075986255
 20
256.4217605062539
 30
0.0
 10
154.8797917036765
 20
256.4218610577753
 30
0.0
 10
154.8180497689195
 20
256.4219111178542
 30
0.0
  0
SPLINE
  5
A0
330
1F
100
AcDbEntity
  8
0
  6
Continuous
 62
     7
370
    25
100
AcDbSpline
210
0.0
220
0.0
230
1.0
 70
     8
 71
     3
 72
     9
 73
     5
 74
     0
 42
0.00000001
 43
0.00000001
 40
0.0
 40
0.0
 40
0.0
 40
0.0
 40
0.5057289412932535
 40
1.0
 40
1.0
 40
1.0
 40
1.0
 10
157.0649275146032
 20
228.0457108431348
 30
0.0
 10
157.1276128855306
 20
228.0457346245036
 30
0.0
 10
157.2515634167523
 20
228.0457816484464
 30
0.0
 10
157.3754788580384
 20
228.0457348063065
 30
0.0
 10
157.4367266743931
 20
228.0457116535925
 30
0.0
  0
SPLINE
  5
A1
330
1F
100
AcDbEntity
  8
0
  6
Continuous
 62
     7
370
    25
100
AcDbSpline
210
0.0
220
0.0
230
1.0
 70
     8
 71
     3
 72
     9
 73
     5
 74
     0
 42
0.00000001
 43
0.00000001
 40
0.0
 40
0.0
 40
0.0
 40
0.0
 40
0.5060529424439398
 40
0.9999999999999999
 40
0.9999999999999999
 40
0.9999999999999999
 40
0.9999999999999999
 10
155.5649275146032
 20
228.0457108431348
 30
0.0
 10
155.6276612784217
 20
228.0457470907322
 30
0.0
 10
155.7516280782501
 20
228.0458187188057
 30
0.0
 10
155.8755275469543
 20
228.0457473372594
 30
0.0
 10
155.9367273249536
 20
228.0457120785547
 30
0.0
  0
SPLINE
  5
A2
330
1F
100
AcDbEntity
  8
0
  6
Continuous
 62
     7
370
    25
100
AcDbSpline
210
0.0
220
0.0
230
1.0
 70
     8
 71
     3
 72
     9
 73
     5
 74
     0
 42
0.00000001
 43
0.00000001
 40
0.0
 40
0.0
 40
0.0
 40
0.0
 40
0.5063601542005146
 40
1.0
 40
1.0
 40
1.0
 40
1.0
 10
154.0649275146032
 20
228.0457108431348
 30
0.0
 10
154.1277109187248
 20
228.0457621727204
 30
0.0
 10
154.2517005407374
 20
228.0458635424374
 30
0.0
 10
154.375576267202
 20
228.0457624814635
 30
0.0
 10
154.4367262617122
 20
228.0457125937399
 30
0.0
  0
SPLINE
  5
A3
330
1F
100
AcDbEntity
  8
0
  6
Continuous
 62
     7
370
    25
100
AcDbSpline
210
0.0
220
0.0
230
1.0
 70
     8
 71
     3
 72
    18
 73
    14
 74
     0
 42
0.00000001
 43
0.00000001
 40
0.0
 40
0.0
 40
0.0
 40
0.0
 40
0.0213143674213417
 40
0.1186075198759824
 40
0.21934079689535
 40
0.3220858416197618
 40
0.4259472146781412
 40
0.5303667381120131
 40
0.6403641358255143
 40
0.7443006999501204
 40
0.8428850604045788
 40
0.9365929196561219
 40
1.0
 40
1.0
 40
1.0
 40
1.0
 10
147.7678180814999
 20
257.7298233277577
 30
0.0
 10
147.6565242096748
 20
257.7266951666156
 30
0.0
 10
147.0372100234441
 20
257.7092879676352
 30
0.0
 10
145.8971868433328
 20
257.8979266162505
 30
0.0
 10
144.3841677216617
 20
258.3270584068613
 30
0.0
 10
142.9294741234694
 20
259.0247048405173
 30
0.0
 10
141.5897198208989
 20
259.9538014602136
 30
0.0
 10
140.3915326195425
 20
261.1161919199748
 30
0.0
 10
139.4045134355996
 20
262.4634438561351
 30
0.0
 10
138.6681670468131
 20
263.9284919058043
 30
0.0
 10
138.2067676860645
 20
265.4090718245149
 30
0.0
 10
137.9796687782819
 20
266.7328949698441
 30
0.0
 10
137.9899191159381
 20
267.5541675133545
 30
0.0
 10
137.9940558580264
 20
267.8856095409853
 30
0.0
  0
ARC
  5
A4
330
1F
100
AcDbEntity
  8
0
  6
Continuous
 62
     7
370
    25
100
AcDbCircle
 10
137.340857639
 20
176.4937349636
 30
0.0
 40
50.00000000000001
100
AcDbArc
 50
91.2
 51
95.7762782441
  0
ARC
  5
A5
330
1F
100
AcDbEntity
  8
0
  6
Continuous
 62
     7
370
    25
100
AcDbCircle
 10
139.3857842506
 20
284.4838118185
 30
0.0
 40
1.0
100
AcDbArc
 50
90.0
 51
178.6754780877
  0
ARC
  5
A6
330
1F
100
AcDbEntity
  8
0
  6
Continuous
 62
     7
370
    25
100
AcDbCircle
 10
109.4314924981
 20
284.4838118185
 30
0.0
 40
1.0
100
AcDbArc
 50
1.3245219123
 51
90.0
  0
ARC
  5
A7
330
1F
100
AcDbEntity
  8
0
  6
Continuous
 62
     7
370
    25
100
AcDbCircle
 10
101.0912273925
 20
255.8462452933
 30
0.0
 40
9.999999999999988
100
AcDbArc
 50
329.7241140142
 51
1.3245219123
  0
ARC
  5
A8
330
1F
100
AcDbEntity
  8
0
  6
Continuous
 62
     7
370
    25
100
AcDbCircle
 10
124.4086383744
 20
242.2338118185
 30
0.0
 40
17.00000000000002
100
AcDbArc
 50
149.7241140142
 51
242.3088110772
  0
LINE
  5
A9
330
1F
100
AcDbEntity
  8
0
  6
Continuous
 62
     7
370
    25
100
AcDbLine
 10
142.4197453733
 20
287.2338118185
 30
0.0
 11
142.4197453733
 21
297.9838118185
 31
0.0
  0
ARC
  5
AA
330
1F
100
AcDbEntity
  8
0
  6
Continuous
 62
     7
370
    25
100
AcDbCircle
 10
140.6697453733
 20
287.2338118185
 30
0.0
 40
1.75
100
AcDbArc
 50
270.0
 51
0.0
  0
ARC
  5
AB
330
1F
100
AcDbEntity
  8
0
  6
Continuous
 62
     7
370
    25
100
AcDbCircle
 10
140.6697453733
 20
297.9838118185
 30
0.0
 40
1.750000000000002
100
AcDbArc
 50
0.0
 51
74.1552676612
  0
ARC
  5
AC
330
1F
100
AcDbEntity
  8
0
  6
Continuous
 62
     7
370
    25
100
AcDbCircle
 10
108.1475313754
 20
297.9838118185
 30
0.0
 40
1.750000000000055
100
AcDbArc
 50
105.8492995417
 51
180.0
  0
ARC
  5
AD
330
1F
100
AcDbEntity
  8
0
  6
Continuous
 62
     7
370
    25
100
AcDbCircle
 10
108.1475313754
 20
287.2338118185
 30
0.0
 40
1.75
100
AcDbArc
 50
180.0
 51
270.0
  0
LINE
  5
AE
330
1F
100
AcDbEntity
  8
0
  6
Continuous
 62
     7
370
    25
100
AcDbLine
 10
106.3975313754
 20
297.9838118185
 30
0.0
 11
106.3975313754
 21
287.2338118185
 31
0.0
  0
ARC
  5
AF
330
1F
100
AcDbEntity
  8
0
  6
Continuous
 62
     7
370
    25
100
AcDbCircle
 10
107.3973563841
 20
300.6295135179
 30
0.0
 40
1.000000000000036
100
AcDbArc
 50
285.8464245101
 51
8.5652425788
  0
ARC
  5
B0
330
1F
100
AcDbEntity
  8
0
  6
Continuous
 62
     7
370
    25
100
AcDbCircle
 10
141.4199203647
 20
300.6295135179
 30
0.0
 40
1.000000000000002
100
AcDbArc
 50
171.4063114783
 51
254.1356649369
  0
ARC
  5
B1
330
1F
100
AcDbEntity
  8
0
  6
Continuous
 62
     7
370
    25
100
AcDbCircle
 10
197.6472450466
 20
242.2338118185
 30
0.0
 40
10.62999999999999
100
AcDbArc
 50
6.8148663973
 51
21.8505108422
  0
ARC
  5
B2
330
1F
100
AcDbEntity
  8
0
  6
Continuous
 62
     7
370
    25
100
AcDbCircle
 10
197.6472450466
 20
242.2338118185
 30
0.0
 40
10.63000000000001
100
AcDbArc
 50
338.1494891578
 51
353.1918063459
  0
LINE
  5
B3
330
1F
100
AcDbEntity
  8
0
  6
Continuous
 62
     7
370
    25
100
AcDbLine
 10
208.2101026058
 20
241.124431902
 30
0.0
 11
207.9496858774
 21
241.124431902
 31
0.0
  0
LINE
  5
B4
330
1F
100
AcDbEntity
  8
0
  6
Continuous
 62
     7
370
    25
100
AcDbLine
 10
208.1265295409
 20
243.3431917351
 30
0.0
 11
208.2101026058
 21
243.3431917351
 31
0.0
  0
LINE
  5
B5
330
1F
100
AcDbEntity
  8
0
  6
Continuous
 62
     7
370
    25
100
AcDbLine
 10
205.6135653889
 20
235.0838118185
 30
0.0
 11
207.2185703784
 21
236.3086840474
 31
0.0
  0
LINE
  5
B6
330
1F
100
AcDbEntity
  8
0
  6
Continuous
 62
     7
370
    25
100
AcDbLine
 10
207.2185703784
 20
248.1589395897
 30
0.0
 11
205.6135653889
 21
249.3838118185
 31
0.0
  0
ARC
  5
B7
330
1F
100
AcDbEntity
  8
0
  6
Continuous
 62
     7
370
    25
100
AcDbCircle
 10
206.7635653889
 20
236.9048974819
 30
0.0
 40
0.7500000000000014
100
AcDbArc
 50
307.3493490446
 51
0.0
  0
ARC
  5
B8
330
1F
100
AcDbEntity
  8
0
  6
Continuous
 62
     7
370
    25
100
AcDbCircle
 10
206.7635653889
 20
247.5627261551
 30
0.0
 40
0.7500000000000014
100
AcDbArc
 50
0.0
 51
52.6506509554
  0
LINE
  5
B9
330
1F
100
AcDbEntity
  8
0
  6
Continuous
 62
     7
370
    25
100
AcDbLine
 10
205.6135653889
 20
246.7338118185
 30
0.0
 11
205.6086383744
 21
246.7300652346
 31
0.0
  0
LINE
  5
BA
330
1F
100
AcDbEntity
  8
0
  6
Continuous
 62
     7
370
    25
100
AcDbLine
 10
205.6086383744
 20
237.7375584025
 30
0.0
 11
205.6135653889
 21
237.7338118185
 31
0.0
  0
LINE
  5
BB
330
1F
100
AcDbEntity
  8
0
  6
Continuous
 62
     7
370
    25
100
AcDbLine
 10
200.7466823315
 20
233.2581537743
 30
0.0
 11
205.1173645776
 21
233.3344443167
 31
0.0
  0
LINE
  5
BC
330
1F
100
AcDbEntity
  8
0
  6
Continuous
 62
     7
370
    25
100
AcDbLine
 10
205.1173645776
 20
251.1331793204
 30
0.0
 11
199.8132621176
 21
251.2257627732
 31
0.0
  0
ARC
  5
BD
330
1F
100
AcDbEntity
  8
0
  6
Continuous
 62
     7
370
    25
100
AcDbCircle
 10
205.1086383744
 20
233.8343681643
 30
0.0
 40
0.5
100
AcDbArc
 50
271.0
 51
0.0
  0
ARC
  5
BE
330
1F
100
AcDbEntity
  8
0
  6
Continuous
 62
     7
370
    25
100
AcDbCircle
 10
205.1086383744
 20
250.6332554728
 30
0.0
 40
0.5000000000000048
100
AcDbArc
 50
0.0
 51
89.0
  0
SPLINE
  5
BF
330
1F
100
AcDbEntity
  8
0
  6
Continuous
 62
     7
370
    25
100
AcDbSpline
210
0.0
220
0.0
230
1.0
 70
     8
 71
     3
 72
    12
 73
     8
 74
     0
 42
0.00000001
 43
0.00000001
 40
0.0
 40
0.0
 40
0.0
 40
0.0
 40
0.117674907074349
 40
0.311716467724493
 40
0.545676004567997
 40
0.8259639150022914
 40
1.0
 40
1.0
 40
1.0
 40
1.0
 10
197.1383132226051
 20
231.3750466898106
 30
0.0
 10
197.1389335175397
 20
231.3762953271435
 30
0.0
 10
197.1405766558329
 20
231.3796029211631
 30
0.0
 10
197.3333898500562
 20
231.5898552081433
 30
0.0
 10
197.739900584157
 20
231.9239754770504
 30
0.0
 10
198.2879206583771
 20
232.3156574347942
 30
0.0
 10
198.7493880330992
 20
232.6007432009269
 30
0.0
 10
198.9261605039754
 20
232.7099498708919
 30
0.0
  0
ARC
  5
C0
330
1F
100
AcDbEntity
  8
0
  6
Continuous
 62
     7
370
    25
100
AcDbCircle
 10
200.8086383744
 20
229.7086944565
 30
0.0
 40
3.550000000000023
100
AcDbArc
 50
91.0
 51
121.7654088545
  0
ARC
  5
C1
330
1F
100
AcDbEntity
  8
0
  6
Continuous
 62
     7
370
    25
100
AcDbCircle
 10
199.8586383744
 20
253.8253667806
 30
0.0
 40
2.599999999999975
100
AcDbArc
 50
242.9558679133
 51
269.0
  0
SPLINE
  5
C2
330
1F
100
AcDbEntity
  8
0
  6
Continuous
 62
     7
370
    25
100
AcDbSpline
210
0.0
220
0.0
230
1.0
 70
     8
 71
     3
 72
    12
 73
     8
 74
     0
 42
0.00000001
 43
0.00000001
 40
0.0
 40
0.0
 40
0.0
 40
0.0
 40
0.172543405123829
 40
0.4895861009690992
 40
0.7436382546354217
 40
0.9466774223129174
 40
1.0
 40
1.0
 40
1.0
 40
1.0
 10
198.668144001927
 20
251.5180226500788
 30
0.0
 10
198.5066832116779
 20
251.6019119402568
 30
0.0
 10
198.0485436571657
 20
251.839944975839
 30
0.0
 10
197.495736606862
 20
252.1606807739435
 30
0.0
 10
197.0857608720386
 20
252.4228955065309
 30
0.0
 10
196.9197690038662
 20
252.5700908495419
 30
0.0
 10
196.9407288842326
 20
252.5467102868076
 30
0.0
 10
196.9450884849505
 20
252.5418471904397
 30
0.0
  0
LINE
  5
C3
330
1F
100
AcDbEntity
  8
0
  6
Continuous
 62
     7
370
    25
100
AcDbLine
 10
191.2673645776
 20
229.8632071274
 30
0.0
 11
195.2935431872
 21
229.9334843364
 31
0.0
  0
ARC
  5
C4
330
1F
100
AcDbEntity
  8
0
  6
Continuous
 62
     7
370
    25
100
AcDbCircle
 10
191.2586383744
 20
230.363130975
 30
0.0
 40
0.5
100
AcDbArc
 50
180.0
 51
271.0
  0
LINE
  5
C5
330
1F
100
AcDbEntity
  8
0
  6
Continuous
 62
     7
370
    25
100
AcDbLine
 10
205.6385579173
 20
246.1714270469
 30
0.0
 11
205.6086383744
 21
246.2838027272
 31
0.0
  0
ARC
  5
C6
330
1F
100
AcDbEntity
  8
0
  6
Continuous
 62
     7
370
    25
100
AcDbCircle
 10
195.2586383744
 20
251.7295366395
 30
0.0
 40
2.000000000000083
100
AcDbArc
 50
20.0771636439
 51
89.0
  0
ARC
  5
C7
330
1F
100
AcDbEntity
  8
0
  6
Continuous
 62
     7
370
    25
100
AcDbCircle
 10
191.2586383744
 20
253.2995853913
 30
0.0
 40
0.5
100
AcDbArc
 50
89.0
 51
180.0
  0
LINE
  5
C8
330
1F
100
AcDbEntity
  8
0
  6
Continuous
 62
     7
370
    25
100
AcDbLine
 10
195.2935431872
 20
253.7292320298
 30
0.0
 11
191.2673645776
 21
253.7995092389
 31
0.0
  0
ARC
  5
C9
330
1F
100
AcDbEntity
  8
0
  6
Continuous
 62
     7
370
    25
100
AcDbCircle
 10
195.2586383744
 20
231.9331797267
 30
0.0
 40
2.000000000000017
100
AcDbArc
 50
271.0
 51
344.7154892292
  0
LINE
  5
CA
330
1F
100
AcDbEntity
  8
0
  6
Continuous
 62
     7
370
    25
100
AcDbLine
 10
181.1004939832
 20
232.2329638176
 30
0.0
 11
182.8086383744
 21
233.9838118185
 31
0.0
  0
LINE
  5
CB
330
1F
100
AcDbEntity
  8
0
  6
Continuous
 62
     7
370
    25
100
AcDbLine
 10
182.8086383744
 20
250.4838118185
 30
0.0
 11
181.1004939832
 21
252.2346598195
 31
0.0
  0
LINE
  5
CC
330
1F
100
AcDbEntity
  8
0
  6
Continuous
 62
     7
370
    25
100
AcDbLine
 10
175.381939706
 20
232.8338118185
 30
0.0
 11
175.7347178868
 21
232.8338118185
 31
0.0
  0
SPLINE
  5
CD
330
1F
100
AcDbEntity
  8
0
  6
Continuous
 62
     7
370
    25
100
AcDbSpline
210
0.0
220
0.0
230
1.0
 70
     8
 71
     3
 72
     9
 73
     5
 74
     0
 42
0.00000001
 43
0.00000001
 40
0.0
 40
0.0
 40
0.0
 40
0.0
 40
0.5017901106541954
 40
1.0
 40
1.0
 40
1.0
 40
1.0
 10
175.7434643459996
 20
232.8414712709542
 30
0.0
 10
175.8173416862948
 20
232.969348947671
 30
0.0
 10
175.9645692595904
 20
233.2241919069115
 30
0.0
 10
176.1118495704681
 20
233.4789953108764
 30
0.0
 10
176.1852260778533
 20
233.6059408865707
 30
0.0
  0
SPLINE
  5
CE
330
1F
100
AcDbEntity
  8
0
  6
Continuous
 62
     7
370
    25
100
AcDbSpline
210
0.0
220
0.0
230
1.0
 70
     8
 71
     3
 72
     9
 73
     5
 74
     0
 42
0.00000001
 43
0.00000001
 40
0.0
 40
0.0
 40
0.0
 40
0.0
 40
0.4988103511399783
 40
1.0
 40
1.0
 40
1.0
 40
1.0
 10
175.4796719374081
 20
250.8616803118812
 30
0.0
 10
175.4062121025826
 20
250.9887843997166
 30
0.0
 10
175.2589420335921
 20
251.2435988548396
 30
0.0
 10
175.1117041790504
 20
251.4984309272215
 30
0.0
 10
175.0379100904337
 20
251.6261501240969
 30
0.0
  0
LINE
  5
CF
330
1F
100
AcDbEntity
  8
0
  6
Continuous
 62
     7
370
    25
100
AcDbLine
 10
176.3425529142
 20
233.6059152736
 30
0.0
 11
176.4867334893
 21
233.3564191756
 31
0.0
  0
SPLINE
  5
D0
330
1F
100
AcDbEntity
  8
0
  6
Continuous
 62
     7
370
    25
100
AcDbSpline
210
0.0
220
0.0
230
1.0
 70
     8
 71
     3
 72
     9
 73
     5
 74
     0
 42
0.00000001
 43
0.00000001
 40
0.0
 40
0.0
 40
0.0
 40
0.0
 40
0.4989150937458969
 40
1.0
 40
1.0
 40
1.0
 40
1.0
 10
176.0787287001976
 20
251.6261655843951
 30
0.0
 10
176.0052701543779
 20
251.4990312451048
 30
0.0
 10
175.8580335869932
 20
251.2442096514429
 30
0.0
 10
175.7107811129658
 20
250.9893904471264
 30
0.0
 10
175.6369951208221
 20
250.8617043900198
 30
0.0
  0
LINE
  5
D1
330
1F
100
AcDbEntity
  8
0
  6
Continuous
 62
     7
370
    25
100
AcDbLine
 10
176.5086383744
 20
251.1338118185
 30
0.0
 11
176.0645006302
 21
251.5779495627
 31
0.0
  0
SPLINE
  5
D2
330
1F
100
AcDbEntity
  8
0
  6
Continuous
 62
     7
370
    25
100
AcDbSpline
210
0.0
220
0.0
230
1.0
 70
     8
 71
     3
 72
     9
 73
     5
 74
     0
 42
0.00000001
 43
0.00000001
 40
0.0
 40
0.0
 40
0.0
 40
0.0
 40
0.5165667873823968
 40
1.0
 40
1.0
 40
1.0
 40
1.0
 10
176.1753181675168
 20
233.5976060874246
 30
0.0
 10
176.2049790418648
 20
233.5976115938056
 30
0.0
 10
176.2623982857504
 20
233.5976222533777
 30
0.0
 10
176.3196681963435
 20
233.5976117202523
 30
0.0
 10
176.3473543732079
 20
233.5976066281896
 30
0.0
  0
SPLINE
  5
D3
330
1F
100
AcDbEntity
  8
0
  6
Continuous
 62
     7
370
    25
100
AcDbSpline
210
0.0
220
0.0
230
1.0
 70
     8
 71
     3
 72
     9
 73
     5
 74
     0
 42
0.00000001
 43
0.00000001
 40
0.0
 40
0.0
 40
0.0
 40
0.0
 40
0.512086911069838
 40
1.0
 40
1.0
 40
1.0
 40
1.0
 10
175.6461507164703
 20
250.8700175071343
 30
0.0
 10
175.6169228940215
 20
250.8700196373679
 30
0.0
 10
175.5598469918319
 20
250.8700237972743
 30
0.0
 10
175.5027244026983
 20
250.8700197331467
 30
0.0
 10
175.4748535437865
 20
250.8700177502057
 30
0.0
  0
LINE
  5
D4
330
1F
100
AcDbEntity
  8
0
  6
Continuous
 62
     7
370
    25
100
AcDbLine
 10
176.5086383744
 20
234.1088118185
 30
0.0
 11
178.0086383744
 21
234.1088118185
 31
0.0
  0
LINE
  5
D5
330
1F
100
AcDbEntity
  8
0
  6
Continuous
 62
     7
370
    25
100
AcDbLine
 10
178.0086383744
 20
250.3588118185
 30
0.0
 11
176.5086383744
 21
250.3588118185
 31
0.0
  0
SPLINE
  5
D6
330
1F
100
AcDbEntity
  8
0
  6
Continuous
 62
     7
370
    25
100
AcDbSpline
210
0.0
220
0.0
230
1.0
 70
     8
 71
     3
 72
     9
 73
     5
 74
     0
 42
0.00000001
 43
0.00000001
 40
0.0
 40
0.0
 40
0.0
 40
0.0
 40
0.2985650935671253
 40
1.0
 40
1.0
 40
1.0
 40
1.0
 10
177.9821660903891
 20
233.2104849001264
 30
0.0
 10
177.9848007709225
 20
233.2059255177708
 30
0.0
 10
177.9936252470255
 20
233.190654535148
 30
0.0
 10
178.0024490505613
 20
233.1753831571172
 30
0.0
 10
178.0086383743689
 20
233.1646712794971
 30
0.0
  0
LINE
  5
D7
330
1F
100
AcDbEntity
  8
0
  6
Continuous
 62
     7
370
    25
100
AcDbLine
 10
159.0311672558
 20
259.3063407
 30
0.0
 11
158.1586383744
 21
258.4338118185
 31
0.0
  0
LINE
  5
D8
330
1F
100
AcDbEntity
  8
0
  6
Continuous
 62
     7
370
    25
100
AcDbLine
 10
158.1586383744
 20
226.0338118185
 30
0.0
 11
159.0311672558
 21
225.1612829371
 31
0.0
  0
LINE
  5
D9
330
1F
100
AcDbEntity
  8
0
  6
Continuous
 62
     7
370
    25
100
AcDbLine
 10
166.7361094929
 20
225.1612829371
 30
0.0
 11
167.6086383744
 21
226.0338118185
 31
0.0
  0
LINE
  5
DA
330
1F
100
AcDbEntity
  8
0
  6
Continuous
 62
     7
370
    25
100
AcDbLine
 10
167.6086383744
 20
258.4338118185
 30
0.0
 11
166.7361094929
 21
259.3063407
 31
0.0
  0
ARC
  5
DB
330
1F
100
AcDbEntity
  8
0
  6
Continuous
 62
     7
370
    25
100
AcDbCircle
 10
167.6086383744
 20
236.4928234464
 30
0.0
 40
9.134011627907007
100
AcDbArc
 50
270.0
 51
328.0464183091
  0
ARC
  5
DC
330
1F
100
AcDbEntity
  8
0
  6
Continuous
 62
     7
370
    25
100
AcDbCircle
 10
167.6086383744
 20
247.9748001906
 30
0.0
 40
9.134011627907007
100
AcDbArc
 50
31.9535816909
 51
90.0
  0
LINE
  5
DD
330
1F
100
AcDbEntity
  8
0
  6
Continuous
 62
     7
370
    25
100
AcDbLine
 10
166.1708329895
 20
259.748908957
 30
0.0
 11
159.5712704679
 21
259.748908957
 31
0.0
  0
LINE
  5
DE
330
1F
100
AcDbEntity
  8
0
  6
Continuous
 62
     7
370
    25
100
AcDbLine
 10
159.5712704679
 20
224.7187146801
 30
0.0
 11
166.1708329895
 21
224.7187146801
 31
0.0
  0
ARC
  5
DF
330
1F
100
AcDbEntity
  8
0
  6
Continuous
 62
     7
370
    25
100
AcDbCircle
 10
116.3856593173
 20
236.6935675054
 30
0.0
 40
0.1000000000000076
100
AcDbArc
 50
34.6269032223
 51
109.8647128989
  0
ARC
  5
E0
330
1F
100
AcDbEntity
  8
0
  6
Continuous
 62
     7
370
    25
100
AcDbCircle
 10
116.112187248
 20
237.1121520575
 30
0.0
 40
0.1000000000000152
100
AcDbArc
 50
316.4505263853
 51
31.6883360596
  0
ARC
  5
E1
330
1F
100
AcDbEntity
  8
0
  6
Continuous
 62
     7
370
    25
100
AcDbCircle
 10
124.4086383744
 20
242.2338118185
 30
0.0
 40
9.650000000000002
100
AcDbArc
 50
324.9501653321
 51
211.6883360596
  0
ARC
  5
E2
330
1F
100
AcDbEntity
  8
0
  6
Continuous
 62
     7
370
    25
100
AcDbCircle
 10
124.4086383744
 20
-62.7661881815
 30
0.0
 40
7.90000000000002
100
AcDbArc
 50
180.0
 51
0.0
  0
ARC
  5
E3
330
1F
100
AcDbEntity
  8
0
  6
Continuous
 62
     7
370
    25
100
AcDbCircle
 10
124.4086383744
 20
-62.7661881815
 30
0.0
 40
10.82499999999999
100
AcDbArc
 50
136.8689719021
 51
180.0
  0
ARC
  5
E4
330
1F
100
AcDbEntity
  8
0
  6
Continuous
 62
     7
370
    25
100
AcDbCircle
 10
124.4086383744
 20
-62.7661881815
 30
0.0
 40
10.82499999999999
100
AcDbArc
 50
180.0
 51
43.1310280979
  0
ARC
  5
E5
330
1F
100
AcDbEntity
  8
0
  6
Continuous
 62
     7
370
    25
100
AcDbCircle
 10
124.4086383744
 20
242.2338118185
 30
0.0
 40
7.90000000000002
100
AcDbArc
 50
0.0
 51
180.0
  0
SPLINE
  5
E6
330
1F
100
AcDbEntity
  8
0
  6
Continuous
 62
     7
370
    25
100
AcDbSpline
210
0.0
220
0.0
230
1.0
 70
     8
 71
     3
 72
    10
 73
     6
 74
     0
 42
0.00000001
 43
0.00000001
 40
0.0
 40
0.0
 40
0.0
 40
0.0
 40
0.4487242086063146
 40
0.9076837770409296
 40
1.0
 40
1.0
 40
1.0
 40
1.0
 10
125.6110261768201
 20
250.031949499673
 30
0.0
 10
126.4568037097294
 20
249.8210147158023
 30
0.0
 10
128.1676508868673
 20
249.3943337441479
 30
0.0
 10
129.7345575074832
 20
248.1618916855986
 30
0.0
 10
130.4224183793601
 20
247.3537012223253
 30
0.0
 10
130.5376070355724
 20
247.2183622646462
 30
0.0
  0
ARC
  5
E7
330
1F
100
AcDbEntity
  8
0
  6
Continuous
 62
     7
370
    25
100
AcDbCircle
 10
124.4086383744
 20
-62.7661881815
 30
0.0
 40
11.55000000000001
100
AcDbArc
 50
133.1556534408
 51
274.9657006069
  0
ARC
  5
E8
330
1F
100
AcDbEntity
  8
0
  6
Continuous
 62
     7
370
    25
100
AcDbCircle
 10
124.4086383744
 20
-62.7661881815
 30
0.0
 40
11.55000000000001
100
AcDbArc
 50
274.9657006069
 51
46.8443465592
  0
ARC
  5
E9
330
1F
100
AcDbEntity
  8
0
  6
Continuous
 62
     7
370
    25
100
AcDbCircle
 10
124.4086383744
 20
242.2338118185
 30
0.0
 40
8.049999999999995
100
AcDbArc
 50
348.9219835539
 51
191.0780164461
  0
ARC
  5
EA
330
1F
100
AcDbEntity
  8
0
  6
Continuous
 62
     7
370
    25
100
AcDbCircle
 10
124.4086383744
 20
242.2338118185
 30
0.0
 40
8.249999999999991
100
AcDbArc
 50
343.2508741362
 51
196.7491258638
  0
ARC
  5
EB
330
1F
100
AcDbEntity
  8
0
  6
Continuous
 62
     7
370
    25
100
AcDbCircle
 10
124.4086383744
 20
242.2338118185
 30
0.0
 40
9.574999999999985
100
AcDbArc
 50
325.5951096848
 51
214.4048903152
  0
ARC
  5
EC
330
1F
100
AcDbEntity
  8
0
  6
Continuous
 62
     7
370
    25
100
AcDbCircle
 10
124.4086383744
 20
242.2338118185
 30
0.0
 40
9.925000000000018
100
AcDbArc
 50
322.7469493593
 51
217.2530506407
  0
ARC
  5
ED
330
1F
100
AcDbEntity
  8
0
  6
Continuous
 62
     7
370
    25
100
AcDbCircle
 10
124.4086383744
 20
242.2338118185
 30
0.0
 40
9.725000000000017
100
AcDbArc
 50
324.3251241983
 51
215.6748758017
  0
ARC
  5
EE
330
1F
100
AcDbEntity
  8
0
  6
Continuous
 62
     7
370
    25
100
AcDbCircle
 10
124.4086383744
 20
242.2338118185
 30
0.0
 40
14.22500000000001
100
AcDbArc
 50
303.7355336397
 51
223.2235523034
  0
LWPOLYLINE
  5
EF
330
1F
100
AcDbEntity
  8
0
  6
Continuous
 62
     7
370
    25
100
AcDbPolyline
 90
        3
 70
   128
 43
0.0
 10
116.5086383744
 20
230.4041615701
 10
115.6516443239
 20
231.023741337
 10
114.0430633481
 20
232.4918674861
  0
LINE
  5
F0
330
1F
100
AcDbEntity
  8
0
  6
Continuous
 62
     7
370
    25
100
AcDbLine
 10
132.2834182884
 20
254.3704679061
 30
0.0
 11
132.1513861073
 21
254.1669791493
 31
0.0
  0
SPLINE
  5
F1
330
1F
100
AcDbEntity
  8
0
  6
Continuous
 62
     7
370
    25
100
AcDbSpline
210
0.0
220
0.0
230
1.0
 70
     8
 71
     3
 72
    11
 73
     7
 74
     0
 42
0.00000001
 43
0.00000001
 40
0.0
 40
0.0
 40
0.0
 40
0.0
 40
0.1446702591042601
 40
0.3907520209323703
 40
0.596231481135488
 40
1.0
 40
1.0
 40
1.0
 40
1.0
 10
137.0099680025388
 20
249.3413480501297
 30
0.0
 10
136.8108501060237
 20
249.6088460101252
 30
0.0
 10
136.2730359004721
 20
250.3313536568987
 30
0.0
 10
135.3834579465202
 20
251.3811477689638
 30
0.0
 10
134.040650660435
 20
252.8277936198524
 30
0.0
 10
132.9838166665017
 20
253.7555881751778
 30
0.0
 10
132.2834182883747
 20
254.3704679060678
 30
0.0
  0
LINE
  5
F2
330
1F
100
AcDbEntity
  8
0
  6
Continuous
 62
     7
370
    25
100
AcDbLine
 10
136.7986883155
 20
249.2221798294
 30
0.0
 11
137.0099680025
 21
249.3413480501
 31
0.0
  0
LINE
  5
F3
330
1F
100
AcDbEntity
  8
0
  6
Continuous
 62
     7
370
    25
100
AcDbLine
 10
109.9605959286
 20
242.9852432295
 30
0.0
 11
110.2028384518
 21
242.9726443849
 31
0.0
  0
SPLINE
  5
F4
330
1F
100
AcDbEntity
  8
0
  6
Continuous
 62
     7
370
    25
100
AcDbSpline
210
0.0
220
0.0
230
1.0
 70
     8
 71
     3
 72
    11
 73
     7
 74
     0
 42
0.00000001
 43
0.00000001
 40
0.0
 40
0.0
 40
0.0
 40
0.0
 40
0.1446702591042569
 40
0.3907520209323613
 40
0.5962314811354649
 40
0.9999999999999999
 40
0.9999999999999999
 40
0.9999999999999999
 40
0.9999999999999999
 10
111.9526666253903
 20
249.5931152821713
 30
0.0
 10
111.8205655448312
 20
249.2869251454433
 30
0.0
 10
111.4637626710726
 20
248.4599105575327
 30
0.0
 10
110.9994032782571
 20
247.1646163947312
 30
0.0
 10
110.4179748641506
 20
245.2783882471505
 30
0.0
 10
110.1428982067126
 20
243.8992458831584
 30
0.0
 10
109.9605959285533
 20
242.985243229486
 30
0.0
  0
LINE
  5
F5
330
1F
100
AcDbEntity
  8
0
  6
Continuous
 62
     7
370
    25
100
AcDbLine
 10
111.9526666254
 20
249.5931152822
 30
0.0
 11
112.1615091754
 21
249.4697258163
 31
0.0
  0
LINE
  5
F6
330
1F
100
AcDbEntity
  8
0
  6
Continuous
 62
     7
370
    25
100
AcDbLine
 10
117.8353758426
 20
255.121899317
 30
0.0
 11
117.9455861848
 21
254.9058117157
 31
0.0
  0
SPLINE
  5
F7
330
1F
100
AcDbEntity
  8
0
  6
Continuous
 62
     7
370
    25
100
AcDbSpline
210
0.0
220
0.0
230
1.0
 70
     8
 71
     3
 72
    11
 73
     7
 74
     0
 42
0.00000001
 43
0.00000001
 40
0.0
 40
0.0
 40
0.0
 40
0.0
 40
0.1446702591042506
 40
0.3907520209323636
 40
0.5962314811354598
 40
0.9999999999999999
 40
0.9999999999999999
 40
0.9999999999999999
 40
0.9999999999999999
 10
124.5539962535607
 20
256.7006515137816
 30
0.0
 10
124.2227772764865
 20
256.6619593370492
 30
0.0
 10
123.3281601971764
 20
256.5574523959121
 30
0.0
 10
121.9742228504089
 20
256.3119523451757
 30
0.0
 10
120.0499871502174
 20
255.8723700484835
 30
0.0
 10
118.718076498846
 20
255.421022239817
 30
0.0
 10
117.8353758425596
 20
255.1218993170344
 30
0.0
  0
LINE
  5
F8
330
1F
100
AcDbEntity
  8
0
  6
Continuous
 62
     7
370
    25
100
AcDbLine
 10
124.5539962536
 20
256.7006515138
 30
0.0
 11
124.5515591165
 21
256.4580938272
 31
0.0
  0
SPLINE
  5
F9
330
1F
100
AcDbEntity
  8
0
  6
Continuous
 62
     7
370
    25
100
AcDbSpline
210
0.0
220
0.0
230
1.0
 70
     8
 71
     3
 72
    11
 73
     7
 74
     0
 42
0.00000001
 43
0.00000001
 40
0.0
 40
0.0
 40
0.0
 40
0.0
 40
0.144670259104253
 40
0.3907520209323619
 40
0.5962314811354784
 40
1.0
 40
1.0
 40
1.0
 40
1.0
 10
111.807308746198
 20
235.126275586909
 30
0.0
 10
112.0064266427132
 20
234.8587776269135
 30
0.0
 10
112.5442408482647
 20
234.1362699801399
 30
0.0
 10
113.4338188022168
 20
233.0864758680749
 30
0.0
 10
114.7766260883018
 20
231.6398300171863
 30
0.0
 10
115.8334600822352
 20
230.7120354618608
 30
0.0
 10
116.5338584603622
 20
230.0971557309708
 30
0.0
  0
LINE
  5
FA
330
1F
100
AcDbEntity
  8
0
  6
Continuous
 62
     7
370
    25
100
AcDbLine
 10
111.8073087462
 20
235.1262755869
 30
0.0
 11
112.0185884332
 21
235.2454438076
 31
0.0
  0
LINE
  5
FB
330
1F
100
AcDbEntity
  8
0
  6
Continuous
 62
     7
370
    25
100
AcDbLine
 10
138.6144382969
 20
241.4949792521
 30
0.0
 11
138.8566808202
 21
241.4823804076
 31
0.0
  0
SPLINE
  5
FC
330
1F
100
AcDbEntity
  8
0
  6
Continuous
 62
     7
370
    25
100
AcDbSpline
210
0.0
220
0.0
230
1.0
 70
     8
 71
     3
 72
    11
 73
     7
 74
     0
 42
0.00000001
 43
0.00000001
 40
0.0
 40
0.0
 40
0.0
 40
0.0
 40
0.1446702591042557
 40
0.3907520209323582
 40
0.5962314811354759
 40
1.0
 40
1.0
 40
1.0
 40
1.0
 10
136.8646101233466
 20
234.8745083548675
 30
0.0
 10
136.9967112039056
 20
235.1806984915955
 30
0.0
 10
137.3535140776642
 20
236.007713079506
 30
0.0
 10
137.8178734704797
 20
237.3030072423075
 30
0.0
 10
138.3993018845863
 20
239.1892353898883
 30
0.0
 10
138.6743785420244
 20
240.5683777538803
 30
0.0
 10
138.8566808201836
 20
241.4823804075527
 30
0.0
  0
LINE
  5
FD
330
1F
100
AcDbEntity
  8
0
  6
Continuous
 62
     7
370
    25
100
AcDbLine
 10
136.6557675734
 20
234.9978978208
 30
0.0
 11
136.8646101233
 21
234.8745083549
 31
0.0
  0
SPLINE
  5
FE
330
1F
100
AcDbEntity
  8
0
  6
Continuous
 62
     7
370
    25
100
AcDbSpline
210
0.0
220
0.0
230
1.0
 70
     8
 71
     3
 72
     9
 73
     5
 74
     0
 42
0.00000001
 43
0.00000001
 40
0.0
 40
0.0
 40
0.0
 40
0.0
 40
0.5863847898283582
 40
0.9999999999999999
 40
0.9999999999999999
 40
0.9999999999999999
 40
0.9999999999999999
 10
136.1386395458699
 20
233.3325367684731
 30
0.0
 10
136.2862160923023
 20
233.6316748101617
 30
0.0
 10
136.5378879449704
 20
234.1418143070886
 30
0.0
 10
136.769013201706
 20
234.6601265341408
 30
0.0
 10
136.8646101233466
 20
234.8745083548675
 30
0.0
  0
ARC
  5
FF
330
1F
100
AcDbEntity
  8
0
  6
Continuous
 62
     7
370
    25
100
AcDbCircle
 10
124.4086383744
 20
242.2338118185
 30
0.0
 40
14.72500000000004
100
AcDbArc
 50
303.6400367407
 51
322.8070678661
  0
SPLINE
  5
100
330
1F
100
AcDbEntity
  8
0
  6
Continuous
 62
     7
370
    25
100
AcDbSpline
210
0.0
220
0.0
230
1.0
 70
     8
 71
     3
 72
     9
 73
     5
 74
     0
 42
0.00000001
 43
0.00000001
 40
0.0
 40
0.0
 40
0.0
 40
0.0
 40
0.5862283062032688
 40
1.0
 40
1.0
 40
1.0
 40
1.0
 10
109.9605959285533
 20
242.985243229486
 30
0.0
 10
109.9063432912974
 20
242.6569173744702
 30
0.0
 10
109.8137980547713
 20
242.0968525472662
 30
0.0
 10
109.7427444395735
 20
241.5324756867318
 30
0.0
 10
109.7133444648627
 20
241.2989525172088
 30
0.0
  0
SPLINE
  5
101
330
1F
100
AcDbEntity
  8
0
  6
Continuous
 62
     7
370
    25
100
AcDbSpline
210
0.0
220
0.0
230
1.0
 70
     8
 71
     3
 72
     9
 73
     5
 74
     0
 42
0.00000001
 43
0.00000001
 40
0.0
 40
0.0
 40
0.0
 40
0.0
 40
0.5863847898283593
 40
0.9999999999999999
 40
0.9999999999999999
 40
0.9999999999999999
 40
0.9999999999999999
 10
110.8349074692051
 20
236.525970342601
 30
0.0
 10
111.0201803393295
 20
236.2485962835434
 30
0.0
 10
111.336138176808
 20
235.775572317252
 30
0.0
 10
111.6694471041595
 20
235.3162558599367
 30
0.0
 10
111.807308746198
 20
235.126275586909
 30
0.0
  0
ARC
  5
102
330
1F
100
AcDbEntity
  8
0
  6
Continuous
 62
     7
370
    25
100
AcDbCircle
 10
124.4086383744
 20
242.2338118185
 30
0.0
 40
14.72500000000001
100
AcDbArc
 50
183.6400367407
 51
202.8070678661
  0
SPLINE
  5
103
330
1F
100
AcDbEntity
  8
0
  6
Continuous
 62
     7
370
    25
100
AcDbSpline
210
0.0
220
0.0
230
1.0
 70
     8
 71
     3
 72
     9
 73
     5
 74
     0
 42
0.00000001
 43
0.00000001
 40
0.0
 40
0.0
 40
0.0
 40
0.0
 40
0.5862283062032856
 40
1.0
 40
1.0
 40
1.0
 40
1.0
 10
138.8566808201836
 20
241.4823804075528
 30
0.0
 10
138.9109334574395
 20
241.8107062625686
 30
0.0
 10
139.0034786939658
 20
242.3707710897725
 30
0.0
 10
139.0745323091634
 20
242.9351479503069
 30
0.0
 10
139.1039322838741
 20
243.1686711198299
 30
0.0
  0
SPLINE
  5
104
330
1F
100
AcDbEntity
  8
0
  6
Continuous
 62
     7
370
    25
100
AcDbSpline
210
0.0
220
0.0
230
1.0
 70
     8
 71
     3
 72
     9
 73
     5
 74
     0
 42
0.00000001
 43
0.00000001
 40
0.0
 40
0.0
 40
0.0
 40
0.0
 40
0.5863847898283676
 40
1.0
 40
1.0
 40
1.0
 40
1.0
 10
137.9823692795318
 20
247.9416532944377
 30
0.0
 10
137.7970964094073
 20
248.2190273534953
 30
0.0
 10
137.4811385719289
 20
248.6920513197867
 30
0.0
 10
137.1478296445775
 20
249.151367777102
 30
0.0
 10
137.0099680025389
 20
249.3413480501297
 30
0.0
  0
ARC
  5
105
330
1F
100
AcDbEntity
  8
0
  6
Continuous
 62
     7
370
    25
100
AcDbCircle
 10
124.4086383744
 20
242.2338118185
 30
0.0
 40
14.72500000000002
100
AcDbArc
 50
3.6400367407
 51
22.8070678661
  0
SPLINE
  5
106
330
1F
100
AcDbEntity
  8
0
  6
Continuous
 62
     7
370
    25
100
AcDbSpline
210
0.0
220
0.0
230
1.0
 70
     8
 71
     3
 72
     9
 73
     5
 74
     0
 42
0.00000001
 43
0.00000001
 40
0.0
 40
0.0
 40
0.0
 40
0.0
 40
0.5862283062032916
 40
1.0
 40
1.0
 40
1.0
 40
1.0
 10
117.8353758425596
 20
255.1218993170344
 30
0.0
 10
117.5239109927686
 20
255.0047205516125
 30
0.0
 10
116.9926080063807
 20
254.8048346638415
 30
0.0
 10
116.468316500251
 20
254.5841804693661
 30
0.0
 10
116.2513795157166
 20
254.4928800095747
 30
0.0
  0
SPLINE
  5
107
330
1F
100
AcDbEntity
  8
0
  6
Continuous
 62
     7
370
    25
100
AcDbSpline
210
0.0
220
0.0
230
1.0
 70
     8
 71
     3
 72
     9
 73
     5
 74
     0
 42
0.00000001
 43
0.00000001
 40
0.0
 40
0.0
 40
0.0
 40
0.0
 40
0.5863847898283673
 40
0.9999999999999999
 40
0.9999999999999999
 40
0.9999999999999999
 40
0.9999999999999999
 10
112.678637202867
 20
251.1350868685656
 30
0.0
 10
112.5310606564346
 20
250.835948826877
 30
0.0
 10
112.2793888037666
 20
250.3258093299501
 30
0.0
 10
112.048263547031
 20
249.807497102898
 30
0.0
 10
111.9526666253903
 20
249.5931152821713
 30
0.0
  0
ARC
  5
108
330
1F
100
AcDbEntity
  8
0
  6
Continuous
 62
     7
370
    25
100
AcDbCircle
 10
124.4086383744
 20
242.2338118185
 30
0.0
 40
14.72499999999998
100
AcDbArc
 50
123.6400367407
 51
142.8070678661
  0
SPLINE
  5
109
330
1F
100
AcDbEntity
  8
0
  6
Continuous
 62
     7
370
    25
100
AcDbSpline
210
0.0
220
0.0
230
1.0
 70
     8
 71
     3
 72
     9
 73
     5
 74
     0
 42
0.00000001
 43
0.00000001
 40
0.0
 40
0.0
 40
0.0
 40
0.0
 40
0.5862283062032884
 40
1.0
 40
1.0
 40
1.0
 40
1.0
 10
132.2834182883747
 20
254.3704679060678
 30
0.0
 10
132.0262060758398
 20
254.5816149956617
 30
0.0
 10
131.5874483259781
 20
254.9417939350946
 30
0.0
 10
131.134210435046
 20
255.2855166011536
 30
0.0
 10
130.9466734252221
 20
255.4277393108852
 30
0.0
  0
SPLINE
  5
10A
330
1F
100
AcDbEntity
  8
0
  6
Continuous
 62
     7
370
    25
100
AcDbSpline
210
0.0
220
0.0
230
1.0
 70
     8
 71
     3
 72
     9
 73
     5
 74
     0
 42
0.00000001
 43
0.00000001
 40
0.0
 40
0.0
 40
0.0
 40
0.0
 40
0.5863847898283671
 40
1.0
 40
1.0
 40
1.0
 40
1.0
 10
126.2523681080304
 20
256.8429283444839
 30
0.0
 10
125.9195186914735
 20
256.8211643618529
 30
0.0
 10
125.351889001327
 20
256.7840488312175
 30
0.0
 10
124.7874548172399
 20
256.7250530614807
 30
0.0
 10
124.5539962535607
 20
256.7006515137816
 30
0.0
  0
ARC
  5
10B
330
1F
100
AcDbEntity
  8
0
  6
Continuous
 62
     7
370
    25
100
AcDbCircle
 10
124.4086383744
 20
242.2338118185
 30
0.0
 40
14.72500000000001
100
AcDbArc
 50
63.6400367407
 51
82.8070678661
  0
SPLINE
  5
10C
330
1F
100
AcDbEntity
  8
0
  6
Continuous
 62
     7
370
    25
100
AcDbSpline
210
0.0
220
0.0
230
1.0
 70
    24
 71
     3
 72
    12
 73
     8
 74
     0
 42
0.00000001
 43
0.00000001
 40
0.0
 40
0.0
 40
0.0
 40
0.0
 40
0.3013828945620938
 40
0.4108442493795581
 40
0.6247185195336485
 40
0.6986171054378615
 40
1.0
 40
1.0
 40
1.0
 40
1.0
 10
116.3096355132417
 20
229.97068711475
 30
0.0
 10
115.8445320614004
 20
230.4655641701443
 30
0.0
 10
115.2105044440294
 20
231.1401790737343
 30
0.0
 10
114.2417884954945
 20
232.1709073863849
 30
0.0
 10
113.6246636905457
 20
232.8275374437943
 30
0.0
 10
112.7114134640247
 20
233.7992493955111
 30
0.0
 10
112.1322808063482
 20
234.4154552378435
 30
0.0
 10
111.6671881071586
 20
234.910320852255
 30
0.0
  0
ARC
  5
10D
330
1F
100
AcDbEntity
  8
0
  6
Continuous
 62
     7
370
    25
100
AcDbCircle
 10
112.0453539162
 20
234.818386242
 30
0.0
 40
0.3891803587968947
100
AcDbArc
 50
127.7094634934
 51
166.3360839425
  0
SPLINE
  5
10E
330
1F
100
AcDbEntity
  8
0
  6
Continuous
 62
     7
370
    25
100
AcDbSpline
210
0.0
220
0.0
230
1.0
 70
    24
 71
     3
 72
    12
 73
     8
 74
     0
 42
0.00000001
 43
0.00000001
 40
0.0
 40
0.0
 40
0.0
 40
0.0
 40
0.3013828945620997
 40
0.4108442493795556
 40
0.6247185195336504
 40
0.6986171054378586
 40
0.9999999999999999
 40
0.9999999999999999
 40
0.9999999999999999
 40
0.9999999999999999
 10
139.0783173281725
 20
241.3514319473454
 30
0.0
 10
138.8822929523717
 20
240.7012020149658
 30
0.0
 10
138.6150731167768
 20
239.8148105398266
 30
0.0
 10
138.2067941878887
 20
238.460513763019
 30
0.0
 10
137.9466982797582
 20
237.5977529759232
 30
0.0
 10
137.5617961576711
 20
236.3209991038856
 30
0.0
 10
137.3177125730891
 20
235.5113525890105
 30
0.0
 10
137.1216927291441
 20
234.8611376891918
 30
0.0
  0
ARC
  5
10F
330
1F
100
AcDbEntity
  8
0
  6
Continuous
 62
     7
370
    25
100
AcDbCircle
 10
137.0122275326
 20
235.2346061918
 30
0.0
 40
0.389180358796277
100
AcDbArc
 50
247.7094634934
 51
286.3360839426
  0
ARC
  5
110
330
1F
100
AcDbEntity
  8
0
  6
Continuous
 62
     7
370
    25
100
AcDbCircle
 10
138.780673166
 20
241.1006944264
 30
0.0
 40
0.3891803587981316
100
AcDbArc
 50
40.1110206644
 51
78.7376411134
  0
ARC
  5
111
330
1F
100
AcDbEntity
  8
0
  6
Continuous
 62
     7
370
    25
100
AcDbCircle
 10
110.0366035828
 20
243.3669292106
 30
0.0
 40
0.3891803588380692
100
AcDbArc
 50
220.1110206664
 51
258.7376411113
  0
SPLINE
  5
112
330
1F
100
AcDbEntity
  8
0
  6
Continuous
 62
     7
370
    25
100
AcDbSpline
210
0.0
220
0.0
230
1.0
 70
    24
 71
     3
 72
    12
 73
     8
 74
     0
 42
0.00000001
 43
0.00000001
 40
0.0
 40
0.0
 40
0.0
 40
0.0
 40
0.3013828945621511
 40
0.4108442493795779
 40
0.6247185195336599
 40
0.698617105437863
 40
1.0
 40
1.0
 40
1.0
 40
1.0
 10
109.7389594205643
 20
243.1161916896933
 30
0.0
 10
109.9349837963653
 20
243.7664216220731
 30
0.0
 10
110.2022036319602
 20
244.6528130972123
 30
0.0
 10
110.6104825608482
 20
246.0071098740199
 30
0.0
 10
110.8705784689786
 20
246.8698706611157
 30
0.0
 10
111.2554805910658
 20
248.1466245331531
 30
0.0
 10
111.4995641756478
 20
248.9562710480282
 30
0.0
 10
111.6955840195928
 20
249.6064859478469
 30
0.0
  0
ARC
  5
113
330
1F
100
AcDbEntity
  8
0
  6
Continuous
 62
     7
370
    25
100
AcDbCircle
 10
111.8050492161
 20
249.2330174453
 30
0.0
 40
0.389180358796567
100
AcDbArc
 50
67.7094634934
 51
106.3360839426
  0
ARC
  5
114
330
1F
100
AcDbEntity
  8
0
  6
Continuous
 62
     7
370
    25
100
AcDbCircle
 10
118.2039294256
 20
255.2469177482
 30
0.0
 40
0.3891803588381609
100
AcDbArc
 50
160.1110206664
 51
198.7376411113
  0
SPLINE
  5
115
330
1F
100
AcDbEntity
  8
0
  6
Continuous
 62
     7
370
    25
100
AcDbSpline
210
0.0
220
0.0
230
1.0
 70
    24
 71
     3
 72
    12
 73
     8
 74
     0
 42
0.00000001
 43
0.00000001
 40
0.0
 40
0.0
 40
0.0
 40
0.0
 40
0.3013828945621479
 40
0.4108442493795573
 40
0.6247185195336357
 40
0.6986171054378684
 40
1.0
 40
1.0
 40
1.0
 40
1.0
 10
117.8379622816911
 20
255.3793163934626
 30
0.0
 10
118.4990901093335
 20
255.5346692704479
 30
0.0
 10
119.4003375622995
 20
255.7464458419972
 30
0.0
 10
120.777332439722
 20
256.0700143061541
 30
0.0
 10
121.6545531528013
 20
256.2761450358406
 30
0.0
 10
122.9527055014094
 20
256.5811869561613
 30
0.0
 10
123.775921743668
 20
256.7746276287041
 30
0.0
 10
124.4370342868026
 20
256.9299769141113
 30
0.0
  0
ARC
  5
116
330
1F
100
AcDbEntity
  8
0
  6
Continuous
 62
     7
370
    25
100
AcDbCircle
 10
124.1683336743
 20
256.6484430218
 30
0.0
 40
0.389180358796602
100
AcDbArc
 50
7.7094634934
 51
46.3360839426
  0
SPLINE
  5
117
330
1F
100
AcDbEntity
  8
0
  6
Continuous
 62
     7
370
    25
100
AcDbSpline
210
0.0
220
0.0
230
1.0
 70
    24
 71
     3
 72
    12
 73
     8
 74
     0
 42
0.00000001
 43
0.00000001
 40
0.0
 40
0.0
 40
0.0
 40
0.0
 40
0.3013828945621543
 40
0.4108442493795519
 40
0.6247185195336437
 40
0.6986171054378574
 40
0.9999999999999999
 40
0.9999999999999999
 40
0.9999999999999999
 40
0.9999999999999999
 10
132.5076412354952
 20
254.4969365222886
 30
0.0
 10
132.9727446873367
 20
254.0020594668942
 30
0.0
 10
133.6067723047077
 20
253.3274445633043
 30
0.0
 10
134.5754882532424
 20
252.2967162506536
 30
0.0
 10
135.1926130581912
 20
251.6400861932444
 30
0.0
 10
136.1058632847121
 20
250.6683742415277
 30
0.0
 10
136.6849959423885
 20
250.0521683991952
 30
0.0
 10
137.1500886415782
 20
249.5573027847837
 30
0.0
  0
ARC
  5
118
330
1F
100
AcDbEntity
  8
0
  6
Continuous
 62
     7
370
    25
100
AcDbCircle
 10
136.7719228326
 20
249.6492373951
 30
0.0
 40
0.3891803587959082
100
AcDbArc
 50
307.7094634933
 51
346.3360839426
  0
ARC
  5
119
330
1F
100
AcDbEntity
  8
0
  6
Continuous
 62
     7
370
    25
100
AcDbCircle
 10
132.5759642172
 20
254.1138003561
 30
0.0
 40
0.3891803587974187
100
AcDbArc
 50
100.1110206643
 51
138.7376411134
  0
LINE
  5
11A
330
1F
100
AcDbEntity
  8
0
  6
Continuous
 62
     7
370
    25
100
AcDbLine
 10
111.6671881072
 20
234.9103208523
 30
0.0
 11
110.470563883
 21
236.1835469917
 31
0.0
  0
LINE
  5
11B
330
1F
100
AcDbEntity
  8
0
  6
Continuous
 62
     7
370
    25
100
AcDbLine
 10
110.8349074692
 20
236.5259703426
 30
0.0
 11
110.470563883
 21
236.1835469917
 31
0.0
  0
LINE
  5
11C
330
1F
100
AcDbEntity
  8
0
  6
Continuous
 62
     7
370
    25
100
AcDbLine
 10
137.1216927291
 20
234.8611376892
 30
0.0
 11
136.6173586597
 21
233.1882176426
 31
0.0
  0
LINE
  5
11D
330
1F
100
AcDbEntity
  8
0
  6
Continuous
 62
     7
370
    25
100
AcDbLine
 10
136.6173586597
 20
233.1882176426
 30
0.0
 11
136.1386395459
 21
233.3325367685
 31
0.0
  0
LINE
  5
11E
330
1F
100
AcDbEntity
  8
0
  6
Continuous
 62
     7
370
    25
100
AcDbLine
 10
111.6955840196
 20
249.6064859478
 30
0.0
 11
112.1999180891
 21
251.2794059944
 31
0.0
  0
LINE
  5
11F
330
1F
100
AcDbEntity
  8
0
  6
Continuous
 62
     7
370
    25
100
AcDbLine
 10
112.1999180891
 20
251.2794059944
 30
0.0
 11
112.6786372029
 21
251.1350868686
 31
0.0
  0
LINE
  5
120
330
1F
100
AcDbEntity
  8
0
  6
Continuous
 62
     7
370
    25
100
AcDbLine
 10
137.1500886416
 20
249.5573027848
 30
0.0
 11
138.3467128657
 21
248.2840766453
 31
0.0
  0
LINE
  5
121
330
1F
100
AcDbEntity
  8
0
  6
Continuous
 62
     7
370
    25
100
AcDbLine
 10
138.3467128657
 20
248.2840766453
 30
0.0
 11
137.9823692795
 21
247.9416532944
 31
0.0
  0
LINE
  5
122
330
1F
100
AcDbEntity
  8
0
  6
Continuous
 62
     7
370
    25
100
AcDbLine
 10
124.4370342868
 20
256.9299769141
 30
0.0
 11
126.1379925804
 21
257.3296708212
 31
0.0
  0
LINE
  5
123
330
1F
100
AcDbEntity
  8
0
  6
Continuous
 62
     7
370
    25
100
AcDbLine
 10
126.1379925804
 20
257.3296708212
 30
0.0
 11
126.252368108
 21
256.8429283445
 31
0.0
  0
LINE
  5
124
330
1F
100
AcDbEntity
  8
0
  6
Continuous
 62
     7
370
    25
100
AcDbLine
 10
132.6802727606
 20
229.4880011507
 30
0.0
 11
132.3086383744
 21
229.4006739067
 31
0.0
  0
LINE
  5
125
330
1F
100
AcDbEntity
  8
0
  6
Continuous
 62
     7
370
    25
100
AcDbLine
 10
132.6802727606
 20
229.4880011507
 30
0.0
 11
132.565897233
 21
229.9747436275
 31
0.0
  0
LINE
  5
126
330
1F
100
AcDbEntity
  8
0
  6
Continuous
 62
     7
370
    25
100
AcDbLine
 10
109.7133444649
 20
241.2989525172
 30
0.0
 11
109.2346253511
 21
241.4432716431
 31
0.0
  0
LINE
  5
127
330
1F
100
AcDbEntity
  8
0
  6
Continuous
 62
     7
370
    25
100
AcDbLine
 10
109.2346253511
 20
241.4432716431
 30
0.0
 11
109.7389594206
 21
243.1161916897
 31
0.0
  0
LINE
  5
128
330
1F
100
AcDbEntity
  8
0
  6
Continuous
 62
     7
370
    25
100
AcDbLine
 10
139.5826513977
 20
243.0243519939
 30
0.0
 11
139.0783173282
 21
241.3514319473
 31
0.0
  0
LINE
  5
129
330
1F
100
AcDbEntity
  8
0
  6
Continuous
 62
     7
370
    25
100
AcDbLine
 10
139.1039322839
 20
243.1686711198
 30
0.0
 11
139.5826513977
 21
243.0243519939
 31
0.0
  0
LINE
  5
12A
330
1F
100
AcDbEntity
  8
0
  6
Continuous
 62
     7
370
    25
100
AcDbLine
 10
116.2513795157
 20
254.4928800096
 30
0.0
 11
116.1370039881
 21
254.9796224863
 31
0.0
  0
LINE
  5
12B
330
1F
100
AcDbEntity
  8
0
  6
Continuous
 62
     7
370
    25
100
AcDbLine
 10
116.1370039881
 20
254.9796224863
 30
0.0
 11
117.8379622817
 21
255.3793163935
 31
0.0
  0
LINE
  5
12C
330
1F
100
AcDbEntity
  8
0
  6
Continuous
 62
     7
370
    25
100
AcDbLine
 10
131.3110170114
 20
255.7701626618
 30
0.0
 11
132.5076412355
 21
254.4969365223
 31
0.0
  0
LINE
  5
12D
330
1F
100
AcDbEntity
  8
0
  6
Continuous
 62
     7
370
    25
100
AcDbLine
 10
130.9466734252
 20
255.4277393109
 30
0.0
 11
131.3110170114
 21
255.7701626618
 31
0.0
  0
LINE
  5
12E
330
1F
100
AcDbEntity
  8
0
  6
Continuous
 62
     7
370
    25
100
AcDbLine
 10
134.5502653377
 20
229.9274150048
 30
0.0
 11
132.6802727606
 21
229.4880011507
 31
0.0
  0
LINE
  5
12F
330
1F
100
AcDbEntity
  8
0
  6
Continuous
 62
     7
370
    25
100
AcDbLine
 10
132.565897233
 20
229.9747436275
 30
0.0
 11
134.4358898101
 21
230.4141574815
 31
0.0
  0
LINE
  5
130
330
1F
100
AcDbEntity
  8
0
  6
Continuous
 62
     7
370
    25
100
AcDbLine
 10
134.5502653377
 20
229.9274150048
 30
0.0
 11
134.4358898101
 21
230.4141574815
 31
0.0
  0
LINE
  5
131
330
1F
100
AcDbEntity
  8
0
  6
Continuous
 62
     7
370
    25
100
AcDbLine
 10
134.7593495338
 20
230.0328783094
 30
0.0
 11
134.4358898101
 21
230.4141574815
 31
0.0
  0
ARC
  5
132
330
1F
100
AcDbEntity
  8
0
  6
Continuous
 62
     7
370
    25
100
AcDbCircle
 10
134.4358898101
 20
230.4141574815
 30
0.0
 40
0.4999999999999729
100
AcDbArc
 50
283.2235523034
 51
310.309742062
  0
LINE
  5
133
330
1F
100
AcDbEntity
  8
0
  6
Continuous
 62
     7
370
    25
100
AcDbLine
 10
135.5841868178
 20
231.4933687648
 30
0.0
 11
136.1386395459
 21
233.3325367685
 31
0.0
  0
ARC
  5
134
330
1F
100
AcDbEntity
  8
0
  6
Continuous
 62
     7
370
    25
100
AcDbCircle
 10
124.4086383744
 20
242.2338118185
 30
0.0
 40
15.50000000000004
100
AcDbArc
 50
310.309742062
 51
316.1373625449
  0
ARC
  5
135
330
1F
100
AcDbEntity
  8
0
  6
Continuous
 62
     7
370
    25
100
AcDbCircle
 10
124.4086383744
 20
242.2338118185
 30
0.0
 40
16.00000000000002
100
AcDbArc
 50
310.309742062
 51
316.1373625449
  0
LINE
  5
136
330
1F
100
AcDbEntity
  8
0
  6
Continuous
 62
     7
370
    25
100
AcDbLine
 10
135.9446883805
 20
231.1469028599
 30
0.0
 11
135.5841868178
 21
231.4933687648
 31
0.0
  0
LINE
  5
137
330
1F
100
AcDbEntity
  8
0
  6
Continuous
 62
     7
370
    25
100
AcDbLine
 10
136.0629059315
 20
231.349049639
 30
0.0
 11
135.5841868178
 21
231.4933687648
 31
0.0
  0
ARC
  5
138
330
1F
100
AcDbEntity
  8
0
  6
Continuous
 62
     7
370
    25
100
AcDbCircle
 10
135.5841868178
 20
231.4933687648
 30
0.0
 40
0.5000000000000246
100
AcDbArc
 50
316.1373625449
 51
343.2235523034
  0
LINE
  5
139
330
1F
100
AcDbEntity
  8
0
  6
Continuous
 62
     7
370
    25
100
AcDbLine
 10
109.5193676203
 20
237.9257244922
 30
0.0
 11
110.8349074692
 21
236.5259703426
 31
0.0
  0
LINE
  5
13A
330
1F
100
AcDbEntity
  8
0
  6
Continuous
 62
     7
370
    25
100
AcDbLine
 10
110.470563883
 20
236.1835469917
 30
0.0
 11
109.1550240341
 21
237.5833011413
 31
0.0
  0
LINE
  5
13B
330
1F
100
AcDbEntity
  8
0
  6
Continuous
 62
     7
370
    25
100
AcDbLine
 10
109.5193676203
 20
237.9257244922
 30
0.0
 11
109.1550240341
 21
237.5833011413
 31
0.0
  0
LINE
  5
13C
330
1F
100
AcDbEntity
  8
0
  6
Continuous
 62
     7
370
    25
100
AcDbLine
 10
136.6173586597
 20
233.1882176426
 30
0.0
 11
136.0629059315
 21
231.349049639
 31
0.0
  0
LINE
  5
13D
330
1F
100
AcDbEntity
  8
0
  6
Continuous
 62
     7
370
    25
100
AcDbLine
 10
109.7133444649
 20
241.2989525172
 30
0.0
 11
109.1588917368
 21
239.4597845136
 31
0.0
  0
ARC
  5
13E
330
1F
100
AcDbEntity
  8
0
  6
Continuous
 62
     7
370
    25
100
AcDbCircle
 10
124.4086383744
 20
242.2338118185
 30
0.0
 40
15.50000000000004
100
AcDbArc
 50
190.309742062
 51
196.1373625449
  0
ARC
  5
13F
330
1F
100
AcDbEntity
  8
0
  6
Continuous
 62
     7
370
    25
100
AcDbCircle
 10
109.5193676203
 20
237.9257244922
 30
0.0
 40
0.4999999999999815
100
AcDbArc
 50
196.1373625449
 51
223.2235523034
  0
LINE
  5
140
330
1F
100
AcDbEntity
  8
0
  6
Continuous
 62
     7
370
    25
100
AcDbLine
 10
109.5193676203
 20
237.9257244922
 30
0.0
 11
109.0390685637
 21
237.7867539332
 31
0.0
  0
ARC
  5
141
330
1F
100
AcDbEntity
  8
0
  6
Continuous
 62
     7
370
    25
100
AcDbCircle
 10
124.4086383744
 20
242.2338118185
 30
0.0
 40
16.00000000000002
100
AcDbArc
 50
190.309742062
 51
196.1373625449
  0
LINE
  5
142
330
1F
100
AcDbEntity
  8
0
  6
Continuous
 62
     7
370
    25
100
AcDbLine
 10
109.1588917368
 20
239.4597845136
 30
0.0
 11
108.6669644259
 21
239.3702997618
 31
0.0
  0
LINE
  5
143
330
1F
100
AcDbEntity
  8
0
  6
Continuous
 62
     7
370
    25
100
AcDbLine
 10
109.1588917368
 20
239.4597845136
 30
0.0
 11
108.680172623
 21
239.6041036395
 31
0.0
  0
LINE
  5
144
330
1F
100
AcDbEntity
  8
0
  6
Continuous
 62
     7
370
    25
100
AcDbLine
 10
108.680172623
 20
239.6041036395
 30
0.0
 11
109.2346253511
 21
241.4432716431
 31
0.0
  0
ARC
  5
145
330
1F
100
AcDbEntity
  8
0
  6
Continuous
 62
     7
370
    25
100
AcDbCircle
 10
109.1588917368
 20
239.4597845136
 30
0.0
 40
0.500000000000043
100
AcDbArc
 50
163.2235523034
 51
190.309742062
  0
ARC
  5
146
330
1F
100
AcDbEntity
  8
0
  6
Continuous
 62
     7
370
    25
100
AcDbCircle
 10
139.658385012
 20
245.0078391235
 30
0.0
 40
0.499999999999982
100
AcDbArc
 50
343.2235523034
 51
10.309742062
  0
LINE
  5
147
330
1F
100
AcDbEntity
  8
0
  6
Continuous
 62
     7
370
    25
100
AcDbLine
 10
139.658385012
 20
245.0078391235
 30
0.0
 11
140.1371041258
 21
244.8635199976
 31
0.0
  0
LINE
  5
148
330
1F
100
AcDbEntity
  8
0
  6
Continuous
 62
     7
370
    25
100
AcDbLine
 10
140.1503123229
 20
245.0973238752
 30
0.0
 11
139.658385012
 21
245.0078391235
 31
0.0
  0
LINE
  5
149
330
1F
100
AcDbEntity
  8
0
  6
Continuous
 62
     7
370
    25
100
AcDbLine
 10
139.778208185
 20
246.6808697038
 30
0.0
 11
139.2979091285
 21
246.5418991449
 31
0.0
  0
LINE
  5
14A
330
1F
100
AcDbEntity
  8
0
  6
Continuous
 62
     7
370
    25
100
AcDbLine
 10
139.6622527146
 20
246.8843224958
 30
0.0
 11
139.2979091285
 21
246.5418991449
 31
0.0
  0
ARC
  5
14B
330
1F
100
AcDbEntity
  8
0
  6
Continuous
 62
     7
370
    25
100
AcDbCircle
 10
139.2979091285
 20
246.5418991449
 30
0.0
 40
0.4999999999999815
100
AcDbArc
 50
16.1373625448
 51
43.2235523034
  0
LINE
  5
14C
330
1F
100
AcDbEntity
  8
0
  6
Continuous
 62
     7
370
    25
100
AcDbLine
 10
138.3467128657
 20
248.2840766453
 30
0.0
 11
139.6622527146
 21
246.8843224958
 31
0.0
  0
LINE
  5
14D
330
1F
100
AcDbEntity
  8
0
  6
Continuous
 62
     7
370
    25
100
AcDbLine
 10
139.2979091285
 20
246.5418991449
 30
0.0
 11
137.9823692795
 21
247.9416532944
 31
0.0
  0
LINE
  5
14E
330
1F
100
AcDbEntity
  8
0
  6
Continuous
 62
     7
370
    25
100
AcDbLine
 10
139.1039322839
 20
243.1686711198
 30
0.0
 11
139.658385012
 21
245.0078391235
 31
0.0
  0
LINE
  5
14F
330
1F
100
AcDbEntity
  8
0
  6
Continuous
 62
     7
370
    25
100
AcDbLine
 10
140.1371041258
 20
244.8635199976
 30
0.0
 11
139.5826513977
 21
243.0243519939
 31
0.0
  0
ARC
  5
150
330
1F
100
AcDbEntity
  8
0
  6
Continuous
 62
     7
370
    25
100
AcDbCircle
 10
124.4086383744
 20
242.2338118185
 30
0.0
 40
15.50000000000003
100
AcDbArc
 50
10.309742062
 51
16.1373625448
  0
ARC
  5
151
330
1F
100
AcDbEntity
  8
0
  6
Continuous
 62
     7
370
    25
100
AcDbCircle
 10
124.4086383744
 20
242.2338118185
 30
0.0
 40
16.00000000000001
100
AcDbArc
 50
10.309742062
 51
16.1373625448
  0
ARC
  5
152
330
1F
100
AcDbEntity
  8
0
  6
Continuous
 62
     7
370
    25
100
AcDbCircle
 10
113.233089931
 20
252.9742548722
 30
0.0
 40
0.5000000000000628
100
AcDbArc
 50
136.1373625449
 51
163.2235523034
  0
LINE
  5
153
330
1F
100
AcDbEntity
  8
0
  6
Continuous
 62
     7
370
    25
100
AcDbLine
 10
113.233089931
 20
252.9742548722
 30
0.0
 11
112.8725883683
 21
253.3207207772
 31
0.0
  0
LINE
  5
154
330
1F
100
AcDbEntity
  8
0
  6
Continuous
 62
     7
370
    25
100
AcDbLine
 10
112.7543708172
 20
253.1185739981
 30
0.0
 11
113.233089931
 21
252.9742548722
 31
0.0
  0
LINE
  5
155
330
1F
100
AcDbEntity
  8
0
  6
Continuous
 62
     7
370
    25
100
AcDbLine
 10
130.9466734252
 20
255.4277393109
 30
0.0
 11
129.6311335763
 21
256.8274934604
 31
0.0
  0
LINE
  5
156
330
1F
100
AcDbEntity
  8
0
  6
Continuous
 62
     7
370
    25
100
AcDbLine
 10
129.6311335763
 20
256.8274934604
 30
0.0
 11
129.9954771625
 21
257.1699168113
 31
0.0
  0
LINE
  5
157
330
1F
100
AcDbEntity
  8
0
  6
Continuous
 62
     7
370
    25
100
AcDbLine
 10
129.9954771625
 20
257.1699168113
 30
0.0
 11
131.3110170114
 21
255.7701626618
 31
0.0
  0
LINE
  5
158
330
1F
100
AcDbEntity
  8
0
  6
Continuous
 62
     7
370
    25
100
AcDbLine
 10
116.2513795157
 20
254.4928800096
 30
0.0
 11
114.3813869387
 21
254.0534661555
 31
0.0
  0
LINE
  5
159
330
1F
100
AcDbEntity
  8
0
  6
Continuous
 62
     7
370
    25
100
AcDbLine
 10
113.233089931
 20
252.9742548722
 30
0.0
 11
112.6786372029
 21
251.1350868686
 31
0.0
  0
ARC
  5
15A
330
1F
100
AcDbEntity
  8
0
  6
Continuous
 62
     7
370
    25
100
AcDbCircle
 10
124.4086383744
 20
242.2338118185
 30
0.0
 40
15.50000000000002
100
AcDbArc
 50
130.309742062
 51
136.1373625449
  0
LINE
  5
15B
330
1F
100
AcDbEntity
  8
0
  6
Continuous
 62
     7
370
    25
100
AcDbLine
 10
114.3813869387
 20
254.0534661555
 30
0.0
 11
114.2670114111
 21
254.5402086323
 31
0.0
  0
LINE
  5
15C
330
1F
100
AcDbEntity
  8
0
  6
Continuous
 62
     7
370
    25
100
AcDbLine
 10
114.2670114111
 20
254.5402086323
 30
0.0
 11
116.1370039881
 21
254.9796224863
 31
0.0
  0
ARC
  5
15D
330
1F
100
AcDbEntity
  8
0
  6
Continuous
 62
     7
370
    25
100
AcDbCircle
 10
114.3813869387
 20
254.0534661555
 30
0.0
 40
0.4999999999999512
100
AcDbArc
 50
103.2235523034
 51
130.309742062
  0
LINE
  5
15E
330
1F
100
AcDbEntity
  8
0
  6
Continuous
 62
     7
370
    25
100
AcDbLine
 10
114.3813869387
 20
254.0534661555
 30
0.0
 11
114.057927215
 21
254.4347453277
 31
0.0
  0
LINE
  5
15F
330
1F
100
AcDbEntity
  8
0
  6
Continuous
 62
     7
370
    25
100
AcDbLine
 10
112.1999180891
 20
251.2794059944
 30
0.0
 11
112.7543708172
 21
253.1185739981
 31
0.0
  0
LINE
  5
160
330
1F
100
AcDbEntity
  8
0
  6
Continuous
 62
     7
370
    25
100
AcDbLine
 10
128.1223606851
 20
257.2823421986
 30
0.0
 11
126.252368108
 21
256.8429283445
 31
0.0
  0
ARC
  5
161
330
1F
100
AcDbEntity
  8
0
  6
Continuous
 62
     7
370
    25
100
AcDbCircle
 10
124.4086383744
 20
242.2338118185
 30
0.0
 40
15.5
100
AcDbArc
 50
70.309742062
 51
76.1373625449
  0
ARC
  5
162
330
1F
100
AcDbEntity
  8
0
  6
Continuous
 62
     7
370
    25
100
AcDbCircle
 10
124.4086383744
 20
242.2338118185
 30
0.0
 40
15.99999999999998
100
AcDbArc
 50
130.309742062
 51
136.1373625449
  0
LINE
  5
163
330
1F
100
AcDbEntity
  8
0
  6
Continuous
 62
     7
370
    25
100
AcDbLine
 10
126.1379925804
 20
257.3296708212
 30
0.0
 11
128.0079851574
 21
257.7690846753
 31
0.0
  0
LINE
  5
164
330
1F
100
AcDbEntity
  8
0
  6
Continuous
 62
     7
370
    25
100
AcDbLine
 10
128.0079851574
 20
257.7690846753
 30
0.0
 11
128.1223606851
 21
257.2823421986
 31
0.0
  0
ARC
  5
165
330
1F
100
AcDbEntity
  8
0
  6
Continuous
 62
     7
370
    25
100
AcDbCircle
 10
128.1223606851
 20
257.2823421986
 30
0.0
 40
0.500000000000021
100
AcDbArc
 50
76.1373625448
 51
103.2235523034
  0
LINE
  5
166
330
1F
100
AcDbEntity
  8
0
  6
Continuous
 62
     7
370
    25
100
AcDbLine
 10
128.1223606851
 20
257.2823421986
 30
0.0
 11
128.242158179
 21
257.7677786624
 31
0.0
  0
ARC
  5
167
330
1F
100
AcDbEntity
  8
0
  6
Continuous
 62
     7
370
    25
100
AcDbCircle
 10
129.6311335763
 20
256.8274934604
 30
0.0
 40
0.5000000000000284
100
AcDbArc
 50
43.2235523034
 51
70.309742062
  0
LINE
  5
168
330
1F
100
AcDbEntity
  8
0
  6
Continuous
 62
     7
370
    25
100
AcDbLine
 10
129.7996011635
 20
257.2982573844
 30
0.0
 11
129.6311335763
 21
256.8274934604
 31
0.0
  0
ARC
  5
169
330
1F
100
AcDbEntity
  8
0
  6
Continuous
 62
     7
370
    25
100
AcDbCircle
 10
124.4086383744
 20
242.2338118185
 30
0.0
 40
16.00000000000002
100
AcDbArc
 50
70.309742062
 51
76.1373625449
  0
LINE
  5
16A
330
1F
100
AcDbEntity
  8
0
  6
Continuous
 62
     7
370
    25
100
AcDbLine
 10
124.4086383744
 20
257.2338118185
 30
0.0
 11
125.2274210721
 21
257.2114483108
 31
0.0
  0
ARC
  5
16B
330
1F
100
AcDbEntity
  8
0
  6
Continuous
 62
     7
370
    25
100
AcDbCircle
 10
124.4086383744
 20
242.2338118185
 30
0.0
 40
14.99999999999999
100
AcDbArc
 50
27.55447367
 51
59.4567712337
  0
ARC
  5
16C
330
1F
100
AcDbEntity
  8
0
  6
Continuous
 62
     7
370
    25
100
AcDbCircle
 10
124.4086383744
 20
242.2338118185
 30
0.0
 40
15.00000000000004
100
AcDbArc
 50
327.0597125889
 51
358.8335094237
  0
ARC
  5
16D
330
1F
100
AcDbEntity
  8
0
  6
Continuous
 62
     7
370
    25
100
AcDbCircle
 10
124.4086383744
 20
242.2338118185
 30
0.0
 40
15.00000000000001
100
AcDbArc
 50
207.232886141
 51
238.7209239838
  0
ARC
  5
16E
330
1F
100
AcDbEntity
  8
0
  6
Continuous
 62
     7
370
    25
100
AcDbCircle
 10
124.4086383744
 20
242.2338118185
 30
0.0
 40
15.0
100
AcDbArc
 50
147.0496088295
 51
179.8582855058
  0
ARC
  5
16F
330
1F
100
AcDbEntity
  8
0
  6
Continuous
 62
     7
370
    25
100
AcDbCircle
 10
124.4086383744
 20
242.2338118185
 30
0.0
 40
15.00000000000004
100
AcDbArc
 50
90.0
 51
118.6643131736
  0
ARC
  5
170
330
1F
100
AcDbEntity
  8
0
  6
Continuous
 62
     7
370
    25
100
AcDbCircle
 10
137.8168579683
 20
259.6293226846
 30
0.0
 40
6.213875553933262
100
AcDbArc
 50
239.3038676187
 51
299.7771370676
  0
SPLINE
  5
171
330
1F
100
AcDbEntity
  8
0
  6
Continuous
 62
     7
370
    25
100
AcDbSpline
210
0.0
220
0.0
230
1.0
 70
     8
 71
     3
 72
    21
 73
    17
 74
     0
 42
0.00000001
 43
0.00000001
 40
0.0
 40
0.0
 40
0.0
 40
0.0
 40
0.0844075540318702
 40
0.168693877580087
 40
0.2349956335315218
 40
0.3011120861683952
 40
0.3853372783998589
 40
0.4169504571177005
 40
0.4920067226712055
 40
0.5246263233329846
 40
0.5822879648073094
 40
0.6400891564616334
 40
0.728841849410681
 40
0.8178034644997283
 40
0.9088778172724717
 40
1.0
 40
1.0
 40
1.0
 40
1.0
 10
140.9028404070789
 20
254.2359043077672
 30
0.0
 10
141.732719998994
 20
253.7376526079118
 30
0.0
 10
143.3912872669412
 20
252.7418648229971
 30
0.0
 10
145.5168826776513
 20
250.9511147520818
 30
0.0
 10
147.2610319479161
 20
248.9937441246296
 30
0.0
 10
148.70003745717
 20
246.7118836745573
 30
0.0
 10
149.4572629014014
 20
244.4533773385381
 30
0.0
 10
149.6924921833227
 20
241.973983285605
 30
0.0
 10
149.4657632944092
 20
240.1334084225862
 30
0.0
 10
148.7900412919986
 20
238.1254136711993
 30
0.0
 10
147.9292337556382
 20
236.4633247552114
 30
0.0
 10
146.4331348467838
 20
234.4517970376087
 30
0.0
 10
144.3989803162125
 20
232.4995478009765
 30
0.0
 10
141.838998185181
 20
230.7128443977991
 30
0.0
 10
139.1170996746842
 20
229.2419643749585
 30
0.0
 10
137.2350223481065
 20
228.5098297082318
 30
0.0
 10
136.2937366447925
 20
228.1436662754342
 30
0.0
  0
LINE
  5
172
330
1F
100
AcDbEntity
  8
0
  6
Continuous
 62
     7
370
    25
100
AcDbLine
 10
99.6086383744
 20
310.2338118185
 30
0.0
 11
149.2086383744
 21
310.2338118185
 31
0.0
  0
LWPOLYLINE
  5
173
330
1F
100
AcDbEntity
  8
0
  6
Continuous
 62
     7
370
    25
100
AcDbPolyline
 90
        9
 70
   128
 43
0.0
 10
134.6447684865
 20
254.2860935374
 10
134.0841690919
 20
254.9395477096
 10
133.6510495257
 20
255.7192745113
 10
133.3532659714
 20
256.6111307881
 10
133.1962198064
 20
257.5989395138
 10
133.1827596286
 20
258.6647832191
 10
133.3131295868
 20
259.7893289889
 10
133.5849649523
 20
260.9521791349
 10
133.9933350114
 20
262.1322411811
  0
ARC
  5
174
330
1F
100
AcDbEntity
  8
0
  6
Continuous
 62
     7
370
    25
100
AcDbCircle
 10
104.6648783253
 20
255.624216918
 30
0.0
 40
7.748014529181223
100
AcDbArc
 50
327.7818157888
 51
13.7464277328
  0
SPLINE
  5
175
330
1F
100
AcDbEntity
  8
0
  6
Continuous
 62
     7
370
    25
100
AcDbSpline
210
0.0
220
0.0
230
1.0
 70
     8
 71
     3
 72
    21
 73
    17
 74
     0
 42
0.00000001
 43
0.00000001
 40
0.0
 40
0.0
 40
0.0
 40
0.0
 40
0.0222112368572257
 40
0.1332879271313374
 40
0.2443794541244212
 40
0.3288336391479462
 40
0.4130813036254623
 40
0.4749700321502099
 40
0.5366797710446681
 40
0.5786958850965196
 40
0.6595848771303102
 40
0.6941138227819126
 40
0.755283996087332
 40
0.8166129279384575
 40
0.9081908232382437
 40
1.0
 40
1.0
 40
1.0
 40
1.0
 10
112.1909655997974
 20
257.465341433487
 30
0.0
 10
112.261181071208
 20
257.6201602361546
 30
0.0
 10
112.6825387244093
 20
258.5492159848806
 30
0.0
 10
113.6193247021752
 20
260.3737681150196
 30
0.0
 10
115.1399086375577
 20
262.6612737698405
 30
0.0
 10
116.865335894862
 20
264.6162713294901
 30
0.0
 10
118.5833210175171
 20
266.0536400419464
 30
0.0
 10
120.3936150181225
 20
267.0981542304335
 30
0.0
 10
122.0124236713901
 20
267.6875573353535
 30
0.0
 10
123.931441412206
 20
268.0245445780549
 30
0.0
 10
125.6350825029807
 20
267.9429076369531
 30
0.0
 10
127.4246656868317
 20
267.4873008812635
 30
0.0
 10
128.9134548192217
 20
266.851335173012
 30
0.0
 10
130.7073640368384
 20
265.702870968727
 30
0.0
 10
132.463666222274
 20
264.1216659237483
 30
0.0
 10
133.4830168917073
 20
262.7959400818867
 30
0.0
 10
133.9933350114099
 20
262.1322411810598
 30
0.0
  0
LINE
  5
176
330
1F
100
AcDbEntity
  8
0
  6
Continuous
 62
     7
370
    25
100
AcDbLine
 10
108.4612070251
 20
300.5159695826
 30
0.0
 11
108.4692670975
 21
300.4797246756
 31
0.0
  0
LINE
  5
177
330
1F
100
AcDbEntity
  8
0
  6
Continuous
 62
     7
370
    25
100
AcDbLine
 10
108.4398396392
 20
300.6069320136
 30
0.0
 11
108.4612070251
 21
300.5159695826
 31
0.0
  0
LINE
  5
178
330
1F
100
AcDbEntity
  8
0
  6
Continuous
 62
     7
370
    25
100
AcDbLine
 10
140.3560697236
 20
300.5159695826
 30
0.0
 11
140.3774371096
 21
300.6069320136
 31
0.0
  0
LINE
  5
179
330
1F
100
AcDbEntity
  8
0
  6
Continuous
 62
     7
370
    25
100
AcDbLine
 10
140.3480096512
 20
300.4797246756
 30
0.0
 11
140.3560697236
 21
300.5159695826
 31
0.0
  0
LINE
  5
17A
330
1F
100
AcDbEntity
  8
0
  6
Continuous
 62
     7
370
    25
100
AcDbLine
 10
140.3480096512
 20
300.4797246756
 30
0.0
 11
133.5834515888
 21
300.4797246756
 31
0.0
  0
LINE
  5
17B
330
1F
100
AcDbEntity
  8
0
  6
Continuous
 62
     7
370
    25
100
AcDbLine
 10
133.5081683805
 20
300.5159695826
 30
0.0
 11
133.5834515888
 21
300.4797246756
 31
0.0
  0
LINE
  5
17C
330
1F
100
AcDbEntity
  8
0
  6
Continuous
 62
     7
370
    25
100
AcDbLine
 10
133.3124403459
 20
300.6069320136
 30
0.0
 11
133.5081683805
 21
300.5159695826
 31
0.0
  0
SPLINE
  5
17D
330
1F
100
AcDbEntity
  8
0
  6
Continuous
 62
     7
370
    25
100
AcDbSpline
210
0.0
220
0.0
230
1.0
 70
     8
 71
     3
 72
    10
 73
     6
 74
     0
 42
0.00000001
 43
0.00000001
 40
0.0
 40
0.0
 40
0.0
 40
0.0
 40
0.4995659996812938
 40
0.9434129843871889
 40
1.0
 40
1.0
 40
1.0
 40
1.0
 10
131.4736351380716
 20
300.6069320136398
 30
0.0
 10
131.7911616716641
 20
300.6878907219268
 30
0.0
 10
132.3907994670098
 20
300.8407784217418
 30
0.0
 10
133.002610173618
 20
300.7363097483258
 30
0.0
 10
133.2809651155036
 20
300.6200753236465
 30
0.0
 10
133.3124403458684
 20
300.6069320136398
 30
0.0
  0
LINE
  5
17E
330
1F
100
AcDbEntity
  8
0
  6
Continuous
 62
     7
370
    25
100
AcDbLine
 10
131.2565397175
 20
300.5159695826
 30
0.0
 11
131.4736351381
 21
300.6069320136
 31
0.0
  0
LINE
  5
17F
330
1F
100
AcDbEntity
  8
0
  6
Continuous
 62
     7
370
    25
100
AcDbLine
 10
131.1731964368
 20
300.4797246756
 30
0.0
 11
131.2565397175
 21
300.5159695826
 31
0.0
  0
LINE
  5
180
330
1F
100
AcDbEntity
  8
0
  6
Continuous
 62
     7
370
    25
100
AcDbLine
 10
131.1731964368
 20
300.4797246756
 30
0.0
 11
117.644080312
 21
300.4797246756
 31
0.0
  0
LINE
  5
181
330
1F
100
AcDbEntity
  8
0
  6
Continuous
 62
     7
370
    25
100
AcDbLine
 10
117.5607370312
 20
300.5159695826
 30
0.0
 11
117.644080312
 21
300.4797246756
 31
0.0
  0
LINE
  5
182
330
1F
100
AcDbEntity
  8
0
  6
Continuous
 62
     7
370
    25
100
AcDbLine
 10
117.3436416107
 20
300.6069320136
 30
0.0
 11
117.5607370312
 21
300.5159695826
 31
0.0
  0
SPLINE
  5
183
330
1F
100
AcDbEntity
  8
0
  6
Continuous
 62
     7
370
    25
100
AcDbSpline
210
0.0
220
0.0
230
1.0
 70
     8
 71
     3
 72
    10
 73
     6
 74
     0
 42
0.00000001
 43
0.00000001
 40
0.0
 40
0.0
 40
0.0
 40
0.0
 40
0.4995659996812799
 40
0.9434129843871765
 40
1.0
 40
1.0
 40
1.0
 40
1.0
 10
115.5048364028693
 20
300.6069320136398
 30
0.0
 10
115.7960423558713
 20
300.6878907219268
 30
0.0
 10
116.3459746518406
 20
300.840778421742
 30
0.0
 10
117.0003465514125
 20
300.7363097483258
 30
0.0
 10
117.308766727453
 20
300.6200753236465
 30
0.0
 10
117.3436416106661
 20
300.6069320136398
 30
0.0
  0
LINE
  5
184
330
1F
100
AcDbEntity
  8
0
  6
Continuous
 62
     7
370
    25
100
AcDbLine
 10
115.3091083683
 20
300.5159695826
 30
0.0
 11
115.5048364029
 21
300.6069320136
 31
0.0
  0
LINE
  5
185
330
1F
100
AcDbEntity
  8
0
  6
Continuous
 62
     7
370
    25
100
AcDbLine
 10
115.2338251599
 20
300.4797246756
 30
0.0
 11
115.3091083683
 21
300.5159695826
 31
0.0
  0
LINE
  5
186
330
1F
100
AcDbEntity
  8
0
  6
Continuous
 62
     7
370
    25
100
AcDbLine
 10
115.2338251599
 20
300.4797246756
 30
0.0
 11
108.4692670975
 21
300.4797246756
 31
0.0
  0
LINE
  5
187
330
1F
100
AcDbEntity
  8
0
  6
Continuous
 62
     7
370
    25
100
AcDbLine
 10
153.4086383744
 20
252.7250519853
 30
0.0
 11
153.4086383744
 21
226.8412752219
 31
0.0
  0
LINE
  5
188
330
1F
100
AcDbEntity
  8
0
  6
Continuous
 62
     7
370
    25
100
AcDbLine
 10
153.4086383744
 20
257.6263484151
 30
0.0
 11
153.4086383744
 21
254.0378984805
 31
0.0
  0
ELLIPSE
  5
189
330
1F
100
AcDbEntity
  8
0
  6
Continuous
 62
     7
370
    25
100
AcDbEllipse
 10
161.6493947632
 20
242.3258451052
 30
0.0
 11
-5.596045292391636
 21
15.0079613677776
 31
0.0
210
0.0
220
0.0
230
1.0
 40
0.4514218124
 41
0.5258794326610019
 42
0.6494913437152771
  0
LINE
  5
18A
330
1F
100
AcDbEntity
  8
0
  6
Continuous
 62
     7
370
    25
100
AcDbLine
 10
153.4086383744
 20
252.7250519853
 30
0.0
 11
153.0954054622
 21
252.7502735891
 31
0.0
  0
SPLINE
  5
18B
330
1F
100
AcDbEntity
  8
0
  6
Continuous
 62
     7
370
    25
100
AcDbSpline
210
0.0
220
0.0
230
1.0
 70
     8
 71
     3
 72
     9
 73
     5
 74
     0
 42
0.00000001
 43
0.00000001
 40
0.0
 40
0.0
 40
0.0
 40
0.0
 40
0.516581384495702
 40
1.0
 40
1.0
 40
1.0
 40
1.0
 10
147.7677914082303
 20
257.7313790418261
 30
0.0
 10
147.7778923299449
 20
257.73672156467
 30
0.0
 10
147.7974457285338
 20
257.7470636385506
 30
0.0
 10
147.7894313841232
 20
257.742820784509
 30
0.0
 10
147.785557100844
 20
257.7407697098824
 30
0.0
  0
ARC
  5
18C
330
1F
100
AcDbEntity
  8
0
  6
Continuous
 62
     7
370
    25
100
AcDbCircle
 10
132.7627163417
 20
300.6513764076
 30
0.0
 40
1.59876134718289
100
AcDbArc
 50
186.1634674732
 51
222.4427022402
  0
SPLINE
  5
18D
330
1F
100
AcDbEntity
  8
0
  6
Continuous
 62
     7
370
    25
100
AcDbSpline
210
0.0
220
0.0
230
1.0
 70
     8
 71
     3
 72
    12
 73
     8
 74
     0
 42
0.00000001
 43
0.00000001
 40
0.0
 40
0.0
 40
0.0
 40
0.0
 40
0.4695166415310493
 40
0.8606781168497236
 40
0.9852477217075271
 40
0.9962368350017241
 40
1.0
 40
1.0
 40
1.0
 40
1.0
 10
131.5829062781992
 20
299.5724482082856
 30
0.0
 10
130.4752396912144
 20
299.5323988554959
 30
0.0
 10
128.4447591760305
 20
299.458983776048
 30
0.0
 10
126.0636973754706
 20
299.6277776022742
 30
0.0
 10
124.7903277266767
 20
299.7088121742197
 30
0.0
 10
124.4534129768197
 20
299.7308817047908
 30
0.0
 10
124.4177385732736
 20
299.7332162885484
 30
0.0
 10
124.4086383743689
 20
299.7338118185207
 30
0.0
  0
SPLINE
  5
18E
330
1F
100
AcDbEntity
  8
0
  6
Continuous
 62
     7
370
    25
100
AcDbSpline
210
0.0
220
0.0
230
1.0
 70
     8
 71
     3
 72
    11
 73
     7
 74
     0
 42
0.00000001
 43
0.00000001
 40
0.0
 40
0.0
 40
0.0
 40
0.0
 40
0.0038117785910433
 40
0.2979277118658892
 40
0.7539851700315049
 40
1.0
 40
1.0
 40
1.0
 40
1.0
 10
124.4086383743689
 20
299.7338118185207
 30
0.0
 10
124.4175277947381
 20
299.7345271176316
 30
0.0
 10
125.1123227853579
 20
299.7904347267265
 30
0.0
 10
126.8695118980999
 20
299.9363352960765
 30
0.0
 10
129.1580570518573
 20
300.1279141703232
 30
0.0
 10
130.6502970494995
 20
300.3884349618256
 30
0.0
 10
131.1731964367803
 20
300.4797246755887
 30
0.0
  0
SPLINE
  5
18F
330
1F
100
AcDbEntity
  8
0
  6
Continuous
 62
     7
370
    25
100
AcDbSpline
210
0.0
220
0.0
230
1.0
 70
     8
 71
     3
 72
    11
 73
     7
 74
     0
 42
0.00000001
 43
0.00000001
 40
0.0
 40
0.0
 40
0.0
 40
0.0
 40
0.2625192684045987
 40
0.530943107872189
 40
0.9968227191273696
 40
1.0
 40
1.0
 40
1.0
 40
1.0
 10
131.6844544797965
 20
297.9838118185206
 30
0.0
 10
131.0269397258652
 20
298.0268874880585
 30
0.0
 10
129.6971214270193
 20
298.1140076830718
 30
0.0
 10
127.2699246579189
 20
298.7402673339129
 30
0.0
 10
125.5248962813256
 20
299.3426200996297
 30
0.0
 10
124.4161487687865
 20
299.7311798066143
 30
0.0
 10
124.4086383743689
 20
299.7338118185207
 30
0.0
  0
LINE
  5
190
330
1F
100
AcDbEntity
  8
0
  6
Continuous
 62
     7
370
    25
100
AcDbLine
 10
131.6844544798
 20
299.5836524707
 30
0.0
 11
131.5829062782
 21
299.5724482083
 31
0.0
  0
LINE
  5
191
330
1F
100
AcDbEntity
  8
0
  6
Continuous
 62
     7
370
    25
100
AcDbLine
 10
131.6844544798
 20
299.5836524707
 30
0.0
 11
131.6844544798
 21
297.9838118185
 31
0.0
  0
LINE
  5
192
330
1F
100
AcDbEntity
  8
0
  6
Continuous
 62
     7
370
    25
100
AcDbLine
 10
117.1328222689
 20
297.9838118185
 30
0.0
 11
117.1328222689
 21
299.5836524707
 31
0.0
  0
LINE
  5
193
330
1F
100
AcDbEntity
  8
0
  6
Continuous
 62
     7
370
    25
100
AcDbLine
 10
117.2343704706
 20
299.5724482083
 30
0.0
 11
117.1328222689
 21
299.5836524707
 31
0.0
  0
SPLINE
  5
194
330
1F
100
AcDbEntity
  8
0
  6
Continuous
 62
     7
370
    25
100
AcDbSpline
210
0.0
220
0.0
230
1.0
 70
     8
 71
     3
 72
    12
 73
     8
 74
     0
 42
0.00000001
 43
0.00000001
 40
0.0
 40
0.0
 40
0.0
 40
0.0
 40
0.0037631758948501
 40
0.0147522782925291
 40
0.1393218831506384
 40
0.5304833584702924
 40
1.0
 40
1.0
 40
1.0
 40
1.0
 10
124.4086383743688
 20
299.7338118185207
 30
0.0
 10
124.3995381491138
 20
299.7332162868242
 30
0.0
 10
124.3638637455675
 20
299.730881703068
 30
0.0
 10
124.0269489957174
 20
299.7088121725225
 30
0.0
 10
122.7535793732681
 20
299.6277776023039
 30
0.0
 10
120.372517572713
 20
299.458983776036
 30
0.0
 10
118.342037057535
 20
299.5323988554904
 30
0.0
 10
117.2343704705563
 20
299.5724482082837
 30
0.0
  0
SPLINE
  5
195
330
1F
100
AcDbEntity
  8
0
  6
Continuous
 62
     7
370
    25
100
AcDbSpline
210
0.0
220
0.0
230
1.0
 70
     8
 71
     3
 72
    11
 73
     7
 74
     0
 42
0.00000001
 43
0.00000001
 40
0.0
 40
0.0
 40
0.0
 40
0.0
 40
0.0031773074212962
 40
0.4690608114649893
 40
0.7325348995696919
 40
1.0
 40
1.0
 40
1.0
 40
1.0
 10
124.4086383743689
 20
299.7338118185207
 30
0.0
 10
124.4011279806116
 20
299.7311798066463
 30
0.0
 10
123.292380565555
 20
299.3426201044093
 30
0.0
 10
121.559002236495
 20
298.7443086738168
 30
0.0
 10
119.1324835786841
 20
298.116796556262
 30
0.0
 10
117.8027079652345
 20
298.0283616496366
 30
0.0
 10
117.1328222689413
 20
297.9838118185206
 30
0.0
  0
ARC
  5
196
330
1F
100
AcDbEntity
  8
0
  6
Continuous
 62
     7
370
    25
100
AcDbCircle
 10
116.054560407
 20
300.6513764076
 30
0.0
 40
1.598761347194783
100
AcDbArc
 50
317.5572977601
 51
353.8365325269
  0
SPLINE
  5
197
330
1F
100
AcDbEntity
  8
0
  6
Continuous
 62
     7
370
    25
100
AcDbSpline
210
0.0
220
0.0
230
1.0
 70
     8
 71
     3
 72
    12
 73
     8
 74
     0
 42
0.00000001
 43
0.00000001
 40
0.0
 40
0.0
 40
0.0
 40
0.0
 40
0.3348024110136996
 40
0.6699353186275727
 40
0.9811382240265398
 40
0.996189137724872
 40
0.9999999999999999
 40
0.9999999999999999
 40
0.9999999999999999
 40
0.9999999999999999
 10
117.6440803119721
 20
300.4797246755887
 30
0.0
 10
118.3601419218429
 20
300.3561793771513
 30
0.0
 10
119.7929719941035
 20
300.1089668238638
 30
0.0
 10
122.0444350712538
 20
299.9317785964727
 30
0.0
 10
123.5858223536287
 20
299.799953960314
 30
0.0
 10
124.3557509396622
 20
299.7380684320386
 30
0.0
 10
124.3997489488181
 20
299.7345272786139
 30
0.0
 10
124.4086383743689
 20
299.7338118185207
 30
0.0
  0
ARC
  5
198
330
1F
100
AcDbEntity
  8
0
  6
Continuous
 62
     7
370
    25
100
AcDbCircle
 10
148.352041218
 20
267.725322923
 30
0.0
 40
15.40957518232612
100
AcDbArc
 50
201.2821805457
 51
241.0914009813
  0
LINE
  5
199
330
1F
100
AcDbEntity
  8
0
  6
Continuous
 62
     7
370
    25
100
AcDbLine
 10
114.3050086636
 20
287.2338118185
 30
0.0
 11
116.9030848749
 21
287.2338118185
 31
0.0
  0
LINE
  5
19A
330
1F
100
AcDbEntity
  8
0
  6
Continuous
 62
     7
370
    25
100
AcDbLine
 10
116.9030848749
 20
287.2338118185
 30
0.0
 11
116.9030848749
 21
285.4838118185
 31
0.0
  0
LINE
  5
19B
330
1F
100
AcDbEntity
  8
0
  6
Continuous
 62
     7
370
    25
100
AcDbLine
 10
116.9030848749
 20
285.4838118185
 30
0.0
 11
115.8205531202
 21
285.4838118185
 31
0.0
  0
ARC
  5
19C
330
1F
100
AcDbEntity
  8
0
  6
Continuous
 62
     7
370
    25
100
AcDbCircle
 10
115.9468484916
 20
287.1244368185
 30
0.0
 40
1.645478930724444
100
AcDbArc
 50
176.1887389505
 51
265.5980503477
  0
LINE
  5
19D
330
1F
100
AcDbEntity
  8
0
  6
Continuous
 62
     7
370
    25
100
AcDbLine
 10
132.9967236286
 20
285.4838118185
 30
0.0
 11
131.9141918738
 21
285.4838118185
 31
0.0
  0
LINE
  5
19E
330
1F
100
AcDbEntity
  8
0
  6
Continuous
 62
     7
370
    25
100
AcDbLine
 10
131.9141918738
 20
285.4838118185
 30
0.0
 11
131.9141918738
 21
287.2338118185
 31
0.0
  0
LINE
  5
19F
330
1F
100
AcDbEntity
  8
0
  6
Continuous
 62
     7
370
    25
100
AcDbLine
 10
131.9141918738
 20
287.2338118185
 30
0.0
 11
134.5122680852
 21
287.2338118185
 31
0.0
  0
ARC
  5
1A0
330
1F
100
AcDbEntity
  8
0
  6
Continuous
 62
     7
370
    25
100
AcDbCircle
 10
132.8704282572
 20
287.1244368185
 30
0.0
 40
1.645478930724415
100
AcDbArc
 50
274.4019496523
 51
3.8112610495
  0
LINE
  5
1A1
330
1F
100
AcDbEntity
  8
0
  6
Continuous
 62
     7
370
    25
100
AcDbLine
 10
134.5122680852
 20
297.9838118185
 30
0.0
 11
131.9141918738
 21
297.9838118185
 31
0.0
  0
LINE
  5
1A2
330
1F
100
AcDbEntity
  8
0
  6
Continuous
 62
     7
370
    25
100
AcDbLine
 10
131.9141918738
 20
297.9838118185
 30
0.0
 11
131.9141918738
 21
299.6125950624
 31
0.0
  0
SPLINE
  5
1A3
330
1F
100
AcDbEntity
  8
0
  6
Continuous
 62
     7
370
    25
100
AcDbSpline
210
0.0
220
0.0
230
1.0
 70
     8
 71
     3
 72
     9
 73
     5
 74
     0
 42
0.00000001
 43
0.00000001
 40
0.0
 40
0.0
 40
0.0
 40
0.0
 40
0.5
 40
1.0
 40
1.0
 40
1.0
 40
1.0
 10
133.5509563038439
 20
299.6125950623983
 30
0.0
 10
133.3008171460273
 20
299.6400176175483
 30
0.0
 10
132.8005388303941
 20
299.6948627278482
 30
0.0
 10
132.209640859354
 20
299.6400176175483
 30
0.0
 10
131.914191873834
 20
299.6125950623984
 30
0.0
  0
ARC
  5
1A4
330
1F
100
AcDbEntity
  8
0
  6
Continuous
 62
     7
370
    25
100
AcDbCircle
 10
132.7501701359
 20
298.0418932607
 30
0.0
 40
1.763054915953933
100
AcDbArc
 50
358.1121270215
 51
62.9862857032
  0
LINE
  5
1A5
330
1F
100
AcDbEntity
  8
0
  6
Continuous
 62
     7
370
    25
100
AcDbLine
 10
116.9030848749
 20
287.2338118185
 30
0.0
 11
131.9141918738
 21
287.2338118185
 31
0.0
  0
LINE
  5
1A6
330
1F
100
AcDbEntity
  8
0
  6
Continuous
 62
     7
370
    25
100
AcDbLine
 10
131.9141918738
 20
285.4838118185
 30
0.0
 11
129.0186707603
 21
285.4838118185
 31
0.0
  0
SPLINE
  5
1A7
330
1F
100
AcDbEntity
  8
0
  6
Continuous
 62
     7
370
    25
100
AcDbSpline
210
0.0
220
0.0
230
1.0
 70
     8
 71
     3
 72
    10
 73
     6
 74
     0
 42
0.00000001
 43
0.00000001
 40
0.0
 40
0.0
 40
0.0
 40
0.0
 40
0.3786373560761641
 40
0.5318998031133382
 40
1.0
 40
1.0
 40
1.0
 40
1.0
 10
119.7986059884441
 20
285.4838118185205
 30
0.0
 10
120.9561769219589
 20
285.5059848307168
 30
0.0
 10
122.5823021358231
 20
285.5371328953026
 30
0.0
 10
125.6792736481525
 20
285.5546035634576
 30
0.0
 10
127.5838605151703
 20
285.5142283031417
 30
0.0
 10
129.0186707602936
 20
285.4838118185205
 30
0.0
  0
LINE
  5
1A8
330
1F
100
AcDbEntity
  8
0
  6
Continuous
 62
     7
370
    25
100
AcDbLine
 10
119.7986059884
 20
285.4838118185
 30
0.0
 11
116.9030848749
 21
285.4838118185
 31
0.0
  0
LINE
  5
1A9
330
1F
100
AcDbEntity
  8
0
  6
Continuous
 62
     7
370
    25
100
AcDbLine
 10
114.3050086636
 20
287.2338118185
 30
0.0
 11
114.3050086636
 21
297.9838118185
 31
0.0
  0
LINE
  5
1AA
330
1F
100
AcDbEntity
  8
0
  6
Continuous
 62
     7
370
    25
100
AcDbLine
 10
116.9030848749
 20
297.9838118185
 30
0.0
 11
114.3050086636
 21
297.9838118185
 31
0.0
  0
LINE
  5
1AB
330
1F
100
AcDbEntity
  8
0
  6
Continuous
 62
     7
370
    25
100
AcDbLine
 10
116.9030848749
 20
297.9838118185
 30
0.0
 11
116.9030848749
 21
287.2338118185
 31
0.0
  0
LINE
  5
1AC
330
1F
100
AcDbEntity
  8
0
  6
Continuous
 62
     7
370
    25
100
AcDbLine
 10
131.9141918738
 20
297.9838118185
 30
0.0
 11
131.6844544798
 21
297.9838118185
 31
0.0
  0
LINE
  5
1AD
330
1F
100
AcDbEntity
  8
0
  6
Continuous
 62
     7
370
    25
100
AcDbLine
 10
131.9141918738
 20
299.6125950624
 30
0.0
 11
131.6844544798
 21
299.5836524707
 31
0.0
  0
LINE
  5
1AE
330
1F
100
AcDbEntity
  8
0
  6
Continuous
 62
     7
370
    25
100
AcDbLine
 10
134.5122680852
 20
297.9838118185
 30
0.0
 11
134.5122680852
 21
287.2338118185
 31
0.0
  0
LINE
  5
1AF
330
1F
100
AcDbEntity
  8
0
  6
Continuous
 62
     7
370
    25
100
AcDbLine
 10
131.9141918738
 20
287.2338118185
 30
0.0
 11
131.9141918738
 21
297.9838118185
 31
0.0
  0
LINE
  5
1B0
330
1F
100
AcDbEntity
  8
0
  6
Continuous
 62
     7
370
    25
100
AcDbLine
 10
117.1328222689
 20
297.9838118185
 30
0.0
 11
116.9030848749
 21
297.9838118185
 31
0.0
  0
ARC
  5
1B1
330
1F
100
AcDbEntity
  8
0
  6
Continuous
 62
     7
370
    25
100
AcDbCircle
 10
116.0671066128
 20
298.0418932607
 30
0.0
 40
1.763054915954214
100
AcDbArc
 50
117.0137142968
 51
181.8878729785
  0
SPLINE
  5
1B2
330
1F
100
AcDbEntity
  8
0
  6
Continuous
 62
     7
370
    25
100
AcDbSpline
210
0.0
220
0.0
230
1.0
 70
     8
 71
     3
 72
     9
 73
     5
 74
     0
 42
0.00000001
 43
0.00000001
 40
0.0
 40
0.0
 40
0.0
 40
0.0
 40
0.5
 40
1.0
 40
1.0
 40
1.0
 40
1.0
 10
116.9030848749038
 20
299.6125950623984
 30
0.0
 10
116.6076358893837
 20
299.6400176175483
 30
0.0
 10
116.0167379183437
 20
299.6948627278482
 30
0.0
 10
115.5164596027105
 20
299.6400176175483
 30
0.0
 10
115.2663204448939
 20
299.6125950623984
 30
0.0
  0
LINE
  5
1B3
330
1F
100
AcDbEntity
  8
0
  6
Continuous
 62
     7
370
    25
100
AcDbLine
 10
116.9030848749
 20
297.9838118185
 30
0.0
 11
116.9030848749
 21
299.6125950624
 31
0.0
  0
LINE
  5
1B4
330
1F
100
AcDbEntity
  8
0
  6
Continuous
 62
     7
370
    25
100
AcDbLine
 10
117.1328222689
 20
299.5836524707
 30
0.0
 11
116.9030848749
 21
299.6125950624
 31
0.0
  0
SPLINE
  5
1B5
330
1F
100
AcDbEntity
  8
0
  6
Continuous
 62
     7
370
    25
100
AcDbSpline
210
0.0
220
0.0
230
1.0
 70
     8
 71
     3
 72
    26
 73
    22
 74
     0
 42
0.00000001
 43
0.00000001
 40
0.0
 40
0.0
 40
0.0
 40
0.0
 40
0.0164500299912591
 40
0.0742462163199685
 40
0.1327423880177308
 40
0.1909816806447823
 40
0.2480461079420348
 40
0.3053606751456354
 40
0.3637113340690807
 40
0.4221552404295453
 40
0.4797405771634525
 40
0.5366131946726089
 40
0.5946927023357597
 40
0.6532143755230008
 40
0.7112188823310854
 40
0.7680468008763587
 40
0.8257330002977561
 40
0.8842045812241771
 40
0.9425070556221264
 40
0.9997021995735123
 40
1.0
 40
1.0
 40
1.0
 40
1.0
 10
157.433453047454
 20
228.0969149744716
 30
0.0
 10
157.4295375368672
 20
228.0905115734481
 30
0.0
 10
157.411865116441
 20
228.0616102098741
 30
0.0
 10
157.3786926024706
 20
228.468804346592
 30
0.0
 10
157.3342744842404
 20
229.327196262493
 30
0.0
 10
157.2901113419684
 20
230.6380016568256
 30
0.0
 10
157.2490563047174
 20
232.3022425801253
 30
0.0
 10
157.2072465485202
 20
234.2861813594822
 30
0.0
 10
157.1629435527466
 20
236.5437025858066
 30
0.0
 10
157.1185421730058
 20
238.9916719045814
 30
0.0
 10
157.0759467282376
 20
241.5231495131213
 30
0.0
 10
157.0354723747506
 20
244.0714635242504
 30
0.0
 10
156.9916160127623
 20
246.5753028752631
 30
0.0
 10
156.9471579822265
 20
248.9533746504949
 30
0.0
 10
156.9034678021426
 20
251.0951664572964
 30
0.0
 10
156.8631312256277
 20
252.944290729319
 30
0.0
 10
156.8202489081646
 20
254.4529888561281
 30
0.0
 10
156.7758462377046
 20
255.5909587337886
 30
0.0
 10
156.731522127367
 20
256.2322631522043
 30
0.0
 10
156.7039173217303
 20
256.4957095511593
 30
0.0
 10
156.6899926265125
 20
256.4211374352207
 30
0.0
 10
156.689920499746
 20
256.4207511685548
 30
0.0
  0
SPLINE
  5
1B6
330
1F
100
AcDbEntity
  8
0
  6
Continuous
 62
     7
370
    25
100
AcDbSpline
210
0.0
220
0.0
230
1.0
 70
     8
 71
     3
 72
    25
 73
    21
 74
     0
 42
0.00000001
 43
0.00000001
 40
0.0
 40
0.0
 40
0.0
 40
0.0
 40
0.0215033900885332
 40
0.0794329404596704
 40
0.1379783369219098
 40
0.1961805966857809
 40
0.2531736474844354
 40
0.310650078999091
 40
0.3690812566216236
 40
0.4275192199668108
 40
0.4850153555462379
 40
0.5419944482204583
 40
0.600185080271191
 40
0.6587323325076032
 40
0.7166770425400417
 40
0.7735095698820552
 40
0.8313364281079938
 40
0.889865133745655
 40
0.948138318590664
 40
0.9999999999999999
 40
0.9999999999999999
 40
0.9999999999999999
 40
0.9999999999999999
 10
155.9333293972118
 20
228.1035592526804
 30
0.0
 10
155.9282216699255
 20
228.0990794403713
 30
0.0
 10
155.9093538636978
 20
228.0825311350597
 30
0.0
 10
155.8747131613534
 20
228.5269655134884
 30
0.0
 10
155.8302825851233
 20
229.4288422247546
 30
0.0
 10
155.7862400736374
 20
230.773208713038
 30
0.0
 10
155.7454984236731
 20
232.4679100141855
 30
0.0
 10
155.7033076543039
 20
234.4781892722543
 30
0.0
 10
155.658951490073
 20
236.7574109853009
 30
0.0
 10
155.6145880452892
 20
239.2166460515682
 30
0.0
 10
155.572340497914
 20
241.7521542870822
 30
0.0
 10
155.5316397148096
 20
244.299031262513
 30
0.0
 10
155.4876247576435
 20
246.7956858038818
 30
0.0
 10
155.4431715751999
 20
249.1566280589305
 30
0.0
 10
155.3997025232476
 20
251.2741778475195
 30
0.0
 10
155.3594477663419
 20
253.0933986025232
 30
0.0
 10
155.3162804780599
 20
254.5750723360727
 30
0.0
 10
155.2718366071482
 20
255.6546838863265
 30
0.0
 10
155.2290195010434
 20
256.3114968857238
 30
0.0
 10
155.2027271651901
 20
256.3738961553429
 30
0.0
 10
155.1903463016914
 20
256.4032795027898
 30
0.0
  0
SPLINE
  5
1B7
330
1F
100
AcDbEntity
  8
0
  6
Continuous
 62
     7
370
    25
100
AcDbSpline
210
0.0
220
0.0
230
1.0
 70
     8
 71
     3
 72
    19
 73
    15
 74
     0
 42
0.00000001
 43
0.00000001
 40
0.0
 40
0.0
 40
0.0
 40
0.0
 40
0.0405052783353356
 40
0.1278601628947071
 40
0.2160142231686238
 40
0.30352244720335
 40
0.3892084758851145
 40
0.4759250167511823
 40
0.5639544916432024
 40
0.6518639258203799
 40
0.7382318962081986
 40
0.8241648479487395
 40
0.9118787687007557
 40
1.0
 40
1.0
 40
1.0
 40
1.0
 10
154.4334515098125
 20
228.1064050861705
 30
0.0
 10
154.4270641765465
 20
228.1057722000592
 30
0.0
 10
154.406901730924
 20
228.10377441299
 30
0.0
 10
154.3707306504931
 20
228.5890462816386
 30
0.0
 10
154.3262902905215
 20
229.5337735247462
 30
0.0
 10
154.2824022815632
 20
230.9113934063807
 30
0.0
 10
154.2418986042797
 20
232.6362153010721
 30
0.0
 10
154.1993555337653
 20
234.6725029275482
 30
0.0
 10
154.1549591010121
 20
236.9726344348832
 30
0.0
 10
154.1106477031126
 20
239.4418823866129
 30
0.0
 10
154.0687732768876
 20
241.9818303478347
 30
0.0
 10
154.0277837204499
 20
244.5233251372871
 30
0.0
 10
153.9835939421963
 20
247.0254377296573
 30
0.0
 10
153.95399549987
 20
248.5592032291505
 30
0.0
 10
153.9391619972858
 20
249.3278624122713
 30
0.0
  0
LINE
  5
1B8
330
1F
100
AcDbEntity
  8
0
  6
Continuous
 62
     7
370
    25
100
AcDbLine
 10
153.9391619973
 20
249.3278543376
 30
0.0
 11
154.4079121548
 21
249.7338032818
 31
0.0
  0
SPLINE
  5
1B9
330
1F
100
AcDbEntity
  8
0
  6
Continuous
 62
     7
370
    25
100
AcDbSpline
210
0.0
220
0.0
230
1.0
 70
     8
 71
     3
 72
    20
 73
    16
 74
     0
 42
0.00000001
 43
0.00000001
 40
0.0
 40
0.0
 40
0.0
 40
0.0
 40
0.0301300913983253
 40
0.1173732779173709
 40
0.2046214803347964
 40
0.2900758996214763
 40
0.3774520390278674
 40
0.4645422371435466
 40
0.550045495636806
 40
0.6375284090081357
 40
0.6628523632347553
 40
0.7477699010572199
 40
0.8339655149681382
 40
0.9216104593488298
 40
1.0
 40
1.0
 40
1.0
 40
1.0
 10
157.902527422163
 20
227.3602567814772
 30
0.0
 10
157.8953118527652
 20
227.3402207538686
 30
0.0
 10
157.867203241309
 20
227.2621694062715
 30
0.0
 10
157.8149726729247
 20
228.2472341886725
 30
0.0
 10
157.7487352515641
 20
230.2492234871088
 30
0.0
 10
157.6879997584704
 20
233.1880027485062
 30
0.0
 10
157.6213285760237
 20
236.7614726493515
 30
0.0
 10
157.5555612204869
 20
240.7400895294073
 30
0.0
 10
157.4946895705278
 20
244.822045831468
 30
0.0
 10
157.4435353800775
 20
247.8005839566503
 30
0.0
 10
157.3934934331348
 20
250.522527051986
 30
0.0
 10
157.3458857016093
 20
252.9834658692873
 30
0.0
 10
157.2832051607113
 20
255.4272174568733
 30
0.0
 10
157.217633679749
 20
256.9756326834735
 30
0.0
 10
157.1776599700376
 20
257.1218250266546
 30
0.0
 10
157.158787259698
 20
257.1908465352075
 30
0.0
  0
SPLINE
  5
1BA
330
1F
100
AcDbEntity
  8
0
  6
Continuous
 62
     7
370
    25
100
AcDbSpline
210
0.0
220
0.0
230
1.0
 70
     8
 71
     3
 72
    20
 73
    16
 74
     0
 42
0.00000001
 43
0.00000001
 40
0.0
 40
0.0
 40
0.0
 40
0.0
 40
0.0300214767673944
 40
0.1172744335519374
 40
0.2045324067965852
 40
0.2899963960267491
 40
0.3773823205878807
 40
0.4644822718360596
 40
0.5499951057422504
 40
0.6374878162258157
 40
0.662814606453344
 40
0.7477416540945464
 40
0.8339469209544941
 40
0.9216016805930903
 40
1.0
 40
1.0
 40
1.0
 40
1.0
 10
156.4024465203026
 20
227.360190888102
 30
0.0
 10
156.3952576592907
 20
227.34026675328
 30
0.0
 10
156.3671754430297
 20
227.262436084144
 30
0.0
 10
156.3149723819879
 20
228.247335244539
 30
0.0
 10
156.2487353276836
 20
230.2491970472644
 30
0.0
 10
156.1879997377432
 20
233.188009948041
 30
0.0
 10
156.1213285816135
 20
236.7614707077908
 30
0.0
 10
156.0555612190189
 20
240.7400900392946
 30
0.0
 10
155.9946895709418
 20
244.8220456876536
 30
0.0
 10
155.9435353800509
 20
247.8005839658633
 30
0.0
 10
155.8934934331487
 20
250.5225270471336
 30
0.0
 10
155.8458857016039
 20
252.9834658711644
 30
0.0
 10
155.7832051607128
 20
255.4272174563582
 30
0.0
 10
155.7176336797487
 20
256.9756326835873
 30
0.0
 10
155.6776599700375
 20
257.1218250266911
 30
0.0
 10
155.658787259698
 20
257.1908465352075
 30
0.0
  0
SPLINE
  5
1BB
330
1F
100
AcDbEntity
  8
0
  6
Continuous
 62
     7
370
    25
100
AcDbSpline
210
0.0
220
0.0
230
1.0
 70
     8
 71
     3
 72
    17
 73
    13
 74
     0
 42
0.00000001
 43
0.00000001
 40
0.0
 40
0.0
 40
0.0
 40
0.0
 40
0.0455378147311936
 40
0.1769443538592606
 40
0.3083584479824285
 40
0.4370707284446964
 40
0.5686775225094551
 40
0.6998536290110303
 40
0.8286394715629748
 40
0.9604070896159598
 40
0.9985502766627925
 40
1.0
 40
1.0
 40
1.0
 40
1.0
 10
154.9026020485004
 20
227.3603175635313
 30
0.0
 10
154.8953618432945
 20
227.3401781504629
 30
0.0
 10
154.8672288852346
 20
227.2619232879156
 30
0.0
 10
154.8149729198655
 20
228.2471408462274
 30
0.0
 10
154.7487352566088
 20
230.2492489600022
 30
0.0
 10
154.687999501578
 20
233.1879919561702
 30
0.0
 10
154.6213296257626
 20
236.7614903561972
 30
0.0
 10
154.5555573322231
 20
240.7400303608382
 30
0.0
 10
154.4947039319906
 20
244.8222627021692
 30
0.0
 10
154.4434969198271
 20
247.8000035341836
 30
0.0
 10
154.4147650576471
 20
249.3671272768334
 30
0.0
 10
154.4081542156603
 20
249.7208514140707
 30
0.0
 10
154.4079121548515
 20
249.7338032817589
 30
0.0
  0
SPLINE
  5
1BC
330
1F
100
AcDbEntity
  8
0
  6
Continuous
 62
     7
370
    25
100
AcDbSpline
210
0.0
220
0.0
230
1.0
 70
     8
 71
     3
 72
    11
 73
     7
 74
     0
 42
0.00000001
 43
0.00000001
 40
0.0
 40
0.0
 40
0.0
 40
0.0
 40
0.2318175471368938
 40
0.4686668135456819
 40
0.7305924305850608
 40
1.0
 40
1.0
 40
1.0
 40
1.0
 10
128.7109485374125
 20
284.5069270279504
 30
0.0
 10
128.0592142677272
 20
284.5217761527146
 30
0.0
 10
126.7415995003188
 20
284.5517967101447
 30
0.0
 10
124.6116467178594
 20
284.6281684206458
 30
0.0
 10
122.3627253170232
 20
284.5656030790306
 30
0.0
 10
120.8654883457698
 20
284.5266684638503
 30
0.0
 10
120.1063282113252
 20
284.5069270279505
 30
0.0
  0
LWPOLYLINE
  5
1BD
330
1F
100
AcDbEntity
  8
0
  6
Continuous
 62
     7
370
    25
100
AcDbPolyline
 90
        9
 70
   128
 43
0.0
 10
120.1063282113
 20
284.506927028
 10
120.0992197413
 20
284.6986998198
 10
120.0808953295
 20
284.88245511
 10
120.0520386624
 20
285.0513369624
 10
120.0137263864
 20
285.1990443714
 10
119.9673879379
 20
285.3200663526
 10
119.914752211
 20
285.4098875586
 10
119.857783052
 20
285.4651567477
 10
119.7986059884
 20
285.4838118185
  0
LWPOLYLINE
  5
1BE
330
1F
100
AcDbEntity
  8
0
  6
Continuous
 62
     7
370
    25
100
AcDbPolyline
 90
        9
 70
   128
 43
0.0
 10
129.0186707603
 20
285.4838118185
 10
128.9594936967
 20
285.4651567477
 10
128.9025245378
 20
285.4098875586
 10
128.8498888108
 20
285.3200663526
 10
128.8035503623
 20
285.1990443714
 10
128.7652380863
 20
285.0513369624
 10
128.7363814192
 20
284.88245511
 10
128.7180570075
 20
284.6986998198
 10
128.7109485374
 20
284.506927028
  0
SPLINE
  5
1BF
330
1F
100
AcDbEntity
  8
0
  6
Continuous
 62
     7
370
    25
100
AcDbSpline
210
0.0
220
0.0
230
1.0
 70
     8
 71
     3
 72
    20
 73
    16
 74
     0
 42
0.00000001
 43
0.00000001
 40
0.0
 40
0.0
 40
0.0
 40
0.0
 40
0.0618604983634788
 40
0.1486736585079685
 40
0.2346251464162644
 40
0.3196413359554092
 40
0.4065076190857682
 40
0.4922268384077259
 40
0.5774389464690524
 40
0.6643319671795413
 40
0.7497945655650845
 40
0.831875366163091
 40
0.9155956773229004
 40
0.9736782238205748
 40
1.0
 40
1.0
 40
1.0
 40
1.0
 10
158.0959364051481
 20
227.338947315687
 30
0.0
 10
158.0810260483306
 20
227.3518221154415
 30
0.0
 10
158.0451909458604
 20
227.3827650213783
 30
0.0
 10
157.9839563337208
 20
228.6921100500556
 30
0.0
 10
157.9194148475729
 20
230.9773515004406
 30
0.0
 10
157.8577839350284
 20
234.1105968377283
 30
0.0
 10
157.7903143971852
 20
237.8220456900968
 30
0.0
 10
157.7265106476378
 20
241.858339838704
 30
0.0
 10
157.6642763932528
 20
245.9203302520862
 30
0.0
 10
157.5967056307769
 20
249.7147477418157
 30
0.0
 10
157.5345223684338
 20
252.921051881635
 30
0.0
 10
157.473141299877
 20
255.3601817657705
 30
0.0
 10
157.4148560091141
 20
256.6968901934877
 30
0.0
 10
157.3726407437414
 20
257.2281149524093
 30
0.0
 10
157.352421350896
 20
257.1869724098116
 30
0.0
 10
157.346115864209
 20
257.1741419674437
 30
0.0
  0
SPLINE
  5
1C0
330
1F
100
AcDbEntity
  8
0
  6
Continuous
 62
     7
370
    25
100
AcDbSpline
210
0.0
220
0.0
230
1.0
 70
     8
 71
     3
 72
    20
 73
    16
 74
     0
 42
0.00000001
 43
0.00000001
 40
0.0
 40
0.0
 40
0.0
 40
0.0
 40
0.0618604983634796
 40
0.1486736585079692
 40
0.2346251464162651
 40
0.3196413359554098
 40
0.4065076190857687
 40
0.4922268384077262
 40
0.5774389464690526
 40
0.6643319671795416
 40
0.7497945655650846
 40
0.831875366163091
 40
0.9155956773229004
 40
0.9736782238205747
 40
0.9999999999999999
 40
0.9999999999999999
 40
0.9999999999999999
 40
0.9999999999999999
 10
156.5959364051481
 20
227.338947315687
 30
0.0
 10
156.5810260483306
 20
227.3518221154415
 30
0.0
 10
156.5451909458604
 20
227.3827650213783
 30
0.0
 10
156.4839563337207
 20
228.6921100500556
 30
0.0
 10
156.4194148475731
 20
230.9773515004406
 30
0.0
 10
156.3577839350284
 20
234.1105968377283
 30
0.0
 10
156.2903143971851
 20
237.8220456900967
 30
0.0
 10
156.2265106476378
 20
241.8583398387041
 30
0.0
 10
156.1642763932528
 20
245.9203302520862
 30
0.0
 10
156.0967056307769
 20
249.7147477418157
 30
0.0
 10
156.0345223684338
 20
252.921051881635
 30
0.0
 10
155.9731412998771
 20
255.3601817657705
 30
0.0
 10
155.9148560091141
 20
256.6968901934877
 30
0.0
 10
155.8726407437414
 20
257.2281149524093
 30
0.0
 10
155.852421350896
 20
257.1869724098116
 30
0.0
 10
155.846115864209
 20
257.1741419674437
 30
0.0
  0
SPLINE
  5
1C1
330
1F
100
AcDbEntity
  8
0
  6
Continuous
 62
     7
370
    25
100
AcDbSpline
210
0.0
220
0.0
230
1.0
 70
     8
 71
     3
 72
    20
 73
    16
 74
     0
 42
0.00000001
 43
0.00000001
 40
0.0
 40
0.0
 40
0.0
 40
0.0
 40
0.0618604983634793
 40
0.148673658507969
 40
0.2346251464162648
 40
0.3196413359554096
 40
0.4065076190857685
 40
0.4922268384077261
 40
0.5774389464690525
 40
0.6643319671795415
 40
0.7497945655650846
 40
0.831875366163091
 40
0.9155956773229004
 40
0.9736782238205748
 40
1.0
 40
1.0
 40
1.0
 40
1.0
 10
155.0959364051481
 20
227.338947315687
 30
0.0
 10
155.0810260483306
 20
227.3518221154415
 30
0.0
 10
155.0451909458604
 20
227.3827650213783
 30
0.0
 10
154.9839563337207
 20
228.6921100500556
 30
0.0
 10
154.919414847573
 20
230.9773515004406
 30
0.0
 10
154.8577839350284
 20
234.1105968377282
 30
0.0
 10
154.7903143971852
 20
237.8220456900968
 30
0.0
 10
154.7265106476377
 20
241.858339838704
 30
0.0
 10
154.6642763932528
 20
245.9203302520862
 30
0.0
 10
154.5967056307768
 20
249.7147477418157
 30
0.0
 10
154.5345223684338
 20
252.921051881635
 30
0.0
 10
154.4731412998771
 20
255.3601817657705
 30
0.0
 10
154.414856009114
 20
256.6968901934877
 30
0.0
 10
154.3726407437414
 20
257.2281149524093
 30
0.0
 10
154.352421350896
 20
257.1869724098116
 30
0.0
 10
154.346115864209
 20
257.1741419674437
 30
0.0
  0
SPLINE
  5
1C2
330
1F
100
AcDbEntity
  8
0
  6
Continuous
 62
     7
370
    25
100
AcDbSpline
210
0.0
220
0.0
230
1.0
 70
     8
 71
     3
 72
    11
 73
     7
 74
     0
 42
0.00000001
 43
0.00000001
 40
0.0
 40
0.0
 40
0.0
 40
0.0
 40
0.2474075001062625
 40
0.5946117337590735
 40
0.9383697589346256
 40
1.0
 40
1.0
 40
1.0
 40
1.0
 10
153.5959364051481
 20
227.338947315687
 30
0.0
 10
153.5810171221979
 20
227.3516712794185
 30
0.0
 10
153.5451605669291
 20
227.3822516706007
 30
0.0
 10
153.484136198857
 20
228.6951494561086
 30
0.0
 10
153.4364117453826
 20
230.3530077741132
 30
0.0
 10
153.4123034958233
 20
231.4590597651419
 30
0.0
 10
153.4086383743688
 20
231.6272102927091
 30
0.0
  0
SPLINE
  5
1C3
330
1F
100
AcDbEntity
  8
0
  6
Continuous
 62
     7
370
    25
100
AcDbSpline
210
0.0
220
0.0
230
1.0
 70
     8
 71
     3
 72
    15
 73
    11
 74
     0
 42
0.00000001
 43
0.00000001
 40
0.0
 40
0.0
 40
0.0
 40
0.0
 40
0.1122132647369957
 40
0.2415308758174224
 40
0.3698944887039789
 40
0.4955862474356438
 40
0.6228039054652343
 40
0.751941180067231
 40
0.8808957072828679
 40
1.0
 40
1.0
 40
1.0
 40
1.0
 10
158.1586383743689
 20
244.129574905836
 30
0.0
 10
158.1460392312651
 20
244.8677886516526
 30
0.0
 10
158.1189204937831
 20
246.4567399488583
 30
0.0
 10
158.0761049896146
 20
248.7469108861546
 30
0.0
 10
158.0322810443651
 20
250.9147297831722
 30
0.0
 10
157.9917701671284
 20
252.7901957821657
 30
0.0
 10
157.9492149297466
 20
254.3364069722155
 30
0.0
 10
157.9048335086053
 20
255.4912797696628
 30
0.0
 10
157.8613345969871
 20
256.2334357029875
 30
0.0
 10
157.8342375541841
 20
256.3485768823324
 30
0.0
 10
157.8212270346684
 20
256.403861385952
 30
0.0
  0
SPLINE
  5
1C4
330
1F
100
AcDbEntity
  8
0
  6
Continuous
 62
     7
370
    25
100
AcDbSpline
210
0.0
220
0.0
230
1.0
 70
     8
 71
     3
 72
    25
 73
    21
 74
     0
 42
0.00000001
 43
0.00000001
 40
0.0
 40
0.0
 40
0.0
 40
0.0
 40
0.0258621663055387
 40
0.0836247520618531
 40
0.1420869183518836
 40
0.2002923570512877
 40
0.2573236146541119
 40
0.3146048604780624
 40
0.372921597775789
 40
0.4313315305065204
 40
0.4888833948531573
 40
0.5457229496535118
 40
0.6037686924909504
 40
0.6622563460379729
 40
0.7202271360839475
 40
0.7770220205578717
 40
0.8346746829589436
 40
0.8931122725248138
 40
0.951380856179783
 40
1.0
 40
1.0
 40
1.0
 40
1.0
 10
157.0652096460261
 20
228.100703740786
 30
0.0
 10
157.0590588126587
 20
228.0881341047432
 30
0.0
 10
157.03917022679
 20
228.0474904600784
 30
0.0
 10
157.0037107112691
 20
228.463561021232
 30
0.0
 10
156.9592697539289
 20
229.3285995247111
 30
0.0
 10
156.9151127020197
 20
230.6376308383523
 30
0.0
 10
156.8740560571213
 20
232.302336475351
 30
0.0
 10
156.8322467404704
 20
234.2861496418472
 30
0.0
 10
156.7879436296471
 20
236.5437045423355
 30
0.0
 10
156.743542281001
 20
238.9916637671174
 30
0.0
 10
156.7009468206499
 20
241.5231457828445
 30
0.0
 10
156.6604724719033
 20
244.0714512653428
 30
0.0
 10
156.6166161252845
 20
246.5753209796883
 30
0.0
 10
156.572158054533
 20
248.9532800041839
 30
0.0
 10
156.5284680200501
 20
251.095488715381
 30
0.0
 10
156.4881308886528
 20
252.9430859444383
 30
0.0
 10
156.4452506715218
 20
254.4575719236194
 30
0.0
 10
156.4008400748442
 20
255.5736099388682
 30
0.0
 10
156.358721714541
 20
256.2607377629177
 30
0.0
 10
156.3330355201036
 20
256.3481879615269
 30
0.0
 10
156.3213518515381
 20
256.3879657160336
 30
0.0
  0
SPLINE
  5
1C5
330
1F
100
AcDbEntity
  8
0
  6
Continuous
 62
     7
370
    25
100
AcDbSpline
210
0.0
220
0.0
230
1.0
 70
     8
 71
     3
 72
    25
 73
    21
 74
     0
 42
0.00000001
 43
0.00000001
 40
0.0
 40
0.0
 40
0.0
 40
0.0
 40
0.0306625728183039
 40
0.088548498340026
 40
0.14704980872153
 40
0.2052082433639701
 40
0.2621583801268105
 40
0.3195915270692887
 40
0.3779787036591994
 40
0.4363726634938487
 40
0.4938255073058623
 40
0.5507616910422879
 40
0.6089085022169045
 40
0.6674116676941667
 40
0.7253127473406986
 40
0.7821024792493949
 40
0.8398857895440909
 40
0.8983704213962886
 40
0.9565997276027763
 40
1.0
 40
1.0
 40
1.0
 40
1.0
 10
155.5649063765687
 20
228.1007735393813
 30
0.0
 10
155.5576274959585
 20
228.0918638873553
 30
0.0
 10
155.536607278528
 20
228.0661342686339
 30
0.0
 10
155.4997308733914
 20
228.5225035959634
 30
0.0
 10
155.4552779968161
 20
229.4300325503295
 30
0.0
 10
155.4112414181395
 20
230.7728931046585
 30
0.0
 10
155.37049820237
 20
232.4679884432803
 30
0.0
 10
155.3283078640466
 20
234.4781605555586
 30
0.0
 10
155.2839515871742
 20
236.7574106478309
 30
0.0
 10
155.239588172731
 20
239.2166374748126
 30
0.0
 10
155.197340605297
 20
241.752147918716
 30
0.0
 10
155.1566398381248
 20
244.2990232389005
 30
0.0
 10
155.1126248657603
 20
246.7956824315481
 30
0.0
 10
155.0681717573312
 20
249.1566089912292
 30
0.0
 10
155.0247024282338
 20
251.2742189651509
 30
0.0
 10
154.9844486638272
 20
253.0932221493431
 30
0.0
 10
154.941277614179
 20
254.5757260300271
 30
0.0
 10
154.8968480143328
 20
255.6522008347818
 30
0.0
 10
154.8561219740442
 20
256.286890108012
 30
0.0
 10
154.831820702726
 20
256.3491554153572
 30
0.0
 10
154.8214429976395
 20
256.3757454232742
 30
0.0
  0
SPLINE
  5
1C6
330
1F
100
AcDbEntity
  8
0
  6
Continuous
 62
     7
370
    25
100
AcDbSpline
210
0.0
220
0.0
230
1.0
 70
     8
 71
     3
 72
    19
 73
    15
 74
     0
 42
0.00000001
 43
0.00000001
 40
0.0
 40
0.0
 40
0.0
 40
0.0
 40
0.0532475561386666
 40
0.1394423464909402
 40
0.2264257037311123
 40
0.3127718059995517
 40
0.3973199112399594
 40
0.4828848336205105
 40
0.5697452583404895
 40
0.6564872410560137
 40
0.7417082352434682
 40
0.8264999749873022
 40
0.9130490345028692
 40
1.0
 40
1.0
 40
1.0
 40
1.0
 10
154.0648603097762
 20
228.0973910137972
 30
0.0
 10
154.0563614040236
 20
228.0940469519464
 30
0.0
 10
154.0341048452879
 20
228.0852896705779
 30
0.0
 10
153.9957471535347
 20
228.5852496645264
 30
0.0
 10
153.951286060569
 20
229.5347827987231
 30
0.0
 10
153.9074035545718
 20
230.9111243268893
 30
0.0
 10
153.8668984248122
 20
232.636280418491
 30
0.0
 10
153.8243557571582
 20
234.672476578755
 30
0.0
 10
153.7799592195964
 20
236.9726320430539
 30
0.0
 10
153.7356478487615
 20
239.4418729975304
 30
0.0
 10
153.6937734016822
 20
241.9818225501417
 30
0.0
 10
153.6527838597377
 20
244.5233169246937
 30
0.0
 10
153.6085940859259
 20
247.0254298837156
 30
0.0
 10
153.5789956432502
 20
248.5591957834859
 30
0.0
 10
153.5641621400983
 20
249.3278551875514
 30
0.0
  0
ELLIPSE
  5
1C7
330
1F
100
AcDbEntity
  8
0
  6
Continuous
 62
     7
370
    25
100
AcDbEllipse
 10
145.7476551686
 20
242.2338118185
 30
0.0
 11
5.514779443589617
 21
14.79197504224376
 31
0.0
210
0.0
220
0.0
230
1.0
 40
0.4514183623
 41
5.40272344575158
 42
5.733243257345096
  0
LINE
  5
1C8
330
1F
100
AcDbEntity
  8
0
  6
Continuous
 62
     7
370
    25
100
AcDbLine
 10
153.9391525948
 20
253.5436886989
 30
0.0
 11
153.5641527376
 21
253.5436886988
 31
0.0
  0
ELLIPSE
  5
1C9
330
1F
100
AcDbEntity
  8
0
  6
Continuous
 62
     7
370
    25
100
AcDbEllipse
 10
161.7556653484
 20
242.2338118185
 30
0.0
 11
-5.514823779167046
 21
14.79197426083269
 31
0.0
210
0.0
220
0.0
230
1.0
 40
0.4514155752
 41
0.5499417359511677
 42
0.610687564305691
  0
ARC
  5
1CA
330
1F
100
AcDbEntity
  8
0
  6
Continuous
 62
     7
370
    25
100
AcDbCircle
 10
115.9812815728
 20
300.6765471207
 30
0.0
 40
1.587597143788355
100
AcDbArc
 50
316.4967713478
 51
354.1948906197
  0
ARC
  5
1CB
330
1F
100
AcDbEntity
  8
0
  6
Continuous
 62
     7
370
    25
100
AcDbCircle
 10
132.8359951759
 20
300.6765471207
 30
0.0
 40
1.587597143789339
100
AcDbArc
 50
185.8051093803
 51
223.5032286522
  0
ARC
  5
1CC
330
1F
100
AcDbEntity
  8
0
  6
Continuous
 62
     7
370
    25
100
AcDbCircle
 10
115.8095586362
 20
300.6918654786
 30
0.0
 40
1.536432317411355
100
AcDbArc
 50
315.3759149485
 51
356.8310931139
  0
ARC
  5
1CD
330
1F
100
AcDbEntity
  8
0
  6
Continuous
 62
     7
370
    25
100
AcDbCircle
 10
133.0077181125
 20
300.6918654786
 30
0.0
 40
1.536432317411196
100
AcDbArc
 50
183.1689068861
 51
224.6240850515
  0
ARC
  5
1CE
330
1F
100
AcDbEntity
  8
0
  6
Continuous
 62
     7
370
    25
100
AcDbCircle
 10
134.2855081763
 20
300.3145706453
 30
0.0
 40
1.016039454124073
100
AcDbArc
 50
163.2769349669
 51
223.7009200217
  0
ARC
  5
1CF
330
1F
100
AcDbEntity
  8
0
  6
Continuous
 62
     7
370
    25
100
AcDbCircle
 10
114.5317685724
 20
300.3145706453
 30
0.0
 40
1.016039454124193
100
AcDbArc
 50
316.2990799783
 51
16.7230650331
  0
SPLINE
  5
1D0
330
1F
100
AcDbEntity
  8
0
  6
Continuous
 62
     7
370
    25
100
AcDbSpline
210
0.0
220
0.0
230
1.0
 70
     8
 71
     3
 72
    10
 73
     6
 74
     0
 42
0.00000001
 43
0.00000001
 40
0.0
 40
0.0
 40
0.0
 40
0.0
 40
0.5941957696674143
 40
0.9173005899389397
 40
1.0
 40
1.0
 40
1.0
 40
1.0
 10
112.1909655997974
 20
257.465341433487
 30
0.0
 10
112.0029413847883
 20
257.0544568561016
 30
0.0
 10
111.7126755630588
 20
256.4201462728346
 30
0.0
 10
111.4445258365601
 20
256.0941680628191
 30
0.0
 10
111.3555088657167
 20
256.0802365167681
 30
0.0
 10
111.3373679730794
 20
256.0773973875685
 30
0.0
  0
SPLINE
  5
1D1
330
1F
100
AcDbEntity
  8
0
  6
Continuous
 62
     7
370
    25
100
AcDbSpline
210
0.0
220
0.0
230
1.0
 70
     8
 71
     3
 72
    11
 73
     7
 74
     0
 42
0.00000001
 43
0.00000001
 40
0.0
 40
0.0
 40
0.0
 40
0.0
 40
0.2318175471368937
 40
0.4686668135456764
 40
0.7305924305850583
 40
1.0
 40
1.0
 40
1.0
 40
1.0
 10
115.0426908467365
 20
284.5069270279505
 30
0.0
 10
114.55954227919
 20
284.5217761527146
 30
0.0
 10
113.5827581555643
 20
284.5517967101447
 30
0.0
 10
112.3615901155849
 20
284.6281684206458
 30
0.0
 10
111.3377613524116
 20
284.5656030790306
 30
0.0
 10
110.9413681728338
 20
284.5266684638503
 30
0.0
 10
110.7403806836929
 20
284.5069270279505
 30
0.0
  0
LINE
  5
1D2
330
1F
100
AcDbEntity
  8
0
  6
Continuous
 62
     7
370
    25
100
AcDbLine
 10
120.1063282113
 20
284.506927028
 30
0.0
 11
115.0426908467
 21
284.506927028
 31
0.0
  0
LINE
  5
1D3
330
1F
100
AcDbEntity
  8
0
  6
Continuous
 62
     7
370
    25
100
AcDbLine
 10
133.774585902
 20
284.506927028
 30
0.0
 11
128.7109485374
 21
284.506927028
 31
0.0
  0
SPLINE
  5
1D4
330
1F
100
AcDbEntity
  8
0
  6
Continuous
 62
     7
370
    25
100
AcDbSpline
210
0.0
220
0.0
230
1.0
 70
     8
 71
     3
 72
    11
 73
     7
 74
     0
 42
0.00000001
 43
0.00000001
 40
0.0
 40
0.0
 40
0.0
 40
0.0
 40
0.2318175471368935
 40
0.4686668135456789
 40
0.7305924305850595
 40
1.0
 40
1.0
 40
1.0
 40
1.0
 10
138.0768960650448
 20
284.5069270279505
 30
0.0
 10
137.908310362906
 20
284.5217761527146
 30
0.0
 10
137.5674797191233
 20
284.5517967101447
 30
0.0
 10
136.6586949766436
 20
284.6281684206458
 30
0.0
 10
135.4336023389805
 20
284.5656030790306
 30
0.0
 10
134.332758547305
 20
284.5266684638503
 30
0.0
 10
133.7745859020013
 20
284.5069270279505
 30
0.0
  0
ARC
  5
1D5
330
1F
100
AcDbEntity
  8
0
  6
Continuous
 62
     7
370
    25
100
AcDbCircle
 10
108.4412949921
 20
287.1244368185
 30
0.0
 40
1.645478930724402
100
AcDbArc
 50
176.1887389505
 51
265.5980503477
  0
LINE
  5
1D6
330
1F
100
AcDbEntity
  8
0
  6
Continuous
 62
     7
370
    25
100
AcDbLine
 10
106.7994551641
 20
287.2338118185
 30
0.0
 11
114.3050086636
 21
287.2338118185
 31
0.0
  0
LINE
  5
1D7
330
1F
100
AcDbEntity
  8
0
  6
Continuous
 62
     7
370
    25
100
AcDbLine
 10
115.8205531202
 20
285.4838118185
 30
0.0
 11
114.3727925634
 21
285.4838118185
 31
0.0
  0
SPLINE
  5
1D8
330
1F
100
AcDbEntity
  8
0
  6
Continuous
 62
     7
370
    25
100
AcDbSpline
210
0.0
220
0.0
230
1.0
 70
     8
 71
     3
 72
    10
 73
     6
 74
     0
 42
0.00000001
 43
0.00000001
 40
0.0
 40
0.0
 40
0.0
 40
0.0
 40
0.3786373560761674
 40
0.5318998031133461
 40
1.0
 40
1.0
 40
1.0
 40
1.0
 10
109.7627601774782
 20
285.4838118185205
 30
0.0
 10
110.1818497049558
 20
285.5059848307168
 30
0.0
 10
110.7705756549314
 20
285.5371328953026
 30
0.0
 10
112.2706191594485
 20
285.5546035634576
 30
0.0
 10
113.4695696654572
 20
285.5142283031417
 30
0.0
 10
114.3727925634029
 20
285.4838118185205
 30
0.0
  0
LINE
  5
1D9
330
1F
100
AcDbEntity
  8
0
  6
Continuous
 62
     7
370
    25
100
AcDbLine
 10
109.7627601775
 20
285.4838118185
 30
0.0
 11
108.3149996207
 21
285.4838118185
 31
0.0
  0
LINE
  5
1DA
330
1F
100
AcDbEntity
  8
0
  6
Continuous
 62
     7
370
    25
100
AcDbLine
 10
134.5122680852
 20
287.2338118185
 30
0.0
 11
142.0178215847
 21
287.2338118185
 31
0.0
  0
ARC
  5
1DB
330
1F
100
AcDbEntity
  8
0
  6
Continuous
 62
     7
370
    25
100
AcDbCircle
 10
140.3759817566
 20
287.1244368185
 30
0.0
 40
1.645478930724525
100
AcDbArc
 50
274.4019496523
 51
3.8112610495
  0
LINE
  5
1DC
330
1F
100
AcDbEntity
  8
0
  6
Continuous
 62
     7
370
    25
100
AcDbLine
 10
140.502277128
 20
285.4838118185
 30
0.0
 11
139.0545165713
 21
285.4838118185
 31
0.0
  0
SPLINE
  5
1DD
330
1F
100
AcDbEntity
  8
0
  6
Continuous
 62
     7
370
    25
100
AcDbSpline
210
0.0
220
0.0
230
1.0
 70
     8
 71
     3
 72
    10
 73
     6
 74
     0
 42
0.00000001
 43
0.00000001
 40
0.0
 40
0.0
 40
0.0
 40
0.0
 40
0.3786373560761646
 40
0.5318998031133403
 40
1.0
 40
1.0
 40
1.0
 40
1.0
 10
134.4444841853347
 20
285.4838118185205
 30
0.0
 10
135.182965591372
 20
285.5059848307168
 30
0.0
 10
136.2203648552604
 20
285.5371328953026
 30
0.0
 10
137.817292863073
 20
285.5546035634576
 30
0.0
 10
138.522929224082
 20
285.5142283031417
 30
0.0
 10
139.0545165712596
 20
285.4838118185205
 30
0.0
  0
LINE
  5
1DE
330
1F
100
AcDbEntity
  8
0
  6
Continuous
 62
     7
370
    25
100
AcDbLine
 10
134.4444841853
 20
285.4838118185
 30
0.0
 11
132.9967236286
 21
285.4838118185
 31
0.0
  0
LINE
  5
1DF
330
1F
100
AcDbEntity
  8
0
  6
Continuous
 62
     7
370
    25
100
AcDbLine
 10
134.6271367822
 20
297.9838118185
 30
0.0
 11
134.5122680852
 21
297.9838118185
 31
0.0
  0
SPLINE
  5
1E0
330
1F
100
AcDbEntity
  8
0
  6
Continuous
 62
     7
370
    25
100
AcDbSpline
210
0.0
220
0.0
230
1.0
 70
     8
 71
     3
 72
    11
 73
     7
 74
     0
 42
0.00000001
 43
0.00000001
 40
0.0
 40
0.0
 40
0.0
 40
0.0
 40
0.0031771775897204
 40
0.5279022314972419
 40
0.7623425576251293
 40
1.0
 40
1.0
 40
1.0
 40
1.0
 10
138.2650448349199
 20
299.7338118185207
 30
0.0
 10
138.2612896412361
 20
299.7311798337733
 30
0.0
 10
137.6373474568857
 20
299.2938638254166
 30
0.0
 10
136.7348533571653
 20
298.6690534170128
 30
0.0
 10
135.5161142871036
 20
298.0895398447
 30
0.0
 10
134.9248057769592
 20
298.0192142388256
 30
0.0
 10
134.6271367822061
 20
297.9838118185206
 30
0.0
  0
SPLINE
  5
1E1
330
1F
100
AcDbEntity
  8
0
  6
Continuous
 62
     7
370
    25
100
AcDbSpline
210
0.0
220
0.0
230
1.0
 70
     8
 71
     3
 72
    11
 73
     7
 74
     0
 42
0.00000001
 43
0.00000001
 40
0.0
 40
0.0
 40
0.0
 40
0.0
 40
0.2625192684045737
 40
0.5309431078721376
 40
0.9968227191273795
 40
1.0
 40
1.0
 40
1.0
 40
1.0
 10
141.9029528876337
 20
297.9838118185206
 30
0.0
 10
141.5741955106681
 20
298.0268874880588
 30
0.0
 10
140.9092863612453
 20
298.1140076830725
 30
0.0
 10
139.6956879766942
 20
298.7402673339087
 30
0.0
 10
138.823173788401
 20
299.3426200996456
 30
0.0
 10
138.2688000321287
 20
299.7311798066144
 30
0.0
 10
138.2650448349199
 20
299.7338118185207
 30
0.0
  0
LINE
  5
1E2
330
1F
100
AcDbEntity
  8
0
  6
Continuous
 62
     7
370
    25
100
AcDbLine
 10
142.0178215847
 20
297.9838118185
 30
0.0
 11
141.9029528876
 21
297.9838118185
 31
0.0
  0
LINE
  5
1E3
330
1F
100
AcDbEntity
  8
0
  6
Continuous
 62
     7
370
    25
100
AcDbLine
 10
142.0178215847
 20
287.2338118185
 30
0.0
 11
142.0178215847
 21
297.9838118185
 31
0.0
  0
LINE
  5
1E4
330
1F
100
AcDbEntity
  8
0
  6
Continuous
 62
     7
370
    25
100
AcDbLine
 10
133.7258051679
 20
299.5836524707
 30
0.0
 11
133.5509563038
 21
299.6125950624
 31
0.0
  0
ARC
  5
1E5
330
1F
100
AcDbEntity
  8
0
  6
Continuous
 62
     7
370
    25
100
AcDbCircle
 10
132.850665708
 20
298.0367888788
 30
0.0
 40
1.777260826753993
100
AcDbArc
 50
358.291859247
 51
60.5009498435
  0
LINE
  5
1E6
330
1F
100
AcDbEntity
  8
0
  6
Continuous
 62
     7
370
    25
100
AcDbLine
 10
106.9143238611
 20
297.9838118185
 30
0.0
 11
106.7994551641
 21
297.9838118185
 31
0.0
  0
SPLINE
  5
1E7
330
1F
100
AcDbEntity
  8
0
  6
Continuous
 62
     7
370
    25
100
AcDbSpline
210
0.0
220
0.0
230
1.0
 70
     8
 71
     3
 72
    11
 73
     7
 74
     0
 42
0.00000001
 43
0.00000001
 40
0.0
 40
0.0
 40
0.0
 40
0.0
 40
0.0031771775897234
 40
0.5279022314972429
 40
0.7623425576251296
 40
1.0
 40
1.0
 40
1.0
 40
1.0
 10
110.5522319138178
 20
299.7338118185207
 30
0.0
 10
110.5484767201341
 20
299.7311798337732
 30
0.0
 10
109.9245345357806
 20
299.2938638253927
 30
0.0
 10
109.0220404360638
 20
298.6690534170176
 30
0.0
 10
107.8033013660015
 20
298.0895398446992
 30
0.0
 10
107.2119928558572
 20
298.0192142388254
 30
0.0
 10
106.9143238611041
 20
297.9838118185206
 30
0.0
  0
SPLINE
  5
1E8
330
1F
100
AcDbEntity
  8
0
  6
Continuous
 62
     7
370
    25
100
AcDbSpline
210
0.0
220
0.0
230
1.0
 70
     8
 71
     3
 72
    11
 73
     7
 74
     0
 42
0.00000001
 43
0.00000001
 40
0.0
 40
0.0
 40
0.0
 40
0.0
 40
0.2625192684046219
 40
0.5309431078722365
 40
0.9968227191273706
 40
1.0
 40
1.0
 40
1.0
 40
1.0
 10
114.1901399665317
 20
297.9838118185206
 30
0.0
 10
113.8613825895661
 20
298.0268874880586
 30
0.0
 10
113.1964734401431
 20
298.1140076830719
 30
0.0
 10
111.9828750555922
 20
298.7402673339122
 30
0.0
 10
111.1103608672984
 20
299.3426200996323
 30
0.0
 10
110.5559871110266
 20
299.7311798066143
 30
0.0
 10
110.5522319138178
 20
299.7338118185207
 30
0.0
  0
LINE
  5
1E9
330
1F
100
AcDbEntity
  8
0
  6
Continuous
 62
     7
370
    25
100
AcDbLine
 10
114.3050086636
 20
297.9838118185
 30
0.0
 11
114.1901399665
 21
297.9838118185
 31
0.0
  0
LINE
  5
1EA
330
1F
100
AcDbEntity
  8
0
  6
Continuous
 62
     7
370
    25
100
AcDbLine
 10
106.7994551641
 20
297.9838118185
 30
0.0
 11
106.7994551641
 21
287.2338118185
 31
0.0
  0
ARC
  5
1EB
330
1F
100
AcDbEntity
  8
0
  6
Continuous
 62
     7
370
    25
100
AcDbCircle
 10
115.9666110407
 20
298.0367888788
 30
0.0
 40
1.777260826754035
100
AcDbArc
 50
119.4990501565
 51
181.708140753
  0
LINE
  5
1EC
330
1F
100
AcDbEntity
  8
0
  6
Continuous
 62
     7
370
    25
100
AcDbLine
 10
115.2663204449
 20
299.6125950624
 30
0.0
 11
115.0914715808
 21
299.5836524707
 31
0.0
  0
SPLINE
  5
1ED
330
1F
100
AcDbEntity
  8
0
  6
Continuous
 62
     7
370
    25
100
AcDbSpline
210
0.0
220
0.0
230
1.0
 70
     8
 71
     3
 72
    12
 73
     8
 74
     0
 42
0.00000001
 43
0.00000001
 40
0.0
 40
0.0
 40
0.0
 40
0.0
 40
0.46951664153105
 40
0.8606781168497288
 40
0.9852477217075274
 40
0.9962368350017196
 40
1.0
 40
1.0
 40
1.0
 40
1.0
 10
115.0178794542324
 20
299.5724482082856
 30
0.0
 10
114.2334756417561
 20
299.5323988554954
 30
0.0
 10
112.795573049059
 20
299.4589837760469
 30
0.0
 10
111.4066311972844
 20
299.6277776022768
 30
0.0
 10
110.743915948771
 20
299.7088121742178
 30
0.0
 10
110.5746329301009
 20
299.7308817047912
 30
0.0
 10
110.5567848007824
 20
299.7332162885485
 30
0.0
 10
110.5522319138178
 20
299.7338118185207
 30
0.0
  0
LINE
  5
1EE
330
1F
100
AcDbEntity
  8
0
  6
Continuous
 62
     7
370
    25
100
AcDbLine
 10
115.0914715808
 20
299.5836524707
 30
0.0
 11
115.0178794542
 21
299.5724482083
 31
0.0
  0
LINE
  5
1EF
330
1F
100
AcDbEntity
  8
0
  6
Continuous
 62
     7
370
    25
100
AcDbLine
 10
133.7993972945
 20
299.5724482083
 30
0.0
 11
133.7258051679
 21
299.5836524707
 31
0.0
  0
SPLINE
  5
1F0
330
1F
100
AcDbEntity
  8
0
  6
Continuous
 62
     7
370
    25
100
AcDbSpline
210
0.0
220
0.0
230
1.0
 70
     8
 71
     3
 72
    12
 73
     8
 74
     0
 42
0.00000001
 43
0.00000001
 40
0.0
 40
0.0
 40
0.0
 40
0.0
 40
0.0037631649982967
 40
0.0147522782925052
 40
0.1393218831506259
 40
0.530483358470283
 40
0.9999999999999999
 40
0.9999999999999999
 40
0.9999999999999999
 40
0.9999999999999999
 10
138.2650448349199
 20
299.7338118185207
 30
0.0
 10
138.2604919479552
 20
299.7332162885484
 30
0.0
 10
138.2426438186368
 20
299.730881704791
 30
0.0
 10
138.0733607999665
 20
299.7088121742199
 30
0.0
 10
137.4106455514537
 20
299.6277776022739
 30
0.0
 10
136.0217036996823
 20
299.4589837760487
 30
0.0
 10
134.58380110699
 20
299.532398855495
 30
0.0
 10
133.7993972945182
 20
299.5724482082837
 30
0.0
  0
ARC
  5
1F1
330
1F
100
AcDbEntity
  8
0
  6
Continuous
 62
     7
370
    25
100
AcDbCircle
 10
114.173590206
 20
284.6290752852
 30
0.0
 40
0.877642364844469
100
AcDbArc
 50
351.9997331459
 51
76.880992246
  0
ARC
  5
1F2
330
1F
100
AcDbEntity
  8
0
  6
Continuous
 62
     7
370
    25
100
AcDbCircle
 10
134.6436865428
 20
284.6290752852
 30
0.0
 40
0.8776423648443502
100
AcDbArc
 50
103.119007754
 51
188.0002668541
  0
LINE
  5
1F3
330
1F
100
AcDbEntity
  8
0
  6
Continuous
 62
     7
370
    25
100
AcDbLine
 10
153.5641621401
 20
249.3278537103
 30
0.0
 11
153.9391619973
 21
249.3278543376
 31
0.0
  0
ARC
  5
1F4
330
1F
100
AcDbEntity
  8
0
  6
Continuous
 62
     7
370
    25
100
AcDbCircle
 10
134.4696949598
 20
300.2488641898
 30
0.0
 40
0.9979371992161893
100
AcDbArc
 50
164.4750771131
 51
221.8041723328
  0
ARC
  5
1F5
330
1F
100
AcDbEntity
  8
0
  6
Continuous
 62
     7
370
    25
100
AcDbCircle
 10
114.347581789
 20
300.2488641898
 30
0.0
 40
0.997937199216674
100
AcDbArc
 50
318.1958276672
 51
15.5249228869
  0
ARC
  5
1F6
330
1F
100
AcDbEntity
  8
0
  6
Continuous
 62
     7
370
    25
100
AcDbCircle
 10
134.5583354866
 20
300.2324245584
 30
0.0
 40
1.005761384292548
100
AcDbArc
 50
165.7659488811
 51
221.0103806761
  0
ARC
  5
1F7
330
1F
100
AcDbEntity
  8
0
  6
Continuous
 62
     7
370
    25
100
AcDbCircle
 10
114.2589412622
 20
300.2324245584
 30
0.0
 40
1.005761384288607
100
AcDbArc
 50
318.9896193238
 51
14.2340511189
  0
SPLINE
  5
1F8
330
1F
100
AcDbEntity
  8
0
  6
Continuous
 62
     7
370
    25
100
AcDbSpline
210
0.0
220
0.0
230
1.0
 70
     8
 71
     3
 72
    11
 73
     7
 74
     0
 42
0.00000001
 43
0.00000001
 40
0.0
 40
0.0
 40
0.0
 40
0.0
 40
0.0038117785910423
 40
0.297927711865937
 40
0.7539851700315541
 40
1.0
 40
1.0
 40
1.0
 40
1.0
 10
110.5522319138178
 20
299.7338118185207
 30
0.0
 10
110.5566808295318
 20
299.7345271176316
 30
0.0
 10
110.9044070280172
 20
299.7904347267236
 30
0.0
 10
111.8863450322842
 20
299.9363352960787
 30
0.0
 10
113.4787122101234
 20
300.1279141703228
 30
0.0
 10
114.7783988539863
 20
300.3884349618256
 30
0.0
 10
115.233825159947
 20
300.4797246755887
 30
0.0
  0
SPLINE
  5
1F9
330
1F
100
AcDbEntity
  8
0
  6
Continuous
 62
     7
370
    25
100
AcDbSpline
210
0.0
220
0.0
230
1.0
 70
     8
 71
     3
 72
    12
 73
     8
 74
     0
 42
0.00000001
 43
0.00000001
 40
0.0
 40
0.0
 40
0.0
 40
0.0
 40
0.3348024110137259
 40
0.6699353186276183
 40
0.981138224024419
 40
0.9961891513525278
 40
1.0
 40
1.0
 40
1.0
 40
1.0
 10
133.5834515888039
 20
300.4797246755887
 30
0.0
 10
134.199072166196
 20
300.3561793771539
 30
0.0
 10
135.4309210242139
 20
300.1089668238714
 30
0.0
 10
136.9751059976416
 20
299.9317785964388
 30
0.0
 10
137.850258546522
 20
299.7999539576703
 30
0.0
 10
138.2385768433497
 20
299.7380684294781
 30
0.0
 10
138.260596055321
 20
299.734527276055
 30
0.0
 10
138.2650448349199
 20
299.7338118185207
 30
0.0
  0
SPLINE
  5
1FA
330
1F
100
AcDbEntity
  8
0
  6
Continuous
 62
     7
370
    25
100
AcDbSpline
210
0.0
220
0.0
230
1.0
 70
     8
 71
     3
 72
    12
 73
     8
 74
     0
 42
0.00000001
 43
0.00000001
 40
0.0
 40
0.0
 40
0.0
 40
0.0
 40
0.3348024110137239
 40
0.6699353186276142
 40
0.9811382240244217
 40
0.9961891513525173
 40
0.9999999999999999
 40
0.9999999999999999
 40
0.9999999999999999
 40
0.9999999999999999
 10
108.4692670975371
 20
300.4797246755887
 30
0.0
 10
108.5697081300157
 20
300.3561793771533
 30
0.0
 10
108.770689344258
 20
300.1089668238695
 30
0.0
 10
109.4779674479777
 20
299.9317785964459
 30
0.0
 10
110.144202213227
 20
299.7999539576556
 30
0.0
 10
110.5258125024653
 20
299.7380684294796
 30
0.0
 10
110.5477912996545
 20
299.7345272760552
 30
0.0
 10
110.5522319138178
 20
299.7338118185207
 30
0.0
  0
SPLINE
  5
1FB
330
1F
100
AcDbEntity
  8
0
  6
Continuous
 62
     7
370
    25
100
AcDbSpline
210
0.0
220
0.0
230
1.0
 70
     8
 71
     3
 72
    11
 73
     7
 74
     0
 42
0.00000001
 43
0.00000001
 40
0.0
 40
0.0
 40
0.0
 40
0.0
 40
0.0038117785910303
 40
0.2979277118658998
 40
0.7539851700315199
 40
1.0
 40
1.0
 40
1.0
 40
1.0
 10
138.2650448349198
 20
299.7338118185207
 30
0.0
 10
138.2694853395751
 20
299.7345271176316
 30
0.0
 10
138.6165541317096
 20
299.7904347267275
 30
0.0
 10
139.3918052401849
 20
299.9363352960758
 30
0.0
 10
140.0879832161028
 20
300.1279141703232
 30
0.0
 10
140.280536569882
 20
300.3884349618256
 30
0.0
 10
140.3480096512021
 20
300.4797246755887
 30
0.0
  0
LINE
  5
1FC
330
1F
100
AcDbEntity
  8
0
  6
Continuous
 62
     7
370
    25
100
AcDbLine
 10
153.5641527376
 20
253.5436886988
 30
0.0
 11
153.5641621401
 21
249.3278537103
 31
0.0
  0
LINE
  5
1FD
330
1F
100
AcDbEntity
  8
0
  6
Continuous
 62
     7
370
    25
100
AcDbLine
 10
153.4086383744
 20
252.9246518258
 30
0.0
 11
153.4086383744
 21
254.0378984805
 31
0.0
  0
LINE
  5
1FE
330
1F
100
AcDbEntity
  8
0
  6
Continuous
 62
     7
370
    25
100
AcDbLine
 10
153.9391525948
 20
253.5436886989
 30
0.0
 11
153.9391619973
 21
249.3278543376
 31
0.0
  0
ARC
  5
1FF
330
1F
100
AcDbEntity
  8
0
  6
Continuous
 62
     7
370
    25
100
AcDbCircle
 10
139.0653542089
 20
284.4953452355
 30
0.0
 40
0.9885259936319734
100
AcDbArc
 50
90.628170975
 51
179.3286944278
  0
ARC
  5
200
330
1F
100
AcDbEntity
  8
0
  6
Continuous
 62
     7
370
    25
100
AcDbCircle
 10
109.7519225398
 20
284.4953452355
 30
0.0
 40
0.9885259936318298
100
AcDbArc
 50
0.6713055722
 51
89.371829025
  0
LINE
  5
201
330
1F
100
AcDbEntity
  8
0
  6
Continuous
 62
     7
370
    25
100
AcDbLine
 10
136.2937366448
 20
228.1436662754
 30
0.0
 11
133.8360683158
 21
227.4622188824
 31
0.0
  0
SPLINE
  5
202
330
1F
100
AcDbEntity
  8
0
  6
Continuous
 62
     7
370
    25
100
AcDbSpline
210
0.0
220
0.0
230
1.0
 70
     8
 71
     3
 72
     9
 73
     5
 74
     0
 42
0.00000001
 43
0.00000001
 40
0.0
 40
0.0
 40
0.0
 40
0.0
 40
0.4463923802679554
 40
1.0
 40
1.0
 40
1.0
 40
1.0
 10
110.0015455055712
 20
250.8046032655815
 30
0.0
 10
110.1653592225817
 20
250.8027403478256
 30
0.0
 10
110.5323316984834
 20
250.7985670737326
 30
0.0
 10
110.9748841677042
 20
251.2458074883952
 30
0.0
 10
111.219884586796
 20
251.4934031898045
 30
0.0
  0
ARC
  5
203
330
1F
100
AcDbEntity
  8
0
  6
Continuous
 62
     7
370
    25
100
AcDbCircle
 10
101.1923394456
 20
255.8419562363
 30
0.0
 40
10.14776016461635
100
AcDbArc
 50
330.2378582576
 51
1.3294554288
  0
SPLINE
  5
204
330
1F
100
AcDbEntity
  8
0
  6
Continuous
 62
     7
370
    25
100
AcDbSpline
210
0.0
220
0.0
230
1.0
 70
     8
 71
     3
 72
    12
 73
     8
 74
     0
 42
0.00000001
 43
0.00000001
 40
0.0
 40
0.0
 40
0.0
 40
0.0
 40
0.4695166415310519
 40
0.8606781168497272
 40
0.9852477217075327
 40
0.9962368350017283
 40
1.0
 40
1.0
 40
1.0
 40
1.0
 10
140.9736651983357
 20
299.5724482082856
 30
0.0
 10
140.6504024238272
 20
299.5323988554964
 30
0.0
 10
140.0578245013402
 20
299.4589837760496
 30
0.0
 10
139.0657045525551
 20
299.6277776022703
 30
0.0
 10
138.4550501522744
 20
299.7088121742224
 30
0.0
 10
138.2874184210876
 20
299.7308817047905
 30
0.0
 10
138.2695921468601
 20
299.7332162885483
 30
0.0
 10
138.2650448349199
 20
299.7338118185207
 30
0.0
  0
LINE
  5
205
330
1F
100
AcDbEntity
  8
0
  6
Continuous
 62
     7
370
    25
100
AcDbLine
 10
141.0016212734
 20
299.5836524707
 30
0.0
 11
140.9736651983
 21
299.5724482083
 31
0.0
  0
ARC
  5
206
330
1F
100
AcDbEntity
  8
0
  6
Continuous
 62
     7
370
    25
100
AcDbCircle
 10
140.1264818135
 20
298.0367888788
 30
0.0
 40
1.777260826754131
100
AcDbArc
 50
358.291859247
 51
60.5009498435
  0
ARC
  5
207
330
1F
100
AcDbEntity
  8
0
  6
Continuous
 62
     7
370
    25
100
AcDbCircle
 10
141.3507178026
 20
300.501826198
 30
0.0
 40
1.002951700818485
100
AcDbArc
 50
181.2626993566
 51
247.9173961432
  0
ARC
  5
208
330
1F
100
AcDbEntity
  8
0
  6
Continuous
 62
     7
370
    25
100
AcDbCircle
 10
108.6907949353
 20
298.0367888788
 30
0.0
 40
1.777260826753958
100
AcDbArc
 50
119.4990501565
 51
181.708140753
  0
LINE
  5
209
330
1F
100
AcDbEntity
  8
0
  6
Continuous
 62
     7
370
    25
100
AcDbLine
 10
107.8436115504
 20
299.5724482083
 30
0.0
 11
107.8156554754
 21
299.5836524707
 31
0.0
  0
SPLINE
  5
20A
330
1F
100
AcDbEntity
  8
0
  6
Continuous
 62
     7
370
    25
100
AcDbSpline
210
0.0
220
0.0
230
1.0
 70
     8
 71
     3
 72
    12
 73
     8
 74
     0
 42
0.00000001
 43
0.00000001
 40
0.0
 40
0.0
 40
0.0
 40
0.0
 40
0.0037631649983001
 40
0.0147522782925251
 40
0.1393218831506247
 40
0.5304833584702872
 40
0.9999999999999999
 40
0.9999999999999999
 40
0.9999999999999999
 40
0.9999999999999999
 10
110.5522319138178
 20
299.7338118185207
 30
0.0
 10
110.5476846018777
 20
299.7332162885484
 30
0.0
 10
110.5298583276501
 20
299.7308817047912
 30
0.0
 10
110.3622265964637
 20
299.7088121742183
 30
0.0
 10
109.7515721961822
 20
299.6277776022762
 30
0.0
 10
108.7594522474001
 20
299.4589837760478
 30
0.0
 10
108.1668743249141
 20
299.5323988554946
 30
0.0
 10
107.843611550407
 20
299.5724482082837
 30
0.0
  0
ARC
  5
20B
330
1F
100
AcDbEntity
  8
0
  6
Continuous
 62
     7
370
    25
100
AcDbCircle
 10
107.4665589461
 20
300.501826198
 30
0.0
 40
1.002951700819135
100
AcDbArc
 50
292.082603857
 51
358.7373006436
  0
LINE
  5
20C
330
1F
100
AcDbEntity
  8
0
  6
Continuous
 62
     7
370
    25
100
AcDbLine
 10
141.0565098033
 20
299.6125950624
 30
0.0
 11
141.0016212734
 21
299.5836524707
 31
0.0
  0
ARC
  5
20D
330
1F
100
AcDbEntity
  8
0
  6
Continuous
 62
     7
370
    25
100
AcDbCircle
 10
140.2557236354
 20
298.0418932607
 30
0.0
 40
1.763054915954214
100
AcDbArc
 50
358.1121270215
 51
62.9862857032
  0
ARC
  5
20E
330
1F
100
AcDbEntity
  8
0
  6
Continuous
 62
     7
370
    25
100
AcDbCircle
 10
108.5615531133
 20
298.0418932607
 30
0.0
 40
1.763054915954163
100
AcDbArc
 50
117.0137142968
 51
181.8878729785
  0
LINE
  5
20F
330
1F
100
AcDbEntity
  8
0
  6
Continuous
 62
     7
370
    25
100
AcDbLine
 10
107.8156554754
 20
299.5836524707
 30
0.0
 11
107.7607669454
 21
299.6125950624
 31
0.0
  0
LINE
  5
210
330
1F
100
AcDbEntity
  8
0
  6
Continuous
 62
     7
370
    25
100
AcDbLine
 10
140.6697453733
 20
285.4838118185
 30
0.0
 11
140.502277128
 21
285.4838118185
 31
0.0
  0
LINE
  5
211
330
1F
100
AcDbEntity
  8
0
  6
Continuous
 62
     7
370
    25
100
AcDbLine
 10
108.3149996207
 20
285.4838118185
 30
0.0
 11
108.1475313754
 21
285.4838118185
 31
0.0
  0
ARC
  5
212
330
1F
100
AcDbEntity
  8
0
  6
Continuous
 62
     7
370
    25
100
AcDbCircle
 10
107.4592452329
 20
300.5200904846
 30
0.0
 40
1.001970266457646
100
AcDbArc
 50
290.8369281334
 51
359.7643533258
  0
ARC
  5
213
330
1F
100
AcDbEntity
  8
0
  6
Continuous
 62
     7
370
    25
100
AcDbCircle
 10
141.3580315158
 20
300.5200904846
 30
0.0
 40
1.001970266457958
100
AcDbArc
 50
180.2356466742
 51
249.1630718665
  0
ARC
  5
214
330
1F
100
AcDbEntity
  8
0
  6
Continuous
 62
     7
370
    25
100
AcDbCircle
 10
107.439552112
 20
300.5610170928
 30
0.0
 40
1.001340759618035
100
AcDbArc
 50
288.7103891537
 51
2.628130234
  0
ARC
  5
215
330
1F
100
AcDbEntity
  8
0
  6
Continuous
 62
     7
370
    25
100
AcDbCircle
 10
141.3777246367
 20
300.5610170928
 30
0.0
 40
1.00134075961818
100
AcDbArc
 50
177.3718697661
 51
251.2896108463
  0
ARC
  5
216
330
1F
100
AcDbEntity
  8
0
  6
Continuous
 62
     7
370
    25
100
AcDbCircle
 10
200.5199960338
 20
240.8605023769
 30
0.0
 40
7.434376658336934
100
AcDbArc
 50
356.0704737418
 51
3.9295262582
  0
ARC
  5
217
330
1F
100
AcDbEntity
  8
0
  6
Continuous
 62
     7
370
    25
100
AcDbCircle
 10
204.8961088089
 20
241.8161534333
 30
0.0
 40
3.375347654714765
100
AcDbArc
 50
334.2741059287
 51
346.2044345254
  0
SPLINE
  5
218
330
1F
100
AcDbEntity
  8
0
  6
Continuous
 62
     7
370
    25
100
AcDbSpline
210
0.0
220
0.0
230
1.0
 70
     8
 71
     3
 72
    11
 73
     7
 74
     0
 42
0.00000001
 43
0.00000001
 40
0.0
 40
0.0
 40
0.0
 40
0.0
 40
0.2393756054365627
 40
0.5201100530634062
 40
0.7997550910855937
 40
1.0
 40
1.0
 40
1.0
 40
1.0
 10
208.2022534572789
 20
240.9766612065309
 30
0.0
 10
208.2066543073032
 20
241.0155690330341
 30
0.0
 10
208.216216377488
 20
241.1001071031111
 30
0.0
 10
208.2127699279466
 20
241.1365172479415
 30
0.0
 10
208.1979725735416
 20
241.1052878016778
 30
0.0
 10
208.181119325983
 20
241.0389533408108
 30
0.0
 10
208.1740869281514
 20
241.0112737901992
 30
0.0
  0
ARC
  5
219
330
1F
100
AcDbEntity
  8
0
  6
Continuous
 62
     7
370
    25
100
AcDbCircle
 10
200.5150774331
 20
242.5613331823
 30
0.0
 40
7.745894943684508
100
AcDbArc
 50
349.3094308211
 51
351.4102179214
  0
SPLINE
  5
21A
330
1F
100
AcDbEntity
  8
0
  6
Continuous
 62
     7
370
    25
100
AcDbSpline
210
0.0
220
0.0
230
1.0
 70
     8
 71
     3
 72
    10
 73
     6
 74
     0
 42
0.00000001
 43
0.00000001
 40
0.0
 40
0.0
 40
0.0
 40
0.0
 40
0.226304878738747
 40
0.6771582524837713
 40
1.0
 40
1.0
 40
1.0
 40
1.0
 10
208.2117955272637
 20
241.9310110758657
 30
0.0
 10
208.2117580182196
 20
241.8903857786651
 30
0.0
 10
208.2116457822002
 20
241.7688251856619
 30
0.0
 10
208.1976266710684
 20
241.581230796175
 30
0.0
 10
208.1810174855779
 20
241.456472286465
 30
0.0
 10
208.1740869281514
 20
241.4044139831547
 30
0.0
  0
SPLINE
  5
21B
330
1F
100
AcDbEntity
  8
0
  6
Continuous
 62
     7
370
    25
100
AcDbSpline
210
0.0
220
0.0
230
1.0
 70
     8
 71
     3
 72
    11
 73
     7
 74
     0
 42
0.00000001
 43
0.00000001
 40
0.0
 40
0.0
 40
0.0
 40
0.0
 40
0.3307540669562885
 40
0.6616399873463928
 40
0.9896169167736639
 40
1.0
 40
1.0
 40
1.0
 40
1.0
 10
208.1740869281514
 20
243.6970447807663
 30
0.0
 10
208.1838352649557
 20
243.6299073878523
 30
0.0
 10
208.2033358246893
 20
243.4956058380427
 30
0.0
 10
208.2143142461036
 20
243.380617048433
 30
0.0
 10
208.2161376021016
 20
243.3304462601808
 30
0.0
 10
208.210282284987
 20
243.344031074568
 30
0.0
 10
208.210102605821
 20
243.3444479449224
 30
0.0
  0
ARC
  5
21C
330
1F
100
AcDbEntity
  8
0
  6
Continuous
 62
     7
370
    25
100
AcDbCircle
 10
200.4521576728
 20
242.5286295826
 30
0.0
 40
7.809826214494454
100
AcDbArc
 50
8.6042304424
 51
16.5896030164
  0
ARC
  5
21D
330
1F
100
AcDbEntity
  8
0
  6
Continuous
 62
     7
370
    25
100
AcDbCircle
 10
205.0714265825
 20
244.4415303644
 30
0.0
 40
2.882940696889676
100
AcDbArc
 50
353.6888017346
 51
6.3111982654
  0
ARC
  5
21E
330
1F
100
AcDbEntity
  8
0
  6
Continuous
 62
     7
370
    25
100
AcDbCircle
 10
200.4521576728
 20
241.8947944557
 30
0.0
 40
7.809826214500961
100
AcDbArc
 50
8.6042304424
 51
16.5896030164
  0
SPLINE
  5
21F
330
1F
100
AcDbEntity
  8
0
  6
Continuous
 62
     7
370
    25
100
AcDbSpline
210
0.0
220
0.0
230
1.0
 70
     8
 71
     3
 72
    12
 73
     8
 74
     0
 42
0.00000001
 43
0.00000001
 40
0.0
 40
0.0
 40
0.0
 40
0.0
 40
0.2133534395476103
 40
0.4267919313634501
 40
0.6383539739091577
 40
0.8490950351927571
 40
1.0
 40
1.0
 40
1.0
 40
1.0
 10
208.1740869281514
 20
242.0302208113599
 30
0.0
 10
208.1837460718787
 20
242.0812011083243
 30
0.0
 10
208.2030682099022
 20
242.1831820252903
 30
0.0
 10
208.2153812799104
 20
242.4095908578031
 30
0.0
 10
208.2130438396136
 20
242.6580217275
 30
0.0
 10
208.1979263205997
 20
242.8861096947994
 30
0.0
 10
208.1811057082188
 20
243.0110679868753
 30
0.0
 10
208.1740869281514
 20
243.0632096538857
 30
0.0
  0
ARC
  5
220
330
1F
100
AcDbEntity
  8
0
  6
Continuous
 62
     7
370
    25
100
AcDbCircle
 10
204.8961088089
 20
242.8351004545
 30
0.0
 40
3.375347654716055
100
AcDbArc
 50
334.2741059287
 51
346.2044345254
  0
LINE
  5
221
330
1F
100
AcDbEntity
  8
0
  6
Continuous
 62
     7
370
    25
100
AcDbLine
 10
205.6135653889
 20
249.3838118185
 30
0.0
 11
205.6135653889
 21
235.0838240512
 31
0.0
  0
LINE
  5
222
330
1F
100
AcDbEntity
  8
0
  6
Continuous
 62
     7
370
    25
100
AcDbLine
 10
207.5135653889
 20
247.5627170381
 30
0.0
 11
207.5135653889
 21
236.9048974819
 31
0.0
  0
LWPOLYLINE
  5
223
330
1F
100
AcDbEntity
  8
0
  6
Continuous
 62
     7
370
    25
100
AcDbPolyline
 90
        3
 70
   128
 43
0.0
 10
191.2673645776
 20
234.188630938
 10
197.2588383744
 20
234.2496112789
 10
200.7466823315
 20
234.285357885
  0
LINE
  5
224
330
1F
100
AcDbEntity
  8
0
  6
Continuous
 62
     7
370
    25
100
AcDbLine
 10
191.2673645776
 20
250.6696152811
 30
0.0
 11
191.2673645776
 21
234.188630938
 31
0.0
  0
LWPOLYLINE
  5
225
330
1F
100
AcDbEntity
  8
0
  6
Continuous
 62
     7
370
    25
100
AcDbPolyline
 90
        3
 70
   128
 43
0.0
 10
199.8132621176
 20
250.5676660496
 10
197.2588383744
 20
250.5982538361
 10
191.2673645606
 20
250.669615026
  0
SPLINE
  5
226
330
1F
100
AcDbEntity
  8
0
  6
Continuous
 62
     7
370
    25
100
AcDbSpline
210
0.0
220
0.0
230
1.0
 70
     8
 71
     3
 72
    11
 73
     7
 74
     0
 42
0.00000001
 43
0.00000001
 40
0.0
 40
0.0
 40
0.0
 40
0.0
 40
0.2500000000000231
 40
0.4999999999999971
 40
0.7500000000000053
 40
1.0
 40
1.0
 40
1.0
 40
1.0
 10
191.2673645775876
 20
234.1886294007001
 30
0.0
 10
191.2009935248502
 20
234.1943749505238
 30
0.0
 10
191.0682514193754
 20
234.2058660501711
 30
0.0
 10
190.8997876785948
 20
234.307196469168
 30
0.0
 10
190.7817003195596
 20
234.4536321595124
 30
0.0
 10
190.7663256894325
 20
234.5702100406925
 30
0.0
 10
190.7586383743689
 20
234.6284989812826
 30
0.0
  0
LINE
  5
227
330
1F
100
AcDbEntity
  8
0
  6
Continuous
 62
     7
370
    25
100
AcDbLine
 10
190.7586383744
 20
234.6285593039
 30
0.0
 11
190.7586383744
 21
250.2082646522
 31
0.0
  0
SPLINE
  5
228
330
1F
100
AcDbEntity
  8
0
  6
Continuous
 62
     7
370
    25
100
AcDbSpline
210
0.0
220
0.0
230
1.0
 70
     8
 71
     3
 72
    11
 73
     7
 74
     0
 42
0.00000001
 43
0.00000001
 40
0.0
 40
0.0
 40
0.0
 40
0.0
 40
0.2500000000000204
 40
0.500000000000005
 40
0.7500000000000082
 40
1.0
 40
1.0
 40
1.0
 40
1.0
 10
191.2673645775876
 20
250.6696150258436
 30
0.0
 10
191.2009935248502
 20
250.6635888952025
 30
0.0
 10
191.0682514193755
 20
250.65153663392
 30
0.0
 10
190.8997876785947
 20
250.5452577987271
 30
0.0
 10
190.7817003195597
 20
250.3916710006604
 30
0.0
 10
190.7663256894325
 20
250.2694001017167
 30
0.0
 10
190.7586383743689
 20
250.2082646522448
 30
0.0
  0
LINE
  5
229
330
1F
100
AcDbEntity
  8
0
  6
Continuous
 62
     7
370
    25
100
AcDbLine
 10
205.6086383744
 20
250.6332554728
 30
0.0
 11
205.6086383744
 21
233.8343681643
 31
0.0
  0
SPLINE
  5
22A
330
1F
100
AcDbEntity
  8
0
  6
Continuous
 62
     7
370
    25
100
AcDbSpline
210
0.0
220
0.0
230
1.0
 70
     8
 71
     3
 72
    12
 73
     8
 74
     0
 42
0.00000001
 43
0.00000001
 40
0.0
 40
0.0
 40
0.0
 40
0.0
 40
0.1662426524176541
 40
0.3368059756191295
 40
0.6054181071254588
 40
0.8801435087136195
 40
1.0
 40
1.0
 40
1.0
 40
1.0
 10
195.3498724043127
 20
230.2677009149291
 30
0.0
 10
195.449329111588
 20
230.454642865007
 30
0.0
 10
195.6508274204668
 20
230.8333854137119
 30
0.0
 10
196.4730751764893
 20
231.6039355503403
 30
0.0
 10
197.834904343476
 20
232.5723059888108
 30
0.0
 10
199.3960105321348
 20
233.5114466635746
 30
0.0
 10
200.3662502242965
 20
234.1039190217182
 30
0.0
 10
200.6609660419994
 20
234.2838858658983
 30
0.0
  0
LINE
  5
22B
330
1F
100
AcDbEntity
  8
0
  6
Continuous
 62
     7
370
    25
100
AcDbLine
 10
195.3498724043
 20
230.2677009149
 30
0.0
 11
191.2673645776
 21
230.1991000415
 31
0.0
  0
LINE
  5
22C
330
1F
100
AcDbEntity
  8
0
  6
Continuous
 62
     7
370
    25
100
AcDbLine
 10
191.2673645776
 20
234.1886297159
 30
0.0
 11
191.2673645776
 21
230.1991000415
 31
0.0
  0
LWPOLYLINE
  5
22D
330
1F
100
AcDbEntity
  8
0
  6
Continuous
 62
     7
370
    25
100
AcDbPolyline
 90
        3
 70
   128
 43
0.0
 10
200.660966042
 20
234.2838858659
 10
197.2586383744
 20
234.2493558471
 10
191.2673645945
 20
234.1886294009
  0
ARC
  5
22E
330
1F
100
AcDbEntity
  8
0
  6
Continuous
 62
     7
370
    25
100
AcDbCircle
 10
191.249854238
 20
230.6901002152
 30
0.0
 40
0.4913123065720681
100
AcDbArc
 50
181.1352754124
 51
272.0424505137
  0
LINE
  5
22F
330
1F
100
AcDbEntity
  8
0
  6
Continuous
 62
     7
370
    25
100
AcDbLine
 10
190.7586383744
 20
230.6803658458
 30
0.0
 11
190.7586383744
 21
234.6285580808
 31
0.0
  0
LINE
  5
230
330
1F
100
AcDbEntity
  8
0
  6
Continuous
 62
     7
370
    25
100
AcDbLine
 10
200.660966042
 20
234.2838858659
 30
0.0
 11
200.7020759983
 21
234.2845909045
 31
0.0
  0
LINE
  5
231
330
1F
100
AcDbEntity
  8
0
  6
Continuous
 62
     7
370
    25
100
AcDbLine
 10
200.7466823315
 20
234.285357885
 30
0.0
 11
200.7020759983
 21
234.2845909045
 31
0.0
  0
LINE
  5
232
330
1F
100
AcDbEntity
  8
0
  6
Continuous
 62
     7
370
    25
100
AcDbLine
 10
195.2935431872
 20
253.5564719753
 30
0.0
 11
195.2935431872
 21
253.5932105262
 31
0.0
  0
SPLINE
  5
233
330
1F
100
AcDbEntity
  8
0
  6
Continuous
 62
     7
370
    25
100
AcDbSpline
210
0.0
220
0.0
230
1.0
 70
     8
 71
     3
 72
    12
 73
     8
 74
     0
 42
0.00000001
 43
0.00000001
 40
0.0
 40
0.0
 40
0.0
 40
0.0
 40
0.0460732444350171
 40
0.2494607408078313
 40
0.4779405209378897
 40
0.7057893369168753
 40
1.0
 40
1.0
 40
1.0
 40
1.0
 10
199.7425521743859
 20
250.5690000789362
 30
0.0
 10
199.6405797333889
 20
250.6250590205588
 30
0.0
 10
199.0884562399158
 20
250.9285867030031
 30
0.0
 10
198.0444762846033
 20
251.4789061300172
 30
0.0
 10
196.7731980090916
 20
252.1858804458998
 30
0.0
 10
195.6064349845142
 20
252.9330457729191
 30
0.0
 10
195.4063197037364
 20
253.3317686241398
 30
0.0
 10
195.2935431872435
 20
253.5564719752881
 30
0.0
  0
LWPOLYLINE
  5
234
330
1F
100
AcDbEntity
  8
0
  6
Continuous
 62
     7
370
    25
100
AcDbPolyline
 90
        3
 70
   128
 43
0.0
 10
199.7425521744
 20
250.5690000789
 10
197.2586383744
 20
250.5985096144
 10
191.2673645776
 20
250.6696165632
  0
LINE
  5
235
330
1F
100
AcDbEntity
  8
0
  6
Continuous
 62
     7
370
    25
100
AcDbLine
 10
191.2673645776
 20
253.6624172319
 30
0.0
 11
191.2673645776
 21
250.6696165632
 31
0.0
  0
LINE
  5
236
330
1F
100
AcDbEntity
  8
0
  6
Continuous
 62
     7
370
    25
100
AcDbLine
 10
195.2935431872
 20
253.5932105262
 30
0.0
 11
191.2673645776
 21
253.6624172319
 31
0.0
  0
ARC
  5
237
330
1F
100
AcDbEntity
  8
0
  6
Continuous
 62
     7
370
    25
100
AcDbCircle
 10
191.2550128496
 20
253.1661809167
 30
0.0
 40
0.4963900136584927
100
AcDbArc
 50
88.5741555685
 51
179.5466524836
  0
LINE
  5
238
330
1F
100
AcDbEntity
  8
0
  6
Continuous
 62
     7
370
    25
100
AcDbLine
 10
190.7586383744
 20
250.2083138368
 30
0.0
 11
190.7586383744
 21
253.1701085155
 31
0.0
  0
LINE
  5
239
330
1F
100
AcDbEntity
  8
0
  6
Continuous
 62
     7
370
    25
100
AcDbLine
 10
199.7807279784
 20
250.5682805514
 30
0.0
 11
199.7425521744
 21
250.5690000789
 31
0.0
  0
LINE
  5
23A
330
1F
100
AcDbEntity
  8
0
  6
Continuous
 62
     7
370
    25
100
AcDbLine
 10
199.7807279784
 20
250.5682805514
 30
0.0
 11
199.8132621176
 21
250.5676660496
 31
0.0
  0
LINE
  5
23B
330
1F
100
AcDbEntity
  8
0
  6
Continuous
 62
     7
370
    25
100
AcDbLine
 10
195.2935431872
 20
229.9880584741
 30
0.0
 11
195.3498724043
 21
230.2677009149
 31
0.0
  0
LINE
  5
23C
330
1F
100
AcDbEntity
  8
0
  6
Continuous
 62
     7
370
    25
100
AcDbLine
 10
190.7586383744
 20
230.363130975
 30
0.0
 11
190.7586383744
 21
230.6803658458
 31
0.0
  0
LINE
  5
23D
330
1F
100
AcDbEntity
  8
0
  6
Continuous
 62
     7
370
    25
100
AcDbLine
 10
190.7586383744
 20
253.1701085155
 30
0.0
 11
190.7586383744
 21
253.2995853913
 31
0.0
  0
SPLINE
  5
23E
330
1F
100
AcDbEntity
  8
0
  6
Continuous
 62
     7
370
    25
100
AcDbSpline
210
0.0
220
0.0
230
1.0
 70
     8
 71
     3
 72
    11
 73
     7
 74
     0
 42
0.00000001
 43
0.00000001
 40
0.0
 40
0.0
 40
0.0
 40
0.0
 40
0.2431641197380918
 40
0.4936284730588941
 40
0.7421706076863294
 40
1.0
 40
1.0
 40
1.0
 40
1.0
 10
180.8086383743689
 20
231.9710455244766
 30
0.0
 10
181.0187786975777
 20
232.1634755727258
 30
0.0
 10
181.4453681425393
 20
232.5541127727792
 30
0.0
 10
181.6557525726822
 20
233.1737896489963
 30
0.0
 10
181.4650658790152
 20
233.8065410643022
 30
0.0
 10
181.0301067086206
 20
234.2077075614715
 30
0.0
 10
180.8086383743689
 20
234.4119696668205
 30
0.0
  0
LINE
  5
23F
330
1F
100
AcDbEntity
  8
0
  6
Continuous
 62
     7
370
    25
100
AcDbLine
 10
180.8086383744
 20
236.3446549616
 30
0.0
 11
180.8086383744
 21
234.4119696668
 31
0.0
  0
SPLINE
  5
240
330
1F
100
AcDbEntity
  8
0
  6
Continuous
 62
     7
370
    25
100
AcDbSpline
210
0.0
220
0.0
230
1.0
 70
     8
 71
     3
 72
    11
 73
     7
 74
     0
 42
0.00000001
 43
0.00000001
 40
0.0
 40
0.0
 40
0.0
 40
0.0
 40
0.2431641197380912
 40
0.4936284730588922
 40
0.7421706076863285
 40
1.0
 40
1.0
 40
1.0
 40
1.0
 10
180.8086383743689
 20
236.3446549616208
 30
0.0
 10
181.0187786975777
 20
236.9581340777093
 30
0.0
 10
181.4453681425391
 20
238.2035100799521
 30
0.0
 10
181.6557525726823
 20
240.1790789983253
 30
0.0
 10
181.4650658790153
 20
242.1963303709531
 30
0.0
 10
181.0301067086205
 20
243.4752744357022
 30
0.0
 10
180.8086383743689
 20
244.1264748951938
 30
0.0
  0
LINE
  5
241
330
1F
100
AcDbEntity
  8
0
  6
Continuous
 62
     7
370
    25
100
AcDbLine
 10
180.8086383744
 20
246.6074212557
 30
0.0
 11
180.8086383744
 21
244.1264748952
 31
0.0
  0
SPLINE
  5
242
330
1F
100
AcDbEntity
  8
0
  6
Continuous
 62
     7
370
    25
100
AcDbSpline
210
0.0
220
0.0
230
1.0
 70
     8
 71
     3
 72
    13
 73
     9
 74
     0
 42
0.00000001
 43
0.00000001
 40
0.0
 40
0.0
 40
0.0
 40
0.0
 40
0.0290865078712619
 40
0.2691317361521218
 40
0.508684744794527
 40
0.7393528760311807
 40
0.9704551097945744
 40
1.0
 40
1.0
 40
1.0
 40
1.0
 10
180.8086383743689
 20
246.6074212556644
 30
0.0
 10
180.8361362208125
 20
246.657095963428
 30
0.0
 10
181.0905683852578
 20
247.1167262635808
 30
0.0
 10
181.4619135414791
 20
248.0136698534631
 30
0.0
 10
181.6567541763313
 20
249.3097335477528
 30
0.0
 10
181.4450066061372
 20
250.5873702911082
 30
0.0
 10
181.0829179222397
 20
251.452701950578
 30
0.0
 10
180.8365631921847
 20
251.8978577203456
 30
0.0
 10
180.8086383743689
 20
251.9483170468935
 30
0.0
  0
LINE
  5
243
330
1F
100
AcDbEntity
  8
0
  6
Continuous
 62
     7
370
    25
100
AcDbLine
 10
180.8086383744
 20
252.4965781126
 30
0.0
 11
180.8086383744
 21
251.9483170469
 31
0.0
  0
LINE
  5
244
330
1F
100
AcDbEntity
  8
0
  6
Continuous
 62
     7
370
    25
100
AcDbLine
 10
180.8086383744
 20
252.4965781126
 30
0.0
 11
181.0800372103
 21
252.2147019923
 31
0.0
  0
LINE
  5
245
330
1F
100
AcDbEntity
  8
0
  6
Continuous
 62
     7
370
    25
100
AcDbLine
 10
182.8086383744
 20
250.4838118185
 30
0.0
 11
182.8086383744
 21
233.9838118185
 31
0.0
  0
LINE
  5
246
330
1F
100
AcDbEntity
  8
0
  6
Continuous
 62
     7
370
    25
100
AcDbLine
 10
178.2586383744
 20
236.3446549616
 30
0.0
 11
178.0086383744
 21
237.029824763
 31
0.0
  0
LINE
  5
247
330
1F
100
AcDbEntity
  8
0
  6
Continuous
 62
     7
370
    25
100
AcDbLine
 10
178.0086383744
 20
243.4413050938
 30
0.0
 11
178.2586383744
 21
244.1264748952
 31
0.0
  0
LINE
  5
248
330
1F
100
AcDbEntity
  8
0
  6
Continuous
 62
     7
370
    25
100
AcDbLine
 10
180.8086383744
 20
244.1264748952
 30
0.0
 11
178.2586383744
 21
244.1264748952
 31
0.0
  0
LINE
  5
249
330
1F
100
AcDbEntity
  8
0
  6
Continuous
 62
     7
370
    25
100
AcDbLine
 10
178.2586383744
 20
236.3446549616
 30
0.0
 11
180.8086383744
 21
236.3446549616
 31
0.0
  0
LINE
  5
24A
330
1F
100
AcDbEntity
  8
0
  6
Continuous
 62
     7
370
    25
100
AcDbLine
 10
178.0086383744
 20
243.4413050938
 30
0.0
 11
178.0086383744
 21
237.029824763
 31
0.0
  0
SPLINE
  5
24B
330
1F
100
AcDbEntity
  8
0
  6
Continuous
 62
     7
370
    25
100
AcDbSpline
210
0.0
220
0.0
230
1.0
 70
     8
 71
     3
 72
    37
 73
    33
 74
     0
 42
0.00000001
 43
0.00000001
 40
0.0
 40
0.0
 40
0.0
 40
0.0
 40
0.021126993751503
 40
0.0509674319314426
 40
0.0939121876813107
 40
0.1380055345844025
 40
0.168593655181475
 40
0.2034016143438846
 40
0.2430817374539045
 40
0.2674211029497333
 40
0.2942159408519459
 40
0.3085749896336071
 40
0.3348307356314548
 40
0.3716746307889923
 40
0.3993727958556372
 40
0.4336130441788228
 40
0.4706344587332019
 40
0.5036804050729914
 40
0.537922649131064
 40
0.5921927714338989
 40
0.6406127161982202
 40
0.6763794332087273
 40
0.6994787579318588
 40
0.7215821479455274
 40
0.7462959685804094
 40
0.7691544113249216
 40
0.7992291815621845
 40
0.8508751277415623
 40
0.896721187000419
 40
0.9342837688850694
 40
0.9896231731342315
 40
1.0
 40
1.0
 40
1.0
 40
1.0
 10
175.0381225599463
 20
251.6123099842756
 30
0.0
 10
175.0429507456403
 20
251.6054135546557
 30
0.0
 10
175.0545984144287
 20
251.5887763884146
 30
0.0
 10
175.0770086606846
 20
251.4353802809103
 30
0.0
 10
175.105144504953
 20
251.1347457419254
 30
0.0
 10
175.1335219166285
 20
250.6759901853645
 30
0.0
 10
175.1596236168896
 20
250.1382345493717
 30
0.0
 10
175.1837893574389
 20
249.5322511317835
 30
0.0
 10
175.2059493761831
 20
248.8734163876359
 30
0.0
 10
175.2269981400906
 20
248.2060933285219
 30
0.0
 10
175.2424502104662
 20
247.6916941713807
 30
0.0
 10
175.258616083294
 20
247.1380675761495
 30
0.0
 10
175.277257683184
 20
246.4758801517246
 30
0.0
 10
175.299163844799
 20
245.6584357435762
 30
0.0
 10
175.3228332530779
 20
244.7346336325979
 30
0.0
 10
175.3461437490316
 20
243.7830231805478
 30
0.0
 10
175.3701784561401
 20
242.7606516288916
 30
0.0
 10
175.3931686988013
 20
241.7325320259625
 30
0.0
 10
175.4220063700006
 20
240.5412161269925
 30
0.0
 10
175.4549816873781
 20
239.2273626874458
 30
0.0
 10
175.4881332691062
 20
237.9713010443508
 30
0.0
 10
175.5136602263948
 20
237.0632770822735
 30
0.0
 10
175.5326596513486
 20
236.4195364221328
 30
0.0
 10
175.5484907942014
 20
235.893876731625
 30
0.0
 10
175.5644482954363
 20
235.4038557526794
 30
0.0
 10
175.5819299163313
 20
234.899404666625
 30
0.0
 10
175.6069110000788
 20
234.2859383593565
 30
0.0
 10
175.6377553301404
 20
233.6728743793511
 30
0.0
 10
175.6700441002413
 20
233.2030852781218
 30
0.0
 10
175.7030446980482
 20
232.9165461629593
 30
0.0
 10
175.725839062323
 20
232.7676996757587
 30
0.0
 10
175.7413771410297
 20
232.8580425024412
 30
0.0
 10
175.7438306589785
 20
232.8723079564264
 30
0.0
  0
SPLINE
  5
24C
330
1F
100
AcDbEntity
  8
0
  6
Continuous
 62
     7
370
    25
100
AcDbSpline
210
0.0
220
0.0
230
1.0
 70
     8
 71
     3
 72
     9
 73
     5
 74
     0
 42
0.00000001
 43
0.00000001
 40
0.0
 40
0.0
 40
0.0
 40
0.0
 40
0.3778463394533181
 40
1.0
 40
1.0
 40
1.0
 40
1.0
 10
175.3586383743689
 20
232.9031394126472
 30
0.0
 10
175.3615820587723
 20
232.8839983363436
 30
0.0
 10
175.3693727506383
 20
232.8333399752457
 30
0.0
 10
175.3771198313396
 20
232.8444579638776
 30
0.0
 10
175.3819397059565
 20
232.8513750612028
 30
0.0
  0
SPLINE
  5
24D
330
1F
100
AcDbEntity
  8
0
  6
Continuous
 62
     7
370
    25
100
AcDbSpline
210
0.0
220
0.0
230
1.0
 70
     8
 71
     3
 72
    19
 73
    15
 74
     0
 42
0.00000001
 43
0.00000001
 40
0.0
 40
0.0
 40
0.0
 40
0.0
 40
0.0116158230072406
 40
0.1135345256999457
 40
0.2146091171057514
 40
0.3150975154193452
 40
0.4172262715150713
 40
0.5171034821643288
 40
0.618993266762272
 40
0.7201233408222448
 40
0.789181724405902
 40
0.8593759673251843
 40
0.930028084030922
 40
1.0
 40
1.0
 40
1.0
 40
1.0
 10
175.4799677284373
 20
250.8189978461471
 30
0.0
 10
175.4825864462974
 20
250.8280791100844
 30
0.0
 10
175.5081821264326
 20
250.9168405343282
 30
0.0
 10
175.5603220678953
 20
250.2825716318535
 30
0.0
 10
175.6303290371469
 20
248.9101683344717
 30
0.0
 10
175.6985907431661
 20
246.8066214049696
 30
0.0
 10
175.7725099434925
 20
244.2871522642085
 30
0.0
 10
175.8387724993171
 20
241.5530029985489
 30
0.0
 10
175.9116298600867
 20
238.8927521503503
 30
0.0
 10
175.9750834582828
 20
236.7965850432097
 30
0.0
 10
176.0281771830282
 20
235.3126428881683
 30
0.0
 10
176.0783533841274
 20
234.3532070092064
 30
0.0
 10
176.1283952850636
 20
233.6945544137599
 30
0.0
 10
176.1598530985453
 20
233.6874538895797
 30
0.0
 10
176.1755059243082
 20
233.6839208001651
 30
0.0
  0
SPLINE
  5
24E
330
1F
100
AcDbEntity
  8
0
  6
Continuous
 62
     7
370
    25
100
AcDbSpline
210
0.0
220
0.0
230
1.0
 70
     8
 71
     3
 72
    27
 73
    23
 74
     0
 42
0.00000001
 43
0.00000001
 40
0.0
 40
0.0
 40
0.0
 40
0.0
 40
0.0151436181910954
 40
0.0478952108099446
 40
0.1018265553387761
 40
0.1557578997567094
 40
0.2096892441726298
 40
0.2633179399052674
 40
0.316601024208937
 40
0.369884108033179
 40
0.4231671918580439
 40
0.4764502756799135
 40
0.5292521002054249
 40
0.5818869257002748
 40
0.6345217508141897
 40
0.6871565759276638
 40
0.7397806675130875
 40
0.7917672369352943
 40
0.8437538056994792
 40
0.8957403742085733
 40
0.9500942275614134
 40
1.0
 40
1.0
 40
1.0
 40
1.0
 10
176.0586494375544
 20
251.5720983699695
 30
0.0
 10
176.0607642327354
 20
251.5724972921098
 30
0.0
 10
176.0674527638203
 20
251.5737589760592
 30
0.0
 10
176.0823081107288
 20
251.4500928876203
 30
0.0
 10
176.1032899693755
 20
251.1297745626983
 30
0.0
 10
176.1276402171858
 20
250.5064806111539
 30
0.0
 10
176.151539556287
 20
249.6607774050723
 30
0.0
 10
176.1738413827137
 20
248.6162214127217
 30
0.0
 10
176.1975625232647
 20
247.4026211799475
 30
0.0
 10
176.221838108158
 20
246.0527207915516
 30
0.0
 10
176.2461558622184
 20
244.6011251463777
 30
0.0
 10
176.2696233087862
 20
243.0924605928202
 30
0.0
 10
176.2920435131022
 20
241.5701502890687
 30
0.0
 10
176.3160662386542
 20
240.0762208560792
 30
0.0
 10
176.3403698507923
 20
238.6471572023601
 30
0.0
 10
176.3646450707854
 20
237.3210167819387
 30
0.0
 10
176.3875161950147
 20
236.1385979530521
 30
0.0
 10
176.4104184148339
 20
235.1321918922553
 30
0.0
 10
176.434576636119
 20
234.3260286919609
 30
0.0
 10
176.4592896898438
 20
233.7372580115083
 30
0.0
 10
176.4833802045925
 20
233.3732808453318
 30
0.0
 10
176.4986131622711
 20
233.3543582793815
 30
0.0
 10
176.5059046954384
 20
233.3453006478861
 30
0.0
  0
SPLINE
  5
24F
330
1F
100
AcDbEntity
  8
0
  6
Continuous
 62
     7
370
    25
100
AcDbSpline
210
0.0
220
0.0
230
1.0
 70
     8
 71
     3
 72
    19
 73
    15
 74
     0
 42
0.00000001
 43
0.00000001
 40
0.0
 40
0.0
 40
0.0
 40
0.0
 40
0.0264472980246015
 40
0.1282682793763679
 40
0.2292459603631368
 40
0.3296380081991889
 40
0.4316688423483739
 40
0.525059944881129
 40
0.6198392874278589
 40
0.6403629808956728
 40
0.7411662240171834
 40
0.8417248871468966
 40
0.9437079100495395
 40
1.0
 40
1.0
 40
1.0
 40
1.0
 10
175.6462818134133
 20
250.7898332318569
 30
0.0
 10
175.6522343767529
 20
250.8138488121907
 30
0.0
 10
175.6811040577593
 20
250.9303233633821
 30
0.0
 10
175.7366550708525
 20
250.2943478635328
 30
0.0
 10
175.8067352201957
 20
248.9069993127232
 30
0.0
 10
175.8749655535522
 20
246.8076614773071
 30
0.0
 10
175.9473735787448
 20
244.3395327063374
 30
0.0
 10
176.0107894426536
 20
241.7355246499684
 30
0.0
 10
176.0605623692678
 20
239.8883941959428
 30
0.0
 10
176.1118625535893
 20
238.1060868826738
 30
0.0
 10
176.1627514604446
 20
236.405531476511
 30
0.0
 10
176.2315314400901
 20
234.6948817194169
 30
0.0
 10
176.2946340327456
 20
233.7364935797368
 30
0.0
 10
176.3300586736728
 20
233.7146085024956
 30
0.0
 10
176.3426577932538
 20
233.7068248609968
 30
0.0
  0
LINE
  5
250
330
1F
100
AcDbEntity
  8
0
  6
Continuous
 62
     7
370
    25
100
AcDbLine
 10
176.5086383744
 20
251.1338118185
 30
0.0
 11
176.5086383744
 21
233.3338118185
 31
0.0
  0
LINE
  5
251
330
1F
100
AcDbEntity
  8
0
  6
Continuous
 62
     7
370
    25
100
AcDbLine
 10
178.2586383744
 20
246.6074212557
 30
0.0
 11
178.0086383744
 21
247.0776737853
 31
0.0
  0
LINE
  5
252
330
1F
100
AcDbEntity
  8
0
  6
Continuous
 62
     7
370
    25
100
AcDbLine
 10
178.2586383744
 20
246.6074212557
 30
0.0
 11
178.2586383744
 21
244.1264748952
 31
0.0
  0
LINE
  5
253
330
1F
100
AcDbEntity
  8
0
  6
Continuous
 62
     7
370
    25
100
AcDbLine
 10
178.0086383744
 20
243.4413050938
 30
0.0
 11
178.0086383744
 21
247.0776737853
 31
0.0
  0
LINE
  5
254
330
1F
100
AcDbEntity
  8
0
  6
Continuous
 62
     7
370
    25
100
AcDbLine
 10
178.2586383744
 20
246.6074212557
 30
0.0
 11
180.8086383744
 21
246.6074212557
 31
0.0
  0
LINE
  5
255
330
1F
100
AcDbEntity
  8
0
  6
Continuous
 62
     7
370
    25
100
AcDbLine
 10
178.0086383744
 20
251.4780645173
 30
0.0
 11
178.2586383744
 21
251.9483170469
 31
0.0
  0
LINE
  5
256
330
1F
100
AcDbEntity
  8
0
  6
Continuous
 62
     7
370
    25
100
AcDbLine
 10
180.8086383744
 20
251.9483170469
 30
0.0
 11
178.2586383744
 21
251.9483170469
 31
0.0
  0
LINE
  5
257
330
1F
100
AcDbEntity
  8
0
  6
Continuous
 62
     7
370
    25
100
AcDbLine
 10
178.0086383744
 20
251.4780645173
 30
0.0
 11
178.0086383744
 21
247.0776737853
 31
0.0
  0
LINE
  5
258
330
1F
100
AcDbEntity
  8
0
  6
Continuous
 62
     7
370
    25
100
AcDbLine
 10
178.2586383744
 20
236.3446549616
 30
0.0
 11
178.2586383744
 21
234.4119696668
 31
0.0
  0
LINE
  5
259
330
1F
100
AcDbEntity
  8
0
  6
Continuous
 62
     7
370
    25
100
AcDbLine
 10
178.0086383744
 20
234.197052395
 30
0.0
 11
178.2586383744
 21
234.4119696668
 31
0.0
  0
LINE
  5
25A
330
1F
100
AcDbEntity
  8
0
  6
Continuous
 62
     7
370
    25
100
AcDbLine
 10
178.0086383744
 20
234.197052395
 30
0.0
 11
178.0086383744
 21
237.029824763
 31
0.0
  0
LINE
  5
25B
330
1F
100
AcDbEntity
  8
0
  6
Continuous
 62
     7
370
    25
100
AcDbLine
 10
180.8086383744
 20
234.4119696668
 30
0.0
 11
178.2586383744
 21
234.4119696668
 31
0.0
  0
LINE
  5
25C
330
1F
100
AcDbEntity
  8
0
  6
Continuous
 62
     7
370
    25
100
AcDbLine
 10
178.2586383744
 20
231.9710455245
 30
0.0
 11
178.0086383744
 21
232.1859627963
 31
0.0
  0
LINE
  5
25D
330
1F
100
AcDbEntity
  8
0
  6
Continuous
 62
     7
370
    25
100
AcDbLine
 10
178.2586383744
 20
231.9710455245
 30
0.0
 11
180.8086383744
 21
231.9710455245
 31
0.0
  0
LINE
  5
25E
330
1F
100
AcDbEntity
  8
0
  6
Continuous
 62
     7
370
    25
100
AcDbLine
 10
178.0086383744
 20
234.197052395
 30
0.0
 11
178.0086383744
 21
232.1859627963
 31
0.0
  0
LINE
  5
25F
330
1F
100
AcDbEntity
  8
0
  6
Continuous
 62
     7
370
    25
100
AcDbLine
 10
178.2586383744
 20
252.4965781126
 30
0.0
 11
178.0086383744
 21
252.2816608407
 31
0.0
  0
LINE
  5
260
330
1F
100
AcDbEntity
  8
0
  6
Continuous
 62
     7
370
    25
100
AcDbLine
 10
178.2586383744
 20
252.4965781126
 30
0.0
 11
178.2586383744
 21
251.9483170469
 31
0.0
  0
LINE
  5
261
330
1F
100
AcDbEntity
  8
0
  6
Continuous
 62
     7
370
    25
100
AcDbLine
 10
178.0086383744
 20
251.4780645173
 30
0.0
 11
178.0086383744
 21
252.2816608407
 31
0.0
  0
LINE
  5
262
330
1F
100
AcDbEntity
  8
0
  6
Continuous
 62
     7
370
    25
100
AcDbLine
 10
178.2586383744
 20
252.4965781126
 30
0.0
 11
180.8086383744
 21
252.4965781126
 31
0.0
  0
LINE
  5
263
330
1F
100
AcDbEntity
  8
0
  6
Continuous
 62
     7
370
    25
100
AcDbLine
 10
159.2441814668
 20
259.5080164427
 30
0.0
 11
159.0586499075
 21
259.2947403808
 31
0.0
  0
SPLINE
  5
264
330
1F
100
AcDbEntity
  8
0
  6
Continuous
 62
     7
370
    25
100
AcDbSpline
210
0.0
220
0.0
230
1.0
 70
     8
 71
     3
 72
     9
 73
     5
 74
     0
 42
0.00000001
 43
0.00000001
 40
0.0
 40
0.0
 40
0.0
 40
0.0
 40
0.5841917497409933
 40
0.9999999999999999
 40
0.9999999999999999
 40
0.9999999999999999
 40
0.9999999999999999
 10
159.6586383743689
 20
259.6761125548034
 30
0.0
 10
159.6324704105483
 20
259.7217281102297
 30
0.0
 10
159.5876769607396
 20
259.799811300289
 30
0.0
 10
159.3450625432257
 20
259.5937135765822
 30
0.0
 10
159.2441814667916
 20
259.5080164427053
 30
0.0
  0
LINE
  5
265
330
1F
100
AcDbEntity
  8
0
  6
Continuous
 62
     7
370
    25
100
AcDbLine
 10
159.6586383744
 20
259.6761125548
 30
0.0
 11
159.6586383744
 21
259.370348441
 31
0.0
  0
SPLINE
  5
266
330
1F
100
AcDbEntity
  8
0
  6
Continuous
 62
     7
370
    25
100
AcDbSpline
210
0.0
220
0.0
230
1.0
 70
     8
 71
     3
 72
     9
 73
     5
 74
     0
 42
0.00000001
 43
0.00000001
 40
0.0
 40
0.0
 40
0.0
 40
0.0
 40
0.5850553834536143
 40
1.0
 40
1.0
 40
1.0
 40
1.0
 10
159.2441814667915
 20
258.2369174827862
 30
0.0
 10
159.3807356008159
 20
258.5251801122125
 30
0.0
 10
159.6141393740078
 20
259.0178900975897
 30
0.0
 10
159.6455886617331
 20
259.2669870157639
 30
0.0
 10
159.6586383743689
 20
259.3703484409585
 30
0.0
  0
SPLINE
  5
267
330
1F
100
AcDbEntity
  8
0
  6
Continuous
 62
     7
370
    25
100
AcDbSpline
210
0.0
220
0.0
230
1.0
 70
     8
 71
     3
 72
    11
 73
     7
 74
     0
 42
0.00000001
 43
0.00000001
 40
0.0
 40
0.0
 40
0.0
 40
0.0
 40
0.2328716322111445
 40
0.4710265024313164
 40
0.7311421212560261
 40
1.0
 40
1.0
 40
1.0
 40
1.0
 10
159.2441814667915
 20
250.3287970294814
 30
0.0
 10
158.9737847321187
 20
250.928552597821
 30
0.0
 10
158.4268566799879
 20
252.1416705932863
 30
0.0
 10
158.1256323620043
 20
254.1060666292351
 30
0.0
 10
158.333284127414
 20
256.1774336841331
 30
0.0
 10
158.9372219591943
 20
257.5429005992029
 30
0.0
 10
159.2441814667915
 20
258.2369174827862
 30
0.0
  0
SPLINE
  5
268
330
1F
100
AcDbEntity
  8
0
  6
Continuous
 62
     7
370
    25
100
AcDbSpline
210
0.0
220
0.0
230
1.0
 70
     8
 71
     3
 72
     9
 73
     5
 74
     0
 42
0.00000001
 43
0.00000001
 40
0.0
 40
0.0
 40
0.0
 40
0.0
 40
0.5841917497409203
 40
1.0
 40
1.0
 40
1.0
 40
1.0
 10
159.6586383743689
 20
248.3487947383211
 30
0.0
 10
159.6324704105483
 20
248.7886251319603
 30
0.0
 10
159.5876769607396
 20
249.5415121657712
 30
0.0
 10
159.3450625432256
 20
250.0975796018566
 30
0.0
 10
159.2441814667915
 20
250.3287970294814
 30
0.0
  0
LINE
  5
269
330
1F
100
AcDbEntity
  8
0
  6
Continuous
 62
     7
370
    25
100
AcDbLine
 10
159.6586383744
 20
248.3487947383
 30
0.0
 11
159.6586383744
 21
246.9651758514
 31
0.0
  0
SPLINE
  5
26A
330
1F
100
AcDbEntity
  8
0
  6
Continuous
 62
     7
370
    25
100
AcDbSpline
210
0.0
220
0.0
230
1.0
 70
     8
 71
     3
 72
     9
 73
     5
 74
     0
 42
0.00000001
 43
0.00000001
 40
0.0
 40
0.0
 40
0.0
 40
0.0
 40
0.5850553834536147
 40
1.0
 40
1.0
 40
1.0
 40
1.0
 10
159.2441814667915
 20
244.5769234497787
 30
0.0
 10
159.3807356008159
 20
245.0378424085021
 30
0.0
 10
159.6141393740078
 20
245.8256634793938
 30
0.0
 10
159.6455886617331
 20
246.6310040974755
 30
0.0
 10
159.6586383743689
 20
246.9651758514346
 30
0.0
  0
SPLINE
  5
26B
330
1F
100
AcDbEntity
  8
0
  6
Continuous
 62
     7
370
    25
100
AcDbSpline
210
0.0
220
0.0
230
1.0
 70
     8
 71
     3
 72
    11
 73
     7
 74
     0
 42
0.00000001
 43
0.00000001
 40
0.0
 40
0.0
 40
0.0
 40
0.0
 40
0.2328716322111452
 40
0.4710265024313182
 40
0.7311421212560265
 40
1.0
 40
1.0
 40
1.0
 40
1.0
 10
159.2441814667915
 20
233.0545924052963
 30
0.0
 10
158.9737847321188
 20
233.9284514018792
 30
0.0
 10
158.4268566799879
 20
235.6959949316352
 30
0.0
 10
158.1256323620043
 20
238.5581695232238
 30
0.0
 10
158.3332841274141
 20
241.5762035885995
 30
0.0
 10
158.9372219591943
 20
243.5657233384091
 30
0.0
 10
159.2441814667915
 20
244.5769234497787
 30
0.0
  0
SPLINE
  5
26C
330
1F
100
AcDbEntity
  8
0
  6
Continuous
 62
     7
370
    25
100
AcDbSpline
210
0.0
220
0.0
230
1.0
 70
     8
 71
     3
 72
     9
 73
     5
 74
     0
 42
0.00000001
 43
0.00000001
 40
0.0
 40
0.0
 40
0.0
 40
0.0
 40
0.5841917497409225
 40
1.0
 40
1.0
 40
1.0
 40
1.0
 10
159.6586383743688
 20
230.9064940020378
 30
0.0
 10
159.6324704105482
 20
231.3007088402508
 30
0.0
 10
159.5876769607396
 20
231.9755126840022
 30
0.0
 10
159.3450625432256
 20
232.7376778437946
 30
0.0
 10
159.2441814667915
 20
233.0545924052963
 30
0.0
  0
LINE
  5
26D
330
1F
100
AcDbEntity
  8
0
  6
Continuous
 62
     7
370
    25
100
AcDbLine
 10
159.6586383744
 20
230.906494002
 30
0.0
 11
159.6586383744
 21
229.828639229
 31
0.0
  0
SPLINE
  5
26E
330
1F
100
AcDbEntity
  8
0
  6
Continuous
 62
     7
370
    25
100
AcDbSpline
210
0.0
220
0.0
230
1.0
 70
     8
 71
     3
 72
     9
 73
     5
 74
     0
 42
0.00000001
 43
0.00000001
 40
0.0
 40
0.0
 40
0.0
 40
0.0
 40
0.5850553834536136
 40
1.0
 40
1.0
 40
1.0
 40
1.0
 10
159.2441814667915
 20
228.5738177855127
 30
0.0
 10
159.3807356008159
 20
228.7464741148098
 30
0.0
 10
159.6141393740077
 20
229.0415852003243
 30
0.0
 10
159.645588661733
 20
229.5978289002318
 30
0.0
 10
159.6586383743688
 20
229.8286392289963
 30
0.0
  0
SPLINE
  5
26F
330
1F
100
AcDbEntity
  8
0
  6
Continuous
 62
     7
370
    25
100
AcDbSpline
210
0.0
220
0.0
230
1.0
 70
     8
 71
     3
 72
    11
 73
     7
 74
     0
 42
0.00000001
 43
0.00000001
 40
0.0
 40
0.0
 40
0.0
 40
0.0
 40
0.2082430357679056
 40
0.4878528750988163
 40
0.7405173246844383
 40
1.0
 40
1.0
 40
1.0
 40
1.0
 10
159.0627914081124
 20
225.172845308956
 30
0.0
 10
158.8413089859367
 20
225.403834371645
 30
0.0
 10
158.3224400785379
 20
225.9449745732063
 30
0.0
 10
158.1268754314416
 20
226.8046865675999
 30
0.0
 10
158.4051249658506
 20
227.7192581945046
 30
0.0
 10
158.9620246274057
 20
228.286447586968
 30
0.0
 10
159.2441814667915
 20
228.5738177855127
 30
0.0
  0
SPLINE
  5
270
330
1F
100
AcDbEntity
  8
0
  6
Continuous
 62
     7
370
    25
100
AcDbSpline
210
0.0
220
0.0
230
1.0
 70
     8
 71
     3
 72
     9
 73
     5
 74
     0
 42
0.00000001
 43
0.00000001
 40
0.0
 40
0.0
 40
0.0
 40
0.0
 40
0.3607400128961884
 40
1.0
 40
1.0
 40
1.0
 40
1.0
 10
159.571270467928
 20
224.7676602584449
 30
0.0
 10
159.5573025821974
 20
224.7543051803121
 30
0.0
 10
159.5185824922953
 20
224.7172838417984
 30
0.0
 10
159.351189261409
 20
224.8651086862057
 30
0.0
 10
159.2441814667915
 20
224.9596071943352
 30
0.0
  0
LINE
  5
271
330
1F
100
AcDbEntity
  8
0
  6
Continuous
 62
     7
370
    25
100
AcDbLine
 10
158.1586383744
 20
226.0338118185
 30
0.0
 11
158.1586383744
 21
258.4338118185
 31
0.0
  0
SPLINE
  5
272
330
1F
100
AcDbEntity
  8
0
  6
Continuous
 62
     7
370
    25
100
AcDbSpline
210
0.0
220
0.0
230
1.0
 70
     8
 71
     3
 72
     9
 73
     5
 74
     0
 42
0.00000001
 43
0.00000001
 40
0.0
 40
0.0
 40
0.0
 40
0.0
 40
0.8988656309358726
 40
1.0
 40
1.0
 40
1.0
 40
1.0
 10
166.5230952819468
 20
224.9596071943357
 30
0.0
 10
166.3741817774622
 20
224.8296545090492
 30
0.0
 10
166.2085135180924
 20
224.685080413863
 30
0.0
 10
166.1742937810246
 20
224.7281046722147
 30
0.0
 10
166.1708329895067
 20
224.7324559034376
 30
0.0
  0
SPLINE
  5
273
330
1F
100
AcDbEntity
  8
0
  6
Continuous
 62
     7
370
    25
100
AcDbSpline
210
0.0
220
0.0
230
1.0
 70
     8
 71
     3
 72
    11
 73
     7
 74
     0
 42
0.00000001
 43
0.00000001
 40
0.0
 40
0.0
 40
0.0
 40
0.0
 40
0.2530381306885127
 40
0.5121172725292019
 40
0.7835090692673147
 40
1.0
 40
1.0
 40
1.0
 40
1.0
 10
166.5230952819462
 20
228.5738177855128
 30
0.0
 10
166.7989814951672
 20
228.2936825769438
 30
0.0
 10
167.3573404059714
 20
227.7267242352841
 30
0.0
 10
167.6391802674657
 20
226.8215840318279
 30
0.0
 10
167.449520081673
 20
225.9545472912484
 30
0.0
 10
166.9322143236722
 20
225.413088921778
 30
0.0
 10
166.702667347079
 20
225.1728245718443
 30
0.0
  0
SPLINE
  5
274
330
1F
100
AcDbEntity
  8
0
  6
Continuous
 62
     7
370
    25
100
AcDbSpline
210
0.0
220
0.0
230
1.0
 70
     8
 71
     3
 72
     9
 73
     5
 74
     0
 42
0.00000001
 43
0.00000001
 40
0.0
 40
0.0
 40
0.0
 40
0.0
 40
0.5841917497409923
 40
1.0
 40
1.0
 40
1.0
 40
1.0
 10
166.1086383743689
 20
229.8286392289963
 30
0.0
 10
166.1348063381895
 20
229.5105024510524
 30
0.0
 10
166.1795997879981
 20
228.9659264996034
 30
0.0
 10
166.4222142055121
 20
228.6889760622692
 30
0.0
 10
166.5230952819462
 20
228.5738177855128
 30
0.0
  0
LINE
  5
275
330
1F
100
AcDbEntity
  8
0
  6
Continuous
 62
     7
370
    25
100
AcDbLine
 10
166.1086383744
 20
229.828639229
 30
0.0
 11
166.1086383744
 21
230.906494002
 31
0.0
  0
SPLINE
  5
276
330
1F
100
AcDbEntity
  8
0
  6
Continuous
 62
     7
370
    25
100
AcDbSpline
210
0.0
220
0.0
230
1.0
 70
     8
 71
     3
 72
     9
 73
     5
 74
     0
 42
0.00000001
 43
0.00000001
 40
0.0
 40
0.0
 40
0.0
 40
0.0
 40
0.5850553834536224
 40
1.0
 40
1.0
 40
1.0
 40
1.0
 10
166.5230952819462
 20
233.0545924052963
 30
0.0
 10
166.3865411479219
 20
232.6070084493664
 30
0.0
 10
166.1531373747299
 20
231.8419800971995
 30
0.0
 10
166.1216880870047
 20
231.1808333044402
 30
0.0
 10
166.1086383743689
 20
230.9064940020378
 30
0.0
  0
SPLINE
  5
277
330
1F
100
AcDbEntity
  8
0
  6
Continuous
 62
     7
370
    25
100
AcDbSpline
210
0.0
220
0.0
230
1.0
 70
     8
 71
     3
 72
    11
 73
     7
 74
     0
 42
0.00000001
 43
0.00000001
 40
0.0
 40
0.0
 40
0.0
 40
0.0
 40
0.2328716322111477
 40
0.4710265024313233
 40
0.7311421212560295
 40
1.0
 40
1.0
 40
1.0
 40
1.0
 10
166.5230952819462
 20
244.5769234497787
 30
0.0
 10
166.793492016619
 20
243.7030644531959
 30
0.0
 10
167.3404200687498
 20
241.9355209234399
 30
0.0
 10
167.6416443867335
 20
239.0733463318514
 30
0.0
 10
167.4339926213237
 20
236.0553122664756
 30
0.0
 10
166.8300547895435
 20
234.0657925166661
 30
0.0
 10
166.5230952819462
 20
233.0545924052963
 30
0.0
  0
SPLINE
  5
278
330
1F
100
AcDbEntity
  8
0
  6
Continuous
 62
     7
370
    25
100
AcDbSpline
210
0.0
220
0.0
230
1.0
 70
     8
 71
     3
 72
     9
 73
     5
 74
     0
 42
0.00000001
 43
0.00000001
 40
0.0
 40
0.0
 40
0.0
 40
0.0
 40
0.5841917497409272
 40
1.0
 40
1.0
 40
1.0
 40
1.0
 10
166.1086383743689
 20
246.9651758514346
 30
0.0
 10
166.1348063381895
 20
246.4905758645899
 30
0.0
 10
166.1795997879982
 20
245.6781713979826
 30
0.0
 10
166.4222142055121
 20
244.900348590408
 30
0.0
 10
166.5230952819462
 20
244.5769234497787
 30
0.0
  0
LINE
  5
279
330
1F
100
AcDbEntity
  8
0
  6
Continuous
 62
     7
370
    25
100
AcDbLine
 10
166.1086383744
 20
246.9651758514
 30
0.0
 11
166.1086383744
 21
248.3487947383
 31
0.0
  0
SPLINE
  5
27A
330
1F
100
AcDbEntity
  8
0
  6
Continuous
 62
     7
370
    25
100
AcDbSpline
210
0.0
220
0.0
230
1.0
 70
     8
 71
     3
 72
     9
 73
     5
 74
     0
 42
0.00000001
 43
0.00000001
 40
0.0
 40
0.0
 40
0.0
 40
0.0
 40
0.5850553834536174
 40
1.0
 40
1.0
 40
1.0
 40
1.0
 10
166.5230952819462
 20
250.3287970294814
 30
0.0
 10
166.3865411479219
 20
249.9935269333229
 30
0.0
 10
166.1531373747299
 20
249.4204699106195
 30
0.0
 10
166.1216880870047
 20
248.6630726529698
 30
0.0
 10
166.1086383743689
 20
248.3487947383211
 30
0.0
  0
SPLINE
  5
27B
330
1F
100
AcDbEntity
  8
0
  6
Continuous
 62
     7
370
    25
100
AcDbSpline
210
0.0
220
0.0
230
1.0
 70
     8
 71
     3
 72
    11
 73
     7
 74
     0
 42
0.00000001
 43
0.00000001
 40
0.0
 40
0.0
 40
0.0
 40
0.0
 40
0.2328716322111486
 40
0.4710265024313255
 40
0.7311421212560313
 40
1.0
 40
1.0
 40
1.0
 40
1.0
 10
166.5230952819462
 20
258.2369174827862
 30
0.0
 10
166.793492016619
 20
257.6371619144465
 30
0.0
 10
167.3404200687498
 20
256.4240439189812
 30
0.0
 10
167.6416443867334
 20
254.4596478830324
 30
0.0
 10
167.4339926213238
 20
252.3882808281345
 30
0.0
 10
166.8300547895435
 20
251.0228139130646
 30
0.0
 10
166.5230952819462
 20
250.3287970294814
 30
0.0
  0
SPLINE
  5
27C
330
1F
100
AcDbEntity
  8
0
  6
Continuous
 62
     7
370
    25
100
AcDbSpline
210
0.0
220
0.0
230
1.0
 70
     8
 71
     3
 72
     9
 73
     5
 74
     0
 42
0.00000001
 43
0.00000001
 40
0.0
 40
0.0
 40
0.0
 40
0.0
 40
0.584191749740924
 40
1.0
 40
1.0
 40
1.0
 40
1.0
 10
166.1086383743689
 20
259.3703484409585
 30
0.0
 10
166.1348063381895
 20
259.2138852320577
 30
0.0
 10
166.1795997879982
 20
258.9460567168995
 30
0.0
 10
166.4222142055121
 20
258.4451843466589
 30
0.0
 10
166.5230952819462
 20
258.2369174827862
 30
0.0
  0
LINE
  5
27D
330
1F
100
AcDbEntity
  8
0
  6
Continuous
 62
     7
370
    25
100
AcDbLine
 10
166.1086383744
 20
259.370348441
 30
0.0
 11
166.1086383744
 21
259.6761125548
 31
0.0
  0
SPLINE
  5
27E
330
1F
100
AcDbEntity
  8
0
  6
Continuous
 62
     7
370
    25
100
AcDbSpline
210
0.0
220
0.0
230
1.0
 70
     8
 71
     3
 72
     9
 73
     5
 74
     0
 42
0.00000001
 43
0.00000001
 40
0.0
 40
0.0
 40
0.0
 40
0.0
 40
0.5850553834536235
 40
1.0
 40
1.0
 40
1.0
 40
1.0
 10
166.5230952819462
 20
259.5080164427052
 30
0.0
 10
166.3865411479219
 20
259.6203303024765
 30
0.0
 10
166.15313737473
 20
259.8123016319402
 30
0.0
 10
166.1216880870047
 20
259.7160511670498
 30
0.0
 10
166.1086383743689
 20
259.6761125548034
 30
0.0
  0
LINE
  5
27F
330
1F
100
AcDbEntity
  8
0
  6
Continuous
 62
     7
370
    25
100
AcDbLine
 10
166.707218632
 20
259.2947518307
 30
0.0
 11
166.5230952819
 21
259.5080164427
 31
0.0
  0
LINE
  5
280
330
1F
100
AcDbEntity
  8
0
  6
Continuous
 62
     7
370
    25
100
AcDbLine
 10
167.6086383744
 20
226.8143035648
 30
0.0
 11
167.6086383744
 21
226.0338118185
 31
0.0
  0
LINE
  5
281
330
1F
100
AcDbEntity
  8
0
  6
Continuous
 62
     7
370
    25
100
AcDbLine
 10
167.6086383744
 20
258.4338118185
 30
0.0
 11
167.6086383744
 21
226.8143035648
 31
0.0
  0
LINE
  5
282
330
1F
100
AcDbEntity
  8
0
  6
Continuous
 62
     7
370
    25
100
AcDbLine
 10
159.2441814668
 20
233.0545924053
 30
0.0
 11
166.5230952819
 21
233.0545924053
 31
0.0
  0
LINE
  5
283
330
1F
100
AcDbEntity
  8
0
  6
Continuous
 62
     7
370
    25
100
AcDbLine
 10
166.5230952819
 20
244.5769234498
 30
0.0
 11
159.2441814668
 21
244.5769234498
 31
0.0
  0
LINE
  5
284
330
1F
100
AcDbEntity
  8
0
  6
Continuous
 62
     7
370
    25
100
AcDbLine
 10
175.3586383744
 20
231.6588118185
 30
0.0
 11
175.3586383744
 21
252.8088118185
 31
0.0
  0
LINE
  5
285
330
1F
100
AcDbEntity
  8
0
  6
Continuous
 62
     7
370
    25
100
AcDbLine
 10
159.6586383744
 20
246.9651758514
 30
0.0
 11
166.1086383744
 21
246.9651758514
 31
0.0
  0
LINE
  5
286
330
1F
100
AcDbEntity
  8
0
  6
Continuous
 62
     7
370
    25
100
AcDbLine
 10
166.1086383744
 20
248.3487947383
 30
0.0
 11
159.6586383744
 21
248.3487947383
 31
0.0
  0
LINE
  5
287
330
1F
100
AcDbEntity
  8
0
  6
Continuous
 62
     7
370
    25
100
AcDbLine
 10
159.2441814668
 20
250.3287970295
 30
0.0
 11
166.5230952819
 21
250.3287970295
 31
0.0
  0
LINE
  5
288
330
1F
100
AcDbEntity
  8
0
  6
Continuous
 62
     7
370
    25
100
AcDbLine
 10
166.5230952819
 20
258.2369174828
 30
0.0
 11
159.2441814668
 21
258.2369174828
 31
0.0
  0
LINE
  5
289
330
1F
100
AcDbEntity
  8
0
  6
Continuous
 62
     7
370
    25
100
AcDbLine
 10
166.1086383744
 20
230.906494002
 30
0.0
 11
159.6586383744
 21
230.906494002
 31
0.0
  0
LINE
  5
28A
330
1F
100
AcDbEntity
  8
0
  6
Continuous
 62
     7
370
    25
100
AcDbLine
 10
159.6586383744
 20
229.828639229
 30
0.0
 11
166.1086383744
 21
229.828639229
 31
0.0
  0
LINE
  5
28B
330
1F
100
AcDbEntity
  8
0
  6
Continuous
 62
     7
370
    25
100
AcDbLine
 10
166.5230952819
 20
228.5738177855
 30
0.0
 11
159.2441814668
 21
228.5738177855
 31
0.0
  0
LINE
  5
28C
330
1F
100
AcDbEntity
  8
0
  6
Continuous
 62
     7
370
    25
100
AcDbLine
 10
159.2441814668
 20
224.9596071943
 30
0.0
 11
166.5230952819
 21
224.9596071943
 31
0.0
  0
LINE
  5
28D
330
1F
100
AcDbEntity
  8
0
  6
Continuous
 62
     7
370
    25
100
AcDbLine
 10
159.6586383744
 20
259.370348441
 30
0.0
 11
166.1086383744
 21
259.370348441
 31
0.0
  0
LINE
  5
28E
330
1F
100
AcDbEntity
  8
0
  6
Continuous
 62
     7
370
    25
100
AcDbLine
 10
166.1086383744
 20
259.6761125548
 30
0.0
 11
159.6586383744
 21
259.6761125548
 31
0.0
  0
LWPOLYLINE
  5
28F
330
1F
100
AcDbEntity
  8
0
  6
Continuous
 62
     8
370
    25
100
AcDbPolyline
 90
       16
 70
   128
 43
0.0
 10
116.5086383744
 20
-15.4391762699
 10
116.6812723286
 20
-14.8606863806
 10
117.191629259
 20
-14.3074792754
 10
118.0174041188
 20
-13.8037327593
 10
119.1225065841
 20
-13.3714629724
 10
120.4586383744
 20
-13.0295621785
 10
121.9674041188
 20
-12.7929730831
 10
123.5828635146
 20
-12.6720357648
 10
125.2344132342
 20
-12.6720357648
 10
126.8498726299
 20
-12.7929730831
 10
128.3586383744
 20
-13.0295621785
 10
129.6947701646
 20
-13.3714629724
 10
130.7998726299
 20
-13.8037327593
 10
131.6256474897
 20
-14.3074792754
 10
132.1360044202
 20
-14.8606863806
 10
132.3086383744
 20
-15.4391762699
  0
LWPOLYLINE
  5
290
330
1F
100
AcDbEntity
  8
0
  6
Continuous
 62
     8
370
    25
100
AcDbPolyline
 90
       16
 70
   128
 43
0.0
 10
116.5086383744
 20
219.5608237301
 10
116.6812723286
 20
220.1393136194
 10
117.191629259
 20
220.6925207246
 10
118.0174041188
 20
221.1962672407
 10
119.1225065841
 20
221.6285370276
 10
120.4586383744
 20
221.9704378215
 10
121.9674041188
 20
222.2070269169
 10
123.5828635146
 20
222.3279642352
 10
125.2344132342
 20
222.3279642352
 10
126.8498726299
 20
222.2070269169
 10
128.3586383744
 20
221.9704378215
 10
129.6947701646
 20
221.6285370276
 10
130.7998726299
 20
221.1962672407
 10
131.6256474897
 20
220.6925207246
 10
132.1360044202
 20
220.1393136194
 10
132.3086383744
 20
219.5608237301
  0
ARC
  5
291
330
1F
100
AcDbEntity
  8
0
  6
Continuous
 62
     8
370
    25
100
AcDbCircle
 10
124.4086383744
 20
-62.7661881815
 30
0.0
 40
8.410472292019538
100
AcDbArc
 50
159.9351921799
 51
0.0
  0
LWPOLYLINE
  5
292
330
1F
100
AcDbEntity
  8
0
  6
Continuous
 62
     8
370
    25
100
AcDbPolyline
 90
        3
 70
   128
 43
0.0
 10
132.3086383744
 20
-59.880699631
 10
132.6469478045
 20
-61.0731725559
 10
132.8191106664
 20
-62.7661881815
  0
ARC
  5
293
330
1F
100
AcDbEntity
  8
0
  6
Continuous
 62
     8
370
    25
100
AcDbCircle
 10
124.4086383744
 20
242.2338118185
 30
0.0
 40
9.374999999999979
100
AcDbArc
 50
327.4227936768
 51
212.5772063232
  0
LINE
  5
294
330
1F
100
AcDbEntity
  8
0
  6
Continuous
 62
     8
370
    25
100
AcDbLine
 10
116.349404527
 20
234.6594507914
 30
0.0
 11
116.5086383744
 21
234.4935149783
 31
0.0
  0
ARC
  5
295
330
1F
100
AcDbEntity
  8
0
  6
Continuous
 62
     8
370
    25
100
AcDbCircle
 10
124.4086383744
 20
242.2338118185
 30
0.0
 40
11.0599364905389
100
AcDbArc
 50
315.5850271977
 51
223.2235523034
  0
ARC
  5
296
330
1F
100
AcDbEntity
  8
0
  6
Continuous
 62
     8
370
    25
100
AcDbCircle
 10
124.4086383744
 20
242.2338118185
 30
0.0
 40
11.30993649053892
100
AcDbArc
 50
314.3068486059
 51
225.6931513941
  0
LINE
  5
297
330
1F
100
AcDbEntity
  8
0
  6
Continuous
 62
     8
370
    25
100
AcDbLine
 10
132.3086383744
 20
229.8680755086
 30
0.0
 11
132.565897233
 21
229.9747436275
 31
0.0
  0
ARC
  5
298
330
1F
100
AcDbEntity
  8
0
  6
Continuous
 62
     8
370
    25
100
AcDbCircle
 10
116.2511478675
 20
230.3187575931
 30
0.0
 40
0.352950226845822
100
AcDbArc
 50
279.5385256861
 51
316.8476542185
  0
SPLINE
  5
299
330
1F
100
AcDbEntity
  8
0
  6
Continuous
 62
     8
370
    25
100
AcDbSpline
210
0.0
220
0.0
230
1.0
 70
     8
 71
     3
 72
    11
 73
     7
 74
     0
 42
0.00000001
 43
0.00000001
 40
0.0
 40
0.0
 40
0.0
 40
0.0
 40
0.0251701183526674
 40
0.4924427489665036
 40
0.9585045229151534
 40
0.9999999999999999
 40
0.9999999999999999
 40
0.9999999999999999
 40
0.9999999999999999
 10
134.6447684865057
 20
254.2860935373839
 30
0.0
 10
134.6176681353289
 20
254.3065003661855
 30
0.0
 10
134.0874611953174
 20
254.7057513642107
 30
0.0
 10
132.9154386511784
 20
255.4678488602216
 30
0.0
 10
131.5377098059894
 20
256.2282493193404
 30
0.0
 10
130.6387214617122
 20
256.5383451926097
 30
0.0
 10
130.5652244322371
 20
256.5636971626134
 30
0.0
  0
SPLINE
  5
29A
330
1F
100
AcDbEntity
  8
0
  6
Continuous
 62
     8
370
    25
100
AcDbSpline
210
0.0
220
0.0
230
1.0
 70
     8
 71
     3
 72
    16
 73
    12
 74
     0
 42
0.00000001
 43
0.00000001
 40
0.0
 40
0.0
 40
0.0
 40
0.0
 40
0.1556040296203521
 40
0.2319233410732248
 40
0.324731611525242
 40
0.4453446219787875
 40
0.5662224176608626
 40
0.600421361470419
 40
0.7936449596549506
 40
0.9873805624623877
 40
0.9999999999999999
 40
0.9999999999999999
 40
0.9999999999999999
 40
0.9999999999999999
 10
126.9588530760288
 20
257.5225579366632
 30
0.0
 10
126.1932589993197
 20
257.6218626480073
 30
0.0
 10
125.0521629967967
 20
257.7698734707052
 30
0.0
 10
123.3965309079955
 20
257.7250252821735
 30
0.0
 10
121.9557169490513
 20
257.5871895828752
 30
0.0
 10
120.3897261945595
 20
257.280749651732
 30
0.0
 10
119.221888381501
 20
256.9326839647746
 30
0.0
 10
117.8510190674189
 20
256.4369378482996
 30
0.0
 10
116.3980840988399
 20
255.749704238586
 30
0.0
 10
115.1570278392829
 20
255.0336869203815
 30
0.0
 10
114.6886507710476
 20
254.6556726054474
 30
0.0
 10
114.6600076366383
 20
254.6325555154667
 30
0.0
  0
SPLINE
  5
29B
330
1F
100
AcDbEntity
  8
0
  6
Continuous
 62
     8
370
    25
100
AcDbSpline
210
0.0
220
0.0
230
1.0
 70
     8
 71
     3
 72
     9
 73
     5
 74
     0
 42
0.00000001
 43
0.00000001
 40
0.0
 40
0.0
 40
0.0
 40
0.0
 40
0.8067043108302883
 40
0.9999999999999999
 40
0.9999999999999999
 40
0.9999999999999999
 40
0.9999999999999999
 10
112.7397294463043
 20
253.070007295288
 30
0.0
 10
112.2815556837149
 20
252.6202110121319
 30
0.0
 10
111.7135981849903
 20
252.0626383338688
 30
0.0
 10
111.2998586544823
 20
251.5856105952868
 30
0.0
 10
111.219884586796
 20
251.4934031898045
 30
0.0
  0
SPLINE
  5
29C
330
1F
100
AcDbEntity
  8
0
  6
Continuous
 62
     8
370
    25
100
AcDbSpline
210
0.0
220
0.0
230
1.0
 70
     8
 71
     3
 72
     9
 73
     5
 74
     0
 42
0.00000001
 43
0.00000001
 40
0.0
 40
0.0
 40
0.0
 40
0.0
 40
0.6398957093860452
 40
1.0
 40
1.0
 40
1.0
 40
1.0
 10
132.3086383743685
 20
228.3608303831747
 30
0.0
 10
132.7245767854778
 20
228.624704891895
 30
0.0
 10
133.3745864745698
 20
229.0370760093284
 30
0.0
 10
134.0060089614549
 20
229.6369405929797
 30
0.0
 10
134.2333869081724
 20
229.8529544033399
 30
0.0
  0
SPLINE
  5
29D
330
1F
100
AcDbEntity
  8
0
  6
Continuous
 62
     8
370
    25
100
AcDbSpline
210
0.0
220
0.0
230
1.0
 70
     8
 71
     3
 72
    14
 73
    10
 74
     0
 42
0.00000001
 43
0.00000001
 40
0.0
 40
0.0
 40
0.0
 40
0.0
 40
0.0735105284170121
 40
0.3176689510068713
 40
0.475430153653248
 40
0.6328019205244494
 40
0.8440862794397787
 40
0.9254503007574899
 40
1.0
 40
1.0
 40
1.0
 40
1.0
 10
136.2604232743174
 20
232.0042318728382
 30
0.0
 10
136.4126539358389
 20
232.1809916972979
 30
0.0
 10
137.0705046627754
 20
232.9448429336505
 30
0.0
 10
137.9451109113141
 20
234.4487475370215
 30
0.0
 10
138.8374679210824
 20
236.4585301321394
 30
0.0
 10
139.5035440589076
 20
238.6253358224328
 30
0.0
 10
139.8082468492649
 20
240.7365451967358
 30
0.0
 10
139.855784843866
 20
242.5067747110042
 30
0.0
 10
139.7878682648307
 20
243.2445767903205
 30
0.0
 10
139.7553941469502
 20
243.5973547428694
 30
0.0
  0
SPLINE
  5
29E
330
1F
100
AcDbEntity
  8
0
  6
Continuous
 62
     8
370
    25
100
AcDbSpline
210
0.0
220
0.0
230
1.0
 70
     8
 71
     3
 72
    11
 73
     7
 74
     0
 42
0.00000001
 43
0.00000001
 40
0.0
 40
0.0
 40
0.0
 40
0.0
 40
0.1379731968766666
 40
0.3796663705320814
 40
0.6896081199430901
 40
1.0
 40
1.0
 40
1.0
 40
1.0
 10
138.8528245889842
 20
247.7455661734334
 30
0.0
 10
138.7120790549551
 20
248.1558362678007
 30
0.0
 10
138.3247839332715
 20
249.2847929143988
 30
0.0
 10
137.3947056132529
 20
250.958580205865
 30
0.0
 10
136.135080299026
 20
252.7802296179921
 30
0.0
 10
135.1417793459109
 20
253.7838961351784
 30
0.0
 10
134.6447684865058
 20
254.286093537384
 30
0.0
  0
ARC
  5
29F
330
1F
100
AcDbEntity
  8
0
  6
Continuous
 62
     8
370
    25
100
AcDbCircle
 10
124.4086383744
 20
242.2338118185
 30
0.0
 40
16.11469077681542
100
AcDbArc
 50
144.927984031
 51
240.6439119643
  0
ARC
  5
2A0
330
1F
100
AcDbEntity
  8
0
  6
Continuous
 62
     8
370
    25
100
AcDbCircle
 10
134.1777107384
 20
222.5002540687
 30
0.0
 40
6.027077813606417
100
AcDbArc
 50
69.4462127364
 51
108.0660123474
  0
LINE
  5
2A1
330
1F
100
AcDbEntity
  8
0
  6
Continuous
 62
     8
370
    25
100
AcDbLine
 10
149.4264188384
 20
306.0972539785
 30
0.0
 11
99.3908579103
 21
306.0972539785
 31
0.0
  0
LINE
  5
2A2
330
1F
100
AcDbEntity
  8
0
  6
Continuous
 62
     8
370
    25
100
AcDbLine
 10
99.1086383744
 20
306.5473336043
 30
0.0
 11
149.7086383744
 21
306.5473336043
 31
0.0
  0
LINE
  5
2A3
330
1F
100
AcDbEntity
  8
0
  6
Continuous
 62
     8
370
    25
100
AcDbLine
 10
149.7086383744
 20
309.7338118185
 30
0.0
 11
99.1086383744
 21
309.7338118185
 31
0.0
  0
LINE
  5
2A4
330
1F
100
AcDbEntity
  8
0
  6
Continuous
 62
     8
370
    25
100
AcDbLine
 10
107.2797602306
 20
302.2800431784
 30
0.0
 11
141.5375165182
 21
302.2800431784
 31
0.0
  0
SPLINE
  5
2A5
330
1F
100
AcDbEntity
  8
0
  6
Continuous
 62
     8
370
    25
100
AcDbSpline
210
0.0
220
0.0
230
1.0
 70
     8
 71
     3
 72
    10
 73
     6
 74
     0
 42
0.00000001
 43
0.00000001
 40
0.0
 40
0.0
 40
0.0
 40
0.0
 40
0.0003138816350141
 40
0.8869596111538993
 40
1.0
 40
1.0
 40
1.0
 40
1.0
 10
108.3860913043231
 20
300.7792481453873
 30
0.0
 10
108.3860856654405
 20
300.7792662227084
 30
0.0
 10
108.3701514387641
 20
300.8303487072474
 30
0.0
 10
108.4070545405802
 20
300.7344075389682
 30
0.0
 10
108.436509045109
 20
300.6198820807571
 30
0.0
 10
108.4398396391665
 20
300.6069320136398
 30
0.0
  0
LINE
  5
2A6
330
1F
100
AcDbEntity
  8
0
  6
Continuous
 62
     8
370
    25
100
AcDbLine
 10
140.3774371096
 20
300.6069320136
 30
0.0
 11
140.4311860516
 21
300.7792500922
 31
0.0
  0
SPLINE
  5
2A7
330
1F
100
AcDbEntity
  8
0
  6
Continuous
 62
     8
370
    25
100
AcDbSpline
210
0.0
220
0.0
230
1.0
 70
     8
 71
     3
 72
    13
 73
     9
 74
     0
 42
0.00000001
 43
0.00000001
 40
0.0
 40
0.0
 40
0.0
 40
0.0
 40
0.0624921984852716
 40
0.2801652555532282
 40
0.3469311675061709
 40
0.5028718320925422
 40
0.6630421850502004
 40
1.0
 40
1.0
 40
1.0
 40
1.0
 10
147.785557100844
 20
257.7407697098824
 30
0.0
 10
147.7796033981504
 20
257.7376154568684
 30
0.0
 10
147.752911736198
 20
257.7234742980806
 30
0.0
 10
147.3165525483165
 20
257.4922539122944
 30
0.0
 10
146.4874545915763
 20
257.0564252148916
 30
0.0
 10
145.5796024303317
 20
256.5827452215775
 30
0.0
 10
143.7437922451895
 20
255.6338607912892
 30
0.0
 10
142.0505409360676
 20
254.8006570691898
 30
0.0
 10
140.9028404070789
 20
254.2359043077672
 30
0.0
  0
LINE
  5
2A8
330
1F
100
AcDbEntity
  8
0
  6
Continuous
 62
     8
370
    25
100
AcDbLine
 10
136.2937366448
 20
228.1436662754
 30
0.0
 11
136.2937366448
 21
226.4827691373
 31
0.0
  0
LINE
  5
2A9
330
1F
100
AcDbEntity
  8
0
  6
Continuous
 62
     8
370
    25
100
AcDbLine
 10
153.4086383744
 20
249.4625405824
 30
0.0
 11
153.5641621401
 21
249.3278537103
 31
0.0
  0
LINE
  5
2AA
330
1F
100
AcDbEntity
  8
0
  6
Continuous
 62
     8
370
    25
100
AcDbLine
 10
111.088555471
 20
256.0773973876
 30
0.0
 11
111.3373679731
 21
256.0773973876
 31
0.0
  0
SPLINE
  5
2AB
330
1F
100
AcDbEntity
  8
0
  6
Continuous
 62
     8
370
    25
100
AcDbSpline
210
0.0
220
0.0
230
1.0
 70
     8
 71
     3
 72
    13
 73
     9
 74
     0
 42
0.00000001
 43
0.00000001
 40
0.0
 40
0.0
 40
0.0
 40
0.0
 40
0.3303824594534187
 40
0.487165059431713
 40
0.6474432086157422
 40
0.8620994843334041
 40
0.9364418460707513
 40
1.0
 40
1.0
 40
1.0
 40
1.0
 10
133.9933350114099
 20
262.1322411810598
 30
0.0
 10
134.6627036594765
 20
263.0755389243987
 30
0.0
 10
135.6497203968558
 20
264.4664774807487
 30
0.0
 10
136.708621972184
 20
266.0308713276906
 30
0.0
 10
137.4447428132465
 20
267.1284317331185
 30
0.0
 10
137.8336331116285
 20
267.7157028279719
 30
0.0
 10
138.0048638815364
 20
267.9746088150316
 30
0.0
 10
137.9691765169158
 20
267.92065689076
 30
0.0
 10
137.9527282607006
 20
267.8957905246624
 30
0.0
  0
LINE
  5
2AC
330
1F
100
AcDbEntity
  8
0
  6
Continuous
 62
     8
370
    25
100
AcDbLine
 10
110.7403806837
 20
284.506927028
 30
0.0
 11
110.4312253059
 21
284.506927028
 31
0.0
  0
LINE
  5
2AD
330
1F
100
AcDbEntity
  8
0
  6
Continuous
 62
     8
370
    25
100
AcDbLine
 10
138.3860514428
 20
284.506927028
 30
0.0
 11
138.076896065
 21
284.506927028
 31
0.0
  0
ARC
  5
2AE
330
1F
100
AcDbEntity
  8
0
  6
Continuous
 62
     8
370
    25
100
AcDbCircle
 10
132.2947575609
 20
221.8078540025
 30
0.0
 40
5.860672405012475
100
AcDbArc
 50
74.7523207299
 51
89.864296668
  0
LINE
  5
2AF
330
1F
100
AcDbEntity
  8
0
  6
Continuous
 62
     8
370
    25
100
AcDbLine
 10
132.3086383744
 20
227.0507722712
 30
0.0
 11
133.8360683158
 21
227.4622188824
 31
0.0
  0
ARC
  5
2B0
330
1F
100
AcDbEntity
  8
0
  6
Continuous
 62
     8
370
    25
100
AcDbCircle
 10
124.4086383744
 20
242.2338118185
 30
0.0
 40
16.76373439777599
100
AcDbArc
 50
149.2515511975
 51
241.8841832281
  0
LINE
  5
2B1
330
1F
100
AcDbEntity
  8
0
  6
Continuous
 62
     8
370
    25
100
AcDbLine
 10
110.0015455056
 20
250.8046032656
 30
0.0
 11
109.727305534
 21
250.8046032656
 31
0.0
  0
LINE
  5
2B2
330
1F
100
AcDbEntity
  8
0
  6
Continuous
 62
     8
370
    25
100
AcDbLine
 10
142.4197453733
 20
297.9838118185
 30
0.0
 11
142.0178215847
 21
297.9838118185
 31
0.0
  0
LINE
  5
2B3
330
1F
100
AcDbEntity
  8
0
  6
Continuous
 62
     8
370
    25
100
AcDbLine
 10
142.0178215847
 20
287.2338118185
 30
0.0
 11
142.4197453733
 21
287.2338118185
 31
0.0
  0
LINE
  5
2B4
330
1F
100
AcDbEntity
  8
0
  6
Continuous
 62
     8
370
    25
100
AcDbLine
 10
141.1470273586
 20
299.6673783793
 30
0.0
 11
141.0565098033
 21
299.6125950624
 31
0.0
  0
LINE
  5
2B5
330
1F
100
AcDbEntity
  8
0
  6
Continuous
 62
     8
370
    25
100
AcDbLine
 10
106.7994551641
 20
297.9838118185
 30
0.0
 11
106.3975313754
 21
297.9838118185
 31
0.0
  0
SPLINE
  5
2B6
330
1F
100
AcDbEntity
  8
0
  6
Continuous
 62
     8
370
    25
100
AcDbSpline
210
0.0
220
0.0
230
1.0
 70
    24
 71
     3
 72
     9
 73
     5
 74
     0
 42
0.00000001
 43
0.00000001
 40
0.0
 40
0.0
 40
0.0
 40
0.0
 40
0.9976117587265191
 40
1.0
 40
1.0
 40
1.0
 40
1.0
 10
107.7607669454287
 20
299.6125950623984
 30
0.0
 10
107.7004259823567
 20
299.649114808146
 30
0.0
 10
107.6399405655158
 20
299.6857219806537
 30
0.0
 10
107.6702917437908
 20
299.667352745938
 30
0.0
 10
107.6703642297275
 20
299.6673088757734
 30
0.0
  0
LINE
  5
2B7
330
1F
100
AcDbEntity
  8
0
  6
Continuous
 62
     8
370
    25
100
AcDbLine
 10
106.3975313754
 20
287.2338118185
 30
0.0
 11
106.7994551641
 21
287.2338118185
 31
0.0
  0
LINE
  5
2B8
330
1F
100
AcDbEntity
  8
0
  6
Continuous
 62
     8
370
    25
100
AcDbLine
 10
208.1740869282
 20
241.0112737902
 30
0.0
 11
207.9528441042
 21
241.0112737902
 31
0.0
  0
LINE
  5
2B9
330
1F
100
AcDbEntity
  8
0
  6
Continuous
 62
     8
370
    25
100
AcDbLine
 10
208.0511750614
 20
243.6970447808
 30
0.0
 11
208.1740869282
 21
243.6970447808
 31
0.0
  0
LINE
  5
2BA
330
1F
100
AcDbEntity
  8
0
  6
Continuous
 62
     8
370
    25
100
AcDbLine
 10
208.1740869282
 20
241.4044139832
 30
0.0
 11
207.9531504545
 21
241.4044139832
 31
0.0
  0
LINE
  5
2BB
330
1F
100
AcDbEntity
  8
0
  6
Continuous
 62
     8
370
    25
100
AcDbLine
 10
207.2185703784
 20
236.3086941844
 30
0.0
 11
207.2185703784
 21
248.1589395897
 31
0.0
  0
LINE
  5
2BC
330
1F
100
AcDbEntity
  8
0
  6
Continuous
 62
     8
370
    25
100
AcDbLine
 10
200.7466823315
 20
234.285357885
 30
0.0
 11
200.7466823315
 21
233.2581537743
 31
0.0
  0
LINE
  5
2BD
330
1F
100
AcDbEntity
  8
0
  6
Continuous
 62
     8
370
    25
100
AcDbLine
 10
199.8132621176
 20
251.2257627732
 30
0.0
 11
199.8132621176
 21
250.5676660496
 31
0.0
  0
LINE
  5
2BE
330
1F
100
AcDbEntity
  8
0
  6
Continuous
 62
     8
370
    25
100
AcDbLine
 10
205.1173645776
 20
233.3344443167
 30
0.0
 11
205.1173645776
 21
251.1331793204
 31
0.0
  0
SPLINE
  5
2BF
330
1F
100
AcDbEntity
  8
0
  6
Continuous
 62
     8
370
    25
100
AcDbSpline
210
0.0
220
0.0
230
1.0
 70
     8
 71
     3
 72
    10
 73
     6
 74
     0
 42
0.00000001
 43
0.00000001
 40
0.0
 40
0.0
 40
0.0
 40
0.0
 40
0.3134046182840685
 40
0.9609384691973387
 40
1.0
 40
1.0
 40
1.0
 40
1.0
 10
200.7020759983351
 20
234.2845909044767
 30
0.0
 10
200.5120045591102
 20
234.0751487003112
 30
0.0
 10
199.9292213223892
 20
233.4329722315723
 30
0.0
 10
199.2924415137641
 20
232.911467059386
 30
0.0
 10
198.9385816937473
 20
232.7306197821149
 30
0.0
 10
198.9184500315959
 20
232.7203310856281
 30
0.0
  0
ARC
  5
2C0
330
1F
100
AcDbEntity
  8
0
  6
Continuous
 62
     8
370
    25
100
AcDbCircle
 10
195.3975903509
 20
232.1880695424
 30
0.0
 40
1.92096139158623
100
AcDbArc
 50
268.5765886744
 51
339.0947663455
  0
SPLINE
  5
2C1
330
1F
100
AcDbEntity
  8
0
  6
Continuous
 62
     8
370
    25
100
AcDbSpline
210
0.0
220
0.0
230
1.0
 70
     8
 71
     3
 72
    11
 73
     7
 74
     0
 42
0.00000001
 43
0.00000001
 40
0.0
 40
0.0
 40
0.0
 40
0.0
 40
0.1869850297061665
 40
0.839231787388844
 40
0.8428766719154442
 40
1.0
 40
1.0
 40
1.0
 40
1.0
 10
198.6605797626388
 20
251.4896594267647
 30
0.0
 10
198.7259569819837
 20
251.4635748820924
 30
0.0
 10
199.0193849678047
 20
251.3465014506899
 30
0.0
 10
199.3487428424962
 20
251.0380546136641
 30
0.0
 10
199.6591162859946
 20
250.7075839180779
 30
0.0
 10
199.7206193205519
 20
250.6371336216651
 30
0.0
 10
199.7807279783516
 20
250.5682805514149
 30
0.0
  0
ARC
  5
2C2
330
1F
100
AcDbEntity
  8
0
  6
Continuous
 62
     8
370
    25
100
AcDbCircle
 10
195.2661250989
 20
251.5532608297
 30
0.0
 40
2.003398773475056
100
AcDbArc
 50
30.7890812782
 51
89.2158376998
  0
LINE
  5
2C3
330
1F
100
AcDbEntity
  8
0
  6
Continuous
 62
     8
370
    25
100
AcDbLine
 10
195.2935431872
 20
229.9334843364
 30
0.0
 11
195.2935431872
 21
229.9880584741
 31
0.0
  0
LINE
  5
2C4
330
1F
100
AcDbEntity
  8
0
  6
Continuous
 62
     8
370
    25
100
AcDbLine
 10
191.2673645776
 20
230.1991000415
 30
0.0
 11
191.2673645776
 21
229.8632071274
 31
0.0
  0
ARC
  5
2C5
330
1F
100
AcDbEntity
  8
0
  6
Continuous
 62
     8
370
    25
100
AcDbCircle
 10
195.2623463043
 20
231.9864237936
 30
0.0
 40
1.998608815136039
100
AcDbArc
 50
270.8943832866
 51
342.7812090176
  0
ARC
  5
2C6
330
1F
100
AcDbEntity
  8
0
  6
Continuous
 62
     8
370
    25
100
AcDbCircle
 10
195.2659003827
 20
251.5905865606
 30
0.0
 40
2.002814737329933
100
AcDbArc
 50
29.9276886072
 51
89.2091798153
  0
LINE
  5
2C7
330
1F
100
AcDbEntity
  8
0
  6
Continuous
 62
     8
370
    25
100
AcDbLine
 10
195.2935431872
 20
253.5932105262
 30
0.0
 11
195.2935431872
 21
253.7292320298
 31
0.0
  0
LINE
  5
2C8
330
1F
100
AcDbEntity
  8
0
  6
Continuous
 62
     8
370
    25
100
AcDbLine
 10
191.2673645776
 20
253.7995092389
 30
0.0
 11
191.2673645776
 21
253.6624172319
 31
0.0
  0
ENDSEC
  0
SECTION
  2
OBJECTS
  0
DICTIONARY
  5
C
330
0
100
AcDbDictionary
281
     1
  3
ACAD_GROUP
350
D
  3
ACAD_LAYOUT
350
1A
  3
ACAD_MLINESTYLE
350
17
  3
ACAD_PLOTSETTINGS
350
19
  3
ACAD_PLOTSTYLENAME
350
E
  3
ACAD_SCALELIST
350
47
  3
DWGPROPS
350
2C9
  0
DICTIONARY
  5
D
102
{ACAD_REACTORS
330
C
102
}
330
C
100
AcDbDictionary
281
     1
  0
DICTIONARY
  5
1A
102
{ACAD_REACTORS
330
C
102
}
330
C
100
AcDbDictionary
281
     1
  3
Layout1
350
1E
  3
Layout2
350
26
  3
Model
350
22
  0
DICTIONARY
  5
17
102
{ACAD_REACTORS
330
C
102
}
330
C
100
AcDbDictionary
281
     1
  3
Standard
350
18
  0
DICTIONARY
  5
19
102
{ACAD_REACTORS
330
C
102
}
330
C
100
AcDbDictionary
281
     1
  0
ACDBDICTIONARYWDFLT
  5
E
102
{ACAD_REACTORS
330
C
102
}
330
C
100
AcDbDictionary
281
     1
  3
Normal
350
F
100
AcDbDictionaryWithDefault
340
F
  0
DICTIONARY
  5
47
102
{ACAD_REACTORS
330
C
102
}
330
C
100
AcDbDictionary
281
     1
  3
A0
350
48
  3
A1
350
49
  3
A2
350
4A
  3
A3
350
4B
  3
A4
350
4C
  3
A5
350
4D
  3
A6
350
4E
  3
A7
350
4F
  3
A8
350
50
  3
A9
350
51
  3
B0
350
52
  3
B1
350
53
  3
B2
350
54
  3
B3
350
55
  3
B4
350
56
  3
B5
350
57
  3
B6
350
58
  3
B7
350
59
  3
B8
350
5A
  3
B9
350
5B
  3
C0
350
5C
  3
C1
350
5D
  3
C2
350
5E
  3
C3
350
5F
  3
C4
350
60
  3
C5
350
61
  3
C6
350
62
  3
C7
350
63
  3
C8
350
64
  3
C9
350
65
  3
D0
350
66
  3
D1
350
67
  3
D2
350
68
  0
XRECORD
  5
2C9
102
{ACAD_REACTORS
330
C
102
}
330
C
100
AcDbXrecord
280
     1
  1
DWGPROPS COOKIE
  2

  3

  4

  6

  7

  8
vishesh
  9

300
=
301
=
302
=
303
=
304
=
305
=
306
=
307
=
308
=
309
=
 40
0.0
 41
2460383.488025428
 42
2460383.488025798
  1

 90
        0
  0
LAYOUT
  5
1E
102
{ACAD_REACTORS
330
1A
102
}
330
1A
100
AcDbPlotSettings
  1

  2
none_device
  4

  6

 40
0.0
 41
0.0
 42
0.0
 43
0.0
 44
0.0
 45
0.0
 46
0.0
 47
0.0
 48
0.0
 49
0.0
140
0.0
141
0.0
142
1.0
143
1.0
 70
   688
 72
     1
 73
     0
 74
     5
  7

 75
    16
147
1.0
148
0.0
149
0.0
100
AcDbLayout
  1
Layout1
 70
     1
 71
     1
 10
0.0
 20
0.0
 11
420.0
 21
297.0
 12
0.0
 22
0.0
 32
0.0
 14
1.0000000000E+20
 24
1.0000000000E+20
 34
1.0000000000E+20
 15
-1.0000000000E+20
 25
-1.0000000000E+20
 35
-1.0000000000E+20
146
0.0
 13
0.0
 23
0.0
 33
0.0
 16
1.0
 26
0.0
 36
0.0
 17
0.0
 27
1.0
 37
0.0
 76
     0
330
1B
  0
LAYOUT
  5
26
102
{ACAD_REACTORS
330
1A
102
}
330
1A
100
AcDbPlotSettings
  1

  2
none_device
  4

  6

 40
0.0
 41
0.0
 42
0.0
 43
0.0
 44
0.0
 45
0.0
 46
0.0
 47
0.0
 48
0.0
 49
0.0
140
0.0
141
0.0
142
1.0
143
1.0
 70
   688
 72
     1
 73
     0
 74
     5
  7

 75
    16
147
1.0
148
0.0
149
0.0
100
AcDbLayout
  1
Layout2
 70
     1
 71
     2
 10
0.0
 20
0.0
 11
0.0
 21
0.0
 12
0.0
 22
0.0
 32
0.0
 14
0.0
 24
0.0
 34
0.0
 15
0.0
 25
0.0
 35
0.0
146
0.0
 13
0.0
 23
0.0
 33
0.0
 16
1.0
 26
0.0
 36
0.0
 17
0.0
 27
1.0
 37
0.0
 76
     0
330
23
  0
LAYOUT
  5
22
102
{ACAD_REACTORS
330
1A
102
}
330
1A
100
AcDbPlotSettings
  1

  2
none_device
  4
Letter_(8.50_x_11.00_Inches)
  6

 40
6.35
 41
6.35
 42
6.35000508
 43
6.35000508
 44
215.9
 45
279.4
 46
0.0
 47
0.0
 48
0.0
 49
0.0
140
0.0
141
0.0
142
1.0
143
1.0
 70
  1712
 72
     1
 73
     0
 74
     0
  7

 75
     0
147
1.0
148
0.0
149
0.0
100
AcDbLayout
  1
Model
 70
     1
 71
     0
 10
0.0
 20
0.0
 11
279.4
 21
215.9
 12
0.0
 22
0.0
 32
0.0
 14
0.0
 24
0.0
 34
0.0
 15
279.4
 25
215.9
 35
0.0
146
0.0
 13
0.0
 23
0.0
 33
0.0
 16
1.0
 26
0.0
 36
0.0
 17
0.0
 27
1.0
 37
0.0
 76
     0
330
1F
331
29
  0
MLINESTYLE
  5
18
102
{ACAD_REACTORS
330
17
102
}
330
17
100
AcDbMlineStyle
  2
Standard
 70
     0
  3

 62
   256
 51
90.0
 52
90.0
 71
     2
 49
0.5
 62
   256
  6
BYLAYER
 49
-0.5
 62
   256
  6
BYLAYER
  0
ACDBPLACEHOLDER
  5
F
102
{ACAD_REACTORS
330
E
102
}
330
E
  0
SCALE
  5
48
102
{ACAD_REACTORS
330
47
102
}
330
47
100
AcDbScale
 70
     0
300
1:1
140
1.0
141
1.0
290
     1
  0
SCALE
  5
49
102
{ACAD_REACTORS
330
47
102
}
330
47
100
AcDbScale
 70
     0
300
1:2
140
1.0
141
2.0
290
     0
  0
SCALE
  5
4A
102
{ACAD_REACTORS
330
47
102
}
330
47
100
AcDbScale
 70
     0
300
1:4
140
1.0
141
4.0
290
     0
  0
SCALE
  5
4B
102
{ACAD_REACTORS
330
47
102
}
330
47
100
AcDbScale
 70
     0
300
1:5
140
1.0
141
5.0
290
     0
  0
SCALE
  5
4C
102
{ACAD_REACTORS
330
47
102
}
330
47
100
AcDbScale
 70
     0
300
1:8
140
1.0
141
8.0
290
     0
  0
SCALE
  5
4D
102
{ACAD_REACTORS
330
47
102
}
330
47
100
AcDbScale
 70
     0
300
1:10
140
1.0
141
10.0
290
     0
  0
SCALE
  5
4E
102
{ACAD_REACTORS
330
47
102
}
330
47
100
AcDbScale
 70
     0
300
1:16
140
1.0
141
16.0
290
     0
  0
SCALE
  5
4F
102
{ACAD_REACTORS
330
47
102
}
330
47
100
AcDbScale
 70
     0
300
1:20
140
1.0
141
20.0
290
     0
  0
SCALE
  5
50
102
{ACAD_REACTORS
330
47
102
}
330
47
100
AcDbScale
 70
     0
300
1:30
140
1.0
141
30.0
290
     0
  0
SCALE
  5
51
102
{ACAD_REACTORS
330
47
102
}
330
47
100
AcDbScale
 70
     0
300
1:40
140
1.0
141
40.0
290
     0
  0
SCALE
  5
52
102
{ACAD_REACTORS
330
47
102
}
330
47
100
AcDbScale
 70
     0
300
1:50
140
1.0
141
50.0
290
     0
  0
SCALE
  5
53
102
{ACAD_REACTORS
330
47
102
}
330
47
100
AcDbScale
 70
     0
300
1:100
140
1.0
141
100.0
290
     0
  0
SCALE
  5
54
102
{ACAD_REACTORS
330
47
102
}
330
47
100
AcDbScale
 70
     0
300
2:1
140
2.0
141
1.0
290
     0
  0
SCALE
  5
55
102
{ACAD_REACTORS
330
47
102
}
330
47
100
AcDbScale
 70
     0
300
4:1
140
4.0
141
1.0
290
     0
  0
SCALE
  5
56
102
{ACAD_REACTORS
330
47
102
}
330
47
100
AcDbScale
 70
     0
300
8:1
140
8.0
141
1.0
290
     0
  0
SCALE
  5
57
102
{ACAD_REACTORS
330
47
102
}
330
47
100
AcDbScale
 70
     0
300
10:1
140
10.0
141
1.0
290
     0
  0
SCALE
  5
58
102
{ACAD_REACTORS
330
47
102
}
330
47
100
AcDbScale
 70
     0
300
100:1
140
100.0
141
1.0
290
     0
  0
SCALE
  5
59
102
{ACAD_REACTORS
330
47
102
}
330
47
100
AcDbScale
 70
     0
300
1/128" = 1'-0"
140
0.0078125
141
12.0
290
     0
  0
SCALE
  5
5A
102
{ACAD_REACTORS
330
47
102
}
330
47
100
AcDbScale
 70
     0
300
1/64" = 1'-0"
140
0.015625
141
12.0
290
     0
  0
SCALE
  5
5B
102
{ACAD_REACTORS
330
47
102
}
330
47
100
AcDbScale
 70
     0
300
1/32" = 1'-0"
140
0.03125
141
12.0
290
     0
  0
SCALE
  5
5C
102
{ACAD_REACTORS
330
47
102
}
330
47
100
AcDbScale
 70
     0
300
1/16" = 1'-0"
140
0.0625
141
12.0
290
     0
  0
SCALE
  5
5D
102
{ACAD_REACTORS
330
47
102
}
330
47
100
AcDbScale
 70
     0
300
3/32" = 1'-0"
140
0.09375
141
12.0
290
     0
  0
SCALE
  5
5E
102
{ACAD_REACTORS
330
47
102
}
330
47
100
AcDbScale
 70
     0
300
1/8" = 1'-0"
140
0.125
141
12.0
290
     0
  0
SCALE
  5
5F
102
{ACAD_REACTORS
330
47
102
}
330
47
100
AcDbScale
 70
     0
300
3/16" = 1'-0"
140
0.1875
141
12.0
290
     0
  0
SCALE
  5
60
102
{ACAD_REACTORS
330
47
102
}
330
47
100
AcDbScale
 70
     0
300
1/4" = 1'-0"
140
0.25
141
12.0
290
     0
  0
SCALE
  5
61
102
{ACAD_REACTORS
330
47
102
}
330
47
100
AcDbScale
 70
     0
300
3/8" = 1'-0"
140
0.375
141
12.0
290
     0
  0
SCALE
  5
62
102
{ACAD_REACTORS
330
47
102
}
330
47
100
AcDbScale
 70
     0
300
1/2" = 1'-0"
140
0.5
141
12.0
290
     0
  0
SCALE
  5
63
102
{ACAD_REACTORS
330
47
102
}
330
47
100
AcDbScale
 70
     0
300
3/4" = 1'-0"
140
0.75
141
12.0
290
     0
  0
SCALE
  5
64
102
{ACAD_REACTORS
330
47
102
}
330
47
100
AcDbScale
 70
     0
300
1" = 1'-0"
140
1.0
141
12.0
290
     0
  0
SCALE
  5
65
102
{ACAD_REACTORS
330
47
102
}
330
47
100
AcDbScale
 70
     0
300
1-1/2" = 1'-0"
140
1.5
141
12.0
290
     0
  0
SCALE
  5
66
102
{ACAD_REACTORS
330
47
102
}
330
47
100
AcDbScale
 70
     0
300
3" = 1'-0"
140
3.0
141
12.0
290
     0
  0
SCALE
  5
67
102
{ACAD_REACTORS
330
47
102
}
330
47
100
AcDbScale
 70
     0
300
6" = 1'-0"
140
6.0
141
12.0
290
     0
  0
SCALE
  5
68
102
{ACAD_REACTORS
330
47
102
}
330
47
100
AcDbScale
 70
     0
300
1'-0" = 1'-0"
140
12.0
141
12.0
290
     0
  0
ENDSEC
  0
EOF
