  0
SECTION
  2
HEADER
  9
$ACADVER
  1
AC1015
  9
$ACADMAINTVER
 70
     6
  9
$DWGCODEPAGE
  3
ANSI_1252
  9
$INSBASE
 10
0.0
 20
0.0
 30
0.0
  9
$EXTMIN
 10
0.0
 20
0.0
 30
0.0
  9
$EXTMAX
 10
279.4
 20
215.9
 30
0.0
  9
$LIMMIN
 10
0.0
 20
0.0
  9
$LIMMAX
 10
279.4
 20
215.9
  9
$ORTHOMODE
 70
     0
  9
$REGENMODE
 70
     1
  9
$FILLMODE
 70
     1
  9
$QTEXTMODE
 70
     0
  9
$MIRRTEXT
 70
     1
  9
$LTSCALE
 40
1.0
  9
$ATTMODE
 70
     1
  9
$TEXTSIZE
 40
3.5277777778
  9
$TRACEWID
 40
1.0
  9
$TEXTSTYLE
  7
Standard
  9
$CLAYER
  8
0
  9
$CELTYPE
  6
ByLayer
  9
$CECOLOR
 62
   256
  9
$CELTSCALE
 40
1.0
  9
$DISPSILH
 70
     0
  9
$DIMSCALE
 40
1.0
  9
$DIMASZ
 40
3.556
  9
$DIMEXO
 40
1.0
  9
$DIMDLI
 40
3.75
  9
$DIMRND
 40
0.0
  9
$DIMDLE
 40
0.0
  9
$DIMEXE
 40
1.0
  9
$DIMTP
 40
0.0
  9
$DIMTM
 40
0.0
  9
$DIMTXT
 40
3.5277777778
  9
$DIMCEN
 40
2.5
  9
$DIMTSZ
 40
0.0
  9
$DIMTOL
 70
     0
  9
$DIMLIM
 70
     0
  9
$DIMTIH
 70
     1
  9
$DIMTOH
 70
     1
  9
$DIMSE1
 70
     0
  9
$DIMSE2
 70
     0
  9
$DIMTAD
 70
     1
  9
$DIMZIN
 70
     0
  9
$DIMBLK
  1

  9
$DIMASO
 70
     1
  9
$DIMSHO
 70
     1
  9
$DIMPOST
  1

  9
$DIMAPOST
  1

  9
$DIMALT
 70
     0
  9
$DIMALTD
 70
     3
  9
$DIMALTF
 40
0.0393700787
  9
$DIMLFAC
 40
2.0
  9
$DIMTOFL
 70
     1
  9
$DIMTVP
 40
0.0
  9
$DIMTIX
 70
     0
  9
$DIMSOXD
 70
     0
  9
$DIMSAH
 70
     0
  9
$DIMBLK1
  1

  9
$DIMBLK2
  1

  9
$DIMSTYLE
  2
ISO-25
  9
$DIMCLRD
 70
     0
  9
$DIMCLRE
 70
     0
  9
$DIMCLRT
 70
     0
  9
$DIMTFAC
 40
1.0
  9
$DIMGAP
 40
1.524
  9
$DIMJUST
 70
     0
  9
$DIMSD1
 70
     0
  9
$DIMSD2
 70
     0
  9
$DIMTOLJ
 70
     0
  9
$DIMTZIN
 70
     0
  9
$DIMALTZ
 70
     0
  9
$DIMALTTZ
 70
     0
  9
$DIMUPT
 70
     0
  9
$DIMDEC
 70
     2
  9
$DIMTDEC
 70
     2
  9
$DIMALTU
 70
     2
  9
$DIMALTTD
 70
     3
  9
$DIMTXSTY
  7
Standard
  9
$DIMAUNIT
 70
     0
  9
$DIMADEC
 70
     2
  9
$DIMALTRND
 40
0.0
  9
$DIMAZIN
 70
     0
  9
$DIMDSEP
 70
    44
  9
$DIMATFIT
 70
     3
  9
$DIMFRAC
 70
     0
  9
$DIMLDRBLK
  1

  9
$DIMLUNIT
 70
     2
  9
$DIMLWD
 70
    -2
  9
$DIMLWE
 70
    -2
  9
$DIMTMOVE
 70
     0
  9
$LUNITS
 70
     2
  9
$LUPREC
 70
     2
  9
$SKETCHINC
 40
1.0
  9
$FILLETRAD
 40
10.0
  9
$AUNITS
 70
     0
  9
$AUPREC
 70
     2
  9
$MENU
  1
.
  9
$ELEVATION
 40
0.0
  9
$PELEVATION
 40
0.0
  9
$THICKNESS
 40
0.0
  9
$LIMCHECK
 70
     0
  9
$CHAMFERA
 40
0.0
  9
$CHAMFERB
 40
0.0
  9
$CHAMFERC
 40
0.0
  9
$CHAMFERD
 40
0.0
  9
$SKPOLY
 70
     0
  9
$TDCREATE
 40
2460383.745116551
  9
$TDUCREATE
 40
2460383.515949884
  9
$TDUPDATE
 40
2460383.745117141
  9
$TDUUPDATE
 40
2460383.515950474
  9
$TDINDWG
 40
0.0000000116
  9
$TDUSRTIMER
 40
0.0000000116
  9
$USRTIMER
 70
     1
  9
$ANGBASE
 50
0.0
  9
$ANGDIR
 70
     0
  9
$PDMODE
 70
     0
  9
$PDSIZE
 40
-1.0
  9
$PLINEWID
 40
0.0
  9
$SPLFRAME
 70
     0
  9
$SPLINETYPE
 70
     6
  9
$SPLINESEGS
 70
     8
  9
$HANDSEED
  5
30F
  9
$SURFTAB1
 70
     6
  9
$SURFTAB2
 70
     6
  9
$SURFTYPE
 70
     6
  9
$SURFU
 70
     6
  9
$SURFV
 70
     6
  9
$UCSBASE
  2

  9
$UCSNAME
  2

  9
$UCSORG
 10
0.0
 20
0.0
 30
0.0
  9
$UCSXDIR
 10
1.0
 20
0.0
 30
0.0
  9
$UCSYDIR
 10
0.0
 20
1.0
 30
0.0
  9
$UCSORTHOREF
  2

  9
$UCSORTHOVIEW
 70
     0
  9
$UCSORGTOP
 10
0.0
 20
0.0
 30
0.0
  9
$UCSORGBOTTOM
 10
0.0
 20
0.0
 30
0.0
  9
$UCSORGLEFT
 10
0.0
 20
0.0
 30
0.0
  9
$UCSORGRIGHT
 10
0.0
 20
0.0
 30
0.0
  9
$UCSORGFRONT
 10
0.0
 20
0.0
 30
0.0
  9
$UCSORGBACK
 10
0.0
 20
0.0
 30
0.0
  9
$PUCSBASE
  2

  9
$PUCSNAME
  2

  9
$PUCSORG
 10
0.0
 20
0.0
 30
0.0
  9
$PUCSXDIR
 10
1.0
 20
0.0
 30
0.0
  9
$PUCSYDIR
 10
0.0
 20
1.0
 30
0.0
  9
$PUCSORTHOREF
  2

  9
$PUCSORTHOVIEW
 70
     0
  9
$PUCSORGTOP
 10
0.0
 20
0.0
 30
0.0
  9
$PUCSORGBOTTOM
 10
0.0
 20
0.0
 30
0.0
  9
$PUCSORGLEFT
 10
0.0
 20
0.0
 30
0.0
  9
$PUCSORGRIGHT
 10
0.0
 20
0.0
 30
0.0
  9
$PUCSORGFRONT
 10
0.0
 20
0.0
 30
0.0
  9
$PUCSORGBACK
 10
0.0
 20
0.0
 30
0.0
  9
$USERI1
 70
     0
  9
$USERI2
 70
     0
  9
$USERI3
 70
     0
  9
$USERI4
 70
     0
  9
$USERI5
 70
     0
  9
$USERR1
 40
0.0
  9
$USERR2
 40
0.0
  9
$USERR3
 40
0.0
  9
$USERR4
 40
0.0
  9
$USERR5
 40
0.0
  9
$WORLDVIEW
 70
     1
  9
$SHADEDGE
 70
     3
  9
$SHADEDIF
 70
    70
  9
$TILEMODE
 70
     1
  9
$MAXACTVP
 70
    64
  9
$PINSBASE
 10
0.0
 20
0.0
 30
0.0
  9
$PLIMCHECK
 70
     0
  9
$PEXTMIN
 10
1.0000000000E+20
 20
1.0000000000E+20
 30
1.0000000000E+20
  9
$PEXTMAX
 10
-1.0000000000E+20
 20
-1.0000000000E+20
 30
-1.0000000000E+20
  9
$PLIMMIN
 10
0.0
 20
0.0
  9
$PLIMMAX
 10
420.0
 20
297.0
  9
$UNITMODE
 70
     0
  9
$VISRETAIN
 70
     1
  9
$PLINEGEN
 70
     0
  9
$PSLTSCALE
 70
     1
  9
$TREEDEPTH
 70
  3020
  9
$CMLSTYLE
  2
Standard
  9
$CMLJUST
 70
     0
  9
$CMLSCALE
 40
20.0
  9
$PROXYGRAPHICS
 70
     1
  9
$MEASUREMENT
 70
     1
  9
$CELWEIGHT
370
    -1
  9
$ENDCAPS
280
     0
  9
$JOINSTYLE
280
     0
  9
$LWDISPLAY
290
     1
  9
$INSUNITS
 70
     4
  9
$HYPERLINKBASE
  1

  9
$STYLESHEET
  1

  9
$XEDIT
290
     1
  9
$CEPSNTYPE
380
     0
  9
$PSTYLEMODE
290
     1
  9
$FINGERPRINTGUID
  2
{f6af4100-6d30-446c-b610-0f6073ce3666}
  9
$VERSIONGUID
  2
{FAEB1C32-E019-11D5-929B-00C0DF256EC4}
  9
$EXTNAMES
290
     1
  9
$PSVPSCALE
 40
0.0
  9
$OLESTARTUP
290
     0
  0
ENDSEC
  0
SECTION
  2
CLASSES
  0
CLASS
  1
ACDBDICTIONARYWDFLT
  2
AcDbDictionaryWithDefault
  3
ObjectDBX Classes
 90
        0
280
     0
281
     0
  0
CLASS
  1
VISUALSTYLE
  2
AcDbVisualStyle
  3
ObjectDBX Classes
 90
     4095
280
     0
281
     0
  0
CLASS
  1
MATERIAL
  2
AcDbMaterial
  3
ObjectDBX Classes
 90
     1153
280
     0
281
     0
  0
CLASS
  1
SCALE
  2
AcDbScale
  3
ObjectDBX Classes
 90
     1153
280
     0
281
     0
  0
CLASS
  1
TABLESTYLE
  2
AcDbTableStyle
  3
ObjectDBX Classes
 90
     4095
280
     0
281
     0
  0
CLASS
  1
MLEADERSTYLE
  2
AcDbMLeaderStyle
  3
ACDB_MLEADERSTYLE_CLASS
 90
     4095
280
     0
281
     0
  0
CLASS
  1
SUN
  2
AcDbSun
  3
SCENEOE
 90
     1153
280
     0
281
     0
  0
CLASS
  1
ACDBPLACEHOLDER
  2
AcDbPlaceHolder
  3
ObjectDBX Classes
 90
        0
280
     0
281
     0
  0
CLASS
  1
LAYOUT
  2
AcDbLayout
  3
ObjectDBX Classes
 90
        0
280
     0
281
     0
  0
ENDSEC
  0
SECTION
  2
TABLES
  0
TABLE
  2
VPORT
  5
8
330
0
100
AcDbSymbolTable
 70
     1
  0
VPORT
  5
29
330
8
100
AcDbSymbolTableRecord
100
AcDbViewportTableRecord
  2
*Active
 70
     0
 10
0.0
 20
0.0
 11
1.0
 21
1.0
 12
139.7
 22
107.95
 13
0.0
 23
0.0
 14
10.0
 24
10.0
 15
10.0
 25
10.0
 16
0.0
 26
0.0
 36
1.0
 17
0.0
 27
0.0
 37
0.0
 40
215.9
 41
1.2941176471
 42
50.0
 43
0.0
 44
0.0
 50
0.0
 51
0.0
 71
     0
 72
  2000
 73
     1
 74
     3
 75
     0
 76
     0
 77
     0
 78
     0
281
     0
 65
     1
110
0.0
120
0.0
130
0.0
111
1.0
121
0.0
131
0.0
112
0.0
122
1.0
132
0.0
 79
     0
146
0.0
  0
ENDTAB
  0
TABLE
  2
LTYPE
  5
5
330
0
100
AcDbSymbolTable
 70
     6
  0
LTYPE
  5
14
330
5
100
AcDbSymbolTableRecord
100
AcDbLinetypeTableRecord
  2
ByBlock
 70
     0
  3

 72
    65
 73
     0
 40
0.0
  0
LTYPE
  5
15
330
5
100
AcDbSymbolTableRecord
100
AcDbLinetypeTableRecord
  2
ByLayer
 70
     0
  3

 72
    65
 73
     0
 40
0.0
  0
LTYPE
  5
16
330
5
100
AcDbSymbolTableRecord
100
AcDbLinetypeTableRecord
  2
Continuous
 70
     0
  3
Solid line
 72
    65
 73
     0
 40
0.0
  0
LTYPE
  5
6E
330
5
100
AcDbSymbolTableRecord
100
AcDbLinetypeTableRecord
  2
HIDDEN
 70
     0
  3
Hidden __ __ __ __ __ __ __ __ __ __ __ __ __ __
 72
    65
 73
     2
 40
1.905
 49
1.27
 74
     0
 49
-0.635
 74
     0
  0
LTYPE
  5
6F
330
5
100
AcDbSymbolTableRecord
100
AcDbLinetypeTableRecord
  2
PHANTOM
 70
     0
  3
Phantom ______  __  __  ______  __  __  ______
 72
    65
 73
     6
 40
12.7
 49
6.35
 74
     0
 49
-1.27
 74
     0
 49
1.27
 74
     0
 49
-1.27
 74
     0
 49
1.27
 74
     0
 49
-1.27
 74
     0
  0
LTYPE
  5
70
330
5
100
AcDbSymbolTableRecord
100
AcDbLinetypeTableRecord
  2
CENTER
 70
     0
  3
Center ____ _ ____ _ ____ _ ____ _ ____ _ ____
 72
    65
 73
     4
 40
10.16
 49
6.35
 74
     0
 49
-1.27
 74
     0
 49
1.27
 74
     0
 49
-1.27
 74
     0
  0
LTYPE
  5
71
330
5
100
AcDbSymbolTableRecord
100
AcDbLinetypeTableRecord
  2
CENTERX2
 70
     0
  3
Center (2x) ________  __  ________  __  _____
 72
    65
 73
     4
 40
20.32
 49
12.7
 74
     0
 49
-2.54
 74
     0
 49
2.54
 74
     0
 49
-2.54
 74
     0
  0
LTYPE
  5
72
330
5
100
AcDbSymbolTableRecord
100
AcDbLinetypeTableRecord
  2
DOT2
 70
     0
  3
Dot (.5x) ........................................
 72
    65
 73
     2
 40
0.635
 49
0.0
 74
     0
 49
-0.635
 74
     0
  0
ENDTAB
  0
TABLE
  2
LAYER
  5
2
330
0
100
AcDbSymbolTable
 70
     4
  0
LAYER
  5
10
330
2
100
AcDbSymbolTableRecord
100
AcDbLayerTableRecord
  2
0
 70
     0
 62
     7
  6
Continuous
370
    -3
390
F
  0
LAYER
  5
73
330
2
100
AcDbSymbolTableRecord
100
AcDbLayerTableRecord
  2
FORMAT
 70
     0
 62
     7
  6
Continuous
370
    -3
390
F
  0
LAYER
  5
74
330
2
100
AcDbSymbolTableRecord
100
AcDbLayerTableRecord
  2
OUT_LINE
 70
     0
 62
     7
  6
Continuous
370
    50
390
F
  0
LAYER
  5
75
330
2
100
AcDbSymbolTableRecord
100
AcDbLayerTableRecord
  2
WATERMARK
 70
     0
 62
   254
  6
Continuous
370
    -3
390
F
  0
ENDTAB
  0
TABLE
  2
STYLE
  5
3
330
0
100
AcDbSymbolTable
 70
     1
  0
STYLE
  5
11
330
3
100
AcDbSymbolTableRecord
100
AcDbTextStyleTableRecord
  2
Standard
 70
     0
 40
0.0
 41
1.0
 50
0.0
 71
     0
 42
3.5277777778
  3
txt
  4

  0
ENDTAB
  0
TABLE
  2
VIEW
  5
6
330
0
100
AcDbSymbolTable
 70
     0
  0
ENDTAB
  0
TABLE
  2
UCS
  5
7
330
0
100
AcDbSymbolTable
 70
     0
  0
ENDTAB
  0
TABLE
  2
APPID
  5
9
330
0
100
AcDbSymbolTable
 70
     1
  0
APPID
  5
12
330
9
100
AcDbSymbolTableRecord
100
AcDbRegAppTableRecord
  2
ACAD
 70
     0
  0
ENDTAB
  0
TABLE
  2
DIMSTYLE
  5
A
330
0
100
AcDbSymbolTable
 70
     1
100
AcDbDimStyleTable
  0
DIMSTYLE
105
27
330
A
100
AcDbSymbolTableRecord
100
AcDbDimStyleTableRecord
  2
ISO-25
 70
     0
 41
2.5
 42
0.625
 43
3.75
 44
1.25
 73
     0
 74
     0
 77
     1
 78
     8
140
2.5
141
2.5
143
0.0393700787
147
0.625
171
     3
172
     1
178
     0
271
     2
272
     2
274
     3
278
    44
283
     0
284
     8
340
11
  0
ENDTAB
  0
TABLE
  2
BLOCK_RECORD
  5
1
330
0
100
AcDbSymbolTable
 70
     7
  0
BLOCK_RECORD
  5
1F
330
1
100
AcDbSymbolTableRecord
100
AcDbBlockTableRecord
  2
*Model_Space
340
22
  0
BLOCK_RECORD
  5
1B
330
1
100
AcDbSymbolTableRecord
100
AcDbBlockTableRecord
  2
*Paper_Space
340
1E
  0
BLOCK_RECORD
  5
23
330
1
100
AcDbSymbolTableRecord
100
AcDbBlockTableRecord
  2
*Paper_Space0
340
26
  0
BLOCK_RECORD
  5
76
330
1
100
AcDbSymbolTableRecord
100
AcDbBlockTableRecord
  2
Block6
340
0
  0
BLOCK_RECORD
  5
7B
330
1
100
AcDbSymbolTableRecord
100
AcDbBlockTableRecord
  2
Block4
340
0
  0
BLOCK_RECORD
  5
7F
330
1
100
AcDbSymbolTableRecord
100
AcDbBlockTableRecord
  2
Block5
340
0
  0
BLOCK_RECORD
  5
8D
330
1
100
AcDbSymbolTableRecord
100
AcDbBlockTableRecord
  2
Block2
340
0
  0
BLOCK_RECORD
  5
98
330
1
100
AcDbSymbolTableRecord
100
AcDbBlockTableRecord
  2
Block3
340
0
  0
BLOCK_RECORD
  5
A5
330
1
100
AcDbSymbolTableRecord
100
AcDbBlockTableRecord
  2
Block7
340
0
  0
ENDTAB
  0
ENDSEC
  0
SECTION
  2
BLOCKS
  0
BLOCK
  5
20
330
1F
100
AcDbEntity
  8
0
100
AcDbBlockBegin
  2
*Model_Space
 70
     0
 10
0.0
 20
0.0
 30
0.0
  3
*Model_Space
  1

  0
ENDBLK
  5
21
330
1F
100
AcDbEntity
  8
0
100
AcDbBlockEnd
  0
BLOCK
  5
1C
330
1B
100
AcDbEntity
 67
     1
  8
0
100
AcDbBlockBegin
  2
*Paper_Space
 70
     0
 10
0.0
 20
0.0
 30
0.0
  3
*Paper_Space
  1

  0
ENDBLK
  5
1D
330
1B
100
AcDbEntity
 67
     1
  8
0
100
AcDbBlockEnd
  0
BLOCK
  5
24
330
23
100
AcDbEntity
  8
0
100
AcDbBlockBegin
  2
*Paper_Space0
 70
     0
 10
0.0
 20
0.0
 30
0.0
  3
*Paper_Space0
  1

  0
ENDBLK
  5
25
330
23
100
AcDbEntity
  8
0
100
AcDbBlockEnd
  0
BLOCK
  5
77
330
76
100
AcDbEntity
  8
0
100
AcDbBlockBegin
  2
Block6
 70
     0
 10
0.0
 20
0.0
 30
0.0
  3
Block6
  1

  0
LINE
  5
79
330
76
100
AcDbEntity
  8
FORMAT
100
AcDbLine
 10
253.5616893058
 20
55.3714964458
 30
0.0
 11
250.6928867464
 21
53.8486167051
 31
0.0
  0
LINE
  5
7A
330
76
100
AcDbEntity
  8
FORMAT
100
AcDbLine
 10
250.6928867464
 20
53.8486167051
 30
0.0
 11
253.5616893058
 21
53.8486167051
 31
0.0
  0
ENDBLK
  5
78
330
76
100
AcDbEntity
  8
0
100
AcDbBlockEnd
  0
BLOCK
  5
7C
330
7B
100
AcDbEntity
  8
0
100
AcDbBlockBegin
  2
Block4
 70
     0
 10
0.0
 20
0.0
 30
0.0
  3
Block4
  1

  0
LINE
  5
7E
330
7B
100
AcDbEntity
  8
FORMAT
100
AcDbLine
 10
250.0093082872
 20
64.7263291389
 30
0.0
 11
290.0093082872
 21
64.7263291389
 31
0.0
  0
ENDBLK
  5
7D
330
7B
100
AcDbEntity
  8
0
100
AcDbBlockEnd
  0
BLOCK
  5
80
330
7F
100
AcDbEntity
  8
0
100
AcDbBlockBegin
  2
Block5
 70
     0
 10
0.0
 20
0.0
 30
0.0
  3
Block5
  1

  0
LINE
  5
82
330
7F
100
AcDbEntity
  8
FORMAT
100
AcDbLine
 10
251.0883122991
 20
64.4632252413
 30
0.0
 11
250.3611798328
 21
64.9733337839
 31
0.0
  0
LINE
  5
83
330
7F
100
AcDbEntity
  8
FORMAT
100
AcDbLine
 10
250.3611798328
 20
64.9733337839
 30
0.0
 11
251.0883122991
 21
65.4834423266
 31
0.0
  0
LINE
  5
84
330
7F
100
AcDbEntity
  8
FORMAT
100
AcDbLine
 10
250.3611798328
 20
65.6106440044
 30
0.0
 11
250.3611798328
 21
64.3360235634
 31
0.0
  0
LINE
  5
85
330
7F
100
AcDbEntity
  8
FORMAT
100
AcDbLine
 10
251.0883122991
 20
65.4834423266
 30
0.0
 11
251.0883122991
 21
64.4632252413
 31
0.0
  0
LINE
  5
86
330
7F
100
AcDbEntity
  8
FORMAT
  6
Continuous
 62
     7
370
    18
100
AcDbLine
 10
254.0738326611
 20
65.4834423266
 30
0.0
 11
254.0738326611
 21
64.4632252413
 31
0.0
  0
LINE
  5
87
330
7F
100
AcDbEntity
  8
FORMAT
100
AcDbLine
 10
251.0883122991
 20
64.9733337839
 30
0.0
 11
254.0738326611
 21
64.9733337839
 31
0.0
  0
LINE
  5
88
330
7F
100
AcDbEntity
  8
FORMAT
100
AcDbLine
 10
254.0738326611
 20
64.9733337839
 30
0.0
 11
254.0738326611
 21
64.4632252413
 31
0.0
  0
LINE
  5
89
330
7F
100
AcDbEntity
  8
FORMAT
  6
Continuous
 62
     7
370
    18
100
AcDbLine
 10
254.0738326611
 20
64.4632252413
 30
0.0
 11
254.8009651274
 21
64.9733337839
 31
0.0
  0
LINE
  5
8A
330
7F
100
AcDbEntity
  8
FORMAT
  6
Continuous
 62
     7
370
    18
100
AcDbLine
 10
254.8009651274
 20
64.9733337839
 30
0.0
 11
254.0738326611
 21
65.4834423266
 31
0.0
  0
LINE
  5
8B
330
7F
100
AcDbEntity
  8
FORMAT
100
AcDbLine
 10
254.0738326611
 20
65.4834423266
 30
0.0
 11
254.0738326611
 21
64.9733337839
 31
0.0
  0
LINE
  5
8C
330
7F
100
AcDbEntity
  8
FORMAT
100
AcDbLine
 10
254.8009651274
 20
65.6106440044
 30
0.0
 11
254.8009651274
 21
64.3360235634
 31
0.0
  0
ENDBLK
  5
81
330
7F
100
AcDbEntity
  8
0
100
AcDbBlockEnd
  0
BLOCK
  5
8E
330
8D
100
AcDbEntity
  8
0
100
AcDbBlockBegin
  2
Block2
 70
     0
 10
0.0
 20
0.0
 30
0.0
  3
Block2
  1

  0
CIRCLE
  5
90
330
8D
100
AcDbEntity
  8
FORMAT
100
AcDbCircle
 10
48.741006851
 20
68.2700462855
 30
0.0
 40
7.000000000000013
  0
CIRCLE
  5
91
330
8D
100
AcDbEntity
  8
FORMAT
100
AcDbCircle
 10
48.741006851
 20
68.2700462855
 30
0.0
 40
3.32888862482043
  0
LINE
  5
92
330
8D
100
AcDbEntity
  8
FORMAT
100
AcDbLine
 10
60.4734604481
 20
71.6747664277
 30
0.0
 11
76.4734604481
 21
75.1747664277
 31
0.0
  0
LINE
  5
93
330
8D
100
AcDbEntity
  8
FORMAT
100
AcDbLine
 10
76.4734604481
 20
75.1747664277
 30
0.0
 11
76.4734604481
 21
61.3653261433
 31
0.0
  0
LINE
  5
94
330
8D
100
AcDbEntity
  8
FORMAT
100
AcDbLine
 10
76.4734604481
 20
61.3653261433
 30
0.0
 11
60.4734604481
 21
64.8653261433
 31
0.0
  0
LINE
  5
95
330
8D
100
AcDbEntity
  8
FORMAT
100
AcDbLine
 10
60.4734604481
 20
64.8653261433
 30
0.0
 11
60.4734604481
 21
71.6747664277
 31
0.0
  0
LINE
  5
96
330
8D
100
AcDbEntity
  8
FORMAT
  6
CENTERX2
100
AcDbLine
 10
76.4734604481
 20
68.2700462855
 30
0.0
 11
39.8388877958
 21
68.2700462855
 31
0.0
  0
LINE
  5
97
330
8D
100
AcDbEntity
  8
FORMAT
100
AcDbLine
 10
48.741006851
 20
76.8424572275
 30
0.0
 11
48.741006851
 21
59.6976353435
 31
0.0
  0
ENDBLK
  5
8F
330
8D
100
AcDbEntity
  8
0
100
AcDbBlockEnd
  0
BLOCK
  5
99
330
98
100
AcDbEntity
  8
0
100
AcDbBlockBegin
  2
Block3
 70
     0
 10
0.0
 20
0.0
 30
0.0
  3
Block3
  1

  0
ARC
  5
9B
330
98
100
AcDbEntity
  8
FORMAT
100
AcDbCircle
 10
253.5616893058
 20
61.9516976285
 30
0.0
 40
0.5251511718353873
100
AcDbArc
 50
349.3356822367
 51
90.0
  0
LINE
  5
9C
330
98
100
AcDbEntity
  8
FORMAT
100
AcDbLine
 10
250.6928867464
 20
62.4768488003
 30
0.0
 11
250.6928867464
 21
61.2321831396
 31
0.0
  0
LINE
  5
9D
330
98
100
AcDbEntity
  8
FORMAT
100
AcDbLine
 10
250.6928867464
 20
61.2321831396
 30
0.0
 11
251.7250485138
 21
61.2321831396
 31
0.0
  0
LINE
  5
9E
330
98
100
AcDbEntity
  8
FORMAT
100
AcDbLine
 10
251.7250485138
 20
61.2321831396
 30
0.0
 11
251.7250485138
 21
61.85451597
 31
0.0
  0
LINE
  5
9F
330
98
100
AcDbEntity
  8
FORMAT
100
AcDbLine
 10
251.7250485138
 20
61.85451597
 30
0.0
 11
251.2089676301
 21
62.4768488003
 31
0.0
  0
LINE
  5
A0
330
98
100
AcDbEntity
  8
FORMAT
100
AcDbLine
 10
251.2089676301
 20
62.4768488003
 30
0.0
 11
250.6928867464
 21
62.4768488003
 31
0.0
  0
LINE
  5
A1
330
98
100
AcDbEntity
  8
0
  6
Continuous
 62
     7
370
    18
100
AcDbLine
 10
253.0456084221
 20
61.2321831396
 30
0.0
 11
254.0777701895
 21
61.2321831396
 31
0.0
  0
LINE
  5
A2
330
98
100
AcDbEntity
  8
0
  6
Continuous
 62
     7
370
    18
100
AcDbLine
 10
254.0777701895
 20
61.2321831396
 30
0.0
 11
254.0777701895
 21
61.85451597
 31
0.0
  0
LINE
  5
A3
330
98
100
AcDbEntity
  8
0
  6
Continuous
 62
     7
370
    18
100
AcDbLine
 10
253.0456084221
 20
62.4768488003
 30
0.0
 11
253.0456084221
 21
61.2321831396
 31
0.0
  0
LINE
  5
A4
330
98
100
AcDbEntity
  8
0
  6
Continuous
 62
     7
370
    18
100
AcDbLine
 10
253.5616893058
 20
62.4768488003
 30
0.0
 11
253.0456084221
 21
62.4768488003
 31
0.0
  0
ENDBLK
  5
9A
330
98
100
AcDbEntity
  8
0
100
AcDbBlockEnd
  0
BLOCK
  5
A6
330
A5
100
AcDbEntity
  8
0
100
AcDbBlockBegin
  2
Block7
 70
     0
 10
0.0
 20
0.0
 30
0.0
  3
Block7
  1

  0
LINE
  5
A8
330
A5
100
AcDbEntity
  8
FORMAT
100
AcDbLine
 10
221.8284763776
 20
80.2705155621
 30
0.0
 11
222.3963943455
 21
79.286852787
 31
0.0
  0
LINE
  5
A9
330
A5
100
AcDbEntity
  8
FORMAT
100
AcDbLine
 10
222.3963943455
 20
79.286852787
 30
0.0
 11
222.9643123135
 21
80.2705155621
 31
0.0
  0
LINE
  5
AA
330
A5
100
AcDbEntity
  8
FORMAT
100
AcDbLine
 10
221.8284763776
 20
80.2705155621
 30
0.0
 11
222.9643123135
 21
80.2705155621
 31
0.0
  0
LINE
  5
AB
330
A5
100
AcDbEntity
  8
FORMAT
100
AcDbLine
 10
222.9643123135
 20
80.2705155621
 30
0.0
 11
223.3725273771
 21
80.9775647926
 31
0.0
  0
LINE
  5
AC
330
A5
100
AcDbEntity
  8
FORMAT
100
AcDbLine
 10
223.3725273771
 20
80.9775647926
 30
0.0
 11
224.1023154201
 21
80.9775647926
 31
0.0
  0
ENDBLK
  5
A7
330
A5
100
AcDbEntity
  8
0
100
AcDbBlockEnd
  0
ENDSEC
  0
SECTION
  2
ENTITIES
  0
LINE
  5
AD
330
1F
100
AcDbEntity
  8
0
  6
Continuous
 62
     7
370
    25
100
AcDbLine
 10
131.5147532662
 20
40.7069649617
 30
0.0
 11
131.5147532662
 21
170.3793512751
 31
0.0
  0
LINE
  5
AE
330
1F
100
AcDbEntity
  8
0
  6
Continuous
 62
     7
370
    25
100
AcDbLine
 10
114.3147532662
 20
170.3793512751
 30
0.0
 11
114.3147532662
 21
40.7069649617
 31
0.0
  0
LINE
  5
AF
330
1F
100
AcDbEntity
  8
0
  6
Continuous
 62
     7
370
    25
100
AcDbLine
 10
114.3147532662
 20
40.7069649617
 30
0.0
 11
114.3147532662
 21
34.3541091608
 31
0.0
  0
LINE
  5
B0
330
1F
100
AcDbEntity
  8
0
  6
Continuous
 62
     7
370
    25
100
AcDbLine
 10
131.5147532662
 20
34.3541312713
 30
0.0
 11
131.5147532662
 21
40.7069649617
 31
0.0
  0
LINE
  5
B1
330
1F
100
AcDbEntity
  8
0
  6
Continuous
 62
     7
370
    25
100
AcDbLine
 10
132.5147532662
 20
30.3826782474
 30
0.0
 11
132.5147532662
 21
33.9806709433
 31
0.0
  0
LINE
  5
B2
330
1F
100
AcDbEntity
  8
0
  6
Continuous
 62
     7
370
    25
100
AcDbLine
 10
113.3147532662
 20
33.9806709433
 30
0.0
 11
113.3147532662
 21
30.3826782474
 31
0.0
  0
LINE
  5
B3
330
1F
100
AcDbEntity
  8
0
  6
Continuous
 62
     7
370
    25
100
AcDbLine
 10
131.9689907655
 20
154.2293512751
 30
0.0
 11
154.3147532662
 21
154.2293512751
 31
0.0
  0
LINE
  5
B4
330
1F
100
AcDbEntity
  8
0
  6
Continuous
 62
     7
370
    25
100
AcDbLine
 10
154.3147532662
 20
186.5293512751
 30
0.0
 11
131.9683728069
 21
186.5293512751
 31
0.0
  0
SPLINE
  5
B5
330
1F
100
AcDbEntity
  8
0
  6
Continuous
 62
     7
370
    25
100
AcDbSpline
210
0.0
220
0.0
230
1.0
 70
     8
 71
     3
 72
     9
 73
     5
 74
     0
 42
0.00000001
 43
0.00000001
 40
0.0
 40
0.0
 40
0.0
 40
0.0
 40
0.4999959636797705
 40
1.0
 40
1.0
 40
1.0
 40
1.0
 10
157.2560125995093
 20
156.6468028956986
 30
0.0
 10
157.3341978395204
 20
156.5114367943247
 30
0.0
 10
157.4905695818754
 20
156.2407024060355
 30
0.0
 10
157.6469374525944
 20
155.9699657180877
 30
0.0
 10
157.7251220191047
 20
155.8345962813339
 30
0.0
  0
SPLINE
  5
B6
330
1F
100
AcDbEntity
  8
0
  6
Continuous
 62
     7
370
    25
100
AcDbSpline
210
0.0
220
0.0
230
1.0
 70
     8
 71
     3
 72
     9
 73
     5
 74
     0
 42
0.00000001
 43
0.00000001
 40
0.0
 40
0.0
 40
0.0
 40
0.0
 40
0.5000040363202373
 40
1.0
 40
1.0
 40
1.0
 40
1.0
 10
158.4751220191047
 20
184.9241062687663
 30
0.0
 10
158.3969374525944
 20
184.7887368320124
 30
0.0
 10
158.2405695818754
 20
184.5180001440647
 30
0.0
 10
158.0841978395204
 20
184.2472657557754
 30
0.0
 10
158.0060125995093
 20
184.1118996544015
 30
0.0
  0
SPLINE
  5
B7
330
1F
100
AcDbEntity
  8
0
  6
Continuous
 62
     7
370
    25
100
AcDbSpline
210
0.0
220
0.0
230
1.0
 70
     8
 71
     3
 72
     9
 73
     5
 74
     0
 42
0.00000001
 43
0.00000001
 40
0.0
 40
0.0
 40
0.0
 40
0.0
 40
0.5000040363202373
 40
1.0
 40
1.0
 40
1.0
 40
1.0
 10
156.9751220191047
 20
184.9241062687663
 30
0.0
 10
156.8969374525944
 20
184.7887368320124
 30
0.0
 10
156.7405695818754
 20
184.5180001440647
 30
0.0
 10
156.5841978395204
 20
184.2472657557754
 30
0.0
 10
156.5060125995092
 20
184.1118996544015
 30
0.0
  0
LINE
  5
B8
330
1F
100
AcDbEntity
  8
0
  6
Continuous
 62
     7
370
    25
100
AcDbLine
 10
156.2313519982
 20
155.8293512751
 30
0.0
 11
156.4188520023
 21
155.8293512751
 31
0.0
  0
LINE
  5
B9
330
1F
100
AcDbEntity
  8
0
  6
Continuous
 62
     7
370
    25
100
AcDbLine
 10
154.3147532662
 20
155.8293512751
 30
0.0
 11
154.9188520023
 21
155.8293512751
 31
0.0
  0
LINE
  5
BA
330
1F
100
AcDbEntity
  8
0
  6
Continuous
 62
     7
370
    25
100
AcDbLine
 10
155.6688520023
 20
184.9293512751
 30
0.0
 11
154.3147532662
 21
184.9293512751
 31
0.0
  0
LINE
  5
BB
330
1F
100
AcDbEntity
  8
0
  6
Continuous
 62
     7
370
    25
100
AcDbLine
 10
157.1688520023
 20
184.9293512751
 30
0.0
 11
156.9813519982
 21
184.9293512751
 31
0.0
  0
SPLINE
  5
BC
330
1F
100
AcDbEntity
  8
0
  6
Continuous
 62
     7
370
    25
100
AcDbSpline
210
0.0
220
0.0
230
1.0
 70
     8
 71
     3
 72
     9
 73
     5
 74
     0
 42
0.00000001
 43
0.00000001
 40
0.0
 40
0.0
 40
0.0
 40
0.0
 40
0.5000041622386956
 40
1.0
 40
1.0
 40
1.0
 40
1.0
 10
157.9248864175392
 20
155.834624830041
 30
0.0
 10
158.0030726944753
 20
155.9699958147149
 30
0.0
 10
158.1594439466386
 20
156.2407355302961
 30
0.0
 10
158.3158191837672
 20
156.5114730935901
 30
0.0
 10
158.3940061514604
 20
156.6468407483627
 30
0.0
  0
SPLINE
  5
BD
330
1F
100
AcDbEntity
  8
0
  6
Continuous
 62
     7
370
    25
100
AcDbSpline
210
0.0
220
0.0
230
1.0
 70
     8
 71
     3
 72
     9
 73
     5
 74
     0
 42
0.00000001
 43
0.00000001
 40
0.0
 40
0.0
 40
0.0
 40
0.0
 40
0.5000041622386969
 40
1.0
 40
1.0
 40
1.0
 40
1.0
 10
156.4248864175392
 20
155.834624830041
 30
0.0
 10
156.5030726944753
 20
155.9699958147149
 30
0.0
 10
156.6594439466386
 20
156.2407355302961
 30
0.0
 10
156.8158191837672
 20
156.5114730935901
 30
0.0
 10
156.8940061514604
 20
156.6468407483627
 30
0.0
  0
SPLINE
  5
BE
330
1F
100
AcDbEntity
  8
0
  6
Continuous
 62
     7
370
    25
100
AcDbSpline
210
0.0
220
0.0
230
1.0
 70
     8
 71
     3
 72
     9
 73
     5
 74
     0
 42
0.00000001
 43
0.00000001
 40
0.0
 40
0.0
 40
0.0
 40
0.0
 40
0.5034696567447359
 40
0.9999999999999999
 40
0.9999999999999999
 40
0.9999999999999999
 40
0.9999999999999999
 10
154.9248864175392
 20
155.834624830041
 30
0.0
 10
155.0030726921736
 20
155.969995815958
 30
0.0
 10
155.1583676013842
 20
156.2388719718565
 30
0.0
 10
155.3136664681307
 20
156.5077459902824
 30
0.0
 10
155.3907770677435
 20
156.6412500989439
 30
0.0
  0
LINE
  5
BF
330
1F
100
AcDbEntity
  8
0
  6
Continuous
 62
     7
370
    25
100
AcDbLine
 10
158.8557750967
 20
184.6108905072
 30
0.0
 11
158.6748864175
 21
184.9240777201
 31
0.0
  0
SPLINE
  5
C0
330
1F
100
AcDbEntity
  8
0
  6
Continuous
 62
     7
370
    25
100
AcDbSpline
210
0.0
220
0.0
230
1.0
 70
     8
 71
     3
 72
     9
 73
     5
 74
     0
 42
0.00000001
 43
0.00000001
 40
0.0
 40
0.0
 40
0.0
 40
0.0
 40
0.499995837761309
 40
1.0
 40
1.0
 40
1.0
 40
1.0
 10
157.6440061514604
 20
184.1118618017374
 30
0.0
 10
157.5658191837672
 20
184.2472294565101
 30
0.0
 10
157.4094439466386
 20
184.517967019804
 30
0.0
 10
157.2530726944753
 20
184.7887067353852
 30
0.0
 10
157.1748864175392
 20
184.9240777200591
 30
0.0
  0
SPLINE
  5
C1
330
1F
100
AcDbEntity
  8
0
  6
Continuous
 62
     7
370
    25
100
AcDbSpline
210
0.0
220
0.0
230
1.0
 70
     8
 71
     3
 72
     9
 73
     5
 74
     0
 42
0.00000001
 43
0.00000001
 40
0.0
 40
0.0
 40
0.0
 40
0.0
 40
0.4999958377613053
 40
1.0
 40
1.0
 40
1.0
 40
1.0
 10
156.1440061514604
 20
184.1118618017374
 30
0.0
 10
156.0658191837672
 20
184.2472294565101
 30
0.0
 10
155.9094439466386
 20
184.517967019804
 30
0.0
 10
155.7530726944753
 20
184.7887067353852
 30
0.0
 10
155.6748864175392
 20
184.9240777200591
 30
0.0
  0
LINE
  5
C2
330
1F
100
AcDbEntity
  8
0
  6
Continuous
 62
     7
370
    25
100
AcDbLine
 10
158.3874583068
 20
156.6412500989
 30
0.0
 11
158.7592197861
 21
156.6412500989
 31
0.0
  0
LINE
  5
C3
330
1F
100
AcDbEntity
  8
0
  6
Continuous
 62
     7
370
    25
100
AcDbLine
 10
156.8874583068
 20
156.6412500989
 30
0.0
 11
157.2592197861
 21
156.6412500989
 31
0.0
  0
LINE
  5
C4
330
1F
100
AcDbEntity
  8
0
  6
Continuous
 62
     7
370
    25
100
AcDbLine
 10
155.3874583068
 20
156.6412500989
 30
0.0
 11
155.7597114774
 21
156.6412500989
 31
0.0
  0
LINE
  5
C5
330
1F
100
AcDbEntity
  8
0
  6
Continuous
 62
     7
370
    25
100
AcDbLine
 10
158.0124583068
 20
184.1174524512
 30
0.0
 11
157.6407770677
 21
184.1174524512
 31
0.0
  0
LINE
  5
C6
330
1F
100
AcDbEntity
  8
0
  6
Continuous
 62
     7
370
    25
100
AcDbLine
 10
156.5124583068
 20
184.1174524512
 30
0.0
 11
156.1407770677
 21
184.1174524512
 31
0.0
  0
LINE
  5
C7
330
1F
100
AcDbEntity
  8
0
  6
Continuous
 62
     7
370
    25
100
AcDbLine
 10
131.5147532662
 20
154.1826606195
 30
0.0
 11
131.9709051823
 21
154.2073881675
 31
0.0
  0
SPLINE
  5
C8
330
1F
100
AcDbEntity
  8
0
  6
Continuous
 62
     7
370
    25
100
AcDbSpline
210
0.0
220
0.0
230
1.0
 70
     8
 71
     3
 72
    10
 73
     6
 74
     0
 42
0.00000001
 43
0.00000001
 40
0.0
 40
0.0
 40
0.0
 40
0.0
 40
0.2950106215958346
 40
0.7642019903223188
 40
1.0
 40
1.0
 40
1.0
 40
1.0
 10
131.9684492536578
 20
186.5556036839766
 30
0.0
 10
131.770486795335
 20
186.5520185219321
 30
0.0
 10
131.2576804975787
 20
186.5427314394697
 30
0.0
 10
130.5913798242544
 20
186.6869460662432
 30
0.0
 10
130.1583843164944
 20
186.8766901189361
 30
0.0
 10
130.0135601786325
 20
186.9401538693751
 30
0.0
  0
ARC
  5
C9
330
1F
100
AcDbEntity
  8
0
  6
Continuous
 62
     7
370
    25
100
AcDbCircle
 10
122.9147532662
 20
170.3793512751
 30
0.0
 40
18.00000000000001
100
AcDbArc
 50
66.7990677283
 51
241.4596345151
  0
ARC
  5
CA
330
1F
100
AcDbEntity
  8
0
  6
Continuous
 62
     7
370
    25
100
AcDbCircle
 10
197.0075186784
 20
170.3793512751
 30
0.0
 40
10.63
100
AcDbArc
 50
14.157651444
 51
20.4937008693
  0
ARC
  5
CB
330
1F
100
AcDbEntity
  8
0
  6
Continuous
 62
     7
370
    25
100
AcDbCircle
 10
197.0075186784
 20
170.3793512751
 30
0.0
 40
10.63
100
AcDbArc
 50
339.5062991307
 51
345.842348556
  0
SPLINE
  5
CC
330
1F
100
AcDbEntity
  8
0
  6
Continuous
 62
     7
370
    25
100
AcDbSpline
210
0.0
220
0.0
230
1.0
 70
     8
 71
     3
 72
    18
 73
    14
 74
     0
 42
0.00000001
 43
0.00000001
 40
0.0
 40
0.0
 40
0.0
 40
0.0
 40
0.1558562140192015
 40
0.3054591627168396
 40
0.4079826683847917
 40
0.4452203793828844
 40
0.4617350401234738
 40
0.4776738128964803
 40
0.5106853744392672
 40
0.5498893620094777
 40
0.6589115341800997
 40
0.8178126288519564
 40
0.9999999999999999
 40
0.9999999999999999
 40
0.9999999999999999
 40
0.9999999999999999
 10
204.9336321130959
 20
165.1768496127053
 30
0.0
 10
205.0181550145103
 20
165.4795693604226
 30
0.0
 10
205.1838095882397
 20
166.0728631296667
 30
0.0
 10
205.5585868288822
 20
167.1233089042759
 30
0.0
 10
205.8694276459292
 20
168.1568176273903
 30
0.0
 10
206.0259412223266
 20
168.9997733665484
 30
0.0
 10
206.0790053312673
 20
169.4347141151062
 30
0.0
 10
206.1145112525282
 20
169.8641775862145
 30
0.0
 10
206.1250027483643
 20
170.4457472572523
 30
0.0
 10
206.0547091442547
 20
171.452451458262
 30
0.0
 10
205.7956493864114
 20
172.705035634078
 30
0.0
 10
205.3401563834251
 20
174.1559390697879
 30
0.0
 10
205.0709878339371
 20
175.0972004048139
 30
0.0
 10
204.9272154248964
 20
175.5999612583053
 30
0.0
  0
SPLINE
  5
CD
330
1F
100
AcDbEntity
  8
0
  6
Continuous
 62
     7
370
    25
100
AcDbSpline
210
0.0
220
0.0
230
1.0
 70
     8
 71
     3
 72
     9
 73
     5
 74
     0
 42
0.00000001
 43
0.00000001
 40
0.0
 40
0.0
 40
0.0
 40
0.0
 40
0.2217253967957653
 40
1.0
 40
1.0
 40
1.0
 40
1.0
 10
194.6263395077472
 20
166.7522176257059
 30
0.0
 10
194.6203142191893
 20
166.7352280097906
 30
0.0
 10
194.5931396661386
 20
166.6586034274881
 30
0.0
 10
194.6329439250739
 20
166.5749920747728
 30
0.0
 10
194.6639225689026
 20
166.509919482415
 30
0.0
  0
LINE
  5
CE
330
1F
100
AcDbEntity
  8
0
  6
Continuous
 62
     7
370
    25
100
AcDbLine
 10
194.6639225689
 20
174.2487830677
 30
0.0
 11
194.6399521585
 21
174.0085335097
 31
0.0
  0
LINE
  5
CF
330
1F
100
AcDbEntity
  8
0
  6
Continuous
 62
     7
370
    25
100
AcDbLine
 10
194.6095593436
 20
174.0112154201
 30
0.0
 11
194.6095593436
 21
166.74748713
 31
0.0
  0
ARC
  5
D0
330
1F
100
AcDbEntity
  8
0
  6
Continuous
 62
     7
370
    25
100
AcDbCircle
 10
190.7147532662
 20
158.9074616603
 30
0.0
 40
0.5000000000000063
100
AcDbArc
 50
180.0
 51
271.0
  0
ARC
  5
D1
330
1F
100
AcDbEntity
  8
0
  6
Continuous
 62
     7
370
    25
100
AcDbCircle
 10
190.7147532662
 20
181.8512408898
 30
0.0
 40
0.5000000000000063
100
AcDbArc
 50
89.0
 51
180.0
  0
LINE
  5
D2
330
1F
100
AcDbEntity
  8
0
  6
Continuous
 62
     7
370
    25
100
AcDbLine
 10
194.7496580791
 20
182.2808875283
 30
0.0
 11
190.7234794695
 21
182.3511647374
 31
0.0
  0
LINE
  5
D3
330
1F
100
AcDbEntity
  8
0
  6
Continuous
 62
     7
370
    25
100
AcDbLine
 10
190.7234794695
 20
158.4075378127
 30
0.0
 11
194.7496580791
 21
158.4778150218
 31
0.0
  0
ARC
  5
D4
330
1F
100
AcDbEntity
  8
0
  6
Continuous
 62
     7
370
    25
100
AcDbCircle
 10
194.7147532662
 20
160.4775104121
 30
0.0
 40
2.0
100
AcDbArc
 50
271.0
 51
0.0
  0
ARC
  5
D5
330
1F
100
AcDbEntity
  8
0
  6
Continuous
 62
     7
370
    25
100
AcDbCircle
 10
194.7147532662
 20
180.281192138
 30
0.0
 40
2.000000000000026
100
AcDbArc
 50
0.0
 51
89.0
  0
ARC
  5
D6
330
1F
100
AcDbEntity
  8
0
  6
Continuous
 62
     7
370
    25
100
AcDbCircle
 10
204.5647532662
 20
161.9799076208
 30
0.0
 40
0.5000000000000043
100
AcDbArc
 50
271.0
 51
0.0
  0
ARC
  5
D7
330
1F
100
AcDbEntity
  8
0
  6
Continuous
 62
     7
370
    25
100
AcDbCircle
 10
204.5647532662
 20
178.7787949293
 30
0.0
 40
0.5000000000000043
100
AcDbArc
 50
0.0
 51
89.0
  0
ARC
  5
D8
330
1F
100
AcDbEntity
  8
0
  6
Continuous
 62
     7
370
    25
100
AcDbCircle
 10
200.2647532662
 20
182.9044686371
 30
0.0
 40
3.550000000000007
100
AcDbArc
 50
241.8464790807
 51
269.0
  0
ARC
  5
D9
330
1F
100
AcDbEntity
  8
0
  6
Continuous
 62
     7
370
    25
100
AcDbCircle
 10
199.3147532662
 20
158.787796313
 30
0.0
 40
2.600000000000002
100
AcDbArc
 50
91.0
 51
120.5908421204
  0
SPLINE
  5
DA
330
1F
100
AcDbEntity
  8
0
  6
Continuous
 62
     7
370
    25
100
AcDbSpline
210
0.0
220
0.0
230
1.0
 70
     8
 71
     3
 72
    12
 73
     8
 74
     0
 42
0.00000001
 43
0.00000001
 40
0.0
 40
0.0
 40
0.0
 40
0.0
 40
0.0993572612460873
 40
0.4018116387846727
 40
0.6605402722315252
 40
0.8699317636848742
 40
1.0
 40
1.0
 40
1.0
 40
1.0
 10
198.5610546946484
 20
179.7958840885669
 30
0.0
 10
198.4454708715051
 20
179.8577049777074
 30
0.0
 10
197.9780372404673
 20
180.1077154194726
 30
0.0
 10
197.3514464104514
 20
180.4796067788781
 30
0.0
 10
196.7907122609301
 20
180.8516984003479
 30
0.0
 10
196.5097066724244
 20
181.0935389044554
 30
0.0
 10
196.4967543192969
 20
181.1090364603679
 30
0.0
 10
196.4917914633537
 20
181.114974542561
 30
0.0
  0
SPLINE
  5
DB
330
1F
100
AcDbEntity
  8
0
  6
Continuous
 62
     7
370
    25
100
AcDbSpline
210
0.0
220
0.0
230
1.0
 70
     8
 71
     3
 72
    10
 73
     6
 74
     0
 42
0.00000001
 43
0.00000001
 40
0.0
 40
0.0
 40
0.0
 40
0.0
 40
0.2438104372696905
 40
0.6657444047975211
 40
1.0
 40
1.0
 40
1.0
 40
1.0
 10
196.6939399023018
 20
160.1369938809071
 30
0.0
 10
196.7567027932374
 20
160.1900761636248
 30
0.0
 10
196.9280820169376
 20
160.335021692245
 30
0.0
 10
197.3784723974894
 20
160.6483099068792
 30
0.0
 10
197.8067344120959
 20
160.9083205122294
 30
0.0
 10
197.9960374409265
 20
161.0232520108029
 30
0.0
  0
LINE
  5
DC
330
1F
100
AcDbEntity
  8
0
  6
Continuous
 62
     7
370
    25
100
AcDbLine
 10
199.2693770095
 20
161.3874003204
 30
0.0
 11
204.5734794695
 21
161.4799837732
 31
0.0
  0
LINE
  5
DD
330
1F
100
AcDbEntity
  8
0
  6
Continuous
 62
     7
370
    25
100
AcDbLine
 10
204.5734794695
 20
179.2787187769
 30
0.0
 11
200.2027972234
 21
179.3550093193
 31
0.0
  0
LINE
  5
DE
330
1F
100
AcDbEntity
  8
0
  6
Continuous
 62
     7
370
    25
100
AcDbLine
 10
205.0647532662
 20
163.2293512751
 30
0.0
 11
206.6697582558
 21
164.4542235039
 31
0.0
  0
LINE
  5
DF
330
1F
100
AcDbEntity
  8
0
  6
Continuous
 62
     7
370
    25
100
AcDbLine
 10
206.6697582558
 20
176.3044790462
 30
0.0
 11
205.0647532662
 21
177.5293512751
 31
0.0
  0
ARC
  5
E0
330
1F
100
AcDbEntity
  8
0
  6
Continuous
 62
     7
370
    25
100
AcDbCircle
 10
206.2147532662
 20
165.0504369384
 30
0.0
 40
0.7500000000000014
100
AcDbArc
 50
307.3493490446
 51
0.0
  0
ARC
  5
E1
330
1F
100
AcDbEntity
  8
0
  6
Continuous
 62
     7
370
    25
100
AcDbCircle
 10
206.2147532662
 20
175.7082656117
 30
0.0
 40
0.7500000000000014
100
AcDbArc
 50
0.0
 51
52.6506509554
  0
LINE
  5
E2
330
1F
100
AcDbEntity
  8
0
  6
Continuous
 62
     7
370
    25
100
AcDbLine
 10
181.0952410711
 20
160.8793512751
 30
0.0
 11
182.3147532662
 21
162.1293512751
 31
0.0
  0
LINE
  5
E3
330
1F
100
AcDbEntity
  8
0
  6
Continuous
 62
     7
370
    25
100
AcDbLine
 10
182.3147532662
 20
178.6293512751
 30
0.0
 11
181.0952410711
 21
179.8793512751
 31
0.0
  0
LINE
  5
E4
330
1F
100
AcDbEntity
  8
0
  6
Continuous
 62
     7
370
    25
100
AcDbLine
 10
175.053637814
 20
160.9793512751
 30
0.0
 11
175.5198131921
 21
160.9793512751
 31
0.0
  0
SPLINE
  5
E5
330
1F
100
AcDbEntity
  8
0
  6
Continuous
 62
     7
370
    25
100
AcDbSpline
210
0.0
220
0.0
230
1.0
 70
     8
 71
     3
 72
     9
 73
     5
 74
     0
 42
0.00000001
 43
0.00000001
 40
0.0
 40
0.0
 40
0.0
 40
0.0
 40
0.5017550341705622
 40
1.0
 40
1.0
 40
1.0
 40
1.0
 10
175.4150587293851
 20
160.986963912516
 30
0.0
 10
175.488925699663
 20
161.1148357158179
 30
0.0
 10
175.6361428977922
 20
161.3696847847731
 30
0.0
 10
175.7834195354535
 20
161.6244728866306
 30
0.0
 10
175.8567993787526
 20
161.7514197757343
 30
0.0
  0
SPLINE
  5
E6
330
1F
100
AcDbEntity
  8
0
  6
Continuous
 62
     7
370
    25
100
AcDbSpline
210
0.0
220
0.0
230
1.0
 70
     8
 71
     3
 72
     9
 73
     5
 74
     0
 42
0.00000001
 43
0.00000001
 40
0.0
 40
0.0
 40
0.0
 40
0.0
 40
0.4988337438989695
 40
1.0
 40
1.0
 40
1.0
 40
1.0
 10
175.1512449395973
 20
179.0072808250733
 30
0.0
 10
175.077784032181
 20
179.1343849744993
 30
0.0
 10
174.9305187192089
 20
179.3891876035927
 30
0.0
 10
174.7832901339406
 20
179.6440223705263
 30
0.0
 10
174.7095041350706
 20
179.7717369565948
 30
0.0
  0
LINE
  5
E7
330
1F
100
AcDbEntity
  8
0
  6
Continuous
 62
     7
370
    25
100
AcDbLine
 10
174.8647532662
 20
161.2989188202
 30
0.0
 11
175.045000634
 21
160.9869686854
 31
0.0
  0
SPLINE
  5
E8
330
1F
100
AcDbEntity
  8
0
  6
Continuous
 62
     7
370
    25
100
AcDbSpline
210
0.0
220
0.0
230
1.0
 70
     8
 71
     3
 72
     9
 73
     5
 74
     0
 42
0.00000001
 43
0.00000001
 40
0.0
 40
0.0
 40
0.0
 40
0.0
 40
0.3558179474155809
 40
1.0
 40
1.0
 40
1.0
 40
1.0
 10
175.6524418956852
 20
179.6019296437017
 30
0.0
 10
175.6116875859657
 20
179.5313952862924
 30
0.0
 10
175.4971506155418
 20
179.3331636964539
 30
0.0
 10
175.3825981687997
 20
179.1349477122515
 30
0.0
 10
175.3088055385288
 20
179.007260532693
 30
0.0
  0
LINE
  5
E9
330
1F
100
AcDbEntity
  8
0
  6
Continuous
 62
     7
370
    25
100
AcDbLine
 10
176.0147532662
 20
179.2793512751
 30
0.0
 11
175.6856061619
 21
179.6084983794
 31
0.0
  0
SPLINE
  5
EA
330
1F
100
AcDbEntity
  8
0
  6
Continuous
 62
     7
370
    25
100
AcDbSpline
210
0.0
220
0.0
230
1.0
 70
     8
 71
     3
 72
     9
 73
     5
 74
     0
 42
0.00000001
 43
0.00000001
 40
0.0
 40
0.0
 40
0.0
 40
0.0
 40
0.5112090479899487
 40
1.0
 40
1.0
 40
1.0
 40
1.0
 10
175.3180751659083
 20
179.0155628259592
 30
0.0
 10
175.2888425686202
 20
179.0155585477093
 30
0.0
 10
175.2316593137404
 20
179.0155501788239
 30
0.0
 10
175.1744313582092
 20
179.0155583661705
 30
0.0
 10
175.1464588513436
 20
179.0155623680715
 30
0.0
  0
LINE
  5
EB
330
1F
100
AcDbEntity
  8
0
  6
Continuous
 62
     7
370
    25
100
AcDbLine
 10
176.0147532662
 20
162.2543512751
 30
0.0
 11
177.5147532662
 21
162.2543512751
 31
0.0
  0
LINE
  5
EC
330
1F
100
AcDbEntity
  8
0
  6
Continuous
 62
     7
370
    25
100
AcDbLine
 10
177.5147532662
 20
178.5043512751
 30
0.0
 11
176.0147532662
 21
178.5043512751
 31
0.0
  0
LINE
  5
ED
330
1F
100
AcDbEntity
  8
0
  6
Continuous
 62
     7
370
    25
100
AcDbLine
 10
132.9647532662
 20
30.1636699963
 30
0.0
 11
132.9647532662
 21
30.3670348009
 31
0.0
  0
LINE
  5
EE
330
1F
100
AcDbEntity
  8
0
  6
Continuous
 62
     7
370
    25
100
AcDbLine
 10
112.8647532662
 20
30.3670348009
 30
0.0
 11
112.8647532662
 21
30.1636699963
 31
0.0
  0
ARC
  5
EF
330
1F
100
AcDbEntity
  8
0
  6
Continuous
 62
     7
370
    25
100
AcDbCircle
 10
167.1147532662
 20
164.638362903
 30
0.0
 40
9.134011627906998
100
AcDbArc
 50
270.0
 51
328.0464183091
  0
ARC
  5
F0
330
1F
100
AcDbEntity
  8
0
  6
Continuous
 62
     7
370
    25
100
AcDbCircle
 10
167.1147532662
 20
176.1203396471
 30
0.0
 40
9.134011627907
100
AcDbArc
 50
31.9535816909
 51
90.0
  0
SPLINE
  5
F1
330
1F
100
AcDbEntity
  8
0
  6
Continuous
 62
     7
370
    25
100
AcDbSpline
210
0.0
220
0.0
230
1.0
 70
     8
 71
     3
 72
     9
 73
     5
 74
     0
 42
0.00000001
 43
0.00000001
 40
0.0
 40
0.0
 40
0.0
 40
0.0
 40
0.7843417926614978
 40
1.0
 40
1.0
 40
1.0
 40
1.0
 10
159.1052775363397
 20
185.0625716310554
 30
0.0
 10
159.0385618715511
 20
184.9470506206771
 30
0.0
 10
158.9535024428521
 20
184.7997666030982
 30
0.0
 10
158.8684416152404
 20
184.6524833469135
 30
0.0
 10
158.8500975496429
 20
184.6207205039137
 30
0.0
  0
LINE
  5
F2
330
1F
100
AcDbEntity
  8
0
  6
Continuous
 62
     7
370
    25
100
AcDbLine
 10
158.3607834253
 20
155.8857244477
 30
0.0
 11
158.4701302061
 21
155.6963868408
 31
0.0
  0
LINE
  5
F3
330
1F
100
AcDbEntity
  8
0
  6
Continuous
 62
     7
370
    25
100
AcDbLine
 10
158.4748818611
 20
155.6919590393
 30
0.0
 11
158.6336318611
 21
155.6919590393
 31
0.0
  0
LINE
  5
F4
330
1F
100
AcDbEntity
  8
0
  6
Continuous
 62
     7
370
    25
100
AcDbLine
 10
190.2147532662
 20
176.0293512751
 30
0.0
 11
182.3147532662
 21
176.0293512751
 31
0.0
  0
LINE
  5
F5
330
1F
100
AcDbEntity
  8
0
  6
Continuous
 62
     7
370
    25
100
AcDbLine
 10
182.3147532662
 20
164.7293512751
 30
0.0
 11
190.2147532662
 21
164.7293512751
 31
0.0
  0
LINE
  5
F6
330
1F
100
AcDbEntity
  8
0
  6
Continuous
 62
     7
370
    25
100
AcDbLine
 10
123.7278490149
 20
19.4369802269
 30
0.0
 11
123.7278490149
 21
18.7955989203
 31
0.0
  0
ARC
  5
F7
330
1F
100
AcDbEntity
  8
0
  6
Continuous
 62
     7
370
    25
100
AcDbCircle
 10
122.9148111478
 20
29.7746043948
 30
0.0
 40
11.00906861564084
100
AcDbArc
 50
272.6028021846
 51
274.2352436254
  0
LINE
  5
F8
330
1F
100
AcDbEntity
  8
0
  6
Continuous
 62
     7
370
    25
100
AcDbLine
 10
123.4147532662
 20
19.4182745914
 30
0.0
 11
123.4147532662
 21
18.7768932847
 31
0.0
  0
ARC
  5
F9
330
1F
100
AcDbEntity
  8
0
  6
Continuous
 62
     7
370
    25
100
AcDbCircle
 10
122.9148111478
 20
30.4159857015
 30
0.0
 40
11.00906861567189
100
AcDbArc
 50
272.6028021846
 51
274.2352436254
  0
LINE
  5
FA
330
1F
100
AcDbEntity
  8
0
  6
Continuous
 62
     7
370
    25
100
AcDbLine
 10
122.4147532662
 20
19.4182745914
 30
0.0
 11
122.9147532662
 21
19.9007600162
 31
0.0
  0
LINE
  5
FB
330
1F
100
AcDbEntity
  8
0
  6
Continuous
 62
     7
370
    25
100
AcDbLine
 10
122.9147532662
 20
19.9007600162
 30
0.0
 11
122.9147532662
 21
19.2142199692
 31
0.0
  0
LINE
  5
FC
330
1F
100
AcDbEntity
  8
0
  6
Continuous
 62
     7
370
    25
100
AcDbLine
 10
122.9147532662
 20
19.2142199692
 30
0.0
 11
122.4147532662
 21
18.7768932847
 31
0.0
  0
LINE
  5
FD
330
1F
100
AcDbEntity
  8
0
  6
Continuous
 62
     7
370
    25
100
AcDbLine
 10
122.4147532662
 20
19.4182745914
 30
0.0
 11
122.4147532662
 21
18.7768932847
 31
0.0
  0
LINE
  5
FE
330
1F
100
AcDbEntity
  8
0
  6
Continuous
 62
     7
370
    25
100
AcDbLine
 10
122.9147532662
 20
19.9007600162
 30
0.0
 11
123.4147532662
 21
19.4182745914
 31
0.0
  0
LINE
  5
FF
330
1F
100
AcDbEntity
  8
0
  6
Continuous
 62
     7
370
    25
100
AcDbLine
 10
123.4147532662
 20
18.7768932847
 30
0.0
 11
122.9147532662
 21
19.2142199692
 31
0.0
  0
ARC
  5
100
330
1F
100
AcDbEntity
  8
0
  6
Continuous
 62
     7
370
    25
100
AcDbCircle
 10
122.9146953846
 20
29.7746043948
 30
0.0
 40
11.0090686156523
100
AcDbArc
 50
265.7647563746
 51
267.3971978154
  0
LINE
  5
101
330
1F
100
AcDbEntity
  8
0
  6
Continuous
 62
     7
370
    25
100
AcDbLine
 10
122.1016575176
 20
19.4369802269
 30
0.0
 11
122.1016575176
 21
18.7955989203
 31
0.0
  0
ARC
  5
102
330
1F
100
AcDbEntity
  8
0
  6
Continuous
 62
     7
370
    25
100
AcDbCircle
 10
122.9146953847
 20
30.4159857016
 30
0.0
 40
11.00906861579204
100
AcDbArc
 50
265.7647563747
 51
267.3971978154
  0
ARC
  5
103
330
1F
100
AcDbEntity
  8
0
  6
Continuous
 62
     7
370
    25
100
AcDbCircle
 10
122.6615034737
 20
30.1496025249
 30
0.0
 40
10.62185813440008
100
AcDbArc
 50
189.6752540641
 51
191.3471322519
  0
LINE
  5
104
330
1F
100
AcDbEntity
  8
0
  6
Continuous
 62
     7
370
    25
100
AcDbLine
 10
112.6153986975
 20
28.9128550602
 30
0.0
 11
112.1907290839
 21
28.3644543785
 31
0.0
  0
LINE
  5
105
330
1F
100
AcDbEntity
  8
0
  6
Continuous
 62
     7
370
    25
100
AcDbLine
 10
112.0701924036
 20
29.3449413591
 30
0.0
 11
112.6153986975
 21
28.9128550602
 31
0.0
  0
ARC
  5
106
330
1F
100
AcDbEntity
  8
0
  6
Continuous
 62
     7
370
    25
100
AcDbCircle
 10
122.6500931364
 20
30.1480851529
 30
0.0
 40
10.61034115704291
100
AcDbArc
 50
182.6680361771
 51
184.3411240064
  0
LINE
  5
107
330
1F
100
AcDbEntity
  8
0
  6
Continuous
 62
     7
370
    25
100
AcDbLine
 10
112.5397532662
 20
30.1480265498
 30
0.0
 11
112.0512535999
 21
29.6541823795
 31
0.0
  0
LINE
  5
108
330
1F
100
AcDbEntity
  8
0
  6
Continuous
 62
     7
370
    25
100
AcDbLine
 10
112.0512535999
 20
30.6418707201
 30
0.0
 11
112.5397532662
 21
30.1480265498
 31
0.0
  0
ARC
  5
109
330
1F
100
AcDbEntity
  8
0
  6
Continuous
 62
     7
370
    25
100
AcDbCircle
 10
122.6500931364
 20
30.1479679467
 30
0.0
 40
10.61034115702392
100
AcDbArc
 50
175.6588759936
 51
177.3319638229
  0
LINE
  5
10A
330
1F
100
AcDbEntity
  8
0
  6
Continuous
 62
     7
370
    25
100
AcDbLine
 10
112.6153986975
 20
31.3831980395
 30
0.0
 11
112.0701924036
 21
30.9511117406
 31
0.0
  0
LINE
  5
10B
330
1F
100
AcDbEntity
  8
0
  6
Continuous
 62
     7
370
    25
100
AcDbLine
 10
112.1907290839
 20
31.9315987211
 30
0.0
 11
112.6153986975
 21
31.3831980395
 31
0.0
  0
ARC
  5
10C
330
1F
100
AcDbEntity
  8
0
  6
Continuous
 62
     7
370
    25
100
AcDbCircle
 10
122.6615034737
 20
30.1464505747
 30
0.0
 40
10.62185813436716
100
AcDbArc
 50
168.6528677481
 51
170.3247459359
  0
LINE
  5
10D
330
1F
100
AcDbEntity
  8
0
  6
Continuous
 62
     7
370
    25
100
AcDbLine
 10
112.8412319104
 20
32.6003579475
 30
0.0
 11
112.2472693245
 21
32.2363303112
 31
0.0
  0
LINE
  5
10E
330
1F
100
AcDbEntity
  8
0
  6
Continuous
 62
     7
370
    25
100
AcDbLine
 10
112.4865849888
 20
33.1953182236
 30
0.0
 11
112.8412319104
 21
32.6003579475
 31
0.0
  0
ARC
  5
10F
330
1F
100
AcDbEntity
  8
0
  6
Continuous
 62
     7
370
    25
100
AcDbCircle
 10
122.6831763758
 20
30.1409352099
 30
0.0
 40
10.64423466053188
100
AcDbArc
 50
161.654909332
 51
163.3244435255
  0
LINE
  5
110
330
1F
100
AcDbEntity
  8
0
  6
Continuous
 62
     7
370
    25
100
AcDbLine
 10
113.2139597484
 20
33.7817573415
 30
0.0
 11
112.5799021823
 21
33.4910967105
 31
0.0
  0
LINE
  5
111
330
1F
100
AcDbEntity
  8
0
  6
Continuous
 62
     7
370
    25
100
AcDbLine
 10
112.9345070693
 20
34.4146013516
 30
0.0
 11
113.2139597484
 21
33.7817573415
 31
0.0
  0
ARC
  5
112
330
1F
100
AcDbEntity
  8
0
  6
Continuous
 62
     7
370
    25
100
AcDbCircle
 10
122.7129605824
 20
30.1294049211
 30
0.0
 40
10.67619134127803
100
AcDbArc
 50
154.6693994505
 51
156.3356003093
  0
LINE
  5
113
330
1F
100
AcDbEntity
  8
0
  6
Continuous
 62
     7
370
    25
100
AcDbLine
 10
113.349693051
 20
34.7889012541
 30
0.0
 11
113.063240441
 21
34.6971136189
 31
0.0
  0
LINE
  5
114
330
1F
100
AcDbEntity
  8
0
  6
Continuous
 62
     7
370
    25
100
AcDbLine
 10
132.7662660915
 20
34.6971136189
 30
0.0
 11
132.4798134815
 21
34.7889012541
 31
0.0
  0
ARC
  5
115
330
1F
100
AcDbEntity
  8
0
  6
Continuous
 62
     7
370
    25
100
AcDbCircle
 10
123.1165459502
 20
30.1294049212
 30
0.0
 40
10.67619134113331
100
AcDbArc
 50
23.6643996907
 51
25.3306005495
  0
LINE
  5
116
330
1F
100
AcDbEntity
  8
0
  6
Continuous
 62
     7
370
    25
100
AcDbLine
 10
132.6155467841
 20
33.7817573415
 30
0.0
 11
132.8949994631
 21
34.4146013516
 31
0.0
  0
LINE
  5
117
330
1F
100
AcDbEntity
  8
0
  6
Continuous
 62
     7
370
    25
100
AcDbLine
 10
133.2496043502
 20
33.4910967105
 30
0.0
 11
132.6155467841
 21
33.7817573415
 31
0.0
  0
ARC
  5
118
330
1F
100
AcDbEntity
  8
0
  6
Continuous
 62
     7
370
    25
100
AcDbCircle
 10
123.1463301565
 20
30.1409352099
 30
0.0
 40
10.64423466067736
100
AcDbArc
 50
16.6755564745
 51
18.3450906679
  0
LINE
  5
119
330
1F
100
AcDbEntity
  8
0
  6
Continuous
 62
     7
370
    25
100
AcDbLine
 10
132.988274622
 20
32.6003579475
 30
0.0
 11
133.3429215437
 21
33.1953182236
 31
0.0
  0
LINE
  5
11A
330
1F
100
AcDbEntity
  8
0
  6
Continuous
 62
     7
370
    25
100
AcDbLine
 10
133.582237208
 20
32.2363303112
 30
0.0
 11
132.988274622
 21
32.6003579475
 31
0.0
  0
ARC
  5
11B
330
1F
100
AcDbEntity
  8
0
  6
Continuous
 62
     7
370
    25
100
AcDbCircle
 10
123.1680030586
 20
30.1464505747
 30
0.0
 40
10.62185813454869
100
AcDbArc
 50
9.6752540642
 51
11.3471322519
  0
LINE
  5
11C
330
1F
100
AcDbEntity
  8
0
  6
Continuous
 62
     7
370
    25
100
AcDbLine
 10
133.214107835
 20
31.3831980395
 30
0.0
 11
133.6387774486
 21
31.9315987211
 31
0.0
  0
LINE
  5
11D
330
1F
100
AcDbEntity
  8
0
  6
Continuous
 62
     7
370
    25
100
AcDbLine
 10
133.7593141289
 20
30.9511117406
 30
0.0
 11
133.214107835
 21
31.3831980395
 31
0.0
  0
ARC
  5
11E
330
1F
100
AcDbEntity
  8
0
  6
Continuous
 62
     7
370
    25
100
AcDbCircle
 10
123.179413396
 20
30.1479679467
 30
0.0
 40
10.61034115710782
100
AcDbArc
 50
2.6680361771
 51
4.3411240064
  0
LINE
  5
11F
330
1F
100
AcDbEntity
  8
0
  6
Continuous
 62
     7
370
    25
100
AcDbLine
 10
133.2897532662
 20
30.1480265498
 30
0.0
 11
133.7782529326
 21
30.6418707201
 31
0.0
  0
LINE
  5
120
330
1F
100
AcDbEntity
  8
0
  6
Continuous
 62
     7
370
    25
100
AcDbLine
 10
133.7782529326
 20
29.6541823795
 30
0.0
 11
133.2897532662
 21
30.1480265498
 31
0.0
  0
ARC
  5
121
330
1F
100
AcDbEntity
  8
0
  6
Continuous
 62
     7
370
    25
100
AcDbCircle
 10
123.1794133961
 20
30.1480851529
 30
0.0
 40
10.61034115708731
100
AcDbArc
 50
355.6588759936
 51
357.3319638229
  0
LINE
  5
122
330
1F
100
AcDbEntity
  8
0
  6
Continuous
 62
     7
370
    25
100
AcDbLine
 10
133.214107835
 20
28.9128550602
 30
0.0
 11
133.7593141289
 21
29.3449413591
 31
0.0
  0
LINE
  5
123
330
1F
100
AcDbEntity
  8
0
  6
Continuous
 62
     7
370
    25
100
AcDbLine
 10
133.6387774486
 20
28.3644543785
 30
0.0
 11
133.214107835
 21
28.9128550602
 31
0.0
  0
ARC
  5
124
330
1F
100
AcDbEntity
  8
0
  6
Continuous
 62
     7
370
    25
100
AcDbCircle
 10
123.1680030587
 20
30.149602525
 30
0.0
 40
10.62185813454204
100
AcDbArc
 50
348.6528677481
 51
350.3247459358
  0
LINE
  5
125
330
1F
100
AcDbEntity
  8
0
  6
Continuous
 62
     7
370
    25
100
AcDbLine
 10
132.988274622
 20
27.6956951522
 30
0.0
 11
133.582237208
 21
28.0597227885
 31
0.0
  0
LINE
  5
126
330
1F
100
AcDbEntity
  8
0
  6
Continuous
 62
     7
370
    25
100
AcDbLine
 10
133.3429215437
 20
27.100734876
 30
0.0
 11
132.988274622
 21
27.6956951522
 31
0.0
  0
ARC
  5
127
330
1F
100
AcDbEntity
  8
0
  6
Continuous
 62
     7
370
    25
100
AcDbCircle
 10
123.1463301566
 20
30.1551178897
 30
0.0
 40
10.64423466060921
100
AcDbArc
 50
341.6549093321
 51
343.3244435255
  0
LINE
  5
128
330
1F
100
AcDbEntity
  8
0
  6
Continuous
 62
     7
370
    25
100
AcDbLine
 10
132.6155467841
 20
26.5142957582
 30
0.0
 11
133.2496043502
 21
26.8049563892
 31
0.0
  0
LINE
  5
129
330
1F
100
AcDbEntity
  8
0
  6
Continuous
 62
     7
370
    25
100
AcDbLine
 10
132.8949994631
 20
25.881451748
 30
0.0
 11
132.6155467841
 21
26.5142957582
 31
0.0
  0
ARC
  5
12A
330
1F
100
AcDbEntity
  8
0
  6
Continuous
 62
     7
370
    25
100
AcDbCircle
 10
123.11654595
 20
30.1666481785
 30
0.0
 40
10.67619134129849
100
AcDbArc
 50
334.6693994505
 51
336.3356003093
  0
LINE
  5
12B
330
1F
100
AcDbEntity
  8
0
  6
Continuous
 62
     7
370
    25
100
AcDbLine
 10
132.1013595324
 20
25.3858843415
 30
0.0
 11
132.7662660915
 21
25.5989394808
 31
0.0
  0
LINE
  5
12C
330
1F
100
AcDbEntity
  8
0
  6
Continuous
 62
     7
370
    25
100
AcDbLine
 10
132.3015429194
 20
24.7243848881
 30
0.0
 11
132.1013595324
 21
25.3858843415
 31
0.0
  0
ARC
  5
12D
330
1F
100
AcDbEntity
  8
0
  6
Continuous
 62
     7
370
    25
100
AcDbCircle
 10
123.0815352972
 20
30.1853274271
 30
0.0
 40
10.71589632128928
100
AcDbArc
 50
327.6999712403
 51
329.3620536495
  0
LINE
  5
12E
330
1F
100
AcDbEntity
  8
0
  6
Continuous
 62
     7
370
    25
100
AcDbLine
 10
131.4532108749
 20
24.3269156817
 30
0.0
 11
132.1392705921
 21
24.4592585055
 31
0.0
  0
LINE
  5
12F
330
1F
100
AcDbEntity
  8
0
  6
Continuous
 62
     7
370
    25
100
AcDbLine
 10
131.5712058454
 20
23.6464069366
 30
0.0
 11
131.4532108749
 21
24.3269156817
 31
0.0
  0
ARC
  5
130
330
1F
100
AcDbEntity
  8
0
  6
Continuous
 62
     7
370
    25
100
AcDbCircle
 10
123.0445560973
 20
30.2112209984
 30
0.0
 40
10.76106591340856
100
AcDbArc
 50
320.7492802953
 51
322.4067082474
  0
LINE
  5
131
330
1F
100
AcDbEntity
  8
0
  6
Continuous
 62
     7
370
    25
100
AcDbLine
 10
130.6805522785
 20
23.3528319263
 30
0.0
 11
131.3777608583
 21
23.4025325783
 31
0.0
  0
LINE
  5
132
330
1F
100
AcDbEntity
  8
0
  6
Continuous
 62
     7
370
    25
100
AcDbLine
 10
130.7146382001
 20
22.6632372395
 30
0.0
 11
130.6805522785
 21
23.3528319263
 31
0.0
  0
ARC
  5
133
330
1F
100
AcDbEntity
  8
0
  6
Continuous
 62
     7
370
    25
100
AcDbCircle
 10
123.0088347131
 20
30.2432807338
 30
0.0
 40
10.80909185618438
100
AcDbArc
 50
313.8188594745
 51
315.4713742231
  0
LINE
  5
134
330
1F
100
AcDbEntity
  8
0
  6
Continuous
 62
     7
370
    25
100
AcDbLine
 10
129.7946508455
 20
22.47783741
 30
0.0
 11
130.4928414168
 21
22.4441711427
 31
0.0
  0
LINE
  5
135
330
1F
100
AcDbEntity
  8
0
  6
Continuous
 62
     7
370
    25
100
AcDbLine
 10
129.7443306687
 20
21.7892126247
 30
0.0
 11
129.7946508455
 21
22.47783741
 31
0.0
  0
ARC
  5
136
330
1F
100
AcDbEntity
  8
0
  6
Continuous
 62
     7
370
    25
100
AcDbCircle
 10
122.9771696861
 20
30.2794473897
 30
0.0
 40
10.85718905275637
100
AcDbArc
 50
306.9090466333
 51
308.5566772191
  0
LINE
  5
137
330
1F
100
AcDbEntity
  8
0
  6
Continuous
 62
     7
370
    25
100
AcDbLine
 10
128.8084250136
 20
21.7146915231
 30
0.0
 11
129.4974163857
 21
21.5981492665
 31
0.0
  0
LINE
  5
138
330
1F
100
AcDbEntity
  8
0
  6
Continuous
 62
     7
370
    25
100
AcDbLine
 10
128.6744325199
 20
21.0370783394
 30
0.0
 11
128.8084250136
 21
21.7146915231
 31
0.0
  0
ARC
  5
139
330
1F
100
AcDbEntity
  8
0
  6
Continuous
 62
     7
370
    25
100
AcDbCircle
 10
122.9515949077
 20
30.31688754
 30
0.0
 40
10.90255608256848
100
AcDbArc
 50
300.0189854626
 51
301.6620420636
  0
LINE
  5
13A
330
1F
100
AcDbEntity
  8
0
  6
Continuous
 62
     7
370
    25
100
AcDbLine
 10
127.7362561762
 20
21.0745226511
 30
0.0
 11
128.4060013035
 21
20.8768038537
 31
0.0
  0
LINE
  5
13B
330
1F
100
AcDbEntity
  8
0
  6
Continuous
 62
     7
370
    25
100
AcDbLine
 10
127.5205452778
 20
20.4178021951
 30
0.0
 11
127.7362561762
 21
21.0745226511
 31
0.0
  0
ARC
  5
13C
330
1F
100
AcDbEntity
  8
0
  6
Continuous
 62
     7
370
    25
100
AcDbCircle
 10
122.9331456318
 20
30.3523346049
 30
0.0
 40
10.94253945451401
100
AcDbArc
 50
293.1466946512
 51
294.7857462768
  0
LINE
  5
13D
330
1F
100
AcDbEntity
  8
0
  6
Continuous
 62
     7
370
    25
100
AcDbLine
 10
126.5937789693
 20
20.5666658977
 30
0.0
 11
127.2345114596
 21
20.2906537449
 31
0.0
  0
LINE
  5
13E
330
1F
100
AcDbEntity
  8
0
  6
Continuous
 62
     7
370
    25
100
AcDbLine
 10
126.299495217
 20
19.9404146324
 30
0.0
 11
126.5937789693
 21
20.5666658977
 31
0.0
  0
ARC
  5
13F
330
1F
100
AcDbEntity
  8
0
  6
Continuous
 62
     7
370
    25
100
AcDbCircle
 10
122.9217573
 20
30.3824900754
 30
0.0
 40
10.97479170611163
100
AcDbArc
 50
286.2891969994
 51
287.9250357748
  0
LINE
  5
140
330
1F
100
AcDbEntity
  8
0
  6
Continuous
 62
     7
370
    25
100
AcDbLine
 10
125.3976532832
 20
20.198526958
 30
0.0
 11
126.0000298141
 21
19.8482463284
 31
0.0
  0
LINE
  5
141
330
1F
100
AcDbEntity
  8
0
  6
Continuous
 62
     7
370
    25
100
AcDbLine
 10
125.0290879967
 20
19.6118770371
 30
0.0
 11
125.3976532832
 21
20.198526958
 31
0.0
  0
ARC
  5
142
330
1F
100
AcDbEntity
  8
0
  6
Continuous
 62
     7
370
    25
100
AcDbCircle
 10
122.9163098385
 20
30.4044331329
 30
0.0
 40
10.9974132698388
100
AcDbArc
 50
279.4426979662
 51
281.0762926389
  0
LINE
  5
143
330
1F
100
AcDbEntity
  8
0
  6
Continuous
 62
     7
370
    25
100
AcDbLine
 10
124.1653213239
 20
19.9754741266
 30
0.0
 11
124.720557889
 21
19.5560329006
 31
0.0
  0
LINE
  5
144
330
1F
100
AcDbEntity
  8
0
  6
Continuous
 62
     7
370
    25
100
AcDbLine
 10
123.7278490149
 20
19.4369802269
 30
0.0
 11
124.1653213239
 21
19.9754741266
 31
0.0
  0
LINE
  5
145
330
1F
100
AcDbEntity
  8
0
  6
Continuous
 62
     7
370
    25
100
AcDbLine
 10
121.6641852086
 20
19.9754741266
 30
0.0
 11
122.1016575176
 21
19.4369802269
 31
0.0
  0
LINE
  5
146
330
1F
100
AcDbEntity
  8
0
  6
Continuous
 62
     7
370
    25
100
AcDbLine
 10
121.1089486435
 20
19.5560329006
 30
0.0
 11
121.6641852086
 21
19.9754741266
 31
0.0
  0
ARC
  5
147
330
1F
100
AcDbEntity
  8
0
  6
Continuous
 62
     7
370
    25
100
AcDbCircle
 10
122.913196694
 20
30.4044331327
 30
0.0
 40
10.99741326965431
100
AcDbArc
 50
258.9237073611
 51
260.5573020338
  0
LINE
  5
148
330
1F
100
AcDbEntity
  8
0
  6
Continuous
 62
     7
370
    25
100
AcDbLine
 10
120.4318532493
 20
20.198526958
 30
0.0
 11
120.8004185358
 21
19.6118770371
 31
0.0
  0
LINE
  5
149
330
1F
100
AcDbEntity
  8
0
  6
Continuous
 62
     7
370
    25
100
AcDbLine
 10
119.8294767184
 20
19.8482463284
 30
0.0
 11
120.4318532493
 21
20.198526958
 31
0.0
  0
ARC
  5
14A
330
1F
100
AcDbEntity
  8
0
  6
Continuous
 62
     7
370
    25
100
AcDbCircle
 10
122.9077492325
 20
30.3824900752
 30
0.0
 40
10.97479170594423
100
AcDbArc
 50
252.0749642252
 51
253.7108030006
  0
LINE
  5
14B
330
1F
100
AcDbEntity
  8
0
  6
Continuous
 62
     7
370
    25
100
AcDbLine
 10
119.2357275632
 20
20.5666658977
 30
0.0
 11
119.5300113155
 21
19.9404146324
 31
0.0
  0
LINE
  5
14C
330
1F
100
AcDbEntity
  8
0
  6
Continuous
 62
     7
370
    25
100
AcDbLine
 10
118.5949950728
 20
20.2906537449
 30
0.0
 11
119.2357275632
 21
20.5666658977
 31
0.0
  0
ARC
  5
14D
330
1F
100
AcDbEntity
  8
0
  6
Continuous
 62
     7
370
    25
100
AcDbCircle
 10
122.8963609006
 20
30.3523346046
 30
0.0
 40
10.94253945424914
100
AcDbArc
 50
245.2142537232
 51
246.8533053489
  0
LINE
  5
14E
330
1F
100
AcDbEntity
  8
0
  6
Continuous
 62
     7
370
    25
100
AcDbLine
 10
118.0932503563
 20
21.0745226511
 30
0.0
 11
118.3089612546
 21
20.4178021951
 31
0.0
  0
LINE
  5
14F
330
1F
100
AcDbEntity
  8
0
  6
Continuous
 62
     7
370
    25
100
AcDbLine
 10
117.423505229
 20
20.8768038537
 30
0.0
 11
118.0932503563
 21
21.0745226511
 31
0.0
  0
ARC
  5
150
330
1F
100
AcDbEntity
  8
0
  6
Continuous
 62
     7
370
    25
100
AcDbCircle
 10
122.8779116248
 20
30.3168875401
 30
0.0
 40
10.90255608269987
100
AcDbArc
 50
238.3379579364
 51
239.9810145373
  0
LINE
  5
151
330
1F
100
AcDbEntity
  8
0
  6
Continuous
 62
     7
370
    25
100
AcDbLine
 10
117.0210815189
 20
21.7146915231
 30
0.0
 11
117.1550740126
 21
21.0370783394
 31
0.0
  0
LINE
  5
152
330
1F
100
AcDbEntity
  8
0
  6
Continuous
 62
     7
370
    25
100
AcDbLine
 10
116.3320901467
 20
21.5981492665
 30
0.0
 11
117.0210815189
 21
21.7146915231
 31
0.0
  0
ARC
  5
153
330
1F
100
AcDbEntity
  8
0
  6
Continuous
 62
     7
370
    25
100
AcDbCircle
 10
122.8523368462
 20
30.2794473895
 30
0.0
 40
10.8571890525661
100
AcDbArc
 50
231.4433227809
 51
233.0909533667
  0
LINE
  5
154
330
1F
100
AcDbEntity
  8
0
  6
Continuous
 62
     7
370
    25
100
AcDbLine
 10
116.034855687
 20
22.47783741
 30
0.0
 11
116.0851758638
 21
21.7892126247
 31
0.0
  0
LINE
  5
155
330
1F
100
AcDbEntity
  8
0
  6
Continuous
 62
     7
370
    25
100
AcDbLine
 10
115.3366651156
 20
22.4441711427
 30
0.0
 11
116.034855687
 21
22.47783741
 31
0.0
  0
ARC
  5
156
330
1F
100
AcDbEntity
  8
0
  6
Continuous
 62
     7
370
    25
100
AcDbCircle
 10
122.8206718193
 20
30.2432807338
 30
0.0
 40
10.80909185618466
100
AcDbArc
 50
224.5286257769
 51
226.1811405255
  0
LINE
  5
157
330
1F
100
AcDbEntity
  8
0
  6
Continuous
 62
     7
370
    25
100
AcDbLine
 10
115.148954254
 20
23.3528319263
 30
0.0
 11
115.1148683324
 21
22.6632372395
 31
0.0
  0
LINE
  5
158
330
1F
100
AcDbEntity
  8
0
  6
Continuous
 62
     7
370
    25
100
AcDbLine
 10
114.4517456741
 20
23.4025325783
 30
0.0
 11
115.148954254
 21
23.3528319263
 31
0.0
  0
ARC
  5
159
330
1F
100
AcDbEntity
  8
0
  6
Continuous
 62
     7
370
    25
100
AcDbCircle
 10
122.7849504352
 20
30.2112209984
 30
0.0
 40
10.76106591337658
100
AcDbArc
 50
217.5932917526
 51
219.2507197047
  0
LINE
  5
15A
330
1F
100
AcDbEntity
  8
0
  6
Continuous
 62
     7
370
    25
100
AcDbLine
 10
114.3762956576
 20
24.3269156817
 30
0.0
 11
114.2583006871
 21
23.6464069366
 31
0.0
  0
LINE
  5
15B
330
1F
100
AcDbEntity
  8
0
  6
Continuous
 62
     7
370
    25
100
AcDbLine
 10
113.6902359404
 20
24.4592585055
 30
0.0
 11
114.3762956576
 21
24.3269156817
 31
0.0
  0
ARC
  5
15C
330
1F
100
AcDbEntity
  8
0
  6
Continuous
 62
     7
370
    25
100
AcDbCircle
 10
122.7479712351
 20
30.185327427
 30
0.0
 40
10.7158963210832
100
AcDbArc
 50
210.6379463505
 51
212.3000287598
  0
LINE
  5
15D
330
1F
100
AcDbEntity
  8
0
  6
Continuous
 62
     7
370
    25
100
AcDbLine
 10
113.7281470001
 20
25.3858843415
 30
0.0
 11
113.527963613
 21
24.7243848881
 31
0.0
  0
LINE
  5
15E
330
1F
100
AcDbEntity
  8
0
  6
Continuous
 62
     7
370
    25
100
AcDbLine
 10
113.063240441
 20
25.5989394808
 30
0.0
 11
113.7281470001
 21
25.3858843415
 31
0.0
  0
ARC
  5
15F
330
1F
100
AcDbEntity
  8
0
  6
Continuous
 62
     7
370
    25
100
AcDbCircle
 10
122.7129605824
 20
30.1666481785
 30
0.0
 40
10.67619134127516
100
AcDbArc
 50
203.6643996907
 51
205.3306005495
  0
LINE
  5
160
330
1F
100
AcDbEntity
  8
0
  6
Continuous
 62
     7
370
    25
100
AcDbLine
 10
113.2139597484
 20
26.5142957582
 30
0.0
 11
112.9345070693
 21
25.881451748
 31
0.0
  0
LINE
  5
161
330
1F
100
AcDbEntity
  8
0
  6
Continuous
 62
     7
370
    25
100
AcDbLine
 10
112.5799021823
 20
26.8049563892
 30
0.0
 11
113.2139597484
 21
26.5142957582
 31
0.0
  0
ARC
  5
162
330
1F
100
AcDbEntity
  8
0
  6
Continuous
 62
     7
370
    25
100
AcDbCircle
 10
122.6831763758
 20
30.1551178897
 30
0.0
 40
10.64423466049759
100
AcDbArc
 50
196.6755564745
 51
198.345090668
  0
LINE
  5
163
330
1F
100
AcDbEntity
  8
0
  6
Continuous
 62
     7
370
    25
100
AcDbLine
 10
112.8412319104
 20
27.6956951522
 30
0.0
 11
112.4865849888
 21
27.100734876
 31
0.0
  0
LINE
  5
164
330
1F
100
AcDbEntity
  8
0
  6
Continuous
 62
     7
370
    25
100
AcDbLine
 10
112.2472693245
 20
28.0597227885
 30
0.0
 11
112.8412319104
 21
27.6956951522
 31
0.0
  0
LINE
  5
165
330
1F
100
AcDbEntity
  8
0
  6
Continuous
 62
     7
370
    25
100
AcDbLine
 10
124.1653213239
 20
19.9754741266
 30
0.0
 11
124.1653213239
 21
19.2889340797
 31
0.0
  0
LINE
  5
166
330
1F
100
AcDbEntity
  8
0
  6
Continuous
 62
     7
370
    25
100
AcDbLine
 10
124.1653213239
 20
19.2889340797
 30
0.0
 11
123.7278490149
 21
18.7955989203
 31
0.0
  0
LINE
  5
167
330
1F
100
AcDbEntity
  8
0
  6
Continuous
 62
     7
370
    25
100
AcDbLine
 10
122.1016575176
 20
18.7955989203
 30
0.0
 11
121.6641852086
 21
19.2889340797
 31
0.0
  0
LINE
  5
168
330
1F
100
AcDbEntity
  8
0
  6
Continuous
 62
     7
370
    25
100
AcDbLine
 10
121.6641852086
 20
19.9754741266
 30
0.0
 11
121.6641852086
 21
19.2889340797
 31
0.0
  0
LINE
  5
169
330
1F
100
AcDbEntity
  8
0
  6
Continuous
 62
     7
370
    25
100
AcDbLine
 10
121.6641852086
 20
19.2889340797
 30
0.0
 11
121.1089486435
 21
18.914651594
 31
0.0
  0
LINE
  5
16A
330
1F
100
AcDbEntity
  8
0
  6
Continuous
 62
     7
370
    25
100
AcDbLine
 10
121.1089486435
 20
19.5560329006
 30
0.0
 11
121.1089486435
 21
18.914651594
 31
0.0
  0
ARC
  5
16B
330
1F
100
AcDbEntity
  8
0
  6
Continuous
 62
     7
370
    25
100
AcDbCircle
 10
122.913196694
 20
29.7630518262
 30
0.0
 40
10.9974132698302
100
AcDbArc
 50
258.9237073611
 51
260.5573020338
  0
LINE
  5
16C
330
1F
100
AcDbEntity
  8
0
  6
Continuous
 62
     7
370
    25
100
AcDbLine
 10
120.8004185358
 20
19.6118770371
 30
0.0
 11
120.8004185358
 21
18.9704957304
 31
0.0
  0
LINE
  5
16D
330
1F
100
AcDbEntity
  8
0
  6
Continuous
 62
     7
370
    25
100
AcDbLine
 10
124.720557889
 20
19.5560329006
 30
0.0
 11
124.720557889
 21
18.914651594
 31
0.0
  0
LINE
  5
16E
330
1F
100
AcDbEntity
  8
0
  6
Continuous
 62
     7
370
    25
100
AcDbLine
 10
124.720557889
 20
18.914651594
 30
0.0
 11
124.1653213239
 21
19.2889340797
 31
0.0
  0
LINE
  5
16F
330
1F
100
AcDbEntity
  8
0
  6
Continuous
 62
     7
370
    25
100
AcDbLine
 10
125.0290879967
 20
19.6118770371
 30
0.0
 11
125.0290879967
 21
18.9704957304
 31
0.0
  0
ARC
  5
170
330
1F
100
AcDbEntity
  8
0
  6
Continuous
 62
     7
370
    25
100
AcDbCircle
 10
122.9163098385
 20
29.7630518261
 30
0.0
 40
10.99741326964031
100
AcDbArc
 50
279.4426979662
 51
281.0762926389
  0
LINE
  5
171
330
1F
100
AcDbEntity
  8
0
  6
Continuous
 62
     7
370
    25
100
AcDbLine
 10
120.8004185358
 20
18.9704957304
 30
0.0
 11
120.4318532493
 21
19.5119869111
 31
0.0
  0
LINE
  5
172
330
1F
100
AcDbEntity
  8
0
  6
Continuous
 62
     7
370
    25
100
AcDbLine
 10
120.4318532493
 20
20.198526958
 30
0.0
 11
120.4318532493
 21
19.5119869111
 31
0.0
  0
LINE
  5
173
330
1F
100
AcDbEntity
  8
0
  6
Continuous
 62
     7
370
    25
100
AcDbLine
 10
125.3976532832
 20
20.198526958
 30
0.0
 11
125.3976532832
 21
19.5119869111
 31
0.0
  0
LINE
  5
174
330
1F
100
AcDbEntity
  8
0
  6
Continuous
 62
     7
370
    25
100
AcDbLine
 10
125.3976532832
 20
19.5119869111
 30
0.0
 11
125.0290879967
 21
18.9704957304
 31
0.0
  0
LINE
  5
175
330
1F
100
AcDbEntity
  8
0
  6
Continuous
 62
     7
370
    25
100
AcDbLine
 10
119.8294767184
 20
19.8482463284
 30
0.0
 11
119.8294767184
 21
19.2068650217
 31
0.0
  0
ARC
  5
176
330
1F
100
AcDbEntity
  8
0
  6
Continuous
 62
     7
370
    25
100
AcDbCircle
 10
122.9077492325
 20
29.7411087688
 30
0.0
 40
10.97479170613711
100
AcDbArc
 50
252.0749642252
 51
253.7108030006
  0
LINE
  5
177
330
1F
100
AcDbEntity
  8
0
  6
Continuous
 62
     7
370
    25
100
AcDbLine
 10
119.5300113155
 20
19.9404146324
 30
0.0
 11
119.5300113155
 21
19.2990333258
 31
0.0
  0
LINE
  5
178
330
1F
100
AcDbEntity
  8
0
  6
Continuous
 62
     7
370
    25
100
AcDbLine
 10
126.0000298141
 20
19.8482463284
 30
0.0
 11
126.0000298141
 21
19.2068650217
 31
0.0
  0
LINE
  5
179
330
1F
100
AcDbEntity
  8
0
  6
Continuous
 62
     7
370
    25
100
AcDbLine
 10
126.0000298141
 20
19.2068650217
 30
0.0
 11
125.3976532832
 21
19.5119869111
 31
0.0
  0
LINE
  5
17A
330
1F
100
AcDbEntity
  8
0
  6
Continuous
 62
     7
370
    25
100
AcDbLine
 10
120.4318532493
 20
19.5119869111
 30
0.0
 11
119.8294767184
 21
19.2068650217
 31
0.0
  0
LINE
  5
17B
330
1F
100
AcDbEntity
  8
0
  6
Continuous
 62
     7
370
    25
100
AcDbLine
 10
126.299495217
 20
19.9404146324
 30
0.0
 11
126.299495217
 21
19.2990333258
 31
0.0
  0
ARC
  5
17C
330
1F
100
AcDbEntity
  8
0
  6
Continuous
 62
     7
370
    25
100
AcDbCircle
 10
122.9217573
 20
29.7411087685
 30
0.0
 40
10.97479170588037
100
AcDbArc
 50
286.2891969994
 51
287.9250357749
  0
LINE
  5
17D
330
1F
100
AcDbEntity
  8
0
  6
Continuous
 62
     7
370
    25
100
AcDbLine
 10
126.5937789693
 20
20.5666658977
 30
0.0
 11
126.5937789693
 21
19.8801258508
 31
0.0
  0
LINE
  5
17E
330
1F
100
AcDbEntity
  8
0
  6
Continuous
 62
     7
370
    25
100
AcDbLine
 10
126.5937789693
 20
19.8801258508
 30
0.0
 11
126.299495217
 21
19.2990333258
 31
0.0
  0
LINE
  5
17F
330
1F
100
AcDbEntity
  8
0
  6
Continuous
 62
     7
370
    25
100
AcDbLine
 10
119.5300113155
 20
19.2990333258
 30
0.0
 11
119.2357275632
 21
19.8801258508
 31
0.0
  0
LINE
  5
180
330
1F
100
AcDbEntity
  8
0
  6
Continuous
 62
     7
370
    25
100
AcDbLine
 10
119.2357275632
 20
20.5666658977
 30
0.0
 11
119.2357275632
 21
19.8801258508
 31
0.0
  0
LINE
  5
181
330
1F
100
AcDbEntity
  8
0
  6
Continuous
 62
     7
370
    25
100
AcDbLine
 10
119.2357275632
 20
19.8801258508
 30
0.0
 11
118.5949950728
 21
19.6492724382
 31
0.0
  0
LINE
  5
182
330
1F
100
AcDbEntity
  8
0
  6
Continuous
 62
     7
370
    25
100
AcDbLine
 10
118.5949950728
 20
20.2906537449
 30
0.0
 11
118.5949950728
 21
19.6492724382
 31
0.0
  0
ARC
  5
183
330
1F
100
AcDbEntity
  8
0
  6
Continuous
 62
     7
370
    25
100
AcDbCircle
 10
122.8963609007
 20
29.7109532981
 30
0.0
 40
10.9425394543358
100
AcDbArc
 50
245.2142537232
 51
246.8533053489
  0
LINE
  5
184
330
1F
100
AcDbEntity
  8
0
  6
Continuous
 62
     7
370
    25
100
AcDbLine
 10
118.3089612546
 20
20.4178021951
 30
0.0
 11
118.3089612546
 21
19.7764208885
 31
0.0
  0
LINE
  5
185
330
1F
100
AcDbEntity
  8
0
  6
Continuous
 62
     7
370
    25
100
AcDbLine
 10
127.2345114596
 20
20.2906537449
 30
0.0
 11
127.2345114596
 21
19.6492724382
 31
0.0
  0
LINE
  5
186
330
1F
100
AcDbEntity
  8
0
  6
Continuous
 62
     7
370
    25
100
AcDbLine
 10
127.2345114596
 20
19.6492724382
 30
0.0
 11
126.5937789693
 21
19.8801258508
 31
0.0
  0
LINE
  5
187
330
1F
100
AcDbEntity
  8
0
  6
Continuous
 62
     7
370
    25
100
AcDbLine
 10
127.5205452778
 20
20.4178021951
 30
0.0
 11
127.5205452778
 21
19.7764208885
 31
0.0
  0
ARC
  5
188
330
1F
100
AcDbEntity
  8
0
  6
Continuous
 62
     7
370
    25
100
AcDbCircle
 10
122.9331456318
 20
29.7109532982
 30
0.0
 40
10.94253945448984
100
AcDbArc
 50
293.1466946512
 51
294.7857462768
  0
LINE
  5
189
330
1F
100
AcDbEntity
  8
0
  6
Continuous
 62
     7
370
    25
100
AcDbLine
 10
127.7362561762
 20
21.0745226511
 30
0.0
 11
127.7362561762
 21
20.3879826042
 31
0.0
  0
LINE
  5
18A
330
1F
100
AcDbEntity
  8
0
  6
Continuous
 62
     7
370
    25
100
AcDbLine
 10
127.7362561762
 20
20.3879826042
 30
0.0
 11
127.5205452778
 21
19.7764208885
 31
0.0
  0
LINE
  5
18B
330
1F
100
AcDbEntity
  8
0
  6
Continuous
 62
     7
370
    25
100
AcDbLine
 10
118.3089612546
 20
19.7764208885
 30
0.0
 11
118.0932503563
 21
20.3879826042
 31
0.0
  0
LINE
  5
18C
330
1F
100
AcDbEntity
  8
0
  6
Continuous
 62
     7
370
    25
100
AcDbLine
 10
118.0932503563
 20
21.0745226511
 30
0.0
 11
118.0932503563
 21
20.3879826042
 31
0.0
  0
LINE
  5
18D
330
1F
100
AcDbEntity
  8
0
  6
Continuous
 62
     7
370
    25
100
AcDbLine
 10
128.6744325199
 20
21.0370783394
 30
0.0
 11
128.6744325199
 21
20.3956970328
 31
0.0
  0
ARC
  5
18E
330
1F
100
AcDbEntity
  8
0
  6
Continuous
 62
     7
370
    25
100
AcDbCircle
 10
122.9515949077
 20
29.6755062333
 30
0.0
 40
10.90255608253138
100
AcDbArc
 50
300.0189854626
 51
301.6620420636
  0
LINE
  5
18F
330
1F
100
AcDbEntity
  8
0
  6
Continuous
 62
     7
370
    25
100
AcDbLine
 10
128.4060013035
 20
20.8768038537
 30
0.0
 11
128.4060013035
 21
20.2354225471
 31
0.0
  0
LINE
  5
190
330
1F
100
AcDbEntity
  8
0
  6
Continuous
 62
     7
370
    25
100
AcDbLine
 10
117.423505229
 20
20.8768038537
 30
0.0
 11
117.423505229
 21
20.2354225471
 31
0.0
  0
ARC
  5
191
330
1F
100
AcDbEntity
  8
0
  6
Continuous
 62
     7
370
    25
100
AcDbCircle
 10
122.8779116247
 20
29.6755062333
 30
0.0
 40
10.90255608252081
100
AcDbArc
 50
238.3379579364
 51
239.9810145374
  0
LINE
  5
192
330
1F
100
AcDbEntity
  8
0
  6
Continuous
 62
     7
370
    25
100
AcDbLine
 10
117.1550740126
 20
21.0370783394
 30
0.0
 11
117.1550740126
 21
20.3956970328
 31
0.0
  0
LINE
  5
193
330
1F
100
AcDbEntity
  8
0
  6
Continuous
 62
     7
370
    25
100
AcDbLine
 10
118.0932503563
 20
20.3879826042
 30
0.0
 11
117.423505229
 21
20.2354225471
 31
0.0
  0
LINE
  5
194
330
1F
100
AcDbEntity
  8
0
  6
Continuous
 62
     7
370
    25
100
AcDbLine
 10
128.4060013035
 20
20.2354225471
 30
0.0
 11
127.7362561762
 21
20.3879826042
 31
0.0
  0
LINE
  5
195
330
1F
100
AcDbEntity
  8
0
  6
Continuous
 62
     7
370
    25
100
AcDbLine
 10
117.1550740126
 20
20.3956970328
 30
0.0
 11
117.0210815189
 21
21.0281514762
 31
0.0
  0
LINE
  5
196
330
1F
100
AcDbEntity
  8
0
  6
Continuous
 62
     7
370
    25
100
AcDbLine
 10
117.0210815189
 20
21.7146915231
 30
0.0
 11
117.0210815189
 21
21.0281514762
 31
0.0
  0
LINE
  5
197
330
1F
100
AcDbEntity
  8
0
  6
Continuous
 62
     7
370
    25
100
AcDbLine
 10
128.8084250136
 20
21.7146915231
 30
0.0
 11
128.8084250136
 21
21.0281514762
 31
0.0
  0
LINE
  5
198
330
1F
100
AcDbEntity
  8
0
  6
Continuous
 62
     7
370
    25
100
AcDbLine
 10
128.8084250136
 20
21.0281514762
 30
0.0
 11
128.6744325199
 21
20.3956970328
 31
0.0
  0
LINE
  5
199
330
1F
100
AcDbEntity
  8
0
  6
Continuous
 62
     7
370
    25
100
AcDbLine
 10
129.4974163857
 20
21.5981492665
 30
0.0
 11
129.4974163857
 21
20.9567679598
 31
0.0
  0
LINE
  5
19A
330
1F
100
AcDbEntity
  8
0
  6
Continuous
 62
     7
370
    25
100
AcDbLine
 10
129.4974163857
 20
20.9567679598
 30
0.0
 11
128.8084250136
 21
21.0281514762
 31
0.0
  0
LINE
  5
19B
330
1F
100
AcDbEntity
  8
0
  6
Continuous
 62
     7
370
    25
100
AcDbLine
 10
117.0210815189
 20
21.0281514762
 30
0.0
 11
116.3320901467
 21
20.9567679598
 31
0.0
  0
LINE
  5
19C
330
1F
100
AcDbEntity
  8
0
  6
Continuous
 62
     7
370
    25
100
AcDbLine
 10
116.3320901467
 20
21.5981492665
 30
0.0
 11
116.3320901467
 21
20.9567679598
 31
0.0
  0
ARC
  5
19D
330
1F
100
AcDbEntity
  8
0
  6
Continuous
 62
     7
370
    25
100
AcDbCircle
 10
122.8523368462
 20
29.6380660829
 30
0.0
 40
10.85718905257082
100
AcDbArc
 50
231.4433227809
 51
233.0909533667
  0
LINE
  5
19E
330
1F
100
AcDbEntity
  8
0
  6
Continuous
 62
     7
370
    25
100
AcDbLine
 10
116.0851758638
 20
21.7892126247
 30
0.0
 11
116.0851758638
 21
21.1478313181
 31
0.0
  0
LINE
  5
19F
330
1F
100
AcDbEntity
  8
0
  6
Continuous
 62
     7
370
    25
100
AcDbLine
 10
129.7443306687
 20
21.7892126247
 30
0.0
 11
129.7443306687
 21
21.1478313181
 31
0.0
  0
ARC
  5
1A0
330
1F
100
AcDbEntity
  8
0
  6
Continuous
 62
     7
370
    25
100
AcDbCircle
 10
122.9771696863
 20
29.6380660828
 30
0.0
 40
10.85718905249615
100
AcDbArc
 50
306.9090466333
 51
308.5566772191
  0
LINE
  5
1A1
330
1F
100
AcDbEntity
  8
0
  6
Continuous
 62
     7
370
    25
100
AcDbLine
 10
116.0851758638
 20
21.1478313181
 30
0.0
 11
116.034855687
 21
21.7912973631
 31
0.0
  0
LINE
  5
1A2
330
1F
100
AcDbEntity
  8
0
  6
Continuous
 62
     7
370
    25
100
AcDbLine
 10
116.034855687
 20
22.47783741
 30
0.0
 11
116.034855687
 21
21.7912973631
 31
0.0
  0
LINE
  5
1A3
330
1F
100
AcDbEntity
  8
0
  6
Continuous
 62
     7
370
    25
100
AcDbLine
 10
129.7946508455
 20
22.47783741
 30
0.0
 11
129.7946508455
 21
21.7912973631
 31
0.0
  0
LINE
  5
1A4
330
1F
100
AcDbEntity
  8
0
  6
Continuous
 62
     7
370
    25
100
AcDbLine
 10
129.7946508455
 20
21.7912973631
 30
0.0
 11
129.7443306687
 21
21.1478313181
 31
0.0
  0
LINE
  5
1A5
330
1F
100
AcDbEntity
  8
0
  6
Continuous
 62
     7
370
    25
100
AcDbLine
 10
115.3366651156
 20
22.4441711427
 30
0.0
 11
115.3366651156
 21
21.802789836
 31
0.0
  0
ARC
  5
1A6
330
1F
100
AcDbEntity
  8
0
  6
Continuous
 62
     7
370
    25
100
AcDbCircle
 10
122.8206718193
 20
29.6018994271
 30
0.0
 40
10.80909185617376
100
AcDbArc
 50
224.5286257769
 51
226.1811405255
  0
LINE
  5
1A7
330
1F
100
AcDbEntity
  8
0
  6
Continuous
 62
     7
370
    25
100
AcDbLine
 10
115.1148683324
 20
22.6632372395
 30
0.0
 11
115.1148683324
 21
22.0218559328
 31
0.0
  0
LINE
  5
1A8
330
1F
100
AcDbEntity
  8
0
  6
Continuous
 62
     7
370
    25
100
AcDbLine
 10
116.034855687
 20
21.7912973631
 30
0.0
 11
115.3366651156
 21
21.802789836
 31
0.0
  0
LINE
  5
1A9
330
1F
100
AcDbEntity
  8
0
  6
Continuous
 62
     7
370
    25
100
AcDbLine
 10
130.7146382001
 20
22.6632372395
 30
0.0
 11
130.7146382001
 21
22.0218559328
 31
0.0
  0
ARC
  5
1AA
330
1F
100
AcDbEntity
  8
0
  6
Continuous
 62
     7
370
    25
100
AcDbCircle
 10
123.0088347131
 20
29.6018994271
 30
0.0
 40
10.80909185616555
100
AcDbArc
 50
313.8188594745
 51
315.4713742231
  0
LINE
  5
1AB
330
1F
100
AcDbEntity
  8
0
  6
Continuous
 62
     7
370
    25
100
AcDbLine
 10
130.4928414168
 20
22.4441711427
 30
0.0
 11
130.4928414168
 21
21.802789836
 31
0.0
  0
LINE
  5
1AC
330
1F
100
AcDbEntity
  8
0
  6
Continuous
 62
     7
370
    25
100
AcDbLine
 10
130.4928414168
 20
21.802789836
 30
0.0
 11
129.7946508455
 21
21.7912973631
 31
0.0
  0
LINE
  5
1AD
330
1F
100
AcDbEntity
  8
0
  6
Continuous
 62
     7
370
    25
100
AcDbLine
 10
115.1187075217
 20
22.670407128
 30
0.0
 11
114.4517456741
 21
22.7611512716
 31
0.0
  0
LINE
  5
1AE
330
1F
100
AcDbEntity
  8
0
  6
Continuous
 62
     7
370
    25
100
AcDbLine
 10
114.4517456741
 20
23.4025325783
 30
0.0
 11
114.4517456741
 21
22.7611512716
 31
0.0
  0
LINE
  5
1AF
330
1F
100
AcDbEntity
  8
0
  6
Continuous
 62
     7
370
    25
100
AcDbLine
 10
131.3777608583
 20
23.4025325783
 30
0.0
 11
131.3777608583
 21
22.7611512716
 31
0.0
  0
LINE
  5
1B0
330
1F
100
AcDbEntity
  8
0
  6
Continuous
 62
     7
370
    25
100
AcDbLine
 10
131.3777608583
 20
22.7611512716
 30
0.0
 11
130.7107990108
 21
22.670407128
 31
0.0
  0
ARC
  5
1B1
330
1F
100
AcDbEntity
  8
0
  6
Continuous
 62
     7
370
    25
100
AcDbCircle
 10
122.7849504352
 20
29.5698396917
 30
0.0
 40
10.76106591335024
100
AcDbArc
 50
217.5932917526
 51
219.2507197047
  0
LINE
  5
1B2
330
1F
100
AcDbEntity
  8
0
  6
Continuous
 62
     7
370
    25
100
AcDbLine
 10
114.2583006871
 20
23.6464069366
 30
0.0
 11
114.2583006871
 21
23.00502563
 31
0.0
  0
LINE
  5
1B3
330
1F
100
AcDbEntity
  8
0
  6
Continuous
 62
     7
370
    25
100
AcDbLine
 10
131.5712058454
 20
23.6464069366
 30
0.0
 11
131.5712058454
 21
23.00502563
 31
0.0
  0
ARC
  5
1B4
330
1F
100
AcDbEntity
  8
0
  6
Continuous
 62
     7
370
    25
100
AcDbCircle
 10
123.0445560973
 20
29.5698396917
 30
0.0
 40
10.76106591335425
100
AcDbArc
 50
320.7492802953
 51
322.4067082474
  0
LINE
  5
1B5
330
1F
100
AcDbEntity
  8
0
  6
Continuous
 62
     7
370
    25
100
AcDbLine
 10
114.2623659207
 20
23.6698522328
 30
0.0
 11
113.6902359404
 21
23.8178771988
 31
0.0
  0
LINE
  5
1B6
330
1F
100
AcDbEntity
  8
0
  6
Continuous
 62
     7
370
    25
100
AcDbLine
 10
113.6902359404
 20
24.4592585055
 30
0.0
 11
113.6902359404
 21
23.8178771988
 31
0.0
  0
LINE
  5
1B7
330
1F
100
AcDbEntity
  8
0
  6
Continuous
 62
     7
370
    25
100
AcDbLine
 10
132.1392705921
 20
24.4592585055
 30
0.0
 11
132.1392705921
 21
23.8178771988
 31
0.0
  0
LINE
  5
1B8
330
1F
100
AcDbEntity
  8
0
  6
Continuous
 62
     7
370
    25
100
AcDbLine
 10
132.1392705921
 20
23.8178771988
 30
0.0
 11
131.5671406118
 21
23.6698522328
 31
0.0
  0
ARC
  5
1B9
330
1F
100
AcDbEntity
  8
0
  6
Continuous
 62
     7
370
    25
100
AcDbCircle
 10
122.7479712352
 20
29.5439461204
 30
0.0
 40
10.7158963211615
100
AcDbArc
 50
210.6379463505
 51
212.3000287598
  0
LINE
  5
1BA
330
1F
100
AcDbEntity
  8
0
  6
Continuous
 62
     7
370
    25
100
AcDbLine
 10
113.527963613
 20
24.7243848881
 30
0.0
 11
113.527963613
 21
24.0830035815
 31
0.0
  0
LINE
  5
1BB
330
1F
100
AcDbEntity
  8
0
  6
Continuous
 62
     7
370
    25
100
AcDbLine
 10
132.3015429194
 20
24.7243848881
 30
0.0
 11
132.3015429194
 21
24.0830035815
 31
0.0
  0
ARC
  5
1BC
330
1F
100
AcDbEntity
  8
0
  6
Continuous
 62
     7
370
    25
100
AcDbCircle
 10
123.0815352972
 20
29.5439461204
 30
0.0
 40
10.71589632126763
100
AcDbArc
 50
327.6999712403
 51
329.3620536495
  0
LINE
  5
1BD
330
1F
100
AcDbEntity
  8
0
  6
Continuous
 62
     7
370
    25
100
AcDbLine
 10
132.7662660915
 20
25.5989394808
 30
0.0
 11
132.7662660915
 21
24.9575581741
 31
0.0
  0
LINE
  5
1BE
330
1F
100
AcDbEntity
  8
0
  6
Continuous
 62
     7
370
    25
100
AcDbLine
 10
132.7662660915
 20
24.9575581741
 30
0.0
 11
132.2872719987
 21
24.7715426788
 31
0.0
  0
LINE
  5
1BF
330
1F
100
AcDbEntity
  8
0
  6
Continuous
 62
     7
370
    25
100
AcDbLine
 10
113.5422345338
 20
24.7715426788
 30
0.0
 11
113.063240441
 21
24.9575581741
 31
0.0
  0
LINE
  5
1C0
330
1F
100
AcDbEntity
  8
0
  6
Continuous
 62
     7
370
    25
100
AcDbLine
 10
113.063240441
 20
25.5989394808
 30
0.0
 11
113.063240441
 21
24.9575581741
 31
0.0
  0
ARC
  5
1C1
330
1F
100
AcDbEntity
  8
0
  6
Continuous
 62
     7
370
    25
100
AcDbCircle
 10
122.7129605823
 20
29.5252668718
 30
0.0
 40
10.6761913411579
100
AcDbArc
 50
203.6643996907
 51
205.3306005495
  0
LINE
  5
1C2
330
1F
100
AcDbEntity
  8
0
  6
Continuous
 62
     7
370
    25
100
AcDbLine
 10
112.9345070693
 20
25.881451748
 30
0.0
 11
112.9345070693
 21
25.2400704414
 31
0.0
  0
LINE
  5
1C3
330
1F
100
AcDbEntity
  8
0
  6
Continuous
 62
     7
370
    25
100
AcDbLine
 10
132.8949994631
 20
25.881451748
 30
0.0
 11
132.8949994631
 21
25.2400704414
 31
0.0
  0
ARC
  5
1C4
330
1F
100
AcDbEntity
  8
0
  6
Continuous
 62
     7
370
    25
100
AcDbCircle
 10
123.11654595
 20
29.5252668719
 30
0.0
 40
10.6761913413582
100
AcDbArc
 50
334.6693994505
 51
336.3356003093
  0
LINE
  5
1C5
330
1F
100
AcDbEntity
  8
0
  6
Continuous
 62
     7
370
    25
100
AcDbLine
 10
133.2496043502
 20
26.8049563892
 30
0.0
 11
133.2496043502
 21
26.1635750825
 31
0.0
  0
LINE
  5
1C6
330
1F
100
AcDbEntity
  8
0
  6
Continuous
 62
     7
370
    25
100
AcDbLine
 10
133.2496043502
 20
26.1635750825
 30
0.0
 11
132.861246918
 21
25.9578872149
 31
0.0
  0
LINE
  5
1C7
330
1F
100
AcDbEntity
  8
0
  6
Continuous
 62
     7
370
    25
100
AcDbLine
 10
112.9682596145
 20
25.9578872149
 30
0.0
 11
112.5799021823
 21
26.1635750825
 31
0.0
  0
LINE
  5
1C8
330
1F
100
AcDbEntity
  8
0
  6
Continuous
 62
     7
370
    25
100
AcDbLine
 10
112.5799021823
 20
26.8049563892
 30
0.0
 11
112.5799021823
 21
26.1635750825
 31
0.0
  0
ARC
  5
1C9
330
1F
100
AcDbEntity
  8
0
  6
Continuous
 62
     7
370
    25
100
AcDbCircle
 10
122.6831763757
 20
29.513736583
 30
0.0
 40
10.64423466047875
100
AcDbArc
 50
196.6755564745
 51
198.345090668
  0
LINE
  5
1CA
330
1F
100
AcDbEntity
  8
0
  6
Continuous
 62
     7
370
    25
100
AcDbLine
 10
112.4865849888
 20
27.100734876
 30
0.0
 11
112.4865849888
 21
26.4593535693
 31
0.0
  0
LINE
  5
1CB
330
1F
100
AcDbEntity
  8
0
  6
Continuous
 62
     7
370
    25
100
AcDbLine
 10
133.3429215437
 20
27.100734876
 30
0.0
 11
133.3429215437
 21
26.4593535693
 31
0.0
  0
ARC
  5
1CC
330
1F
100
AcDbEntity
  8
0
  6
Continuous
 62
     7
370
    25
100
AcDbCircle
 10
123.1463301567
 20
29.5137365831
 30
0.0
 40
10.64423466051809
100
AcDbArc
 50
341.654909332
 51
343.3244435255
  0
LINE
  5
1CD
330
1F
100
AcDbEntity
  8
0
  6
Continuous
 62
     7
370
    25
100
AcDbLine
 10
133.582237208
 20
28.0597227885
 30
0.0
 11
133.582237208
 21
27.4183414818
 31
0.0
  0
LINE
  5
1CE
330
1F
100
AcDbEntity
  8
0
  6
Continuous
 62
     7
370
    25
100
AcDbLine
 10
133.582237208
 20
27.4183414818
 30
0.0
 11
133.2783796601
 21
27.2090111772
 31
0.0
  0
LINE
  5
1CF
330
1F
100
AcDbEntity
  8
0
  6
Continuous
 62
     7
370
    25
100
AcDbLine
 10
112.5511268724
 20
27.2090111772
 30
0.0
 11
112.2472693245
 21
27.4183414818
 31
0.0
  0
LINE
  5
1D0
330
1F
100
AcDbEntity
  8
0
  6
Continuous
 62
     7
370
    25
100
AcDbLine
 10
112.2472693245
 20
28.0597227885
 30
0.0
 11
112.2472693245
 21
27.4183414818
 31
0.0
  0
LINE
  5
1D1
330
1F
100
AcDbEntity
  8
0
  6
Continuous
 62
     7
370
    25
100
AcDbLine
 10
112.1907290839
 20
28.3644543785
 30
0.0
 11
112.1907290839
 21
27.7230730719
 31
0.0
  0
ARC
  5
1D2
330
1F
100
AcDbEntity
  8
0
  6
Continuous
 62
     7
370
    25
100
AcDbCircle
 10
122.6615034737
 20
29.5082212183
 30
0.0
 40
10.62185813442268
100
AcDbArc
 50
189.6752540641
 51
191.3471322519
  0
LINE
  5
1D3
330
1F
100
AcDbEntity
  8
0
  6
Continuous
 62
     7
370
    25
100
AcDbLine
 10
133.6387774486
 20
28.3644543785
 30
0.0
 11
133.6387774486
 21
27.7230730719
 31
0.0
  0
ARC
  5
1D4
330
1F
100
AcDbEntity
  8
0
  6
Continuous
 62
     7
370
    25
100
AcDbCircle
 10
123.1680030586
 20
29.5082212183
 30
0.0
 40
10.621858134556
100
AcDbArc
 50
348.6528677481
 51
350.3247459358
  0
LINE
  5
1D5
330
1F
100
AcDbEntity
  8
0
  6
Continuous
 62
     7
370
    25
100
AcDbLine
 10
112.2985398206
 20
28.5036766813
 30
0.0
 11
112.0701924036
 21
28.7035600524
 31
0.0
  0
LINE
  5
1D6
330
1F
100
AcDbEntity
  8
0
  6
Continuous
 62
     7
370
    25
100
AcDbLine
 10
112.0701924036
 20
29.3449413591
 30
0.0
 11
112.0701924036
 21
28.7035600524
 31
0.0
  0
LINE
  5
1D7
330
1F
100
AcDbEntity
  8
0
  6
Continuous
 62
     7
370
    25
100
AcDbLine
 10
133.7593141289
 20
29.3449413591
 30
0.0
 11
133.7593141289
 21
28.7035600524
 31
0.0
  0
LINE
  5
1D8
330
1F
100
AcDbEntity
  8
0
  6
Continuous
 62
     7
370
    25
100
AcDbLine
 10
133.7593141289
 20
28.7035600524
 30
0.0
 11
133.5309667119
 21
28.5036766813
 31
0.0
  0
LINE
  5
1D9
330
1F
100
AcDbEntity
  8
0
  6
Continuous
 62
     7
370
    25
100
AcDbLine
 10
112.0512535999
 20
29.6541823795
 30
0.0
 11
112.0512535999
 21
29.0128010729
 31
0.0
  0
ARC
  5
1DA
330
1F
100
AcDbEntity
  8
0
  6
Continuous
 62
     7
370
    25
100
AcDbCircle
 10
122.6500931364
 20
29.5067038463
 30
0.0
 40
10.61034115703859
100
AcDbArc
 50
182.6680361771
 51
184.3411240064
  0
LINE
  5
1DB
330
1F
100
AcDbEntity
  8
0
  6
Continuous
 62
     7
370
    25
100
AcDbLine
 10
133.7782529326
 20
29.6541823795
 30
0.0
 11
133.7782529326
 21
29.0128010729
 31
0.0
  0
ARC
  5
1DC
330
1F
100
AcDbEntity
  8
0
  6
Continuous
 62
     7
370
    25
100
AcDbCircle
 10
123.1794133961
 20
29.5067038463
 30
0.0
 40
10.61034115709423
100
AcDbArc
 50
355.6588759936
 51
357.3319638229
  0
LINE
  5
1DD
330
1F
100
AcDbEntity
  8
0
  6
Continuous
 62
     7
370
    25
100
AcDbLine
 10
133.7782529326
 20
30.6418707201
 30
0.0
 11
133.7782529326
 21
30.0004894135
 31
0.0
  0
LINE
  5
1DE
330
1F
100
AcDbEntity
  8
0
  6
Continuous
 62
     7
370
    25
100
AcDbLine
 10
133.7782529326
 20
30.0004894135
 30
0.0
 11
133.6144621123
 21
29.8197651778
 31
0.0
  0
LINE
  5
1DF
330
1F
100
AcDbEntity
  8
0
  6
Continuous
 62
     7
370
    25
100
AcDbLine
 10
112.2150444201
 20
29.8197651778
 30
0.0
 11
112.0512535999
 21
30.0004894135
 31
0.0
  0
LINE
  5
1E0
330
1F
100
AcDbEntity
  8
0
  6
Continuous
 62
     7
370
    25
100
AcDbLine
 10
112.0512535999
 20
30.6418707201
 30
0.0
 11
112.0512535999
 21
30.0004894135
 31
0.0
  0
LINE
  5
1E1
330
1F
100
AcDbEntity
  8
0
  6
Continuous
 62
     7
370
    25
100
AcDbLine
 10
112.3019409876
 20
31.1347768763
 30
0.0
 11
112.1907290839
 21
31.2902174145
 31
0.0
  0
LINE
  5
1E2
330
1F
100
AcDbEntity
  8
0
  6
Continuous
 62
     7
370
    25
100
AcDbLine
 10
112.1907290839
 20
31.9315987211
 30
0.0
 11
112.1907290839
 21
31.2902174145
 31
0.0
  0
LINE
  5
1E3
330
1F
100
AcDbEntity
  8
0
  6
Continuous
 62
     7
370
    25
100
AcDbLine
 10
133.6387774486
 20
31.9315987211
 30
0.0
 11
133.6387774486
 21
31.2902174145
 31
0.0
  0
LINE
  5
1E4
330
1F
100
AcDbEntity
  8
0
  6
Continuous
 62
     7
370
    25
100
AcDbLine
 10
133.6387774486
 20
31.2902174145
 30
0.0
 11
133.5275655449
 21
31.1347768763
 31
0.0
  0
LINE
  5
1E5
330
1F
100
AcDbEntity
  8
0
  6
Continuous
 62
     7
370
    25
100
AcDbLine
 10
112.5572827177
 20
32.4263312395
 30
0.0
 11
112.4865849888
 21
32.553936917
 31
0.0
  0
LINE
  5
1E6
330
1F
100
AcDbEntity
  8
0
  6
Continuous
 62
     7
370
    25
100
AcDbLine
 10
112.4865849888
 20
33.1953182236
 30
0.0
 11
112.4865849888
 21
32.553936917
 31
0.0
  0
LINE
  5
1E7
330
1F
100
AcDbEntity
  8
0
  6
Continuous
 62
     7
370
    25
100
AcDbLine
 10
133.3429215437
 20
33.1953182236
 30
0.0
 11
133.3429215437
 21
32.553936917
 31
0.0
  0
LINE
  5
1E8
330
1F
100
AcDbEntity
  8
0
  6
Continuous
 62
     7
370
    25
100
AcDbLine
 10
133.3429215437
 20
32.553936917
 30
0.0
 11
133.2722238148
 21
32.4263312395
 31
0.0
  0
LINE
  5
1E9
330
1F
100
AcDbEntity
  8
0
  6
Continuous
 62
     7
370
    25
100
AcDbLine
 10
112.9759574776
 20
33.6726538564
 30
0.0
 11
112.9345070693
 21
33.773220045
 31
0.0
  0
LINE
  5
1EA
330
1F
100
AcDbEntity
  8
0
  6
Continuous
 62
     7
370
    25
100
AcDbLine
 10
112.9345070693
 20
34.4146013516
 30
0.0
 11
112.9345070693
 21
33.773220045
 31
0.0
  0
LINE
  5
1EB
330
1F
100
AcDbEntity
  8
0
  6
Continuous
 62
     7
370
    25
100
AcDbLine
 10
132.8949994631
 20
34.4146013516
 30
0.0
 11
132.8949994631
 21
33.773220045
 31
0.0
  0
LINE
  5
1EC
330
1F
100
AcDbEntity
  8
0
  6
Continuous
 62
     7
370
    25
100
AcDbLine
 10
132.8949994631
 20
33.773220045
 30
0.0
 11
132.8535490549
 21
33.6726538564
 31
0.0
  0
ARC
  5
1ED
330
1F
100
AcDbEntity
  8
0
  6
Continuous
 62
     7
370
    25
100
AcDbCircle
 10
122.9147532662
 20
170.379351275
 30
0.0
 40
8.600000000000023
100
AcDbArc
 50
0.0
 51
180.0
  0
SPLINE
  5
1EE
330
1F
100
AcDbEntity
  8
0
  6
Continuous
 62
     7
370
    25
100
AcDbSpline
210
0.0
220
0.0
230
1.0
 70
     8
 71
     3
 72
    18
 73
    14
 74
     0
 42
0.00000001
 43
0.00000001
 40
0.0
 40
0.0
 40
0.0
 40
0.0
 40
0.0705093946359295
 40
0.1778721506410481
 40
0.2852333544672588
 40
0.3925935002359841
 40
0.4999535169517793
 40
0.5671492071779103
 40
0.6745109183226168
 40
0.7818743002180325
 40
0.8892391987388709
 40
0.9966047458765737
 40
1.0
 40
1.0
 40
1.0
 40
1.0
 10
114.4247493093028
 20
34.3598344395651
 30
0.0
 10
114.4219890899983
 20
33.73164143859318
 30
0.0
 10
114.4150259591069
 20
32.14691587574468
 30
0.0
 10
115.5068215062676
 20
29.77068998648931
 30
0.0
 10
117.4333263878297
 20
27.6013085063012
 30
0.0
 10
120.0145567406803
 20
26.19356777381775
 30
0.0
 10
122.5552889541991
 20
25.76798122263212
 30
0.0
 10
125.0853113913957
 20
26.03172906464853
 30
0.0
 10
127.4761110384909
 20
26.9716793620569
 30
0.0
 10
129.7182402134373
 20
28.88160025297408
 30
0.0
 10
131.0828398166773
 20
31.39682150704122
 30
0.0
 10
131.6656590476952
 20
33.3549459833787
 30
0.0
 10
131.504824050478
 20
34.322145561561
 30
0.0
 10
131.4998938253327
 20
34.35179403212644
 30
0.0
  0
ARC
  5
1EF
330
1F
100
AcDbEntity
  8
0
  6
Continuous
 62
     7
370
    25
100
AcDbCircle
 10
122.9147532662
 20
33.9978044392
 30
0.0
 40
9.569248648067093
100
AcDbArc
 50
153.9892977173
 51
26.0107022827
  0
ARC
  5
1F0
330
1F
100
AcDbEntity
  8
0
  6
Continuous
 62
     7
370
    25
100
AcDbCircle
 10
122.9147532662
 20
30.4783845687
 30
0.0
 40
9.600477055852302
100
AcDbArc
 50
180.5711861071
 51
359.4288138929
  0
ARC
  5
1F1
330
1F
100
AcDbEntity
  8
0
  6
Continuous
 62
     7
370
    25
100
AcDbCircle
 10
122.9147532662
 20
170.3793512751
 30
0.0
 40
8.750000000000028
100
AcDbArc
 50
349.3756684993
 51
90.0
  0
ARC
  5
1F2
330
1F
100
AcDbEntity
  8
0
  6
Continuous
 62
     7
370
    25
100
AcDbCircle
 10
122.9147532662
 20
170.3793512751
 30
0.0
 40
8.750000000000028
100
AcDbArc
 50
90.0
 51
190.6243315007
  0
ARC
  5
1F3
330
1F
100
AcDbEntity
  8
0
  6
Continuous
 62
     7
370
    25
100
AcDbCircle
 10
122.9147532662
 20
170.3793512751
 30
0.0
 40
15.25
100
AcDbArc
 50
304.3283286419
 51
90.0
  0
ARC
  5
1F4
330
1F
100
AcDbEntity
  8
0
  6
Continuous
 62
     7
370
    25
100
AcDbCircle
 10
122.9147532662
 20
170.3793512751
 30
0.0
 40
15.25
100
AcDbArc
 50
90.0
 51
235.6716713581
  0
SPLINE
  5
1F5
330
1F
100
AcDbEntity
  8
0
  6
Continuous
 62
     7
370
    25
100
AcDbSpline
210
0.0
220
0.0
230
1.0
 70
     8
 71
     3
 72
     8
 73
     4
 74
     0
 42
0.00000001
 43
0.00000001
 40
0.0
 40
0.0
 40
0.0
 40
0.0
 40
0.0000557759334559
 40
0.0000557759334559
 40
0.0000557759334559
 40
0.0000557759334559
 10
130.4711762317561
 20
186.0129940728038
 30
0.0
 10
130.4543659275544
 20
186.0197578971167
 30
0.0
 10
130.4372317758009
 20
186.0273439846307
 30
0.0
 10
130.4204668457309
 20
186.0353813199529
 30
0.0
  0
ARC
  5
1F6
330
1F
100
AcDbEntity
  8
0
  6
Continuous
 62
     7
370
    25
100
AcDbCircle
 10
122.9147532662
 20
170.3793512751
 30
0.0
 40
17.36222949691167
100
AcDbArc
 50
64.3863076226
 51
240.3086126156
  0
SPLINE
  5
1F7
330
1F
100
AcDbEntity
  8
0
  6
Continuous
 62
     7
370
    25
100
AcDbSpline
210
0.0
220
0.0
230
1.0
 70
     8
 71
     3
 72
    12
 73
     8
 74
     0
 42
0.00000001
 43
0.00000001
 40
0.0
 40
0.0
 40
0.0
 40
0.0
 40
0.5000000000000004
 40
0.5000000000000004
 40
0.7500000000000002
 40
0.7500000000000002
 40
1.0
 40
1.0
 40
1.0
 40
1.0
 10
130.4711762317561
 20
186.0129940728038
 30
0.0
 10
130.7989257598031
 20
185.8811201816621
 30
0.0
 10
131.1368414455518
 20
185.7855137044054
 30
0.0
 10
131.6583772880102
 20
185.6942001869539
 30
0.0
 10
131.8346877186372
 20
185.6725214151642
 30
0.0
 10
132.1924015307877
 20
185.6472239872512
 30
0.0
 10
132.3749019328553
 20
185.6438094071414
 30
0.0
 10
132.5527284298186
 20
185.6494625234446
 30
0.0
  0
SPLINE
  5
1F8
330
1F
100
AcDbEntity
  8
0
  6
Continuous
 62
     7
370
    25
100
AcDbSpline
210
0.0
220
0.0
230
1.0
 70
     8
 71
     3
 72
    56
 73
    52
 74
     0
 42
0.00000001
 43
0.00000001
 40
0.0
 40
0.0
 40
0.0
 40
0.0
 40
0.0312500000000002
 40
0.0312500000000002
 40
0.0625000000000003
 40
0.0625000000000003
 40
0.0937500000000005
 40
0.0937500000000005
 40
0.1250000000000007
 40
0.1250000000000007
 40
0.1875000000000007
 40
0.1875000000000007
 40
0.2500000000000008
 40
0.2500000000000008
 40
0.3125000000000008
 40
0.3125000000000008
 40
0.3750000000000008
 40
0.3750000000000008
 40
0.4062500000000007
 40
0.4062500000000007
 40
0.4375000000000007
 40
0.4375000000000007
 40
0.4687500000000006
 40
0.4687500000000006
 40
0.5000000000000006
 40
0.5000000000000006
 40
0.5625000000000004
 40
0.5625000000000004
 40
0.5937500000000003
 40
0.5937500000000003
 40
0.6250000000000003
 40
0.6250000000000003
 40
0.6875000000000002
 40
0.6875000000000002
 40
0.7187500000000002
 40
0.7187500000000002
 40
0.7500000000000003
 40
0.7500000000000003
 40
0.8125000000000004
 40
0.8125000000000004
 40
0.8437500000000003
 40
0.8437500000000003
 40
0.8750000000000003
 40
0.8750000000000003
 40
0.9062500000000002
 40
0.9062500000000002
 40
0.9375000000000002
 40
0.9375000000000002
 40
0.9687500000000001
 40
0.9687500000000001
 40
1.0
 40
1.0
 40
1.0
 40
1.0
 10
132.5527284298186
 20
185.6494625234446
 30
0.0
 10
132.5735553933933
 20
185.4982901948007
 30
0.0
 10
132.6492808359935
 20
185.3322666979129
 30
0.0
 10
132.881956762627
 20
184.9730535599169
 30
0.0
 10
133.0397794987906
 20
184.7790307711747
 30
0.0
 10
133.4000267490256
 20
184.3766532924158
 30
0.0
 10
133.6033434826347
 20
184.1667931891092
 30
0.0
 10
134.0378127816908
 20
183.7287223902148
 30
0.0
 10
134.2697630405132
 20
183.4998399798747
 30
0.0
 10
134.9851599524378
 20
182.788061987278
 30
0.0
 10
135.4843563824898
 20
182.28287942824
 30
0.0
 10
136.4760159176374
 20
181.1965667963763
 30
0.0
 10
136.969418557266
 20
180.615631696983
 30
0.0
 10
137.9206322892547
 20
179.3582077645026
 30
0.0
 10
138.3803562813262
 20
178.6779315331586
 30
0.0
 10
139.2110972973074
 20
177.237629199554
 30
0.0
 10
139.5857002385424
 20
176.4742484790703
 30
0.0
 10
140.0629529347099
 20
175.2465818323184
 30
0.0
 10
140.2066217032434
 20
174.8259364329361
 30
0.0
 10
140.4555355466864
 20
173.9746339059845
 30
0.0
 10
140.5615835073915
 20
173.5419982412634
 30
0.0
 10
140.7341213435716
 20
172.6618883035906
 30
0.0
 10
140.8006211308353
 20
172.2144174992528
 30
0.0
 10
140.8905579582706
 20
171.3034242103759
 30
0.0
 10
140.9136335148461
 20
170.8379136210417
 30
0.0
 10
140.9135784789711
 20
169.4605479108024
 30
0.0
 10
140.8236250031458
 20
168.5541223038158
 30
0.0
 10
140.5606273123636
 20
167.2114518175876
 30
0.0
 10
140.4515832082648
 20
166.7684209415883
 30
0.0
 10
140.199034585389
 20
165.9090479514839
 30
0.0
 10
140.0558703797577
 20
165.4927235552208
 30
0.0
 10
139.5826600103284
 20
164.279055583705
 30
0.0
 10
139.2090970547448
 20
163.5167710344965
 30
0.0
 10
138.5822656711481
 20
162.4312566570792
 30
0.0
 10
138.3622578051007
 20
162.0795695768492
 30
0.0
 10
137.9112979165106
 20
161.4055295435075
 30
0.0
 10
137.679381441817
 20
161.0814695167728
 30
0.0
 10
136.9695158226183
 20
160.1434252398269
 30
0.0
 10
136.4771275330317
 20
159.5633888022824
 30
0.0
 10
135.7326919008801
 20
158.7478444332027
 30
0.0
 10
135.4836180337018
 20
158.4851401939628
 30
0.0
 10
134.9889850115643
 20
157.9762421375679
 30
0.0
 10
134.742878440726
 20
157.7295704989254
 30
0.0
 10
134.2675552915436
 20
157.2566803320997
 30
0.0
 10
134.0376652911922
 20
157.0298190503948
 30
0.0
 10
133.6050560867967
 20
156.5936485132495
 30
0.0
 10
133.4021945538359
 20
156.3843307756318
 30
0.0
 10
133.0418810130496
 20
155.9821572202893
 30
0.0
 10
132.8833487806228
 20
155.7875500465945
 30
0.0
 10
132.6496388481629
 20
155.4272347008798
 30
0.0
 10
132.5736034381598
 20
155.2607610878067
 30
0.0
 10
132.5527284298186
 20
155.1092400266555
 30
0.0
  0
SPLINE
  5
1F9
330
1F
100
AcDbEntity
  8
0
  6
Continuous
 62
     7
370
    25
100
AcDbSpline
210
0.0
220
0.0
230
1.0
 70
     8
 71
     3
 72
    10
 73
     6
 74
     0
 42
0.00000001
 43
0.00000001
 40
0.0
 40
0.0
 40
0.0
 40
0.0
 40
0.5618559501572724
 40
0.9667158433551881
 40
1.0
 40
1.0
 40
1.0
 40
1.0
 10
131.5147532662396
 20
154.9765441851846
 30
0.0
 10
131.7042110283759
 20
155.0302623969047
 30
0.0
 10
132.0301875001965
 20
155.1226886608466
 30
0.0
 10
132.3863625212286
 20
155.1139895245594
 30
0.0
 10
132.5409825289885
 20
155.1095753545592
 30
0.0
 10
132.5527284298186
 20
155.1092400266555
 30
0.0
  0
LINE
  5
1FA
330
1F
100
AcDbEntity
  8
0
  6
Continuous
 62
     7
370
    25
100
AcDbLine
 10
154.3147532662
 20
154.2293512751
 30
0.0
 11
154.3147532662
 21
186.5293512751
 31
0.0
  0
SPLINE
  5
1FB
330
1F
100
AcDbEntity
  8
0
  6
Continuous
 62
     7
370
    25
100
AcDbSpline
210
0.0
220
0.0
230
1.0
 70
     8
 71
     3
 72
    19
 73
    15
 74
     0
 42
0.00000001
 43
0.00000001
 40
0.0
 40
0.0
 40
0.0
 40
0.0
 40
0.0803269828850476
 40
0.1653602295856689
 40
0.2489418119503315
 40
0.3325233943149941
 40
0.4175566410156154
 40
0.5011382233802778
 40
0.5847198057449401
 40
0.6697530524455615
 40
0.7533346348102242
 40
0.8369162171748866
 40
0.921949463875508
 40
1.0
 40
1.0
 40
1.0
 40
1.0
 10
157.2561121737037
 20
156.6637613085999
 30
0.0
 10
157.2366675960147
 20
156.771519892018
 30
0.0
 10
157.1966392056112
 20
156.9933505080059
 30
0.0
 10
157.1320342307933
 20
158.4800244562949
 30
0.0
 10
157.071004367932
 20
160.7244318355738
 30
0.0
 10
157.0099678442912
 20
163.6425116638803
 30
0.0
 10
156.9445384548113
 20
167.017613400566
 30
0.0
 10
156.8835032795947
 20
170.6218319710934
 30
0.0
 10
156.8224680114275
 20
174.209649513229
 30
0.0
 10
156.7570389040283
 20
177.5362046151993
 30
0.0
 10
156.6960013594619
 20
180.377412316381
 30
0.0
 10
156.6349753094402
 20
182.5204126189508
 30
0.0
 10
156.5709470427975
 20
183.88283868517
 30
0.0
 10
156.5314633710117
 20
184.0221517343164
 30
0.0
 10
156.5125668155256
 20
184.0888257958732
 30
0.0
  0
LINE
  5
1FC
330
1F
100
AcDbEntity
  8
0
  6
Continuous
 62
     7
370
    25
100
AcDbLine
 10
155.7585032642
 20
156.6433424669
 30
0.0
 11
156.2272532621
 21
155.8315673105
 31
0.0
  0
SPLINE
  5
1FD
330
1F
100
AcDbEntity
  8
0
  6
Continuous
 62
     7
370
    25
100
AcDbSpline
210
0.0
220
0.0
230
1.0
 70
     8
 71
     3
 72
    18
 73
    14
 74
     0
 42
0.00000001
 43
0.00000001
 40
0.0
 40
0.0
 40
0.0
 40
0.0
 40
0.0910433509061864
 40
0.1820723483004658
 40
0.2731013456947441
 40
0.3657112483094543
 40
0.4567402457037325
 40
0.5477692430980108
 40
0.6403791457127201
 40
0.7314081431069992
 40
0.8224371405012775
 40
0.9150470431159865
 40
1.0
 40
1.0
 40
1.0
 40
1.0
 10
157.6647532662405
 20
156.4128494162285
 30
0.0
 10
157.6433778437357
 20
156.8528203435019
 30
0.0
 10
157.6006303686855
 20
157.7326928340821
 30
0.0
 10
157.5397023429659
 20
160.169283192398
 30
0.0
 10
157.4787321083325
 20
163.2401532424058
 30
0.0
 10
157.4132846396376
 20
166.8200604245287
 30
0.0
 10
157.3522542786188
 20
170.6358650493513
 30
0.0
 10
157.2912177834428
 20
174.4360924525726
 30
0.0
 10
157.2257889302841
 20
177.9591425142678
 30
0.0
 10
157.1647513209973
 20
180.968291289102
 30
0.0
 10
157.1037254260128
 20
183.2379080267878
 30
0.0
 10
157.0397091878016
 20
184.6806599690364
 30
0.0
 10
157.000237015793
 20
184.8282004198225
 30
0.0
 10
156.9813519981929
 20
184.8987894922764
 30
0.0
  0
LINE
  5
1FE
330
1F
100
AcDbEntity
  8
0
  6
Continuous
 62
     7
370
    25
100
AcDbLine
 10
156.2313519982
 20
155.8599130578
 30
0.0
 11
156.2272532621
 21
155.8315673105
 31
0.0
  0
ELLIPSE
  5
1FF
330
1F
100
AcDbEntity
  8
0
  6
Continuous
 62
     7
370
    25
100
AcDbEllipse
 10
163.3151996829
 20
170.3793512751
 30
0.0
 11
8.399726693545432
 21
14.54986151558529
 31
0.0
210
0.0
220
0.0
230
1.0
 40
0.0075575453
 41
2.792861411822706
 42
3.128502351888641
  0
SPLINE
  5
200
330
1F
100
AcDbEntity
  8
0
  6
Continuous
 62
     7
370
    25
100
AcDbSpline
210
0.0
220
0.0
230
1.0
 70
     8
 71
     3
 72
    15
 73
    11
 74
     0
 42
0.00000001
 43
0.00000001
 40
0.0
 40
0.0
 40
0.0
 40
0.0
 40
0.1255195316067541
 40
0.2510192824167017
 40
0.3765190332266489
 40
0.5041983445821108
 40
0.6296980953920582
 40
0.7551978462020059
 40
0.8828771575574674
 40
1.0
 40
1.0
 40
1.0
 40
1.0
 10
157.6647532662405
 20
163.3665712498026
 30
0.0
 10
157.6433778419906
 20
164.5173316827122
 30
0.0
 10
157.6006303620736
 20
166.818671198601
 30
0.0
 10
157.5397023845883
 20
170.6420650294872
 30
0.0
 10
157.4787319706929
 20
174.4343980702628
 30
0.0
 10
157.4132851792244
 20
177.9595911218981
 30
0.0
 10
157.352252323244
 20
180.968172045694
 30
0.0
 10
157.2912251579966
 20
183.2379405346021
 30
0.0
 10
157.2272092538496
 20
184.6806525680802
 30
0.0
 10
157.1877370399379
 20
184.8281980247931
 30
0.0
 10
157.1688520022897
 20
184.8987894922764
 30
0.0
  0
SPLINE
  5
201
330
1F
100
AcDbEntity
  8
0
  6
Continuous
 62
     7
370
    25
100
AcDbSpline
210
0.0
220
0.0
230
1.0
 70
     8
 71
     3
 72
    20
 73
    16
 74
     0
 42
0.00000001
 43
0.00000001
 40
0.0
 40
0.0
 40
0.0
 40
0.0
 40
0.0141015833985092
 40
0.0962411678673787
 40
0.179807274670977
 40
0.2619468591398466
 40
0.3440864436087159
 40
0.4276525504123141
 40
0.5097921348811837
 40
0.591931719350053
 40
0.6754978261536513
 40
0.7576374106225209
 40
0.8397769950913904
 40
0.9233431018949885
 40
1.0
 40
1.0
 40
1.0
 40
1.0
 10
156.4252953006357
 20
155.9044731623286
 30
0.0
 10
156.4217778747696
 20
155.876495933356
 30
0.0
 10
156.3977719767308
 20
155.6855555890038
 30
0.0
 10
156.3538131730397
 20
156.2883195036109
 30
0.0
 10
156.2882631912842
 20
157.7485595535981
 30
0.0
 10
156.2272599510104
 20
160.1613491734306
 30
0.0
 10
156.1662163699275
 20
163.2423215192875
 30
0.0
 10
156.1007888118009
 20
166.8194863402804
 30
0.0
 10
156.0397531746134
 20
170.636017672647
 30
0.0
 10
155.978718090371
 20
174.4360507424047
 30
0.0
 10
155.9132888542027
 20
177.9591535575249
 30
0.0
 10
155.8522513464061
 20
180.9682883537181
 30
0.0
 10
155.7912254242996
 20
183.2379088270242
 30
0.0
 10
155.7272091932212
 20
184.680659786849
 30
0.0
 10
155.6877370203179
 20
184.8282003608647
 30
0.0
 10
155.6688520022897
 20
184.8987894922764
 30
0.0
  0
LINE
  5
202
330
1F
100
AcDbEntity
  8
0
  6
Continuous
 62
     7
370
    25
100
AcDbLine
 10
154.9188520023
 20
155.8599130578
 30
0.0
 11
154.9147532662
 21
155.8315673105
 31
0.0
  0
ELLIPSE
  5
203
330
1F
100
AcDbEntity
  8
0
  6
Continuous
 62
     7
370
    25
100
AcDbEllipse
 10
147.8268068454
 20
170.3793512751
 30
0.0
 11
-8.399726693544466
 21
14.54986151558342
 31
0.0
210
0.0
220
0.0
230
1.0
 40
0.0075575453
 41
3.154682955292807
 42
3.490323895358544
  0
LINE
  5
204
330
1F
100
AcDbEntity
  8
0
  6
Continuous
 62
     7
370
    25
100
AcDbLine
 10
155.3835032642
 20
156.7269813395
 30
0.0
 11
155.7585032642
 21
156.7269813395
 31
0.0
  0
LINE
  5
205
330
1F
100
AcDbEntity
  8
0
  6
Continuous
 62
     7
370
    25
100
AcDbLine
 10
154.9147532662
 20
155.8315673105
 30
0.0
 11
155.3835032642
 21
156.6433424669
 31
0.0
  0
LINE
  5
206
330
1F
100
AcDbEntity
  8
0
  6
Continuous
 62
     7
370
    25
100
AcDbLine
 10
157.6647532662
 20
183.9704791591
 30
0.0
 11
157.6441606173
 21
184.0659505772
 31
0.0
  0
SPLINE
  5
207
330
1F
100
AcDbEntity
  8
0
  6
Continuous
 62
     7
370
    25
100
AcDbSpline
210
0.0
220
0.0
230
1.0
 70
     8
 71
     3
 72
    21
 73
    17
 74
     0
 42
0.00000001
 43
0.00000001
 40
0.0
 40
0.0
 40
0.0
 40
0.0
 40
0.0055657899071504
 40
0.0891456375591576
 40
0.1741771194182315
 40
0.2577569670702385
 40
0.3413368147222458
 40
0.4263682965813196
 40
0.5099481442333268
 40
0.5935279918853337
 40
0.6785594737444075
 40
0.7621393213964148
 40
0.8250426672764368
 40
0.8891790790615866
 40
0.9525214178599475
 40
1.0
 40
1.0
 40
1.0
 40
1.0
 10
156.8875924258866
 20
156.6700439854544
 30
0.0
 10
156.8862288004572
 20
156.6605625854876
 30
0.0
 10
156.864388008706
 20
156.5087017608617
 30
0.0
 10
156.8225738052509
 20
157.0854738600942
 30
0.0
 10
156.7570104231042
 20
158.4504877123946
 30
0.0
 10
156.696010647876
 20
160.7322829900546
 30
0.0
 10
156.6349663140611
 20
163.6403710685082
 30
0.0
 10
156.5695381554823
 20
167.0181610729536
 30
0.0
 10
156.508505929876
 20
170.6217560024114
 30
0.0
 10
156.4474576175696
 20
174.2094083544529
 30
0.0
 10
156.3820782778863
 20
177.5372604462905
 30
0.0
 10
156.325876608605
 20
180.1409748970372
 30
0.0
 10
156.2753922066331
 20
182.0159344663441
 30
0.0
 10
156.2268613026049
 20
183.2431255185454
 30
0.0
 10
156.1822254815503
 20
183.9674670047569
 30
0.0
 10
156.1555773668504
 20
184.0364125161925
 30
0.0
 10
156.1441606172697
 20
184.0659505772389
 30
0.0
  0
LINE
  5
208
330
1F
100
AcDbEntity
  8
0
  6
Continuous
 62
     7
370
    25
100
AcDbLine
 10
155.3875924259
 20
156.6700439855
 30
0.0
 11
155.3835032642
 21
156.6433424669
 31
0.0
  0
LINE
  5
209
330
1F
100
AcDbEntity
  8
0
  6
Continuous
 62
     7
370
    25
100
AcDbLine
 10
155.3835032642
 20
156.6433424669
 30
0.0
 11
155.7585032642
 21
156.6433424669
 31
0.0
  0
LINE
  5
20A
330
1F
100
AcDbEntity
  8
0
  6
Continuous
 62
     7
370
    25
100
AcDbLine
 10
155.7585032642
 20
156.7269813395
 30
0.0
 11
155.7585032642
 21
156.6433424669
 31
0.0
  0
LINE
  5
20B
330
1F
100
AcDbEntity
  8
0
  6
Continuous
 62
     7
370
    25
100
AcDbLine
 10
155.3835032642
 20
156.7269813395
 30
0.0
 11
155.3835032642
 21
156.6433424669
 31
0.0
  0
ARC
  5
20C
330
1F
100
AcDbEntity
  8
0
  6
Continuous
 62
     7
370
    25
100
AcDbCircle
 10
122.9147532662
 20
170.3793512751
 30
0.0
 40
26.925
100
AcDbArc
 50
36.8565989473
 51
251.3730086145
  0
ARC
  5
20D
330
1F
100
AcDbEntity
  8
0
  6
Continuous
 62
     7
370
    25
100
AcDbCircle
 10
122.9147532662
 20
170.3793512751
 30
0.0
 40
26.925
100
AcDbArc
 50
288.6269913855
 51
323.1434010527
  0
LINE
  5
20E
330
1F
100
AcDbEntity
  8
0
  6
Continuous
 62
     7
370
    25
100
AcDbLine
 10
207.3146472796
 20
167.7793512751
 30
0.0
 11
207.2971688183
 21
167.7793512751
 31
0.0
  0
LINE
  5
20F
330
1F
100
AcDbEntity
  8
0
  6
Continuous
 62
     7
370
    25
100
AcDbLine
 10
207.2971688183
 20
172.9793512751
 30
0.0
 11
207.3146472796
 21
172.9793512751
 31
0.0
  0
ARC
  5
210
330
1F
100
AcDbEntity
  8
0
  6
Continuous
 62
     7
370
    25
100
AcDbCircle
 10
197.0075186784
 20
170.3793512751
 30
0.0
 40
10.61305328357491
100
AcDbArc
 50
7.3079276166
 51
14.1807309007
  0
SPLINE
  5
211
330
1F
100
AcDbEntity
  8
0
  6
Continuous
 62
     7
370
    25
100
AcDbSpline
210
0.0
220
0.0
230
1.0
 70
     8
 71
     3
 72
    12
 73
     8
 74
     0
 42
0.00000001
 43
0.00000001
 40
0.0
 40
0.0
 40
0.0
 40
0.0
 40
0.2133534395476108
 40
0.4267919313634443
 40
0.6383539739091507
 40
0.849095035192757
 40
1.0
 40
1.0
 40
1.0
 40
1.0
 10
207.5343605600401
 20
170.9793512750501
 30
0.0
 10
207.5440197037675
 20
170.9874528351661
 30
0.0
 10
207.563341841791
 20
171.003659185044
 30
0.0
 10
207.575654911799
 20
171.13106031006
 30
0.0
 10
207.5733174715023
 20
171.3184543259657
 30
0.0
 10
207.5581999524885
 20
171.529430351257
 30
0.0
 10
207.5413793401075
 20
171.6704906728759
 30
0.0
 10
207.5343605600401
 20
171.7293512750501
 30
0.0
  0
LINE
  5
212
330
1F
100
AcDbEntity
  8
0
  6
Continuous
 62
     7
370
    25
100
AcDbLine
 10
207.2971688183
 20
170.9793512751
 30
0.0
 11
207.53436056
 21
170.9793512751
 31
0.0
  0
ARC
  5
213
330
1F
100
AcDbEntity
  8
0
  6
Continuous
 62
     7
370
    25
100
AcDbCircle
 10
197.0075186784
 20
170.3793512751
 30
0.0
 40
10.30712860111875
100
AcDbArc
 50
356.6628035549
 51
3.3371964451
  0
LINE
  5
214
330
1F
100
AcDbEntity
  8
0
  6
Continuous
 62
     7
370
    25
100
AcDbLine
 10
207.53436056
 20
169.7793512751
 30
0.0
 11
207.2971688183
 21
169.7793512751
 31
0.0
  0
SPLINE
  5
215
330
1F
100
AcDbEntity
  8
0
  6
Continuous
 62
     7
370
    25
100
AcDbSpline
210
0.0
220
0.0
230
1.0
 70
     8
 71
     3
 72
    12
 73
     8
 74
     0
 42
0.00000001
 43
0.00000001
 40
0.0
 40
0.0
 40
0.0
 40
0.0
 40
0.2133534395476134
 40
0.4267919313634472
 40
0.6383539739091502
 40
0.8490950351927571
 40
1.0
 40
1.0
 40
1.0
 40
1.0
 10
207.5343605600401
 20
169.0293512750501
 30
0.0
 10
207.5440197037675
 20
169.1128450632072
 30
0.0
 10
207.563341841791
 20
169.2798659238973
 30
0.0
 10
207.5756549117991
 20
169.5037026854949
 30
0.0
 10
207.5733174715023
 20
169.6727884063721
 30
0.0
 10
207.5581999524885
 20
169.7654499925821
 30
0.0
 10
207.5413793401075
 20
169.7752584675463
 30
0.0
 10
207.5343605600401
 20
169.7793512750501
 30
0.0
  0
ARC
  5
216
330
1F
100
AcDbEntity
  8
0
  6
Continuous
 62
     7
370
    25
100
AcDbCircle
 10
197.0075186784
 20
170.3793512751
 30
0.0
 40
10.6130532835749
100
AcDbArc
 50
345.8192690993
 51
352.6920723834
  0
SPLINE
  5
217
330
1F
100
AcDbEntity
  8
0
  6
Continuous
 62
     7
370
    25
100
AcDbSpline
210
0.0
220
0.0
230
1.0
 70
     8
 71
     3
 72
    12
 73
     8
 74
     0
 42
0.00000001
 43
0.00000001
 40
0.0
 40
0.0
 40
0.0
 40
0.0
 40
0.1224290494151352
 40
0.3423522449770467
 40
0.561422881690944
 40
0.7807229538533532
 40
1.0
 40
1.0
 40
1.0
 40
1.0
 10
202.9032827152494
 20
167.6270094712063
 30
0.0
 10
203.027046238642
 20
167.6246507867654
 30
0.0
 10
203.3731301156476
 20
167.6180551224406
 30
0.0
 10
203.9141803497452
 20
167.6010471547014
 30
0.0
 10
204.4278005089544
 20
167.575536180547
 30
0.0
 10
204.7842809733144
 20
167.5459839979876
 30
0.0
 10
204.84005521707
 20
167.5262177211086
 30
0.0
 10
204.8679408748282
 20
167.51633510155
 30
0.0
  0
SPLINE
  5
218
330
1F
100
AcDbEntity
  8
0
  6
Continuous
 62
     7
370
    25
100
AcDbSpline
210
0.0
220
0.0
230
1.0
 70
     8
 71
     3
 72
    11
 73
     7
 74
     0
 42
0.00000001
 43
0.00000001
 40
0.0
 40
0.0
 40
0.0
 40
0.0
 40
0.0800485240044433
 40
0.5000005853538798
 40
0.9209248322279645
 40
1.0
 40
1.0
 40
1.0
 40
1.0
 10
202.9032827152494
 20
167.6270094712063
 30
0.0
 10
202.9196816467535
 20
167.7732538963069
 30
0.0
 10
203.0221129589255
 20
168.68672855514
 30
0.0
 10
203.0929059828949
 20
170.3811381428985
 30
0.0
 10
203.0219983065356
 20
172.0737649947532
 30
0.0
 10
202.9194938486396
 20
172.9872283703971
 30
0.0
 10
202.9032827152501
 20
173.1316930788883
 30
0.0
  0
SPLINE
  5
219
330
1F
100
AcDbEntity
  8
0
  6
Continuous
 62
     7
370
    25
100
AcDbSpline
210
0.0
220
0.0
230
1.0
 70
     8
 71
     3
 72
    12
 73
     8
 74
     0
 42
0.00000001
 43
0.00000001
 40
0.0
 40
0.0
 40
0.0
 40
0.0
 40
0.1130367476169278
 40
0.3328594693547993
 40
0.5544127937944988
 40
0.7774207483513238
 40
1.0
 40
1.0
 40
1.0
 40
1.0
 10
204.867940874828
 20
173.242367448552
 30
0.0
 10
204.858872362777
 20
173.2373522028506
 30
0.0
 10
204.8321683026126
 20
173.2225838017947
 30
0.0
 10
204.6190257549485
 20
173.1969915976855
 30
0.0
 10
204.1765664386537
 20
173.1691163348144
 30
0.0
 10
203.5807633498525
 20
173.1456744612239
 30
0.0
 10
203.1289647004557
 20
173.1363505494643
 30
0.0
 10
202.9032827152501
 20
173.1316930788883
 30
0.0
  0
SPLINE
  5
21A
330
1F
100
AcDbEntity
  8
0
  6
Continuous
 62
     7
370
    25
100
AcDbSpline
210
0.0
220
0.0
230
1.0
 70
     8
 71
     3
 72
    11
 73
     7
 74
     0
 42
0.00000001
 43
0.00000001
 40
0.0
 40
0.0
 40
0.0
 40
0.0
 40
0.0614641195413918
 40
0.4999988937835377
 40
0.9375097801832794
 40
1.0
 40
1.0
 40
1.0
 40
1.0
 10
204.867940874828
 20
173.242367448552
 30
0.0
 10
204.880099771883
 20
173.1259104760999
 30
0.0
 10
204.9790100812223
 20
172.1785552087686
 30
0.0
 10
205.0440916058335
 20
170.3813110103204
 30
0.0
 10
204.979119297843
 20
168.5821129860796
 30
0.0
 10
204.8802922903461
 20
167.6347381616465
 30
0.0
 10
204.8679408748282
 20
167.51633510155
 30
0.0
  0
LINE
  5
21B
330
1F
100
AcDbEntity
  8
0
  6
Continuous
 62
     7
370
    25
100
AcDbLine
 10
202.6345721327
 20
167.6225710181
 30
0.0
 11
202.9032827152
 21
167.6270094712
 31
0.0
  0
LINE
  5
21C
330
1F
100
AcDbEntity
  8
0
  6
Continuous
 62
     7
370
    25
100
AcDbLine
 10
202.6345721327
 20
173.136131532
 30
0.0
 11
202.6345721327
 21
167.6225710181
 31
0.0
  0
LINE
  5
21D
330
1F
100
AcDbEntity
  8
0
  6
Continuous
 62
     7
370
    25
100
AcDbLine
 10
202.9032827153
 20
173.1316930789
 30
0.0
 11
202.6345721327
 21
173.136131532
 31
0.0
  0
SPLINE
  5
21E
330
1F
100
AcDbEntity
  8
0
  6
Continuous
 62
     7
370
    25
100
AcDbSpline
210
0.0
220
0.0
230
1.0
 70
     8
 71
     3
 72
    12
 73
     8
 74
     0
 42
0.00000001
 43
0.00000001
 40
0.0
 40
0.0
 40
0.0
 40
0.0
 40
0.2230315344150424
 40
0.446133755834037
 40
0.6675099896776974
 40
0.8870667292264951
 40
1.0
 40
1.0
 40
1.0
 40
1.0
 10
202.9032827152501
 20
173.6308561499368
 30
0.0
 10
203.0731251926231
 20
173.628965902642
 30
0.0
 10
203.4128639767789
 20
173.6251848089627
 30
0.0
 10
203.8611362042839
 20
173.6321276452333
 30
0.0
 10
204.1937723421808
 20
173.6477164677231
 30
0.0
 10
204.3536683701628
 20
173.6670537477873
 30
0.0
 10
204.3734034107724
 20
173.6806193489638
 30
0.0
 10
204.3801065976824
 20
173.6852270293852
 30
0.0
  0
ARC
  5
21F
330
1F
100
AcDbEntity
  8
0
  6
Continuous
 62
     7
370
    25
100
AcDbCircle
 10
204.3707826964
 20
173.1848382529
 30
0.0
 40
0.5004756365191866
100
AcDbArc
 50
6.6006859565
 51
88.9325132694
  0
ARC
  5
220
330
1F
100
AcDbEntity
  8
0
  6
Continuous
 62
     7
370
    25
100
AcDbCircle
 10
194.797875308
 20
173.3812746144
 30
0.0
 40
8.109249051562324
100
AcDbArc
 50
358.2363068264
 51
1.7636931736
  0
SPLINE
  5
221
330
1F
100
AcDbEntity
  8
0
  6
Continuous
 62
     7
370
    25
100
AcDbSpline
210
0.0
220
0.0
230
1.0
 70
     8
 71
     3
 72
    12
 73
     8
 74
     0
 42
0.00000001
 43
0.00000001
 40
0.0
 40
0.0
 40
0.0
 40
0.0
 40
0.2190444340109331
 40
0.4380981679380288
 40
0.6571027493691858
 40
0.877279108729002
 40
0.9999999999999999
 40
0.9999999999999999
 40
0.9999999999999999
 40
0.9999999999999999
 10
204.3801065976825
 20
167.0734755207147
 30
0.0
 10
204.3593587142848
 20
167.0823043336645
 30
0.0
 10
204.3178620666015
 20
167.0999623344068
 30
0.0
 10
204.0500553062546
 20
167.1194808238158
 30
0.0
 10
203.66376111043
 20
167.1307866074482
 30
0.0
 10
203.25676158966
 20
167.1326104755248
 30
0.0
 10
202.9964475613113
 20
167.1291020462
 30
0.0
 10
202.9032827152516
 20
167.1278464001634
 30
0.0
  0
ARC
  5
222
330
1F
100
AcDbEntity
  8
0
  6
Continuous
 62
     7
370
    25
100
AcDbCircle
 10
194.7978753111
 20
167.3774279356
 30
0.0
 40
8.109249048458466
100
AcDbArc
 50
358.236306826
 51
1.7636931745
  0
ARC
  5
223
330
1F
100
AcDbEntity
  8
0
  6
Continuous
 62
     7
370
    25
100
AcDbCircle
 10
204.3707826964
 20
167.5738642972
 30
0.0
 40
0.5004756365188123
100
AcDbArc
 50
271.0674867306
 51
353.3993140438
  0
ELLIPSE
  5
224
330
1F
100
AcDbEntity
  8
0
  6
Continuous
 62
     7
370
    25
100
AcDbEllipse
 10
202.608393523
 20
167.0401154971
 30
0.0
 11
1.499999296945703
 21
0.02630270273701285
 31
0.0
210
0.0
220
0.0
230
1.0
 40
0.0552146892
 41
1.552374837086652
 42
2.455332570000963
  0
ARC
  5
225
330
1F
100
AcDbEntity
  8
0
  6
Continuous
 62
     7
370
    25
100
AcDbCircle
 10
201.5260089645
 20
167.5414053378
 30
0.0
 40
0.475757448874805
100
AcDbArc
 50
176.3840879997
 51
260.4457404449
  0
ELLIPSE
  5
226
330
1F
100
AcDbEntity
  8
0
  6
Continuous
 62
     7
370
    25
100
AcDbEllipse
 10
202.5996673198
 20
167.5392785681
 30
0.0
 11
1.999999704111531
 21
0.0262675638983012
 31
0.0
210
0.0
220
0.0
230
1.0
 40
0.0414165792
 41
1.552799077927852
 42
2.455756810842462
  0
ARC
  5
227
330
1F
100
AcDbEntity
  8
0
  6
Continuous
 62
     7
370
    25
100
AcDbCircle
 10
194.5291647255
 20
167.3729894826
 30
0.0
 40
8.109249051491245
100
AcDbArc
 50
358.2363068264
 51
1.7636931736
  0
LINE
  5
228
330
1F
100
AcDbEntity
  8
0
  6
Continuous
 62
     7
370
    25
100
AcDbLine
 10
201.0511986289
 20
167.5714102591
 30
0.0
 11
201.0511986289
 21
173.187292291
 31
0.0
  0
ELLIPSE
  5
229
330
1F
100
AcDbEntity
  8
0
  6
Continuous
 62
     7
370
    25
100
AcDbEllipse
 10
202.5996673198
 20
173.219423982
 30
0.0
 11
1.999999704111531
 21
-0.0262675638983012
 31
0.0
210
0.0
220
0.0
230
1.0
 40
0.0414165792
 41
3.827428496337497
 42
4.730386229251723
  0
ELLIPSE
  5
22A
330
1F
100
AcDbEntity
  8
0
  6
Continuous
 62
     7
370
    25
100
AcDbEllipse
 10
202.608393523
 20
173.718587053
 30
0.0
 11
1.499999296945703
 21
-0.0263027027370697
 31
0.0
210
0.0
220
0.0
230
1.0
 40
0.0552146892
 41
3.827852737179185
 42
4.730810470092937
  0
ARC
  5
22B
330
1F
100
AcDbEntity
  8
0
  6
Continuous
 62
     7
370
    25
100
AcDbCircle
 10
194.5291647255
 20
173.3857130675
 30
0.0
 40
8.109249051492212
100
AcDbArc
 50
358.2363068264
 51
1.7636931736
  0
ARC
  5
22C
330
1F
100
AcDbEntity
  8
0
  6
Continuous
 62
     7
370
    25
100
AcDbCircle
 10
201.5260089645
 20
173.2172972123
 30
0.0
 40
0.4757574488748883
100
AcDbArc
 50
99.5542595551
 51
183.6159120003
  0
LINE
  5
22D
330
1F
100
AcDbEntity
  8
0
  6
Continuous
 62
     7
370
    25
100
AcDbLine
 10
202.6345721327
 20
173.635294603
 30
0.0
 11
202.9032827153
 21
173.6308561499
 31
0.0
  0
LINE
  5
22E
330
1F
100
AcDbEntity
  8
0
  6
Continuous
 62
     7
370
    25
100
AcDbLine
 10
202.9032827153
 20
167.1278464002
 30
0.0
 11
202.6345721327
 21
167.1234079471
 31
0.0
  0
LINE
  5
22F
330
1F
100
AcDbEntity
  8
0
  6
Continuous
 62
     7
370
    25
100
AcDbLine
 10
204.3660592558
 20
176.2898395949
 30
0.0
 11
200.2027972234
 21
176.3611298703
 31
0.0
  0
SPLINE
  5
230
330
1F
100
AcDbEntity
  8
0
  6
Continuous
 62
     7
370
    25
100
AcDbSpline
210
0.0
220
0.0
230
1.0
 70
     8
 71
     3
 72
    10
 73
     6
 74
     0
 42
0.00000001
 43
0.00000001
 40
0.0
 40
0.0
 40
0.0
 40
0.0
 40
0.3702896688583042
 40
0.7405318123903296
 40
0.9999999999999999
 40
0.9999999999999999
 40
0.9999999999999999
 40
0.9999999999999999
 10
204.3801065976824
 20
173.6852270293852
 30
0.0
 10
204.4522112895026
 20
174.0054180439115
 30
0.0
 10
204.5964114187692
 20
174.645758977617
 30
0.0
 10
204.5360140967882
 20
175.5149933094803
 30
0.0
 10
204.4156532053243
 20
176.0637343110895
 30
0.0
 10
204.3660592558164
 20
176.2898395949213
 30
0.0
  0
LINE
  5
231
330
1F
100
AcDbEntity
  8
0
  6
Continuous
 62
     7
370
    25
100
AcDbLine
 10
198.6146026322
 20
173.927346641
 30
0.0
 11
201.4470420048
 21
173.686455362
 31
0.0
  0
LINE
  5
232
330
1F
100
AcDbEntity
  8
0
  6
Continuous
 62
     7
370
    25
100
AcDbLine
 10
198.6202308834
 20
173.9272482498
 30
0.0
 11
198.6146026322
 21
173.927346641
 31
0.0
  0
ELLIPSE
  5
233
330
1F
100
AcDbEntity
  8
0
  6
Continuous
 62
     7
370
    25
100
AcDbEllipse
 10
209.6182855468
 20
174.2568943013
 30
0.0
 11
14.49999320380851
 21
-0.2542594597913421
 31
0.0
210
0.0
220
0.0
230
1.0
 40
0.0552146892
 41
3.116244259334506
 42
3.852369595890206
  0
ELLIPSE
  5
234
330
1F
100
AcDbEntity
  8
0
  6
Continuous
 62
     7
370
    25
100
AcDbEllipse
 10
159.433027192
 20
175.2071778505
 30
0.0
 11
35.70262486333175
 21
-0.6260506459064743
 31
0.0
210
0.0
220
0.0
230
1.0
 40
0.0552146892
 41
0.0609777977009095
 42
0.4568521056103071
  0
ELLIPSE
  5
235
330
1F
100
AcDbEntity
  8
0
  6
Continuous
 62
     7
370
    25
100
AcDbEllipse
 10
198.2234794695
 20
175.5795739103
 30
0.0
 11
7.49999648472857
 21
-0.131513513685178
 31
0.0
210
0.0
220
0.0
230
1.0
 40
0.0552146892
 41
3.407554101490276
 42
3.598444759200279
  0
LINE
  5
236
330
1F
100
AcDbEntity
  8
0
  6
Continuous
 62
     7
370
    25
100
AcDbLine
 10
199.6500114433
 20
175.4472294591
 30
0.0
 11
190.9852724553
 21
175.5976200036
 31
0.0
  0
SPLINE
  5
237
330
1F
100
AcDbEntity
  8
0
  6
Continuous
 62
     7
370
    25
100
AcDbSpline
210
0.0
220
0.0
230
1.0
 70
     8
 71
     3
 72
    10
 73
     6
 74
     0
 42
0.00000001
 43
0.00000001
 40
0.0
 40
0.0
 40
0.0
 40
0.0
 40
0.0186368637457253
 40
0.3939469944633057
 40
1.0
 40
1.0
 40
1.0
 40
1.0
 10
200.2027972233881
 20
175.4477158263252
 30
0.0
 10
200.2000566489355
 20
175.4476280758459
 30
0.0
 10
200.142126243721
 20
175.445773201653
 30
0.0
 10
199.9668544721435
 20
175.4430932202748
 30
0.0
 10
199.7709776253049
 20
175.4456503016724
 30
0.0
 10
199.6500114433116
 20
175.4472294590803
 30
0.0
  0
LINE
  5
238
330
1F
100
AcDbEntity
  8
0
  6
Continuous
 62
     7
370
    25
100
AcDbLine
 10
200.2027972234
 20
176.3611298703
 30
0.0
 11
200.2027972234
 21
175.4477158263
 31
0.0
  0
LINE
  5
239
330
1F
100
AcDbEntity
  8
0
  6
Continuous
 62
     7
370
    25
100
AcDbLine
 10
199.2693770095
 20
165.294783075
 30
0.0
 11
199.2693770095
 21
164.3815886127
 31
0.0
  0
SPLINE
  5
23A
330
1F
100
AcDbEntity
  8
0
  6
Continuous
 62
     7
370
    25
100
AcDbSpline
210
0.0
220
0.0
230
1.0
 70
     8
 71
     3
 72
    11
 73
     7
 74
     0
 42
0.00000001
 43
0.00000001
 40
0.0
 40
0.0
 40
0.0
 40
0.0
 40
0.4177469294495335
 40
0.8392770662410767
 40
0.9817832068819767
 40
1.0
 40
1.0
 40
1.0
 40
1.0
 10
198.7661697221989
 20
165.2961325202333
 30
0.0
 10
198.8427815025895
 20
165.297215711417
 30
0.0
 10
198.99669887637
 20
165.2993919034001
 30
0.0
 10
199.1664546904758
 20
165.2981897265087
 30
0.0
 10
199.2471138688037
 20
165.2957191991687
 30
0.0
 10
199.26711053109
 20
165.2948783762117
 30
0.0
 10
199.2693770095035
 20
165.2947830749532
 30
0.0
  0
LINE
  5
23B
330
1F
100
AcDbEntity
  8
0
  6
Continuous
 62
     7
370
    25
100
AcDbLine
 10
190.9852724553
 20
165.1610825465
 30
0.0
 11
198.7661697222
 21
165.2961325202
 31
0.0
  0
ELLIPSE
  5
23C
330
1F
100
AcDbEntity
  8
0
  6
Continuous
 62
     7
370
    25
100
AcDbEllipse
 10
198.2234794695
 20
165.1791286398
 30
0.0
 11
7.49999648472857
 21
0.1315135136851495
 31
0.0
210
0.0
220
0.0
230
1.0
 40
0.0552146892
 41
2.684740547979569
 42
2.87563120568974
  0
ELLIPSE
  5
23D
330
1F
100
AcDbEntity
  8
0
  6
Continuous
 62
     7
370
    25
100
AcDbEllipse
 10
159.433027192
 20
165.5515246996
 30
0.0
 11
35.70262486333175
 21
0.6260506459064459
 31
0.0
210
0.0
220
0.0
230
1.0
 40
0.0552146892
 41
5.826333201569504
 42
6.30853370143489
  0
ELLIPSE
  5
23E
330
1F
100
AcDbEntity
  8
0
  6
Continuous
 62
     7
370
    25
100
AcDbEllipse
 10
209.6182855468
 20
166.5018082488
 30
0.0
 11
14.49999320380851
 21
0.2542594597913421
 31
0.0
210
0.0
220
0.0
230
1.0
 40
0.0552146892
 41
2.430815711289497
 42
3.166941047845333
  0
LINE
  5
23F
330
1F
100
AcDbEntity
  8
0
  6
Continuous
 62
     7
370
    25
100
AcDbLine
 10
198.6146026322
 20
166.8313559091
 30
0.0
 11
198.6202308834
 21
166.8314543003
 31
0.0
  0
LINE
  5
240
330
1F
100
AcDbEntity
  8
0
  6
Continuous
 62
     7
370
    25
100
AcDbLine
 10
201.4470420048
 20
167.0722471881
 30
0.0
 11
198.6146026322
 21
166.8313559091
 31
0.0
  0
SPLINE
  5
241
330
1F
100
AcDbEntity
  8
0
  6
Continuous
 62
     7
370
    25
100
AcDbSpline
210
0.0
220
0.0
230
1.0
 70
     8
 71
     3
 72
    10
 73
     6
 74
     0
 42
0.00000001
 43
0.00000001
 40
0.0
 40
0.0
 40
0.0
 40
0.0
 40
0.3702717503651154
 40
0.740512215137175
 40
1.0
 40
1.0
 40
1.0
 40
1.0
 10
204.3660592558187
 20
164.4688629551788
 30
0.0
 10
204.4289022131057
 20
164.7913914408468
 30
0.0
 10
204.5545828178522
 20
165.4364211605898
 30
0.0
 10
204.5901071167771
 20
166.3052356480688
 30
0.0
 10
204.4413881843902
 20
166.8492905588356
 30
0.0
 10
204.3801065976825
 20
167.0734755207147
 30
0.0
  0
LINE
  5
242
330
1F
100
AcDbEntity
  8
0
  6
Continuous
 62
     7
370
    25
100
AcDbLine
 10
199.2693770095
 20
164.3815886127
 30
0.0
 11
204.3660592558
 21
164.4688629552
 31
0.0
  0
ELLIPSE
  5
243
330
1F
100
AcDbEntity
  8
0
  6
Continuous
 62
     7
370
    25
100
AcDbEllipse
 10
198.605876429
 20
167.3305189801
 30
0.0
 11
1.053482645954546
 21
0.05394483169982323
 31
0.0
210
0.0
220
0.0
230
1.0
 40
0.4730658061
 41
4.355668081128861
 42
4.69645068112353
  0
ELLIPSE
  5
244
330
1F
100
AcDbEntity
  8
0
  6
Continuous
 62
     7
370
    25
100
AcDbEllipse
 10
198.605876429
 20
167.3305189801
 30
0.0
 11
1.053482645954546
 21
0.05394483169982323
 31
0.0
210
0.0
220
0.0
230
1.0
 40
0.4730658061
 41
3.147041256077502
 42
4.355668081128861
  0
LINE
  5
245
330
1F
100
AcDbEntity
  8
0
  6
Continuous
 62
     7
370
    25
100
AcDbLine
 10
197.5525484652
 20
167.273859561
 30
0.0
 11
201.0511986289
 21
167.5714102591
 31
0.0
  0
ELLIPSE
  5
246
330
1F
100
AcDbEntity
  8
0
  6
Continuous
 62
     7
370
    25
100
AcDbEllipse
 10
198.605876429
 20
173.42818357
 30
0.0
 11
1.053482645954546
 21
-0.05394483169985165
 31
0.0
210
0.0
220
0.0
230
1.0
 40
0.4730658061
 41
1.586734626056046
 42
1.927517226050962
  0
LINE
  5
247
330
1F
100
AcDbEntity
  8
0
  6
Continuous
 62
     7
370
    25
100
AcDbLine
 10
201.0511986289
 20
173.187292291
 30
0.0
 11
197.5525484652
 21
173.4848429891
 31
0.0
  0
ELLIPSE
  5
248
330
1F
100
AcDbEntity
  8
0
  6
Continuous
 62
     7
370
    25
100
AcDbEllipse
 10
198.605876429
 20
173.42818357
 30
0.0
 11
1.053482645954546
 21
-0.05394483169985165
 31
0.0
210
0.0
220
0.0
230
1.0
 40
0.4730658061
 41
1.927517226050962
 42
3.136144051102285
  0
ELLIPSE
  5
249
330
1F
100
AcDbEntity
  8
0
  6
Continuous
 62
     7
370
    25
100
AcDbEllipse
 10
197.9600771269
 20
167.319229331
 30
0.0
 11
0.01755356269836739
 21
0.4999218664536329
 31
0.0
210
0.0
220
0.0
230
1.0
 40
0.8168249212
 41
1.613756583867009
 42
1.690310629085485
  0
LINE
  5
24A
330
1F
100
AcDbEntity
  8
0
  6
Continuous
 62
     7
370
    25
100
AcDbLine
 10
197.5513513769
 20
167.312084123
 30
0.0
 11
197.5513513769
 21
173.4466184271
 31
0.0
  0
ELLIPSE
  5
24B
330
1F
100
AcDbEntity
  8
0
  6
Continuous
 62
     7
370
    25
100
AcDbEllipse
 10
197.9600771269
 20
173.4394732191
 30
0.0
 11
-0.01755356269836739
 21
0.4999218664536045
 31
0.0
210
0.0
220
0.0
230
1.0
 40
0.8168249212
 41
1.4512820245043
 42
1.527836069722724
  0
SPLINE
  5
24C
330
1F
100
AcDbEntity
  8
0
  6
Continuous
 62
     7
370
    25
100
AcDbSpline
210
0.0
220
0.0
230
1.0
 70
     8
 71
     3
 72
     9
 73
     5
 74
     0
 42
0.00000001
 43
0.00000001
 40
0.0
 40
0.0
 40
0.0
 40
0.0
 40
0.9209630919903055
 40
0.9999999999999999
 40
0.9999999999999999
 40
0.9999999999999999
 40
0.9999999999999999
 10
204.8554281254373
 20
164.924777532561
 30
0.0
 10
204.8443492668125
 20
164.8679504736424
 30
0.0
 10
204.8323196222794
 20
164.8062465254464
 30
0.0
 10
204.822520158892
 20
164.6192350645584
 30
0.0
 10
204.8217456396057
 20
164.6044542569275
 30
0.0
  0
SPLINE
  5
24D
330
1F
100
AcDbEntity
  8
0
  6
Continuous
 62
     7
370
    25
100
AcDbSpline
210
0.0
220
0.0
230
1.0
 70
     8
 71
     3
 72
    10
 73
     6
 74
     0
 42
0.00000001
 43
0.00000001
 40
0.0
 40
0.0
 40
0.0
 40
0.0
 40
0.2977219707220504
 40
0.7221983723418894
 40
1.0
 40
1.0
 40
1.0
 40
1.0
 10
204.8679408748282
 20
167.51633510155
 30
0.0
 10
204.9042400437033
 20
167.2169094960568
 30
0.0
 10
204.992292667483
 20
166.4905785356638
 30
0.0
 10
204.9807073263853
 20
165.7635090346525
 30
0.0
 10
204.916474531902
 20
165.3529171438821
 30
0.0
 10
204.8910658274964
 20
165.1904984282112
 30
0.0
  0
SPLINE
  5
24E
330
1F
100
AcDbEntity
  8
0
  6
Continuous
 62
     7
370
    25
100
AcDbSpline
210
0.0
220
0.0
230
1.0
 70
     8
 71
     3
 72
    10
 73
     6
 74
     0
 42
0.00000001
 43
0.00000001
 40
0.0
 40
0.0
 40
0.0
 40
0.0
 40
0.156931394038711
 40
0.5783250622403403
 40
1.0
 40
1.0
 40
1.0
 40
1.0
 10
204.8990725822829
 20
175.5914544486933
 30
0.0
 10
204.9172478726392
 20
175.5016450851606
 30
0.0
 10
204.9842276251033
 20
175.1706787665796
 30
0.0
 10
204.9812951119476
 20
174.4715529254594
 30
0.0
 10
204.9057340235809
 20
173.6521870614239
 30
0.0
 10
204.867940874828
 20
173.242367448552
 30
0.0
  0
SPLINE
  5
24F
330
1F
100
AcDbEntity
  8
0
  6
Continuous
 62
     7
370
    25
100
AcDbSpline
210
0.0
220
0.0
230
1.0
 70
     8
 71
     3
 72
     9
 73
     5
 74
     0
 42
0.00000001
 43
0.00000001
 40
0.0
 40
0.0
 40
0.0
 40
0.0
 40
0.0790369080192174
 40
1.0
 40
1.0
 40
1.0
 40
1.0
 10
204.8217456396056
 20
176.1542482931725
 30
0.0
 10
204.822520158892
 20
176.1394674855398
 30
0.0
 10
204.8323196222801
 20
175.9524560246519
 30
0.0
 10
204.844349266813
 20
175.8907520764566
 30
0.0
 10
204.8554281254373
 20
175.8339250175392
 30
0.0
  0
ARC
  5
250
330
1F
100
AcDbEntity
  8
0
  6
Continuous
 62
     7
370
    25
100
AcDbCircle
 10
204.3581854607
 20
175.7907917519
 30
0.0
 40
0.4991099540955837
100
AcDbArc
 50
4.9577065175
 51
89.0960830536
  0
ARC
  5
251
330
1F
100
AcDbEntity
  8
0
  6
Continuous
 62
     7
370
    25
100
AcDbCircle
 10
204.3581854607
 20
164.9679107982
 30
0.0
 40
0.4991099540953687
100
AcDbArc
 50
270.9039169467
 51
355.0422934825
  0
SPLINE
  5
252
330
1F
100
AcDbEntity
  8
0
  6
Continuous
 62
     7
370
    25
100
AcDbSpline
210
0.0
220
0.0
230
1.0
 70
     8
 71
     3
 72
     9
 73
     5
 74
     0
 42
0.00000001
 43
0.00000001
 40
0.0
 40
0.0
 40
0.0
 40
0.0
 40
0.0129608462966911
 40
1.0
 40
1.0
 40
1.0
 40
1.0
 10
198.6202308833757
 20
173.9272482498049
 30
0.0
 10
198.6186764274792
 20
173.9273140992791
 30
0.0
 10
198.4987416746905
 20
173.9323947454581
 30
0.0
 10
198.3795532394598
 20
173.9231445278905
 30
0.0
 10
198.2619095872184
 20
173.9140142009711
 30
0.0
  0
SPLINE
  5
253
330
1F
100
AcDbEntity
  8
0
  6
Continuous
 62
     7
370
    25
100
AcDbSpline
210
0.0
220
0.0
230
1.0
 70
     8
 71
     3
 72
     9
 73
     5
 74
     0
 42
0.00000001
 43
0.00000001
 40
0.0
 40
0.0
 40
0.0
 40
0.0
 40
0.0129608462966698
 40
1.0
 40
1.0
 40
1.0
 40
1.0
 10
198.6202308833757
 20
166.8314543002953
 30
0.0
 10
198.6186764274792
 20
166.8313884508211
 30
0.0
 10
198.4987416746906
 20
166.826307804642
 30
0.0
 10
198.3795532394599
 20
166.8355580222096
 30
0.0
 10
198.2619095872187
 20
166.8446883491291
 30
0.0
  0
ELLIPSE
  5
254
330
1F
100
AcDbEntity
  8
0
  6
Continuous
 62
     7
370
    25
100
AcDbEllipse
 10
209.6095593436
 20
167.0009713199
 30
0.0
 11
14.99999386323825
 21
0.2542085132691057
 31
0.0
210
0.0
220
0.0
230
1.0
 40
0.0533752749
 41
2.501275951618296
 42
3.139211616205855
  0
ARC
  5
255
330
1F
100
AcDbEntity
  8
0
  6
Continuous
 62
     7
370
    25
100
AcDbCircle
 10
195.1136100746
 20
174.0324338567
 30
0.0
 40
0.4990245038594908
100
AcDbArc
 50
88.8866479152
 51
154.4102041241
  0
ARC
  5
256
330
1F
100
AcDbEntity
  8
0
  6
Continuous
 62
     7
370
    25
100
AcDbCircle
 10
191.52265264
 20
175.0250848431
 30
0.0
 40
0.4909657463240988
100
AcDbArc
 50
93.8791489177
 51
181.0879611003
  0
ARC
  5
257
330
1F
100
AcDbEntity
  8
0
  6
Continuous
 62
     7
370
    25
100
AcDbCircle
 10
191.52265264
 20
165.733617707
 30
0.0
 40
0.4909657463239918
100
AcDbArc
 50
178.9120388997
 51
266.1208510823
  0
LINE
  5
258
330
1F
100
AcDbEntity
  8
0
  6
Continuous
 62
     7
370
    25
100
AcDbLine
 10
191.0317754032
 20
175.0157626986
 30
0.0
 11
191.0317754032
 21
165.7429398515
 31
0.0
  0
ELLIPSE
  5
259
330
1F
100
AcDbEntity
  8
0
  6
Continuous
 62
     7
370
    25
100
AcDbEllipse
 10
198.2147532662
 20
175.0804108392
 30
0.0
 11
7.999997105433749
 21
-0.1314648441208135
 31
0.0
210
0.0
220
0.0
230
1.0
 40
0.0517656972
 41
3.407436575569076
 42
3.598327233279202
  0
ARC
  5
25A
330
1F
100
AcDbEntity
  8
0
  6
Continuous
 62
     7
370
    25
100
AcDbCircle
 10
190.9938357849
 20
175.0978563355
 30
0.0
 40
0.4998370280062364
100
AcDbArc
 50
90.9816532714
 51
179.9311541913
  0
ARC
  5
25B
330
1F
100
AcDbEntity
  8
0
  6
Continuous
 62
     7
370
    25
100
AcDbCircle
 10
190.9938357849
 20
165.6608462146
 30
0.0
 40
0.4998370280062647
100
AcDbArc
 50
180.0688458087
 51
269.0183467286
  0
ELLIPSE
  5
25C
330
1F
100
AcDbEntity
  8
0
  6
Continuous
 62
     7
370
    25
100
AcDbEllipse
 10
198.2147532662
 20
165.6782917109
 30
0.0
 11
7.999997105433749
 21
0.1314648441208135
 31
0.0
210
0.0
220
0.0
230
1.0
 40
0.0517656972
 41
2.684858073900691
 42
2.875748731610714
  0
SPLINE
  5
25D
330
1F
100
AcDbEntity
  8
0
  6
Continuous
 62
     7
370
    25
100
AcDbSpline
210
0.0
220
0.0
230
1.0
 70
     8
 71
     3
 72
     9
 73
     5
 74
     0
 42
0.00000001
 43
0.00000001
 40
0.0
 40
0.0
 40
0.0
 40
0.0
 40
0.153360241123038
 40
1.0
 40
1.0
 40
1.0
 40
1.0
 10
190.4939991177568
 20
165.6602456175047
 30
0.0
 10
190.4918113806774
 20
165.6597479028516
 30
0.0
 10
190.4775460335228
 20
165.656502507243
 30
0.0
 10
190.4642238759261
 20
165.6477160306235
 30
0.0
 10
190.4529448076308
 20
165.640277050177
 30
0.0
  0
LINE
  5
25E
330
1F
100
AcDbEntity
  8
0
  6
Continuous
 62
     7
370
    25
100
AcDbLine
 10
190.2147532662
 20
165.2039948811
 30
0.0
 11
190.4529448076
 21
165.6402770502
 31
0.0
  0
LINE
  5
25F
330
1F
100
AcDbEntity
  8
0
  6
Continuous
 62
     7
370
    25
100
AcDbLine
 10
190.2147532662
 20
165.2039948811
 30
0.0
 11
190.2147532662
 21
175.554707669
 31
0.0
  0
LINE
  5
260
330
1F
100
AcDbEntity
  8
0
  6
Continuous
 62
     7
370
    25
100
AcDbLine
 10
190.4529448076
 20
175.1184254999
 30
0.0
 11
190.2147532662
 21
175.554707669
 31
0.0
  0
LINE
  5
261
330
1F
100
AcDbEntity
  8
0
  6
Continuous
 62
     7
370
    25
100
AcDbLine
 10
190.4529448076
 20
175.1184254999
 30
0.0
 11
190.4939991178
 21
175.0984569326
 31
0.0
  0
ARC
  5
262
330
1F
100
AcDbEntity
  8
0
  6
Continuous
 62
     7
370
    25
100
AcDbCircle
 10
199.3126951795
 20
161.7840071493
 30
0.0
 40
2.597942632774333
100
AcDbArc
 50
90.9553957458
 51
179.9573581589
  0
SPLINE
  5
263
330
1F
100
AcDbEntity
  8
0
  6
Continuous
 62
     7
370
    25
100
AcDbSpline
210
0.0
220
0.0
230
1.0
 70
     8
 71
     3
 72
    17
 73
    13
 74
     0
 42
0.00000001
 43
0.00000001
 40
0.0
 40
0.0
 40
0.0
 40
0.0
 40
0.0068264277560522
 40
0.0088450004853823
 40
0.0223994102884411
 40
0.0309598270239204
 40
0.0563228448230682
 40
0.1198844474831659
 40
0.1957493698893789
 40
0.5558716060100611
 40
0.776984075093909
 40
0.9999999999999999
 40
0.9999999999999999
 40
0.9999999999999999
 40
0.9999999999999999
 10
199.2693770095035
 20
165.2947830749532
 30
0.0
 10
199.238872293842
 20
165.2937448919085
 30
0.0
 10
199.1993473425094
 20
165.2923997184353
 30
0.0
 10
199.1096178241128
 20
165.2848097303568
 30
0.0
 10
199.0293805869658
 20
165.2730582236259
 30
0.0
 10
198.9031364000334
 20
165.247339328045
 30
0.0
 10
198.7006789406212
 20
165.1888247554239
 30
0.0
 10
198.4556616957873
 20
165.0796276994635
 30
0.0
 10
197.8497913789308
 20
164.7124562838268
 30
0.0
 10
197.3043884595078
 20
164.079289381471
 30
0.0
 10
196.8137649903741
 20
163.0668435049955
 30
0.0
 10
196.7478513390394
 20
162.3593652086282
 30
0.0
 10
196.7147532662405
 20
162.0041099969586
 30
0.0
  0
ARC
  5
264
330
1F
100
AcDbEntity
  8
0
  6
Continuous
 62
     7
370
    25
100
AcDbCircle
 10
194.8808241599
 20
162.1928856429
 30
0.0
 40
1.843619323976446
100
AcDbArc
 50
265.9201895471
 51
354.1229528255
  0
SPLINE
  5
265
330
1F
100
AcDbEntity
  8
0
  6
Continuous
 62
     7
370
    25
100
AcDbSpline
210
0.0
220
0.0
230
1.0
 70
     8
 71
     3
 72
    14
 73
    10
 74
     0
 42
0.00000001
 43
0.00000001
 40
0.0
 40
0.0
 40
0.0
 40
0.0
 40
0.2225853702027011
 40
0.4518071037420552
 40
0.8157728422641974
 40
0.8946121681161603
 40
0.9637839688025585
 40
0.9940798081854056
 40
1.0
 40
1.0
 40
1.0
 40
1.0
 10
194.749658079115
 20
160.3539382073199
 30
0.0
 10
194.8048406209845
 20
160.8923266121841
 30
0.0
 10
194.9168509673808
 20
161.9851554250955
 30
0.0
 10
195.7806245264553
 20
163.5507869018464
 30
0.0
 10
196.7775440364675
 20
164.5091341275518
 30
0.0
 10
197.838550465636
 20
165.030542642208
 30
0.0
 10
198.2826030807173
 20
165.1859270665715
 30
0.0
 10
198.614520972687
 20
165.2614767546119
 30
0.0
 10
198.7448628840177
 20
165.2829975361401
 30
0.0
 10
198.7661697222063
 20
165.2865155128602
 30
0.0
  0
SPLINE
  5
266
330
1F
100
AcDbEntity
  8
0
  6
Continuous
 62
     7
370
    25
100
AcDbSpline
210
0.0
220
0.0
230
1.0
 70
     8
 71
     3
 72
    11
 73
     7
 74
     0
 42
0.00000001
 43
0.00000001
 40
0.0
 40
0.0
 40
0.0
 40
0.0
 40
0.0195561212296076
 40
0.1681891996744549
 40
0.5898876540792808
 40
1.0
 40
1.0
 40
1.0
 40
1.0
 10
199.2693770095035
 20
165.2947830749532
 30
0.0
 10
199.2665714627303
 20
165.294841188669
 30
0.0
 10
199.2424428197905
 20
165.2953409861097
 30
0.0
 10
199.1529577246278
 20
165.2961874035232
 30
0.0
 10
198.9839955485471
 20
165.2940981050012
 30
0.0
 10
198.8381009531466
 20
165.2890194638176
 30
0.0
 10
198.7661697222063
 20
165.2865155128602
 30
0.0
  0
ARC
  5
267
330
1F
100
AcDbEntity
  8
0
  6
Continuous
 62
     7
370
    25
100
AcDbCircle
 10
200.2619431863
 20
179.9078276377
 30
0.0
 40
3.547190902441936
100
AcDbArc
 50
180.0426418411
 51
269.0446042542
  0
SPLINE
  5
268
330
1F
100
AcDbEntity
  8
0
  6
Continuous
 62
     7
370
    25
100
AcDbSpline
210
0.0
220
0.0
230
1.0
 70
     8
 71
     3
 72
    16
 73
    12
 74
     0
 42
0.00000001
 43
0.00000001
 40
0.0
 40
0.0
 40
0.0
 40
0.0
 40
0.2861254310575667
 40
0.7591203623085421
 40
0.8520758313858443
 40
0.9266344548631259
 40
0.9604862301433733
 40
0.9835335436569235
 40
0.9930756629548355
 40
0.997224229202362
 40
1.0
 40
1.0
 40
1.0
 40
1.0
 10
196.7426153185798
 20
179.2650530440352
 30
0.0
 10
196.8645430533267
 20
178.7349857346832
 30
0.0
 10
197.1880299444934
 20
177.328662338556
 30
0.0
 10
198.115597081966
 20
176.3108503356716
 30
0.0
 10
199.0463619783605
 20
175.7489301179
 30
0.0
 10
199.4023232974765
 20
175.5944276020071
 30
0.0
 10
199.7125375763619
 20
175.5059069361767
 30
0.0
 10
199.9251874674293
 20
175.4667975525281
 30
0.0
 10
200.0813309757196
 20
175.4524775835584
 30
0.0
 10
200.1572916831487
 20
175.4487438449355
 30
0.0
 10
200.189775414582
 20
175.4480100028523
 30
0.0
 10
200.2027972233881
 20
175.4477158263252
 30
0.0
  0
LINE
  5
269
330
1F
100
AcDbEntity
  8
0
  6
Continuous
 62
     7
370
    25
100
AcDbLine
 10
196.7147532662
 20
179.789196726
 30
0.0
 11
196.7426153186
 21
179.265053044
 31
0.0
  0
ARC
  5
26A
330
1F
100
AcDbEntity
  8
0
  6
Continuous
 62
     7
370
    25
100
AcDbCircle
 10
194.9881679903
 20
178.8599264739
 30
0.0
 40
1.800614607762366
100
AcDbArc
 50
13.0024955286
 51
96.2155465251
  0
SPLINE
  5
26B
330
1F
100
AcDbEntity
  8
0
  6
Continuous
 62
     7
370
    25
100
AcDbSpline
210
0.0
220
0.0
230
1.0
 70
     8
 71
     3
 72
    10
 73
     6
 74
     0
 42
0.00000001
 43
0.00000001
 40
0.0
 40
0.0
 40
0.0
 40
0.0
 40
0.5975855365574468
 40
0.9790563563182108
 40
1.0
 40
1.0
 40
1.0
 40
1.0
 10
199.6500114433116
 20
175.4568427236646
 30
0.0
 10
199.7650685069333
 20
175.4531034259382
 30
0.0
 10
199.9535726500004
 20
175.4469771344147
 30
0.0
 10
200.1341431196997
 20
175.4466005755582
 30
0.0
 10
200.1994008857232
 20
175.4476606545586
 30
0.0
 10
200.2027972233881
 20
175.4477158263252
 30
0.0
  0
SPLINE
  5
26C
330
1F
100
AcDbEntity
  8
0
  6
Continuous
 62
     7
370
    25
100
AcDbSpline
210
0.0
220
0.0
230
1.0
 70
     8
 71
     3
 72
    14
 73
    10
 74
     0
 42
0.00000001
 43
0.00000001
 40
0.0
 40
0.0
 40
0.0
 40
0.0
 40
0.0129036569231464
 40
0.0519665716781148
 40
0.1318891824261211
 40
0.2280032005552169
 40
0.4679440229400846
 40
0.7079115564493627
 40
1.0
 40
1.0
 40
1.0
 40
1.0
 10
199.6500114433116
 20
175.4568427236646
 30
0.0
 10
199.6002596551183
 20
175.4646876977259
 30
0.0
 10
199.39989553488
 20
175.4962815636584
 30
0.0
 10
198.9700911837481
 20
175.5986636109522
 30
0.0
 10
198.4044561748873
 20
175.8010651197693
 30
0.0
 10
197.4822891132725
 20
176.2681158005354
 30
0.0
 10
196.4288976579646
 20
177.1055728599257
 30
0.0
 10
195.3133732194553
 20
178.5505131002761
 30
0.0
 10
194.9775677641596
 20
179.9058839830708
 30
0.0
 10
194.7932170623497
 20
180.6499563902205
 30
0.0
  0
SPLINE
  5
26D
330
1F
100
AcDbEntity
  8
0
  6
Continuous
 62
     7
370
    25
100
AcDbSpline
210
0.0
220
0.0
230
1.0
 70
     8
 71
     3
 72
     9
 73
     5
 74
     0
 42
0.00000001
 43
0.00000001
 40
0.0
 40
0.0
 40
0.0
 40
0.0
 40
0.845891190778427
 40
0.9999999999999999
 40
0.9999999999999999
 40
0.9999999999999999
 40
0.9999999999999999
 10
190.9467840395125
 20
165.150764250174
 30
0.0
 10
190.9574014693392
 20
165.1545790571663
 30
0.0
 10
190.9699532371581
 20
165.1590888653236
 30
0.0
 10
190.9832268713035
 20
165.1608163290746
 30
0.0
 10
190.9852724552557
 20
165.1610825464563
 30
0.0
  0
ARC
  5
26E
330
1F
100
AcDbEntity
  8
0
  6
Continuous
 62
     7
370
    25
100
AcDbCircle
 10
190.969734444
 20
165.6677758468
 30
0.0
 40
0.5175207359150068
100
AcDbArc
 50
183.0458824723
 51
267.4582801867
  0
LINE
  5
26F
330
1F
100
AcDbEntity
  8
0
  6
Continuous
 62
     7
370
    25
100
AcDbLine
 10
190.9852724553
 20
175.5976200036
 30
0.0
 11
190.9467840395
 21
175.6079382999
 31
0.0
  0
ARC
  5
270
330
1F
100
AcDbEntity
  8
0
  6
Continuous
 62
     7
370
    25
100
AcDbCircle
 10
190.969734444
 20
175.0909267033
 30
0.0
 40
0.5175207359149772
100
AcDbArc
 50
92.5417198133
 51
176.9541175277
  0
ARC
  5
271
330
1F
100
AcDbEntity
  8
0
  6
Continuous
 62
     7
370
    25
100
AcDbCircle
 10
200.0942000668
 20
175.4520360914
 30
0.0
 40
0.4442146293928438
100
AcDbArc
 50
179.3800179008
 51
180.6199820992
  0
ARC
  5
272
330
1F
100
AcDbEntity
  8
0
  6
Continuous
 62
     7
370
    25
100
AcDbCircle
 10
199.2104765855
 20
165.2913240169
 30
0.0
 40
0.4443328824970764
100
AcDbArc
 50
179.3799416249
 51
180.6200584638
  0
LWPOLYLINE
  5
273
330
1F
100
AcDbEntity
  8
0
  6
Continuous
 62
     7
370
    25
100
AcDbPolyline
 90
        4
 70
   128
 43
0.0
 10
198.7661697222
 20
165.2865155129
 10
197.7663229023
 20
165.2691572579
 10
193.7669356277
 20
165.1997243962
 10
190.9467840395
 20
165.1507642502
  0
LWPOLYLINE
  5
274
330
1F
100
AcDbEntity
  8
0
  6
Continuous
 62
     7
370
    25
100
AcDbPolyline
 90
        4
 70
   128
 43
0.0
 10
190.9467840395
 20
175.6079382999
 10
191.946630856
 20
175.5905801531
 10
195.9460181268
 20
175.5211474069
 10
199.6500114433
 20
175.4568427237
  0
LINE
  5
275
330
1F
100
AcDbEntity
  8
0
  6
Continuous
 62
     7
370
    25
100
AcDbLine
 10
190.7234794695
 20
176.0374658032
 30
0.0
 11
190.9467840395
 21
175.6079382999
 31
0.0
  0
ARC
  5
276
330
1F
100
AcDbEntity
  8
0
  6
Continuous
 62
     7
370
    25
100
AcDbCircle
 10
190.7066594216
 20
175.5457659911
 30
0.0
 40
0.4919874178077722
100
AcDbArc
 50
88.040792198
 51
178.9586143968
  0
LINE
  5
277
330
1F
100
AcDbEntity
  8
0
  6
Continuous
 62
     7
370
    25
100
AcDbLine
 10
190.9467840395
 20
165.1507642502
 30
0.0
 11
190.7234794695
 21
164.7212367469
 31
0.0
  0
ARC
  5
278
330
1F
100
AcDbEntity
  8
0
  6
Continuous
 62
     7
370
    25
100
AcDbCircle
 10
190.7066594216
 20
165.212936559
 30
0.0
 40
0.4919874178077173
100
AcDbArc
 50
181.0413856032
 51
271.959207802
  0
LINE
  5
279
330
1F
100
AcDbEntity
  8
0
  6
Continuous
 62
     7
370
    25
100
AcDbLine
 10
194.7496580791
 20
160.1081246496
 30
0.0
 11
194.7496580791
 21
160.3539382073
 31
0.0
  0
LINE
  5
27A
330
1F
100
AcDbEntity
  8
0
  6
Continuous
 62
     7
370
    25
100
AcDbLine
 10
194.7496580791
 20
160.1081246496
 30
0.0
 11
190.7234794695
 21
160.0506781468
 31
0.0
  0
LINE
  5
27B
330
1F
100
AcDbEntity
  8
0
  6
Continuous
 62
     7
370
    25
100
AcDbLine
 10
190.7234794695
 20
164.7212367469
 30
0.0
 11
190.7234794695
 21
160.0506781468
 31
0.0
  0
LINE
  5
27C
330
1F
100
AcDbEntity
  8
0
  6
Continuous
 62
     7
370
    25
100
AcDbLine
 10
190.7234794695
 20
180.7080244033
 30
0.0
 11
190.7234794695
 21
176.0374658032
 31
0.0
  0
LINE
  5
27D
330
1F
100
AcDbEntity
  8
0
  6
Continuous
 62
     7
370
    25
100
AcDbLine
 10
194.7932170623
 20
180.6499563902
 30
0.0
 11
190.7234794695
 21
180.7080244033
 31
0.0
  0
ARC
  5
27E
330
1F
100
AcDbEntity
  8
0
  6
Continuous
 62
     7
370
    25
100
AcDbCircle
 10
190.6749626371
 20
160.5112598962
 30
0.0
 40
0.463130036678097
100
AcDbArc
 50
186.4380684431
 51
276.013255932
  0
LINE
  5
27F
330
1F
100
AcDbEntity
  8
0
  6
Continuous
 62
     7
370
    25
100
AcDbLine
 10
190.2147532662
 20
160.4593295019
 30
0.0
 11
190.2147532662
 21
165.2039948811
 31
0.0
  0
LINE
  5
280
330
1F
100
AcDbEntity
  8
0
  6
Continuous
 62
     7
370
    25
100
AcDbLine
 10
190.2147532662
 20
175.554707669
 30
0.0
 11
190.2147532662
 21
180.2993730482
 31
0.0
  0
ARC
  5
281
330
1F
100
AcDbEntity
  8
0
  6
Continuous
 62
     7
370
    25
100
AcDbCircle
 10
190.6749626371
 20
180.2474426539
 30
0.0
 40
0.4631300366780907
100
AcDbArc
 50
83.986744068
 51
173.5619315569
  0
LINE
  5
282
330
1F
100
AcDbEntity
  8
0
  6
Continuous
 62
     7
370
    25
100
AcDbLine
 10
196.7147532662
 20
162.004109997
 30
0.0
 11
196.7147532662
 21
161.7427300701
 31
0.0
  0
ARC
  5
283
330
1F
100
AcDbEntity
  8
0
  6
Continuous
 62
     7
370
    25
100
AcDbCircle
 10
194.8874804647
 20
161.9409418197
 30
0.0
 40
1.837991781540111
100
AcDbArc
 50
265.6996216829
 51
353.8090988865
  0
LINE
  5
284
330
1F
100
AcDbEntity
  8
0
  6
Continuous
 62
     7
370
    25
100
AcDbLine
 10
190.2147532662
 20
158.9074616603
 30
0.0
 11
190.2147532662
 21
160.4593295019
 31
0.0
  0
LINE
  5
285
330
1F
100
AcDbEntity
  8
0
  6
Continuous
 62
     7
370
    25
100
AcDbLine
 10
190.2147532662
 20
180.2993730482
 30
0.0
 11
190.2147532662
 21
181.8512408898
 31
0.0
  0
LINE
  5
286
330
1F
100
AcDbEntity
  8
0
  6
Continuous
 62
     7
370
    25
100
AcDbLine
 10
194.7932170623
 20
180.6499563902
 30
0.0
 11
194.7496580791
 21
181.6469226259
 31
0.0
  0
LINE
  5
287
330
1F
100
AcDbEntity
  8
0
  6
Continuous
 62
     7
370
    25
100
AcDbLine
 10
196.7147532662
 20
161.7427300701
 30
0.0
 11
196.7147532662
 21
160.4775104121
 31
0.0
  0
ARC
  5
288
330
1F
100
AcDbEntity
  8
0
  6
Continuous
 62
     7
370
    25
100
AcDbCircle
 10
194.7860438306
 20
179.717213382
 30
0.0
 40
1.93005225026658
100
AcDbArc
 50
2.1374025298
 51
91.0802160954
  0
LINE
  5
289
330
1F
100
AcDbEntity
  8
0
  6
Continuous
 62
     7
370
    25
100
AcDbLine
 10
196.7147532662
 20
180.281192138
 30
0.0
 11
196.7147532662
 21
179.789196726
 31
0.0
  0
LINE
  5
28A
330
1F
100
AcDbEntity
  8
0
  6
Continuous
 62
     7
370
    25
100
AcDbLine
 10
205.0647532662
 20
165.6073261261
 30
0.0
 11
205.0647532662
 21
161.9799076208
 31
0.0
  0
LINE
  5
28B
330
1F
100
AcDbEntity
  8
0
  6
Continuous
 62
     7
370
    25
100
AcDbLine
 10
205.0647532662
 20
178.7787949293
 30
0.0
 11
205.0647532662
 21
175.2192815767
 31
0.0
  0
SPLINE
  5
28C
330
1F
100
AcDbEntity
  8
0
  6
Continuous
 62
     7
370
    25
100
AcDbSpline
210
0.0
220
0.0
230
1.0
 70
     8
 71
     3
 72
     9
 73
     5
 74
     0
 42
0.00000001
 43
0.00000001
 40
0.0
 40
0.0
 40
0.0
 40
0.0
 40
0.6817923421274267
 40
1.0
 40
1.0
 40
1.0
 40
1.0
 10
204.8217456396056
 20
176.1542482931725
 30
0.0
 10
204.7880369696932
 20
176.3441586482776
 30
0.0
 10
204.7385957134198
 20
176.6227043921512
 30
0.0
 10
204.6133375699288
 20
176.8556087650942
 30
0.0
 10
204.5734794694591
 20
176.9297207201166
 30
0.0
  0
LINE
  5
28D
330
1F
100
AcDbEntity
  8
0
  6
Continuous
 62
     7
370
    25
100
AcDbLine
 10
204.5734794695
 20
163.82898183
 30
0.0
 11
204.8217456396
 21
164.6044542569
 31
0.0
  0
ARC
  5
28E
330
1F
100
AcDbEntity
  8
0
  6
Continuous
 62
     7
370
    25
100
AcDbCircle
 10
199.9104734914
 20
180.6375855591
 30
0.0
 40
3.223623274024285
100
AcDbArc
 50
187.544059084
 51
275.2028276603
  0
SPLINE
  5
28F
330
1F
100
AcDbEntity
  8
0
  6
Continuous
 62
     7
370
    25
100
AcDbSpline
210
0.0
220
0.0
230
1.0
 70
     8
 71
     3
 72
     9
 73
     5
 74
     0
 42
0.00000001
 43
0.00000001
 40
0.0
 40
0.0
 40
0.0
 40
0.0
 40
0.5001021276704695
 40
1.0
 40
1.0
 40
1.0
 40
1.0
 10
200.2027972233881
 20
177.4272438563231
 30
0.0
 10
200.2012854572075
 20
177.1407182222346
 30
0.0
 10
200.1982625422928
 20
176.5677839789368
 30
0.0
 10
200.2012858688665
 20
176.4300051924826
 30
0.0
 10
200.2027972233881
 20
176.3611298702821
 30
0.0
  0
SPLINE
  5
290
330
1F
100
AcDbEntity
  8
0
  6
Continuous
 62
     7
370
    25
100
AcDbSpline
210
0.0
220
0.0
230
1.0
 70
     8
 71
     3
 72
     9
 73
     5
 74
     0
 42
0.00000001
 43
0.00000001
 40
0.0
 40
0.0
 40
0.0
 40
0.0
 40
0.4007227371565293
 40
1.0
 40
1.0
 40
1.0
 40
1.0
 10
199.2693770095035
 20
164.3815886127387
 30
0.0
 10
199.2684331085662
 20
164.333181350673
 30
0.0
 10
199.2660776122347
 20
164.2123814619292
 30
0.0
 10
199.2681406674496
 20
163.6522741885756
 30
0.0
 10
199.2693770095319
 20
163.3166146349015
 30
0.0
  0
ARC
  5
291
330
1F
100
AcDbEntity
  8
0
  6
Continuous
 62
     7
370
    25
100
AcDbCircle
 10
199.0555231376
 20
160.9651651128
 30
0.0
 40
2.361154025759536
100
AcDbArc
 50
84.8034992243
 51
172.4658413595
  0
SPLINE
  5
292
330
1F
100
AcDbEntity
  8
0
  6
Continuous
 62
     7
370
    25
100
AcDbSpline
210
0.0
220
0.0
230
1.0
 70
     8
 71
     3
 72
     9
 73
     5
 74
     0
 42
0.00000001
 43
0.00000001
 40
0.0
 40
0.0
 40
0.0
 40
0.0
 40
0.500010612381544
 40
1.0
 40
1.0
 40
1.0
 40
1.0
 10
204.3356968469041
 20
163.3971501407372
 30
0.0
 10
204.3308680094761
 20
163.6849906788304
 30
0.0
 10
204.3212105395976
 20
164.2606595365819
 30
0.0
 10
204.3511098952806
 20
164.3994627976686
 30
0.0
 10
204.3660592558187
 20
164.4688629551788
 30
0.0
  0
LINE
  5
293
330
1F
100
AcDbEntity
  8
0
  6
Continuous
 62
     7
370
    25
100
AcDbLine
 10
204.3356968469
 20
163.3971501407
 30
0.0
 11
199.2693770095
 21
163.3166146349
 31
0.0
  0
LINE
  5
294
330
1F
100
AcDbEntity
  8
0
  6
Continuous
 62
     7
370
    25
100
AcDbLine
 10
200.2027972234
 20
177.4272438563
 30
0.0
 11
204.3356968469
 21
177.3615524094
 31
0.0
  0
SPLINE
  5
295
330
1F
100
AcDbEntity
  8
0
  6
Continuous
 62
     7
370
    25
100
AcDbSpline
210
0.0
220
0.0
230
1.0
 70
     8
 71
     3
 72
     9
 73
     5
 74
     0
 42
0.00000001
 43
0.00000001
 40
0.0
 40
0.0
 40
0.0
 40
0.0
 40
0.5055561057107305
 40
1.0
 40
1.0
 40
1.0
 40
1.0
 10
204.3660592558164
 20
176.2898395949213
 30
0.0
 10
204.3509024215359
 20
176.3604956291913
 30
0.0
 10
204.3209219028371
 20
176.5002546657688
 30
0.0
 10
204.3308084861497
 20
177.0765879405645
 30
0.0
 10
204.3356968469041
 20
177.361552409363
 30
0.0
  0
SPLINE
  5
296
330
1F
100
AcDbEntity
  8
0
  6
Continuous
 62
     7
370
    25
100
AcDbSpline
210
0.0
220
0.0
230
1.0
 70
     8
 71
     3
 72
     9
 73
     5
 74
     0
 42
0.00000001
 43
0.00000001
 40
0.0
 40
0.0
 40
0.0
 40
0.0
 40
0.016129767353325
 40
1.0
 40
1.0
 40
1.0
 40
1.0
 10
204.3356968469041
 20
177.361552409363
 30
0.0
 10
204.3369866465201
 20
177.359333382039
 30
0.0
 10
204.416950578284
 20
177.2217599579895
 30
0.0
 10
204.4958513494127
 20
177.0745531331343
 30
0.0
 10
204.5734794694591
 20
176.9297207201166
 30
0.0
  0
SPLINE
  5
297
330
1F
100
AcDbEntity
  8
0
  6
Continuous
 62
     7
370
    25
100
AcDbSpline
210
0.0
220
0.0
230
1.0
 70
     8
 71
     3
 72
     9
 73
     5
 74
     0
 42
0.00000001
 43
0.00000001
 40
0.0
 40
0.0
 40
0.0
 40
0.0
 40
0.9838702326459388
 40
1.0
 40
1.0
 40
1.0
 40
1.0
 10
204.573479469459
 20
163.8289818299835
 30
0.0
 10
204.4958513494199
 20
163.6841494169645
 30
0.0
 10
204.4169505782984
 20
163.5369425921077
 30
0.0
 10
204.3369866465204
 20
163.3993691680611
 30
0.0
 10
204.3356968469041
 20
163.3971501407372
 30
0.0
  0
LINE
  5
298
330
1F
100
AcDbEntity
  8
0
  6
Continuous
 62
     7
370
    25
100
AcDbLine
 10
196.7507836663
 20
180.3420244668
 30
0.0
 11
196.7147532662
 21
180.268318213
 31
0.0
  0
LINE
  5
299
330
1F
100
AcDbEntity
  8
0
  6
Continuous
 62
     7
370
    25
100
AcDbLine
 10
194.8924162272
 20
174.4797441824
 30
0.0
 11
195.1287709915
 21
174.4797441824
 31
0.0
  0
LINE
  5
29A
330
1F
100
AcDbEntity
  8
0
  6
Continuous
 62
     7
370
    25
100
AcDbLine
 10
206.9647532662
 20
175.7082656117
 30
0.0
 11
206.9647532662
 21
165.0504369384
 31
0.0
  0
SPLINE
  5
29B
330
1F
100
AcDbEntity
  8
0
  6
Continuous
 62
     7
370
    25
100
AcDbSpline
210
0.0
220
0.0
230
1.0
 70
    24
 71
     3
 72
    10
 73
     6
 74
     0
 42
0.00000001
 43
0.00000001
 40
0.0
 40
0.0
 40
0.0
 40
0.0
 40
0.4548720528270607
 40
0.9419113406868058
 40
1.0
 40
1.0
 40
1.0
 40
1.0
 10
181.0891089703207
 20
160.8793512750501
 30
0.0
 10
181.0571070061841
 20
160.8793512750501
 30
0.0
 10
180.9908399916308
 20
160.8793512750501
 30
0.0
 10
180.5996993427408
 20
160.8793512750501
 30
0.0
 10
180.3421930538433
 20
160.8793512750501
 30
0.0
 10
180.3147532662404
 20
160.8793512750501
 30
0.0
  0
LINE
  5
29C
330
1F
100
AcDbEntity
  8
0
  6
Continuous
 62
     7
370
    25
100
AcDbLine
 10
180.3147532662
 20
162.1826136871
 30
0.0
 11
180.3147532662
 21
160.8793512751
 31
0.0
  0
SPLINE
  5
29D
330
1F
100
AcDbEntity
  8
0
  6
Continuous
 62
     7
370
    25
100
AcDbSpline
210
0.0
220
0.0
230
1.0
 70
     8
 71
     3
 72
    11
 73
     7
 74
     0
 42
0.00000001
 43
0.00000001
 40
0.0
 40
0.0
 40
0.0
 40
0.0
 40
0.2431641197380916
 40
0.493628473058894
 40
0.7421706076863289
 40
1.0
 40
1.0
 40
1.0
 40
1.0
 10
180.3147532662404
 20
162.1826136871273
 30
0.0
 10
180.5248935894492
 20
162.7260602193981
 30
0.0
 10
180.9514830344108
 20
163.8292685471849
 30
0.0
 10
181.1618674645538
 20
165.5793135769114
 30
0.0
 10
180.9711807708868
 20
167.3662827408543
 30
0.0
 10
180.5362216004921
 20
168.4992271210766
 30
0.0
 10
180.3147532662404
 20
169.0760888629729
 30
0.0
  0
LINE
  5
29E
330
1F
100
AcDbEntity
  8
0
  6
Continuous
 62
     7
370
    25
100
AcDbLine
 10
180.3147532662
 20
171.6826136871
 30
0.0
 11
180.3147532662
 21
169.076088863
 31
0.0
  0
SPLINE
  5
29F
330
1F
100
AcDbEntity
  8
0
  6
Continuous
 62
     7
370
    25
100
AcDbSpline
210
0.0
220
0.0
230
1.0
 70
     8
 71
     3
 72
    11
 73
     7
 74
     0
 42
0.00000001
 43
0.00000001
 40
0.0
 40
0.0
 40
0.0
 40
0.0
 40
0.2431641197380913
 40
0.4936284730588937
 40
0.7421706076863286
 40
1.0
 40
1.0
 40
1.0
 40
1.0
 10
180.3147532662404
 20
171.6826136871273
 30
0.0
 10
180.5248935894492
 20
172.2260602193981
 30
0.0
 10
180.9514830344108
 20
173.3292685471849
 30
0.0
 10
181.1618674645538
 20
175.0793135769114
 30
0.0
 10
180.9711807708868
 20
176.8662827408543
 30
0.0
 10
180.5362216004922
 20
177.9992271210766
 30
0.0
 10
180.3147532662404
 20
178.5760888629729
 30
0.0
  0
LINE
  5
2A0
330
1F
100
AcDbEntity
  8
0
  6
Continuous
 62
     7
370
    25
100
AcDbLine
 10
180.3147532662
 20
179.8793512751
 30
0.0
 11
180.3147532662
 21
178.576088863
 31
0.0
  0
SPLINE
  5
2A1
330
1F
100
AcDbEntity
  8
0
  6
Continuous
 62
     7
370
    25
100
AcDbSpline
210
0.0
220
0.0
230
1.0
 70
    24
 71
     3
 72
    10
 73
     6
 74
     0
 42
0.00000001
 43
0.00000001
 40
0.0
 40
0.0
 40
0.0
 40
0.0
 40
0.0580868486472904
 40
0.530031626943539
 40
1.0
 40
1.0
 40
1.0
 40
1.0
 10
180.3147532662404
 20
179.8793512750501
 30
0.0
 10
180.3421922016981
 20
179.8793512750501
 30
0.0
 10
180.5925673544378
 20
179.8793512750501
 30
0.0
 10
180.9863544332769
 20
179.8793512750501
 30
0.0
 10
181.0547868325089
 20
179.8793512750501
 30
0.0
 10
181.0889312366774
 20
179.8793512750501
 30
0.0
  0
LINE
  5
2A2
330
1F
100
AcDbEntity
  8
0
  6
Continuous
 62
     7
370
    25
100
AcDbLine
 10
182.3147532662
 20
178.6293512751
 30
0.0
 11
182.3147532662
 21
162.1293512751
 31
0.0
  0
LINE
  5
2A3
330
1F
100
AcDbEntity
  8
0
  6
Continuous
 62
     7
370
    25
100
AcDbLine
 10
177.7647532662
 20
162.1826136871
 30
0.0
 11
177.5147532662
 21
162.7895669523
 31
0.0
  0
LINE
  5
2A4
330
1F
100
AcDbEntity
  8
0
  6
Continuous
 62
     7
370
    25
100
AcDbLine
 10
177.5147532662
 20
168.4691355978
 30
0.0
 11
177.5147532662
 21
162.7895669523
 31
0.0
  0
LINE
  5
2A5
330
1F
100
AcDbEntity
  8
0
  6
Continuous
 62
     7
370
    25
100
AcDbLine
 10
177.5147532662
 20
168.4691355978
 30
0.0
 11
177.7647532662
 21
169.076088863
 31
0.0
  0
LINE
  5
2A6
330
1F
100
AcDbEntity
  8
0
  6
Continuous
 62
     7
370
    25
100
AcDbLine
 10
180.3147532662
 20
169.076088863
 30
0.0
 11
177.7647532662
 21
169.076088863
 31
0.0
  0
LINE
  5
2A7
330
1F
100
AcDbEntity
  8
0
  6
Continuous
 62
     7
370
    25
100
AcDbLine
 10
177.7647532662
 20
162.1826136871
 30
0.0
 11
180.3147532662
 21
162.1826136871
 31
0.0
  0
LINE
  5
2A8
330
1F
100
AcDbEntity
  8
0
  6
Continuous
 62
     7
370
    25
100
AcDbLine
 10
177.7647532662
 20
171.6826136871
 30
0.0
 11
177.5147532662
 21
172.2895669523
 31
0.0
  0
LINE
  5
2A9
330
1F
100
AcDbEntity
  8
0
  6
Continuous
 62
     7
370
    25
100
AcDbLine
 10
177.5147532662
 20
177.9691355978
 30
0.0
 11
177.5147532662
 21
172.2895669523
 31
0.0
  0
LINE
  5
2AA
330
1F
100
AcDbEntity
  8
0
  6
Continuous
 62
     7
370
    25
100
AcDbLine
 10
177.5147532662
 20
177.9691355978
 30
0.0
 11
177.7647532662
 21
178.576088863
 31
0.0
  0
LINE
  5
2AB
330
1F
100
AcDbEntity
  8
0
  6
Continuous
 62
     7
370
    25
100
AcDbLine
 10
180.3147532662
 20
178.576088863
 30
0.0
 11
177.7647532662
 21
178.576088863
 31
0.0
  0
LINE
  5
2AC
330
1F
100
AcDbEntity
  8
0
  6
Continuous
 62
     7
370
    25
100
AcDbLine
 10
177.7647532662
 20
171.6826136871
 30
0.0
 11
180.3147532662
 21
171.6826136871
 31
0.0
  0
LINE
  5
2AD
330
1F
100
AcDbEntity
  8
0
  6
Continuous
 62
     7
370
    25
100
AcDbLine
 10
177.7647532662
 20
171.6826136871
 30
0.0
 11
177.7647532662
 21
169.076088863
 31
0.0
  0
LINE
  5
2AE
330
1F
100
AcDbEntity
  8
0
  6
Continuous
 62
     7
370
    25
100
AcDbLine
 10
177.5147532662
 20
168.4691355978
 30
0.0
 11
177.5147532662
 21
172.2895669523
 31
0.0
  0
SPLINE
  5
2AF
330
1F
100
AcDbEntity
  8
0
  6
Continuous
 62
     7
370
    25
100
AcDbSpline
210
0.0
220
0.0
230
1.0
 70
     8
 71
     3
 72
    35
 73
    31
 74
     0
 42
0.00000001
 43
0.00000001
 40
0.0
 40
0.0
 40
0.0
 40
0.0
 40
0.0090244057590591
 40
0.0333720401352688
 40
0.0601759811223374
 40
0.0745399081436049
 40
0.1008045740791158
 40
0.1376609863156989
 40
0.1653685613570513
 40
0.1996204422150972
 40
0.2366544341576806
 40
0.2697116072887934
 40
0.3039654845597426
 40
0.3582540442022721
 40
0.4066904388091905
 40
0.4424693069460131
 40
0.4655764792670229
 40
0.487687378526899
 40
0.5124095952568487
 40
0.5352758037637338
 40
0.5653607913863936
 40
0.6170242833868079
 40
0.7002840938089805
 40
0.7556422986679685
 40
0.8299093553557931
 40
0.8778165427001832
 40
0.9216707740240975
 40
0.9585666222541048
 40
0.9880575042488772
 40
1.0
 40
1.0
 40
1.0
 40
1.0
 10
174.7095513614826
 20
179.7588751186123
 30
0.0
 10
174.7115924270792
 20
179.7594308234428
 30
0.0
 10
174.719140239625
 20
179.7614858068289
 30
0.0
 10
174.7331254339797
 20
179.6823687043897
 30
0.0
 10
174.7485634220217
 20
179.5675560320081
 30
0.0
 10
174.7647316250417
 20
179.4013804995587
 30
0.0
 10
174.7833722613516
 20
179.1649596431679
 30
0.0
 10
174.8052788059541
 20
178.8039947222048
 30
0.0
 10
174.8289481243136
 20
178.323889498139
 30
0.0
 10
174.8522586474773
 20
177.7623553350504
 30
0.0
 10
174.876293346434
 20
177.0800295681963
 30
0.0
 10
174.8992835910131
 20
176.317616036003
 30
0.0
 10
174.928121262064
 20
175.3494522954786
 30
0.0
 10
174.9610965770386
 20
174.1550163255295
 30
0.0
 10
174.9942481675063
 20
172.8610250448146
 30
0.0
 10
175.019775103339
 20
171.8237168747051
 30
0.0
 10
175.0387745771562
 20
171.030803489337
 30
0.0
 10
175.0546055576375
 20
170.3427676900863
 30
0.0
 10
175.070563714122
 20
169.6570957595909
 30
0.0
 10
175.0880427736287
 20
168.8975573702324
 30
0.0
 10
175.1130394408309
 20
167.8872537937825
 30
0.0
 10
175.1527937527528
 20
166.3436376839371
 30
0.0
 10
175.198800047997
 20
164.7160648672807
 30
0.0
 10
175.246546900687
 20
163.1873515379709
 30
0.0
 10
175.2886538867691
 20
162.1753500841441
 30
0.0
 10
175.3287020317776
 20
161.5113617967156
 30
0.0
 10
175.3594605866061
 20
161.1633275771047
 30
0.0
 10
175.3854930258716
 20
161.0155949957778
 30
0.0
 10
175.4029377546464
 20
160.9539996895794
 30
0.0
 10
175.4126042880381
 20
160.9987838933586
 30
0.0
 10
175.4153905087191
 20
161.0116922100938
 30
0.0
  0
SPLINE
  5
2B0
330
1F
100
AcDbEntity
  8
0
  6
Continuous
 62
     7
370
    25
100
AcDbSpline
210
0.0
220
0.0
230
1.0
 70
     8
 71
     3
 72
    15
 73
    11
 74
     0
 42
0.00000001
 43
0.00000001
 40
0.0
 40
0.0
 40
0.0
 40
0.0
 40
0.0478890380033976
 40
0.1935590801526927
 40
0.335548062613225
 40
0.4612063989062918
 40
0.6074579278047207
 40
0.7139272803830451
 40
0.8169654676042827
 40
1.0
 40
1.0
 40
1.0
 40
1.0
 10
174.8647532662405
 20
164.1315850566116
 30
0.0
 10
174.8676990709181
 20
164.0343720196039
 30
0.0
 10
174.8796054960101
 20
163.6414539989766
 30
0.0
 10
174.8998896391651
 20
163.0579219009701
 30
0.0
 10
174.9260474616806
 20
162.4184620942
 30
0.0
 10
174.9526716043526
 20
161.8890736633552
 30
0.0
 10
174.9770328068594
 20
161.505676692204
 30
0.0
 10
174.9998747873705
 20
161.2424352256434
 30
0.0
 10
175.0251884741361
 20
161.0324230874805
 30
0.0
 10
175.0425375557842
 20
161.0004099373184
 30
0.0
 10
175.0536378139674
 20
160.9799273412209
 30
0.0
  0
SPLINE
  5
2B1
330
1F
100
AcDbEntity
  8
0
  6
Continuous
 62
     7
370
    25
100
AcDbSpline
210
0.0
220
0.0
230
1.0
 70
     8
 71
     3
 72
    19
 73
    15
 74
     0
 42
0.00000001
 43
0.00000001
 40
0.0
 40
0.0
 40
0.0
 40
0.0
 40
0.0770505353374608
 40
0.1776836545754065
 40
0.2760982013951024
 40
0.3764958487821199
 40
0.4761449113035561
 40
0.5441919610790386
 40
0.613358235961428
 40
0.682975679242511
 40
0.7813646647090063
 40
0.8818435591124955
 40
0.981324587987636
 40
1.0
 40
1.0
 40
1.0
 40
1.0
 10
175.1515944546807
 20
178.9358871042626
 30
0.0
 10
175.1692953039811
 20
178.885564069918
 30
0.0
 10
175.2101146387075
 20
178.7695158087021
 30
0.0
 10
175.2786360769178
 20
177.6115699843746
 30
0.0
 10
175.3448841352213
 20
175.7510120357549
 30
0.0
 10
175.4177464055832
 20
173.3490865096321
 30
0.0
 10
175.4811955498283
 20
170.9357234102194
 30
0.0
 10
175.534298641243
 20
168.7924868883031
 30
0.0
 10
175.5844430472715
 20
166.9917942808603
 30
0.0
 10
175.6417140530918
 20
165.1135806935186
 30
0.0
 10
175.7011479417438
 20
163.3357099371573
 30
0.0
 10
175.7744917704199
 20
162.1184535230055
 30
0.0
 10
175.8252412851084
 20
161.6153279167457
 30
0.0
 10
175.8527670743684
 20
161.7875215238412
 30
0.0
 10
175.8571177085915
 20
161.8147378696811
 30
0.0
  0
SPLINE
  5
2B2
330
1F
100
AcDbEntity
  8
0
  6
Continuous
 62
     7
370
    25
100
AcDbSpline
210
0.0
220
0.0
230
1.0
 70
     8
 71
     3
 72
    22
 73
    18
 74
     0
 42
0.00000001
 43
0.00000001
 40
0.0
 40
0.0
 40
0.0
 40
0.0
 40
0.0322559774995884
 40
0.1016689078701326
 40
0.1710818376161171
 40
0.2404947673629134
 40
0.3099076971058071
 40
0.3786936808213671
 40
0.4472621115885803
 40
0.5158305418595424
 40
0.5843989721299293
 40
0.6529534196205112
 40
0.7206773543488655
 40
0.7884012882200017
 40
0.8561252217588255
 40
0.9269330641999513
 40
1.0
 40
1.0
 40
1.0
 40
1.0
 10
175.6697258139034
 20
179.5926180313155
 30
0.0
 10
175.6732177873451
 20
179.5960224952526
 30
0.0
 10
175.6842242783474
 20
179.6067531615415
 30
0.0
 10
175.7036797380269
 20
179.3529472976625
 30
0.0
 10
175.7279523776055
 20
178.8509455267468
 30
0.0
 10
175.7522709208962
 20
178.102634619295
 30
0.0
 10
175.7757381564942
 20
177.1496109912652
 30
0.0
 10
175.7981584163973
 20
176.0161583904343
 30
0.0
 10
175.8221811286713
 20
174.7350889471258
 30
0.0
 10
175.8464847386726
 20
173.3389900029811
 30
0.0
 10
175.8707599804753
 20
171.8650985794716
 30
0.0
 10
175.8936310199633
 20
170.3600792636568
 30
0.0
 10
175.9165335533052
 20
168.8659554990005
 30
0.0
 10
175.9406906072384
 20
167.4223658401825
 30
0.0
 10
175.9654080842611
 20
166.0473343743946
 30
0.0
 10
175.9904343673927
 20
164.7520548268602
 30
0.0
 10
176.0065625527639
 20
164.0294844067689
 30
0.0
 10
176.0147532662404
 20
163.6625263676932
 30
0.0
  0
SPLINE
  5
2B3
330
1F
100
AcDbEntity
  8
0
  6
Continuous
 62
     7
370
    25
100
AcDbSpline
210
0.0
220
0.0
230
1.0
 70
    24
 71
     3
 72
    10
 73
     6
 74
     0
 42
0.00000001
 43
0.00000001
 40
0.0
 40
0.0
 40
0.0
 40
0.0
 40
0.3294562546722014
 40
0.8318642056942909
 40
1.0
 40
1.0
 40
1.0
 40
1.0
 10
176.0147532662404
 20
163.6625263676932
 30
0.0
 10
176.0147532662404
 20
163.2927734222926
 30
0.0
 10
176.0147532662405
 20
162.3591616426806
 30
0.0
 10
176.0147532662404
 20
161.8077855437709
 30
0.0
 10
176.0147532662404
 20
161.7622005565163
 30
0.0
 10
176.0147532662404
 20
161.7507703282965
 30
0.0
  0
SPLINE
  5
2B4
330
1F
100
AcDbEntity
  8
0
  6
Continuous
 62
     7
370
    25
100
AcDbSpline
210
0.0
220
0.0
230
1.0
 70
     8
 71
     3
 72
    18
 73
    14
 74
     0
 42
0.00000001
 43
0.00000001
 40
0.0
 40
0.0
 40
0.0
 40
0.0
 40
0.0920270719245729
 40
0.1940458328883522
 40
0.2874258845647118
 40
0.3821940119862819
 40
0.4027152769102293
 40
0.5035065921056981
 40
0.6040533562502256
 40
0.70602431162491
 40
0.8057680385526277
 40
0.9076304505758259
 40
1.0
 40
1.0
 40
1.0
 40
1.0
 10
175.318413260433
 20
178.9838588505743
 30
0.0
 10
175.3392437307629
 20
178.9287050288233
 30
0.0
 10
175.3831663057193
 20
178.8124091491997
 30
0.0
 10
175.4534780647275
 20
177.6405366405654
 30
0.0
 10
175.5169071499731
 20
175.8811776720987
 30
0.0
 10
175.5666771928276
 20
174.2532712355651
 30
0.0
 10
175.6179774266116
 20
172.4525364027174
 30
0.0
 10
175.6688687632562
 20
170.470974412151
 30
0.0
 10
175.7376375558508
 20
167.762588613424
 30
0.0
 10
175.8113780260487
 20
165.31006923393
 30
0.0
 10
175.8775123279155
 20
163.358379055472
 30
0.0
 10
175.9487888554664
 20
162.0717730985313
 30
0.0
 10
175.9934934240202
 20
161.8542271494428
 30
0.0
 10
176.0147532662404
 20
161.7507703282965
 30
0.0
  0
LINE
  5
2B5
330
1F
100
AcDbEntity
  8
0
  6
Continuous
 62
     7
370
    25
100
AcDbLine
 10
176.0147532662
 20
179.2793512751
 30
0.0
 11
176.0147532662
 21
163.6625263677
 31
0.0
  0
LINE
  5
2B6
330
1F
100
AcDbEntity
  8
0
  6
Continuous
 62
     7
370
    25
100
AcDbLine
 10
176.0147532662
 20
161.7507703283
 30
0.0
 11
176.0147532662
 21
161.7431436472
 31
0.0
  0
LINE
  5
2B7
330
1F
100
AcDbEntity
  8
0
  6
Continuous
 62
     7
370
    25
100
AcDbLine
 10
177.7647532662
 20
179.8793512751
 30
0.0
 11
177.5147532662
 21
179.8793512751
 31
0.0
  0
LINE
  5
2B8
330
1F
100
AcDbEntity
  8
0
  6
Continuous
 62
     7
370
    25
100
AcDbLine
 10
177.7647532662
 20
179.8793512751
 30
0.0
 11
177.7647532662
 21
178.576088863
 31
0.0
  0
LINE
  5
2B9
330
1F
100
AcDbEntity
  8
0
  6
Continuous
 62
     7
370
    25
100
AcDbLine
 10
177.5147532662
 20
177.9691355978
 30
0.0
 11
177.5147532662
 21
179.8793512751
 31
0.0
  0
LINE
  5
2BA
330
1F
100
AcDbEntity
  8
0
  6
Continuous
 62
     7
370
    25
100
AcDbLine
 10
177.7647532662
 20
162.1826136871
 30
0.0
 11
177.7647532662
 21
160.8793512751
 31
0.0
  0
LINE
  5
2BB
330
1F
100
AcDbEntity
  8
0
  6
Continuous
 62
     7
370
    25
100
AcDbLine
 10
177.5147532662
 20
160.8793512751
 30
0.0
 11
177.7647532662
 21
160.8793512751
 31
0.0
  0
LINE
  5
2BC
330
1F
100
AcDbEntity
  8
0
  6
Continuous
 62
     7
370
    25
100
AcDbLine
 10
177.5147532662
 20
160.8793512751
 30
0.0
 11
177.5147532662
 21
162.7895669523
 31
0.0
  0
LINE
  5
2BD
330
1F
100
AcDbEntity
  8
0
  6
Continuous
 62
     7
370
    25
100
AcDbLine
 10
177.7647532662
 20
179.8793512751
 30
0.0
 11
180.3147532662
 21
179.8793512751
 31
0.0
  0
LINE
  5
2BE
330
1F
100
AcDbEntity
  8
0
  6
Continuous
 62
     7
370
    25
100
AcDbLine
 10
180.3147532662
 20
160.8793512751
 30
0.0
 11
177.7647532662
 21
160.8793512751
 31
0.0
  0
LINE
  5
2BF
330
1F
100
AcDbEntity
  8
0
  6
Continuous
 62
     7
370
    25
100
AcDbLine
 10
165.8647532662
 20
167.8679893761
 30
0.0
 11
165.8647532662
 21
172.8230883015
 31
0.0
  0
LWPOLYLINE
  5
2C0
330
1F
100
AcDbEntity
  8
0
  6
Continuous
 62
     7
370
    25
100
AcDbPolyline
 90
        3
 70
   128
 43
0.0
 10
132.8647532662
 20
30.3826782474
 10
132.684943804
 20
32.24254466
 10
132.5147532662
 20
32.966290468
  0
ARC
  5
2C1
330
1F
100
AcDbEntity
  8
0
  6
Continuous
 62
     7
370
    25
100
AcDbCircle
 10
122.9284779098
 20
30.4541258254
 30
0.0
 40
9.936532227816459
100
AcDbArc
 50
165.3554888117
 51
359.5880172419
  0
ARC
  5
2C2
330
1F
100
AcDbEntity
  8
0
  6
Continuous
 62
     7
370
    25
100
AcDbCircle
 10
122.9284537438
 20
30.4283515059
 30
0.0
 40
10.03648682770027
100
AcDbArc
 50
164.1749708514
 51
359.6499561725
  0
LWPOLYLINE
  5
2C3
330
1F
100
AcDbEntity
  8
0
  6
Continuous
 62
     7
370
    25
100
AcDbPolyline
 90
        3
 70
   128
 43
0.0
 10
132.5430485079
 20
33.2122683035
 10
132.7831366737
 20
32.2455933382
 10
132.9647532662
 20
30.3670348009
  0
ARC
  5
2C4
330
1F
100
AcDbEntity
  8
0
  6
Continuous
 62
     7
370
    25
100
AcDbCircle
 10
122.9147532662
 20
30.2594174407
 30
0.0
 40
10.05045608781518
100
AcDbArc
 50
180.5458466161
 51
359.4541533839
  0
SPLINE
  5
2C5
330
1F
100
AcDbEntity
  8
0
  6
Continuous
 62
     7
370
    25
100
AcDbSpline
210
0.0
220
0.0
230
1.0
 70
     8
 71
     3
 72
     9
 73
     5
 74
     0
 42
0.00000001
 43
0.00000001
 40
0.0
 40
0.0
 40
0.0
 40
0.0
 40
0.5841917497409232
 40
1.0
 40
1.0
 40
1.0
 40
1.0
 10
159.1647532662405
 20
154.7002174167824
 30
0.0
 10
159.1385853024198
 20
154.5091351947158
 30
0.0
 10
159.0937918526112
 20
154.182047004663
 30
0.0
 10
158.8511774350972
 20
154.1448274662098
 30
0.0
 10
158.7502963586631
 20
154.1293512750501
 30
0.0
  0
LINE
  5
2C6
330
1F
100
AcDbEntity
  8
0
  6
Continuous
 62
     7
370
    25
100
AcDbLine
 10
159.1647532662
 20
154.7002174168
 30
0.0
 11
159.1647532662
 21
155.4270442909
 31
0.0
  0
LINE
  5
2C7
330
1F
100
AcDbEntity
  8
0
  6
Continuous
 62
     7
370
    25
100
AcDbLine
 10
159.1151870765
 20
155.8472342607
 30
0.0
 11
159.1647532662
 21
155.4270442909
 31
0.0
  0
LINE
  5
2C8
330
1F
100
AcDbEntity
  8
0
  6
Continuous
 62
     7
370
    25
100
AcDbLine
 10
159.1647532662
 20
185.3316582592
 30
0.0
 11
159.0901969667
 21
184.8592132534
 31
0.0
  0
LINE
  5
2C9
330
1F
100
AcDbEntity
  8
0
  6
Continuous
 62
     7
370
    25
100
AcDbLine
 10
159.1647532662
 20
185.3316582592
 30
0.0
 11
159.1647532662
 21
186.0584851333
 31
0.0
  0
SPLINE
  5
2CA
330
1F
100
AcDbEntity
  8
0
  6
Continuous
 62
     7
370
    25
100
AcDbSpline
210
0.0
220
0.0
230
1.0
 70
     8
 71
     3
 72
     9
 73
     5
 74
     0
 42
0.00000001
 43
0.00000001
 40
0.0
 40
0.0
 40
0.0
 40
0.0
 40
0.5850553834536154
 40
1.0
 40
1.0
 40
1.0
 40
1.0
 10
158.7502963586631
 20
186.6293512750501
 30
0.0
 10
158.8868504926874
 20
186.5976528580114
 30
0.0
 10
159.1202542658794
 20
186.5434726591189
 30
0.0
 10
159.1517035536046
 20
186.2007118753188
 30
0.0
 10
159.1647532662405
 20
186.0584851333178
 30
0.0
  0
SPLINE
  5
2CB
330
1F
100
AcDbEntity
  8
0
  6
Continuous
 62
     7
370
    25
100
AcDbSpline
210
0.0
220
0.0
230
1.0
 70
    27
 71
     3
 72
    11
 73
     7
 74
     0
 42
0.00000001
 43
0.00000001
 40
0.0
 40
0.0
 40
0.0
 40
0.0
 40
0.2328716322111437
 40
0.4710265024313159
 40
0.7311421212560256
 40
1.0
 40
1.0
 40
1.0
 40
1.0
 10
158.7502963586631
 20
186.6293512750501
 30
0.0
 10
158.4798996239903
 20
186.6293512750501
 30
0.0
 10
157.9329715718595
 20
186.6293512750501
 30
0.0
 10
157.6317472538759
 20
186.6293512750501
 30
0.0
 10
157.8393990192856
 20
186.6293512750501
 30
0.0
 10
158.4433368510659
 20
186.6293512750501
 30
0.0
 10
158.7502963586631
 20
186.6293512750501
 30
0.0
  0
SPLINE
  5
2CC
330
1F
100
AcDbEntity
  8
0
  6
Continuous
 62
     7
370
    25
100
AcDbSpline
210
0.0
220
0.0
230
1.0
 70
     8
 71
     3
 72
     9
 73
     5
 74
     0
 42
0.00000001
 43
0.00000001
 40
0.0
 40
0.0
 40
0.0
 40
0.0
 40
0.5841917497409207
 40
1.0
 40
1.0
 40
1.0
 40
1.0
 10
159.1647532662405
 20
186.0584851333178
 30
0.0
 10
159.1385853024198
 20
186.2495673553843
 30
0.0
 10
159.0937918526112
 20
186.5766555454371
 30
0.0
 10
158.8511774350972
 20
186.6138750838904
 30
0.0
 10
158.7502963586631
 20
186.6293512750501
 30
0.0
  0
LINE
  5
2CD
330
1F
100
AcDbEntity
  8
0
  6
Continuous
 62
     7
370
    25
100
AcDbLine
 10
159.1647532662
 20
186.0584851333
 30
0.0
 11
159.1647532662
 21
185.3316582592
 31
0.0
  0
SPLINE
  5
2CE
330
1F
100
AcDbEntity
  8
0
  6
Continuous
 62
     7
370
    25
100
AcDbSpline
210
0.0
220
0.0
230
1.0
 70
     8
 71
     3
 72
     9
 73
     5
 74
     0
 42
0.00000001
 43
0.00000001
 40
0.0
 40
0.0
 40
0.0
 40
0.0
 40
0.5850553834536156
 40
1.0
 40
1.0
 40
1.0
 40
1.0
 10
158.7502963586631
 20
183.6078427269877
 30
0.0
 10
158.8868504926874
 20
183.9943892525515
 30
0.0
 10
159.1202542658793
 20
184.6550899938761
 30
0.0
 10
159.1517035536046
 20
185.1332488260019
 30
0.0
 10
159.1647532662405
 20
185.3316582592466
 30
0.0
  0
SPLINE
  5
2CF
330
1F
100
AcDbEntity
  8
0
  6
Continuous
 62
     7
370
    25
100
AcDbSpline
210
0.0
220
0.0
230
1.0
 70
     8
 71
     3
 72
    11
 73
     7
 74
     0
 42
0.00000001
 43
0.00000001
 40
0.0
 40
0.0
 40
0.0
 40
0.0
 40
0.2328716322111451
 40
0.4710265024313185
 40
0.7311421212560272
 40
1.0
 40
1.0
 40
1.0
 40
1.0
 10
158.7502963586631
 20
173.4008598231125
 30
0.0
 10
158.4798996239903
 20
174.174962199106
 30
0.0
 10
157.9329715718595
 20
175.7407292752667
 30
0.0
 10
157.6317472538759
 20
178.2761682425615
 30
0.0
 10
157.8393990192856
 20
180.9496743230306
 30
0.0
 10
158.4433368510659
 20
182.712077607126
 30
0.0
 10
158.7502963586631
 20
183.6078427269877
 30
0.0
  0
SPLINE
  5
2D0
330
1F
100
AcDbEntity
  8
0
  6
Continuous
 62
     7
370
    25
100
AcDbSpline
210
0.0
220
0.0
230
1.0
 70
     8
 71
     3
 72
     9
 73
     5
 74
     0
 42
0.00000001
 43
0.00000001
 40
0.0
 40
0.0
 40
0.0
 40
0.0
 40
0.5841917497409215
 40
1.0
 40
1.0
 40
1.0
 40
1.0
 10
159.1647532662405
 20
171.1061781491213
 30
0.0
 10
159.1385853024198
 20
171.5865362746876
 30
0.0
 10
159.0937918526112
 20
172.4087973315739
 30
0.0
 10
158.8511774350972
 20
173.1095013226384
 30
0.0
 10
158.7502963586631
 20
173.4008598231125
 30
0.0
  0
LINE
  5
2D1
330
1F
100
AcDbEntity
  8
0
  6
Continuous
 62
     7
370
    25
100
AcDbLine
 10
159.1647532662
 20
171.1061781491
 30
0.0
 11
159.1647532662
 21
169.652524401
 31
0.0
  0
SPLINE
  5
2D2
330
1F
100
AcDbEntity
  8
0
  6
Continuous
 62
     7
370
    25
100
AcDbSpline
210
0.0
220
0.0
230
1.0
 70
     8
 71
     3
 72
     9
 73
     5
 74
     0
 42
0.00000001
 43
0.00000001
 40
0.0
 40
0.0
 40
0.0
 40
0.0
 40
0.5850553834536173
 40
1.0
 40
1.0
 40
1.0
 40
1.0
 10
158.7502963586631
 20
167.3578427269877
 30
0.0
 10
158.8868504926874
 20
167.7760876695901
 30
0.0
 10
159.1202542658793
 20
168.4909686098073
 30
0.0
 10
159.1517035536046
 20
169.3118882257331
 30
0.0
 10
159.1647532662405
 20
169.6525244009788
 30
0.0
  0
SPLINE
  5
2D3
330
1F
100
AcDbEntity
  8
0
  6
Continuous
 62
     7
370
    25
100
AcDbSpline
210
0.0
220
0.0
230
1.0
 70
     8
 71
     3
 72
    11
 73
     7
 74
     0
 42
0.00000001
 43
0.00000001
 40
0.0
 40
0.0
 40
0.0
 40
0.0
 40
0.2556279644381005
 40
0.5185037642963934
 40
0.7560467972580137
 40
1.0
 40
1.0
 40
1.0
 40
1.0
 10
158.7502963586631
 20
157.1508598231125
 30
0.0
 10
158.4566703985611
 20
158.0018043960799
 30
0.0
 10
157.8610932834255
 20
159.7278204259031
 30
0.0
 10
157.6292043217989
 20
162.3609029541004
 30
0.0
 10
157.9121747802597
 20
164.944630374271
 30
0.0
 10
158.468453913824
 20
166.5463307853654
 30
0.0
 10
158.7502963586631
 20
167.3578427269877
 30
0.0
  0
SPLINE
  5
2D4
330
1F
100
AcDbEntity
  8
0
  6
Continuous
 62
     7
370
    25
100
AcDbSpline
210
0.0
220
0.0
230
1.0
 70
     8
 71
     3
 72
     9
 73
     5
 74
     0
 42
0.00000001
 43
0.00000001
 40
0.0
 40
0.0
 40
0.0
 40
0.0
 40
0.584191749740923
 40
1.0
 40
1.0
 40
1.0
 40
1.0
 10
159.1647532662405
 20
155.4270442908536
 30
0.0
 10
159.1385853024198
 20
155.7163201943533
 30
0.0
 10
159.0937918526112
 20
156.2114930611869
 30
0.0
 10
158.8511774350972
 20
156.8749775137981
 30
0.0
 10
158.7502963586631
 20
157.1508598231125
 30
0.0
  0
LINE
  5
2D5
330
1F
100
AcDbEntity
  8
0
  6
Continuous
 62
     7
370
    25
100
AcDbLine
 10
159.1647532662
 20
155.4270442909
 30
0.0
 11
159.1647532662
 21
154.7002174168
 31
0.0
  0
SPLINE
  5
2D6
330
1F
100
AcDbEntity
  8
0
  6
Continuous
 62
     7
370
    25
100
AcDbSpline
210
0.0
220
0.0
230
1.0
 70
     8
 71
     3
 72
     9
 73
     5
 74
     0
 42
0.00000001
 43
0.00000001
 40
0.0
 40
0.0
 40
0.0
 40
0.0
 40
0.5850553834536175
 40
1.0
 40
1.0
 40
1.0
 40
1.0
 10
158.7502963586631
 20
154.1293512750501
 30
0.0
 10
158.8868504926874
 20
154.1610496920887
 30
0.0
 10
159.1202542658793
 20
154.2152298909812
 30
0.0
 10
159.1517035536046
 20
154.5579906747813
 30
0.0
 10
159.1647532662405
 20
154.7002174167823
 30
0.0
  0
SPLINE
  5
2D7
330
1F
100
AcDbEntity
  8
0
  6
Continuous
 62
     7
370
    25
100
AcDbSpline
210
0.0
220
0.0
230
1.0
 70
    27
 71
     3
 72
    11
 73
     7
 74
     0
 42
0.00000001
 43
0.00000001
 40
0.0
 40
0.0
 40
0.0
 40
0.0
 40
0.2328716322111439
 40
0.4710265024313164
 40
0.731142121256026
 40
0.9999999999999999
 40
0.9999999999999999
 40
0.9999999999999999
 40
0.9999999999999999
 10
158.7502963586631
 20
154.1293512750501
 30
0.0
 10
158.4798996239903
 20
154.1293512750501
 30
0.0
 10
157.9329715718595
 20
154.1293512750501
 30
0.0
 10
157.6317472538759
 20
154.1293512750501
 30
0.0
 10
157.8393990192856
 20
154.1293512750501
 30
0.0
 10
158.4433368510659
 20
154.1293512750501
 30
0.0
 10
158.7502963586631
 20
154.1293512750501
 30
0.0
  0
LINE
  5
2D8
330
1F
100
AcDbEntity
  8
0
  6
Continuous
 62
     7
370
    25
100
AcDbLine
 10
157.6647532662
 20
186.5793512751
 30
0.0
 11
157.6647532662
 21
154.1793512751
 31
0.0
  0
LINE
  5
2D9
330
1F
100
AcDbEntity
  8
0
  6
Continuous
 62
     7
370
    25
100
AcDbLine
 10
158.7502963587
 20
173.4008598231
 30
0.0
 11
166.0292101738
 21
173.4008598231
 31
0.0
  0
LINE
  5
2DA
330
1F
100
AcDbEntity
  8
0
  6
Continuous
 62
     7
370
    25
100
AcDbLine
 10
166.0292101738
 20
183.607842727
 30
0.0
 11
158.7502963587
 21
183.607842727
 31
0.0
  0
SPLINE
  5
2DB
330
1F
100
AcDbEntity
  8
0
  6
Continuous
 62
     7
370
    25
100
AcDbSpline
210
0.0
220
0.0
230
1.0
 70
     8
 71
     3
 72
    11
 73
     7
 74
     0
 42
0.00000001
 43
0.00000001
 40
0.0
 40
0.0
 40
0.0
 40
0.0
 40
0.232871632211147
 40
0.4710265024313228
 40
0.7311421212560294
 40
1.0
 40
1.0
 40
1.0
 40
1.0
 10
166.0292101738178
 20
183.6078427269877
 30
0.0
 10
166.2996069084906
 20
182.8337403509941
 30
0.0
 10
166.8465349606214
 20
181.2679732748333
 30
0.0
 10
167.147759278605
 20
178.7325343075386
 30
0.0
 10
166.9401075131953
 20
176.0590282270694
 30
0.0
 10
166.336169681415
 20
174.2966249429741
 30
0.0
 10
166.0292101738178
 20
173.4008598231125
 30
0.0
  0
LINE
  5
2DC
330
1F
100
AcDbEntity
  8
0
  6
Continuous
 62
     7
370
    25
100
AcDbLine
 10
174.8647532662
 20
159.8043512751
 30
0.0
 11
174.8647532662
 21
180.9543512751
 31
0.0
  0
LINE
  5
2DD
330
1F
100
AcDbEntity
  8
0
  6
Continuous
 62
     7
370
    25
100
AcDbLine
 10
165.6147532662
 20
171.1061781491
 30
0.0
 11
159.1647532662
 21
171.1061781491
 31
0.0
  0
SPLINE
  5
2DE
330
1F
100
AcDbEntity
  8
0
  6
Continuous
 62
     7
370
    25
100
AcDbSpline
210
0.0
220
0.0
230
1.0
 70
     8
 71
     3
 72
     9
 73
     5
 74
     0
 42
0.00000001
 43
0.00000001
 40
0.0
 40
0.0
 40
0.0
 40
0.0
 40
0.5850553834536195
 40
1.0
 40
1.0
 40
1.0
 40
1.0
 10
166.0292101738178
 20
173.4008598231125
 30
0.0
 10
165.8926560397935
 20
172.98261488051
 30
0.0
 10
165.6592522666016
 20
172.2677339402928
 30
0.0
 10
165.6278029788763
 20
171.446814324367
 30
0.0
 10
165.6147532662405
 20
171.1061781491213
 30
0.0
  0
LINE
  5
2DF
330
1F
100
AcDbEntity
  8
0
  6
Continuous
 62
     7
370
    25
100
AcDbLine
 10
159.1647532662
 20
169.652524401
 30
0.0
 11
165.6147532662
 21
169.652524401
 31
0.0
  0
LINE
  5
2E0
330
1F
100
AcDbEntity
  8
0
  6
Continuous
 62
     7
370
    25
100
AcDbLine
 10
165.6147532662
 20
169.652524401
 30
0.0
 11
165.6147532662
 21
171.1061781491
 31
0.0
  0
LINE
  5
2E1
330
1F
100
AcDbEntity
  8
0
  6
Continuous
 62
     7
370
    25
100
AcDbLine
 10
166.0292101738
 20
167.357842727
 30
0.0
 11
158.7502963587
 21
167.357842727
 31
0.0
  0
SPLINE
  5
2E2
330
1F
100
AcDbEntity
  8
0
  6
Continuous
 62
     7
370
    25
100
AcDbSpline
210
0.0
220
0.0
230
1.0
 70
     8
 71
     3
 72
     9
 73
     5
 74
     0
 42
0.00000001
 43
0.00000001
 40
0.0
 40
0.0
 40
0.0
 40
0.0
 40
0.5841917497409936
 40
1.0
 40
1.0
 40
1.0
 40
1.0
 10
165.6147532662405
 20
169.6525244009788
 30
0.0
 10
165.6409212300611
 20
169.1721662754126
 30
0.0
 10
165.6857146798697
 20
168.3499052185263
 30
0.0
 10
165.9283290973837
 20
167.6492012274619
 30
0.0
 10
166.0292101738177
 20
167.3578427269879
 30
0.0
  0
LINE
  5
2E3
330
1F
100
AcDbEntity
  8
0
  6
Continuous
 62
     7
370
    25
100
AcDbLine
 10
158.7502963587
 20
157.1508598231
 30
0.0
 11
166.0292101738
 21
157.1508598231
 31
0.0
  0
SPLINE
  5
2E4
330
1F
100
AcDbEntity
  8
0
  6
Continuous
 62
     7
370
    25
100
AcDbSpline
210
0.0
220
0.0
230
1.0
 70
     8
 71
     3
 72
    11
 73
     7
 74
     0
 42
0.00000001
 43
0.00000001
 40
0.0
 40
0.0
 40
0.0
 40
0.0
 40
0.2379053903768482
 40
0.4814905141303176
 40
0.7366519444348057
 40
1.0
 40
1.0
 40
1.0
 40
1.0
 10
166.0292101738177
 20
167.3578427269879
 30
0.0
 10
166.3047956087908
 20
166.566759505677
 30
0.0
 10
166.8625457823442
 20
164.9657068084452
 30
0.0
 10
167.1491090070005
 20
162.4086350076614
 30
0.0
 10
166.9242286008026
 20
159.7549021417983
 30
0.0
 10
166.3306734838847
 20
158.0279626773966
 30
0.0
 10
166.0292101738183
 20
157.1508598231138
 30
0.0
  0
LINE
  5
2E5
330
1F
100
AcDbEntity
  8
0
  6
Continuous
 62
     7
370
    25
100
AcDbLine
 10
159.1647532662
 20
185.3316582592
 30
0.0
 11
165.6147532662
 21
185.3316582592
 31
0.0
  0
SPLINE
  5
2E6
330
1F
100
AcDbEntity
  8
0
  6
Continuous
 62
     7
370
    25
100
AcDbSpline
210
0.0
220
0.0
230
1.0
 70
     8
 71
     3
 72
     9
 73
     5
 74
     0
 42
0.00000001
 43
0.00000001
 40
0.0
 40
0.0
 40
0.0
 40
0.0
 40
0.5841917497409251
 40
1.0
 40
1.0
 40
1.0
 40
1.0
 10
165.6147532662405
 20
185.3316582592466
 30
0.0
 10
165.6409212300611
 20
185.0423823557468
 30
0.0
 10
165.6857146798698
 20
184.5472094889133
 30
0.0
 10
165.9283290973837
 20
183.883725036302
 30
0.0
 10
166.0292101738178
 20
183.6078427269877
 30
0.0
  0
LINE
  5
2E7
330
1F
100
AcDbEntity
  8
0
  6
Continuous
 62
     7
370
    25
100
AcDbLine
 10
165.6147532662
 20
155.4270442909
 30
0.0
 11
159.1647532662
 21
155.4270442909
 31
0.0
  0
SPLINE
  5
2E8
330
1F
100
AcDbEntity
  8
0
  6
Continuous
 62
     7
370
    25
100
AcDbSpline
210
0.0
220
0.0
230
1.0
 70
     8
 71
     3
 72
     9
 73
     5
 74
     0
 42
0.00000001
 43
0.00000001
 40
0.0
 40
0.0
 40
0.0
 40
0.0
 40
0.5850553834534113
 40
1.0
 40
1.0
 40
1.0
 40
1.0
 10
166.0292101738183
 20
157.1508598231138
 30
0.0
 10
165.8926560397939
 20
156.7643132975499
 30
0.0
 10
165.6592522666017
 20
156.1036125562246
 30
0.0
 10
165.6278029788763
 20
155.6254537240985
 30
0.0
 10
165.6147532662405
 20
155.4270442908536
 30
0.0
  0
LINE
  5
2E9
330
1F
100
AcDbEntity
  8
0
  6
Continuous
 62
     7
370
    25
100
AcDbLine
 10
165.6147532662
 20
186.0584851333
 30
0.0
 11
159.1647532662
 21
186.0584851333
 31
0.0
  0
LINE
  5
2EA
330
1F
100
AcDbEntity
  8
0
  6
Continuous
 62
     7
370
    25
100
AcDbLine
 10
165.6147532662
 20
185.3316582592
 30
0.0
 11
165.6147532662
 21
186.0584851333
 31
0.0
  0
LINE
  5
2EB
330
1F
100
AcDbEntity
  8
0
  6
Continuous
 62
     7
370
    25
100
AcDbLine
 10
159.1647532662
 20
154.7002174168
 30
0.0
 11
165.6147532662
 21
154.7002174168
 31
0.0
  0
LINE
  5
2EC
330
1F
100
AcDbEntity
  8
0
  6
Continuous
 62
     7
370
    25
100
AcDbLine
 10
165.6147532662
 20
154.7002174168
 30
0.0
 11
165.6147532662
 21
155.4270442909
 31
0.0
  0
LINE
  5
2ED
330
1F
100
AcDbEntity
  8
0
  6
Continuous
 62
     7
370
    25
100
AcDbLine
 10
158.7502963587
 20
186.6293512751
 30
0.0
 11
166.0292101738
 21
186.6293512751
 31
0.0
  0
SPLINE
  5
2EE
330
1F
100
AcDbEntity
  8
0
  6
Continuous
 62
     7
370
    25
100
AcDbSpline
210
0.0
220
0.0
230
1.0
 70
     8
 71
     3
 72
     9
 73
     5
 74
     0
 42
0.00000001
 43
0.00000001
 40
0.0
 40
0.0
 40
0.0
 40
0.0
 40
0.5850553834536188
 40
1.0
 40
1.0
 40
1.0
 40
1.0
 10
166.0292101738178
 20
186.6293512750501
 30
0.0
 10
165.8926560397935
 20
186.5976528580114
 30
0.0
 10
165.6592522666016
 20
186.5434726591189
 30
0.0
 10
165.6278029788763
 20
186.2007118753188
 30
0.0
 10
165.6147532662405
 20
186.0584851333178
 30
0.0
  0
LINE
  5
2EF
330
1F
100
AcDbEntity
  8
0
  6
Continuous
 62
     7
370
    25
100
AcDbLine
 10
166.0292101738
 20
154.1293512751
 30
0.0
 11
158.7502963587
 21
154.1293512751
 31
0.0
  0
SPLINE
  5
2F0
330
1F
100
AcDbEntity
  8
0
  6
Continuous
 62
     7
370
    25
100
AcDbSpline
210
0.0
220
0.0
230
1.0
 70
     8
 71
     3
 72
     9
 73
     5
 74
     0
 42
0.00000001
 43
0.00000001
 40
0.0
 40
0.0
 40
0.0
 40
0.0
 40
0.5841917497409264
 40
1.0
 40
1.0
 40
1.0
 40
1.0
 10
165.6147532662405
 20
154.7002174167823
 30
0.0
 10
165.6409212300611
 20
154.5091351947158
 30
0.0
 10
165.6857146798698
 20
154.182047004663
 30
0.0
 10
165.9283290973837
 20
154.1448274662098
 30
0.0
 10
166.0292101738178
 20
154.1293512750501
 30
0.0
  0
LINE
  5
2F1
330
1F
100
AcDbEntity
  8
0
  6
Continuous
 62
     7
370
    25
100
AcDbLine
 10
194.6487652436
 20
174.0968649051
 30
0.0
 11
196.8809704332
 21
174.0968649051
 31
0.0
  0
LINE
  5
2F2
330
1F
100
AcDbEntity
  8
0
  6
Continuous
 62
     7
370
    25
100
AcDbLine
 10
194.8156528417
 20
174.4327563141
 30
0.0
 11
195.1845278493
 21
174.4327563141
 31
0.0
  0
ARC
  5
2F3
330
1F
100
AcDbEntity
  8
0
  6
Continuous
 62
     8
370
    25
100
AcDbCircle
 10
122.9147532662
 20
40.7913050694
 30
0.0
 40
8.600413551322895
100
AcDbArc
 50
180.5618810823
 51
359.4381189177
  0
SPLINE
  5
2F4
330
1F
100
AcDbEntity
  8
0
  6
Continuous
 62
     8
370
    25
100
AcDbSpline
210
0.0
220
0.0
230
1.0
 70
     8
 71
     3
 72
     9
 73
     5
 74
     0
 42
0.00000001
 43
0.00000001
 40
0.0
 40
0.0
 40
0.0
 40
0.0
 40
0.5829453663174656
 40
1.0
 40
1.0
 40
1.0
 40
1.0
 10
131.5147532662396
 20
157.0195709502646
 30
0.0
 10
131.6890680253211
 20
157.2896633925082
 30
0.0
 10
131.9880922034917
 20
157.7529871580779
 30
0.0
 10
132.3385351592088
 20
158.3467794586332
 30
0.0
 10
132.4846890177321
 20
158.5944232890248
 30
0.0
  0
SPLINE
  5
2F5
330
1F
100
AcDbEntity
  8
0
  6
Continuous
 62
     8
370
    25
100
AcDbSpline
210
0.0
220
0.0
230
1.0
 70
     8
 71
     3
 72
    11
 73
     7
 74
     0
 42
0.00000001
 43
0.00000001
 40
0.0
 40
0.0
 40
0.0
 40
0.0
 40
0.3067339205175872
 40
0.7339691394604474
 40
0.9992699443142291
 40
1.0
 40
1.0
 40
1.0
 40
1.0
 10
132.6229255419348
 20
181.9477328644975
 30
0.0
 10
132.3027640209774
 20
182.4684120072537
 30
0.0
 10
131.53666460938
 20
183.7143205839735
 30
0.0
 10
130.7037062445146
 20
185.0152745163996
 30
0.0
 10
130.4805197887077
 20
185.7618721947254
 30
0.0
 10
130.4712018026568
 20
186.0123068171237
 30
0.0
 10
130.4711762317561
 20
186.0129940728038
 30
0.0
  0
SPLINE
  5
2F6
330
1F
100
AcDbEntity
  8
0
  6
Continuous
 62
     8
370
    25
100
AcDbSpline
210
0.0
220
0.0
230
1.0
 70
     8
 71
     3
 72
    10
 73
     6
 74
     0
 42
0.00000001
 43
0.00000001
 40
0.0
 40
0.0
 40
0.0
 40
0.0
 40
0.1548621620076803
 40
0.6029472432628052
 40
1.0
 40
1.0
 40
1.0
 40
1.0
 10
132.5527284298186
 20
155.1092400266555
 30
0.0
 10
132.4972637238077
 20
155.0248136411749
 30
0.0
 10
132.2813149655438
 20
154.6961041893355
 30
0.0
 10
132.0102070357595
 20
154.3100195118657
 30
0.0
 10
131.9821650994423
 20
154.271109055275
 30
0.0
 10
131.9689907654834
 20
154.2528286004655
 30
0.0
  0
SPLINE
  5
2F7
330
1F
100
AcDbEntity
  8
0
  6
Continuous
 62
     8
370
    25
100
AcDbSpline
210
0.0
220
0.0
230
1.0
 70
     8
 71
     3
 72
    10
 73
     6
 74
     0
 42
0.00000001
 43
0.00000001
 40
0.0
 40
0.0
 40
0.0
 40
0.0
 40
0.3820636170807512
 40
0.8451376013190322
 40
0.9999999999999999
 40
0.9999999999999999
 40
0.9999999999999999
 40
0.9999999999999999
 10
131.9683728068721
 20
186.506755703662
 30
0.0
 10
131.9804215260374
 20
186.4900150883942
 30
0.0
 10
132.0070736990239
 20
186.4529842830531
 30
0.0
 10
132.2759415204384
 20
186.0707630283124
 30
0.0
 10
132.4972626530463
 20
185.7338876135234
 30
0.0
 10
132.5527284298186
 20
185.6494625234446
 30
0.0
  0
SPLINE
  5
2F8
330
1F
100
AcDbEntity
  8
0
  6
Continuous
 62
     8
370
    25
100
AcDbSpline
210
0.0
220
0.0
230
1.0
 70
     8
 71
     3
 72
    10
 73
     6
 74
     0
 42
0.00000001
 43
0.00000001
 40
0.0
 40
0.0
 40
0.0
 40
0.0
 40
0.1334759329763037
 40
0.5935771488207898
 40
1.0
 40
1.0
 40
1.0
 40
1.0
 10
130.4204668457386
 20
186.0353813199231
 30
0.0
 10
130.3855625137676
 20
186.1106135756036
 30
0.0
 10
130.2303404194855
 20
186.4451768697528
 30
0.0
 10
130.0304860839514
 20
186.8473275895737
 30
0.0
 10
130.0096898410465
 20
186.8879927661434
 30
0.0
 10
129.9999358496031
 20
186.9070658163148
 30
0.0
  0
ARC
  5
2F9
330
1F
100
AcDbEntity
  8
0
  6
Continuous
 62
     8
370
    25
100
AcDbCircle
 10
122.9147532662
 20
170.3793512751
 30
0.0
 40
26.45927930138581
100
AcDbArc
 50
288.967256181
 51
322.3836029692
  0
ARC
  5
2FA
330
1F
100
AcDbEntity
  8
0
  6
Continuous
 62
     8
370
    25
100
AcDbCircle
 10
122.9147532662
 20
170.3793512751
 30
0.0
 40
26.45927930138581
100
AcDbArc
 50
37.6163970308
 51
251.032743819
  0
ELLIPSE
  5
2FB
330
1F
100
AcDbEntity
  8
0
  6
Continuous
 62
     8
370
    25
100
AcDbEllipse
 10
159.433027192
 20
175.2071778505
 30
0.0
 11
35.70262486333175
 21
-0.6260506459064743
 31
0.0
210
0.0
220
0.0
230
1.0
 40
0.0552146892
 41
6.257836912924546
 42
6.344163104880495
  0
ARC
  5
2FC
330
1F
100
AcDbEntity
  8
0
  6
Continuous
 62
     8
370
    25
100
AcDbCircle
 10
195.1136101339
 20
166.7262689205
 30
0.0
 40
0.4990247297581937
100
AcDbArc
 50
205.6099242454
 51
271.1133447788
  0
ELLIPSE
  5
2FD
330
1F
100
AcDbEntity
  8
0
  6
Continuous
 62
     8
370
    25
100
AcDbEllipse
 10
209.6095593436
 20
173.7577312302
 30
0.0
 11
14.99999386323822
 21
-0.2542085132690772
 31
0.0
210
0.0
220
0.0
230
1.0
 40
0.0533752749
 41
3.142300805937959
 42
3.781909355561421
  0
ELLIPSE
  5
2FE
330
1F
100
AcDbEntity
  8
0
  6
Continuous
 62
     8
370
    25
100
AcDbEllipse
 10
159.4243009887
 20
174.7080147795
 30
0.0
 11
35.20262413736899
 21
-0.6261054031506035
 31
0.0
210
0.0
220
0.0
230
1.0
 40
0.0559984374
 41
6.279995344131915
 42
6.740065190006141
  0
ELLIPSE
  5
2FF
330
1F
100
AcDbEntity
  8
0
  6
Continuous
 62
     8
370
    25
100
AcDbEllipse
 10
159.4243009887
 20
166.0506877706
 30
0.0
 11
35.20262413736901
 21
0.6261054031506035
 31
0.0
210
0.0
220
0.0
230
1.0
 40
0.0559984374
 41
5.826305424353216
 42
6.282671429672321
  0
LINE
  5
300
330
1F
100
AcDbEntity
  8
0
  6
Continuous
 62
     8
370
    25
100
AcDbLine
 10
190.7234794695
 20
160.0506781468
 30
0.0
 11
190.7234794695
 21
158.4075378127
 31
0.0
  0
LINE
  5
301
330
1F
100
AcDbEntity
  8
0
  6
Continuous
 62
     8
370
    25
100
AcDbLine
 10
190.7234794695
 20
182.3511647374
 30
0.0
 11
190.7234794695
 21
180.7080244033
 31
0.0
  0
LINE
  5
302
330
1F
100
AcDbEntity
  8
0
  6
Continuous
 62
     8
370
    25
100
AcDbLine
 10
194.7496580791
 20
181.6469226259
 30
0.0
 11
194.7496580791
 21
182.2808875283
 31
0.0
  0
LINE
  5
303
330
1F
100
AcDbEntity
  8
0
  6
Continuous
 62
     8
370
    25
100
AcDbLine
 10
194.7496580791
 20
158.4778150218
 30
0.0
 11
194.7496580791
 21
160.1081246496
 31
0.0
  0
LINE
  5
304
330
1F
100
AcDbEntity
  8
0
  6
Continuous
 62
     8
370
    25
100
AcDbLine
 10
204.5734794695
 20
176.9297207201
 30
0.0
 11
204.5734794695
 21
179.2787187769
 31
0.0
  0
LINE
  5
305
330
1F
100
AcDbEntity
  8
0
  6
Continuous
 62
     8
370
    25
100
AcDbLine
 10
204.5734794695
 20
161.4799837732
 30
0.0
 11
204.5734794695
 21
163.82898183
 31
0.0
  0
LINE
  5
306
330
1F
100
AcDbEntity
  8
0
  6
Continuous
 62
     8
370
    25
100
AcDbLine
 10
200.2027972234
 20
179.3550093193
 30
0.0
 11
200.2027972234
 21
177.4272438563
 31
0.0
  0
SPLINE
  5
307
330
1F
100
AcDbEntity
  8
0
  6
Continuous
 62
     8
370
    25
100
AcDbSpline
210
0.0
220
0.0
230
1.0
 70
     8
 71
     3
 72
    10
 73
     6
 74
     0
 42
0.00000001
 43
0.00000001
 40
0.0
 40
0.0
 40
0.0
 40
0.0
 40
0.0551125353459256
 40
0.5124302691102043
 40
1.0
 40
1.0
 40
1.0
 40
1.0
 10
198.5768410243246
 20
179.7597396761603
 30
0.0
 10
198.5295223252143
 20
179.792623358158
 30
0.0
 10
198.0895582849672
 20
180.0983722029482
 30
0.0
 10
197.2891384505083
 20
180.2721093689301
 30
0.0
 10
196.9340250909802
 20
180.3182272562419
 30
0.0
 10
196.7507836663478
 20
180.3420244667532
 30
0.0
  0
LWPOLYLINE
  5
308
330
1F
100
AcDbEntity
  8
0
  6
Continuous
 62
     8
370
    25
100
AcDbPolyline
 90
        3
 70
   128
 43
0.0
 10
196.7507836663
 20
180.3420244668
 10
196.683174981
 20
180.6884540444
 10
196.6456889126
 20
180.8022367894
  0
LINE
  5
309
330
1F
100
AcDbEntity
  8
0
  6
Continuous
 62
     8
370
    25
100
AcDbLine
 10
199.2693770095
 20
163.3166146349
 30
0.0
 11
199.2693770095
 21
161.3874003204
 31
0.0
  0
SPLINE
  5
30A
330
1F
100
AcDbEntity
  8
0
  6
Continuous
 62
     8
370
    25
100
AcDbSpline
210
0.0
220
0.0
230
1.0
 70
     8
 71
     3
 72
    10
 73
     6
 74
     0
 42
0.00000001
 43
0.00000001
 40
0.0
 40
0.0
 40
0.0
 40
0.0
 40
0.421724640328784
 40
0.7981219975484405
 40
1.0
 40
1.0
 40
1.0
 40
1.0
 10
196.7147532662405
 20
160.6962255894765
 30
0.0
 10
196.786171117628
 20
160.6717749855974
 30
0.0
 10
196.9213307757539
 20
160.6255017472253
 30
0.0
 10
197.4799318382445
 20
160.7241186420674
 30
0.0
 10
197.8474665354339
 20
160.9653624153293
 30
0.0
 10
197.9757742166438
 20
161.049581481965
 30
0.0
  0
LINE
  5
30B
330
1F
100
AcDbEntity
  8
0
  6
Continuous
 62
     8
370
    25
100
AcDbLine
 10
206.6697582558
 20
164.4542235039
 30
0.0
 11
206.6697582558
 21
176.3044790462
 31
0.0
  0
LINE
  5
30C
330
1F
100
AcDbEntity
  8
0
  6
Continuous
 62
     8
370
    25
100
AcDbLine
 10
166.6147532662
 20
175.4731138585
 30
0.0
 11
166.6147532662
 21
165.3691613188
 31
0.0
  0
LINE
  5
30D
330
1F
100
AcDbEntity
  8
0
  6
Continuous
 62
     8
370
    25
100
AcDbLine
 10
166.9501751674
 20
163.2043512751
 30
0.0
 11
166.9501751674
 21
177.5543512751
 31
0.0
  0
ENDSEC
  0
SECTION
  2
OBJECTS
  0
DICTIONARY
  5
C
330
0
100
AcDbDictionary
281
     1
  3
ACAD_GROUP
350
D
  3
ACAD_LAYOUT
350
1A
  3
ACAD_MLINESTYLE
350
17
  3
ACAD_PLOTSETTINGS
350
19
  3
ACAD_PLOTSTYLENAME
350
E
  3
ACAD_SCALELIST
350
47
  3
DWGPROPS
350
30E
  0
DICTIONARY
  5
D
102
{ACAD_REACTORS
330
C
102
}
330
C
100
AcDbDictionary
281
     1
  0
DICTIONARY
  5
1A
102
{ACAD_REACTORS
330
C
102
}
330
C
100
AcDbDictionary
281
     1
  3
Layout1
350
1E
  3
Layout2
350
26
  3
Model
350
22
  0
DICTIONARY
  5
17
102
{ACAD_REACTORS
330
C
102
}
330
C
100
AcDbDictionary
281
     1
  3
Standard
350
18
  0
DICTIONARY
  5
19
102
{ACAD_REACTORS
330
C
102
}
330
C
100
AcDbDictionary
281
     1
  0
ACDBDICTIONARYWDFLT
  5
E
102
{ACAD_REACTORS
330
C
102
}
330
C
100
AcDbDictionary
281
     1
  3
Normal
350
F
100
AcDbDictionaryWithDefault
340
F
  0
DICTIONARY
  5
47
102
{ACAD_REACTORS
330
C
102
}
330
C
100
AcDbDictionary
281
     1
  3
A0
350
48
  3
A1
350
49
  3
A2
350
4A
  3
A3
350
4B
  3
A4
350
4C
  3
A5
350
4D
  3
A6
350
4E
  3
A7
350
4F
  3
A8
350
50
  3
A9
350
51
  3
B0
350
52
  3
B1
350
53
  3
B2
350
54
  3
B3
350
55
  3
B4
350
56
  3
B5
350
57
  3
B6
350
58
  3
B7
350
59
  3
B8
350
5A
  3
B9
350
5B
  3
C0
350
5C
  3
C1
350
5D
  3
C2
350
5E
  3
C3
350
5F
  3
C4
350
60
  3
C5
350
61
  3
C6
350
62
  3
C7
350
63
  3
C8
350
64
  3
C9
350
65
  3
D0
350
66
  3
D1
350
67
  3
D2
350
68
  0
XRECORD
  5
30E
102
{ACAD_REACTORS
330
C
102
}
330
C
100
AcDbXrecord
280
     1
  1
DWGPROPS COOKIE
  2

  3

  4

  6

  7

  8
DS-1
  9

300
=
301
=
302
=
303
=
304
=
305
=
306
=
307
=
308
=
309
=
 40
0.0
 41
2460383.515949884
 42
2460383.515950474
  1

 90
        0
  0
LAYOUT
  5
1E
102
{ACAD_REACTORS
330
1A
102
}
330
1A
100
AcDbPlotSettings
  1

  2
none_device
  4

  6

 40
0.0
 41
0.0
 42
0.0
 43
0.0
 44
0.0
 45
0.0
 46
0.0
 47
0.0
 48
0.0
 49
0.0
140
0.0
141
0.0
142
1.0
143
1.0
 70
   688
 72
     1
 73
     0
 74
     5
  7

 75
    16
147
1.0
148
0.0
149
0.0
100
AcDbLayout
  1
Layout1
 70
     1
 71
     1
 10
0.0
 20
0.0
 11
420.0
 21
297.0
 12
0.0
 22
0.0
 32
0.0
 14
1.0000000000E+20
 24
1.0000000000E+20
 34
1.0000000000E+20
 15
-1.0000000000E+20
 25
-1.0000000000E+20
 35
-1.0000000000E+20
146
0.0
 13
0.0
 23
0.0
 33
0.0
 16
1.0
 26
0.0
 36
0.0
 17
0.0
 27
1.0
 37
0.0
 76
     0
330
1B
  0
LAYOUT
  5
26
102
{ACAD_REACTORS
330
1A
102
}
330
1A
100
AcDbPlotSettings
  1

  2
none_device
  4

  6

 40
0.0
 41
0.0
 42
0.0
 43
0.0
 44
0.0
 45
0.0
 46
0.0
 47
0.0
 48
0.0
 49
0.0
140
0.0
141
0.0
142
1.0
143
1.0
 70
   688
 72
     1
 73
     0
 74
     5
  7

 75
    16
147
1.0
148
0.0
149
0.0
100
AcDbLayout
  1
Layout2
 70
     1
 71
     2
 10
0.0
 20
0.0
 11
0.0
 21
0.0
 12
0.0
 22
0.0
 32
0.0
 14
0.0
 24
0.0
 34
0.0
 15
0.0
 25
0.0
 35
0.0
146
0.0
 13
0.0
 23
0.0
 33
0.0
 16
1.0
 26
0.0
 36
0.0
 17
0.0
 27
1.0
 37
0.0
 76
     0
330
23
  0
LAYOUT
  5
22
102
{ACAD_REACTORS
330
1A
102
}
330
1A
100
AcDbPlotSettings
  1

  2
none_device
  4
Letter_(8.50_x_11.00_Inches)
  6

 40
6.35
 41
6.35
 42
6.35000508
 43
6.35000508
 44
215.9
 45
279.4
 46
0.0
 47
0.0
 48
0.0
 49
0.0
140
0.0
141
0.0
142
1.0
143
1.0
 70
  1712
 72
     1
 73
     0
 74
     0
  7

 75
     0
147
1.0
148
0.0
149
0.0
100
AcDbLayout
  1
Model
 70
     1
 71
     0
 10
0.0
 20
0.0
 11
279.4
 21
215.9
 12
0.0
 22
0.0
 32
0.0
 14
0.0
 24
0.0
 34
0.0
 15
279.4
 25
215.9
 35
0.0
146
0.0
 13
0.0
 23
0.0
 33
0.0
 16
1.0
 26
0.0
 36
0.0
 17
0.0
 27
1.0
 37
0.0
 76
     0
330
1F
331
29
  0
MLINESTYLE
  5
18
102
{ACAD_REACTORS
330
17
102
}
330
17
100
AcDbMlineStyle
  2
Standard
 70
     0
  3

 62
   256
 51
90.0
 52
90.0
 71
     2
 49
0.5
 62
   256
  6
BYLAYER
 49
-0.5
 62
   256
  6
BYLAYER
  0
ACDBPLACEHOLDER
  5
F
102
{ACAD_REACTORS
330
E
102
}
330
E
  0
SCALE
  5
48
102
{ACAD_REACTORS
330
47
102
}
330
47
100
AcDbScale
 70
     0
300
1:1
140
1.0
141
1.0
290
     1
  0
SCALE
  5
49
102
{ACAD_REACTORS
330
47
102
}
330
47
100
AcDbScale
 70
     0
300
1:2
140
1.0
141
2.0
290
     0
  0
SCALE
  5
4A
102
{ACAD_REACTORS
330
47
102
}
330
47
100
AcDbScale
 70
     0
300
1:4
140
1.0
141
4.0
290
     0
  0
SCALE
  5
4B
102
{ACAD_REACTORS
330
47
102
}
330
47
100
AcDbScale
 70
     0
300
1:5
140
1.0
141
5.0
290
     0
  0
SCALE
  5
4C
102
{ACAD_REACTORS
330
47
102
}
330
47
100
AcDbScale
 70
     0
300
1:8
140
1.0
141
8.0
290
     0
  0
SCALE
  5
4D
102
{ACAD_REACTORS
330
47
102
}
330
47
100
AcDbScale
 70
     0
300
1:10
140
1.0
141
10.0
290
     0
  0
SCALE
  5
4E
102
{ACAD_REACTORS
330
47
102
}
330
47
100
AcDbScale
 70
     0
300
1:16
140
1.0
141
16.0
290
     0
  0
SCALE
  5
4F
102
{ACAD_REACTORS
330
47
102
}
330
47
100
AcDbScale
 70
     0
300
1:20
140
1.0
141
20.0
290
     0
  0
SCALE
  5
50
102
{ACAD_REACTORS
330
47
102
}
330
47
100
AcDbScale
 70
     0
300
1:30
140
1.0
141
30.0
290
     0
  0
SCALE
  5
51
102
{ACAD_REACTORS
330
47
102
}
330
47
100
AcDbScale
 70
     0
300
1:40
140
1.0
141
40.0
290
     0
  0
SCALE
  5
52
102
{ACAD_REACTORS
330
47
102
}
330
47
100
AcDbScale
 70
     0
300
1:50
140
1.0
141
50.0
290
     0
  0
SCALE
  5
53
102
{ACAD_REACTORS
330
47
102
}
330
47
100
AcDbScale
 70
     0
300
1:100
140
1.0
141
100.0
290
     0
  0
SCALE
  5
54
102
{ACAD_REACTORS
330
47
102
}
330
47
100
AcDbScale
 70
     0
300
2:1
140
2.0
141
1.0
290
     0
  0
SCALE
  5
55
102
{ACAD_REACTORS
330
47
102
}
330
47
100
AcDbScale
 70
     0
300
4:1
140
4.0
141
1.0
290
     0
  0
SCALE
  5
56
102
{ACAD_REACTORS
330
47
102
}
330
47
100
AcDbScale
 70
     0
300
8:1
140
8.0
141
1.0
290
     0
  0
SCALE
  5
57
102
{ACAD_REACTORS
330
47
102
}
330
47
100
AcDbScale
 70
     0
300
10:1
140
10.0
141
1.0
290
     0
  0
SCALE
  5
58
102
{ACAD_REACTORS
330
47
102
}
330
47
100
AcDbScale
 70
     0
300
100:1
140
100.0
141
1.0
290
     0
  0
SCALE
  5
59
102
{ACAD_REACTORS
330
47
102
}
330
47
100
AcDbScale
 70
     0
300
1/128" = 1'-0"
140
0.0078125
141
12.0
290
     0
  0
SCALE
  5
5A
102
{ACAD_REACTORS
330
47
102
}
330
47
100
AcDbScale
 70
     0
300
1/64" = 1'-0"
140
0.015625
141
12.0
290
     0
  0
SCALE
  5
5B
102
{ACAD_REACTORS
330
47
102
}
330
47
100
AcDbScale
 70
     0
300
1/32" = 1'-0"
140
0.03125
141
12.0
290
     0
  0
SCALE
  5
5C
102
{ACAD_REACTORS
330
47
102
}
330
47
100
AcDbScale
 70
     0
300
1/16" = 1'-0"
140
0.0625
141
12.0
290
     0
  0
SCALE
  5
5D
102
{ACAD_REACTORS
330
47
102
}
330
47
100
AcDbScale
 70
     0
300
3/32" = 1'-0"
140
0.09375
141
12.0
290
     0
  0
SCALE
  5
5E
102
{ACAD_REACTORS
330
47
102
}
330
47
100
AcDbScale
 70
     0
300
1/8" = 1'-0"
140
0.125
141
12.0
290
     0
  0
SCALE
  5
5F
102
{ACAD_REACTORS
330
47
102
}
330
47
100
AcDbScale
 70
     0
300
3/16" = 1'-0"
140
0.1875
141
12.0
290
     0
  0
SCALE
  5
60
102
{ACAD_REACTORS
330
47
102
}
330
47
100
AcDbScale
 70
     0
300
1/4" = 1'-0"
140
0.25
141
12.0
290
     0
  0
SCALE
  5
61
102
{ACAD_REACTORS
330
47
102
}
330
47
100
AcDbScale
 70
     0
300
3/8" = 1'-0"
140
0.375
141
12.0
290
     0
  0
SCALE
  5
62
102
{ACAD_REACTORS
330
47
102
}
330
47
100
AcDbScale
 70
     0
300
1/2" = 1'-0"
140
0.5
141
12.0
290
     0
  0
SCALE
  5
63
102
{ACAD_REACTORS
330
47
102
}
330
47
100
AcDbScale
 70
     0
300
3/4" = 1'-0"
140
0.75
141
12.0
290
     0
  0
SCALE
  5
64
102
{ACAD_REACTORS
330
47
102
}
330
47
100
AcDbScale
 70
     0
300
1" = 1'-0"
140
1.0
141
12.0
290
     0
  0
SCALE
  5
65
102
{ACAD_REACTORS
330
47
102
}
330
47
100
AcDbScale
 70
     0
300
1-1/2" = 1'-0"
140
1.5
141
12.0
290
     0
  0
SCALE
  5
66
102
{ACAD_REACTORS
330
47
102
}
330
47
100
AcDbScale
 70
     0
300
3" = 1'-0"
140
3.0
141
12.0
290
     0
  0
SCALE
  5
67
102
{ACAD_REACTORS
330
47
102
}
330
47
100
AcDbScale
 70
     0
300
6" = 1'-0"
140
6.0
141
12.0
290
     0
  0
SCALE
  5
68
102
{ACAD_REACTORS
330
47
102
}
330
47
100
AcDbScale
 70
     0
300
1'-0" = 1'-0"
140
12.0
141
12.0
290
     0
  0
ENDSEC
  0
EOF
