  0
SECTION
  2
HEADER
  9
$ACADVER
  1
AC1015
  9
$ACADMAINTVER
 70
     6
  9
$DWGCODEPAGE
  3
ANSI_1252
  9
$INSBASE
 10
0.0
 20
0.0
 30
0.0
  9
$EXTMIN
 10
0.0
 20
0.0
 30
0.0
  9
$EXTMAX
 10
279.4
 20
215.9
 30
0.0
  9
$LIMMIN
 10
0.0
 20
0.0
  9
$LIMMAX
 10
279.4
 20
215.9
  9
$ORTHOMODE
 70
     0
  9
$REGENMODE
 70
     1
  9
$FILLMODE
 70
     1
  9
$QTEXTMODE
 70
     0
  9
$MIRRTEXT
 70
     1
  9
$LTSCALE
 40
1.0
  9
$ATTMODE
 70
     1
  9
$TEXTSIZE
 40
3.5277777778
  9
$TRACEWID
 40
1.0
  9
$TEXTSTYLE
  7
Standard
  9
$CLAYER
  8
0
  9
$CELTYPE
  6
ByLayer
  9
$CECOLOR
 62
   256
  9
$CELTSCALE
 40
1.0
  9
$DISPSILH
 70
     0
  9
$DIMSCALE
 40
1.0
  9
$DIMASZ
 40
3.556
  9
$DIMEXO
 40
1.0
  9
$DIMDLI
 40
3.75
  9
$DIMRND
 40
0.0
  9
$DIMDLE
 40
0.0
  9
$DIMEXE
 40
1.0
  9
$DIMTP
 40
0.0
  9
$DIMTM
 40
0.0
  9
$DIMTXT
 40
3.5277777778
  9
$DIMCEN
 40
2.5
  9
$DIMTSZ
 40
0.0
  9
$DIMTOL
 70
     0
  9
$DIMLIM
 70
     0
  9
$DIMTIH
 70
     1
  9
$DIMTOH
 70
     1
  9
$DIMSE1
 70
     0
  9
$DIMSE2
 70
     0
  9
$DIMTAD
 70
     1
  9
$DIMZIN
 70
     0
  9
$DIMBLK
  1

  9
$DIMASO
 70
     1
  9
$DIMSHO
 70
     1
  9
$DIMPOST
  1

  9
$DIMAPOST
  1

  9
$DIMALT
 70
     0
  9
$DIMALTD
 70
     3
  9
$DIMALTF
 40
0.0393700787
  9
$DIMLFAC
 40
2.0
  9
$DIMTOFL
 70
     1
  9
$DIMTVP
 40
0.0
  9
$DIMTIX
 70
     0
  9
$DIMSOXD
 70
     0
  9
$DIMSAH
 70
     0
  9
$DIMBLK1
  1

  9
$DIMBLK2
  1

  9
$DIMSTYLE
  2
ISO-25
  9
$DIMCLRD
 70
     0
  9
$DIMCLRE
 70
     0
  9
$DIMCLRT
 70
     0
  9
$DIMTFAC
 40
1.0
  9
$DIMGAP
 40
1.524
  9
$DIMJUST
 70
     0
  9
$DIMSD1
 70
     0
  9
$DIMSD2
 70
     0
  9
$DIMTOLJ
 70
     0
  9
$DIMTZIN
 70
     0
  9
$DIMALTZ
 70
     0
  9
$DIMALTTZ
 70
     0
  9
$DIMUPT
 70
     0
  9
$DIMDEC
 70
     2
  9
$DIMTDEC
 70
     2
  9
$DIMALTU
 70
     2
  9
$DIMALTTD
 70
     3
  9
$DIMTXSTY
  7
Standard
  9
$DIMAUNIT
 70
     0
  9
$DIMADEC
 70
     2
  9
$DIMALTRND
 40
0.0
  9
$DIMAZIN
 70
     0
  9
$DIMDSEP
 70
    44
  9
$DIMATFIT
 70
     3
  9
$DIMFRAC
 70
     0
  9
$DIMLDRBLK
  1

  9
$DIMLUNIT
 70
     2
  9
$DIMLWD
 70
    -2
  9
$DIMLWE
 70
    -2
  9
$DIMTMOVE
 70
     0
  9
$LUNITS
 70
     2
  9
$LUPREC
 70
     2
  9
$SKETCHINC
 40
1.0
  9
$FILLETRAD
 40
10.0
  9
$AUNITS
 70
     0
  9
$AUPREC
 70
     2
  9
$MENU
  1
.
  9
$ELEVATION
 40
0.0
  9
$PELEVATION
 40
0.0
  9
$THICKNESS
 40
0.0
  9
$LIMCHECK
 70
     0
  9
$CHAMFERA
 40
0.0
  9
$CHAMFERB
 40
0.0
  9
$CHAMFERC
 40
0.0
  9
$CHAMFERD
 40
0.0
  9
$SKPOLY
 70
     0
  9
$TDCREATE
 40
2460383.746703426
  9
$TDUCREATE
 40
2460383.517536759
  9
$TDUPDATE
 40
2460383.746704097
  9
$TDUUPDATE
 40
2460383.51753743
  9
$TDINDWG
 40
0.0000000116
  9
$TDUSRTIMER
 40
0.0000000116
  9
$USRTIMER
 70
     1
  9
$ANGBASE
 50
0.0
  9
$ANGDIR
 70
     0
  9
$PDMODE
 70
     0
  9
$PDSIZE
 40
-1.0
  9
$PLINEWID
 40
0.0
  9
$SPLFRAME
 70
     0
  9
$SPLINETYPE
 70
     6
  9
$SPLINESEGS
 70
     8
  9
$HANDSEED
  5
321
  9
$SURFTAB1
 70
     6
  9
$SURFTAB2
 70
     6
  9
$SURFTYPE
 70
     6
  9
$SURFU
 70
     6
  9
$SURFV
 70
     6
  9
$UCSBASE
  2

  9
$UCSNAME
  2

  9
$UCSORG
 10
0.0
 20
0.0
 30
0.0
  9
$UCSXDIR
 10
1.0
 20
0.0
 30
0.0
  9
$UCSYDIR
 10
0.0
 20
1.0
 30
0.0
  9
$UCSORTHOREF
  2

  9
$UCSORTHOVIEW
 70
     0
  9
$UCSORGTOP
 10
0.0
 20
0.0
 30
0.0
  9
$UCSORGBOTTOM
 10
0.0
 20
0.0
 30
0.0
  9
$UCSORGLEFT
 10
0.0
 20
0.0
 30
0.0
  9
$UCSORGRIGHT
 10
0.0
 20
0.0
 30
0.0
  9
$UCSORGFRONT
 10
0.0
 20
0.0
 30
0.0
  9
$UCSORGBACK
 10
0.0
 20
0.0
 30
0.0
  9
$PUCSBASE
  2

  9
$PUCSNAME
  2

  9
$PUCSORG
 10
0.0
 20
0.0
 30
0.0
  9
$PUCSXDIR
 10
1.0
 20
0.0
 30
0.0
  9
$PUCSYDIR
 10
0.0
 20
1.0
 30
0.0
  9
$PUCSORTHOREF
  2

  9
$PUCSORTHOVIEW
 70
     0
  9
$PUCSORGTOP
 10
0.0
 20
0.0
 30
0.0
  9
$PUCSORGBOTTOM
 10
0.0
 20
0.0
 30
0.0
  9
$PUCSORGLEFT
 10
0.0
 20
0.0
 30
0.0
  9
$PUCSORGRIGHT
 10
0.0
 20
0.0
 30
0.0
  9
$PUCSORGFRONT
 10
0.0
 20
0.0
 30
0.0
  9
$PUCSORGBACK
 10
0.0
 20
0.0
 30
0.0
  9
$USERI1
 70
     0
  9
$USERI2
 70
     0
  9
$USERI3
 70
     0
  9
$USERI4
 70
     0
  9
$USERI5
 70
     0
  9
$USERR1
 40
0.0
  9
$USERR2
 40
0.0
  9
$USERR3
 40
0.0
  9
$USERR4
 40
0.0
  9
$USERR5
 40
0.0
  9
$WORLDVIEW
 70
     1
  9
$SHADEDGE
 70
     3
  9
$SHADEDIF
 70
    70
  9
$TILEMODE
 70
     1
  9
$MAXACTVP
 70
    64
  9
$PINSBASE
 10
0.0
 20
0.0
 30
0.0
  9
$PLIMCHECK
 70
     0
  9
$PEXTMIN
 10
1.0000000000E+20
 20
1.0000000000E+20
 30
1.0000000000E+20
  9
$PEXTMAX
 10
-1.0000000000E+20
 20
-1.0000000000E+20
 30
-1.0000000000E+20
  9
$PLIMMIN
 10
0.0
 20
0.0
  9
$PLIMMAX
 10
420.0
 20
297.0
  9
$UNITMODE
 70
     0
  9
$VISRETAIN
 70
     1
  9
$PLINEGEN
 70
     0
  9
$PSLTSCALE
 70
     1
  9
$TREEDEPTH
 70
  3020
  9
$CMLSTYLE
  2
Standard
  9
$CMLJUST
 70
     0
  9
$CMLSCALE
 40
20.0
  9
$PROXYGRAPHICS
 70
     1
  9
$MEASUREMENT
 70
     1
  9
$CELWEIGHT
370
    -1
  9
$ENDCAPS
280
     0
  9
$JOINSTYLE
280
     0
  9
$LWDISPLAY
290
     1
  9
$INSUNITS
 70
     4
  9
$HYPERLINKBASE
  1

  9
$STYLESHEET
  1

  9
$XEDIT
290
     1
  9
$CEPSNTYPE
380
     0
  9
$PSTYLEMODE
290
     1
  9
$FINGERPRINTGUID
  2
{90cc362b-b6fe-4ae6-b376-3c504515d363}
  9
$VERSIONGUID
  2
{FAEB1C32-E019-11D5-929B-00C0DF256EC4}
  9
$EXTNAMES
290
     1
  9
$PSVPSCALE
 40
0.0
  9
$OLESTARTUP
290
     0
  0
ENDSEC
  0
SECTION
  2
CLASSES
  0
CLASS
  1
ACDBDICTIONARYWDFLT
  2
AcDbDictionaryWithDefault
  3
ObjectDBX Classes
 90
        0
280
     0
281
     0
  0
CLASS
  1
VISUALSTYLE
  2
AcDbVisualStyle
  3
ObjectDBX Classes
 90
     4095
280
     0
281
     0
  0
CLASS
  1
MATERIAL
  2
AcDbMaterial
  3
ObjectDBX Classes
 90
     1153
280
     0
281
     0
  0
CLASS
  1
SCALE
  2
AcDbScale
  3
ObjectDBX Classes
 90
     1153
280
     0
281
     0
  0
CLASS
  1
TABLESTYLE
  2
AcDbTableStyle
  3
ObjectDBX Classes
 90
     4095
280
     0
281
     0
  0
CLASS
  1
MLEADERSTYLE
  2
AcDbMLeaderStyle
  3
ACDB_MLEADERSTYLE_CLASS
 90
     4095
280
     0
281
     0
  0
CLASS
  1
SUN
  2
AcDbSun
  3
SCENEOE
 90
     1153
280
     0
281
     0
  0
CLASS
  1
ACDBPLACEHOLDER
  2
AcDbPlaceHolder
  3
ObjectDBX Classes
 90
        0
280
     0
281
     0
  0
CLASS
  1
LAYOUT
  2
AcDbLayout
  3
ObjectDBX Classes
 90
        0
280
     0
281
     0
  0
ENDSEC
  0
SECTION
  2
TABLES
  0
TABLE
  2
VPORT
  5
8
330
0
100
AcDbSymbolTable
 70
     1
  0
VPORT
  5
29
330
8
100
AcDbSymbolTableRecord
100
AcDbViewportTableRecord
  2
*Active
 70
     0
 10
0.0
 20
0.0
 11
1.0
 21
1.0
 12
139.7
 22
107.95
 13
0.0
 23
0.0
 14
10.0
 24
10.0
 15
10.0
 25
10.0
 16
0.0
 26
0.0
 36
1.0
 17
0.0
 27
0.0
 37
0.0
 40
215.9
 41
1.2941176471
 42
50.0
 43
0.0
 44
0.0
 50
0.0
 51
0.0
 71
     0
 72
  2000
 73
     1
 74
     3
 75
     0
 76
     0
 77
     0
 78
     0
281
     0
 65
     1
110
0.0
120
0.0
130
0.0
111
1.0
121
0.0
131
0.0
112
0.0
122
1.0
132
0.0
 79
     0
146
0.0
  0
ENDTAB
  0
TABLE
  2
LTYPE
  5
5
330
0
100
AcDbSymbolTable
 70
     6
  0
LTYPE
  5
14
330
5
100
AcDbSymbolTableRecord
100
AcDbLinetypeTableRecord
  2
ByBlock
 70
     0
  3

 72
    65
 73
     0
 40
0.0
  0
LTYPE
  5
15
330
5
100
AcDbSymbolTableRecord
100
AcDbLinetypeTableRecord
  2
ByLayer
 70
     0
  3

 72
    65
 73
     0
 40
0.0
  0
LTYPE
  5
16
330
5
100
AcDbSymbolTableRecord
100
AcDbLinetypeTableRecord
  2
Continuous
 70
     0
  3
Solid line
 72
    65
 73
     0
 40
0.0
  0
LTYPE
  5
6E
330
5
100
AcDbSymbolTableRecord
100
AcDbLinetypeTableRecord
  2
HIDDEN
 70
     0
  3
Hidden __ __ __ __ __ __ __ __ __ __ __ __ __ __
 72
    65
 73
     2
 40
1.905
 49
1.27
 74
     0
 49
-0.635
 74
     0
  0
LTYPE
  5
6F
330
5
100
AcDbSymbolTableRecord
100
AcDbLinetypeTableRecord
  2
PHANTOM
 70
     0
  3
Phantom ______  __  __  ______  __  __  ______
 72
    65
 73
     6
 40
12.7
 49
6.35
 74
     0
 49
-1.27
 74
     0
 49
1.27
 74
     0
 49
-1.27
 74
     0
 49
1.27
 74
     0
 49
-1.27
 74
     0
  0
LTYPE
  5
70
330
5
100
AcDbSymbolTableRecord
100
AcDbLinetypeTableRecord
  2
CENTER
 70
     0
  3
Center ____ _ ____ _ ____ _ ____ _ ____ _ ____
 72
    65
 73
     4
 40
10.16
 49
6.35
 74
     0
 49
-1.27
 74
     0
 49
1.27
 74
     0
 49
-1.27
 74
     0
  0
LTYPE
  5
71
330
5
100
AcDbSymbolTableRecord
100
AcDbLinetypeTableRecord
  2
CENTERX2
 70
     0
  3
Center (2x) ________  __  ________  __  _____
 72
    65
 73
     4
 40
20.32
 49
12.7
 74
     0
 49
-2.54
 74
     0
 49
2.54
 74
     0
 49
-2.54
 74
     0
  0
LTYPE
  5
72
330
5
100
AcDbSymbolTableRecord
100
AcDbLinetypeTableRecord
  2
DOT2
 70
     0
  3
Dot (.5x) ........................................
 72
    65
 73
     2
 40
0.635
 49
0.0
 74
     0
 49
-0.635
 74
     0
  0
ENDTAB
  0
TABLE
  2
LAYER
  5
2
330
0
100
AcDbSymbolTable
 70
     4
  0
LAYER
  5
10
330
2
100
AcDbSymbolTableRecord
100
AcDbLayerTableRecord
  2
0
 70
     0
 62
     7
  6
Continuous
370
    -3
390
F
  0
LAYER
  5
73
330
2
100
AcDbSymbolTableRecord
100
AcDbLayerTableRecord
  2
FORMAT
 70
     0
 62
     7
  6
Continuous
370
    -3
390
F
  0
LAYER
  5
74
330
2
100
AcDbSymbolTableRecord
100
AcDbLayerTableRecord
  2
OUT_LINE
 70
     0
 62
     7
  6
Continuous
370
    50
390
F
  0
LAYER
  5
75
330
2
100
AcDbSymbolTableRecord
100
AcDbLayerTableRecord
  2
WATERMARK
 70
     0
 62
   254
  6
Continuous
370
    -3
390
F
  0
ENDTAB
  0
TABLE
  2
STYLE
  5
3
330
0
100
AcDbSymbolTable
 70
     1
  0
STYLE
  5
11
330
3
100
AcDbSymbolTableRecord
100
AcDbTextStyleTableRecord
  2
Standard
 70
     0
 40
0.0
 41
1.0
 50
0.0
 71
     0
 42
3.5277777778
  3
txt
  4

  0
ENDTAB
  0
TABLE
  2
VIEW
  5
6
330
0
100
AcDbSymbolTable
 70
     0
  0
ENDTAB
  0
TABLE
  2
UCS
  5
7
330
0
100
AcDbSymbolTable
 70
     0
  0
ENDTAB
  0
TABLE
  2
APPID
  5
9
330
0
100
AcDbSymbolTable
 70
     1
  0
APPID
  5
12
330
9
100
AcDbSymbolTableRecord
100
AcDbRegAppTableRecord
  2
ACAD
 70
     0
  0
ENDTAB
  0
TABLE
  2
DIMSTYLE
  5
A
330
0
100
AcDbSymbolTable
 70
     1
100
AcDbDimStyleTable
  0
DIMSTYLE
105
27
330
A
100
AcDbSymbolTableRecord
100
AcDbDimStyleTableRecord
  2
ISO-25
 70
     0
 41
2.5
 42
0.625
 43
3.75
 44
1.25
 73
     0
 74
     0
 77
     1
 78
     8
140
2.5
141
2.5
143
0.0393700787
147
0.625
171
     3
172
     1
178
     0
271
     2
272
     2
274
     3
278
    44
283
     0
284
     8
340
11
  0
ENDTAB
  0
TABLE
  2
BLOCK_RECORD
  5
1
330
0
100
AcDbSymbolTable
 70
     7
  0
BLOCK_RECORD
  5
1F
330
1
100
AcDbSymbolTableRecord
100
AcDbBlockTableRecord
  2
*Model_Space
340
22
  0
BLOCK_RECORD
  5
1B
330
1
100
AcDbSymbolTableRecord
100
AcDbBlockTableRecord
  2
*Paper_Space
340
1E
  0
BLOCK_RECORD
  5
23
330
1
100
AcDbSymbolTableRecord
100
AcDbBlockTableRecord
  2
*Paper_Space0
340
26
  0
BLOCK_RECORD
  5
76
330
1
100
AcDbSymbolTableRecord
100
AcDbBlockTableRecord
  2
Block6
340
0
  0
BLOCK_RECORD
  5
7B
330
1
100
AcDbSymbolTableRecord
100
AcDbBlockTableRecord
  2
Block4
340
0
  0
BLOCK_RECORD
  5
7F
330
1
100
AcDbSymbolTableRecord
100
AcDbBlockTableRecord
  2
Block5
340
0
  0
BLOCK_RECORD
  5
8D
330
1
100
AcDbSymbolTableRecord
100
AcDbBlockTableRecord
  2
Block2
340
0
  0
BLOCK_RECORD
  5
98
330
1
100
AcDbSymbolTableRecord
100
AcDbBlockTableRecord
  2
Block3
340
0
  0
BLOCK_RECORD
  5
A5
330
1
100
AcDbSymbolTableRecord
100
AcDbBlockTableRecord
  2
Block7
340
0
  0
ENDTAB
  0
ENDSEC
  0
SECTION
  2
BLOCKS
  0
BLOCK
  5
20
330
1F
100
AcDbEntity
  8
0
100
AcDbBlockBegin
  2
*Model_Space
 70
     0
 10
0.0
 20
0.0
 30
0.0
  3
*Model_Space
  1

  0
ENDBLK
  5
21
330
1F
100
AcDbEntity
  8
0
100
AcDbBlockEnd
  0
BLOCK
  5
1C
330
1B
100
AcDbEntity
 67
     1
  8
0
100
AcDbBlockBegin
  2
*Paper_Space
 70
     0
 10
0.0
 20
0.0
 30
0.0
  3
*Paper_Space
  1

  0
ENDBLK
  5
1D
330
1B
100
AcDbEntity
 67
     1
  8
0
100
AcDbBlockEnd
  0
BLOCK
  5
24
330
23
100
AcDbEntity
  8
0
100
AcDbBlockBegin
  2
*Paper_Space0
 70
     0
 10
0.0
 20
0.0
 30
0.0
  3
*Paper_Space0
  1

  0
ENDBLK
  5
25
330
23
100
AcDbEntity
  8
0
100
AcDbBlockEnd
  0
BLOCK
  5
77
330
76
100
AcDbEntity
  8
0
100
AcDbBlockBegin
  2
Block6
 70
     0
 10
0.0
 20
0.0
 30
0.0
  3
Block6
  1

  0
LINE
  5
79
330
76
100
AcDbEntity
  8
FORMAT
100
AcDbLine
 10
253.5616893058
 20
55.3714964458
 30
0.0
 11
250.6928867464
 21
53.8486167051
 31
0.0
  0
LINE
  5
7A
330
76
100
AcDbEntity
  8
FORMAT
100
AcDbLine
 10
250.6928867464
 20
53.8486167051
 30
0.0
 11
253.5616893058
 21
53.8486167051
 31
0.0
  0
ENDBLK
  5
78
330
76
100
AcDbEntity
  8
0
100
AcDbBlockEnd
  0
BLOCK
  5
7C
330
7B
100
AcDbEntity
  8
0
100
AcDbBlockBegin
  2
Block4
 70
     0
 10
0.0
 20
0.0
 30
0.0
  3
Block4
  1

  0
LINE
  5
7E
330
7B
100
AcDbEntity
  8
FORMAT
100
AcDbLine
 10
250.0093082872
 20
64.7263291389
 30
0.0
 11
290.0093082872
 21
64.7263291389
 31
0.0
  0
ENDBLK
  5
7D
330
7B
100
AcDbEntity
  8
0
100
AcDbBlockEnd
  0
BLOCK
  5
80
330
7F
100
AcDbEntity
  8
0
100
AcDbBlockBegin
  2
Block5
 70
     0
 10
0.0
 20
0.0
 30
0.0
  3
Block5
  1

  0
LINE
  5
82
330
7F
100
AcDbEntity
  8
FORMAT
100
AcDbLine
 10
251.0883122991
 20
64.4632252413
 30
0.0
 11
250.3611798328
 21
64.9733337839
 31
0.0
  0
LINE
  5
83
330
7F
100
AcDbEntity
  8
FORMAT
100
AcDbLine
 10
250.3611798328
 20
64.9733337839
 30
0.0
 11
251.0883122991
 21
65.4834423266
 31
0.0
  0
LINE
  5
84
330
7F
100
AcDbEntity
  8
FORMAT
100
AcDbLine
 10
250.3611798328
 20
65.6106440044
 30
0.0
 11
250.3611798328
 21
64.3360235634
 31
0.0
  0
LINE
  5
85
330
7F
100
AcDbEntity
  8
FORMAT
100
AcDbLine
 10
251.0883122991
 20
65.4834423266
 30
0.0
 11
251.0883122991
 21
64.4632252413
 31
0.0
  0
LINE
  5
86
330
7F
100
AcDbEntity
  8
FORMAT
  6
Continuous
 62
     7
370
    18
100
AcDbLine
 10
254.0738326611
 20
65.4834423266
 30
0.0
 11
254.0738326611
 21
64.4632252413
 31
0.0
  0
LINE
  5
87
330
7F
100
AcDbEntity
  8
FORMAT
100
AcDbLine
 10
251.0883122991
 20
64.9733337839
 30
0.0
 11
254.0738326611
 21
64.9733337839
 31
0.0
  0
LINE
  5
88
330
7F
100
AcDbEntity
  8
FORMAT
100
AcDbLine
 10
254.0738326611
 20
64.9733337839
 30
0.0
 11
254.0738326611
 21
64.4632252413
 31
0.0
  0
LINE
  5
89
330
7F
100
AcDbEntity
  8
FORMAT
  6
Continuous
 62
     7
370
    18
100
AcDbLine
 10
254.0738326611
 20
64.4632252413
 30
0.0
 11
254.8009651274
 21
64.9733337839
 31
0.0
  0
LINE
  5
8A
330
7F
100
AcDbEntity
  8
FORMAT
  6
Continuous
 62
     7
370
    18
100
AcDbLine
 10
254.8009651274
 20
64.9733337839
 30
0.0
 11
254.0738326611
 21
65.4834423266
 31
0.0
  0
LINE
  5
8B
330
7F
100
AcDbEntity
  8
FORMAT
100
AcDbLine
 10
254.0738326611
 20
65.4834423266
 30
0.0
 11
254.0738326611
 21
64.9733337839
 31
0.0
  0
LINE
  5
8C
330
7F
100
AcDbEntity
  8
FORMAT
100
AcDbLine
 10
254.8009651274
 20
65.6106440044
 30
0.0
 11
254.8009651274
 21
64.3360235634
 31
0.0
  0
ENDBLK
  5
81
330
7F
100
AcDbEntity
  8
0
100
AcDbBlockEnd
  0
BLOCK
  5
8E
330
8D
100
AcDbEntity
  8
0
100
AcDbBlockBegin
  2
Block2
 70
     0
 10
0.0
 20
0.0
 30
0.0
  3
Block2
  1

  0
CIRCLE
  5
90
330
8D
100
AcDbEntity
  8
FORMAT
100
AcDbCircle
 10
48.741006851
 20
68.2700462855
 30
0.0
 40
7.000000000000013
  0
CIRCLE
  5
91
330
8D
100
AcDbEntity
  8
FORMAT
100
AcDbCircle
 10
48.741006851
 20
68.2700462855
 30
0.0
 40
3.32888862482043
  0
LINE
  5
92
330
8D
100
AcDbEntity
  8
FORMAT
100
AcDbLine
 10
60.4734604481
 20
71.6747664277
 30
0.0
 11
76.4734604481
 21
75.1747664277
 31
0.0
  0
LINE
  5
93
330
8D
100
AcDbEntity
  8
FORMAT
100
AcDbLine
 10
76.4734604481
 20
75.1747664277
 30
0.0
 11
76.4734604481
 21
61.3653261433
 31
0.0
  0
LINE
  5
94
330
8D
100
AcDbEntity
  8
FORMAT
100
AcDbLine
 10
76.4734604481
 20
61.3653261433
 30
0.0
 11
60.4734604481
 21
64.8653261433
 31
0.0
  0
LINE
  5
95
330
8D
100
AcDbEntity
  8
FORMAT
100
AcDbLine
 10
60.4734604481
 20
64.8653261433
 30
0.0
 11
60.4734604481
 21
71.6747664277
 31
0.0
  0
LINE
  5
96
330
8D
100
AcDbEntity
  8
FORMAT
  6
CENTERX2
100
AcDbLine
 10
76.4734604481
 20
68.2700462855
 30
0.0
 11
39.8388877958
 21
68.2700462855
 31
0.0
  0
LINE
  5
97
330
8D
100
AcDbEntity
  8
FORMAT
100
AcDbLine
 10
48.741006851
 20
76.8424572275
 30
0.0
 11
48.741006851
 21
59.6976353435
 31
0.0
  0
ENDBLK
  5
8F
330
8D
100
AcDbEntity
  8
0
100
AcDbBlockEnd
  0
BLOCK
  5
99
330
98
100
AcDbEntity
  8
0
100
AcDbBlockBegin
  2
Block3
 70
     0
 10
0.0
 20
0.0
 30
0.0
  3
Block3
  1

  0
ARC
  5
9B
330
98
100
AcDbEntity
  8
FORMAT
100
AcDbCircle
 10
253.5616893058
 20
61.9516976285
 30
0.0
 40
0.5251511718353873
100
AcDbArc
 50
349.3356822367
 51
90.0
  0
LINE
  5
9C
330
98
100
AcDbEntity
  8
FORMAT
100
AcDbLine
 10
250.6928867464
 20
62.4768488003
 30
0.0
 11
250.6928867464
 21
61.2321831396
 31
0.0
  0
LINE
  5
9D
330
98
100
AcDbEntity
  8
FORMAT
100
AcDbLine
 10
250.6928867464
 20
61.2321831396
 30
0.0
 11
251.7250485138
 21
61.2321831396
 31
0.0
  0
LINE
  5
9E
330
98
100
AcDbEntity
  8
FORMAT
100
AcDbLine
 10
251.7250485138
 20
61.2321831396
 30
0.0
 11
251.7250485138
 21
61.85451597
 31
0.0
  0
LINE
  5
9F
330
98
100
AcDbEntity
  8
FORMAT
100
AcDbLine
 10
251.7250485138
 20
61.85451597
 30
0.0
 11
251.2089676301
 21
62.4768488003
 31
0.0
  0
LINE
  5
A0
330
98
100
AcDbEntity
  8
FORMAT
100
AcDbLine
 10
251.2089676301
 20
62.4768488003
 30
0.0
 11
250.6928867464
 21
62.4768488003
 31
0.0
  0
LINE
  5
A1
330
98
100
AcDbEntity
  8
0
  6
Continuous
 62
     7
370
    18
100
AcDbLine
 10
253.0456084221
 20
61.2321831396
 30
0.0
 11
254.0777701895
 21
61.2321831396
 31
0.0
  0
LINE
  5
A2
330
98
100
AcDbEntity
  8
0
  6
Continuous
 62
     7
370
    18
100
AcDbLine
 10
254.0777701895
 20
61.2321831396
 30
0.0
 11
254.0777701895
 21
61.85451597
 31
0.0
  0
LINE
  5
A3
330
98
100
AcDbEntity
  8
0
  6
Continuous
 62
     7
370
    18
100
AcDbLine
 10
253.0456084221
 20
62.4768488003
 30
0.0
 11
253.0456084221
 21
61.2321831396
 31
0.0
  0
LINE
  5
A4
330
98
100
AcDbEntity
  8
0
  6
Continuous
 62
     7
370
    18
100
AcDbLine
 10
253.5616893058
 20
62.4768488003
 30
0.0
 11
253.0456084221
 21
62.4768488003
 31
0.0
  0
ENDBLK
  5
9A
330
98
100
AcDbEntity
  8
0
100
AcDbBlockEnd
  0
BLOCK
  5
A6
330
A5
100
AcDbEntity
  8
0
100
AcDbBlockBegin
  2
Block7
 70
     0
 10
0.0
 20
0.0
 30
0.0
  3
Block7
  1

  0
LINE
  5
A8
330
A5
100
AcDbEntity
  8
FORMAT
100
AcDbLine
 10
221.8284763776
 20
80.2705155621
 30
0.0
 11
222.3963943455
 21
79.286852787
 31
0.0
  0
LINE
  5
A9
330
A5
100
AcDbEntity
  8
FORMAT
100
AcDbLine
 10
222.3963943455
 20
79.286852787
 30
0.0
 11
222.9643123135
 21
80.2705155621
 31
0.0
  0
LINE
  5
AA
330
A5
100
AcDbEntity
  8
FORMAT
100
AcDbLine
 10
221.8284763776
 20
80.2705155621
 30
0.0
 11
222.9643123135
 21
80.2705155621
 31
0.0
  0
LINE
  5
AB
330
A5
100
AcDbEntity
  8
FORMAT
100
AcDbLine
 10
222.9643123135
 20
80.2705155621
 30
0.0
 11
223.3725273771
 21
80.9775647926
 31
0.0
  0
LINE
  5
AC
330
A5
100
AcDbEntity
  8
FORMAT
100
AcDbLine
 10
223.3725273771
 20
80.9775647926
 30
0.0
 11
224.1023154201
 21
80.9775647926
 31
0.0
  0
ENDBLK
  5
A7
330
A5
100
AcDbEntity
  8
0
100
AcDbBlockEnd
  0
ENDSEC
  0
SECTION
  2
ENTITIES
  0
LINE
  5
AD
330
1F
100
AcDbEntity
  8
0
  6
Continuous
 62
     7
370
    25
100
AcDbLine
 10
142.7030013671
 20
39.5264102252
 30
0.0
 11
142.7030013671
 21
169.1987965386
 31
0.0
  0
LINE
  5
AE
330
1F
100
AcDbEntity
  8
0
  6
Continuous
 62
     7
370
    25
100
AcDbLine
 10
125.5030013671
 20
169.1987965386
 30
0.0
 11
125.5030013671
 21
39.5264102252
 31
0.0
  0
LINE
  5
AF
330
1F
100
AcDbEntity
  8
0
  6
Continuous
 62
     7
370
    25
100
AcDbLine
 10
125.5030013671
 20
39.5264102252
 30
0.0
 11
125.5030013671
 21
33.1735544243
 31
0.0
  0
LINE
  5
B0
330
1F
100
AcDbEntity
  8
0
  6
Continuous
 62
     7
370
    25
100
AcDbLine
 10
142.7030013671
 20
33.1735765348
 30
0.0
 11
142.7030013671
 21
39.5264102252
 31
0.0
  0
LINE
  5
B1
330
1F
100
AcDbEntity
  8
0
  6
Continuous
 62
     7
370
    25
100
AcDbLine
 10
143.7030013671
 20
29.202123511
 30
0.0
 11
143.7030013671
 21
32.8001162069
 31
0.0
  0
LINE
  5
B2
330
1F
100
AcDbEntity
  8
0
  6
Continuous
 62
     7
370
    25
100
AcDbLine
 10
124.5030013671
 20
32.8001162069
 30
0.0
 11
124.5030013671
 21
29.202123511
 31
0.0
  0
ARC
  5
B3
330
1F
100
AcDbEntity
  8
0
  6
Continuous
 62
     7
370
    25
100
AcDbCircle
 10
208.0957667793
 20
169.1987965386
 30
0.0
 40
10.63
100
AcDbArc
 50
14.157651444
 51
20.4937008693
  0
ARC
  5
B4
330
1F
100
AcDbEntity
  8
0
  6
Continuous
 62
     7
370
    25
100
AcDbCircle
 10
208.0957667793
 20
169.1987965386
 30
0.0
 40
10.62999999999999
100
AcDbArc
 50
339.5062991307
 51
345.842348556
  0
SPLINE
  5
B5
330
1F
100
AcDbEntity
  8
0
  6
Continuous
 62
     7
370
    25
100
AcDbSpline
210
0.0
220
0.0
230
1.0
 70
     8
 71
     3
 72
    18
 73
    14
 74
     0
 42
0.00000001
 43
0.00000001
 40
0.0
 40
0.0
 40
0.0
 40
0.0
 40
0.1558562140192015
 40
0.3054591627168399
 40
0.4079826683847915
 40
0.4452203793828851
 40
0.4617350401234739
 40
0.4776738128964806
 40
0.5106853744392675
 40
0.5498893620094786
 40
0.6589115341801004
 40
0.8178126288519569
 40
1.0
 40
1.0
 40
1.0
 40
1.0
 10
216.0218802139616
 20
163.9962948762687
 30
0.0
 10
216.1064031153759
 20
164.299014623986
 30
0.0
 10
216.2720576891053
 20
164.8923083932301
 30
0.0
 10
216.6468349297479
 20
165.9427541678393
 30
0.0
 10
216.9576757467948
 20
166.9762628909537
 30
0.0
 10
217.1141893231923
 20
167.8192186301118
 30
0.0
 10
217.167253432133
 20
168.2541593786696
 30
0.0
 10
217.2027593533939
 20
168.6836228497778
 30
0.0
 10
217.2132508492299
 20
169.2651925208157
 30
0.0
 10
217.1429572451204
 20
170.2718967218254
 30
0.0
 10
216.883897487277
 20
171.5244808976414
 30
0.0
 10
216.4284044842908
 20
172.9753843333513
 30
0.0
 10
216.1592359348028
 20
173.9166456683772
 30
0.0
 10
216.015463525762
 20
174.4194065218687
 30
0.0
  0
SPLINE
  5
B6
330
1F
100
AcDbEntity
  8
0
  6
Continuous
 62
     7
370
    25
100
AcDbSpline
210
0.0
220
0.0
230
1.0
 70
     8
 71
     3
 72
     9
 73
     5
 74
     0
 42
0.00000001
 43
0.00000001
 40
0.0
 40
0.0
 40
0.0
 40
0.0
 40
0.2217253967957298
 40
0.9999999999999999
 40
0.9999999999999999
 40
0.9999999999999999
 40
0.9999999999999999
 10
205.7145876086128
 20
165.5716628892693
 30
0.0
 10
205.708562320055
 20
165.554673273354
 30
0.0
 10
205.6813877670043
 20
165.4780486910515
 30
0.0
 10
205.7211920259396
 20
165.3944373383362
 30
0.0
 10
205.7521706697683
 20
165.3293647459784
 30
0.0
  0
LINE
  5
B7
330
1F
100
AcDbEntity
  8
0
  6
Continuous
 62
     7
370
    25
100
AcDbLine
 10
205.7521706698
 20
173.0682283312
 30
0.0
 11
205.7282002594
 21
172.8279787733
 31
0.0
  0
LINE
  5
B8
330
1F
100
AcDbEntity
  8
0
  6
Continuous
 62
     7
370
    25
100
AcDbLine
 10
205.6978074445
 20
172.8306606836
 30
0.0
 11
205.6978074445
 21
165.5669323936
 31
0.0
  0
ARC
  5
B9
330
1F
100
AcDbEntity
  8
0
  6
Continuous
 62
     7
370
    25
100
AcDbCircle
 10
201.8030013671
 20
157.7269069239
 30
0.0
 40
0.5000000000000063
100
AcDbArc
 50
180.0
 51
271.0
  0
ARC
  5
BA
330
1F
100
AcDbEntity
  8
0
  6
Continuous
 62
     7
370
    25
100
AcDbCircle
 10
201.8030013671
 20
180.6706861533
 30
0.0
 40
0.5
100
AcDbArc
 50
89.0
 51
180.0
  0
LINE
  5
BB
330
1F
100
AcDbEntity
  8
0
  6
Continuous
 62
     7
370
    25
100
AcDbLine
 10
205.83790618
 20
181.1003327919
 30
0.0
 11
201.8117275703
 21
181.1706100009
 31
0.0
  0
LINE
  5
BC
330
1F
100
AcDbEntity
  8
0
  6
Continuous
 62
     7
370
    25
100
AcDbLine
 10
201.8117275703
 20
157.2269830763
 30
0.0
 11
205.83790618
 21
157.2972602853
 31
0.0
  0
ARC
  5
BD
330
1F
100
AcDbEntity
  8
0
  6
Continuous
 62
     7
370
    25
100
AcDbCircle
 10
205.8030013671
 20
159.2969556757
 30
0.0
 40
2.000000000000026
100
AcDbArc
 50
271.0
 51
0.0
  0
ARC
  5
BE
330
1F
100
AcDbEntity
  8
0
  6
Continuous
 62
     7
370
    25
100
AcDbCircle
 10
205.8030013671
 20
179.1006374016
 30
0.0
 40
1.999999999999972
100
AcDbArc
 50
0.0
 51
89.0
  0
ARC
  5
BF
330
1F
100
AcDbEntity
  8
0
  6
Continuous
 62
     7
370
    25
100
AcDbCircle
 10
215.6530013671
 20
160.7993528844
 30
0.0
 40
0.5000000000000048
100
AcDbArc
 50
271.0
 51
0.0
  0
ARC
  5
C0
330
1F
100
AcDbEntity
  8
0
  6
Continuous
 62
     7
370
    25
100
AcDbCircle
 10
215.6530013671
 20
177.5982401929
 30
0.0
 40
0.5
100
AcDbArc
 50
0.0
 51
89.0
  0
ARC
  5
C1
330
1F
100
AcDbEntity
  8
0
  6
Continuous
 62
     7
370
    25
100
AcDbCircle
 10
211.3530013671
 20
181.7239139006
 30
0.0
 40
3.55000000000002
100
AcDbArc
 50
241.8464790807
 51
269.0
  0
ARC
  5
C2
330
1F
100
AcDbEntity
  8
0
  6
Continuous
 62
     7
370
    25
100
AcDbCircle
 10
210.4030013671
 20
157.6072415765
 30
0.0
 40
2.600000000000017
100
AcDbArc
 50
91.0
 51
120.5908421204
  0
SPLINE
  5
C3
330
1F
100
AcDbEntity
  8
0
  6
Continuous
 62
     7
370
    25
100
AcDbSpline
210
0.0
220
0.0
230
1.0
 70
     8
 71
     3
 72
    12
 73
     8
 74
     0
 42
0.00000001
 43
0.00000001
 40
0.0
 40
0.0
 40
0.0
 40
0.0
 40
0.0993572612460881
 40
0.4018116387846741
 40
0.6605402722315347
 40
0.8699317636848758
 40
1.0
 40
1.0
 40
1.0
 40
1.0
 10
209.649302795514
 20
178.6153293521303
 30
0.0
 10
209.5337189723707
 20
178.6771502412709
 30
0.0
 10
209.066285341333
 20
178.927160683036
 30
0.0
 10
208.439694511317
 20
179.2990520424414
 30
0.0
 10
207.8789603617957
 20
179.6711436639113
 30
0.0
 10
207.59795477329
 20
179.9129841680188
 30
0.0
 10
207.5850024201626
 20
179.9284817239313
 30
0.0
 10
207.5800395642194
 20
179.9344198061244
 30
0.0
  0
SPLINE
  5
C4
330
1F
100
AcDbEntity
  8
0
  6
Continuous
 62
     7
370
    25
100
AcDbSpline
210
0.0
220
0.0
230
1.0
 70
     8
 71
     3
 72
    10
 73
     6
 74
     0
 42
0.00000001
 43
0.00000001
 40
0.0
 40
0.0
 40
0.0
 40
0.0
 40
0.2438104372696867
 40
0.6657444047975208
 40
1.0
 40
1.0
 40
1.0
 40
1.0
 10
207.7821880031675
 20
158.9564391444705
 30
0.0
 10
207.8449508941031
 20
159.0095214271882
 30
0.0
 10
208.0163301178032
 20
159.1544669558084
 30
0.0
 10
208.4667204983552
 20
159.4677551704426
 30
0.0
 10
208.8949825129616
 20
159.7277657757928
 30
0.0
 10
209.0842855417922
 20
159.8426972743663
 30
0.0
  0
LINE
  5
C5
330
1F
100
AcDbEntity
  8
0
  6
Continuous
 62
     7
370
    25
100
AcDbLine
 10
210.3576251104
 20
160.206845584
 30
0.0
 11
215.6617275703
 21
160.2994290368
 31
0.0
  0
LINE
  5
C6
330
1F
100
AcDbEntity
  8
0
  6
Continuous
 62
     7
370
    25
100
AcDbLine
 10
215.6617275703
 20
178.0981640404
 30
0.0
 11
211.2910453243
 21
178.1744545828
 31
0.0
  0
LINE
  5
C7
330
1F
100
AcDbEntity
  8
0
  6
Continuous
 62
     7
370
    25
100
AcDbLine
 10
216.1530013671
 20
162.0487965386
 30
0.0
 11
217.7580063566
 21
163.2736687675
 31
0.0
  0
LINE
  5
C8
330
1F
100
AcDbEntity
  8
0
  6
Continuous
 62
     7
370
    25
100
AcDbLine
 10
217.7580063566
 20
175.1239243098
 30
0.0
 11
216.1530013671
 21
176.3487965386
 31
0.0
  0
ARC
  5
C9
330
1F
100
AcDbEntity
  8
0
  6
Continuous
 62
     7
370
    25
100
AcDbCircle
 10
217.3030013671
 20
163.869882202
 30
0.0
 40
0.7500000000000187
100
AcDbArc
 50
307.3493490446
 51
0.0
  0
ARC
  5
CA
330
1F
100
AcDbEntity
  8
0
  6
Continuous
 62
     7
370
    25
100
AcDbCircle
 10
217.3030013671
 20
174.5277108752
 30
0.0
 40
0.7500000000000187
100
AcDbArc
 50
0.0
 51
52.6506509554
  0
LINE
  5
CB
330
1F
100
AcDbEntity
  8
0
  6
Continuous
 62
     7
370
    25
100
AcDbLine
 10
192.183489172
 20
159.6987965386
 30
0.0
 11
193.4030013671
 21
160.9487965386
 31
0.0
  0
LINE
  5
CC
330
1F
100
AcDbEntity
  8
0
  6
Continuous
 62
     7
370
    25
100
AcDbLine
 10
193.4030013671
 20
177.4487965386
 30
0.0
 11
192.183489172
 21
178.6987965386
 31
0.0
  0
LINE
  5
CD
330
1F
100
AcDbEntity
  8
0
  6
Continuous
 62
     7
370
    25
100
AcDbLine
 10
186.1418859148
 20
159.7987965386
 30
0.0
 11
186.6080612929
 21
159.7987965386
 31
0.0
  0
SPLINE
  5
CE
330
1F
100
AcDbEntity
  8
0
  6
Continuous
 62
     7
370
    25
100
AcDbSpline
210
0.0
220
0.0
230
1.0
 70
     8
 71
     3
 72
     9
 73
     5
 74
     0
 42
0.00000001
 43
0.00000001
 40
0.0
 40
0.0
 40
0.0
 40
0.0
 40
0.5017550341705622
 40
1.0
 40
1.0
 40
1.0
 40
1.0
 10
186.5033068302508
 20
159.8064091760794
 30
0.0
 10
186.5771738005286
 20
159.9342809793813
 30
0.0
 10
186.7243909986578
 20
160.1891300483365
 30
0.0
 10
186.8716676363192
 20
160.443918150194
 30
0.0
 10
186.9450474796183
 20
160.5708650392977
 30
0.0
  0
SPLINE
  5
CF
330
1F
100
AcDbEntity
  8
0
  6
Continuous
 62
     7
370
    25
100
AcDbSpline
210
0.0
220
0.0
230
1.0
 70
     8
 71
     3
 72
     9
 73
     5
 74
     0
 42
0.00000001
 43
0.00000001
 40
0.0
 40
0.0
 40
0.0
 40
0.0
 40
0.4988337438989723
 40
1.0
 40
1.0
 40
1.0
 40
1.0
 10
186.239493040463
 20
177.8267260886367
 30
0.0
 10
186.1660321330467
 20
177.9538302380627
 30
0.0
 10
186.0187668200747
 20
178.2086328671561
 30
0.0
 10
185.8715382348063
 20
178.4634676340897
 30
0.0
 10
185.7977522359363
 20
178.5911822201582
 30
0.0
  0
LINE
  5
D0
330
1F
100
AcDbEntity
  8
0
  6
Continuous
 62
     7
370
    25
100
AcDbLine
 10
185.9530013671
 20
160.1183640838
 30
0.0
 11
186.1332487348
 21
159.8064139489
 31
0.0
  0
SPLINE
  5
D1
330
1F
100
AcDbEntity
  8
0
  6
Continuous
 62
     7
370
    25
100
AcDbSpline
210
0.0
220
0.0
230
1.0
 70
     8
 71
     3
 72
     9
 73
     5
 74
     0
 42
0.00000001
 43
0.00000001
 40
0.0
 40
0.0
 40
0.0
 40
0.0
 40
0.3558179474155745
 40
1.0
 40
1.0
 40
1.0
 40
1.0
 10
186.7406899965509
 20
178.421374907265
 30
0.0
 10
186.6999356868314
 20
178.3508405498557
 30
0.0
 10
186.5853987164074
 20
178.1526089600173
 30
0.0
 10
186.4708462696653
 20
177.9543929758149
 30
0.0
 10
186.3970536393944
 20
177.8267057962563
 30
0.0
  0
LINE
  5
D2
330
1F
100
AcDbEntity
  8
0
  6
Continuous
 62
     7
370
    25
100
AcDbLine
 10
187.1030013671
 20
178.0987965386
 30
0.0
 11
186.7738542628
 21
178.4279436429
 31
0.0
  0
SPLINE
  5
D3
330
1F
100
AcDbEntity
  8
0
  6
Continuous
 62
     7
370
    25
100
AcDbSpline
210
0.0
220
0.0
230
1.0
 70
     8
 71
     3
 72
     9
 73
     5
 74
     0
 42
0.00000001
 43
0.00000001
 40
0.0
 40
0.0
 40
0.0
 40
0.0
 40
0.5112090479899531
 40
1.0
 40
1.0
 40
1.0
 40
1.0
 10
186.406323266774
 20
177.8350080895226
 30
0.0
 10
186.3770906694859
 20
177.8350038112727
 30
0.0
 10
186.3199074146061
 20
177.8349954423872
 30
0.0
 10
186.2626794590749
 20
177.8350036297339
 30
0.0
 10
186.2347069522093
 20
177.8350076316349
 30
0.0
  0
LINE
  5
D4
330
1F
100
AcDbEntity
  8
0
  6
Continuous
 62
     7
370
    25
100
AcDbLine
 10
187.1030013671
 20
161.0737965386
 30
0.0
 11
188.6030013671
 21
161.0737965386
 31
0.0
  0
LINE
  5
D5
330
1F
100
AcDbEntity
  8
0
  6
Continuous
 62
     7
370
    25
100
AcDbLine
 10
188.6030013671
 20
177.3237965386
 30
0.0
 11
187.1030013671
 21
177.3237965386
 31
0.0
  0
LINE
  5
D6
330
1F
100
AcDbEntity
  8
0
  6
Continuous
 62
     7
370
    25
100
AcDbLine
 10
144.1530013671
 20
28.9831152599
 30
0.0
 11
144.1530013671
 21
29.1864800645
 31
0.0
  0
LINE
  5
D7
330
1F
100
AcDbEntity
  8
0
  6
Continuous
 62
     7
370
    25
100
AcDbLine
 10
124.0530013671
 20
29.1864800645
 30
0.0
 11
124.0530013671
 21
28.9831152599
 31
0.0
  0
ARC
  5
D8
330
1F
100
AcDbEntity
  8
0
  6
Continuous
 62
     7
370
    25
100
AcDbCircle
 10
178.2030013671
 20
163.4578081665
 30
0.0
 40
9.134011627907
100
AcDbArc
 50
270.0
 51
328.0464183091
  0
ARC
  5
D9
330
1F
100
AcDbEntity
  8
0
  6
Continuous
 62
     7
370
    25
100
AcDbCircle
 10
178.2030013671
 20
174.9397849107
 30
0.0
 40
9.134011627907007
100
AcDbArc
 50
31.9535816909
 51
90.0
  0
SPLINE
  5
DA
330
1F
100
AcDbEntity
  8
0
  6
Continuous
 62
     7
370
    25
100
AcDbSpline
210
0.0
220
0.0
230
1.0
 70
     8
 71
     3
 72
     9
 73
     5
 74
     0
 42
0.00000001
 43
0.00000001
 40
0.0
 40
0.0
 40
0.0
 40
0.0
 40
0.6222983036771451
 40
1.0
 40
1.0
 40
1.0
 40
1.0
 10
170.1935256372054
 20
183.8820168946188
 30
0.0
 10
170.1268099131507
 20
183.7664959164976
 30
0.0
 10
170.0196013225753
 20
183.580859900075
 30
0.0
 10
169.9123909688172
 20
183.39522484331
 30
0.0
 10
169.8718974363393
 20
183.3251101674729
 30
0.0
  0
LINE
  5
DB
330
1F
100
AcDbEntity
  8
0
  6
Continuous
 62
     7
370
    25
100
AcDbLine
 10
169.4490315262
 20
154.7051697112
 30
0.0
 11
169.558378307
 21
154.5158321044
 31
0.0
  0
LINE
  5
DC
330
1F
100
AcDbEntity
  8
0
  6
Continuous
 62
     7
370
    25
100
AcDbLine
 10
169.563129962
 20
154.5114043028
 30
0.0
 11
169.721879962
 21
154.5114043028
 31
0.0
  0
LINE
  5
DD
330
1F
100
AcDbEntity
  8
0
  6
Continuous
 62
     7
370
    25
100
AcDbLine
 10
201.3030013671
 20
174.8487965386
 30
0.0
 11
193.4030013671
 21
174.8487965386
 31
0.0
  0
LINE
  5
DE
330
1F
100
AcDbEntity
  8
0
  6
Continuous
 62
     7
370
    25
100
AcDbLine
 10
193.4030013671
 20
163.5487965386
 30
0.0
 11
201.3030013671
 21
163.5487965386
 31
0.0
  0
LINE
  5
DF
330
1F
100
AcDbEntity
  8
0
  6
Continuous
 62
     7
370
    25
100
AcDbLine
 10
148.0999525161
 20
152.9987965386
 30
0.0
 11
165.3030013671
 21
152.9987965386
 31
0.0
  0
LINE
  5
E0
330
1F
100
AcDbEntity
  8
0
  6
Continuous
 62
     7
370
    25
100
AcDbLine
 10
165.3030013671
 20
185.3987965386
 30
0.0
 11
148.0820723775
 21
185.3987965386
 31
0.0
  0
SPLINE
  5
E1
330
1F
100
AcDbEntity
  8
0
  6
Continuous
 62
     7
370
    25
100
AcDbSpline
210
0.0
220
0.0
230
1.0
 70
     8
 71
     3
 72
     9
 73
     5
 74
     0
 42
0.00000001
 43
0.00000001
 40
0.0
 40
0.0
 40
0.0
 40
0.0
 40
0.5022789970715524
 40
0.9999999999999999
 40
0.9999999999999999
 40
0.9999999999999999
 40
0.9999999999999999
 10
168.9092112970788
 20
154.7041941706774
 30
0.0
 10
168.9871864100574
 20
154.8392259587534
 30
0.0
 10
169.1424290410118
 20
155.1080641719044
 30
0.0
 10
169.2977323979836
 20
155.3768949322462
 30
0.0
 10
169.3750301405738
 20
155.5106976479015
 30
0.0
  0
SPLINE
  5
E2
330
1F
100
AcDbEntity
  8
0
  6
Continuous
 62
     7
370
    25
100
AcDbSpline
210
0.0
220
0.0
230
1.0
 70
     8
 71
     3
 72
     9
 73
     5
 74
     0
 42
0.00000001
 43
0.00000001
 40
0.0
 40
0.0
 40
0.0
 40
0.0
 40
0.5018878356540979
 40
1.0
 40
1.0
 40
1.0
 40
1.0
 10
167.4092112970789
 20
154.7041941706774
 30
0.0
 10
167.4871138863334
 20
154.8391203721187
 30
0.0
 10
167.6423330084567
 20
155.1079577334894
 30
0.0
 10
167.7976588735755
 20
155.3767879161113
 30
0.0
 10
167.8750285764288
 20
155.5106955002187
 30
0.0
  0
SPLINE
  5
E3
330
1F
100
AcDbEntity
  8
0
  6
Continuous
 62
     7
370
    25
100
AcDbSpline
210
0.0
220
0.0
230
1.0
 70
     8
 71
     3
 72
     9
 73
     5
 74
     0
 42
0.00000001
 43
0.00000001
 40
0.0
 40
0.0
 40
0.0
 40
0.0
 40
0.501510996466117
 40
1.0
 40
1.0
 40
1.0
 40
1.0
 10
165.9092112970789
 20
154.7041941706774
 30
0.0
 10
165.987040075444
 20
154.8390181900205
 30
0.0
 10
166.1422286533887
 20
155.1078538093649
 30
0.0
 10
166.2975859012428
 20
155.3766876093436
 30
0.0
 10
166.3750297809174
 20
155.5106983024113
 30
0.0
  0
LINE
  5
E4
330
1F
100
AcDbEntity
  8
0
  6
Continuous
 62
     7
370
    25
100
AcDbLine
 10
169.8903943354
 20
183.2930808132
 30
0.0
 11
169.6592129317
 21
183.6933960799
 31
0.0
  0
SPLINE
  5
E5
330
1F
100
AcDbEntity
  8
0
  6
Continuous
 62
     7
370
    25
100
AcDbSpline
210
0.0
220
0.0
230
1.0
 70
     8
 71
     3
 72
     9
 73
     5
 74
     0
 42
0.00000001
 43
0.00000001
 40
0.0
 40
0.0
 40
0.0
 40
0.0
 40
0.5016435549345866
 40
1.0
 40
1.0
 40
1.0
 40
1.0
 10
168.6283316749817
 20
182.8811800682259
 30
0.0
 10
168.5498613148722
 20
183.0169926810776
 30
0.0
 10
168.3934347858406
 20
183.2877279701402
 30
0.0
 10
168.2371156036613
 20
183.5584700295972
 30
0.0
 10
168.1592129317349
 20
183.6933960798779
 30
0.0
  0
SPLINE
  5
E6
330
1F
100
AcDbEntity
  8
0
  6
Continuous
 62
     7
370
    25
100
AcDbSpline
210
0.0
220
0.0
230
1.0
 70
     8
 71
     3
 72
     9
 73
     5
 74
     0
 42
0.00000001
 43
0.00000001
 40
0.0
 40
0.0
 40
0.0
 40
0.0
 40
0.502016030313312
 40
1.0
 40
1.0
 40
1.0
 40
1.0
 10
167.1283316749817
 20
182.8811800682259
 30
0.0
 10
167.0497874327015
 20
183.0170949062013
 30
0.0
 10
166.8933297948225
 20
183.2878329499455
 30
0.0
 10
166.7370418319169
 20
183.5585722489897
 30
0.0
 10
166.6592129317349
 20
183.6933960798779
 30
0.0
  0
LINE
  5
E7
330
1F
100
AcDbEntity
  8
0
  6
Continuous
 62
     7
370
    25
100
AcDbLine
 10
169.7402473475
 20
155.516281936
 30
0.0
 11
169.9201935116
 21
155.204761679
 31
0.0
  0
SPLINE
  5
E8
330
1F
100
AcDbEntity
  8
0
  6
Continuous
 62
     7
370
    25
100
AcDbSpline
210
0.0
220
0.0
230
1.0
 70
     8
 71
     3
 72
     9
 73
     5
 74
     0
 42
0.00000001
 43
0.00000001
 40
0.0
 40
0.0
 40
0.0
 40
0.0
 40
0.4981726380348059
 40
1.0
 40
1.0
 40
1.0
 40
1.0
 10
168.2402473475352
 20
155.516281935979
 30
0.0
 10
168.3181639086171
 20
155.381418399541
 30
0.0
 10
168.4745686469206
 20
155.1107019327152
 30
0.0
 10
168.6309111547576
 20
154.8399387753126
 30
0.0
 10
168.7093681030285
 20
154.7040624143159
 30
0.0
  0
SPLINE
  5
E9
330
1F
100
AcDbEntity
  8
0
  6
Continuous
 62
     7
370
    25
100
AcDbSpline
210
0.0
220
0.0
230
1.0
 70
     8
 71
     3
 72
     9
 73
     5
 74
     0
 42
0.00000001
 43
0.00000001
 40
0.0
 40
0.0
 40
0.0
 40
0.0
 40
0.4977054804244463
 40
0.9999999999999999
 40
0.9999999999999999
 40
0.9999999999999999
 40
0.9999999999999999
 10
166.7402473475352
 20
155.516281935979
 30
0.0
 10
166.818097002145
 20
155.381557409617
 30
0.0
 10
166.9745141156222
 20
155.1108661440773
 30
0.0
 10
167.1308443054392
 20
154.8400778768896
 30
0.0
 10
167.2093681030285
 20
154.7040624143159
 30
0.0
  0
SPLINE
  5
EA
330
1F
100
AcDbEntity
  8
0
  6
Continuous
 62
     7
370
    25
100
AcDbSpline
210
0.0
220
0.0
230
1.0
 70
     8
 71
     3
 72
     9
 73
     5
 74
     0
 42
0.00000001
 43
0.00000001
 40
0.0
 40
0.0
 40
0.0
 40
0.0
 40
0.5048333721705174
 40
0.9999999999999999
 40
0.9999999999999999
 40
0.9999999999999999
 40
0.9999999999999999
 10
169.4593689169857
 20
183.6935320530439
 30
0.0
 10
169.3809789870547
 20
183.5577893940458
 30
0.0
 10
169.2257001678395
 20
183.2889033288984
 30
0.0
 10
169.0703822322264
 20
183.0200327497676
 30
0.0
 10
168.9934739738074
 20
182.8868970117769
 30
0.0
  0
SPLINE
  5
EB
330
1F
100
AcDbEntity
  8
0
  6
Continuous
 62
     7
370
    25
100
AcDbSpline
210
0.0
220
0.0
230
1.0
 70
     8
 71
     3
 72
     9
 73
     5
 74
     0
 42
0.00000001
 43
0.00000001
 40
0.0
 40
0.0
 40
0.0
 40
0.0
 40
0.5018269838139369
 40
1.0
 40
1.0
 40
1.0
 40
1.0
 10
167.9593689169857
 20
183.6935320530439
 30
0.0
 10
167.8809119576032
 20
183.557655768647
 30
0.0
 10
167.7245693098122
 20
183.2868925598529
 30
0.0
 10
167.5681647832649
 20
183.0161762666719
 30
0.0
 10
167.4902482685297
 20
182.8813127143673
 30
0.0
  0
LINE
  5
EC
330
1F
100
AcDbEntity
  8
0
  6
Continuous
 62
     7
370
    25
100
AcDbLine
 10
168.7153652738
 20
154.6987965386
 30
0.0
 11
168.7530013671
 21
154.6987965386
 31
0.0
  0
LINE
  5
ED
330
1F
100
AcDbEntity
  8
0
  6
Continuous
 62
     7
370
    25
100
AcDbLine
 10
167.2153652738
 20
154.6987965386
 30
0.0
 11
167.4031351241
 21
154.6987965386
 31
0.0
  0
LINE
  5
EE
330
1F
100
AcDbEntity
  8
0
  6
Continuous
 62
     7
370
    25
100
AcDbLine
 10
165.3030013671
 20
154.6987965386
 30
0.0
 11
165.9031351241
 21
154.6987965386
 31
0.0
  0
LINE
  5
EF
330
1F
100
AcDbEntity
  8
0
  6
Continuous
 62
     7
370
    25
100
AcDbLine
 10
166.653004822
 20
183.6987965386
 30
0.0
 11
165.3030013671
 21
183.6987965386
 31
0.0
  0
LINE
  5
F0
330
1F
100
AcDbEntity
  8
0
  6
Continuous
 62
     7
370
    25
100
AcDbLine
 10
168.153004822
 20
183.6987965386
 30
0.0
 11
167.9653118308
 21
183.6987965386
 31
0.0
  0
LINE
  5
F1
330
1F
100
AcDbEntity
  8
0
  6
Continuous
 62
     7
370
    25
100
AcDbLine
 10
167.4968751703
 20
182.8868956787
 30
0.0
 11
167.1250292653
 21
182.8868956787
 31
0.0
  0
LINE
  5
F2
330
1F
100
AcDbEntity
  8
0
  6
Continuous
 62
     7
370
    25
100
AcDbLine
 10
168.9966782392
 20
182.8868970118
 30
0.0
 11
168.6250289091
 21
182.8868970118
 31
0.0
  0
LINE
  5
F3
330
1F
100
AcDbEntity
  8
0
  6
Continuous
 62
     7
370
    25
100
AcDbLine
 10
169.3718824953
 20
155.5106976479
 30
0.0
 11
169.7434730486
 21
155.5106976479
 31
0.0
  0
LINE
  5
F4
330
1F
100
AcDbEntity
  8
0
  6
Continuous
 62
     7
370
    25
100
AcDbLine
 10
167.8717179571
 20
155.5106955002
 30
0.0
 11
168.24347457
 21
155.5106955002
 31
0.0
  0
LINE
  5
F5
330
1F
100
AcDbEntity
  8
0
  6
Continuous
 62
     7
370
    25
100
AcDbLine
 10
166.3716027181
 20
155.5106983024
 30
0.0
 11
166.7434733231
 21
155.5106983024
 31
0.0
  0
LINE
  5
F6
330
1F
100
AcDbEntity
  8
0
  6
Continuous
 62
     7
370
    25
100
AcDbLine
 10
134.9160971158
 20
18.2564254905
 30
0.0
 11
134.9160971158
 21
17.6150441838
 31
0.0
  0
ARC
  5
F7
330
1F
100
AcDbEntity
  8
0
  6
Continuous
 62
     7
370
    25
100
AcDbCircle
 10
134.1030592487
 20
28.5940496581
 30
0.0
 40
11.00906861539098
100
AcDbArc
 50
272.6028021846
 51
274.2352436254
  0
LINE
  5
F8
330
1F
100
AcDbEntity
  8
0
  6
Continuous
 62
     7
370
    25
100
AcDbLine
 10
134.6030013671
 20
18.2377198549
 30
0.0
 11
134.6030013671
 21
17.5963385483
 31
0.0
  0
ARC
  5
F9
330
1F
100
AcDbEntity
  8
0
  6
Continuous
 62
     7
370
    25
100
AcDbCircle
 10
134.1030592487
 20
29.2354309653
 30
0.0
 40
11.00906861584151
100
AcDbArc
 50
272.6028021846
 51
274.2352436254
  0
LINE
  5
FA
330
1F
100
AcDbEntity
  8
0
  6
Continuous
 62
     7
370
    25
100
AcDbLine
 10
133.6030013671
 20
18.2377198549
 30
0.0
 11
133.6030013671
 21
17.5963385483
 31
0.0
  0
ARC
  5
FB
330
1F
100
AcDbEntity
  8
0
  6
Continuous
 62
     7
370
    25
100
AcDbCircle
 10
134.1029434855
 20
28.5940496586
 30
0.0
 40
11.00906861581301
100
AcDbArc
 50
265.7647563746
 51
267.3971978154
  0
LINE
  5
FC
330
1F
100
AcDbEntity
  8
0
  6
Continuous
 62
     7
370
    25
100
AcDbLine
 10
133.2899056184
 20
18.2564254905
 30
0.0
 11
133.2899056184
 21
17.6150441838
 31
0.0
  0
ARC
  5
FD
330
1F
100
AcDbEntity
  8
0
  6
Continuous
 62
     7
370
    25
100
AcDbCircle
 10
134.1029434855
 20
29.2354309649
 30
0.0
 40
11.00906861548073
100
AcDbArc
 50
265.7647563746
 51
267.3971978154
  0
LINE
  5
FE
330
1F
100
AcDbEntity
  8
0
  6
Continuous
 62
     7
370
    25
100
AcDbLine
 10
134.1030013671
 20
18.7202052797
 30
0.0
 11
134.6030013671
 21
18.2377198549
 31
0.0
  0
LINE
  5
FF
330
1F
100
AcDbEntity
  8
0
  6
Continuous
 62
     7
370
    25
100
AcDbLine
 10
134.6030013671
 20
17.5963385483
 30
0.0
 11
134.1030013671
 21
18.0336652328
 31
0.0
  0
LINE
  5
100
330
1F
100
AcDbEntity
  8
0
  6
Continuous
 62
     7
370
    25
100
AcDbLine
 10
134.1030013671
 20
18.7202052797
 30
0.0
 11
134.1030013671
 21
18.0336652328
 31
0.0
  0
LINE
  5
101
330
1F
100
AcDbEntity
  8
0
  6
Continuous
 62
     7
370
    25
100
AcDbLine
 10
133.6030013671
 20
18.2377198549
 30
0.0
 11
134.1030013671
 21
18.7202052797
 31
0.0
  0
LINE
  5
102
330
1F
100
AcDbEntity
  8
0
  6
Continuous
 62
     7
370
    25
100
AcDbLine
 10
134.1030013671
 20
18.0336652328
 30
0.0
 11
133.6030013671
 21
17.5963385483
 31
0.0
  0
ARC
  5
103
330
1F
100
AcDbEntity
  8
0
  6
Continuous
 62
     7
370
    25
100
AcDbCircle
 10
133.8497515746
 20
28.9690477885
 30
0.0
 40
10.6218581344226
100
AcDbArc
 50
189.6752540641
 51
191.3471322519
  0
LINE
  5
104
330
1F
100
AcDbEntity
  8
0
  6
Continuous
 62
     7
370
    25
100
AcDbLine
 10
123.8036467983
 20
27.7323003237
 30
0.0
 11
123.3789771847
 21
27.1838996421
 31
0.0
  0
LINE
  5
105
330
1F
100
AcDbEntity
  8
0
  6
Continuous
 62
     7
370
    25
100
AcDbLine
 10
123.2584405045
 20
28.1643866226
 30
0.0
 11
123.8036467983
 21
27.7323003237
 31
0.0
  0
ARC
  5
106
330
1F
100
AcDbEntity
  8
0
  6
Continuous
 62
     7
370
    25
100
AcDbCircle
 10
133.8383412374
 20
28.9675304165
 30
0.0
 40
10.61034115718354
100
AcDbArc
 50
182.6680361771
 51
184.3411240064
  0
LINE
  5
107
330
1F
100
AcDbEntity
  8
0
  6
Continuous
 62
     7
370
    25
100
AcDbLine
 10
123.7280013671
 20
28.9674718134
 30
0.0
 11
123.2395017008
 21
28.4736276431
 31
0.0
  0
LINE
  5
108
330
1F
100
AcDbEntity
  8
0
  6
Continuous
 62
     7
370
    25
100
AcDbLine
 10
123.2395017008
 20
29.4613159837
 30
0.0
 11
123.7280013671
 21
28.9674718134
 31
0.0
  0
ARC
  5
109
330
1F
100
AcDbEntity
  8
0
  6
Continuous
 62
     7
370
    25
100
AcDbCircle
 10
133.8383412372
 20
28.9674132103
 30
0.0
 40
10.61034115703838
100
AcDbArc
 50
175.6588759936
 51
177.3319638229
  0
LINE
  5
10A
330
1F
100
AcDbEntity
  8
0
  6
Continuous
 62
     7
370
    25
100
AcDbLine
 10
123.8036467983
 20
30.2026433031
 30
0.0
 11
123.2584405045
 21
29.7705570042
 31
0.0
  0
LINE
  5
10B
330
1F
100
AcDbEntity
  8
0
  6
Continuous
 62
     7
370
    25
100
AcDbLine
 10
123.3789771847
 20
30.7510439847
 30
0.0
 11
123.8036467983
 21
30.2026433031
 31
0.0
  0
ARC
  5
10C
330
1F
100
AcDbEntity
  8
0
  6
Continuous
 62
     7
370
    25
100
AcDbCircle
 10
133.8497515747
 20
28.9658958383
 30
0.0
 40
10.62185813456642
100
AcDbArc
 50
168.6528677481
 51
170.3247459358
  0
LINE
  5
10D
330
1F
100
AcDbEntity
  8
0
  6
Continuous
 62
     7
370
    25
100
AcDbLine
 10
124.0294800113
 20
31.419803211
 30
0.0
 11
123.4355174253
 21
31.0557755747
 31
0.0
  0
LINE
  5
10E
330
1F
100
AcDbEntity
  8
0
  6
Continuous
 62
     7
370
    25
100
AcDbLine
 10
123.6748330896
 20
32.0147634872
 30
0.0
 11
124.0294800113
 21
31.419803211
 31
0.0
  0
ARC
  5
10F
330
1F
100
AcDbEntity
  8
0
  6
Continuous
 62
     7
370
    25
100
AcDbCircle
 10
133.8714244767
 20
28.9603804735
 30
0.0
 40
10.64423466056401
100
AcDbArc
 50
161.654909332
 51
163.3244435255
  0
LINE
  5
110
330
1F
100
AcDbEntity
  8
0
  6
Continuous
 62
     7
370
    25
100
AcDbLine
 10
124.4022078492
 20
32.6012026051
 30
0.0
 11
123.7681502832
 21
32.310541974
 31
0.0
  0
LINE
  5
111
330
1F
100
AcDbEntity
  8
0
  6
Continuous
 62
     7
370
    25
100
AcDbLine
 10
124.1227551702
 20
33.2340466152
 30
0.0
 11
124.4022078492
 21
32.6012026051
 31
0.0
  0
ARC
  5
112
330
1F
100
AcDbEntity
  8
0
  6
Continuous
 62
     7
370
    25
100
AcDbCircle
 10
133.9012086832
 20
28.9488501848
 30
0.0
 40
10.67619134112041
100
AcDbArc
 50
154.6693994505
 51
156.3356003093
  0
LINE
  5
113
330
1F
100
AcDbEntity
  8
0
  6
Continuous
 62
     7
370
    25
100
AcDbLine
 10
124.5379411518
 20
33.6083465177
 30
0.0
 11
124.2514885419
 21
33.5165588825
 31
0.0
  0
LINE
  5
114
330
1F
100
AcDbEntity
  8
0
  6
Continuous
 62
     7
370
    25
100
AcDbLine
 10
143.9545141923
 20
33.5165588825
 30
0.0
 11
143.6680615824
 21
33.6083465177
 31
0.0
  0
ARC
  5
115
330
1F
100
AcDbEntity
  8
0
  6
Continuous
 62
     7
370
    25
100
AcDbCircle
 10
134.3047940508
 20
28.9488501847
 30
0.0
 40
10.67619134138873
100
AcDbArc
 50
23.6643996907
 51
25.3306005495
  0
LINE
  5
116
330
1F
100
AcDbEntity
  8
0
  6
Continuous
 62
     7
370
    25
100
AcDbLine
 10
143.803794885
 20
32.6012026051
 30
0.0
 11
144.083247564
 21
33.2340466152
 31
0.0
  0
LINE
  5
117
330
1F
100
AcDbEntity
  8
0
  6
Continuous
 62
     7
370
    25
100
AcDbLine
 10
144.437852451
 20
32.310541974
 30
0.0
 11
143.803794885
 21
32.6012026051
 31
0.0
  0
ARC
  5
118
330
1F
100
AcDbEntity
  8
0
  6
Continuous
 62
     7
370
    25
100
AcDbCircle
 10
134.3345782575
 20
28.9603804735
 30
0.0
 40
10.64423466054871
100
AcDbArc
 50
16.6755564745
 51
18.3450906679
  0
LINE
  5
119
330
1F
100
AcDbEntity
  8
0
  6
Continuous
 62
     7
370
    25
100
AcDbLine
 10
144.1765227229
 20
31.419803211
 30
0.0
 11
144.5311696446
 21
32.0147634872
 31
0.0
  0
LINE
  5
11A
330
1F
100
AcDbEntity
  8
0
  6
Continuous
 62
     7
370
    25
100
AcDbLine
 10
144.7704853089
 20
31.0557755747
 30
0.0
 11
144.1765227229
 21
31.419803211
 31
0.0
  0
ARC
  5
11B
330
1F
100
AcDbEntity
  8
0
  6
Continuous
 62
     7
370
    25
100
AcDbCircle
 10
134.3562511596
 20
28.9658958383
 30
0.0
 40
10.62185813449192
100
AcDbArc
 50
9.6752540642
 51
11.3471322519
  0
LINE
  5
11C
330
1F
100
AcDbEntity
  8
0
  6
Continuous
 62
     7
370
    25
100
AcDbLine
 10
144.4023559359
 20
30.2026433031
 30
0.0
 11
144.8270255495
 21
30.7510439847
 31
0.0
  0
LINE
  5
11D
330
1F
100
AcDbEntity
  8
0
  6
Continuous
 62
     7
370
    25
100
AcDbLine
 10
144.9475622297
 20
29.7705570042
 30
0.0
 11
144.4023559359
 21
30.2026433031
 31
0.0
  0
ARC
  5
11E
330
1F
100
AcDbEntity
  8
0
  6
Continuous
 62
     7
370
    25
100
AcDbCircle
 10
134.3676614969
 20
28.9674132103
 30
0.0
 40
10.61034115709061
100
AcDbArc
 50
2.6680361771
 51
4.3411240064
  0
LINE
  5
11F
330
1F
100
AcDbEntity
  8
0
  6
Continuous
 62
     7
370
    25
100
AcDbLine
 10
144.4780013671
 20
28.9674718134
 30
0.0
 11
144.9665010334
 21
29.4613159837
 31
0.0
  0
LINE
  5
120
330
1F
100
AcDbEntity
  8
0
  6
Continuous
 62
     7
370
    25
100
AcDbLine
 10
144.9665010334
 20
28.4736276431
 30
0.0
 11
144.4780013671
 21
28.9674718134
 31
0.0
  0
ARC
  5
121
330
1F
100
AcDbEntity
  8
0
  6
Continuous
 62
     7
370
    25
100
AcDbCircle
 10
134.3676614969
 20
28.9675304165
 30
0.0
 40
10.61034115708314
100
AcDbArc
 50
355.6588759936
 51
357.3319638229
  0
LINE
  5
122
330
1F
100
AcDbEntity
  8
0
  6
Continuous
 62
     7
370
    25
100
AcDbLine
 10
144.4023559359
 20
27.7323003237
 30
0.0
 11
144.9475622297
 21
28.1643866226
 31
0.0
  0
LINE
  5
123
330
1F
100
AcDbEntity
  8
0
  6
Continuous
 62
     7
370
    25
100
AcDbLine
 10
144.8270255495
 20
27.1838996421
 30
0.0
 11
144.4023559359
 21
27.7323003237
 31
0.0
  0
ARC
  5
124
330
1F
100
AcDbEntity
  8
0
  6
Continuous
 62
     7
370
    25
100
AcDbCircle
 10
134.3562511597
 20
28.9690477885
 30
0.0
 40
10.62185813437293
100
AcDbArc
 50
348.6528677481
 51
350.3247459359
  0
LINE
  5
125
330
1F
100
AcDbEntity
  8
0
  6
Continuous
 62
     7
370
    25
100
AcDbLine
 10
144.1765227229
 20
26.5151404158
 30
0.0
 11
144.7704853089
 21
26.879168052
 31
0.0
  0
LINE
  5
126
330
1F
100
AcDbEntity
  8
0
  6
Continuous
 62
     7
370
    25
100
AcDbLine
 10
144.5311696446
 20
25.9201801396
 30
0.0
 11
144.1765227229
 21
26.5151404158
 31
0.0
  0
ARC
  5
127
330
1F
100
AcDbEntity
  8
0
  6
Continuous
 62
     7
370
    25
100
AcDbCircle
 10
134.3345782577
 20
28.9745631532
 30
0.0
 40
10.64423466038661
100
AcDbArc
 50
341.654909332
 51
343.3244435255
  0
LINE
  5
128
330
1F
100
AcDbEntity
  8
0
  6
Continuous
 62
     7
370
    25
100
AcDbLine
 10
143.803794885
 20
25.3337410217
 30
0.0
 11
144.437852451
 21
25.6244016527
 31
0.0
  0
LINE
  5
129
330
1F
100
AcDbEntity
  8
0
  6
Continuous
 62
     7
370
    25
100
AcDbLine
 10
144.083247564
 20
24.7008970116
 30
0.0
 11
143.803794885
 21
25.3337410217
 31
0.0
  0
ARC
  5
12A
330
1F
100
AcDbEntity
  8
0
  6
Continuous
 62
     7
370
    25
100
AcDbCircle
 10
134.3047940508
 20
28.9860934421
 30
0.0
 40
10.6761913413741
100
AcDbArc
 50
334.6693994505
 51
336.3356003093
  0
LINE
  5
12B
330
1F
100
AcDbEntity
  8
0
  6
Continuous
 62
     7
370
    25
100
AcDbLine
 10
143.2896076333
 20
24.2053296051
 30
0.0
 11
143.9545141923
 21
24.4183847443
 31
0.0
  0
LINE
  5
12C
330
1F
100
AcDbEntity
  8
0
  6
Continuous
 62
     7
370
    25
100
AcDbLine
 10
143.4897910203
 20
23.5438301517
 30
0.0
 11
143.2896076333
 21
24.2053296051
 31
0.0
  0
ARC
  5
12D
330
1F
100
AcDbEntity
  8
0
  6
Continuous
 62
     7
370
    25
100
AcDbCircle
 10
134.2697833984
 20
29.0047726905
 30
0.0
 40
10.71589632093161
100
AcDbArc
 50
327.6999712402
 51
329.3620536496
  0
LINE
  5
12E
330
1F
100
AcDbEntity
  8
0
  6
Continuous
 62
     7
370
    25
100
AcDbLine
 10
142.6414589758
 20
23.1463609453
 30
0.0
 11
143.327518693
 21
23.278703769
 31
0.0
  0
LINE
  5
12F
330
1F
100
AcDbEntity
  8
0
  6
Continuous
 62
     7
370
    25
100
AcDbLine
 10
142.7594539463
 20
22.4658522002
 30
0.0
 11
142.6414589758
 21
23.1463609453
 31
0.0
  0
ARC
  5
130
330
1F
100
AcDbEntity
  8
0
  6
Continuous
 62
     7
370
    25
100
AcDbCircle
 10
134.2328041983
 20
29.0306662619
 30
0.0
 40
10.76106591321613
100
AcDbArc
 50
320.7492802953
 51
322.4067082474
  0
LINE
  5
131
330
1F
100
AcDbEntity
  8
0
  6
Continuous
 62
     7
370
    25
100
AcDbLine
 10
141.8688003794
 20
22.1722771899
 30
0.0
 11
142.5660089592
 21
22.2219778418
 31
0.0
  0
LINE
  5
132
330
1F
100
AcDbEntity
  8
0
  6
Continuous
 62
     7
370
    25
100
AcDbLine
 10
141.902886301
 20
21.482682503
 30
0.0
 11
141.8688003794
 21
22.1722771899
 31
0.0
  0
ARC
  5
133
330
1F
100
AcDbEntity
  8
0
  6
Continuous
 62
     7
370
    25
100
AcDbCircle
 10
134.197082814
 20
29.0627259974
 30
0.0
 40
10.80909185624521
100
AcDbArc
 50
313.8188594745
 51
315.4713742231
  0
LINE
  5
134
330
1F
100
AcDbEntity
  8
0
  6
Continuous
 62
     7
370
    25
100
AcDbLine
 10
140.9828989464
 20
21.2972826736
 30
0.0
 11
141.6810895177
 21
21.2636164062
 31
0.0
  0
LINE
  5
135
330
1F
100
AcDbEntity
  8
0
  6
Continuous
 62
     7
370
    25
100
AcDbLine
 10
140.9325787695
 20
20.6086578883
 30
0.0
 11
140.9828989464
 21
21.2972826736
 31
0.0
  0
ARC
  5
136
330
1F
100
AcDbEntity
  8
0
  6
Continuous
 62
     7
370
    25
100
AcDbCircle
 10
134.1654177871
 20
29.0988926531
 30
0.0
 40
10.85718905263733
100
AcDbArc
 50
306.9090466333
 51
308.5566772191
  0
LINE
  5
137
330
1F
100
AcDbEntity
  8
0
  6
Continuous
 62
     7
370
    25
100
AcDbLine
 10
139.9966731144
 20
20.5341367867
 30
0.0
 11
140.6856644866
 21
20.4175945301
 31
0.0
  0
LINE
  5
138
330
1F
100
AcDbEntity
  8
0
  6
Continuous
 62
     7
370
    25
100
AcDbLine
 10
139.8626806207
 20
19.856523603
 30
0.0
 11
139.9966731144
 21
20.5341367867
 31
0.0
  0
ARC
  5
139
330
1F
100
AcDbEntity
  8
0
  6
Continuous
 62
     7
370
    25
100
AcDbCircle
 10
134.1398430085
 20
29.1363328036
 30
0.0
 40
10.90255608266862
100
AcDbArc
 50
300.0189854627
 51
301.6620420636
  0
LINE
  5
13A
330
1F
100
AcDbEntity
  8
0
  6
Continuous
 62
     7
370
    25
100
AcDbLine
 10
138.9245042771
 20
19.8939679147
 30
0.0
 11
139.5942494044
 21
19.6962491173
 31
0.0
  0
LINE
  5
13B
330
1F
100
AcDbEntity
  8
0
  6
Continuous
 62
     7
370
    25
100
AcDbLine
 10
138.7087933787
 20
19.2372474587
 30
0.0
 11
138.9245042771
 21
19.8939679147
 31
0.0
  0
ARC
  5
13C
330
1F
100
AcDbEntity
  8
0
  6
Continuous
 62
     7
370
    25
100
AcDbCircle
 10
134.1213937325
 20
29.1717798687
 30
0.0
 40
10.94253945482077
100
AcDbArc
 50
293.1466946512
 51
294.7857462768
  0
LINE
  5
13D
330
1F
100
AcDbEntity
  8
0
  6
Continuous
 62
     7
370
    25
100
AcDbLine
 10
137.7820270702
 20
19.3861111613
 30
0.0
 11
138.4227595605
 21
19.1100990085
 31
0.0
  0
LINE
  5
13E
330
1F
100
AcDbEntity
  8
0
  6
Continuous
 62
     7
370
    25
100
AcDbLine
 10
137.4877433178
 20
18.759859896
 30
0.0
 11
137.7820270702
 21
19.3861111613
 31
0.0
  0
ARC
  5
13F
330
1F
100
AcDbEntity
  8
0
  6
Continuous
 62
     7
370
    25
100
AcDbCircle
 10
134.1100054008
 20
29.201935339
 30
0.0
 40
10.97479170617277
100
AcDbArc
 50
286.2891969994
 51
287.9250357748
  0
LINE
  5
140
330
1F
100
AcDbEntity
  8
0
  6
Continuous
 62
     7
370
    25
100
AcDbLine
 10
136.5859013841
 20
19.0179722215
 30
0.0
 11
137.188277915
 21
18.667691592
 31
0.0
  0
LINE
  5
141
330
1F
100
AcDbEntity
  8
0
  6
Continuous
 62
     7
370
    25
100
AcDbLine
 10
136.2173360975
 20
18.4313223006
 30
0.0
 11
136.5859013841
 21
19.0179722215
 31
0.0
  0
ARC
  5
142
330
1F
100
AcDbEntity
  8
0
  6
Continuous
 62
     7
370
    25
100
AcDbCircle
 10
134.1045579393
 20
29.2238783965
 30
0.0
 40
10.99741326984073
100
AcDbArc
 50
279.4426979662
 51
281.0762926389
  0
LINE
  5
143
330
1F
100
AcDbEntity
  8
0
  6
Continuous
 62
     7
370
    25
100
AcDbLine
 10
135.3535694248
 20
18.7949193902
 30
0.0
 11
135.9088059899
 21
18.3754781642
 31
0.0
  0
LINE
  5
144
330
1F
100
AcDbEntity
  8
0
  6
Continuous
 62
     7
370
    25
100
AcDbLine
 10
134.9160971158
 20
18.2564254905
 30
0.0
 11
135.3535694248
 21
18.7949193902
 31
0.0
  0
LINE
  5
145
330
1F
100
AcDbEntity
  8
0
  6
Continuous
 62
     7
370
    25
100
AcDbLine
 10
132.8524333095
 20
18.7949193902
 30
0.0
 11
133.2899056184
 21
18.2564254905
 31
0.0
  0
LINE
  5
146
330
1F
100
AcDbEntity
  8
0
  6
Continuous
 62
     7
370
    25
100
AcDbLine
 10
132.2971967443
 20
18.3754781642
 30
0.0
 11
132.8524333095
 21
18.7949193902
 31
0.0
  0
ARC
  5
147
330
1F
100
AcDbEntity
  8
0
  6
Continuous
 62
     7
370
    25
100
AcDbCircle
 10
134.1014447949
 20
29.2238783965
 30
0.0
 40
10.99741326983427
100
AcDbArc
 50
258.9237073611
 51
260.5573020338
  0
LINE
  5
148
330
1F
100
AcDbEntity
  8
0
  6
Continuous
 62
     7
370
    25
100
AcDbLine
 10
131.6201013501
 20
19.0179722215
 30
0.0
 11
131.9886666367
 21
18.4313223006
 31
0.0
  0
LINE
  5
149
330
1F
100
AcDbEntity
  8
0
  6
Continuous
 62
     7
370
    25
100
AcDbLine
 10
131.0177248193
 20
18.667691592
 30
0.0
 11
131.6201013501
 21
19.0179722215
 31
0.0
  0
ARC
  5
14A
330
1F
100
AcDbEntity
  8
0
  6
Continuous
 62
     7
370
    25
100
AcDbCircle
 10
134.0959973334
 20
29.2019353389
 30
0.0
 40
10.97479170600615
100
AcDbArc
 50
252.0749642252
 51
253.7108030006
  0
LINE
  5
14B
330
1F
100
AcDbEntity
  8
0
  6
Continuous
 62
     7
370
    25
100
AcDbLine
 10
130.423975664
 20
19.3861111613
 30
0.0
 11
130.7182594164
 21
18.759859896
 31
0.0
  0
LINE
  5
14C
330
1F
100
AcDbEntity
  8
0
  6
Continuous
 62
     7
370
    25
100
AcDbLine
 10
129.7832431737
 20
19.1100990085
 30
0.0
 11
130.423975664
 21
19.3861111613
 31
0.0
  0
ARC
  5
14D
330
1F
100
AcDbEntity
  8
0
  6
Continuous
 62
     7
370
    25
100
AcDbCircle
 10
134.0846090016
 20
29.1717798684
 30
0.0
 40
10.94253945450853
100
AcDbArc
 50
245.2142537232
 51
246.8533053489
  0
LINE
  5
14E
330
1F
100
AcDbEntity
  8
0
  6
Continuous
 62
     7
370
    25
100
AcDbLine
 10
129.2814984572
 20
19.8939679147
 30
0.0
 11
129.4972093555
 21
19.2372474587
 31
0.0
  0
LINE
  5
14F
330
1F
100
AcDbEntity
  8
0
  6
Continuous
 62
     7
370
    25
100
AcDbLine
 10
128.6117533299
 20
19.6962491173
 30
0.0
 11
129.2814984572
 21
19.8939679147
 31
0.0
  0
ARC
  5
150
330
1F
100
AcDbEntity
  8
0
  6
Continuous
 62
     7
370
    25
100
AcDbCircle
 10
134.0661597257
 20
29.1363328037
 30
0.0
 40
10.9025560826876
100
AcDbArc
 50
238.3379579364
 51
239.9810145373
  0
LINE
  5
151
330
1F
100
AcDbEntity
  8
0
  6
Continuous
 62
     7
370
    25
100
AcDbLine
 10
128.2093296198
 20
20.5341367867
 30
0.0
 11
128.3433221135
 21
19.856523603
 31
0.0
  0
LINE
  5
152
330
1F
100
AcDbEntity
  8
0
  6
Continuous
 62
     7
370
    25
100
AcDbLine
 10
127.5203382476
 20
20.4175945301
 30
0.0
 11
128.2093296198
 21
20.5341367867
 31
0.0
  0
ARC
  5
153
330
1F
100
AcDbEntity
  8
0
  6
Continuous
 62
     7
370
    25
100
AcDbCircle
 10
134.0405849472
 20
29.0988926532
 30
0.0
 40
10.8571890527367
100
AcDbArc
 50
231.4433227809
 51
233.0909533667
  0
LINE
  5
154
330
1F
100
AcDbEntity
  8
0
  6
Continuous
 62
     7
370
    25
100
AcDbLine
 10
127.2231037879
 20
21.2972826736
 30
0.0
 11
127.2734239647
 21
20.6086578883
 31
0.0
  0
LINE
  5
155
330
1F
100
AcDbEntity
  8
0
  6
Continuous
 62
     7
370
    25
100
AcDbLine
 10
126.5249132165
 20
21.2636164062
 30
0.0
 11
127.2231037879
 21
21.2972826736
 31
0.0
  0
ARC
  5
156
330
1F
100
AcDbEntity
  8
0
  6
Continuous
 62
     7
370
    25
100
AcDbCircle
 10
134.0089199204
 20
29.0627259975
 30
0.0
 40
10.8090918564223
100
AcDbArc
 50
224.528625777
 51
226.1811405255
  0
LINE
  5
157
330
1F
100
AcDbEntity
  8
0
  6
Continuous
 62
     7
370
    25
100
AcDbLine
 10
126.3372023548
 20
22.1722771899
 30
0.0
 11
126.3031164332
 21
21.482682503
 31
0.0
  0
LINE
  5
158
330
1F
100
AcDbEntity
  8
0
  6
Continuous
 62
     7
370
    25
100
AcDbLine
 10
125.639993775
 20
22.2219778418
 30
0.0
 11
126.3372023548
 21
22.1722771899
 31
0.0
  0
ARC
  5
159
330
1F
100
AcDbEntity
  8
0
  6
Continuous
 62
     7
370
    25
100
AcDbCircle
 10
133.9731985359
 20
29.0306662618
 30
0.0
 40
10.76106591316224
100
AcDbArc
 50
217.5932917526
 51
219.2507197047
  0
LINE
  5
15A
330
1F
100
AcDbEntity
  8
0
  6
Continuous
 62
     7
370
    25
100
AcDbLine
 10
125.5645437585
 20
23.1463609453
 30
0.0
 11
125.446548788
 21
22.4658522002
 31
0.0
  0
LINE
  5
15B
330
1F
100
AcDbEntity
  8
0
  6
Continuous
 62
     7
370
    25
100
AcDbLine
 10
124.8784840412
 20
23.278703769
 30
0.0
 11
125.5645437585
 21
23.1463609453
 31
0.0
  0
ARC
  5
15C
330
1F
100
AcDbEntity
  8
0
  6
Continuous
 62
     7
370
    25
100
AcDbCircle
 10
133.9362193358
 20
29.0047726905
 30
0.0
 40
10.71589632085841
100
AcDbArc
 50
210.6379463504
 51
212.3000287598
  0
LINE
  5
15D
330
1F
100
AcDbEntity
  8
0
  6
Continuous
 62
     7
370
    25
100
AcDbLine
 10
124.916395101
 20
24.2053296051
 30
0.0
 11
124.7162117139
 21
23.5438301517
 31
0.0
  0
LINE
  5
15E
330
1F
100
AcDbEntity
  8
0
  6
Continuous
 62
     7
370
    25
100
AcDbLine
 10
124.2514885419
 20
24.4183847443
 30
0.0
 11
124.916395101
 21
24.2053296051
 31
0.0
  0
ARC
  5
15F
330
1F
100
AcDbEntity
  8
0
  6
Continuous
 62
     7
370
    25
100
AcDbCircle
 10
133.9012086833
 20
28.9860934421
 30
0.0
 40
10.67619134123928
100
AcDbArc
 50
203.6643996907
 51
205.3306005495
  0
LINE
  5
160
330
1F
100
AcDbEntity
  8
0
  6
Continuous
 62
     7
370
    25
100
AcDbLine
 10
124.4022078492
 20
25.3337410217
 30
0.0
 11
124.1227551702
 21
24.7008970116
 31
0.0
  0
LINE
  5
161
330
1F
100
AcDbEntity
  8
0
  6
Continuous
 62
     7
370
    25
100
AcDbLine
 10
123.7681502832
 20
25.6244016527
 30
0.0
 11
124.4022078492
 21
25.3337410217
 31
0.0
  0
ARC
  5
162
330
1F
100
AcDbEntity
  8
0
  6
Continuous
 62
     7
370
    25
100
AcDbCircle
 10
133.8714244766
 20
28.9745631533
 30
0.0
 40
10.64423466050435
100
AcDbArc
 50
196.6755564745
 51
198.345090668
  0
LINE
  5
163
330
1F
100
AcDbEntity
  8
0
  6
Continuous
 62
     7
370
    25
100
AcDbLine
 10
124.0294800113
 20
26.5151404158
 30
0.0
 11
123.6748330896
 21
25.9201801396
 31
0.0
  0
LINE
  5
164
330
1F
100
AcDbEntity
  8
0
  6
Continuous
 62
     7
370
    25
100
AcDbLine
 10
123.4355174253
 20
26.879168052
 30
0.0
 11
124.0294800113
 21
26.5151404158
 31
0.0
  0
LINE
  5
165
330
1F
100
AcDbEntity
  8
0
  6
Continuous
 62
     7
370
    25
100
AcDbLine
 10
135.3535694248
 20
18.7949193902
 30
0.0
 11
135.3535694248
 21
18.1083793433
 31
0.0
  0
LINE
  5
166
330
1F
100
AcDbEntity
  8
0
  6
Continuous
 62
     7
370
    25
100
AcDbLine
 10
135.3535694248
 20
18.1083793433
 30
0.0
 11
134.9160971158
 21
17.6150441838
 31
0.0
  0
LINE
  5
167
330
1F
100
AcDbEntity
  8
0
  6
Continuous
 62
     7
370
    25
100
AcDbLine
 10
133.2899056184
 20
17.6150441838
 30
0.0
 11
132.8524333095
 21
18.1083793433
 31
0.0
  0
LINE
  5
168
330
1F
100
AcDbEntity
  8
0
  6
Continuous
 62
     7
370
    25
100
AcDbLine
 10
132.8524333095
 20
18.7949193902
 30
0.0
 11
132.8524333095
 21
18.1083793433
 31
0.0
  0
LINE
  5
169
330
1F
100
AcDbEntity
  8
0
  6
Continuous
 62
     7
370
    25
100
AcDbLine
 10
135.9088059899
 20
18.3754781642
 30
0.0
 11
135.9088059899
 21
17.7340968575
 31
0.0
  0
LINE
  5
16A
330
1F
100
AcDbEntity
  8
0
  6
Continuous
 62
     7
370
    25
100
AcDbLine
 10
135.9088059899
 20
17.7340968575
 30
0.0
 11
135.3535694248
 21
18.1083793433
 31
0.0
  0
LINE
  5
16B
330
1F
100
AcDbEntity
  8
0
  6
Continuous
 62
     7
370
    25
100
AcDbLine
 10
132.2971967443
 20
18.3754781642
 30
0.0
 11
132.2971967443
 21
17.7340968575
 31
0.0
  0
ARC
  5
16C
330
1F
100
AcDbEntity
  8
0
  6
Continuous
 62
     7
370
    25
100
AcDbCircle
 10
134.1014447949
 20
28.5824970898
 30
0.0
 40
10.99741326981901
100
AcDbArc
 50
258.9237073611
 51
260.5573020338
  0
LINE
  5
16D
330
1F
100
AcDbEntity
  8
0
  6
Continuous
 62
     7
370
    25
100
AcDbLine
 10
131.9886666367
 20
18.4313223006
 30
0.0
 11
131.9886666367
 21
17.789940994
 31
0.0
  0
LINE
  5
16E
330
1F
100
AcDbEntity
  8
0
  6
Continuous
 62
     7
370
    25
100
AcDbLine
 10
136.2173360975
 20
18.4313223006
 30
0.0
 11
136.2173360975
 21
17.789940994
 31
0.0
  0
ARC
  5
16F
330
1F
100
AcDbEntity
  8
0
  6
Continuous
 62
     7
370
    25
100
AcDbCircle
 10
134.1045579393
 20
28.5824970898
 30
0.0
 40
10.99741326982545
100
AcDbArc
 50
279.4426979662
 51
281.0762926389
  0
LINE
  5
170
330
1F
100
AcDbEntity
  8
0
  6
Continuous
 62
     7
370
    25
100
AcDbLine
 10
132.8524333095
 20
18.1083793433
 30
0.0
 11
132.2971967443
 21
17.7340968575
 31
0.0
  0
LINE
  5
171
330
1F
100
AcDbEntity
  8
0
  6
Continuous
 62
     7
370
    25
100
AcDbLine
 10
131.9886666367
 20
17.789940994
 30
0.0
 11
131.6201013501
 21
18.3314321746
 31
0.0
  0
LINE
  5
172
330
1F
100
AcDbEntity
  8
0
  6
Continuous
 62
     7
370
    25
100
AcDbLine
 10
131.6201013501
 20
19.0179722215
 30
0.0
 11
131.6201013501
 21
18.3314321746
 31
0.0
  0
LINE
  5
173
330
1F
100
AcDbEntity
  8
0
  6
Continuous
 62
     7
370
    25
100
AcDbLine
 10
136.5859013841
 20
19.0179722215
 30
0.0
 11
136.5859013841
 21
18.3314321746
 31
0.0
  0
LINE
  5
174
330
1F
100
AcDbEntity
  8
0
  6
Continuous
 62
     7
370
    25
100
AcDbLine
 10
136.5859013841
 20
18.3314321746
 30
0.0
 11
136.2173360975
 21
17.789940994
 31
0.0
  0
LINE
  5
175
330
1F
100
AcDbEntity
  8
0
  6
Continuous
 62
     7
370
    25
100
AcDbLine
 10
137.188277915
 20
18.667691592
 30
0.0
 11
137.188277915
 21
18.0263102853
 31
0.0
  0
LINE
  5
176
330
1F
100
AcDbEntity
  8
0
  6
Continuous
 62
     7
370
    25
100
AcDbLine
 10
137.188277915
 20
18.0263102853
 30
0.0
 11
136.5859013841
 21
18.3314321746
 31
0.0
  0
LINE
  5
177
330
1F
100
AcDbEntity
  8
0
  6
Continuous
 62
     7
370
    25
100
AcDbLine
 10
131.0177248193
 20
18.667691592
 30
0.0
 11
131.0177248193
 21
18.0263102853
 31
0.0
  0
ARC
  5
178
330
1F
100
AcDbEntity
  8
0
  6
Continuous
 62
     7
370
    25
100
AcDbCircle
 10
134.0959973334
 20
28.5605540324
 30
0.0
 40
10.97479170617046
100
AcDbArc
 50
252.0749642252
 51
253.7108030006
  0
LINE
  5
179
330
1F
100
AcDbEntity
  8
0
  6
Continuous
 62
     7
370
    25
100
AcDbLine
 10
130.7182594164
 20
18.759859896
 30
0.0
 11
130.7182594164
 21
18.1184785893
 31
0.0
  0
LINE
  5
17A
330
1F
100
AcDbEntity
  8
0
  6
Continuous
 62
     7
370
    25
100
AcDbLine
 10
131.6201013501
 20
18.3314321746
 30
0.0
 11
131.0177248193
 21
18.0263102853
 31
0.0
  0
LINE
  5
17B
330
1F
100
AcDbEntity
  8
0
  6
Continuous
 62
     7
370
    25
100
AcDbLine
 10
137.4877433178
 20
18.759859896
 30
0.0
 11
137.4877433178
 21
18.1184785893
 31
0.0
  0
ARC
  5
17C
330
1F
100
AcDbEntity
  8
0
  6
Continuous
 62
     7
370
    25
100
AcDbCircle
 10
134.1100054008
 20
28.5605540325
 30
0.0
 40
10.97479170631024
100
AcDbArc
 50
286.2891969994
 51
287.9250357748
  0
LINE
  5
17D
330
1F
100
AcDbEntity
  8
0
  6
Continuous
 62
     7
370
    25
100
AcDbLine
 10
130.7182594164
 20
18.1184785893
 30
0.0
 11
130.423975664
 21
18.6995711144
 31
0.0
  0
LINE
  5
17E
330
1F
100
AcDbEntity
  8
0
  6
Continuous
 62
     7
370
    25
100
AcDbLine
 10
130.423975664
 20
19.3861111613
 30
0.0
 11
130.423975664
 21
18.6995711144
 31
0.0
  0
LINE
  5
17F
330
1F
100
AcDbEntity
  8
0
  6
Continuous
 62
     7
370
    25
100
AcDbLine
 10
137.7820270702
 20
19.3861111613
 30
0.0
 11
137.7820270702
 21
18.6995711144
 31
0.0
  0
LINE
  5
180
330
1F
100
AcDbEntity
  8
0
  6
Continuous
 62
     7
370
    25
100
AcDbLine
 10
137.7820270702
 20
18.6995711144
 30
0.0
 11
137.4877433178
 21
18.1184785893
 31
0.0
  0
LINE
  5
181
330
1F
100
AcDbEntity
  8
0
  6
Continuous
 62
     7
370
    25
100
AcDbLine
 10
129.7832431737
 20
19.1100990085
 30
0.0
 11
129.7832431737
 21
18.4687177018
 31
0.0
  0
ARC
  5
182
330
1F
100
AcDbEntity
  8
0
  6
Continuous
 62
     7
370
    25
100
AcDbCircle
 10
134.0846090017
 20
28.5303985621
 30
0.0
 40
10.94253945482625
100
AcDbArc
 50
245.2142537232
 51
246.8533053488
  0
LINE
  5
183
330
1F
100
AcDbEntity
  8
0
  6
Continuous
 62
     7
370
    25
100
AcDbLine
 10
129.4972093555
 20
19.2372474587
 30
0.0
 11
129.4972093555
 21
18.595866152
 31
0.0
  0
LINE
  5
184
330
1F
100
AcDbEntity
  8
0
  6
Continuous
 62
     7
370
    25
100
AcDbLine
 10
130.423975664
 20
18.6995711144
 30
0.0
 11
129.7832431737
 21
18.4687177018
 31
0.0
  0
LINE
  5
185
330
1F
100
AcDbEntity
  8
0
  6
Continuous
 62
     7
370
    25
100
AcDbLine
 10
138.7087933787
 20
19.2372474587
 30
0.0
 11
138.7087933787
 21
18.595866152
 31
0.0
  0
ARC
  5
186
330
1F
100
AcDbEntity
  8
0
  6
Continuous
 62
     7
370
    25
100
AcDbCircle
 10
134.1213937327
 20
28.5303985616
 30
0.0
 40
10.94253945429917
100
AcDbArc
 50
293.1466946511
 51
294.7857462769
  0
LINE
  5
187
330
1F
100
AcDbEntity
  8
0
  6
Continuous
 62
     7
370
    25
100
AcDbLine
 10
138.4227595605
 20
19.1100990085
 30
0.0
 11
138.4227595605
 21
18.4687177018
 31
0.0
  0
LINE
  5
188
330
1F
100
AcDbEntity
  8
0
  6
Continuous
 62
     7
370
    25
100
AcDbLine
 10
138.4227595605
 20
18.4687177018
 30
0.0
 11
137.7820270702
 21
18.6995711144
 31
0.0
  0
LINE
  5
189
330
1F
100
AcDbEntity
  8
0
  6
Continuous
 62
     7
370
    25
100
AcDbLine
 10
138.9245042771
 20
19.8939679147
 30
0.0
 11
138.9245042771
 21
19.2074278678
 31
0.0
  0
LINE
  5
18A
330
1F
100
AcDbEntity
  8
0
  6
Continuous
 62
     7
370
    25
100
AcDbLine
 10
138.9245042771
 20
19.2074278678
 30
0.0
 11
138.7087933787
 21
18.595866152
 31
0.0
  0
LINE
  5
18B
330
1F
100
AcDbEntity
  8
0
  6
Continuous
 62
     7
370
    25
100
AcDbLine
 10
129.4972093555
 20
18.595866152
 30
0.0
 11
129.2814984572
 21
19.2074278678
 31
0.0
  0
LINE
  5
18C
330
1F
100
AcDbEntity
  8
0
  6
Continuous
 62
     7
370
    25
100
AcDbLine
 10
129.2814984572
 20
19.8939679147
 30
0.0
 11
129.2814984572
 21
19.2074278678
 31
0.0
  0
LINE
  5
18D
330
1F
100
AcDbEntity
  8
0
  6
Continuous
 62
     7
370
    25
100
AcDbLine
 10
139.8626806207
 20
19.856523603
 30
0.0
 11
139.8626806207
 21
19.2151422963
 31
0.0
  0
ARC
  5
18E
330
1F
100
AcDbEntity
  8
0
  6
Continuous
 62
     7
370
    25
100
AcDbCircle
 10
134.1398430085
 20
28.4949514971
 30
0.0
 40
10.90255608279328
100
AcDbArc
 50
300.0189854627
 51
301.6620420636
  0
LINE
  5
18F
330
1F
100
AcDbEntity
  8
0
  6
Continuous
 62
     7
370
    25
100
AcDbLine
 10
139.5942494044
 20
19.6962491173
 30
0.0
 11
139.5942494044
 21
19.0548678106
 31
0.0
  0
LINE
  5
190
330
1F
100
AcDbEntity
  8
0
  6
Continuous
 62
     7
370
    25
100
AcDbLine
 10
139.5942494044
 20
19.0548678106
 30
0.0
 11
138.9245042771
 21
19.2074278678
 31
0.0
  0
LINE
  5
191
330
1F
100
AcDbEntity
  8
0
  6
Continuous
 62
     7
370
    25
100
AcDbLine
 10
128.6117533299
 20
19.6962491173
 30
0.0
 11
128.6117533299
 21
19.0548678106
 31
0.0
  0
ARC
  5
192
330
1F
100
AcDbEntity
  8
0
  6
Continuous
 62
     7
370
    25
100
AcDbCircle
 10
134.0661597256
 20
28.4949514968
 30
0.0
 40
10.90255608249585
100
AcDbArc
 50
238.3379579364
 51
239.9810145374
  0
LINE
  5
193
330
1F
100
AcDbEntity
  8
0
  6
Continuous
 62
     7
370
    25
100
AcDbLine
 10
128.3433221135
 20
19.856523603
 30
0.0
 11
128.3433221135
 21
19.2151422963
 31
0.0
  0
LINE
  5
194
330
1F
100
AcDbEntity
  8
0
  6
Continuous
 62
     7
370
    25
100
AcDbLine
 10
129.2814984572
 20
19.2074278678
 30
0.0
 11
128.6117533299
 21
19.0548678106
 31
0.0
  0
LINE
  5
195
330
1F
100
AcDbEntity
  8
0
  6
Continuous
 62
     7
370
    25
100
AcDbLine
 10
139.9966731144
 20
20.5341367867
 30
0.0
 11
139.9966731144
 21
19.8475967398
 31
0.0
  0
LINE
  5
196
330
1F
100
AcDbEntity
  8
0
  6
Continuous
 62
     7
370
    25
100
AcDbLine
 10
139.9966731144
 20
19.8475967398
 30
0.0
 11
139.8626806207
 21
19.2151422963
 31
0.0
  0
LINE
  5
197
330
1F
100
AcDbEntity
  8
0
  6
Continuous
 62
     7
370
    25
100
AcDbLine
 10
128.3433221135
 20
19.2151422963
 30
0.0
 11
128.2093296198
 21
19.8475967398
 31
0.0
  0
LINE
  5
198
330
1F
100
AcDbEntity
  8
0
  6
Continuous
 62
     7
370
    25
100
AcDbLine
 10
128.2093296198
 20
20.5341367867
 30
0.0
 11
128.2093296198
 21
19.8475967398
 31
0.0
  0
LINE
  5
199
330
1F
100
AcDbEntity
  8
0
  6
Continuous
 62
     7
370
    25
100
AcDbLine
 10
140.9325787695
 20
20.6086578883
 30
0.0
 11
140.9325787695
 21
19.9672765816
 31
0.0
  0
ARC
  5
19A
330
1F
100
AcDbEntity
  8
0
  6
Continuous
 62
     7
370
    25
100
AcDbCircle
 10
134.1654177871
 20
28.4575113465
 30
0.0
 40
10.85718905263733
100
AcDbArc
 50
306.9090466333
 51
308.5566772191
  0
LINE
  5
19B
330
1F
100
AcDbEntity
  8
0
  6
Continuous
 62
     7
370
    25
100
AcDbLine
 10
140.6856644866
 20
20.4175945301
 30
0.0
 11
140.6856644866
 21
19.7762132234
 31
0.0
  0
LINE
  5
19C
330
1F
100
AcDbEntity
  8
0
  6
Continuous
 62
     7
370
    25
100
AcDbLine
 10
128.2093296198
 20
19.8475967398
 30
0.0
 11
127.5203382476
 21
19.7762132234
 31
0.0
  0
LINE
  5
19D
330
1F
100
AcDbEntity
  8
0
  6
Continuous
 62
     7
370
    25
100
AcDbLine
 10
127.5203382476
 20
20.4175945301
 30
0.0
 11
127.5203382476
 21
19.7762132234
 31
0.0
  0
LINE
  5
19E
330
1F
100
AcDbEntity
  8
0
  6
Continuous
 62
     7
370
    25
100
AcDbLine
 10
140.6856644866
 20
19.7762132234
 30
0.0
 11
139.9966731144
 21
19.8475967398
 31
0.0
  0
ARC
  5
19F
330
1F
100
AcDbEntity
  8
0
  6
Continuous
 62
     7
370
    25
100
AcDbCircle
 10
134.0405849472
 20
28.4575113466
 30
0.0
 40
10.85718905274144
100
AcDbArc
 50
231.4433227809
 51
233.0909533667
  0
LINE
  5
1A0
330
1F
100
AcDbEntity
  8
0
  6
Continuous
 62
     7
370
    25
100
AcDbLine
 10
127.2734239647
 20
20.6086578883
 30
0.0
 11
127.2734239647
 21
19.9672765816
 31
0.0
  0
LINE
  5
1A1
330
1F
100
AcDbEntity
  8
0
  6
Continuous
 62
     7
370
    25
100
AcDbLine
 10
127.2734239647
 20
19.9672765816
 30
0.0
 11
127.2231037879
 21
20.6107426267
 31
0.0
  0
LINE
  5
1A2
330
1F
100
AcDbEntity
  8
0
  6
Continuous
 62
     7
370
    25
100
AcDbLine
 10
127.2231037879
 20
21.2972826736
 30
0.0
 11
127.2231037879
 21
20.6107426267
 31
0.0
  0
LINE
  5
1A3
330
1F
100
AcDbEntity
  8
0
  6
Continuous
 62
     7
370
    25
100
AcDbLine
 10
140.9828989464
 20
21.2972826736
 30
0.0
 11
140.9828989464
 21
20.6107426267
 31
0.0
  0
LINE
  5
1A4
330
1F
100
AcDbEntity
  8
0
  6
Continuous
 62
     7
370
    25
100
AcDbLine
 10
140.9828989464
 20
20.6107426267
 30
0.0
 11
140.9325787695
 21
19.9672765816
 31
0.0
  0
LINE
  5
1A5
330
1F
100
AcDbEntity
  8
0
  6
Continuous
 62
     7
370
    25
100
AcDbLine
 10
127.2231037879
 20
20.6107426267
 30
0.0
 11
126.5249132165
 21
20.6222350996
 31
0.0
  0
LINE
  5
1A6
330
1F
100
AcDbEntity
  8
0
  6
Continuous
 62
     7
370
    25
100
AcDbLine
 10
126.5249132165
 20
21.2636164062
 30
0.0
 11
126.5249132165
 21
20.6222350996
 31
0.0
  0
LINE
  5
1A7
330
1F
100
AcDbEntity
  8
0
  6
Continuous
 62
     7
370
    25
100
AcDbLine
 10
141.902886301
 20
21.482682503
 30
0.0
 11
141.902886301
 21
20.8413011964
 31
0.0
  0
ARC
  5
1A8
330
1F
100
AcDbEntity
  8
0
  6
Continuous
 62
     7
370
    25
100
AcDbCircle
 10
134.1970828137
 20
28.4213446909
 30
0.0
 40
10.80909185655023
100
AcDbArc
 50
313.8188594746
 51
315.471374223
  0
LINE
  5
1A9
330
1F
100
AcDbEntity
  8
0
  6
Continuous
 62
     7
370
    25
100
AcDbLine
 10
141.6810895177
 20
21.2636164062
 30
0.0
 11
141.6810895177
 21
20.6222350996
 31
0.0
  0
LINE
  5
1AA
330
1F
100
AcDbEntity
  8
0
  6
Continuous
 62
     7
370
    25
100
AcDbLine
 10
141.6810895177
 20
20.6222350996
 30
0.0
 11
140.9828989464
 21
20.6107426267
 31
0.0
  0
ARC
  5
1AB
330
1F
100
AcDbEntity
  8
0
  6
Continuous
 62
     7
370
    25
100
AcDbCircle
 10
134.0089199202
 20
28.4213446907
 30
0.0
 40
10.80909185616348
100
AcDbArc
 50
224.5286257769
 51
226.1811405255
  0
LINE
  5
1AC
330
1F
100
AcDbEntity
  8
0
  6
Continuous
 62
     7
370
    25
100
AcDbLine
 10
126.3031164332
 20
21.482682503
 30
0.0
 11
126.3031164332
 21
20.8413011964
 31
0.0
  0
LINE
  5
1AD
330
1F
100
AcDbEntity
  8
0
  6
Continuous
 62
     7
370
    25
100
AcDbLine
 10
126.3069556225
 20
21.4898523916
 30
0.0
 11
125.639993775
 21
21.5805965352
 31
0.0
  0
LINE
  5
1AE
330
1F
100
AcDbEntity
  8
0
  6
Continuous
 62
     7
370
    25
100
AcDbLine
 10
125.639993775
 20
22.2219778418
 30
0.0
 11
125.639993775
 21
21.5805965352
 31
0.0
  0
LINE
  5
1AF
330
1F
100
AcDbEntity
  8
0
  6
Continuous
 62
     7
370
    25
100
AcDbLine
 10
142.5660089592
 20
22.2219778418
 30
0.0
 11
142.5660089592
 21
21.5805965352
 31
0.0
  0
LINE
  5
1B0
330
1F
100
AcDbEntity
  8
0
  6
Continuous
 62
     7
370
    25
100
AcDbLine
 10
142.5660089592
 20
21.5805965352
 30
0.0
 11
141.8990471117
 21
21.4898523916
 31
0.0
  0
ARC
  5
1B1
330
1F
100
AcDbEntity
  8
0
  6
Continuous
 62
     7
370
    25
100
AcDbCircle
 10
133.9731985359
 20
28.3892849551
 30
0.0
 40
10.76106591315276
100
AcDbArc
 50
217.5932917526
 51
219.2507197047
  0
LINE
  5
1B2
330
1F
100
AcDbEntity
  8
0
  6
Continuous
 62
     7
370
    25
100
AcDbLine
 10
125.446548788
 20
22.4658522002
 30
0.0
 11
125.446548788
 21
21.8244708935
 31
0.0
  0
LINE
  5
1B3
330
1F
100
AcDbEntity
  8
0
  6
Continuous
 62
     7
370
    25
100
AcDbLine
 10
142.7594539463
 20
22.4658522002
 30
0.0
 11
142.7594539463
 21
21.8244708935
 31
0.0
  0
ARC
  5
1B4
330
1F
100
AcDbEntity
  8
0
  6
Continuous
 62
     7
370
    25
100
AcDbCircle
 10
134.2328041982
 20
28.3892849553
 30
0.0
 40
10.7610659133504
100
AcDbArc
 50
320.7492802953
 51
322.4067082474
  0
LINE
  5
1B5
330
1F
100
AcDbEntity
  8
0
  6
Continuous
 62
     7
370
    25
100
AcDbLine
 10
125.4506140216
 20
22.4892974963
 30
0.0
 11
124.8784840412
 21
22.6373224624
 31
0.0
  0
LINE
  5
1B6
330
1F
100
AcDbEntity
  8
0
  6
Continuous
 62
     7
370
    25
100
AcDbLine
 10
124.8784840412
 20
23.278703769
 30
0.0
 11
124.8784840412
 21
22.6373224624
 31
0.0
  0
LINE
  5
1B7
330
1F
100
AcDbEntity
  8
0
  6
Continuous
 62
     7
370
    25
100
AcDbLine
 10
143.327518693
 20
23.278703769
 30
0.0
 11
143.327518693
 21
22.6373224624
 31
0.0
  0
LINE
  5
1B8
330
1F
100
AcDbEntity
  8
0
  6
Continuous
 62
     7
370
    25
100
AcDbLine
 10
143.327518693
 20
22.6373224624
 30
0.0
 11
142.7553887126
 21
22.4892974963
 31
0.0
  0
ARC
  5
1B9
330
1F
100
AcDbEntity
  8
0
  6
Continuous
 62
     7
370
    25
100
AcDbCircle
 10
133.9362193359
 20
28.3633913839
 30
0.0
 40
10.71589632098991
100
AcDbArc
 50
210.6379463504
 51
212.3000287598
  0
LINE
  5
1BA
330
1F
100
AcDbEntity
  8
0
  6
Continuous
 62
     7
370
    25
100
AcDbLine
 10
124.7162117139
 20
23.5438301517
 30
0.0
 11
124.7162117139
 21
22.902448845
 31
0.0
  0
LINE
  5
1BB
330
1F
100
AcDbEntity
  8
0
  6
Continuous
 62
     7
370
    25
100
AcDbLine
 10
143.4897910203
 20
23.5438301517
 30
0.0
 11
143.4897910203
 21
22.902448845
 31
0.0
  0
ARC
  5
1BC
330
1F
100
AcDbEntity
  8
0
  6
Continuous
 62
     7
370
    25
100
AcDbCircle
 10
134.2697833983
 20
28.3633913839
 30
0.0
 40
10.71589632101986
100
AcDbArc
 50
327.6999712402
 51
329.3620536496
  0
LINE
  5
1BD
330
1F
100
AcDbEntity
  8
0
  6
Continuous
 62
     7
370
    25
100
AcDbLine
 10
124.7304826346
 20
23.5909879423
 30
0.0
 11
124.2514885419
 21
23.7770034377
 31
0.0
  0
LINE
  5
1BE
330
1F
100
AcDbEntity
  8
0
  6
Continuous
 62
     7
370
    25
100
AcDbLine
 10
124.2514885419
 20
24.4183847443
 30
0.0
 11
124.2514885419
 21
23.7770034377
 31
0.0
  0
LINE
  5
1BF
330
1F
100
AcDbEntity
  8
0
  6
Continuous
 62
     7
370
    25
100
AcDbLine
 10
143.9545141923
 20
24.4183847443
 30
0.0
 11
143.9545141923
 21
23.7770034377
 31
0.0
  0
LINE
  5
1C0
330
1F
100
AcDbEntity
  8
0
  6
Continuous
 62
     7
370
    25
100
AcDbLine
 10
143.9545141923
 20
23.7770034377
 30
0.0
 11
143.4755200996
 21
23.5909879423
 31
0.0
  0
ARC
  5
1C1
330
1F
100
AcDbEntity
  8
0
  6
Continuous
 62
     7
370
    25
100
AcDbCircle
 10
133.9012086833
 20
28.3447121354
 30
0.0
 40
10.67619134127795
100
AcDbArc
 50
203.6643996907
 51
205.3306005495
  0
LINE
  5
1C2
330
1F
100
AcDbEntity
  8
0
  6
Continuous
 62
     7
370
    25
100
AcDbLine
 10
124.1227551702
 20
24.7008970116
 30
0.0
 11
124.1227551702
 21
24.0595157049
 31
0.0
  0
LINE
  5
1C3
330
1F
100
AcDbEntity
  8
0
  6
Continuous
 62
     7
370
    25
100
AcDbLine
 10
144.083247564
 20
24.7008970116
 30
0.0
 11
144.083247564
 21
24.0595157049
 31
0.0
  0
ARC
  5
1C4
330
1F
100
AcDbEntity
  8
0
  6
Continuous
 62
     7
370
    25
100
AcDbCircle
 10
134.3047940508
 20
28.3447121355
 30
0.0
 40
10.67619134135055
100
AcDbArc
 50
334.6693994505
 51
336.3356003093
  0
LINE
  5
1C5
330
1F
100
AcDbEntity
  8
0
  6
Continuous
 62
     7
370
    25
100
AcDbLine
 10
124.1565077153
 20
24.7773324785
 30
0.0
 11
123.7681502832
 21
24.9830203461
 31
0.0
  0
LINE
  5
1C6
330
1F
100
AcDbEntity
  8
0
  6
Continuous
 62
     7
370
    25
100
AcDbLine
 10
123.7681502832
 20
25.6244016527
 30
0.0
 11
123.7681502832
 21
24.9830203461
 31
0.0
  0
LINE
  5
1C7
330
1F
100
AcDbEntity
  8
0
  6
Continuous
 62
     7
370
    25
100
AcDbLine
 10
144.437852451
 20
25.6244016527
 30
0.0
 11
144.437852451
 21
24.9830203461
 31
0.0
  0
LINE
  5
1C8
330
1F
100
AcDbEntity
  8
0
  6
Continuous
 62
     7
370
    25
100
AcDbLine
 10
144.437852451
 20
24.9830203461
 30
0.0
 11
144.0494950189
 21
24.7773324785
 31
0.0
  0
ARC
  5
1C9
330
1F
100
AcDbEntity
  8
0
  6
Continuous
 62
     7
370
    25
100
AcDbCircle
 10
133.8714244766
 20
28.3331818466
 30
0.0
 40
10.64423466045047
100
AcDbArc
 50
196.6755564745
 51
198.345090668
  0
LINE
  5
1CA
330
1F
100
AcDbEntity
  8
0
  6
Continuous
 62
     7
370
    25
100
AcDbLine
 10
123.6748330896
 20
25.9201801396
 30
0.0
 11
123.6748330896
 21
25.2787988329
 31
0.0
  0
LINE
  5
1CB
330
1F
100
AcDbEntity
  8
0
  6
Continuous
 62
     7
370
    25
100
AcDbLine
 10
144.5311696446
 20
25.9201801396
 30
0.0
 11
144.5311696446
 21
25.2787988329
 31
0.0
  0
ARC
  5
1CC
330
1F
100
AcDbEntity
  8
0
  6
Continuous
 62
     7
370
    25
100
AcDbCircle
 10
134.3345782576
 20
28.3331818466
 30
0.0
 40
10.64423466045859
100
AcDbArc
 50
341.654909332
 51
343.3244435255
  0
LINE
  5
1CD
330
1F
100
AcDbEntity
  8
0
  6
Continuous
 62
     7
370
    25
100
AcDbLine
 10
123.7393749733
 20
26.0284564408
 30
0.0
 11
123.4355174253
 21
26.2377867454
 31
0.0
  0
LINE
  5
1CE
330
1F
100
AcDbEntity
  8
0
  6
Continuous
 62
     7
370
    25
100
AcDbLine
 10
123.4355174253
 20
26.879168052
 30
0.0
 11
123.4355174253
 21
26.2377867454
 31
0.0
  0
LINE
  5
1CF
330
1F
100
AcDbEntity
  8
0
  6
Continuous
 62
     7
370
    25
100
AcDbLine
 10
144.7704853089
 20
26.879168052
 30
0.0
 11
144.7704853089
 21
26.2377867454
 31
0.0
  0
LINE
  5
1D0
330
1F
100
AcDbEntity
  8
0
  6
Continuous
 62
     7
370
    25
100
AcDbLine
 10
144.7704853089
 20
26.2377867454
 30
0.0
 11
144.4666277609
 21
26.0284564408
 31
0.0
  0
LINE
  5
1D1
330
1F
100
AcDbEntity
  8
0
  6
Continuous
 62
     7
370
    25
100
AcDbLine
 10
144.8270255495
 20
27.1838996421
 30
0.0
 11
144.8270255495
 21
26.5425183354
 31
0.0
  0
ARC
  5
1D2
330
1F
100
AcDbEntity
  8
0
  6
Continuous
 62
     7
370
    25
100
AcDbCircle
 10
134.3562511598
 20
28.3276664818
 30
0.0
 40
10.6218581342476
100
AcDbArc
 50
348.6528677481
 51
350.3247459359
  0
LINE
  5
1D3
330
1F
100
AcDbEntity
  8
0
  6
Continuous
 62
     7
370
    25
100
AcDbLine
 10
123.3789771847
 20
27.1838996421
 30
0.0
 11
123.3789771847
 21
26.5425183354
 31
0.0
  0
ARC
  5
1D4
330
1F
100
AcDbEntity
  8
0
  6
Continuous
 62
     7
370
    25
100
AcDbCircle
 10
133.8497515746
 20
28.3276664818
 30
0.0
 40
10.62185813446422
100
AcDbArc
 50
189.6752540642
 51
191.3471322519
  0
LINE
  5
1D5
330
1F
100
AcDbEntity
  8
0
  6
Continuous
 62
     7
370
    25
100
AcDbLine
 10
144.9475622297
 20
28.1643866226
 30
0.0
 11
144.9475622297
 21
27.523005316
 31
0.0
  0
LINE
  5
1D6
330
1F
100
AcDbEntity
  8
0
  6
Continuous
 62
     7
370
    25
100
AcDbLine
 10
144.9475622297
 20
27.523005316
 30
0.0
 11
144.7192148127
 21
27.3231219449
 31
0.0
  0
LINE
  5
1D7
330
1F
100
AcDbEntity
  8
0
  6
Continuous
 62
     7
370
    25
100
AcDbLine
 10
123.4867879215
 20
27.3231219449
 30
0.0
 11
123.2584405045
 21
27.523005316
 31
0.0
  0
LINE
  5
1D8
330
1F
100
AcDbEntity
  8
0
  6
Continuous
 62
     7
370
    25
100
AcDbLine
 10
123.2584405045
 20
28.1643866226
 30
0.0
 11
123.2584405045
 21
27.523005316
 31
0.0
  0
LINE
  5
1D9
330
1F
100
AcDbEntity
  8
0
  6
Continuous
 62
     7
370
    25
100
AcDbLine
 10
123.2395017008
 20
28.4736276431
 30
0.0
 11
123.2395017008
 21
27.8322463364
 31
0.0
  0
ARC
  5
1DA
330
1F
100
AcDbEntity
  8
0
  6
Continuous
 62
     7
370
    25
100
AcDbCircle
 10
133.8383412373
 20
28.3261491098
 30
0.0
 40
10.61034115713269
100
AcDbArc
 50
182.6680361771
 51
184.3411240064
  0
LINE
  5
1DB
330
1F
100
AcDbEntity
  8
0
  6
Continuous
 62
     7
370
    25
100
AcDbLine
 10
144.9665010334
 20
28.4736276431
 30
0.0
 11
144.9665010334
 21
27.8322463364
 31
0.0
  0
ARC
  5
1DC
330
1F
100
AcDbEntity
  8
0
  6
Continuous
 62
     7
370
    25
100
AcDbCircle
 10
134.3676614969
 20
28.3261491098
 30
0.0
 40
10.61034115708003
100
AcDbArc
 50
355.6588759936
 51
357.3319638229
  0
LINE
  5
1DD
330
1F
100
AcDbEntity
  8
0
  6
Continuous
 62
     7
370
    25
100
AcDbLine
 10
144.9665010334
 20
29.4613159837
 30
0.0
 11
144.9665010334
 21
28.819934677
 31
0.0
  0
LINE
  5
1DE
330
1F
100
AcDbEntity
  8
0
  6
Continuous
 62
     7
370
    25
100
AcDbLine
 10
144.9665010334
 20
28.819934677
 30
0.0
 11
144.8027102132
 21
28.6392104414
 31
0.0
  0
LINE
  5
1DF
330
1F
100
AcDbEntity
  8
0
  6
Continuous
 62
     7
370
    25
100
AcDbLine
 10
123.403292521
 20
28.6392104414
 30
0.0
 11
123.2395017008
 21
28.819934677
 31
0.0
  0
LINE
  5
1E0
330
1F
100
AcDbEntity
  8
0
  6
Continuous
 62
     7
370
    25
100
AcDbLine
 10
123.2395017008
 20
29.4613159837
 30
0.0
 11
123.2395017008
 21
28.819934677
 31
0.0
  0
LINE
  5
1E1
330
1F
100
AcDbEntity
  8
0
  6
Continuous
 62
     7
370
    25
100
AcDbLine
 10
123.4901890885
 20
29.9542221398
 30
0.0
 11
123.3789771847
 21
30.109662678
 31
0.0
  0
LINE
  5
1E2
330
1F
100
AcDbEntity
  8
0
  6
Continuous
 62
     7
370
    25
100
AcDbLine
 10
123.3789771847
 20
30.7510439847
 30
0.0
 11
123.3789771847
 21
30.109662678
 31
0.0
  0
LINE
  5
1E3
330
1F
100
AcDbEntity
  8
0
  6
Continuous
 62
     7
370
    25
100
AcDbLine
 10
144.8270255495
 20
30.7510439847
 30
0.0
 11
144.8270255495
 21
30.109662678
 31
0.0
  0
LINE
  5
1E4
330
1F
100
AcDbEntity
  8
0
  6
Continuous
 62
     7
370
    25
100
AcDbLine
 10
144.8270255495
 20
30.109662678
 30
0.0
 11
144.7158136457
 21
29.9542221398
 31
0.0
  0
LINE
  5
1E5
330
1F
100
AcDbEntity
  8
0
  6
Continuous
 62
     7
370
    25
100
AcDbLine
 10
123.7455308185
 20
31.2457765031
 30
0.0
 11
123.6748330896
 21
31.3733821805
 31
0.0
  0
LINE
  5
1E6
330
1F
100
AcDbEntity
  8
0
  6
Continuous
 62
     7
370
    25
100
AcDbLine
 10
123.6748330896
 20
32.0147634872
 30
0.0
 11
123.6748330896
 21
31.3733821805
 31
0.0
  0
LINE
  5
1E7
330
1F
100
AcDbEntity
  8
0
  6
Continuous
 62
     7
370
    25
100
AcDbLine
 10
144.5311696446
 20
32.0147634872
 30
0.0
 11
144.5311696446
 21
31.3733821805
 31
0.0
  0
LINE
  5
1E8
330
1F
100
AcDbEntity
  8
0
  6
Continuous
 62
     7
370
    25
100
AcDbLine
 10
144.5311696446
 20
31.3733821805
 30
0.0
 11
144.4604719157
 21
31.2457765031
 31
0.0
  0
LINE
  5
1E9
330
1F
100
AcDbEntity
  8
0
  6
Continuous
 62
     7
370
    25
100
AcDbLine
 10
124.1642055785
 20
32.49209912
 30
0.0
 11
124.1227551702
 21
32.5926653085
 31
0.0
  0
LINE
  5
1EA
330
1F
100
AcDbEntity
  8
0
  6
Continuous
 62
     7
370
    25
100
AcDbLine
 10
124.1227551702
 20
33.2340466152
 30
0.0
 11
124.1227551702
 21
32.5926653085
 31
0.0
  0
LINE
  5
1EB
330
1F
100
AcDbEntity
  8
0
  6
Continuous
 62
     7
370
    25
100
AcDbLine
 10
144.083247564
 20
33.2340466152
 30
0.0
 11
144.083247564
 21
32.5926653085
 31
0.0
  0
LINE
  5
1EC
330
1F
100
AcDbEntity
  8
0
  6
Continuous
 62
     7
370
    25
100
AcDbLine
 10
144.083247564
 20
32.5926653085
 30
0.0
 11
144.0417971557
 21
32.49209912
 31
0.0
  0
ARC
  5
1ED
330
1F
100
AcDbEntity
  8
0
  6
Continuous
 62
     7
370
    25
100
AcDbCircle
 10
134.1030013671
 20
169.1987965386
 30
0.0
 40
8.600000000000023
100
AcDbArc
 50
0.0
 51
180.0
  0
SPLINE
  5
1EE
330
1F
100
AcDbEntity
  8
0
  6
Continuous
 62
     7
370
    25
100
AcDbSpline
210
0.0
220
0.0
230
1.0
 70
     8
 71
     3
 72
    18
 73
    14
 74
     0
 42
0.00000001
 43
0.00000001
 40
0.0
 40
0.0
 40
0.0
 40
0.0
 40
0.0705093946359294
 40
0.1778721506410478
 40
0.2852333544672577
 40
0.3925935002359833
 40
0.4999535169517784
 40
0.5671492071779094
 40
0.6745109183226158
 40
0.7818743002180313
 40
0.889239198738869
 40
0.9966047458765736
 40
1.0
 40
1.0
 40
1.0
 40
1.0
 10
125.6129974101695
 20
33.1792797031293
 30
0.0
 10
125.610237190865
 20
32.55108670215736
 30
0.0
 10
125.6032740599736
 20
30.96636113930891
 30
0.0
 10
126.6950696071343
 20
28.59013525005351
 30
0.0
 10
128.6215744886964
 20
26.42075376986543
 30
0.0
 10
131.202804841547
 20
25.01301303738186
 30
0.0
 10
133.7435370550659
 20
24.58742648619629
 30
0.0
 10
136.2735594922624
 20
24.85117432821284
 30
0.0
 10
138.6643591393576
 20
25.79112462562123
 30
0.0
 10
140.906488314304
 20
27.70104551653814
 30
0.0
 10
142.271087917544
 20
30.21626677060559
 30
0.0
 10
142.8539071485618
 20
32.17439124694256
 30
0.0
 10
142.6930721513448
 20
33.14159082512521
 30
0.0
 10
142.6881419261994
 20
33.17123929569062
 30
0.0
  0
ARC
  5
1EF
330
1F
100
AcDbEntity
  8
0
  6
Continuous
 62
     7
370
    25
100
AcDbCircle
 10
134.1030013671
 20
32.8172497028
 30
0.0
 40
9.569248648067077
100
AcDbArc
 50
153.9892977173
 51
26.0107022827
  0
ARC
  5
1F0
330
1F
100
AcDbEntity
  8
0
  6
Continuous
 62
     7
370
    25
100
AcDbCircle
 10
134.1030013671
 20
29.2978298323
 30
0.0
 40
9.60047705585236
100
AcDbArc
 50
180.5711861071
 51
359.4288138929
  0
LINE
  5
1F1
330
1F
100
AcDbEntity
  8
0
  6
Continuous
 62
     7
370
    25
100
AcDbLine
 10
132.5356287587
 20
177.5996288907
 30
0.0
 11
131.9972241362
 21
177.5370039151
 31
0.0
  0
LINE
  5
1F2
330
1F
100
AcDbEntity
  8
0
  6
Continuous
 62
     7
370
    25
100
AcDbLine
 10
218.4028953804
 20
166.5987965386
 30
0.0
 11
218.3854169191
 21
166.5987965386
 31
0.0
  0
LINE
  5
1F3
330
1F
100
AcDbEntity
  8
0
  6
Continuous
 62
     7
370
    25
100
AcDbLine
 10
218.3854169191
 20
171.7987965386
 30
0.0
 11
218.4028953804
 21
171.7987965386
 31
0.0
  0
ARC
  5
1F4
330
1F
100
AcDbEntity
  8
0
  6
Continuous
 62
     7
370
    25
100
AcDbCircle
 10
208.0957667793
 20
169.1987965386
 30
0.0
 40
10.61305328357491
100
AcDbArc
 50
7.3079276166
 51
14.1807309007
  0
SPLINE
  5
1F5
330
1F
100
AcDbEntity
  8
0
  6
Continuous
 62
     7
370
    25
100
AcDbSpline
210
0.0
220
0.0
230
1.0
 70
     8
 71
     3
 72
    12
 73
     8
 74
     0
 42
0.00000001
 43
0.00000001
 40
0.0
 40
0.0
 40
0.0
 40
0.0
 40
0.2133534395476195
 40
0.4267919313634604
 40
0.6383539739091532
 40
0.8490950351927729
 40
0.9999999999999999
 40
0.9999999999999999
 40
0.9999999999999999
 40
0.9999999999999999
 10
218.6226086609058
 20
169.7987965386135
 30
0.0
 10
218.6322678046331
 20
169.8068980987295
 30
0.0
 10
218.6515899426566
 20
169.8231044486074
 30
0.0
 10
218.6639030126647
 20
169.9505055736233
 30
0.0
 10
218.6615655723679
 20
170.1378995895291
 30
0.0
 10
218.6464480533542
 20
170.3488756148203
 30
0.0
 10
218.6296274409732
 20
170.4899359364393
 30
0.0
 10
218.6226086609058
 20
170.5487965386134
 30
0.0
  0
LINE
  5
1F6
330
1F
100
AcDbEntity
  8
0
  6
Continuous
 62
     7
370
    25
100
AcDbLine
 10
218.3854169191
 20
169.7987965386
 30
0.0
 11
218.6226086609
 21
169.7987965386
 31
0.0
  0
ARC
  5
1F7
330
1F
100
AcDbEntity
  8
0
  6
Continuous
 62
     7
370
    25
100
AcDbCircle
 10
208.0957667793
 20
169.1987965386
 30
0.0
 40
10.30712860111874
100
AcDbArc
 50
356.6628035549
 51
3.3371964451
  0
LINE
  5
1F8
330
1F
100
AcDbEntity
  8
0
  6
Continuous
 62
     7
370
    25
100
AcDbLine
 10
218.6226086609
 20
168.5987965386
 30
0.0
 11
218.3854169191
 21
168.5987965386
 31
0.0
  0
SPLINE
  5
1F9
330
1F
100
AcDbEntity
  8
0
  6
Continuous
 62
     7
370
    25
100
AcDbSpline
210
0.0
220
0.0
230
1.0
 70
     8
 71
     3
 72
    12
 73
     8
 74
     0
 42
0.00000001
 43
0.00000001
 40
0.0
 40
0.0
 40
0.0
 40
0.0
 40
0.2133534395476153
 40
0.4267919313634484
 40
0.6383539739091478
 40
0.8490950351927498
 40
1.0
 40
1.0
 40
1.0
 40
1.0
 10
218.6226086609058
 20
167.8487965386134
 30
0.0
 10
218.6322678046332
 20
167.9322903267706
 30
0.0
 10
218.6515899426566
 20
168.0993111874608
 30
0.0
 10
218.6639030126647
 20
168.3231479490582
 30
0.0
 10
218.661565572368
 20
168.4922336699355
 30
0.0
 10
218.6464480533541
 20
168.5848952561455
 30
0.0
 10
218.6296274409732
 20
168.5947037311097
 30
0.0
 10
218.6226086609058
 20
168.5987965386135
 30
0.0
  0
ARC
  5
1FA
330
1F
100
AcDbEntity
  8
0
  6
Continuous
 62
     7
370
    25
100
AcDbCircle
 10
208.0957667793
 20
169.1987965386
 30
0.0
 40
10.61305328357492
100
AcDbArc
 50
345.8192690993
 51
352.6920723834
  0
LINE
  5
1FB
330
1F
100
AcDbEntity
  8
0
  6
Continuous
 62
     7
370
    25
100
AcDbLine
 10
213.7228202335
 20
166.4420162817
 30
0.0
 11
213.9915308161
 21
166.4464547348
 31
0.0
  0
LINE
  5
1FC
330
1F
100
AcDbEntity
  8
0
  6
Continuous
 62
     7
370
    25
100
AcDbLine
 10
213.7228202335
 20
171.9555767955
 30
0.0
 11
213.7228202335
 21
166.4420162817
 31
0.0
  0
LINE
  5
1FD
330
1F
100
AcDbEntity
  8
0
  6
Continuous
 62
     7
370
    25
100
AcDbLine
 10
213.9915308161
 20
171.9511383425
 30
0.0
 11
213.7228202335
 21
171.9555767955
 31
0.0
  0
SPLINE
  5
1FE
330
1F
100
AcDbEntity
  8
0
  6
Continuous
 62
     7
370
    25
100
AcDbSpline
210
0.0
220
0.0
230
1.0
 70
     8
 71
     3
 72
    11
 73
     7
 74
     0
 42
0.00000001
 43
0.00000001
 40
0.0
 40
0.0
 40
0.0
 40
0.0
 40
0.0800485240044427
 40
0.5000005853538806
 40
0.9209248322279652
 40
1.0
 40
1.0
 40
1.0
 40
1.0
 10
213.9915308161151
 20
166.4464547347696
 30
0.0
 10
214.0079297476192
 20
166.5926991598703
 30
0.0
 10
214.1103610597912
 20
167.5061738187033
 30
0.0
 10
214.1811540837606
 20
169.200583406462
 30
0.0
 10
214.1102464074012
 20
170.8932102583167
 30
0.0
 10
214.0077419495053
 20
171.8066736339605
 30
0.0
 10
213.9915308161158
 20
171.9511383424517
 30
0.0
  0
SPLINE
  5
1FF
330
1F
100
AcDbEntity
  8
0
  6
Continuous
 62
     7
370
    25
100
AcDbSpline
210
0.0
220
0.0
230
1.0
 70
     8
 71
     3
 72
    12
 73
     8
 74
     0
 42
0.00000001
 43
0.00000001
 40
0.0
 40
0.0
 40
0.0
 40
0.0
 40
0.1224290494151363
 40
0.342352244977049
 40
0.5614228816909438
 40
0.7807229538533524
 40
1.0
 40
1.0
 40
1.0
 40
1.0
 10
213.9915308161151
 20
166.4464547347696
 30
0.0
 10
214.1152943395076
 20
166.4440960503288
 30
0.0
 10
214.4613782165133
 20
166.437500386004
 30
0.0
 10
215.0024284506109
 20
166.4204924182647
 30
0.0
 10
215.51604860982
 20
166.3949814441104
 30
0.0
 10
215.8725290741801
 20
166.365429261551
 30
0.0
 10
215.9283033179356
 20
166.345662984672
 30
0.0
 10
215.9561889756939
 20
166.3357803651134
 30
0.0
  0
SPLINE
  5
200
330
1F
100
AcDbEntity
  8
0
  6
Continuous
 62
     7
370
    25
100
AcDbSpline
210
0.0
220
0.0
230
1.0
 70
     8
 71
     3
 72
    12
 73
     8
 74
     0
 42
0.00000001
 43
0.00000001
 40
0.0
 40
0.0
 40
0.0
 40
0.0
 40
0.113036747616928
 40
0.3328594693547964
 40
0.5544127937944966
 40
0.7774207483513222
 40
1.0
 40
1.0
 40
1.0
 40
1.0
 10
215.9561889756937
 20
172.0618127121153
 30
0.0
 10
215.9471204636427
 20
172.0567974664139
 30
0.0
 10
215.9204164034783
 20
172.0420290653582
 30
0.0
 10
215.7072738558142
 20
172.0164368612488
 30
0.0
 10
215.2648145395193
 20
171.9885615983778
 30
0.0
 10
214.6690114507182
 20
171.9651197247873
 30
0.0
 10
214.2172128013213
 20
171.9557958130277
 30
0.0
 10
213.9915308161158
 20
171.9511383424517
 30
0.0
  0
SPLINE
  5
201
330
1F
100
AcDbEntity
  8
0
  6
Continuous
 62
     7
370
    25
100
AcDbSpline
210
0.0
220
0.0
230
1.0
 70
     8
 71
     3
 72
    11
 73
     7
 74
     0
 42
0.00000001
 43
0.00000001
 40
0.0
 40
0.0
 40
0.0
 40
0.0
 40
0.0614641195413895
 40
0.4999988937835385
 40
0.9375097801832812
 40
0.9999999999999999
 40
0.9999999999999999
 40
0.9999999999999999
 40
0.9999999999999999
 10
215.9561889756937
 20
172.0618127121153
 30
0.0
 10
215.9683478727487
 20
171.9453557396633
 30
0.0
 10
216.0672581820879
 20
170.9980004723322
 30
0.0
 10
216.1323397066992
 20
169.2007562738838
 30
0.0
 10
216.0673673987087
 20
167.401558249643
 30
0.0
 10
215.9685403912118
 20
166.4541834252099
 30
0.0
 10
215.9561889756939
 20
166.3357803651134
 30
0.0
  0
SPLINE
  5
202
330
1F
100
AcDbEntity
  8
0
  6
Continuous
 62
     7
370
    25
100
AcDbSpline
210
0.0
220
0.0
230
1.0
 70
     8
 71
     3
 72
    12
 73
     8
 74
     0
 42
0.00000001
 43
0.00000001
 40
0.0
 40
0.0
 40
0.0
 40
0.0
 40
0.2230315344150378
 40
0.4461337558340359
 40
0.6675099896777024
 40
0.8870667292265013
 40
1.0
 40
1.0
 40
1.0
 40
1.0
 10
213.9915308161158
 20
172.4503014135001
 30
0.0
 10
214.1613732934887
 20
172.4484111662054
 30
0.0
 10
214.5011120776446
 20
172.444630072526
 30
0.0
 10
214.9493843051496
 20
172.4515729087966
 30
0.0
 10
215.2820204430465
 20
172.4671617312866
 30
0.0
 10
215.4419164710284
 20
172.4864990113508
 30
0.0
 10
215.4616515116381
 20
172.5000646125272
 30
0.0
 10
215.4683546985481
 20
172.5046722929486
 30
0.0
  0
ARC
  5
203
330
1F
100
AcDbEntity
  8
0
  6
Continuous
 62
     7
370
    25
100
AcDbCircle
 10
215.4590307972
 20
172.0042835165
 30
0.0
 40
0.500475636519186
100
AcDbArc
 50
6.6006859565
 51
88.9325132694
  0
ARC
  5
204
330
1F
100
AcDbEntity
  8
0
  6
Continuous
 62
     7
370
    25
100
AcDbCircle
 10
205.8861234089
 20
172.200719878
 30
0.0
 40
8.109249051559425
100
AcDbArc
 50
358.2363068264
 51
1.7636931736
  0
SPLINE
  5
205
330
1F
100
AcDbEntity
  8
0
  6
Continuous
 62
     7
370
    25
100
AcDbSpline
210
0.0
220
0.0
230
1.0
 70
     8
 71
     3
 72
    12
 73
     8
 74
     0
 42
0.00000001
 43
0.00000001
 40
0.0
 40
0.0
 40
0.0
 40
0.0
 40
0.2190444340109338
 40
0.4380981679380299
 40
0.6571027493691834
 40
0.8772791087290026
 40
1.0
 40
1.0
 40
1.0
 40
1.0
 10
215.4683546985482
 20
165.8929207842781
 30
0.0
 10
215.4476068151505
 20
165.9017495972279
 30
0.0
 10
215.4061101674672
 20
165.9194075979701
 30
0.0
 10
215.1383034071203
 20
165.9389260873793
 30
0.0
 10
214.7520092112957
 20
165.9502318710116
 30
0.0
 10
214.3450096905257
 20
165.9520557390882
 30
0.0
 10
214.084695662177
 20
165.9485473097633
 30
0.0
 10
213.9915308161173
 20
165.9472916637268
 30
0.0
  0
ARC
  5
206
330
1F
100
AcDbEntity
  8
0
  6
Continuous
 62
     7
370
    25
100
AcDbCircle
 10
205.886123412
 20
166.1968731992
 30
0.0
 40
8.109249048408198
100
AcDbArc
 50
358.236306826
 51
1.7636931745
  0
ARC
  5
207
330
1F
100
AcDbEntity
  8
0
  6
Continuous
 62
     7
370
    25
100
AcDbCircle
 10
215.4590307972
 20
166.3933095607
 30
0.0
 40
0.5004756365188737
100
AcDbArc
 50
271.0674867306
 51
353.3993140438
  0
ELLIPSE
  5
208
330
1F
100
AcDbEntity
  8
0
  6
Continuous
 62
     7
370
    25
100
AcDbEllipse
 10
213.6879154206
 20
166.3587238317
 30
0.0
 11
1.999999704111502
 21
0.02626756389830121
 31
0.0
210
0.0
220
0.0
230
1.0
 40
0.0414165792
 41
1.552799077927864
 42
2.455756810842299
  0
LINE
  5
209
330
1F
100
AcDbEntity
  8
0
  6
Continuous
 62
     7
370
    25
100
AcDbLine
 10
212.1394467297
 20
166.3908555227
 30
0.0
 11
212.1394467297
 21
172.0067375545
 31
0.0
  0
ELLIPSE
  5
20A
330
1F
100
AcDbEntity
  8
0
  6
Continuous
 62
     7
370
    25
100
AcDbEllipse
 10
213.6879154206
 20
172.0388692455
 30
0.0
 11
1.999999704111502
 21
-0.02626756389832963
 31
0.0
210
0.0
220
0.0
230
1.0
 40
0.0414165792
 41
3.827428496337693
 42
4.730386229251718
  0
ELLIPSE
  5
20B
330
1F
100
AcDbEntity
  8
0
  6
Continuous
 62
     7
370
    25
100
AcDbEllipse
 10
213.6966416239
 20
165.8595607607
 30
0.0
 11
1.499999296945731
 21
0.02630270273704127
 31
0.0
210
0.0
220
0.0
230
1.0
 40
0.0552146892
 41
1.552374837086638
 42
2.455332570000486
  0
ARC
  5
20C
330
1F
100
AcDbEntity
  8
0
  6
Continuous
 62
     7
370
    25
100
AcDbCircle
 10
212.6142570654
 20
166.3608506013
 30
0.0
 40
0.4757574488747903
100
AcDbArc
 50
176.3840879997
 51
260.4457404449
  0
ARC
  5
20D
330
1F
100
AcDbEntity
  8
0
  6
Continuous
 62
     7
370
    25
100
AcDbCircle
 10
205.6174128263
 20
166.1924347462
 30
0.0
 40
8.10924905156113
100
AcDbArc
 50
358.2363068264
 51
1.7636931736
  0
ELLIPSE
  5
20E
330
1F
100
AcDbEntity
  8
0
  6
Continuous
 62
     7
370
    25
100
AcDbEllipse
 10
213.6966416239
 20
172.5380323166
 30
0.0
 11
1.499999296945731
 21
-0.02630270273701285
 31
0.0
210
0.0
220
0.0
230
1.0
 40
0.0552146892
 41
3.827852737178514
 42
4.730810470092954
  0
ARC
  5
20F
330
1F
100
AcDbEntity
  8
0
  6
Continuous
 62
     7
370
    25
100
AcDbCircle
 10
205.6174128263
 20
172.205158331
 30
0.0
 40
8.10924905156113
100
AcDbArc
 50
358.2363068264
 51
1.7636931736
  0
ARC
  5
210
330
1F
100
AcDbEntity
  8
0
  6
Continuous
 62
     7
370
    25
100
AcDbCircle
 10
212.6142570654
 20
172.0367424759
 30
0.0
 40
0.475757448874823
100
AcDbArc
 50
99.5542595551
 51
183.6159120003
  0
LINE
  5
211
330
1F
100
AcDbEntity
  8
0
  6
Continuous
 62
     7
370
    25
100
AcDbLine
 10
213.7228202335
 20
172.4547398666
 30
0.0
 11
213.9915308161
 21
172.4503014135
 31
0.0
  0
LINE
  5
212
330
1F
100
AcDbEntity
  8
0
  6
Continuous
 62
     7
370
    25
100
AcDbLine
 10
213.9915308161
 20
165.9472916637
 30
0.0
 11
213.7228202335
 21
165.9428532107
 31
0.0
  0
LINE
  5
213
330
1F
100
AcDbEntity
  8
0
  6
Continuous
 62
     7
370
    25
100
AcDbLine
 10
215.4543073567
 20
175.1092848585
 30
0.0
 11
211.2910453243
 21
175.1805751338
 31
0.0
  0
SPLINE
  5
214
330
1F
100
AcDbEntity
  8
0
  6
Continuous
 62
     7
370
    25
100
AcDbSpline
210
0.0
220
0.0
230
1.0
 70
     8
 71
     3
 72
    10
 73
     6
 74
     0
 42
0.00000001
 43
0.00000001
 40
0.0
 40
0.0
 40
0.0
 40
0.0
 40
0.3702896688583041
 40
0.7405318123903298
 40
1.0
 40
1.0
 40
1.0
 40
1.0
 10
215.4683546985481
 20
172.5046722929486
 30
0.0
 10
215.5404593903683
 20
172.8248633074749
 30
0.0
 10
215.6846595196349
 20
173.4652042411805
 30
0.0
 10
215.6242621976539
 20
174.3344385730437
 30
0.0
 10
215.50390130619
 20
174.8831795746529
 30
0.0
 10
215.4543073566821
 20
175.1092848584847
 30
0.0
  0
LINE
  5
215
330
1F
100
AcDbEntity
  8
0
  6
Continuous
 62
     7
370
    25
100
AcDbLine
 10
209.7028507331
 20
172.7467919046
 30
0.0
 11
212.5352901057
 21
172.5059006256
 31
0.0
  0
LINE
  5
216
330
1F
100
AcDbEntity
  8
0
  6
Continuous
 62
     7
370
    25
100
AcDbLine
 10
209.7084789842
 20
172.7466935134
 30
0.0
 11
209.7028507331
 21
172.7467919046
 31
0.0
  0
ELLIPSE
  5
217
330
1F
100
AcDbEntity
  8
0
  6
Continuous
 62
     7
370
    25
100
AcDbEllipse
 10
220.7065336477
 20
173.0763395648
 30
0.0
 11
14.49999320380849
 21
-0.2542594597913422
 31
0.0
210
0.0
220
0.0
230
1.0
 40
0.0552146892
 41
3.116244259334505
 42
3.852369595890223
  0
ELLIPSE
  5
218
330
1F
100
AcDbEntity
  8
0
  6
Continuous
 62
     7
370
    25
100
AcDbEllipse
 10
170.5212752928
 20
174.0266231141
 30
0.0
 11
35.70262486333175
 21
-0.6260506459064459
 31
0.0
210
0.0
220
0.0
230
1.0
 40
0.0552146892
 41
0.0609777977008807
 42
0.4568521056102955
  0
ELLIPSE
  5
219
330
1F
100
AcDbEntity
  8
0
  6
Continuous
 62
     7
370
    25
100
AcDbEllipse
 10
209.3117275703
 20
174.3990191738
 30
0.0
 11
7.499996484728541
 21
-0.1315135136851779
 31
0.0
210
0.0
220
0.0
230
1.0
 40
0.0552146892
 41
3.407554101490232
 42
3.598444759200363
  0
LINE
  5
21A
330
1F
100
AcDbEntity
  8
0
  6
Continuous
 62
     7
370
    25
100
AcDbLine
 10
210.7382595442
 20
174.2666747226
 30
0.0
 11
202.0735205561
 21
174.4170652672
 31
0.0
  0
SPLINE
  5
21B
330
1F
100
AcDbEntity
  8
0
  6
Continuous
 62
     7
370
    25
100
AcDbSpline
210
0.0
220
0.0
230
1.0
 70
     8
 71
     3
 72
    10
 73
     6
 74
     0
 42
0.00000001
 43
0.00000001
 40
0.0
 40
0.0
 40
0.0
 40
0.0
 40
0.0186368637457412
 40
0.3939469944633169
 40
1.0
 40
1.0
 40
1.0
 40
1.0
 10
211.2910453242538
 20
174.2671610898886
 30
0.0
 10
211.2883047498011
 20
174.2670733394093
 30
0.0
 10
211.2303743445866
 20
174.2652184652163
 30
0.0
 10
211.0551025730092
 20
174.2625384838382
 30
0.0
 10
210.8592257261706
 20
174.2650955652358
 30
0.0
 10
210.7382595441773
 20
174.2666747226436
 30
0.0
  0
LINE
  5
21C
330
1F
100
AcDbEntity
  8
0
  6
Continuous
 62
     7
370
    25
100
AcDbLine
 10
211.2910453243
 20
175.1805751338
 30
0.0
 11
211.2910453243
 21
174.2671610899
 31
0.0
  0
LINE
  5
21D
330
1F
100
AcDbEntity
  8
0
  6
Continuous
 62
     7
370
    25
100
AcDbLine
 10
210.3576251104
 20
164.1142283385
 30
0.0
 11
210.3576251104
 21
163.2010338763
 31
0.0
  0
SPLINE
  5
21E
330
1F
100
AcDbEntity
  8
0
  6
Continuous
 62
     7
370
    25
100
AcDbSpline
210
0.0
220
0.0
230
1.0
 70
     8
 71
     3
 72
    11
 73
     7
 74
     0
 42
0.00000001
 43
0.00000001
 40
0.0
 40
0.0
 40
0.0
 40
0.0
 40
0.4177469294495267
 40
0.8392770662410766
 40
0.9817832068819585
 40
1.0
 40
1.0
 40
1.0
 40
1.0
 10
209.8544178230646
 20
164.1155777837967
 30
0.0
 10
209.9310296034552
 20
164.1166609749804
 30
0.0
 10
210.0849469772357
 20
164.1188371669635
 30
0.0
 10
210.2547027913413
 20
164.1176349900721
 30
0.0
 10
210.3353619696695
 20
164.115164462732
 30
0.0
 10
210.3553586319557
 20
164.1143236397751
 30
0.0
 10
210.3576251103692
 20
164.1142283385166
 30
0.0
  0
LINE
  5
21F
330
1F
100
AcDbEntity
  8
0
  6
Continuous
 62
     7
370
    25
100
AcDbLine
 10
202.0735205561
 20
163.98052781
 30
0.0
 11
209.8544178231
 21
164.1155777838
 31
0.0
  0
ELLIPSE
  5
220
330
1F
100
AcDbEntity
  8
0
  6
Continuous
 62
     7
370
    25
100
AcDbEllipse
 10
209.3117275703
 20
163.9985739034
 30
0.0
 11
7.499996484728541
 21
0.1315135136851495
 31
0.0
210
0.0
220
0.0
230
1.0
 40
0.0552146892
 41
2.684740547979479
 42
2.87563120568959
  0
ELLIPSE
  5
221
330
1F
100
AcDbEntity
  8
0
  6
Continuous
 62
     7
370
    25
100
AcDbEllipse
 10
170.5212752928
 20
164.3709699631
 30
0.0
 11
35.70262486333175
 21
0.6260506459064459
 31
0.0
210
0.0
220
0.0
230
1.0
 40
0.0552146892
 41
5.826333201569498
 42
6.308533701434875
  0
ELLIPSE
  5
222
330
1F
100
AcDbEntity
  8
0
  6
Continuous
 62
     7
370
    25
100
AcDbEllipse
 10
220.7065336477
 20
165.3212535124
 30
0.0
 11
14.49999320380851
 21
0.2542594597913421
 31
0.0
210
0.0
220
0.0
230
1.0
 40
0.0552146892
 41
2.430815711289526
 42
3.166941047845333
  0
LINE
  5
223
330
1F
100
AcDbEntity
  8
0
  6
Continuous
 62
     7
370
    25
100
AcDbLine
 10
209.7028507331
 20
165.6508011726
 30
0.0
 11
209.7084789842
 21
165.6508995639
 31
0.0
  0
LINE
  5
224
330
1F
100
AcDbEntity
  8
0
  6
Continuous
 62
     7
370
    25
100
AcDbLine
 10
212.5352901057
 20
165.8916924516
 30
0.0
 11
209.7028507331
 21
165.6508011726
 31
0.0
  0
SPLINE
  5
225
330
1F
100
AcDbEntity
  8
0
  6
Continuous
 62
     7
370
    25
100
AcDbSpline
210
0.0
220
0.0
230
1.0
 70
     8
 71
     3
 72
    10
 73
     6
 74
     0
 42
0.00000001
 43
0.00000001
 40
0.0
 40
0.0
 40
0.0
 40
0.0
 40
0.3702717503651155
 40
0.7405122151371749
 40
1.0
 40
1.0
 40
1.0
 40
1.0
 10
215.4543073566844
 20
163.2883082187422
 30
0.0
 10
215.5171503139714
 20
163.6108367044101
 30
0.0
 10
215.6428309187178
 20
164.2558664241533
 30
0.0
 10
215.6783552176428
 20
165.1246809116321
 30
0.0
 10
215.5296362852559
 20
165.6687358223989
 30
0.0
 10
215.4683546985482
 20
165.8929207842781
 30
0.0
  0
LINE
  5
226
330
1F
100
AcDbEntity
  8
0
  6
Continuous
 62
     7
370
    25
100
AcDbLine
 10
210.3576251104
 20
163.2010338763
 30
0.0
 11
215.4543073567
 21
163.2883082187
 31
0.0
  0
ELLIPSE
  5
227
330
1F
100
AcDbEntity
  8
0
  6
Continuous
 62
     7
370
    25
100
AcDbEllipse
 10
209.6941245299
 20
172.2476288335
 30
0.0
 11
1.053482645954546
 21
-0.05394483169982323
 31
0.0
210
0.0
220
0.0
230
1.0
 40
0.4730658061
 41
1.586734626056063
 42
1.927517226050937
  0
LINE
  5
228
330
1F
100
AcDbEntity
  8
0
  6
Continuous
 62
     7
370
    25
100
AcDbLine
 10
212.1394467297
 20
172.0067375545
 30
0.0
 11
208.6407965661
 21
172.3042882527
 31
0.0
  0
ELLIPSE
  5
229
330
1F
100
AcDbEntity
  8
0
  6
Continuous
 62
     7
370
    25
100
AcDbEllipse
 10
209.6941245299
 20
172.2476288335
 30
0.0
 11
1.053482645954546
 21
-0.05394483169982323
 31
0.0
210
0.0
220
0.0
230
1.0
 40
0.4730658061
 41
1.927517226050937
 42
3.136144051102061
  0
ELLIPSE
  5
22A
330
1F
100
AcDbEntity
  8
0
  6
Continuous
 62
     7
370
    25
100
AcDbEllipse
 10
209.6941245299
 20
166.1499642437
 30
0.0
 11
1.053482645954546
 21
0.05394483169985165
 31
0.0
210
0.0
220
0.0
230
1.0
 40
0.4730658061
 41
4.355668081128862
 42
4.696450681123521
  0
ELLIPSE
  5
22B
330
1F
100
AcDbEntity
  8
0
  6
Continuous
 62
     7
370
    25
100
AcDbEllipse
 10
209.6941245299
 20
166.1499642437
 30
0.0
 11
1.053482645954546
 21
0.05394483169985165
 31
0.0
210
0.0
220
0.0
230
1.0
 40
0.4730658061
 41
3.147041256077328
 42
4.355668081128862
  0
LINE
  5
22C
330
1F
100
AcDbEntity
  8
0
  6
Continuous
 62
     7
370
    25
100
AcDbLine
 10
208.6407965661
 20
166.0933048246
 30
0.0
 11
212.1394467297
 21
166.3908555227
 31
0.0
  0
ELLIPSE
  5
22D
330
1F
100
AcDbEntity
  8
0
  6
Continuous
 62
     7
370
    25
100
AcDbEllipse
 10
209.0483252277
 20
166.1386745945
 30
0.0
 11
0.01755356269836739
 21
0.4999218664536045
 31
0.0
210
0.0
220
0.0
230
1.0
 40
0.8168249212
 41
1.61375658386701
 42
1.690310629085486
  0
LINE
  5
22E
330
1F
100
AcDbEntity
  8
0
  6
Continuous
 62
     7
370
    25
100
AcDbLine
 10
208.6395994778
 20
166.1315293865
 30
0.0
 11
208.6395994778
 21
172.2660636907
 31
0.0
  0
ELLIPSE
  5
22F
330
1F
100
AcDbEntity
  8
0
  6
Continuous
 62
     7
370
    25
100
AcDbEllipse
 10
209.0483252277
 20
172.2589184827
 30
0.0
 11
-0.01755356269836739
 21
0.4999218664535761
 31
0.0
210
0.0
220
0.0
230
1.0
 40
0.8168249212
 41
1.451282024504299
 42
1.527836069722836
  0
SPLINE
  5
230
330
1F
100
AcDbEntity
  8
0
  6
Continuous
 62
     7
370
    25
100
AcDbSpline
210
0.0
220
0.0
230
1.0
 70
     8
 71
     3
 72
     9
 73
     5
 74
     0
 42
0.00000001
 43
0.00000001
 40
0.0
 40
0.0
 40
0.0
 40
0.0
 40
0.9209630919903067
 40
1.0
 40
1.0
 40
1.0
 40
1.0
 10
215.943676226303
 20
163.7442227961244
 30
0.0
 10
215.9325973676783
 20
163.6873957372058
 30
0.0
 10
215.9205677231452
 20
163.6256917890097
 30
0.0
 10
215.9107682597577
 20
163.4386803281218
 30
0.0
 10
215.9099937404714
 20
163.4238995204909
 30
0.0
  0
SPLINE
  5
231
330
1F
100
AcDbEntity
  8
0
  6
Continuous
 62
     7
370
    25
100
AcDbSpline
210
0.0
220
0.0
230
1.0
 70
     8
 71
     3
 72
    10
 73
     6
 74
     0
 42
0.00000001
 43
0.00000001
 40
0.0
 40
0.0
 40
0.0
 40
0.0
 40
0.2977219707220505
 40
0.7221983723418893
 40
1.0
 40
1.0
 40
1.0
 40
1.0
 10
215.9561889756939
 20
166.3357803651134
 30
0.0
 10
215.992488144569
 20
166.0363547596203
 30
0.0
 10
216.0805407683486
 20
165.3100237992272
 30
0.0
 10
216.068955427251
 20
164.5829542982158
 30
0.0
 10
216.0047226327677
 20
164.1723624074456
 30
0.0
 10
215.9793139283621
 20
164.0099436917746
 30
0.0
  0
SPLINE
  5
232
330
1F
100
AcDbEntity
  8
0
  6
Continuous
 62
     7
370
    25
100
AcDbSpline
210
0.0
220
0.0
230
1.0
 70
     8
 71
     3
 72
    10
 73
     6
 74
     0
 42
0.00000001
 43
0.00000001
 40
0.0
 40
0.0
 40
0.0
 40
0.0
 40
0.1569313940387108
 40
0.57832506224034
 40
1.0
 40
1.0
 40
1.0
 40
1.0
 10
215.9873206831485
 20
174.4108997122567
 30
0.0
 10
216.0054959735049
 20
174.321090348724
 30
0.0
 10
216.072475725969
 20
173.9901240301429
 30
0.0
 10
216.0695432128132
 20
173.2909981890228
 30
0.0
 10
215.9939821244467
 20
172.4716323249873
 30
0.0
 10
215.9561889756937
 20
172.0618127121153
 30
0.0
  0
SPLINE
  5
233
330
1F
100
AcDbEntity
  8
0
  6
Continuous
 62
     7
370
    25
100
AcDbSpline
210
0.0
220
0.0
230
1.0
 70
     8
 71
     3
 72
     9
 73
     5
 74
     0
 42
0.00000001
 43
0.00000001
 40
0.0
 40
0.0
 40
0.0
 40
0.0
 40
0.0790369080192132
 40
1.0
 40
1.0
 40
1.0
 40
1.0
 10
215.9099937404712
 20
174.9736935567359
 30
0.0
 10
215.9107682597577
 20
174.9589127491031
 30
0.0
 10
215.9205677231459
 20
174.7719012882153
 30
0.0
 10
215.9325973676787
 20
174.7101973400199
 30
0.0
 10
215.943676226303
 20
174.6533702811025
 30
0.0
  0
ARC
  5
234
330
1F
100
AcDbEntity
  8
0
  6
Continuous
 62
     7
370
    25
100
AcDbCircle
 10
215.4464335615
 20
174.6102370155
 30
0.0
 40
0.4991099540956477
100
AcDbArc
 50
4.9577065176
 51
89.0960830536
  0
ARC
  5
235
330
1F
100
AcDbEntity
  8
0
  6
Continuous
 62
     7
370
    25
100
AcDbCircle
 10
215.4464335615
 20
163.7873560618
 30
0.0
 40
0.4991099540953394
100
AcDbArc
 50
270.9039169467
 51
355.0422934825
  0
SPLINE
  5
236
330
1F
100
AcDbEntity
  8
0
  6
Continuous
 62
     7
370
    25
100
AcDbSpline
210
0.0
220
0.0
230
1.0
 70
     8
 71
     3
 72
     9
 73
     5
 74
     0
 42
0.00000001
 43
0.00000001
 40
0.0
 40
0.0
 40
0.0
 40
0.0
 40
0.0129608462966765
 40
1.0
 40
1.0
 40
1.0
 40
1.0
 10
209.7084789842414
 20
172.7466935133683
 30
0.0
 10
209.7069245283449
 20
172.7467593628425
 30
0.0
 10
209.5869897755561
 20
172.7518400090218
 30
0.0
 10
209.4678013403255
 20
172.7425897914541
 30
0.0
 10
209.3501576880842
 20
172.7334594645344
 30
0.0
  0
SPLINE
  5
237
330
1F
100
AcDbEntity
  8
0
  6
Continuous
 62
     7
370
    25
100
AcDbSpline
210
0.0
220
0.0
230
1.0
 70
     8
 71
     3
 72
     9
 73
     5
 74
     0
 42
0.00000001
 43
0.00000001
 40
0.0
 40
0.0
 40
0.0
 40
0.0
 40
0.0129608462966867
 40
1.0
 40
1.0
 40
1.0
 40
1.0
 10
209.7084789842414
 20
165.6508995638586
 30
0.0
 10
209.7069245283449
 20
165.6508337143844
 30
0.0
 10
209.5869897755565
 20
165.6457530682047
 30
0.0
 10
209.4678013403257
 20
165.6550032857726
 30
0.0
 10
209.3501576880844
 20
165.6641336126924
 30
0.0
  0
ELLIPSE
  5
238
330
1F
100
AcDbEntity
  8
0
  6
Continuous
 62
     7
370
    25
100
AcDbEllipse
 10
220.6978074445
 20
165.8204165835
 30
0.0
 11
14.99999386323825
 21
0.2542085132690772
 31
0.0
210
0.0
220
0.0
230
1.0
 40
0.0533752749
 41
2.501275951618367
 42
3.139211616205855
  0
ARC
  5
239
330
1F
100
AcDbEntity
  8
0
  6
Continuous
 62
     7
370
    25
100
AcDbCircle
 10
206.2018581755
 20
172.8518791203
 30
0.0
 40
0.4990245038597275
100
AcDbArc
 50
88.8866479152
 51
154.4102041241
  0
ARC
  5
23A
330
1F
100
AcDbEntity
  8
0
  6
Continuous
 62
     7
370
    25
100
AcDbCircle
 10
202.6109007409
 20
164.5530629705
 30
0.0
 40
0.4909657463241027
100
AcDbArc
 50
178.9120388997
 51
266.1208510823
  0
ARC
  5
23B
330
1F
100
AcDbEntity
  8
0
  6
Continuous
 62
     7
370
    25
100
AcDbCircle
 10
202.6109007409
 20
173.8445301067
 30
0.0
 40
0.4909657463240402
100
AcDbArc
 50
93.8791489177
 51
181.0879611003
  0
LINE
  5
23C
330
1F
100
AcDbEntity
  8
0
  6
Continuous
 62
     7
370
    25
100
AcDbLine
 10
202.120023504
 20
173.8352079622
 30
0.0
 11
202.120023504
 21
164.562385115
 31
0.0
  0
ARC
  5
23D
330
1F
100
AcDbEntity
  8
0
  6
Continuous
 62
     7
370
    25
100
AcDbCircle
 10
202.0820838858
 20
164.4802914781
 30
0.0
 40
0.4998370280062226
100
AcDbArc
 50
180.0688458087
 51
269.0183467286
  0
ELLIPSE
  5
23E
330
1F
100
AcDbEntity
  8
0
  6
Continuous
 62
     7
370
    25
100
AcDbEllipse
 10
209.3030013671
 20
164.4977369744
 30
0.0
 11
7.999997105433749
 21
0.1314648441208135
 31
0.0
210
0.0
220
0.0
230
1.0
 40
0.0517656972
 41
2.684858073900601
 42
2.875748731610761
  0
ELLIPSE
  5
23F
330
1F
100
AcDbEntity
  8
0
  6
Continuous
 62
     7
370
    25
100
AcDbEllipse
 10
209.3030013671
 20
173.8998561028
 30
0.0
 11
7.999997105433749
 21
-0.1314648441208135
 31
0.0
210
0.0
220
0.0
230
1.0
 40
0.0517656972
 41
3.40743657556914
 42
3.598327233279078
  0
ARC
  5
240
330
1F
100
AcDbEntity
  8
0
  6
Continuous
 62
     7
370
    25
100
AcDbCircle
 10
202.0820838858
 20
173.9173015991
 30
0.0
 40
0.4998370280062216
100
AcDbArc
 50
90.9816532714
 51
179.9311541913
  0
SPLINE
  5
241
330
1F
100
AcDbEntity
  8
0
  6
Continuous
 62
     7
370
    25
100
AcDbSpline
210
0.0
220
0.0
230
1.0
 70
     8
 71
     3
 72
     9
 73
     5
 74
     0
 42
0.00000001
 43
0.00000001
 40
0.0
 40
0.0
 40
0.0
 40
0.0
 40
0.1533602411230256
 40
1.0
 40
1.0
 40
1.0
 40
1.0
 10
201.5822472186225
 20
164.4796908810681
 30
0.0
 10
201.5800594815431
 20
164.4791931664151
 30
0.0
 10
201.5657941343885
 20
164.4759477708063
 30
0.0
 10
201.5524719767918
 20
164.4671612941869
 30
0.0
 10
201.5411929084964
 20
164.4597223137405
 30
0.0
  0
LINE
  5
242
330
1F
100
AcDbEntity
  8
0
  6
Continuous
 62
     7
370
    25
100
AcDbLine
 10
201.3030013671
 20
164.0234401447
 30
0.0
 11
201.5411929085
 21
164.4597223137
 31
0.0
  0
LINE
  5
243
330
1F
100
AcDbEntity
  8
0
  6
Continuous
 62
     7
370
    25
100
AcDbLine
 10
201.3030013671
 20
164.0234401447
 30
0.0
 11
201.3030013671
 21
174.3741529325
 31
0.0
  0
LINE
  5
244
330
1F
100
AcDbEntity
  8
0
  6
Continuous
 62
     7
370
    25
100
AcDbLine
 10
201.5411929085
 20
173.9378707635
 30
0.0
 11
201.3030013671
 21
174.3741529325
 31
0.0
  0
LINE
  5
245
330
1F
100
AcDbEntity
  8
0
  6
Continuous
 62
     7
370
    25
100
AcDbLine
 10
201.5411929085
 20
173.9378707635
 30
0.0
 11
201.5822472186
 21
173.9179021962
 31
0.0
  0
ARC
  5
246
330
1F
100
AcDbEntity
  8
0
  6
Continuous
 62
     7
370
    25
100
AcDbCircle
 10
210.4009432804
 20
160.6034524128
 30
0.0
 40
2.597942632774419
100
AcDbArc
 50
90.9553957458
 51
179.9573581589
  0
SPLINE
  5
247
330
1F
100
AcDbEntity
  8
0
  6
Continuous
 62
     7
370
    25
100
AcDbSpline
210
0.0
220
0.0
230
1.0
 70
     8
 71
     3
 72
    17
 73
    13
 74
     0
 42
0.00000001
 43
0.00000001
 40
0.0
 40
0.0
 40
0.0
 40
0.0
 40
0.006826427756052
 40
0.0088450004853821
 40
0.0223994102884414
 40
0.030959827023921
 40
0.0563228448230676
 40
0.1198844474831655
 40
0.1957493698893794
 40
0.5558716060100611
 40
0.7769840750939091
 40
1.0
 40
1.0
 40
1.0
 40
1.0
 10
210.3576251103692
 20
164.1142283385166
 30
0.0
 10
210.3271203947076
 20
164.1131901554719
 30
0.0
 10
210.2875954433751
 20
164.1118449819986
 30
0.0
 10
210.1978659249785
 20
164.1042549939202
 30
0.0
 10
210.1176286878315
 20
164.0925034871893
 30
0.0
 10
209.9913845008991
 20
164.0667845916084
 30
0.0
 10
209.7889270414869
 20
164.0082700189873
 30
0.0
 10
209.543909796653
 20
163.8990729630269
 30
0.0
 10
208.9380394797965
 20
163.5319015473902
 30
0.0
 10
208.3926365603735
 20
162.8987346450344
 30
0.0
 10
207.9020130912398
 20
161.8862887685589
 30
0.0
 10
207.836099439905
 20
161.1788104721916
 30
0.0
 10
207.8030013671061
 20
160.823555260522
 30
0.0
  0
ARC
  5
248
330
1F
100
AcDbEntity
  8
0
  6
Continuous
 62
     7
370
    25
100
AcDbCircle
 10
205.9690722607
 20
161.0123309065
 30
0.0
 40
1.843619323976542
100
AcDbArc
 50
265.9201895471
 51
354.1229528255
  0
SPLINE
  5
249
330
1F
100
AcDbEntity
  8
0
  6
Continuous
 62
     7
370
    25
100
AcDbSpline
210
0.0
220
0.0
230
1.0
 70
     8
 71
     3
 72
    14
 73
    10
 74
     0
 42
0.00000001
 43
0.00000001
 40
0.0
 40
0.0
 40
0.0
 40
0.0
 40
0.222585370202701
 40
0.4518071037420552
 40
0.815772842264197
 40
0.894612168116161
 40
0.9637839688025586
 40
0.9940798081854059
 40
1.0
 40
1.0
 40
1.0
 40
1.0
 10
205.8379061799807
 20
159.1733834708832
 30
0.0
 10
205.8930887218501
 20
159.7117718757476
 30
0.0
 10
206.0050990682465
 20
160.8046006886588
 30
0.0
 10
206.8688726273211
 20
162.3702321654099
 30
0.0
 10
207.8657921373331
 20
163.3285793911152
 30
0.0
 10
208.9267985665017
 20
163.8499879057714
 30
0.0
 10
209.3708511815829
 20
164.0053723301349
 30
0.0
 10
209.7027690735528
 20
164.0809220181753
 30
0.0
 10
209.8331109848833
 20
164.1024427997035
 30
0.0
 10
209.854417823072
 20
164.1059607764236
 30
0.0
  0
SPLINE
  5
24A
330
1F
100
AcDbEntity
  8
0
  6
Continuous
 62
     7
370
    25
100
AcDbSpline
210
0.0
220
0.0
230
1.0
 70
     8
 71
     3
 72
    11
 73
     7
 74
     0
 42
0.00000001
 43
0.00000001
 40
0.0
 40
0.0
 40
0.0
 40
0.0
 40
0.0195561212296081
 40
0.1681891996744554
 40
0.5898876540792817
 40
1.0
 40
1.0
 40
1.0
 40
1.0
 10
210.3576251103692
 20
164.1142283385166
 30
0.0
 10
210.354819563596
 20
164.1142864522324
 30
0.0
 10
210.3306909206563
 20
164.1147862496731
 30
0.0
 10
210.2412058254933
 20
164.1156326670866
 30
0.0
 10
210.0722436494128
 20
164.1135433685646
 30
0.0
 10
209.9263490540123
 20
164.1084647273811
 30
0.0
 10
209.854417823072
 20
164.1059607764236
 30
0.0
  0
ARC
  5
24B
330
1F
100
AcDbEntity
  8
0
  6
Continuous
 62
     7
370
    25
100
AcDbCircle
 10
211.3501912872
 20
178.7272729013
 30
0.0
 40
3.547190902441964
100
AcDbArc
 50
180.0426418411
 51
269.0446042542
  0
SPLINE
  5
24C
330
1F
100
AcDbEntity
  8
0
  6
Continuous
 62
     7
370
    25
100
AcDbSpline
210
0.0
220
0.0
230
1.0
 70
     8
 71
     3
 72
    16
 73
    12
 74
     0
 42
0.00000001
 43
0.00000001
 40
0.0
 40
0.0
 40
0.0
 40
0.0
 40
0.2861254310575668
 40
0.7591203623085427
 40
0.8520758313858448
 40
0.9266344548631265
 40
0.960486230143373
 40
0.983533543656924
 40
0.9930756629548356
 40
0.9972242292023621
 40
1.0
 40
1.0
 40
1.0
 40
1.0
 10
207.8308634194454
 20
178.0844983075986
 30
0.0
 10
207.9527911541923
 20
177.5544309982466
 30
0.0
 10
208.2762780453591
 20
176.1481076021194
 30
0.0
 10
209.2038451828317
 20
175.1302955992349
 30
0.0
 10
210.1346100792262
 20
174.5683753814634
 30
0.0
 10
210.4905713983422
 20
174.4138728655705
 30
0.0
 10
210.8007856772276
 20
174.3253521997401
 30
0.0
 10
211.0134355682949
 20
174.2862428160915
 30
0.0
 10
211.1695790765853
 20
174.2719228471218
 30
0.0
 10
211.2455397840143
 20
174.2681891084989
 30
0.0
 10
211.2780235154477
 20
174.2674552664157
 30
0.0
 10
211.2910453242538
 20
174.2671610898886
 30
0.0
  0
LINE
  5
24D
330
1F
100
AcDbEntity
  8
0
  6
Continuous
 62
     7
370
    25
100
AcDbLine
 10
207.8030013671
 20
178.6086419896
 30
0.0
 11
207.8308634194
 21
178.0844983076
 31
0.0
  0
ARC
  5
24E
330
1F
100
AcDbEntity
  8
0
  6
Continuous
 62
     7
370
    25
100
AcDbCircle
 10
206.0764160911
 20
177.6793717374
 30
0.0
 40
1.8006146077622
100
AcDbArc
 50
13.0024955286
 51
96.2155465251
  0
SPLINE
  5
24F
330
1F
100
AcDbEntity
  8
0
  6
Continuous
 62
     7
370
    25
100
AcDbSpline
210
0.0
220
0.0
230
1.0
 70
     8
 71
     3
 72
    10
 73
     6
 74
     0
 42
0.00000001
 43
0.00000001
 40
0.0
 40
0.0
 40
0.0
 40
0.0
 40
0.5975855365574466
 40
0.9790563563182109
 40
1.0
 40
1.0
 40
1.0
 40
1.0
 10
210.7382595441773
 20
174.276287987228
 30
0.0
 10
210.8533166077989
 20
174.2725486895017
 30
0.0
 10
211.041820750866
 20
174.2664223979783
 30
0.0
 10
211.2223912205655
 20
174.2660458391212
 30
0.0
 10
211.2876489865889
 20
174.267105918122
 30
0.0
 10
211.2910453242538
 20
174.2671610898886
 30
0.0
  0
SPLINE
  5
250
330
1F
100
AcDbEntity
  8
0
  6
Continuous
 62
     7
370
    25
100
AcDbSpline
210
0.0
220
0.0
230
1.0
 70
     8
 71
     3
 72
    14
 73
    10
 74
     0
 42
0.00000001
 43
0.00000001
 40
0.0
 40
0.0
 40
0.0
 40
0.0
 40
0.0129036569231463
 40
0.0519665716781148
 40
0.1318891824261212
 40
0.2280032005552164
 40
0.4679440229400841
 40
0.7079115564493628
 40
1.0
 40
1.0
 40
1.0
 40
1.0
 10
210.7382595441773
 20
174.276287987228
 30
0.0
 10
210.688507755984
 20
174.2841329612893
 30
0.0
 10
210.4881436357457
 20
174.3157268272219
 30
0.0
 10
210.0583392846138
 20
174.4181088745156
 30
0.0
 10
209.492704275753
 20
174.6205103833327
 30
0.0
 10
208.5705372141382
 20
175.0875610640987
 30
0.0
 10
207.5171457588303
 20
175.9250181234891
 30
0.0
 10
206.4016213203209
 20
177.3699583638395
 30
0.0
 10
206.0658158650253
 20
178.7253292466342
 30
0.0
 10
205.8814651632154
 20
179.4694016537839
 30
0.0
  0
SPLINE
  5
251
330
1F
100
AcDbEntity
  8
0
  6
Continuous
 62
     7
370
    25
100
AcDbSpline
210
0.0
220
0.0
230
1.0
 70
     8
 71
     3
 72
     9
 73
     5
 74
     0
 42
0.00000001
 43
0.00000001
 40
0.0
 40
0.0
 40
0.0
 40
0.0
 40
0.8458911907784121
 40
1.0
 40
1.0
 40
1.0
 40
1.0
 10
202.0350321403782
 20
163.9702095137374
 30
0.0
 10
202.0456495702049
 20
163.9740243207297
 30
0.0
 10
202.0582013380238
 20
163.978534128887
 30
0.0
 10
202.0714749721691
 20
163.980261592638
 30
0.0
 10
202.0735205561213
 20
163.9805278100197
 30
0.0
  0
ARC
  5
252
330
1F
100
AcDbEntity
  8
0
  6
Continuous
 62
     7
370
    25
100
AcDbCircle
 10
202.0579825449
 20
164.4872211104
 30
0.0
 40
0.5175207359150094
100
AcDbArc
 50
183.0458824723
 51
267.4582801867
  0
LINE
  5
253
330
1F
100
AcDbEntity
  8
0
  6
Continuous
 62
     7
370
    25
100
AcDbLine
 10
202.0735205561
 20
174.4170652672
 30
0.0
 11
202.0350321404
 21
174.4273835635
 31
0.0
  0
ARC
  5
254
330
1F
100
AcDbEntity
  8
0
  6
Continuous
 62
     7
370
    25
100
AcDbCircle
 10
202.0579825449
 20
173.9103719669
 30
0.0
 40
0.5175207359149787
100
AcDbArc
 50
92.5417198133
 51
176.9541175277
  0
ARC
  5
255
330
1F
100
AcDbEntity
  8
0
  6
Continuous
 62
     7
370
    25
100
AcDbCircle
 10
211.1824481671
 20
174.2714813549
 30
0.0
 40
0.4442146287620896
100
AcDbArc
 50
179.3800178999
 51
180.6199821001
  0
ARC
  5
256
330
1F
100
AcDbEntity
  8
0
  6
Continuous
 62
     7
370
    25
100
AcDbCircle
 10
210.298724686
 20
164.1107692805
 30
0.0
 40
0.4443328821883494
100
AcDbArc
 50
179.3799416245
 51
180.6200584643
  0
LWPOLYLINE
  5
257
330
1F
100
AcDbEntity
  8
0
  6
Continuous
 62
     7
370
    25
100
AcDbPolyline
 90
        4
 70
   128
 43
0.0
 10
209.8544178231
 20
164.1059607764
 10
208.8545710031
 20
164.0886025214
 10
204.8551837285
 20
164.0191696598
 10
202.0350321404
 20
163.9702095137
  0
LWPOLYLINE
  5
258
330
1F
100
AcDbEntity
  8
0
  6
Continuous
 62
     7
370
    25
100
AcDbPolyline
 90
        4
 70
   128
 43
0.0
 10
202.0350321404
 20
174.4273835635
 10
203.0348789568
 20
174.4100254166
 10
207.0342662277
 20
174.3405926705
 10
210.7382595442
 20
174.2762879872
  0
LINE
  5
259
330
1F
100
AcDbEntity
  8
0
  6
Continuous
 62
     7
370
    25
100
AcDbLine
 10
202.0350321404
 20
163.9702095137
 30
0.0
 11
201.8117275703
 21
163.5406820104
 31
0.0
  0
ARC
  5
25A
330
1F
100
AcDbEntity
  8
0
  6
Continuous
 62
     7
370
    25
100
AcDbCircle
 10
201.7949075225
 20
164.0323818226
 30
0.0
 40
0.4919874178077437
100
AcDbArc
 50
181.0413856032
 51
271.959207802
  0
LINE
  5
25B
330
1F
100
AcDbEntity
  8
0
  6
Continuous
 62
     7
370
    25
100
AcDbLine
 10
201.8117275703
 20
174.8569110668
 30
0.0
 11
202.0350321404
 21
174.4273835635
 31
0.0
  0
ARC
  5
25C
330
1F
100
AcDbEntity
  8
0
  6
Continuous
 62
     7
370
    25
100
AcDbCircle
 10
201.7949075225
 20
174.3652112546
 30
0.0
 40
0.4919874178076341
100
AcDbArc
 50
88.040792198
 51
178.9586143968
  0
LINE
  5
25D
330
1F
100
AcDbEntity
  8
0
  6
Continuous
 62
     7
370
    25
100
AcDbLine
 10
205.83790618
 20
158.9275699132
 30
0.0
 11
205.83790618
 21
159.1733834709
 31
0.0
  0
LINE
  5
25E
330
1F
100
AcDbEntity
  8
0
  6
Continuous
 62
     7
370
    25
100
AcDbLine
 10
205.83790618
 20
158.9275699132
 30
0.0
 11
201.8117275703
 21
158.8701234104
 31
0.0
  0
LINE
  5
25F
330
1F
100
AcDbEntity
  8
0
  6
Continuous
 62
     7
370
    25
100
AcDbLine
 10
201.8117275703
 20
163.5406820104
 30
0.0
 11
201.8117275703
 21
158.8701234104
 31
0.0
  0
LINE
  5
260
330
1F
100
AcDbEntity
  8
0
  6
Continuous
 62
     7
370
    25
100
AcDbLine
 10
201.8117275703
 20
179.5274696668
 30
0.0
 11
201.8117275703
 21
174.8569110668
 31
0.0
  0
LINE
  5
261
330
1F
100
AcDbEntity
  8
0
  6
Continuous
 62
     7
370
    25
100
AcDbLine
 10
205.8814651632
 20
179.4694016538
 30
0.0
 11
201.8117275703
 21
179.5274696668
 31
0.0
  0
ARC
  5
262
330
1F
100
AcDbEntity
  8
0
  6
Continuous
 62
     7
370
    25
100
AcDbCircle
 10
201.763210738
 20
159.3307051598
 30
0.0
 40
0.4631300366780656
100
AcDbArc
 50
186.4380684431
 51
276.013255932
  0
LINE
  5
263
330
1F
100
AcDbEntity
  8
0
  6
Continuous
 62
     7
370
    25
100
AcDbLine
 10
201.3030013671
 20
159.2787747655
 30
0.0
 11
201.3030013671
 21
164.0234401447
 31
0.0
  0
LINE
  5
264
330
1F
100
AcDbEntity
  8
0
  6
Continuous
 62
     7
370
    25
100
AcDbLine
 10
201.3030013671
 20
174.3741529325
 30
0.0
 11
201.3030013671
 21
179.1188183117
 31
0.0
  0
ARC
  5
265
330
1F
100
AcDbEntity
  8
0
  6
Continuous
 62
     7
370
    25
100
AcDbCircle
 10
201.763210738
 20
179.0668879175
 30
0.0
 40
0.463130036678031
100
AcDbArc
 50
83.986744068
 51
173.5619315569
  0
LINE
  5
266
330
1F
100
AcDbEntity
  8
0
  6
Continuous
 62
     7
370
    25
100
AcDbLine
 10
207.8030013671
 20
160.8235552605
 30
0.0
 11
207.8030013671
 21
160.5621753336
 31
0.0
  0
ARC
  5
267
330
1F
100
AcDbEntity
  8
0
  6
Continuous
 62
     7
370
    25
100
AcDbCircle
 10
205.9757285656
 20
160.7603870833
 30
0.0
 40
1.837991781539987
100
AcDbArc
 50
265.6996216829
 51
353.8090988865
  0
LINE
  5
268
330
1F
100
AcDbEntity
  8
0
  6
Continuous
 62
     7
370
    25
100
AcDbLine
 10
201.3030013671
 20
157.7269069239
 30
0.0
 11
201.3030013671
 21
159.2787747655
 31
0.0
  0
LINE
  5
269
330
1F
100
AcDbEntity
  8
0
  6
Continuous
 62
     7
370
    25
100
AcDbLine
 10
201.3030013671
 20
179.1188183117
 30
0.0
 11
201.3030013671
 21
180.6706861533
 31
0.0
  0
LINE
  5
26A
330
1F
100
AcDbEntity
  8
0
  6
Continuous
 62
     7
370
    25
100
AcDbLine
 10
205.8814651632
 20
179.4694016538
 30
0.0
 11
205.83790618
 21
180.4663678894
 31
0.0
  0
LINE
  5
26B
330
1F
100
AcDbEntity
  8
0
  6
Continuous
 62
     7
370
    25
100
AcDbLine
 10
207.8030013671
 20
160.5621753336
 30
0.0
 11
207.8030013671
 21
159.2969556757
 31
0.0
  0
ARC
  5
26C
330
1F
100
AcDbEntity
  8
0
  6
Continuous
 62
     7
370
    25
100
AcDbCircle
 10
205.8742919315
 20
178.5366586456
 30
0.0
 40
1.930052250266611
100
AcDbArc
 50
2.1374025298
 51
91.0802160954
  0
LINE
  5
26D
330
1F
100
AcDbEntity
  8
0
  6
Continuous
 62
     7
370
    25
100
AcDbLine
 10
207.8030013671
 20
179.1006374016
 30
0.0
 11
207.8030013671
 21
178.6086419896
 31
0.0
  0
LINE
  5
26E
330
1F
100
AcDbEntity
  8
0
  6
Continuous
 62
     7
370
    25
100
AcDbLine
 10
216.1530013671
 20
164.4267713896
 30
0.0
 11
216.1530013671
 21
160.7993528844
 31
0.0
  0
LINE
  5
26F
330
1F
100
AcDbEntity
  8
0
  6
Continuous
 62
     7
370
    25
100
AcDbLine
 10
216.1530013671
 20
177.5982401929
 30
0.0
 11
216.1530013671
 21
174.0387268403
 31
0.0
  0
SPLINE
  5
270
330
1F
100
AcDbEntity
  8
0
  6
Continuous
 62
     7
370
    25
100
AcDbSpline
210
0.0
220
0.0
230
1.0
 70
     8
 71
     3
 72
     9
 73
     5
 74
     0
 42
0.00000001
 43
0.00000001
 40
0.0
 40
0.0
 40
0.0
 40
0.0
 40
0.6817923421274201
 40
1.0
 40
1.0
 40
1.0
 40
1.0
 10
215.9099937404712
 20
174.9736935567359
 30
0.0
 10
215.8762850705589
 20
175.1636039118411
 30
0.0
 10
215.8268438142855
 20
175.4421496557146
 30
0.0
 10
215.7015856707945
 20
175.6750540286576
 30
0.0
 10
215.6617275703248
 20
175.7491659836801
 30
0.0
  0
LINE
  5
271
330
1F
100
AcDbEntity
  8
0
  6
Continuous
 62
     7
370
    25
100
AcDbLine
 10
215.6617275703
 20
162.6484270935
 30
0.0
 11
215.9099937405
 21
163.4238995205
 31
0.0
  0
ARC
  5
272
330
1F
100
AcDbEntity
  8
0
  6
Continuous
 62
     7
370
    25
100
AcDbCircle
 10
210.9987215923
 20
179.4570308227
 30
0.0
 40
3.223623274024342
100
AcDbArc
 50
187.544059084
 51
275.2028276603
  0
SPLINE
  5
273
330
1F
100
AcDbEntity
  8
0
  6
Continuous
 62
     7
370
    25
100
AcDbSpline
210
0.0
220
0.0
230
1.0
 70
     8
 71
     3
 72
     9
 73
     5
 74
     0
 42
0.00000001
 43
0.00000001
 40
0.0
 40
0.0
 40
0.0
 40
0.0
 40
0.5001021276704695
 40
1.0
 40
1.0
 40
1.0
 40
1.0
 10
211.2910453242538
 20
176.2466891198865
 30
0.0
 10
211.2895335580732
 20
175.960163485798
 30
0.0
 10
211.2865106431585
 20
175.3872292425002
 30
0.0
 10
211.2895339697322
 20
175.249450456046
 30
0.0
 10
211.2910453242538
 20
175.1805751338455
 30
0.0
  0
SPLINE
  5
274
330
1F
100
AcDbEntity
  8
0
  6
Continuous
 62
     7
370
    25
100
AcDbSpline
210
0.0
220
0.0
230
1.0
 70
     8
 71
     3
 72
     9
 73
     5
 74
     0
 42
0.00000001
 43
0.00000001
 40
0.0
 40
0.0
 40
0.0
 40
0.0
 40
0.400722737156526
 40
1.0
 40
1.0
 40
1.0
 40
1.0
 10
210.3576251103692
 20
163.2010338763021
 30
0.0
 10
210.3566812094319
 20
163.1526266142364
 30
0.0
 10
210.3543257131004
 20
163.0318267254926
 30
0.0
 10
210.3563887683153
 20
162.471719452139
 30
0.0
 10
210.3576251103976
 20
162.1360598984649
 30
0.0
  0
ARC
  5
275
330
1F
100
AcDbEntity
  8
0
  6
Continuous
 62
     7
370
    25
100
AcDbCircle
 10
210.1437712384
 20
159.7846103764
 30
0.0
 40
2.361154025759507
100
AcDbArc
 50
84.8034992243
 51
172.4658413595
  0
SPLINE
  5
276
330
1F
100
AcDbEntity
  8
0
  6
Continuous
 62
     7
370
    25
100
AcDbSpline
210
0.0
220
0.0
230
1.0
 70
     8
 71
     3
 72
     9
 73
     5
 74
     0
 42
0.00000001
 43
0.00000001
 40
0.0
 40
0.0
 40
0.0
 40
0.0
 40
0.5000106123815432
 40
1.0
 40
1.0
 40
1.0
 40
1.0
 10
215.4239449477698
 20
162.2165954043006
 30
0.0
 10
215.4191161103418
 20
162.5044359423938
 30
0.0
 10
215.4094586404633
 20
163.0801048001452
 30
0.0
 10
215.4393579961462
 20
163.218908061232
 30
0.0
 10
215.4543073566844
 20
163.2883082187422
 30
0.0
  0
LINE
  5
277
330
1F
100
AcDbEntity
  8
0
  6
Continuous
 62
     7
370
    25
100
AcDbLine
 10
215.4239449478
 20
162.2165954043
 30
0.0
 11
210.3576251104
 21
162.1360598985
 31
0.0
  0
LINE
  5
278
330
1F
100
AcDbEntity
  8
0
  6
Continuous
 62
     7
370
    25
100
AcDbLine
 10
211.2910453243
 20
176.2466891199
 30
0.0
 11
215.4239449478
 21
176.1809976729
 31
0.0
  0
SPLINE
  5
279
330
1F
100
AcDbEntity
  8
0
  6
Continuous
 62
     7
370
    25
100
AcDbSpline
210
0.0
220
0.0
230
1.0
 70
     8
 71
     3
 72
     9
 73
     5
 74
     0
 42
0.00000001
 43
0.00000001
 40
0.0
 40
0.0
 40
0.0
 40
0.0
 40
0.5055561057107295
 40
1.0
 40
1.0
 40
1.0
 40
1.0
 10
215.4543073566821
 20
175.1092848584847
 30
0.0
 10
215.4391505224015
 20
175.1799408927547
 30
0.0
 10
215.4091700037027
 20
175.3196999293321
 30
0.0
 10
215.4190565870154
 20
175.8960332041279
 30
0.0
 10
215.4239449477698
 20
176.1809976729264
 30
0.0
  0
SPLINE
  5
27A
330
1F
100
AcDbEntity
  8
0
  6
Continuous
 62
     7
370
    25
100
AcDbSpline
210
0.0
220
0.0
230
1.0
 70
     8
 71
     3
 72
     9
 73
     5
 74
     0
 42
0.00000001
 43
0.00000001
 40
0.0
 40
0.0
 40
0.0
 40
0.0
 40
0.0161297673533279
 40
1.0
 40
1.0
 40
1.0
 40
1.0
 10
215.4239449477698
 20
176.1809976729264
 30
0.0
 10
215.4252347473858
 20
176.1787786456024
 30
0.0
 10
215.5051986791497
 20
176.0412052215522
 30
0.0
 10
215.5840994502784
 20
175.8939983966973
 30
0.0
 10
215.6617275703248
 20
175.74916598368
 30
0.0
  0
SPLINE
  5
27B
330
1F
100
AcDbEntity
  8
0
  6
Continuous
 62
     7
370
    25
100
AcDbSpline
210
0.0
220
0.0
230
1.0
 70
     8
 71
     3
 72
     9
 73
     5
 74
     0
 42
0.00000001
 43
0.00000001
 40
0.0
 40
0.0
 40
0.0
 40
0.0
 40
0.9838702326459478
 40
1.0
 40
1.0
 40
1.0
 40
1.0
 10
215.6617275703248
 20
162.6484270935468
 30
0.0
 10
215.5840994502857
 20
162.5035946805274
 30
0.0
 10
215.5051986791645
 20
162.3563878556702
 30
0.0
 10
215.4252347473861
 20
162.2188144316246
 30
0.0
 10
215.4239449477698
 20
162.2165954043006
 30
0.0
  0
LINE
  5
27C
330
1F
100
AcDbEntity
  8
0
  6
Continuous
 62
     7
370
    25
100
AcDbLine
 10
207.8390317672
 20
179.1614697303
 30
0.0
 11
207.8030013671
 21
179.0877634766
 31
0.0
  0
LINE
  5
27D
330
1F
100
AcDbEntity
  8
0
  6
Continuous
 62
     7
370
    25
100
AcDbLine
 10
205.9806643281
 20
173.299189446
 30
0.0
 11
206.2170190924
 21
173.299189446
 31
0.0
  0
LINE
  5
27E
330
1F
100
AcDbEntity
  8
0
  6
Continuous
 62
     7
370
    25
100
AcDbLine
 10
218.0530013671
 20
174.5277108752
 30
0.0
 11
218.0530013671
 21
163.869882202
 31
0.0
  0
LINE
  5
27F
330
1F
100
AcDbEntity
  8
0
  6
Continuous
 62
     7
370
    25
100
AcDbLine
 10
188.8530013671
 20
161.0020589507
 30
0.0
 11
188.6030013671
 21
161.6090122158
 31
0.0
  0
LINE
  5
280
330
1F
100
AcDbEntity
  8
0
  6
Continuous
 62
     7
370
    25
100
AcDbLine
 10
188.6030013671
 20
167.2885808614
 30
0.0
 11
188.6030013671
 21
161.6090122158
 31
0.0
  0
LINE
  5
281
330
1F
100
AcDbEntity
  8
0
  6
Continuous
 62
     7
370
    25
100
AcDbLine
 10
188.6030013671
 20
167.2885808614
 30
0.0
 11
188.8530013671
 21
167.8955341265
 31
0.0
  0
LINE
  5
282
330
1F
100
AcDbEntity
  8
0
  6
Continuous
 62
     7
370
    25
100
AcDbLine
 10
191.4030013671
 20
167.8955341265
 30
0.0
 11
188.8530013671
 21
167.8955341265
 31
0.0
  0
SPLINE
  5
283
330
1F
100
AcDbEntity
  8
0
  6
Continuous
 62
     7
370
    25
100
AcDbSpline
210
0.0
220
0.0
230
1.0
 70
     8
 71
     3
 72
    11
 73
     7
 74
     0
 42
0.00000001
 43
0.00000001
 40
0.0
 40
0.0
 40
0.0
 40
0.0
 40
0.2431641197380917
 40
0.4936284730588931
 40
0.7421706076863265
 40
1.0
 40
1.0
 40
1.0
 40
1.0
 10
191.4030013671061
 20
161.0020589506906
 30
0.0
 10
191.6131416903149
 20
161.5455054829615
 30
0.0
 10
192.0397311352765
 20
162.6487138107483
 30
0.0
 10
192.2501155654195
 20
164.3987588404747
 30
0.0
 10
192.0594288717525
 20
166.1857280044178
 30
0.0
 10
191.6244697013578
 20
167.3186723846401
 30
0.0
 10
191.4030013671061
 20
167.8955341265363
 30
0.0
  0
LINE
  5
284
330
1F
100
AcDbEntity
  8
0
  6
Continuous
 62
     7
370
    25
100
AcDbLine
 10
188.8530013671
 20
161.0020589507
 30
0.0
 11
191.4030013671
 21
161.0020589507
 31
0.0
  0
SPLINE
  5
285
330
1F
100
AcDbEntity
  8
0
  6
Continuous
 62
     7
370
    25
100
AcDbSpline
210
0.0
220
0.0
230
1.0
 70
    24
 71
     3
 72
    10
 73
     6
 74
     0
 42
0.00000001
 43
0.00000001
 40
0.0
 40
0.0
 40
0.0
 40
0.0
 40
0.45487205282706
 40
0.941911340686806
 40
1.0
 40
1.0
 40
1.0
 40
1.0
 10
192.1773570711864
 20
159.6987965386135
 30
0.0
 10
192.1453551070497
 20
159.6987965386135
 30
0.0
 10
192.0790880924965
 20
159.6987965386135
 30
0.0
 10
191.6879474436064
 20
159.6987965386134
 30
0.0
 10
191.4304411547089
 20
159.6987965386134
 30
0.0
 10
191.4030013671061
 20
159.6987965386135
 30
0.0
  0
LINE
  5
286
330
1F
100
AcDbEntity
  8
0
  6
Continuous
 62
     7
370
    25
100
AcDbLine
 10
191.4030013671
 20
161.0020589507
 30
0.0
 11
191.4030013671
 21
159.6987965386
 31
0.0
  0
LINE
  5
287
330
1F
100
AcDbEntity
  8
0
  6
Continuous
 62
     7
370
    25
100
AcDbLine
 10
191.4030013671
 20
170.5020589507
 30
0.0
 11
191.4030013671
 21
167.8955341265
 31
0.0
  0
SPLINE
  5
288
330
1F
100
AcDbEntity
  8
0
  6
Continuous
 62
     7
370
    25
100
AcDbSpline
210
0.0
220
0.0
230
1.0
 70
     8
 71
     3
 72
    11
 73
     7
 74
     0
 42
0.00000001
 43
0.00000001
 40
0.0
 40
0.0
 40
0.0
 40
0.0
 40
0.2431641197380924
 40
0.4936284730588936
 40
0.7421706076863285
 40
1.0
 40
1.0
 40
1.0
 40
1.0
 10
191.4030013671061
 20
170.5020589506906
 30
0.0
 10
191.6131416903149
 20
171.0455054829614
 30
0.0
 10
192.0397311352765
 20
172.1487138107482
 30
0.0
 10
192.2501155654195
 20
173.8987588404748
 30
0.0
 10
192.0594288717525
 20
175.6857280044176
 30
0.0
 10
191.6244697013578
 20
176.81867238464
 30
0.0
 10
191.4030013671061
 20
177.3955341265362
 30
0.0
  0
LINE
  5
289
330
1F
100
AcDbEntity
  8
0
  6
Continuous
 62
     7
370
    25
100
AcDbLine
 10
191.4030013671
 20
178.6987965386
 30
0.0
 11
191.4030013671
 21
177.3955341265
 31
0.0
  0
SPLINE
  5
28A
330
1F
100
AcDbEntity
  8
0
  6
Continuous
 62
     7
370
    25
100
AcDbSpline
210
0.0
220
0.0
230
1.0
 70
    24
 71
     3
 72
    10
 73
     6
 74
     0
 42
0.00000001
 43
0.00000001
 40
0.0
 40
0.0
 40
0.0
 40
0.0
 40
0.0580868486472913
 40
0.5300316269435382
 40
1.0
 40
1.0
 40
1.0
 40
1.0
 10
191.4030013671061
 20
178.6987965386135
 30
0.0
 10
191.4304403025638
 20
178.6987965386134
 30
0.0
 10
191.6808154553034
 20
178.6987965386135
 30
0.0
 10
192.0746025341425
 20
178.6987965386134
 30
0.0
 10
192.1430349333746
 20
178.6987965386135
 30
0.0
 10
192.1771793375431
 20
178.6987965386135
 30
0.0
  0
LINE
  5
28B
330
1F
100
AcDbEntity
  8
0
  6
Continuous
 62
     7
370
    25
100
AcDbLine
 10
193.4030013671
 20
177.4487965386
 30
0.0
 11
193.4030013671
 21
160.9487965386
 31
0.0
  0
LINE
  5
28C
330
1F
100
AcDbEntity
  8
0
  6
Continuous
 62
     7
370
    25
100
AcDbLine
 10
188.8530013671
 20
170.5020589507
 30
0.0
 11
188.6030013671
 21
171.1090122158
 31
0.0
  0
LINE
  5
28D
330
1F
100
AcDbEntity
  8
0
  6
Continuous
 62
     7
370
    25
100
AcDbLine
 10
188.6030013671
 20
176.7885808614
 30
0.0
 11
188.6030013671
 21
171.1090122158
 31
0.0
  0
LINE
  5
28E
330
1F
100
AcDbEntity
  8
0
  6
Continuous
 62
     7
370
    25
100
AcDbLine
 10
188.6030013671
 20
176.7885808614
 30
0.0
 11
188.8530013671
 21
177.3955341265
 31
0.0
  0
LINE
  5
28F
330
1F
100
AcDbEntity
  8
0
  6
Continuous
 62
     7
370
    25
100
AcDbLine
 10
191.4030013671
 20
177.3955341265
 30
0.0
 11
188.8530013671
 21
177.3955341265
 31
0.0
  0
LINE
  5
290
330
1F
100
AcDbEntity
  8
0
  6
Continuous
 62
     7
370
    25
100
AcDbLine
 10
188.8530013671
 20
170.5020589507
 30
0.0
 11
191.4030013671
 21
170.5020589507
 31
0.0
  0
LINE
  5
291
330
1F
100
AcDbEntity
  8
0
  6
Continuous
 62
     7
370
    25
100
AcDbLine
 10
188.8530013671
 20
170.5020589507
 30
0.0
 11
188.8530013671
 21
167.8955341265
 31
0.0
  0
LINE
  5
292
330
1F
100
AcDbEntity
  8
0
  6
Continuous
 62
     7
370
    25
100
AcDbLine
 10
188.6030013671
 20
167.2885808614
 30
0.0
 11
188.6030013671
 21
171.1090122158
 31
0.0
  0
SPLINE
  5
293
330
1F
100
AcDbEntity
  8
0
  6
Continuous
 62
     7
370
    25
100
AcDbSpline
210
0.0
220
0.0
230
1.0
 70
     8
 71
     3
 72
    35
 73
    31
 74
     0
 42
0.00000001
 43
0.00000001
 40
0.0
 40
0.0
 40
0.0
 40
0.0
 40
0.0090244057590596
 40
0.0333720401352694
 40
0.0601759811223379
 40
0.0745399081436057
 40
0.1008045740791161
 40
0.1376609863156994
 40
0.1653685613570518
 40
0.1996204422150976
 40
0.2366544341576811
 40
0.2697116072887939
 40
0.3039654845597429
 40
0.3582540442022722
 40
0.4066904388091909
 40
0.4424693069460136
 40
0.4655764792670231
 40
0.4876873785268994
 40
0.5124095952568491
 40
0.5352758037637345
 40
0.565360791386394
 40
0.617024283386808
 40
0.7002840938089808
 40
0.755642298667969
 40
0.8299093553557934
 40
0.8778165427001835
 40
0.9216707740240978
 40
0.9585666222541054
 40
0.9880575042488776
 40
1.0
 40
1.0
 40
1.0
 40
1.0
 10
185.7977994623483
 20
178.5783203821757
 30
0.0
 10
185.7998405279448
 20
178.5788760870061
 30
0.0
 10
185.8073883404907
 20
178.5809310703924
 30
0.0
 10
185.8213735348454
 20
178.5018139679531
 30
0.0
 10
185.8368115228874
 20
178.3870012955716
 30
0.0
 10
185.8529797259074
 20
178.2208257631221
 30
0.0
 10
185.8716203622172
 20
177.9844049067313
 30
0.0
 10
185.8935269068198
 20
177.6234399857681
 30
0.0
 10
185.9171962251793
 20
177.1433347617024
 30
0.0
 10
185.940506748343
 20
176.5818005986139
 30
0.0
 10
185.9645414472997
 20
175.8994748317597
 30
0.0
 10
185.9875316918789
 20
175.1370612995663
 30
0.0
 10
186.0163693629296
 20
174.1688975590421
 30
0.0
 10
186.0493446779043
 20
172.9744615890928
 30
0.0
 10
186.082496268372
 20
171.680470308378
 30
0.0
 10
186.1080232042047
 20
170.6431621382685
 30
0.0
 10
186.1270226780219
 20
169.8502487529003
 30
0.0
 10
186.1428536585031
 20
169.1622129536497
 30
0.0
 10
186.1588118149876
 20
168.4765410231543
 30
0.0
 10
186.1762908744943
 20
167.7170026337958
 30
0.0
 10
186.2012875416966
 20
166.7066990573459
 30
0.0
 10
186.2410418536185
 20
165.1630829475005
 30
0.0
 10
186.2870481488626
 20
163.5355101308441
 30
0.0
 10
186.3347950015526
 20
162.0067968015342
 30
0.0
 10
186.3769019876348
 20
160.9947953477076
 30
0.0
 10
186.4169501326433
 20
160.3308070602789
 30
0.0
 10
186.4477086874717
 20
159.9827728406681
 30
0.0
 10
186.4737411267373
 20
159.8350402593412
 30
0.0
 10
186.4911858555121
 20
159.7734449531428
 30
0.0
 10
186.5008523889038
 20
159.818229156922
 30
0.0
 10
186.5036386095848
 20
159.8311374736571
 30
0.0
  0
SPLINE
  5
294
330
1F
100
AcDbEntity
  8
0
  6
Continuous
 62
     7
370
    25
100
AcDbSpline
210
0.0
220
0.0
230
1.0
 70
     8
 71
     3
 72
    15
 73
    11
 74
     0
 42
0.00000001
 43
0.00000001
 40
0.0
 40
0.0
 40
0.0
 40
0.0
 40
0.0478890380034085
 40
0.1935590801527027
 40
0.3355480626132341
 40
0.4612063989062982
 40
0.6074579278047259
 40
0.7139272803830491
 40
0.8169654676042853
 40
1.0
 40
1.0
 40
1.0
 40
1.0
 10
185.9530013671061
 20
162.951030320175
 30
0.0
 10
185.9559471717838
 20
162.8538172831674
 30
0.0
 10
185.9678535968758
 20
162.46089926254
 30
0.0
 10
185.9881377400308
 20
161.8773671645335
 30
0.0
 10
186.0142955625462
 20
161.2379073577633
 30
0.0
 10
186.0409197052183
 20
160.7085189269187
 30
0.0
 10
186.0652809077251
 20
160.3251219557674
 30
0.0
 10
186.0881228882362
 20
160.0618804892067
 30
0.0
 10
186.1134365750018
 20
159.8518683510439
 30
0.0
 10
186.1307856566498
 20
159.8198552008818
 30
0.0
 10
186.141885914833
 20
159.7993726047843
 30
0.0
  0
SPLINE
  5
295
330
1F
100
AcDbEntity
  8
0
  6
Continuous
 62
     7
370
    25
100
AcDbSpline
210
0.0
220
0.0
230
1.0
 70
     8
 71
     3
 72
    19
 73
    15
 74
     0
 42
0.00000001
 43
0.00000001
 40
0.0
 40
0.0
 40
0.0
 40
0.0
 40
0.0770505353374608
 40
0.1776836545754067
 40
0.2760982013951022
 40
0.3764958487821196
 40
0.4761449113035559
 40
0.5441919610790388
 40
0.6133582359614277
 40
0.6829756792425107
 40
0.7813646647090063
 40
0.8818435591124951
 40
0.9813245879876362
 40
1.0
 40
1.0
 40
1.0
 40
1.0
 10
186.2398425555464
 20
177.755332367826
 30
0.0
 10
186.2575434048468
 20
177.7050093334814
 30
0.0
 10
186.2983627395732
 20
177.5889610722654
 30
0.0
 10
186.3668841777835
 20
176.431015247938
 30
0.0
 10
186.4331322360869
 20
174.5704572993183
 30
0.0
 10
186.5059945064488
 20
172.1685317731955
 30
0.0
 10
186.5694436506939
 20
169.7551686737827
 30
0.0
 10
186.6225467421086
 20
167.6119321518665
 30
0.0
 10
186.6726911481372
 20
165.8112395444237
 30
0.0
 10
186.7299621539574
 20
163.933025957082
 30
0.0
 10
186.7893960426095
 20
162.1551552007207
 30
0.0
 10
186.8627398712856
 20
160.9378987865688
 30
0.0
 10
186.913489385974
 20
160.4347731803092
 30
0.0
 10
186.9410151752341
 20
160.6069667874046
 30
0.0
 10
186.9453658094572
 20
160.6341831332444
 30
0.0
  0
SPLINE
  5
296
330
1F
100
AcDbEntity
  8
0
  6
Continuous
 62
     7
370
    25
100
AcDbSpline
210
0.0
220
0.0
230
1.0
 70
     8
 71
     3
 72
    22
 73
    18
 74
     0
 42
0.00000001
 43
0.00000001
 40
0.0
 40
0.0
 40
0.0
 40
0.0
 40
0.0322559774995884
 40
0.1016689078701324
 40
0.1710818376161172
 40
0.2404947673629131
 40
0.3099076971058066
 40
0.3786936808213667
 40
0.4472621115885804
 40
0.5158305418595421
 40
0.5843989721299286
 40
0.6529534196205115
 40
0.7206773543488654
 40
0.788401288220002
 40
0.8561252217588262
 40
0.9269330641999515
 40
1.0
 40
1.0
 40
1.0
 40
1.0
 10
186.7579739147691
 20
178.412063294879
 30
0.0
 10
186.7614658882107
 20
178.415467758816
 30
0.0
 10
186.7724723792131
 20
178.4261984251048
 30
0.0
 10
186.7919278388925
 20
178.1723925612258
 30
0.0
 10
186.8162004784711
 20
177.6703907903102
 30
0.0
 10
186.8405190217618
 20
176.9220798828584
 30
0.0
 10
186.8639862573598
 20
175.9690562548286
 30
0.0
 10
186.8864065172631
 20
174.8356036539977
 30
0.0
 10
186.9104292295369
 20
173.5545342106893
 30
0.0
 10
186.9347328395383
 20
172.1584352665446
 30
0.0
 10
186.959008081341
 20
170.6845438430349
 30
0.0
 10
186.9818791208289
 20
169.1795245272202
 30
0.0
 10
187.0047816541709
 20
167.6854007625639
 30
0.0
 10
187.0289387081041
 20
166.2418111037458
 30
0.0
 10
187.0536561851267
 20
164.866779637958
 30
0.0
 10
187.0786824682584
 20
163.5715000904235
 30
0.0
 10
187.0948106536295
 20
162.8489296703323
 30
0.0
 10
187.1030013671061
 20
162.4819716312567
 30
0.0
  0
SPLINE
  5
297
330
1F
100
AcDbEntity
  8
0
  6
Continuous
 62
     7
370
    25
100
AcDbSpline
210
0.0
220
0.0
230
1.0
 70
    24
 71
     3
 72
    10
 73
     6
 74
     0
 42
0.00000001
 43
0.00000001
 40
0.0
 40
0.0
 40
0.0
 40
0.0
 40
0.3294562546722005
 40
0.8318642056942908
 40
1.0
 40
1.0
 40
1.0
 40
1.0
 10
187.1030013671061
 20
162.4819716312566
 30
0.0
 10
187.1030013671061
 20
162.112218685856
 30
0.0
 10
187.1030013671061
 20
161.1786069062441
 30
0.0
 10
187.1030013671062
 20
160.6272308073342
 30
0.0
 10
187.1030013671061
 20
160.5816458200797
 30
0.0
 10
187.1030013671061
 20
160.5702155918599
 30
0.0
  0
SPLINE
  5
298
330
1F
100
AcDbEntity
  8
0
  6
Continuous
 62
     7
370
    25
100
AcDbSpline
210
0.0
220
0.0
230
1.0
 70
     8
 71
     3
 72
    18
 73
    14
 74
     0
 42
0.00000001
 43
0.00000001
 40
0.0
 40
0.0
 40
0.0
 40
0.0
 40
0.092027071924573
 40
0.1940458328883521
 40
0.2874258845647118
 40
0.3821940119862819
 40
0.4027152769102296
 40
0.5035065921056981
 40
0.604053356250226
 40
0.7060243116249101
 40
0.8057680385526277
 40
0.9076304505758258
 40
0.9999999999999999
 40
0.9999999999999999
 40
0.9999999999999999
 40
0.9999999999999999
 10
186.4066613612987
 20
177.8033041141377
 30
0.0
 10
186.4274918316286
 20
177.7481502923867
 30
0.0
 10
186.471414406585
 20
177.6318544127631
 30
0.0
 10
186.5417261655932
 20
176.4599819041288
 30
0.0
 10
186.6051552508387
 20
174.700622935662
 30
0.0
 10
186.6549252936933
 20
173.0727164991285
 30
0.0
 10
186.7062255274773
 20
171.2719816662807
 30
0.0
 10
186.7571168641219
 20
169.2904196757144
 30
0.0
 10
186.8258856567164
 20
166.5820338769874
 30
0.0
 10
186.8996261269144
 20
164.1295144974934
 30
0.0
 10
186.9657604287812
 20
162.1778243190354
 30
0.0
 10
187.0370369563321
 20
160.8912183620946
 30
0.0
 10
187.0817415248858
 20
160.6736724130062
 30
0.0
 10
187.1030013671061
 20
160.5702155918599
 30
0.0
  0
LINE
  5
299
330
1F
100
AcDbEntity
  8
0
  6
Continuous
 62
     7
370
    25
100
AcDbLine
 10
187.1030013671
 20
178.0987965386
 30
0.0
 11
187.1030013671
 21
162.4819716313
 31
0.0
  0
LINE
  5
29A
330
1F
100
AcDbEntity
  8
0
  6
Continuous
 62
     7
370
    25
100
AcDbLine
 10
187.1030013671
 20
160.5702155919
 30
0.0
 11
187.1030013671
 21
160.5625889107
 31
0.0
  0
LINE
  5
29B
330
1F
100
AcDbEntity
  8
0
  6
Continuous
 62
     7
370
    25
100
AcDbLine
 10
188.8530013671
 20
178.6987965386
 30
0.0
 11
188.6030013671
 21
178.6987965386
 31
0.0
  0
LINE
  5
29C
330
1F
100
AcDbEntity
  8
0
  6
Continuous
 62
     7
370
    25
100
AcDbLine
 10
188.8530013671
 20
178.6987965386
 30
0.0
 11
188.8530013671
 21
177.3955341265
 31
0.0
  0
LINE
  5
29D
330
1F
100
AcDbEntity
  8
0
  6
Continuous
 62
     7
370
    25
100
AcDbLine
 10
188.6030013671
 20
176.7885808614
 30
0.0
 11
188.6030013671
 21
178.6987965386
 31
0.0
  0
LINE
  5
29E
330
1F
100
AcDbEntity
  8
0
  6
Continuous
 62
     7
370
    25
100
AcDbLine
 10
188.8530013671
 20
161.0020589507
 30
0.0
 11
188.8530013671
 21
159.6987965386
 31
0.0
  0
LINE
  5
29F
330
1F
100
AcDbEntity
  8
0
  6
Continuous
 62
     7
370
    25
100
AcDbLine
 10
188.6030013671
 20
159.6987965386
 30
0.0
 11
188.8530013671
 21
159.6987965386
 31
0.0
  0
LINE
  5
2A0
330
1F
100
AcDbEntity
  8
0
  6
Continuous
 62
     7
370
    25
100
AcDbLine
 10
188.6030013671
 20
159.6987965386
 30
0.0
 11
188.6030013671
 21
161.6090122158
 31
0.0
  0
LINE
  5
2A1
330
1F
100
AcDbEntity
  8
0
  6
Continuous
 62
     7
370
    25
100
AcDbLine
 10
188.8530013671
 20
178.6987965386
 30
0.0
 11
191.4030013671
 21
178.6987965386
 31
0.0
  0
LINE
  5
2A2
330
1F
100
AcDbEntity
  8
0
  6
Continuous
 62
     7
370
    25
100
AcDbLine
 10
191.4030013671
 20
159.6987965386
 30
0.0
 11
188.8530013671
 21
159.6987965386
 31
0.0
  0
LINE
  5
2A3
330
1F
100
AcDbEntity
  8
0
  6
Continuous
 62
     7
370
    25
100
AcDbLine
 10
176.9530013671
 20
166.6874346397
 30
0.0
 11
176.9530013671
 21
171.6425335651
 31
0.0
  0
LWPOLYLINE
  5
2A4
330
1F
100
AcDbEntity
  8
0
  6
Continuous
 62
     7
370
    25
100
AcDbPolyline
 90
        3
 70
   128
 43
0.0
 10
144.0530013671
 20
29.202123511
 10
143.8731919049
 20
31.0619899236
 10
143.7030013671
 20
31.7857357315
  0
ARC
  5
2A5
330
1F
100
AcDbEntity
  8
0
  6
Continuous
 62
     7
370
    25
100
AcDbCircle
 10
134.1167260107
 20
29.273571089
 30
0.0
 40
9.93653222781646
100
AcDbArc
 50
165.3554888117
 51
359.5880172419
  0
ARC
  5
2A6
330
1F
100
AcDbEntity
  8
0
  6
Continuous
 62
     7
370
    25
100
AcDbCircle
 10
134.1167018447
 20
29.2477967694
 30
0.0
 40
10.03648682770029
100
AcDbArc
 50
164.1749708514
 51
359.6499561725
  0
LWPOLYLINE
  5
2A7
330
1F
100
AcDbEntity
  8
0
  6
Continuous
 62
     7
370
    25
100
AcDbPolyline
 90
        3
 70
   128
 43
0.0
 10
143.7312966088
 20
32.0317135671
 10
143.9713847746
 20
31.0650386018
 10
144.1530013671
 20
29.1864800645
  0
ARC
  5
2A8
330
1F
100
AcDbEntity
  8
0
  6
Continuous
 62
     7
370
    25
100
AcDbCircle
 10
134.1030013671
 20
29.0788627043
 30
0.0
 40
10.0504560878152
100
AcDbArc
 50
180.5458466161
 51
359.4541533839
  0
SPLINE
  5
2A9
330
1F
100
AcDbEntity
  8
0
  6
Continuous
 62
     7
370
    25
100
AcDbSpline
210
0.0
220
0.0
230
1.0
 70
     8
 71
     3
 72
     9
 73
     5
 74
     0
 42
0.00000001
 43
0.00000001
 40
0.0
 40
0.0
 40
0.0
 40
0.0
 40
0.5841917497409244
 40
1.0
 40
1.0
 40
1.0
 40
1.0
 10
170.2530013671062
 20
153.5196626803457
 30
0.0
 10
170.2268334032855
 20
153.3285804582792
 30
0.0
 10
170.1820399534768
 20
153.0014922682264
 30
0.0
 10
169.9394255359629
 20
152.9642727297731
 30
0.0
 10
169.8385444595287
 20
152.9487965386134
 30
0.0
  0
LINE
  5
2AA
330
1F
100
AcDbEntity
  8
0
  6
Continuous
 62
     7
370
    25
100
AcDbLine
 10
170.2530013671
 20
153.5196626803
 30
0.0
 11
170.2530013671
 21
154.2464895544
 31
0.0
  0
LINE
  5
2AB
330
1F
100
AcDbEntity
  8
0
  6
Continuous
 62
     7
370
    25
100
AcDbLine
 10
170.1892350354
 20
154.7870591075
 30
0.0
 11
170.2530013671
 21
154.2464895544
 31
0.0
  0
LINE
  5
2AC
330
1F
100
AcDbEntity
  8
0
  6
Continuous
 62
     7
370
    25
100
AcDbLine
 10
170.2530013671
 20
184.1511035228
 30
0.0
 11
170.1784450676
 21
183.6786585169
 31
0.0
  0
LINE
  5
2AD
330
1F
100
AcDbEntity
  8
0
  6
Continuous
 62
     7
370
    25
100
AcDbLine
 10
170.2530013671
 20
184.1511035228
 30
0.0
 11
170.2530013671
 21
184.8779303969
 31
0.0
  0
SPLINE
  5
2AE
330
1F
100
AcDbEntity
  8
0
  6
Continuous
 62
     7
370
    25
100
AcDbSpline
210
0.0
220
0.0
230
1.0
 70
     8
 71
     3
 72
     9
 73
     5
 74
     0
 42
0.00000001
 43
0.00000001
 40
0.0
 40
0.0
 40
0.0
 40
0.0
 40
0.5850553834536167
 40
1.0
 40
1.0
 40
1.0
 40
1.0
 10
169.8385444595287
 20
185.4487965386135
 30
0.0
 10
169.9750985935531
 20
185.4170981215748
 30
0.0
 10
170.208502366745
 20
185.3629179226823
 30
0.0
 10
170.2399516544703
 20
185.0201571388822
 30
0.0
 10
170.2530013671062
 20
184.8779303968812
 30
0.0
  0
SPLINE
  5
2AF
330
1F
100
AcDbEntity
  8
0
  6
Continuous
 62
     7
370
    25
100
AcDbSpline
210
0.0
220
0.0
230
1.0
 70
    27
 71
     3
 72
    11
 73
     7
 74
     0
 42
0.00000001
 43
0.00000001
 40
0.0
 40
0.0
 40
0.0
 40
0.0
 40
0.2328716322111443
 40
0.4710265024313165
 40
0.731142121256025
 40
0.9999999999999999
 40
0.9999999999999999
 40
0.9999999999999999
 40
0.9999999999999999
 10
169.8385444595287
 20
185.4487965386135
 30
0.0
 10
169.568147724856
 20
185.4487965386135
 30
0.0
 10
169.0212196727252
 20
185.4487965386135
 30
0.0
 10
168.7199953547416
 20
185.4487965386134
 30
0.0
 10
168.9276471201512
 20
185.4487965386135
 30
0.0
 10
169.5315849519315
 20
185.4487965386135
 30
0.0
 10
169.8385444595287
 20
185.4487965386135
 30
0.0
  0
SPLINE
  5
2B0
330
1F
100
AcDbEntity
  8
0
  6
Continuous
 62
     7
370
    25
100
AcDbSpline
210
0.0
220
0.0
230
1.0
 70
     8
 71
     3
 72
     9
 73
     5
 74
     0
 42
0.00000001
 43
0.00000001
 40
0.0
 40
0.0
 40
0.0
 40
0.0
 40
0.5841917497409198
 40
1.0
 40
1.0
 40
1.0
 40
1.0
 10
170.2530013671062
 20
184.8779303968812
 30
0.0
 10
170.2268334032855
 20
185.0690126189477
 30
0.0
 10
170.1820399534768
 20
185.3961008090005
 30
0.0
 10
169.9394255359629
 20
185.4333203474538
 30
0.0
 10
169.8385444595287
 20
185.4487965386135
 30
0.0
  0
LINE
  5
2B1
330
1F
100
AcDbEntity
  8
0
  6
Continuous
 62
     7
370
    25
100
AcDbLine
 10
170.2530013671
 20
184.8779303969
 30
0.0
 11
170.2530013671
 21
184.1511035228
 31
0.0
  0
SPLINE
  5
2B2
330
1F
100
AcDbEntity
  8
0
  6
Continuous
 62
     7
370
    25
100
AcDbSpline
210
0.0
220
0.0
230
1.0
 70
     8
 71
     3
 72
     9
 73
     5
 74
     0
 42
0.00000001
 43
0.00000001
 40
0.0
 40
0.0
 40
0.0
 40
0.0
 40
0.5850553834536177
 40
1.0
 40
1.0
 40
1.0
 40
1.0
 10
169.8385444595287
 20
182.427287990551
 30
0.0
 10
169.9750985935531
 20
182.8138345161148
 30
0.0
 10
170.208502366745
 20
183.4745352574396
 30
0.0
 10
170.2399516544703
 20
183.9526940895653
 30
0.0
 10
170.2530013671062
 20
184.1511035228099
 30
0.0
  0
SPLINE
  5
2B3
330
1F
100
AcDbEntity
  8
0
  6
Continuous
 62
     7
370
    25
100
AcDbSpline
210
0.0
220
0.0
230
1.0
 70
     8
 71
     3
 72
    11
 73
     7
 74
     0
 42
0.00000001
 43
0.00000001
 40
0.0
 40
0.0
 40
0.0
 40
0.0
 40
0.2328716322111458
 40
0.4710265024313195
 40
0.7311421212560275
 40
1.0
 40
1.0
 40
1.0
 40
1.0
 10
169.8385444595287
 20
172.2203050866759
 30
0.0
 10
169.568147724856
 20
172.9944074626694
 30
0.0
 10
169.0212196727252
 20
174.5601745388302
 30
0.0
 10
168.7199953547416
 20
177.0956135061249
 30
0.0
 10
168.9276471201512
 20
179.7691195865941
 30
0.0
 10
169.5315849519315
 20
181.5315228706893
 30
0.0
 10
169.8385444595287
 20
182.427287990551
 30
0.0
  0
SPLINE
  5
2B4
330
1F
100
AcDbEntity
  8
0
  6
Continuous
 62
     7
370
    25
100
AcDbSpline
210
0.0
220
0.0
230
1.0
 70
     8
 71
     3
 72
     9
 73
     5
 74
     0
 42
0.00000001
 43
0.00000001
 40
0.0
 40
0.0
 40
0.0
 40
0.0
 40
0.5841917497409279
 40
1.0
 40
1.0
 40
1.0
 40
1.0
 10
170.2530013671062
 20
169.9256234126847
 30
0.0
 10
170.2268334032855
 20
170.4059815382509
 30
0.0
 10
170.1820399534768
 20
171.2282425951373
 30
0.0
 10
169.9394255359629
 20
171.9289465862018
 30
0.0
 10
169.8385444595287
 20
172.2203050866759
 30
0.0
  0
LINE
  5
2B5
330
1F
100
AcDbEntity
  8
0
  6
Continuous
 62
     7
370
    25
100
AcDbLine
 10
170.2530013671
 20
169.9256234127
 30
0.0
 11
170.2530013671
 21
168.4719696645
 31
0.0
  0
SPLINE
  5
2B6
330
1F
100
AcDbEntity
  8
0
  6
Continuous
 62
     7
370
    25
100
AcDbSpline
210
0.0
220
0.0
230
1.0
 70
     8
 71
     3
 72
     9
 73
     5
 74
     0
 42
0.00000001
 43
0.00000001
 40
0.0
 40
0.0
 40
0.0
 40
0.0
 40
0.5850553834536233
 40
1.0
 40
1.0
 40
1.0
 40
1.0
 10
169.8385444595287
 20
166.177287990551
 30
0.0
 10
169.9750985935531
 20
166.5955329331535
 30
0.0
 10
170.208502366745
 20
167.3104138733707
 30
0.0
 10
170.2399516544703
 20
168.1313334892965
 30
0.0
 10
170.2530013671062
 20
168.4719696645422
 30
0.0
  0
SPLINE
  5
2B7
330
1F
100
AcDbEntity
  8
0
  6
Continuous
 62
     7
370
    25
100
AcDbSpline
210
0.0
220
0.0
230
1.0
 70
     8
 71
     3
 72
    11
 73
     7
 74
     0
 42
0.00000001
 43
0.00000001
 40
0.0
 40
0.0
 40
0.0
 40
0.0
 40
0.2556279644381
 40
0.5185037642963928
 40
0.7560467972580126
 40
1.0
 40
1.0
 40
1.0
 40
1.0
 10
169.8385444595287
 20
155.9703050866759
 30
0.0
 10
169.5449184994268
 20
156.8212496596433
 30
0.0
 10
168.9493413842912
 20
158.5472656894665
 30
0.0
 10
168.7174524226646
 20
161.1803482176638
 30
0.0
 10
169.0004228811254
 20
163.7640756378343
 30
0.0
 10
169.5567020146896
 20
165.3657760489288
 30
0.0
 10
169.8385444595287
 20
166.177287990551
 30
0.0
  0
SPLINE
  5
2B8
330
1F
100
AcDbEntity
  8
0
  6
Continuous
 62
     7
370
    25
100
AcDbSpline
210
0.0
220
0.0
230
1.0
 70
     8
 71
     3
 72
     9
 73
     5
 74
     0
 42
0.00000001
 43
0.00000001
 40
0.0
 40
0.0
 40
0.0
 40
0.0
 40
0.5841917497409169
 40
1.0
 40
1.0
 40
1.0
 40
1.0
 10
170.2530013671062
 20
154.246489554417
 30
0.0
 10
170.2268334032855
 20
154.5357654579167
 30
0.0
 10
170.1820399534768
 20
155.0309383247502
 30
0.0
 10
169.9394255359629
 20
155.6944227773615
 30
0.0
 10
169.8385444595287
 20
155.9703050866759
 30
0.0
  0
LINE
  5
2B9
330
1F
100
AcDbEntity
  8
0
  6
Continuous
 62
     7
370
    25
100
AcDbLine
 10
170.2530013671
 20
154.2464895544
 30
0.0
 11
170.2530013671
 21
153.5196626803
 31
0.0
  0
SPLINE
  5
2BA
330
1F
100
AcDbEntity
  8
0
  6
Continuous
 62
     7
370
    25
100
AcDbSpline
210
0.0
220
0.0
230
1.0
 70
     8
 71
     3
 72
     9
 73
     5
 74
     0
 42
0.00000001
 43
0.00000001
 40
0.0
 40
0.0
 40
0.0
 40
0.0
 40
0.5850553834536151
 40
1.0
 40
1.0
 40
1.0
 40
1.0
 10
169.8385444595287
 20
152.9487965386134
 30
0.0
 10
169.9750985935531
 20
152.9804949556521
 30
0.0
 10
170.208502366745
 20
153.0346751545446
 30
0.0
 10
170.2399516544703
 20
153.3774359383447
 30
0.0
 10
170.2530013671062
 20
153.5196626803457
 30
0.0
  0
SPLINE
  5
2BB
330
1F
100
AcDbEntity
  8
0
  6
Continuous
 62
     7
370
    25
100
AcDbSpline
210
0.0
220
0.0
230
1.0
 70
    27
 71
     3
 72
    11
 73
     7
 74
     0
 42
0.00000001
 43
0.00000001
 40
0.0
 40
0.0
 40
0.0
 40
0.0
 40
0.2328716322111445
 40
0.4710265024313164
 40
0.7311421212560258
 40
0.9999999999999999
 40
0.9999999999999999
 40
0.9999999999999999
 40
0.9999999999999999
 10
169.8385444595287
 20
152.9487965386134
 30
0.0
 10
169.568147724856
 20
152.9487965386134
 30
0.0
 10
169.0212196727252
 20
152.9487965386134
 30
0.0
 10
168.7199953547415
 20
152.9487965386135
 30
0.0
 10
168.9276471201513
 20
152.9487965386134
 30
0.0
 10
169.5315849519315
 20
152.9487965386134
 30
0.0
 10
169.8385444595287
 20
152.9487965386134
 30
0.0
  0
LINE
  5
2BC
330
1F
100
AcDbEntity
  8
0
  6
Continuous
 62
     7
370
    25
100
AcDbLine
 10
168.7530013671
 20
185.3987965386
 30
0.0
 11
168.7530013671
 21
152.9987965386
 31
0.0
  0
LINE
  5
2BD
330
1F
100
AcDbEntity
  8
0
  6
Continuous
 62
     7
370
    25
100
AcDbLine
 10
169.8385444595
 20
172.2203050867
 30
0.0
 11
177.1174582747
 21
172.2203050867
 31
0.0
  0
LINE
  5
2BE
330
1F
100
AcDbEntity
  8
0
  6
Continuous
 62
     7
370
    25
100
AcDbLine
 10
177.1174582747
 20
182.4272879906
 30
0.0
 11
169.8385444595
 21
182.4272879906
 31
0.0
  0
SPLINE
  5
2BF
330
1F
100
AcDbEntity
  8
0
  6
Continuous
 62
     7
370
    25
100
AcDbSpline
210
0.0
220
0.0
230
1.0
 70
     8
 71
     3
 72
    11
 73
     7
 74
     0
 42
0.00000001
 43
0.00000001
 40
0.0
 40
0.0
 40
0.0
 40
0.0
 40
0.2328716322111457
 40
0.4710265024313227
 40
0.7311421212560276
 40
0.9999999999999999
 40
0.9999999999999999
 40
0.9999999999999999
 40
0.9999999999999999
 10
177.1174582746835
 20
182.427287990551
 30
0.0
 10
177.3878550093562
 20
181.6531856145575
 30
0.0
 10
177.9347830614871
 20
180.0874185383968
 30
0.0
 10
178.2360073794707
 20
177.5519795711019
 30
0.0
 10
178.028355614061
 20
174.8784734906328
 30
0.0
 10
177.4244177822807
 20
173.1160702065376
 30
0.0
 10
177.1174582746835
 20
172.2203050866759
 30
0.0
  0
LINE
  5
2C0
330
1F
100
AcDbEntity
  8
0
  6
Continuous
 62
     7
370
    25
100
AcDbLine
 10
185.9530013671
 20
158.6237965386
 30
0.0
 11
185.9530013671
 21
179.7737965386
 31
0.0
  0
LINE
  5
2C1
330
1F
100
AcDbEntity
  8
0
  6
Continuous
 62
     7
370
    25
100
AcDbLine
 10
176.7030013671
 20
169.9256234127
 30
0.0
 11
170.2530013671
 21
169.9256234127
 31
0.0
  0
SPLINE
  5
2C2
330
1F
100
AcDbEntity
  8
0
  6
Continuous
 62
     7
370
    25
100
AcDbSpline
210
0.0
220
0.0
230
1.0
 70
     8
 71
     3
 72
     9
 73
     5
 74
     0
 42
0.00000001
 43
0.00000001
 40
0.0
 40
0.0
 40
0.0
 40
0.0
 40
0.5850553834536166
 40
1.0
 40
1.0
 40
1.0
 40
1.0
 10
177.1174582746835
 20
172.2203050866759
 30
0.0
 10
176.9809041406591
 20
171.8020601440734
 30
0.0
 10
176.7475003674672
 20
171.0871792038562
 30
0.0
 10
176.716051079742
 20
170.2662595879304
 30
0.0
 10
176.7030013671061
 20
169.9256234126847
 30
0.0
  0
LINE
  5
2C3
330
1F
100
AcDbEntity
  8
0
  6
Continuous
 62
     7
370
    25
100
AcDbLine
 10
170.2530013671
 20
168.4719696645
 30
0.0
 11
176.7030013671
 21
168.4719696645
 31
0.0
  0
LINE
  5
2C4
330
1F
100
AcDbEntity
  8
0
  6
Continuous
 62
     7
370
    25
100
AcDbLine
 10
176.7030013671
 20
168.4719696645
 30
0.0
 11
176.7030013671
 21
169.9256234127
 31
0.0
  0
LINE
  5
2C5
330
1F
100
AcDbEntity
  8
0
  6
Continuous
 62
     7
370
    25
100
AcDbLine
 10
177.1174582747
 20
166.1772879906
 30
0.0
 11
169.8385444595
 21
166.1772879906
 31
0.0
  0
SPLINE
  5
2C6
330
1F
100
AcDbEntity
  8
0
  6
Continuous
 62
     7
370
    25
100
AcDbSpline
210
0.0
220
0.0
230
1.0
 70
     8
 71
     3
 72
     9
 73
     5
 74
     0
 42
0.00000001
 43
0.00000001
 40
0.0
 40
0.0
 40
0.0
 40
0.0
 40
0.5841917497409954
 40
1.0
 40
1.0
 40
1.0
 40
1.0
 10
176.7030013671061
 20
168.4719696645422
 30
0.0
 10
176.7291693309267
 20
167.991611538976
 30
0.0
 10
176.7739627807354
 20
167.1693504820898
 30
0.0
 10
177.0165771982493
 20
166.4686464910253
 30
0.0
 10
177.1174582746834
 20
166.1772879905513
 30
0.0
  0
LINE
  5
2C7
330
1F
100
AcDbEntity
  8
0
  6
Continuous
 62
     7
370
    25
100
AcDbLine
 10
169.8385444595
 20
155.9703050867
 30
0.0
 11
177.1174582747
 21
155.9703050867
 31
0.0
  0
SPLINE
  5
2C8
330
1F
100
AcDbEntity
  8
0
  6
Continuous
 62
     7
370
    25
100
AcDbSpline
210
0.0
220
0.0
230
1.0
 70
     8
 71
     3
 72
    11
 73
     7
 74
     0
 42
0.00000001
 43
0.00000001
 40
0.0
 40
0.0
 40
0.0
 40
0.0
 40
0.2379053903768484
 40
0.4814905141303192
 40
0.7366519444348066
 40
1.0
 40
1.0
 40
1.0
 40
1.0
 10
177.1174582746834
 20
166.1772879905513
 30
0.0
 10
177.3930437096564
 20
165.3862047692404
 30
0.0
 10
177.9507938832099
 20
163.7851520720086
 30
0.0
 10
178.2373571078662
 20
161.2280802712248
 30
0.0
 10
178.0124767016682
 20
158.5743474053617
 30
0.0
 10
177.4189215847504
 20
156.84740794096
 30
0.0
 10
177.117458274684
 20
155.9703050866773
 30
0.0
  0
LINE
  5
2C9
330
1F
100
AcDbEntity
  8
0
  6
Continuous
 62
     7
370
    25
100
AcDbLine
 10
170.2530013671
 20
184.1511035228
 30
0.0
 11
176.7030013671
 21
184.1511035228
 31
0.0
  0
SPLINE
  5
2CA
330
1F
100
AcDbEntity
  8
0
  6
Continuous
 62
     7
370
    25
100
AcDbSpline
210
0.0
220
0.0
230
1.0
 70
     8
 71
     3
 72
     9
 73
     5
 74
     0
 42
0.00000001
 43
0.00000001
 40
0.0
 40
0.0
 40
0.0
 40
0.0
 40
0.5841917497409204
 40
1.0
 40
1.0
 40
1.0
 40
1.0
 10
176.7030013671061
 20
184.1511035228099
 30
0.0
 10
176.7291693309267
 20
183.8618276193102
 30
0.0
 10
176.7739627807354
 20
183.3666547524766
 30
0.0
 10
177.0165771982494
 20
182.7031702998654
 30
0.0
 10
177.1174582746835
 20
182.427287990551
 30
0.0
  0
LINE
  5
2CB
330
1F
100
AcDbEntity
  8
0
  6
Continuous
 62
     7
370
    25
100
AcDbLine
 10
176.7030013671
 20
154.2464895544
 30
0.0
 11
170.2530013671
 21
154.2464895544
 31
0.0
  0
SPLINE
  5
2CC
330
1F
100
AcDbEntity
  8
0
  6
Continuous
 62
     7
370
    25
100
AcDbSpline
210
0.0
220
0.0
230
1.0
 70
     8
 71
     3
 72
     9
 73
     5
 74
     0
 42
0.00000001
 43
0.00000001
 40
0.0
 40
0.0
 40
0.0
 40
0.0
 40
0.585055383453416
 40
1.0
 40
1.0
 40
1.0
 40
1.0
 10
177.117458274684
 20
155.9703050866773
 30
0.0
 10
176.9809041406596
 20
155.5837585611133
 30
0.0
 10
176.7475003674673
 20
154.923057819788
 30
0.0
 10
176.716051079742
 20
154.444898987662
 30
0.0
 10
176.7030013671061
 20
154.246489554417
 30
0.0
  0
LINE
  5
2CD
330
1F
100
AcDbEntity
  8
0
  6
Continuous
 62
     7
370
    25
100
AcDbLine
 10
176.7030013671
 20
184.8779303969
 30
0.0
 11
170.2530013671
 21
184.8779303969
 31
0.0
  0
LINE
  5
2CE
330
1F
100
AcDbEntity
  8
0
  6
Continuous
 62
     7
370
    25
100
AcDbLine
 10
176.7030013671
 20
184.1511035228
 30
0.0
 11
176.7030013671
 21
184.8779303969
 31
0.0
  0
LINE
  5
2CF
330
1F
100
AcDbEntity
  8
0
  6
Continuous
 62
     7
370
    25
100
AcDbLine
 10
170.2530013671
 20
153.5196626803
 30
0.0
 11
176.7030013671
 21
153.5196626803
 31
0.0
  0
LINE
  5
2D0
330
1F
100
AcDbEntity
  8
0
  6
Continuous
 62
     7
370
    25
100
AcDbLine
 10
176.7030013671
 20
153.5196626803
 30
0.0
 11
176.7030013671
 21
154.2464895544
 31
0.0
  0
LINE
  5
2D1
330
1F
100
AcDbEntity
  8
0
  6
Continuous
 62
     7
370
    25
100
AcDbLine
 10
169.8385444595
 20
185.4487965386
 30
0.0
 11
177.1174582747
 21
185.4487965386
 31
0.0
  0
SPLINE
  5
2D2
330
1F
100
AcDbEntity
  8
0
  6
Continuous
 62
     7
370
    25
100
AcDbSpline
210
0.0
220
0.0
230
1.0
 70
     8
 71
     3
 72
     9
 73
     5
 74
     0
 42
0.00000001
 43
0.00000001
 40
0.0
 40
0.0
 40
0.0
 40
0.0
 40
0.585055383453618
 40
1.0
 40
1.0
 40
1.0
 40
1.0
 10
177.1174582746835
 20
185.4487965386135
 30
0.0
 10
176.9809041406591
 20
185.4170981215748
 30
0.0
 10
176.7475003674672
 20
185.3629179226823
 30
0.0
 10
176.716051079742
 20
185.0201571388822
 30
0.0
 10
176.7030013671061
 20
184.8779303968812
 30
0.0
  0
LINE
  5
2D3
330
1F
100
AcDbEntity
  8
0
  6
Continuous
 62
     7
370
    25
100
AcDbLine
 10
177.1174582747
 20
152.9487965386
 30
0.0
 11
169.8385444595
 21
152.9487965386
 31
0.0
  0
SPLINE
  5
2D4
330
1F
100
AcDbEntity
  8
0
  6
Continuous
 62
     7
370
    25
100
AcDbSpline
210
0.0
220
0.0
230
1.0
 70
     8
 71
     3
 72
     9
 73
     5
 74
     0
 42
0.00000001
 43
0.00000001
 40
0.0
 40
0.0
 40
0.0
 40
0.0
 40
0.5841917497409275
 40
1.0
 40
1.0
 40
1.0
 40
1.0
 10
176.7030013671061
 20
153.5196626803457
 30
0.0
 10
176.7291693309267
 20
153.3285804582792
 30
0.0
 10
176.7739627807354
 20
153.0014922682264
 30
0.0
 10
177.0165771982494
 20
152.9642727297731
 30
0.0
 10
177.1174582746835
 20
152.9487965386134
 30
0.0
  0
LINE
  5
2D5
330
1F
100
AcDbEntity
  8
0
  6
Continuous
 62
     7
370
    25
100
AcDbLine
 10
144.0530013671
 20
179.4824331082
 30
0.0
 11
144.0530013671
 21
179.3997768837
 31
0.0
  0
LINE
  5
2D6
330
1F
100
AcDbEntity
  8
0
  6
Continuous
 62
     7
370
    25
100
AcDbLine
 10
143.9030013671
 20
179.5439644928
 30
0.0
 11
143.9030013671
 21
179.6548481965
 31
0.0
  0
LINE
  5
2D7
330
1F
100
AcDbEntity
  8
0
  6
Continuous
 62
     7
370
    25
100
AcDbLine
 10
205.7370133445
 20
172.9163101686
 30
0.0
 11
207.969218534
 21
172.9163101686
 31
0.0
  0
LINE
  5
2D8
330
1F
100
AcDbEntity
  8
0
  6
Continuous
 62
     7
370
    25
100
AcDbLine
 10
205.9039009425
 20
173.2522015777
 30
0.0
 11
206.2727759502
 21
173.2522015777
 31
0.0
  0
ARC
  5
2D9
330
1F
100
AcDbEntity
  8
0
  6
Continuous
 62
     7
370
    25
100
AcDbCircle
 10
134.1030013671
 20
169.1987965386
 30
0.0
 40
9.599999999999962
100
AcDbArc
 50
333.6156702506
 51
90.0
  0
ARC
  5
2DA
330
1F
100
AcDbEntity
  8
0
  6
Continuous
 62
     7
370
    25
100
AcDbCircle
 10
134.1030013671
 20
169.1987965386
 30
0.0
 40
9.599999999999973
100
AcDbArc
 50
90.0
 51
206.3843297494
  0
LINE
  5
2DB
330
1F
100
AcDbEntity
  8
0
  6
Continuous
 62
     7
370
    25
100
AcDbLine
 10
142.4078129664
 20
171.4326506746
 30
0.0
 11
142.0581761328
 21
172.3743578875
 31
0.0
  0
SPLINE
  5
2DC
330
1F
100
AcDbEntity
  8
0
  6
Continuous
 62
     7
370
    25
100
AcDbSpline
210
0.0
220
0.0
230
1.0
 70
     8
 71
     3
 72
    17
 73
    13
 74
     0
 42
0.00000001
 43
0.00000001
 40
0.0
 40
0.0
 40
0.0
 40
0.0
 40
0.0221728923622948
 40
0.1313463975518761
 40
0.2406143818335383
 40
0.3512043537890084
 40
0.46177045764866
 40
0.5734110283269603
 40
0.6854098423404585
 40
0.7979637688282072
 40
0.9113856715345634
 40
1.0
 40
1.0
 40
1.0
 40
1.0
 10
141.9562982476218
 20
172.6487544331428
 30
0.0
 10
141.891662999664
 20
172.8339892366024
 30
0.0
 10
141.5087807470735
 20
173.9312716180847
 30
0.0
 10
140.1213125488177
 20
175.6395267778806
 30
0.0
 10
137.7177767334722
 20
177.329600960156
 30
0.0
 10
134.8370099670908
 20
178.109985614329
 30
0.0
 10
131.8509389687266
 20
177.9006083362419
 30
0.0
 10
129.0848153127733
 20
176.7178028320077
 30
0.0
 10
126.8466402981664
 20
174.6716314262013
 30
0.0
 10
125.4238045040487
 20
172.000848423323
 30
0.0
 10
124.8927359370935
 20
169.1829659779356
 30
0.0
 10
125.3169419928056
 20
167.4341734530591
 30
0.0
 10
125.5030013671063
 20
166.6671423402804
 30
0.0
  0
SPLINE
  5
2DD
330
1F
100
AcDbEntity
  8
0
  6
Continuous
 62
     7
370
    25
100
AcDbSpline
210
0.0
220
0.0
230
1.0
 70
     8
 71
     3
 72
     9
 73
     5
 74
     0
 42
0.00000001
 43
0.00000001
 40
0.0
 40
0.0
 40
0.0
 40
0.0
 40
0.435497244078782
 40
1.0
 40
1.0
 40
1.0
 40
1.0
 10
142.7030013671063
 20
165.7174410988197
 30
0.0
 10
142.9621004669664
 20
166.3727161959464
 30
0.0
 10
143.5570505002511
 20
167.8773757685065
 30
0.0
 10
143.4487702268388
 20
169.4985144417409
 30
0.0
 10
143.3876457140857
 20
170.4136516905122
 30
0.0
  0
SPLINE
  5
2DE
330
1F
100
AcDbEntity
  8
0
  6
Continuous
 62
     7
370
    25
100
AcDbSpline
210
0.0
220
0.0
230
1.0
 70
     8
 71
     3
 72
     9
 73
     5
 74
     0
 42
0.00000001
 43
0.00000001
 40
0.0
 40
0.0
 40
0.0
 40
0.0
 40
0.4635163892606403
 40
1.0
 40
1.0
 40
1.0
 40
1.0
 10
143.3876457140859
 20
170.4136516905106
 30
0.0
 10
143.4101447010273
 20
169.780732368671
 30
0.0
 10
143.4586844883199
 20
168.4152589215527
 30
0.0
 10
142.9668581415033
 20
167.1380738501334
 30
0.0
 10
142.7030013671063
 20
166.4528849914361
 30
0.0
  0
ARC
  5
2DF
330
1F
100
AcDbEntity
  8
0
  6
Continuous
 62
     7
370
    25
100
AcDbCircle
 10
134.1030013671
 20
169.1987965386
 30
0.0
 40
14.25000000000001
100
AcDbArc
 50
307.1216104192
 51
90.0
  0
ARC
  5
2E0
330
1F
100
AcDbEntity
  8
0
  6
Continuous
 62
     7
370
    25
100
AcDbCircle
 10
134.1030013671
 20
169.1987965386
 30
0.0
 40
14.25000000000001
100
AcDbArc
 50
90.0
 51
232.8783895808
  0
LINE
  5
2E1
330
1F
100
AcDbEntity
  8
0
  6
Continuous
 62
     7
370
    25
100
AcDbLine
 10
125.6508986749
 20
168.8483457732
 30
0.0
 11
125.6611812372
 21
169.674634225
 31
0.0
  0
SPLINE
  5
2E2
330
1F
100
AcDbEntity
  8
0
  6
Continuous
 62
     7
370
    25
100
AcDbSpline
210
0.0
220
0.0
230
1.0
 70
     8
 71
     3
 72
    23
 73
    19
 74
     0
 42
0.00000001
 43
0.00000001
 40
0.0
 40
0.0
 40
0.0
 40
0.0
 40
0.139857068623884
 40
0.2211081927176876
 40
0.3037640389347351
 40
0.3494719552904375
 40
0.3961493386098296
 40
0.4500910497350846
 40
0.4734091100585245
 40
0.5255771268257814
 40
0.5554722718599405
 40
0.5911810186469326
 40
0.6281365214732901
 40
0.6459855791692686
 40
0.7099403157304784
 40
0.7755420113157603
 40
0.8866419887065693
 40
1.0
 40
1.0
 40
1.0
 40
1.0
 10
145.3336437357754
 20
183.2222110296051
 30
0.0
 10
147.5156102084188
 20
182.6614056666617
 30
0.0
 10
150.9652082021692
 20
181.7747957763866
 30
0.0
 10
155.3623106511969
 20
179.7302086164251
 30
0.0
 10
158.2067701967789
 20
177.9110606302649
 30
0.0
 10
160.3284916549222
 20
176.0056831689337
 30
0.0
 10
161.8717400581924
 20
174.1400494605729
 30
0.0
 10
162.8391405268285
 20
172.2520072241423
 30
0.0
 10
163.3851877680617
 20
170.0981418883723
 30
0.0
 10
163.3909713746208
 20
168.2293020437062
 30
0.0
 10
162.8611132804598
 20
166.2745659787785
 30
0.0
 10
162.1039075852669
 20
164.7056429806019
 30
0.0
 10
161.228034406242
 20
163.4767833974652
 30
0.0
 10
159.9400567186569
 20
162.0093309033063
 30
0.0
 10
158.1230647665863
 20
160.4323006396601
 30
0.0
 10
154.8529676380665
 20
158.3734379278617
 30
0.0
 10
150.610939662936
 20
156.4989905180785
 30
0.0
 10
147.1045005671552
 20
155.6195339644997
 30
0.0
 10
145.3336437357754
 20
155.1753820476218
 30
0.0
  0
ARC
  5
2E3
330
1F
100
AcDbEntity
  8
0
  6
Continuous
 62
     7
370
    25
100
AcDbCircle
 10
141.6034081468
 20
188.4485015517
 30
0.0
 40
6.420963336613012
100
AcDbArc
 50
251.5783948517
 51
305.5171355296
  0
LINE
  5
2E4
330
1F
100
AcDbEntity
  8
0
  6
Continuous
 62
     7
370
    25
100
AcDbLine
 10
165.3030013671
 20
152.9987965386
 30
0.0
 11
165.3030013671
 21
185.3987965386
 31
0.0
  0
LINE
  5
2E5
330
1F
100
AcDbEntity
  8
0
  6
Continuous
 62
     7
370
    25
100
AcDbLine
 10
148.1158491812
 20
185.397465923
 30
0.0
 11
148.0820723775
 21
185.3754189422
 31
0.0
  0
LINE
  5
2E6
330
1F
100
AcDbEntity
  8
0
  6
Continuous
 62
     7
370
    25
100
AcDbLine
 10
148.0999525161
 20
153.002549063
 30
0.0
 11
148.1158491812
 21
153.0001271542
 31
0.0
  0
LINE
  5
2E7
330
1F
100
AcDbEntity
  8
0
  6
Continuous
 62
     7
370
    25
100
AcDbLine
 10
139.574339957
 20
182.3565681598
 30
0.0
 11
140.5781622705
 21
184.7706144728
 31
0.0
  0
ARC
  5
2E8
330
1F
100
AcDbEntity
  8
0
  6
Continuous
 62
     7
370
    25
100
AcDbCircle
 10
148.252709393
 20
200.2640494081
 30
0.0
 40
17.29003179958712
100
AcDbArc
 50
243.6488590876
 51
260.280235246
  0
SPLINE
  5
2E9
330
1F
100
AcDbEntity
  8
0
  6
Continuous
 62
     7
370
    25
100
AcDbSpline
210
0.0
220
0.0
230
1.0
 70
     8
 71
     3
 72
    18
 73
    14
 74
     0
 42
0.00000001
 43
0.00000001
 40
0.0
 40
0.0
 40
0.0
 40
0.0
 40
0.06351783138304
 40
0.1565090173640055
 40
0.2512441947415194
 40
0.3450932751290165
 40
0.4374124556468258
 40
0.5318533641539448
 40
0.6262897571762182
 40
0.7186055133308135
 40
0.8124620255992662
 40
0.9071956869623996
 40
1.0
 40
1.0
 40
1.0
 40
1.0
 10
168.7530013671062
 20
157.5159285773179
 30
0.0
 10
168.7404470687862
 20
157.9704196731171
 30
0.0
 10
168.7095130640986
 20
159.0902934669068
 30
0.0
 10
168.6607036158872
 20
161.5681325124027
 30
0.0
 10
168.6020954931564
 20
164.6803803643047
 30
0.0
 10
168.54533143639
 20
168.0599664776526
 30
0.0
 10
168.4921869721715
 20
171.4905093974745
 30
0.0
 10
168.4341516955068
 20
174.8058738019887
 30
0.0
 10
168.3761237979555
 20
177.8068988014779
 30
0.0
 10
168.3229923796052
 20
180.3307367979949
 30
0.0
 10
168.2661941967312
 20
182.2316048017321
 30
0.0
 10
168.2076910178287
 20
183.4679596245469
 30
0.0
 10
168.1711081016859
 20
183.6218795208576
 30
0.0
 10
168.1530048220041
 20
183.6980477224477
 30
0.0
  0
SPLINE
  5
2EA
330
1F
100
AcDbEntity
  8
0
  6
Continuous
 62
     7
370
    25
100
AcDbSpline
210
0.0
220
0.0
230
1.0
 70
     8
 71
     3
 72
    21
 73
    17
 74
     0
 42
0.00000001
 43
0.00000001
 40
0.0
 40
0.0
 40
0.0
 40
0.0
 40
0.0246117580046765
 40
0.0997689425453789
 40
0.1756295506349549
 40
0.2500876465066033
 40
0.3245527473596352
 40
0.4004143944967137
 40
0.4755664765171512
 40
0.549493451589123
 40
0.6251194553060138
 40
0.7007418431314534
 40
0.774666076055883
 40
0.849824109347498
 40
0.9256845424967933
 40
1.0
 40
1.0
 40
1.0
 40
1.0
 10
167.403135124097
 20
154.7854962678243
 30
0.0
 10
167.3971859505232
 20
154.761621969537
 30
0.0
 10
167.3730697229718
 20
154.6648424752121
 30
0.0
 10
167.3287219306723
 20
155.3138268510599
 30
0.0
 10
167.270182074796
 20
156.7154638901347
 30
0.0
 10
167.215427294352
 20
158.8578249749
 30
0.0
 10
167.1606515906479
 20
161.5522278627376
 30
0.0
 10
167.1021094033928
 20
164.6846328663399
 30
0.0
 10
167.0453277940792
 20
168.0588529858695
 30
0.0
 10
166.9921879662317
 20
171.4908132918972
 30
0.0
 10
166.9341514264177
 20
174.8057915386806
 30
0.0
 10
166.8761238682135
 20
177.8069202800852
 30
0.0
 10
166.8229923606249
 20
180.3307309955298
 30
0.0
 10
166.7661942018847
 20
182.2316063771896
 30
0.0
 10
166.707691016566
 20
183.4679592385348
 30
0.0
 10
166.6711081012679
 20
183.6218793930725
 30
0.0
 10
166.6530048220041
 20
183.6980477224477
 30
0.0
  0
SPLINE
  5
2EB
330
1F
100
AcDbEntity
  8
0
  6
Continuous
 62
     7
370
    25
100
AcDbSpline
210
0.0
220
0.0
230
1.0
 70
     8
 71
     3
 72
    19
 73
    15
 74
     0
 42
0.00000001
 43
0.00000001
 40
0.0
 40
0.0
 40
0.0
 40
0.0
 40
0.0307628319011562
 40
0.1247036155603486
 40
0.2195236253351725
 40
0.3125906011499183
 40
0.4056663326604064
 40
0.5004876411658472
 40
0.5944220470614865
 40
0.6868251621363146
 40
0.7813519342286122
 40
0.8758741867306852
 40
0.9682738743289441
 40
1.0
 40
1.0
 40
1.0
 40
1.0
 10
165.903135124097
 20
154.7854962678243
 30
0.0
 10
165.8971859505239
 20
154.7616219709512
 30
0.0
 10
165.8730697229751
 20
154.6648424823587
 30
0.0
 10
165.8287219306249
 20
155.3138267455747
 30
0.0
 10
165.7701820749681
 20
156.7154642732165
 30
0.0
 10
165.7154272937241
 20
158.8578235779601
 30
0.0
 10
165.6606515930111
 20
161.5522331203971
 30
0.0
 10
165.6021093944241
 20
164.684612913122
 30
0.0
 10
165.5453278269544
 20
168.0589261251715
 30
0.0
 10
165.4921878445637
 20
171.4905426102454
 30
0.0
 10
165.4341518923811
 20
174.8068281933613
 30
0.0
 10
165.3761221470461
 20
177.8030911033443
 30
0.0
 10
165.3347663486781
 20
179.7817423881156
 30
0.0
 10
165.3102157709408
 20
180.6958960882127
 30
0.0
 10
165.3039407287551
 20
180.9295505909149
 30
0.0
  0
LINE
  5
2EC
330
1F
100
AcDbEntity
  8
0
  6
Continuous
 62
     7
370
    25
100
AcDbLine
 10
165.3035298463
 20
180.929468281
 30
0.0
 11
165.7726908334
 21
180.2727102264
 31
0.0
  0
SPLINE
  5
2ED
330
1F
100
AcDbEntity
  8
0
  6
Continuous
 62
     7
370
    25
100
AcDbSpline
210
0.0
220
0.0
230
1.0
 70
     8
 71
     3
 72
    37
 73
    33
 74
     0
 42
0.00000001
 43
0.00000001
 40
0.0
 40
0.0
 40
0.0
 40
0.0
 40
0.0352090858901807
 40
0.0688883651579085
 40
0.1018480641694617
 40
0.1355298818787715
 40
0.1687936032200383
 40
0.2020650354006282
 40
0.2357442118557606
 40
0.2687039127684461
 40
0.302385830740281
 40
0.3356492566594151
 40
0.3689209849350375
 40
0.4026000584795181
 40
0.4355597614395773
 40
0.4692417795758341
 40
0.5025049102138056
 40
0.5357769344933353
 40
0.569455905029111
 40
0.6024156101827833
 40
0.6360977283853573
 40
0.6693605638831424
 40
0.7026328840754495
 40
0.7363117515044671
 40
0.7692714589979941
 40
0.8029536771687783
 40
0.8362162176673583
 40
0.8694888336813068
 40
0.903167597905516
 40
0.9361273078851384
 40
0.9698096259260246
 40
1.0
 40
1.0
 40
1.0
 40
1.0
 10
169.371898164752
 20
155.5144078921367
 30
0.0
 10
169.9844854761481
 20
155.6329972808195
 30
0.0
 10
171.1830436701945
 20
155.865023444092
 30
0.0
 10
170.6208591197263
 20
157.9641790716303
 30
0.0
 10
170.6755478294306
 20
161.0292811319722
 30
0.0
 10
170.5631435518236
 20
164.9087052275247
 30
0.0
 10
170.4984439301483
 20
169.2122556698907
 30
0.0
 10
170.4221973170464
 20
173.5163394471996
 30
0.0
 10
170.3444057480556
 20
177.3861418714035
 30
0.0
 10
170.2737105632275
 20
180.4663920587682
 30
0.0
 10
170.19527583004
 20
182.4375817949363
 30
0.0
 10
170.1215217582996
 20
183.1124239125654
 30
0.0
 10
170.0476960414793
 20
182.4284635883677
 30
0.0
 10
169.969251661929
 20
180.4488466658147
 30
0.0
 10
169.8987296138251
 20
177.3620474916633
 30
0.0
 10
169.8202466225261
 20
173.4880860416388
 30
0.0
 10
169.7465081705286
 20
169.1828943677475
 30
0.0
 10
169.6726759852477
 20
164.8793302396022
 30
0.0
 10
169.5942338848101
 20
161.0097069143461
 30
0.0
 10
169.523711574157
 20
157.9299564370462
 30
0.0
 10
169.4452273055473
 20
155.9593605978807
 30
0.0
 10
169.3714919462359
 20
155.2851714904239
 30
0.0
 10
169.2976566442715
 20
155.9697851029233
 30
0.0
 10
169.2192159239552
 20
157.9499937349068
 30
0.0
 10
169.1486935710145
 20
161.0372971791934
 30
0.0
 10
169.0702080281936
 20
164.9114150344504
 30
0.0
 10
168.9964755304028
 20
169.217204271001
 30
0.0
 10
168.9226380311989
 20
173.5188278886767
 30
0.0
 10
168.8441952309969
 20
177.3950276722476
 30
0.0
 10
168.7736856130069
 20
180.448963314653
 30
0.0
 10
168.6975653277165
 20
182.4511884380161
 30
0.0
 10
168.6505354443743
 20
182.7056552174797
 30
0.0
 10
168.6283060733593
 20
182.8259327102083
 30
0.0
  0
SPLINE
  5
2EE
330
1F
100
AcDbEntity
  8
0
  6
Continuous
 62
     7
370
    25
100
AcDbSpline
210
0.0
220
0.0
230
1.0
 70
     8
 71
     3
 72
    18
 73
    14
 74
     0
 42
0.00000001
 43
0.00000001
 40
0.0
 40
0.0
 40
0.0
 40
0.0
 40
0.0004268679557563
 40
0.1010233730816048
 40
0.2028441756441406
 40
0.3024920089134989
 40
0.4043253976885043
 40
0.5048851966034649
 40
0.6054825949910452
 40
0.7073030843465398
 40
0.806950926900693
 40
0.9087846164286439
 40
1.0
 40
1.0
 40
1.0
 40
1.0
 10
167.8717297507852
 20
155.513509340774
 30
0.0
 10
167.8716246838719
 20
155.5125727507769
 30
0.0
 10
167.8467593505858
 20
155.2909176009234
 30
0.0
 10
167.7977017118887
 20
156.0746970907381
 30
0.0
 10
167.7191119050859
 20
157.9252827991259
 30
0.0
 10
167.6486303590343
 20
161.0481531103169
 30
0.0
 10
167.5701283777805
 20
164.913465713636
 30
0.0
 10
167.4964112592004
 20
169.2219719682994
 30
0.0
 10
167.4225604810326
 20
173.5227047344374
 30
0.0
 10
167.3441234831893
 20
177.3985133898157
 30
0.0
 10
167.2736134302621
 20
180.4514288808696
 30
0.0
 10
167.1975035697552
 20
182.452228580938
 30
0.0
 10
167.1504924247386
 20
182.705843498766
 30
0.0
 10
167.1282797326186
 20
182.8256761487638
 30
0.0
  0
SPLINE
  5
2EF
330
1F
100
AcDbEntity
  8
0
  6
Continuous
 62
     7
370
    25
100
AcDbSpline
210
0.0
220
0.0
230
1.0
 70
     8
 71
     3
 72
    16
 73
    12
 74
     0
 42
0.00000001
 43
0.00000001
 40
0.0
 40
0.0
 40
0.0
 40
0.0
 40
0.0004455311838612
 40
0.1251224841077741
 40
0.2513107677203485
 40
0.3748076238711413
 40
0.5010145495876629
 40
0.6256371775690428
 40
0.7503152361749484
 40
0.8765031301504658
 40
1.0
 40
1.0
 40
1.0
 40
1.0
 10
166.3716125845971
 20
155.5130696775191
 30
0.0
 10
166.3715241077848
 20
155.5122829209393
 30
0.0
 10
166.3466763778232
 20
155.2913310746526
 30
0.0
 10
166.2976237412624
 20
156.0761490430999
 30
0.0
 10
166.2190397459314
 20
157.9277008478452
 30
0.0
 10
166.1485602215816
 20
161.0518336406164
 30
0.0
 10
166.070043875978
 20
164.9166451161151
 30
0.0
 10
165.9963728562696
 20
169.2293199421809
 30
0.0
 10
165.922383570429
 20
173.5150631179644
 30
0.0
 10
165.8444247628161
 20
177.4456699101724
 30
0.0
 10
165.7964297893924
 20
179.337153924026
 30
0.0
 10
165.7726909400707
 20
180.2727030200255
 30
0.0
  0
SPLINE
  5
2F0
330
1F
100
AcDbEntity
  8
0
  6
Continuous
 62
     7
370
    25
100
AcDbSpline
210
0.0
220
0.0
230
1.0
 70
     8
 71
     3
 72
    17
 73
    13
 74
     0
 42
0.00000001
 43
0.00000001
 40
0.0
 40
0.0
 40
0.0
 40
0.0
 40
0.0919508287866222
 40
0.1937743752999922
 40
0.2934236401496276
 40
0.3952573213245363
 40
0.4958221549963374
 40
0.5964174630565224
 40
0.6982406974143212
 40
0.7978899697864807
 40
0.8997239530266743
 40
0.9999999999999999
 40
0.9999999999999999
 40
0.9999999999999999
 40
0.9999999999999999
 10
169.7400954565458
 20
155.5683665580256
 30
0.0
 10
169.717683853315
 20
155.6925927596507
 30
0.0
 10
169.6704543234368
 20
155.9543832724002
 30
0.0
 10
169.5942042495499
 20
157.9696444870477
 30
0.0
 10
169.523696606916
 20
161.0319523885185
 30
0.0
 10
169.4452069992917
 20
164.9128667704446
 30
0.0
 10
169.3714758545351
 20
169.2167601592504
 30
0.0
 10
169.2976370327389
 20
173.5192069714563
 30
0.0
 10
169.2191981245425
 20
177.3939992130929
 30
0.0
 10
169.1486744320331
 20
180.4526783056878
 30
0.0
 10
169.0702672266737
 20
182.4986616311312
 30
0.0
 10
169.0210698052299
 20
182.7568813690324
 30
0.0
 10
168.996660710152
 20
182.8849960130205
 30
0.0
  0
SPLINE
  5
2F1
330
1F
100
AcDbEntity
  8
0
  6
Continuous
 62
     7
370
    25
100
AcDbSpline
210
0.0
220
0.0
230
1.0
 70
     8
 71
     3
 72
    17
 73
    13
 74
     0
 42
0.00000001
 43
0.00000001
 40
0.0
 40
0.0
 40
0.0
 40
0.0
 40
0.0920389609113999
 40
0.1938935066147276
 40
0.2935743655603988
 40
0.3954415067955753
 40
0.4960346259179892
 40
0.5966653722925188
 40
0.6985196045543463
 40
0.7982004727954874
 40
0.9000679150037507
 40
1.0
 40
1.0
 40
1.0
 40
1.0
 10
168.2400685252198
 20
155.5681115462326
 30
0.0
 10
168.2176403936396
 20
155.6927865671178
 30
0.0
 10
168.1703922605031
 20
155.9554326981402
 30
0.0
 10
168.0941321630042
 20
157.9721318862659
 30
0.0
 10
168.023624668041
 20
161.0354091448362
 30
0.0
 10
167.9451296379847
 20
164.9168916695538
 30
0.0
 10
167.8714109321634
 20
169.2210059793812
 30
0.0
 10
167.7975596433674
 20
173.5232196128229
 30
0.0
 10
167.7191262114474
 20
177.3974818243171
 30
0.0
 10
167.6486025690069
 20
180.4550337118564
 30
0.0
 10
167.5702860489658
 20
182.4979923941574
 30
0.0
 10
167.5211836909131
 20
182.7551907980753
 30
0.0
 10
167.4968679698289
 20
182.8825566701231
 30
0.0
  0
SPLINE
  5
2F2
330
1F
100
AcDbEntity
  8
0
  6
Continuous
 62
     7
370
    25
100
AcDbSpline
210
0.0
220
0.0
230
1.0
 70
     8
 71
     3
 72
    15
 73
    11
 74
     0
 42
0.00000001
 43
0.00000001
 40
0.0
 40
0.0
 40
0.0
 40
0.0
 40
0.1153735800446503
 40
0.2429679970767419
 40
0.3678409997054941
 40
0.4954542742810516
 40
0.6214655818976192
 40
0.7475329606201702
 40
0.8751269835085224
 40
1.0
 40
1.0
 40
1.0
 40
1.0
 10
166.7400415447113
 20
155.5678567309095
 30
0.0
 10
166.7175969352534
 20
155.6929854543285
 30
0.0
 10
166.6703302923785
 20
155.9564970424593
 30
0.0
 10
166.59405957789
 20
157.9745588351944
 30
0.0
 10
166.5235545952522
 20
161.039093299481
 30
0.0
 10
166.4450451317109
 20
164.9200543699103
 30
0.0
 10
166.3713723035267
 20
169.2284250580512
 30
0.0
 10
166.2973834755797
 20
173.5153184882979
 30
0.0
 10
166.2194245512577
 20
177.4456188463928
 30
0.0
 10
166.171429592423
 20
179.3371413120464
 30
0.0
 10
166.1476907499159
 20
180.2727094425547
 30
0.0
  0
LINE
  5
2F3
330
1F
100
AcDbEntity
  8
0
  6
Continuous
 62
     7
370
    25
100
AcDbLine
 10
166.147690845
 20
180.2727107738
 30
0.0
 11
166.6164406845
 21
180.9295525067
 31
0.0
  0
SPLINE
  5
2F4
330
1F
100
AcDbEntity
  8
0
  6
Continuous
 62
     7
370
    25
100
AcDbSpline
210
0.0
220
0.0
230
1.0
 70
     8
 71
     3
 72
    21
 73
    17
 74
     0
 42
0.00000001
 43
0.00000001
 40
0.0
 40
0.0
 40
0.0
 40
0.0
 40
0.0407370019080147
 40
0.1163784515492284
 40
0.1920142175021194
 40
0.2659517693122273
 40
0.3411258270392999
 40
0.417000370159832
 40
0.4914691680621305
 40
0.5659519656591075
 40
0.6418285874497864
 40
0.716992437311386
 40
0.7909346980969427
 40
0.8866316053687001
 40
0.9814257525928665
 40
1.0
 40
1.0
 40
1.0
 40
1.0
 10
168.7089049721864
 20
154.8009659642001
 30
0.0
 10
168.699105455732
 20
154.8036355081413
 30
0.0
 10
168.6711099602986
 20
154.8112619257879
 30
0.0
 10
168.6215831430728
 20
155.7035317992965
 30
0.0
 10
168.563572251859
 20
157.3605981876049
 30
0.0
 10
168.5104393085961
 20
159.7022684209794
 30
0.0
 10
168.4536377519069
 20
162.5588196744296
 30
0.0
 10
168.3950970379545
 20
165.7957656051861
 30
0.0
 10
168.3403536513358
 20
169.2088404919805
 30
0.0
 10
168.2855656447942
 20
172.6212222708721
 30
0.0
 10
168.2270288366923
 20
175.8571866566853
 30
0.0
 10
168.1702322756903
 20
178.7089267172713
 30
0.0
 10
168.1124350870203
 20
181.2643680402912
 30
0.0
 10
168.043112173038
 20
183.0554731963814
 30
0.0
 10
167.9911956328089
 20
183.8703207012587
 30
0.0
 10
167.9632558623899
 20
183.6323955018593
 30
0.0
 10
167.9586782178889
 20
183.5934139009254
 30
0.0
  0
SPLINE
  5
2F5
330
1F
100
AcDbEntity
  8
0
  6
Continuous
 62
     7
370
    25
100
AcDbSpline
210
0.0
220
0.0
230
1.0
 70
     8
 71
     3
 72
    18
 73
    14
 74
     0
 42
0.00000001
 43
0.00000001
 40
0.0
 40
0.0
 40
0.0
 40
0.0
 40
0.0514197086447507
 40
0.1470145204108676
 40
0.2426021491957234
 40
0.336043594081567
 40
0.4310477212129334
 40
0.5269371138918308
 40
0.6210499416031665
 40
0.7151804619708954
 40
0.8110724816497029
 40
0.9060637081957016
 40
1.0
 40
1.0
 40
1.0
 40
1.0
 10
167.2088685467354
 20
154.8010560705951
 30
0.0
 10
167.1990810078895
 20
154.8037387901962
 30
0.0
 10
167.1710973734551
 20
154.8114089763164
 30
0.0
 10
167.1215830414917
 20
155.7035611525293
 30
0.0
 10
167.06357225679
 20
157.3605875247993
 30
0.0
 10
167.0104393861232
 20
159.7022822547006
 30
0.0
 10
166.9536374287953
 20
162.5587739639442
 30
0.0
 10
166.8950982534002
 20
165.7959346273006
 30
0.0
 10
166.8403492079926
 20
169.2082233396275
 30
0.0
 10
166.7855823727358
 20
172.6235454719839
 30
0.0
 10
166.7269653561652
 20
175.8483704443053
 30
0.0
 10
166.6703678105648
 20
178.7462163363818
 30
0.0
 10
166.6343493531533
 20
180.2044876990924
 30
0.0
 10
166.6164406844993
 20
180.9295520277491
 30
0.0
  0
ELLIPSE
  5
2F6
330
1F
100
AcDbEntity
  8
0
  6
Continuous
 62
     7
370
    25
100
AcDbEllipse
 10
173.6834400589
 20
169.1987965386
 30
0.0
 11
-7.401257687792878
 21
14.35777723298276
 31
0.0
210
0.0
220
0.0
230
1.0
 40
0.2737224856
 41
0.1519163654195893
 42
0.4881424368787701
  0
ELLIPSE
  5
2F7
330
1F
100
AcDbEntity
  8
0
  6
Continuous
 62
     7
370
    25
100
AcDbEllipse
 10
158.2448646107
 20
169.1987965386
 30
0.0
 11
7.392868934794849
 21
14.35826292490984
 31
0.0
210
0.0
220
0.0
230
1.0
 40
0.2735670702
 41
5.794804357670537
 42
6.131028995319405
  0
LINE
  5
2F8
330
1F
100
AcDbEntity
  8
0
  6
Continuous
 62
     7
370
    25
100
AcDbLine
 10
165.7726789534
 20
183.0846300825
 30
0.0
 11
166.1476789651
 21
183.0846300824
 31
0.0
  0
LINE
  5
2F9
330
1F
100
AcDbEntity
  8
0
  6
Continuous
 62
     7
370
    25
100
AcDbLine
 10
165.7726908334
 20
180.2727102264
 30
0.0
 11
166.147690845
 21
180.2727107738
 31
0.0
  0
LINE
  5
2FA
330
1F
100
AcDbEntity
  8
0
  6
Continuous
 62
     7
370
    25
100
AcDbLine
 10
165.7726789534
 20
183.0846300825
 30
0.0
 11
165.7726908334
 21
180.2727102264
 31
0.0
  0
LINE
  5
2FB
330
1F
100
AcDbEntity
  8
0
  6
Continuous
 62
     7
370
    25
100
AcDbLine
 10
166.1476789651
 20
183.0846300823
 30
0.0
 11
166.147690845
 21
180.2727062313
 31
0.0
  0
SPLINE
  5
2FC
330
1F
100
AcDbEntity
  8
0
  6
Continuous
 62
     7
370
    25
100
AcDbSpline
210
0.0
220
0.0
230
1.0
 70
     8
 71
     3
 72
    10
 73
     6
 74
     0
 42
0.00000001
 43
0.00000001
 40
0.0
 40
0.0
 40
0.0
 40
0.0
 40
0.275785417752133
 40
0.560018797457451
 40
1.0
 40
1.0
 40
1.0
 40
1.0
 10
140.5781622705299
 20
184.770614472794
 30
0.0
 10
140.8038515167974
 20
185.0921020017111
 30
0.0
 10
141.2621434066442
 20
185.7449249856425
 30
0.0
 10
141.7635061438276
 20
186.5434429479104
 30
0.0
 10
141.8918753253825
 20
186.6490114304524
 30
0.0
 10
141.9698632978073
 20
186.7131473219935
 30
0.0
  0
ARC
  5
2FD
330
1F
100
AcDbEntity
  8
0
  6
Continuous
 62
     7
370
    25
100
AcDbCircle
 10
148.1102103575
 20
200.3839390124
 30
0.0
 40
14.98647415023417
100
AcDbArc
 50
245.8123806786
 51
270.02155816
  0
ARC
  5
2FE
330
1F
100
AcDbEntity
  8
0
  6
Continuous
 62
     7
370
    25
100
AcDbCircle
 10
148.110223397
 20
138.013524173
 30
0.0
 40
14.98660403711676
100
AcDbArc
 50
89.9784918789
 51
111.1495615478
  0
ARC
  5
2FF
330
1F
100
AcDbEntity
  8
0
  6
Continuous
 62
     7
370
    25
100
AcDbCircle
 10
134.1030013671
 20
169.1987965386
 30
0.0
 40
19.20000000000003
100
AcDbArc
 50
65.8119747904
 51
243.3899021893
  0
LINE
  5
300
330
1F
100
AcDbEntity
  8
0
  6
Continuous
 62
     7
370
    25
100
AcDbLine
 10
141.9698632978
 20
186.713147322
 30
0.0
 11
141.969884032
 21
186.7131380088
 31
0.0
  0
ARC
  5
301
330
1F
100
AcDbEntity
  8
0
  6
Continuous
 62
     7
370
    25
100
AcDbCircle
 10
134.1030013671
 20
169.1987965386
 30
0.0
 40
25.37500000000004
100
AcDbArc
 50
39.6743748818
 51
250.1891397038
  0
ARC
  5
302
330
1F
100
AcDbEntity
  8
0
  6
Continuous
 62
     7
370
    25
100
AcDbCircle
 10
134.1030013671
 20
169.1987965386
 30
0.0
 40
25.375
100
AcDbArc
 50
289.8108602962
 51
320.3256251182
  0
ARC
  5
303
330
1F
100
AcDbEntity
  8
0
  6
Continuous
 62
     8
370
    25
100
AcDbCircle
 10
134.1030013671
 20
39.610750333
 30
0.0
 40
8.60041355132288
100
AcDbArc
 50
180.5618810823
 51
359.4381189177
  0
ELLIPSE
  5
304
330
1F
100
AcDbEntity
  8
0
  6
Continuous
 62
     8
370
    25
100
AcDbEllipse
 10
170.5212752928
 20
174.0266231141
 30
0.0
 11
35.70262486333175
 21
-0.6260506459064459
 31
0.0
210
0.0
220
0.0
230
1.0
 40
0.0552146892
 41
6.25783691292453
 42
6.344163104880463
  0
ARC
  5
305
330
1F
100
AcDbEntity
  8
0
  6
Continuous
 62
     8
370
    25
100
AcDbCircle
 10
206.2018582347
 20
165.545714184
 30
0.0
 40
0.4990247297581691
100
AcDbArc
 50
205.6099242454
 51
271.1133447788
  0
ELLIPSE
  5
306
330
1F
100
AcDbEntity
  8
0
  6
Continuous
 62
     8
370
    25
100
AcDbEllipse
 10
220.6978074445
 20
172.5771764938
 30
0.0
 11
14.99999386323825
 21
-0.2542085132690772
 31
0.0
210
0.0
220
0.0
230
1.0
 40
0.0533752749
 41
3.142300805938025
 42
3.781909355561447
  0
ELLIPSE
  5
307
330
1F
100
AcDbEntity
  8
0
  6
Continuous
 62
     8
370
    25
100
AcDbEllipse
 10
170.5125490896
 20
164.8701330342
 30
0.0
 11
35.20262413736904
 21
0.6261054031506034
 31
0.0
210
0.0
220
0.0
230
1.0
 40
0.0559984374
 41
5.826305424353229
 42
6.282671429672352
  0
ELLIPSE
  5
308
330
1F
100
AcDbEntity
  8
0
  6
Continuous
 62
     8
370
    25
100
AcDbEllipse
 10
170.5125490896
 20
173.5274600431
 30
0.0
 11
35.20262413736904
 21
-0.6261054031506034
 31
0.0
210
0.0
220
0.0
230
1.0
 40
0.0559984374
 41
6.279995344131915
 42
6.740065190006141
  0
LINE
  5
309
330
1F
100
AcDbEntity
  8
0
  6
Continuous
 62
     8
370
    25
100
AcDbLine
 10
201.8117275703
 20
158.8701234104
 30
0.0
 11
201.8117275703
 21
157.2269830763
 31
0.0
  0
LINE
  5
30A
330
1F
100
AcDbEntity
  8
0
  6
Continuous
 62
     8
370
    25
100
AcDbLine
 10
201.8117275703
 20
181.1706100009
 30
0.0
 11
201.8117275703
 21
179.5274696668
 31
0.0
  0
LINE
  5
30B
330
1F
100
AcDbEntity
  8
0
  6
Continuous
 62
     8
370
    25
100
AcDbLine
 10
205.83790618
 20
180.4663678894
 30
0.0
 11
205.83790618
 21
181.1003327919
 31
0.0
  0
LINE
  5
30C
330
1F
100
AcDbEntity
  8
0
  6
Continuous
 62
     8
370
    25
100
AcDbLine
 10
205.83790618
 20
157.2972602853
 30
0.0
 11
205.83790618
 21
158.9275699132
 31
0.0
  0
LINE
  5
30D
330
1F
100
AcDbEntity
  8
0
  6
Continuous
 62
     8
370
    25
100
AcDbLine
 10
215.6617275703
 20
175.7491659837
 30
0.0
 11
215.6617275703
 21
178.0981640404
 31
0.0
  0
LINE
  5
30E
330
1F
100
AcDbEntity
  8
0
  6
Continuous
 62
     8
370
    25
100
AcDbLine
 10
215.6617275703
 20
160.2994290368
 30
0.0
 11
215.6617275703
 21
162.6484270935
 31
0.0
  0
LINE
  5
30F
330
1F
100
AcDbEntity
  8
0
  6
Continuous
 62
     8
370
    25
100
AcDbLine
 10
211.2910453243
 20
178.1744545828
 30
0.0
 11
211.2910453243
 21
176.2466891199
 31
0.0
  0
SPLINE
  5
310
330
1F
100
AcDbEntity
  8
0
  6
Continuous
 62
     8
370
    25
100
AcDbSpline
210
0.0
220
0.0
230
1.0
 70
     8
 71
     3
 72
    10
 73
     6
 74
     0
 42
0.00000001
 43
0.00000001
 40
0.0
 40
0.0
 40
0.0
 40
0.0
 40
0.0551125353459253
 40
0.5124302691102054
 40
1.0
 40
1.0
 40
1.0
 40
1.0
 10
209.6650891251903
 20
178.5791849397236
 30
0.0
 10
209.6177704260799
 20
178.6120686217215
 30
0.0
 10
209.1778063858329
 20
178.9178174665117
 30
0.0
 10
208.377386551374
 20
179.0915546324933
 30
0.0
 10
208.0222731918459
 20
179.1376725198053
 30
0.0
 10
207.8390317672135
 20
179.1614697303166
 30
0.0
  0
LWPOLYLINE
  5
311
330
1F
100
AcDbEntity
  8
0
  6
Continuous
 62
     8
370
    25
100
AcDbPolyline
 90
        3
 70
   128
 43
0.0
 10
207.8390317672
 20
179.1614697303
 10
207.7714230819
 20
179.5078993079
 10
207.7339370067
 20
179.6216820715
  0
LINE
  5
312
330
1F
100
AcDbEntity
  8
0
  6
Continuous
 62
     8
370
    25
100
AcDbLine
 10
210.3576251104
 20
162.1360598985
 30
0.0
 11
210.3576251104
 21
160.206845584
 31
0.0
  0
SPLINE
  5
313
330
1F
100
AcDbEntity
  8
0
  6
Continuous
 62
     8
370
    25
100
AcDbSpline
210
0.0
220
0.0
230
1.0
 70
     8
 71
     3
 72
    10
 73
     6
 74
     0
 42
0.00000001
 43
0.00000001
 40
0.0
 40
0.0
 40
0.0
 40
0.0
 40
0.421724640328784
 40
0.7981219975484394
 40
0.9999999999999999
 40
0.9999999999999999
 40
0.9999999999999999
 40
0.9999999999999999
 10
207.8030013671061
 20
159.5156708530399
 30
0.0
 10
207.8744192184937
 20
159.4912202491607
 30
0.0
 10
208.0095788766195
 20
159.4449470107886
 30
0.0
 10
208.5681799391102
 20
159.5435639056308
 30
0.0
 10
208.9357146362996
 20
159.7848076788926
 30
0.0
 10
209.0640223175095
 20
159.8690267455284
 30
0.0
  0
LINE
  5
314
330
1F
100
AcDbEntity
  8
0
  6
Continuous
 62
     8
370
    25
100
AcDbLine
 10
217.7580063566
 20
163.2736687675
 30
0.0
 11
217.7580063566
 21
175.1239243098
 31
0.0
  0
LINE
  5
315
330
1F
100
AcDbEntity
  8
0
  6
Continuous
 62
     8
370
    25
100
AcDbLine
 10
177.7030013671
 20
174.2925591221
 30
0.0
 11
177.7030013671
 21
164.1886065824
 31
0.0
  0
LINE
  5
316
330
1F
100
AcDbEntity
  8
0
  6
Continuous
 62
     8
370
    25
100
AcDbLine
 10
178.0384232683
 20
162.0237965386
 30
0.0
 11
178.0384232683
 21
176.3737965386
 31
0.0
  0
ARC
  5
317
330
1F
100
AcDbEntity
  8
0
  6
Continuous
 62
     8
370
    25
100
AcDbCircle
 10
134.1030013671
 20
169.1987965386
 30
0.0
 40
13.25000000000001
100
AcDbArc
 50
90.0
 51
229.5294884505
  0
ARC
  5
318
330
1F
100
AcDbEntity
  8
0
  6
Continuous
 62
     8
370
    25
100
AcDbCircle
 10
134.1030013671
 20
169.1987965386
 30
0.0
 40
13.25
100
AcDbArc
 50
310.4705115495
 51
90.0
  0
ARC
  5
319
330
1F
100
AcDbEntity
  8
0
  6
Continuous
 62
     8
370
    25
100
AcDbCircle
 10
140.7819392207
 20
147.8867960779
 30
0.0
 40
8.593107670125661
100
AcDbArc
 50
58.0153206858
 51
77.0818735329
  0
SPLINE
  5
31A
330
1F
100
AcDbEntity
  8
0
  6
Continuous
 62
     8
370
    25
100
AcDbSpline
210
0.0
220
0.0
230
1.0
 70
     8
 71
     3
 72
    10
 73
     6
 74
     0
 42
0.00000001
 43
0.00000001
 40
0.0
 40
0.0
 40
0.0
 40
0.0
 40
0.4132973569192814
 40
0.868298422884954
 40
1.0
 40
1.0
 40
1.0
 40
1.0
 10
148.0820723774972
 20
185.3754189421554
 30
0.0
 10
147.9348946029837
 20
185.3008567506834
 30
0.0
 10
147.6256881022543
 20
185.1442086807693
 30
0.0
 10
146.4605213243491
 20
184.1077662662258
 30
0.0
 10
145.5402287633387
 20
183.3845555955288
 30
0.0
 10
145.3336437357754
 20
183.2222110296051
 30
0.0
  0
SPLINE
  5
31B
330
1F
100
AcDbEntity
  8
0
  6
Continuous
 62
     8
370
    25
100
AcDbSpline
210
0.0
220
0.0
230
1.0
 70
     8
 71
     3
 72
    12
 73
     8
 74
     0
 42
0.00000001
 43
0.00000001
 40
0.0
 40
0.0
 40
0.0
 40
0.0
 40
0.2298983238880666
 40
0.4658043110208699
 40
0.696965569363813
 40
0.934894851466782
 40
0.9999999999999999
 40
0.9999999999999999
 40
0.9999999999999999
 40
0.9999999999999999
 10
145.3336437357754
 20
155.1753820476218
 30
0.0
 10
145.6882677885268
 20
154.893425687727
 30
0.0
 10
146.4067828684527
 20
154.3221449330977
 30
0.0
 10
147.1924854498317
 20
153.649254357989
 30
0.0
 10
147.7632027557088
 20
153.1816522590996
 30
0.0
 10
148.0227113956564
 20
153.007141792971
 30
0.0
 10
148.0862924944428
 20
153.0033612831064
 30
0.0
 10
148.0999525160836
 20
153.002549063004
 30
0.0
  0
ARC
  5
31C
330
1F
100
AcDbEntity
  8
0
  6
Continuous
 62
     8
370
    25
100
AcDbCircle
 10
134.1030013671
 20
169.1987965386
 30
0.0
 40
16.8644366197183
100
AcDbArc
 50
67.4212070912
 51
239.3395775105
  0
ARC
  5
31D
330
1F
100
AcDbEntity
  8
0
  6
Continuous
 62
     8
370
    25
100
AcDbCircle
 10
148.1595618452
 20
138.5099544278
 30
0.0
 40
16.9033218898677
100
AcDbArc
 50
99.6239699431
 51
108.8329440928
  0
ARC
  5
31E
330
1F
100
AcDbEntity
  8
0
  6
Continuous
 62
     8
370
    25
100
AcDbCircle
 10
134.1030013671
 20
169.1987965386
 30
0.0
 40
24.76305823079823
100
AcDbArc
 50
290.3217412557
 51
319.140960131
  0
ARC
  5
31F
330
1F
100
AcDbEntity
  8
0
  6
Continuous
 62
     8
370
    25
100
AcDbCircle
 10
134.1030013671
 20
169.1987965386
 30
0.0
 40
24.76305823079826
100
AcDbArc
 50
40.859039869
 51
249.6782587443
  0
ENDSEC
  0
SECTION
  2
OBJECTS
  0
DICTIONARY
  5
C
330
0
100
AcDbDictionary
281
     1
  3
ACAD_GROUP
350
D
  3
ACAD_LAYOUT
350
1A
  3
ACAD_MLINESTYLE
350
17
  3
ACAD_PLOTSETTINGS
350
19
  3
ACAD_PLOTSTYLENAME
350
E
  3
ACAD_SCALELIST
350
47
  3
DWGPROPS
350
320
  0
DICTIONARY
  5
D
102
{ACAD_REACTORS
330
C
102
}
330
C
100
AcDbDictionary
281
     1
  0
DICTIONARY
  5
1A
102
{ACAD_REACTORS
330
C
102
}
330
C
100
AcDbDictionary
281
     1
  3
Layout1
350
1E
  3
Layout2
350
26
  3
Model
350
22
  0
DICTIONARY
  5
17
102
{ACAD_REACTORS
330
C
102
}
330
C
100
AcDbDictionary
281
     1
  3
Standard
350
18
  0
DICTIONARY
  5
19
102
{ACAD_REACTORS
330
C
102
}
330
C
100
AcDbDictionary
281
     1
  0
ACDBDICTIONARYWDFLT
  5
E
102
{ACAD_REACTORS
330
C
102
}
330
C
100
AcDbDictionary
281
     1
  3
Normal
350
F
100
AcDbDictionaryWithDefault
340
F
  0
DICTIONARY
  5
47
102
{ACAD_REACTORS
330
C
102
}
330
C
100
AcDbDictionary
281
     1
  3
A0
350
48
  3
A1
350
49
  3
A2
350
4A
  3
A3
350
4B
  3
A4
350
4C
  3
A5
350
4D
  3
A6
350
4E
  3
A7
350
4F
  3
A8
350
50
  3
A9
350
51
  3
B0
350
52
  3
B1
350
53
  3
B2
350
54
  3
B3
350
55
  3
B4
350
56
  3
B5
350
57
  3
B6
350
58
  3
B7
350
59
  3
B8
350
5A
  3
B9
350
5B
  3
C0
350
5C
  3
C1
350
5D
  3
C2
350
5E
  3
C3
350
5F
  3
C4
350
60
  3
C5
350
61
  3
C6
350
62
  3
C7
350
63
  3
C8
350
64
  3
C9
350
65
  3
D0
350
66
  3
D1
350
67
  3
D2
350
68
  0
XRECORD
  5
320
102
{ACAD_REACTORS
330
C
102
}
330
C
100
AcDbXrecord
280
     1
  1
DWGPROPS COOKIE
  2

  3

  4

  6

  7

  8
DS-1
  9

300
=
301
=
302
=
303
=
304
=
305
=
306
=
307
=
308
=
309
=
 40
0.0
 41
2460383.517536759
 42
2460383.51753743
  1

 90
        0
  0
LAYOUT
  5
1E
102
{ACAD_REACTORS
330
1A
102
}
330
1A
100
AcDbPlotSettings
  1

  2
none_device
  4

  6

 40
0.0
 41
0.0
 42
0.0
 43
0.0
 44
0.0
 45
0.0
 46
0.0
 47
0.0
 48
0.0
 49
0.0
140
0.0
141
0.0
142
1.0
143
1.0
 70
   688
 72
     1
 73
     0
 74
     5
  7

 75
    16
147
1.0
148
0.0
149
0.0
100
AcDbLayout
  1
Layout1
 70
     1
 71
     1
 10
0.0
 20
0.0
 11
420.0
 21
297.0
 12
0.0
 22
0.0
 32
0.0
 14
1.0000000000E+20
 24
1.0000000000E+20
 34
1.0000000000E+20
 15
-1.0000000000E+20
 25
-1.0000000000E+20
 35
-1.0000000000E+20
146
0.0
 13
0.0
 23
0.0
 33
0.0
 16
1.0
 26
0.0
 36
0.0
 17
0.0
 27
1.0
 37
0.0
 76
     0
330
1B
  0
LAYOUT
  5
26
102
{ACAD_REACTORS
330
1A
102
}
330
1A
100
AcDbPlotSettings
  1

  2
none_device
  4

  6

 40
0.0
 41
0.0
 42
0.0
 43
0.0
 44
0.0
 45
0.0
 46
0.0
 47
0.0
 48
0.0
 49
0.0
140
0.0
141
0.0
142
1.0
143
1.0
 70
   688
 72
     1
 73
     0
 74
     5
  7

 75
    16
147
1.0
148
0.0
149
0.0
100
AcDbLayout
  1
Layout2
 70
     1
 71
     2
 10
0.0
 20
0.0
 11
0.0
 21
0.0
 12
0.0
 22
0.0
 32
0.0
 14
0.0
 24
0.0
 34
0.0
 15
0.0
 25
0.0
 35
0.0
146
0.0
 13
0.0
 23
0.0
 33
0.0
 16
1.0
 26
0.0
 36
0.0
 17
0.0
 27
1.0
 37
0.0
 76
     0
330
23
  0
LAYOUT
  5
22
102
{ACAD_REACTORS
330
1A
102
}
330
1A
100
AcDbPlotSettings
  1

  2
none_device
  4
Letter_(8.50_x_11.00_Inches)
  6

 40
6.35
 41
6.35
 42
6.35000508
 43
6.35000508
 44
215.9
 45
279.4
 46
0.0
 47
0.0
 48
0.0
 49
0.0
140
0.0
141
0.0
142
1.0
143
1.0
 70
  1712
 72
     1
 73
     0
 74
     0
  7

 75
     0
147
1.0
148
0.0
149
0.0
100
AcDbLayout
  1
Model
 70
     1
 71
     0
 10
0.0
 20
0.0
 11
279.4
 21
215.9
 12
0.0
 22
0.0
 32
0.0
 14
0.0
 24
0.0
 34
0.0
 15
279.4
 25
215.9
 35
0.0
146
0.0
 13
0.0
 23
0.0
 33
0.0
 16
1.0
 26
0.0
 36
0.0
 17
0.0
 27
1.0
 37
0.0
 76
     0
330
1F
331
29
  0
MLINESTYLE
  5
18
102
{ACAD_REACTORS
330
17
102
}
330
17
100
AcDbMlineStyle
  2
Standard
 70
     0
  3

 62
   256
 51
90.0
 52
90.0
 71
     2
 49
0.5
 62
   256
  6
BYLAYER
 49
-0.5
 62
   256
  6
BYLAYER
  0
ACDBPLACEHOLDER
  5
F
102
{ACAD_REACTORS
330
E
102
}
330
E
  0
SCALE
  5
48
102
{ACAD_REACTORS
330
47
102
}
330
47
100
AcDbScale
 70
     0
300
1:1
140
1.0
141
1.0
290
     1
  0
SCALE
  5
49
102
{ACAD_REACTORS
330
47
102
}
330
47
100
AcDbScale
 70
     0
300
1:2
140
1.0
141
2.0
290
     0
  0
SCALE
  5
4A
102
{ACAD_REACTORS
330
47
102
}
330
47
100
AcDbScale
 70
     0
300
1:4
140
1.0
141
4.0
290
     0
  0
SCALE
  5
4B
102
{ACAD_REACTORS
330
47
102
}
330
47
100
AcDbScale
 70
     0
300
1:5
140
1.0
141
5.0
290
     0
  0
SCALE
  5
4C
102
{ACAD_REACTORS
330
47
102
}
330
47
100
AcDbScale
 70
     0
300
1:8
140
1.0
141
8.0
290
     0
  0
SCALE
  5
4D
102
{ACAD_REACTORS
330
47
102
}
330
47
100
AcDbScale
 70
     0
300
1:10
140
1.0
141
10.0
290
     0
  0
SCALE
  5
4E
102
{ACAD_REACTORS
330
47
102
}
330
47
100
AcDbScale
 70
     0
300
1:16
140
1.0
141
16.0
290
     0
  0
SCALE
  5
4F
102
{ACAD_REACTORS
330
47
102
}
330
47
100
AcDbScale
 70
     0
300
1:20
140
1.0
141
20.0
290
     0
  0
SCALE
  5
50
102
{ACAD_REACTORS
330
47
102
}
330
47
100
AcDbScale
 70
     0
300
1:30
140
1.0
141
30.0
290
     0
  0
SCALE
  5
51
102
{ACAD_REACTORS
330
47
102
}
330
47
100
AcDbScale
 70
     0
300
1:40
140
1.0
141
40.0
290
     0
  0
SCALE
  5
52
102
{ACAD_REACTORS
330
47
102
}
330
47
100
AcDbScale
 70
     0
300
1:50
140
1.0
141
50.0
290
     0
  0
SCALE
  5
53
102
{ACAD_REACTORS
330
47
102
}
330
47
100
AcDbScale
 70
     0
300
1:100
140
1.0
141
100.0
290
     0
  0
SCALE
  5
54
102
{ACAD_REACTORS
330
47
102
}
330
47
100
AcDbScale
 70
     0
300
2:1
140
2.0
141
1.0
290
     0
  0
SCALE
  5
55
102
{ACAD_REACTORS
330
47
102
}
330
47
100
AcDbScale
 70
     0
300
4:1
140
4.0
141
1.0
290
     0
  0
SCALE
  5
56
102
{ACAD_REACTORS
330
47
102
}
330
47
100
AcDbScale
 70
     0
300
8:1
140
8.0
141
1.0
290
     0
  0
SCALE
  5
57
102
{ACAD_REACTORS
330
47
102
}
330
47
100
AcDbScale
 70
     0
300
10:1
140
10.0
141
1.0
290
     0
  0
SCALE
  5
58
102
{ACAD_REACTORS
330
47
102
}
330
47
100
AcDbScale
 70
     0
300
100:1
140
100.0
141
1.0
290
     0
  0
SCALE
  5
59
102
{ACAD_REACTORS
330
47
102
}
330
47
100
AcDbScale
 70
     0
300
1/128" = 1'-0"
140
0.0078125
141
12.0
290
     0
  0
SCALE
  5
5A
102
{ACAD_REACTORS
330
47
102
}
330
47
100
AcDbScale
 70
     0
300
1/64" = 1'-0"
140
0.015625
141
12.0
290
     0
  0
SCALE
  5
5B
102
{ACAD_REACTORS
330
47
102
}
330
47
100
AcDbScale
 70
     0
300
1/32" = 1'-0"
140
0.03125
141
12.0
290
     0
  0
SCALE
  5
5C
102
{ACAD_REACTORS
330
47
102
}
330
47
100
AcDbScale
 70
     0
300
1/16" = 1'-0"
140
0.0625
141
12.0
290
     0
  0
SCALE
  5
5D
102
{ACAD_REACTORS
330
47
102
}
330
47
100
AcDbScale
 70
     0
300
3/32" = 1'-0"
140
0.09375
141
12.0
290
     0
  0
SCALE
  5
5E
102
{ACAD_REACTORS
330
47
102
}
330
47
100
AcDbScale
 70
     0
300
1/8" = 1'-0"
140
0.125
141
12.0
290
     0
  0
SCALE
  5
5F
102
{ACAD_REACTORS
330
47
102
}
330
47
100
AcDbScale
 70
     0
300
3/16" = 1'-0"
140
0.1875
141
12.0
290
     0
  0
SCALE
  5
60
102
{ACAD_REACTORS
330
47
102
}
330
47
100
AcDbScale
 70
     0
300
1/4" = 1'-0"
140
0.25
141
12.0
290
     0
  0
SCALE
  5
61
102
{ACAD_REACTORS
330
47
102
}
330
47
100
AcDbScale
 70
     0
300
3/8" = 1'-0"
140
0.375
141
12.0
290
     0
  0
SCALE
  5
62
102
{ACAD_REACTORS
330
47
102
}
330
47
100
AcDbScale
 70
     0
300
1/2" = 1'-0"
140
0.5
141
12.0
290
     0
  0
SCALE
  5
63
102
{ACAD_REACTORS
330
47
102
}
330
47
100
AcDbScale
 70
     0
300
3/4" = 1'-0"
140
0.75
141
12.0
290
     0
  0
SCALE
  5
64
102
{ACAD_REACTORS
330
47
102
}
330
47
100
AcDbScale
 70
     0
300
1" = 1'-0"
140
1.0
141
12.0
290
     0
  0
SCALE
  5
65
102
{ACAD_REACTORS
330
47
102
}
330
47
100
AcDbScale
 70
     0
300
1-1/2" = 1'-0"
140
1.5
141
12.0
290
     0
  0
SCALE
  5
66
102
{ACAD_REACTORS
330
47
102
}
330
47
100
AcDbScale
 70
     0
300
3" = 1'-0"
140
3.0
141
12.0
290
     0
  0
SCALE
  5
67
102
{ACAD_REACTORS
330
47
102
}
330
47
100
AcDbScale
 70
     0
300
6" = 1'-0"
140
6.0
141
12.0
290
     0
  0
SCALE
  5
68
102
{ACAD_REACTORS
330
47
102
}
330
47
100
AcDbScale
 70
     0
300
1'-0" = 1'-0"
140
12.0
141
12.0
290
     0
  0
ENDSEC
  0
EOF
