  0
SECTION
  2
HEADER
  9
$ACADVER
  1
AC1015
  9
$ACADMAINTVER
 70
     6
  9
$DWGCODEPAGE
  3
ANSI_1252
  9
$INSBASE
 10
0.0
 20
0.0
 30
0.0
  9
$EXTMIN
 10
0.0
 20
0.0
 30
0.0
  9
$EXTMAX
 10
279.4
 20
215.9
 30
0.0
  9
$LIMMIN
 10
0.0
 20
0.0
  9
$LIMMAX
 10
279.4
 20
215.9
  9
$ORTHOMODE
 70
     0
  9
$REGENMODE
 70
     1
  9
$FILLMODE
 70
     1
  9
$QTEXTMODE
 70
     0
  9
$MIRRTEXT
 70
     1
  9
$LTSCALE
 40
1.0
  9
$ATTMODE
 70
     1
  9
$TEXTSIZE
 40
3.5
  9
$TRACEWID
 40
1.0
  9
$TEXTSTYLE
  7
Standard
  9
$CLAYER
  8
0
  9
$CELTYPE
  6
ByLayer
  9
$CECOLOR
 62
   256
  9
$CELTSCALE
 40
1.0
  9
$DISPSILH
 70
     0
  9
$DIMSCALE
 40
1.0
  9
$DIMASZ
 40
3.556
  9
$DIMEXO
 40
1.0
  9
$DIMDLI
 40
3.75
  9
$DIMRND
 40
0.0
  9
$DIMDLE
 40
0.0
  9
$DIMEXE
 40
1.0
  9
$DIMTP
 40
0.0
  9
$DIMTM
 40
0.0
  9
$DIMTXT
 40
3.5
  9
$DIMCEN
 40
2.5
  9
$DIMTSZ
 40
0.0
  9
$DIMTOL
 70
     0
  9
$DIMLIM
 70
     0
  9
$DIMTIH
 70
     1
  9
$DIMTOH
 70
     1
  9
$DIMSE1
 70
     0
  9
$DIMSE2
 70
     0
  9
$DIMTAD
 70
     1
  9
$DIMZIN
 70
     1
  9
$DIMBLK
  1

  9
$DIMASO
 70
     1
  9
$DIMSHO
 70
     1
  9
$DIMPOST
  1

  9
$DIMAPOST
  1

  9
$DIMALT
 70
     0
  9
$DIMALTD
 70
     3
  9
$DIMALTF
 40
0.0393700787
  9
$DIMLFAC
 40
10.0
  9
$DIMTOFL
 70
     1
  9
$DIMTVP
 40
0.0
  9
$DIMTIX
 70
     0
  9
$DIMSOXD
 70
     0
  9
$DIMSAH
 70
     0
  9
$DIMBLK1
  1

  9
$DIMBLK2
  1

  9
$DIMSTYLE
  2
ISO-25
  9
$DIMCLRD
 70
     0
  9
$DIMCLRE
 70
     0
  9
$DIMCLRT
 70
     0
  9
$DIMTFAC
 40
1.0
  9
$DIMGAP
 40
1.524
  9
$DIMJUST
 70
     0
  9
$DIMSD1
 70
     0
  9
$DIMSD2
 70
     0
  9
$DIMTOLJ
 70
     0
  9
$DIMTZIN
 70
     1
  9
$DIMALTZ
 70
     0
  9
$DIMALTTZ
 70
     0
  9
$DIMUPT
 70
     0
  9
$DIMDEC
 70
     2
  9
$DIMTDEC
 70
     2
  9
$DIMALTU
 70
     2
  9
$DIMALTTD
 70
     3
  9
$DIMTXSTY
  7
Standard
  9
$DIMAUNIT
 70
     0
  9
$DIMADEC
 70
     2
  9
$DIMALTRND
 40
0.0
  9
$DIMAZIN
 70
     0
  9
$DIMDSEP
 70
    44
  9
$DIMATFIT
 70
     3
  9
$DIMFRAC
 70
     0
  9
$DIMLDRBLK
  1

  9
$DIMLUNIT
 70
     2
  9
$DIMLWD
 70
    -2
  9
$DIMLWE
 70
    -2
  9
$DIMTMOVE
 70
     0
  9
$LUNITS
 70
     2
  9
$LUPREC
 70
     2
  9
$SKETCHINC
 40
1.0
  9
$FILLETRAD
 40
10.0
  9
$AUNITS
 70
     0
  9
$AUPREC
 70
     2
  9
$MENU
  1
.
  9
$ELEVATION
 40
0.0
  9
$PELEVATION
 40
0.0
  9
$THICKNESS
 40
0.0
  9
$LIMCHECK
 70
     0
  9
$CHAMFERA
 40
0.0
  9
$CHAMFERB
 40
0.0
  9
$CHAMFERC
 40
0.0
  9
$CHAMFERD
 40
0.0
  9
$SKPOLY
 70
     0
  9
$TDCREATE
 40
2460383.675281319
  9
$TDUCREATE
 40
2460383.446114653
  9
$TDUPDATE
 40
2460383.67528169
  9
$TDUUPDATE
 40
2460383.446115023
  9
$TDINDWG
 40
0.0000000116
  9
$TDUSRTIMER
 40
0.0000000116
  9
$USRTIMER
 70
     1
  9
$ANGBASE
 50
0.0
  9
$ANGDIR
 70
     0
  9
$PDMODE
 70
     0
  9
$PDSIZE
 40
-1.0
  9
$PLINEWID
 40
0.0
  9
$SPLFRAME
 70
     0
  9
$SPLINETYPE
 70
     6
  9
$SPLINESEGS
 70
     8
  9
$HANDSEED
  5
3A2
  9
$SURFTAB1
 70
     6
  9
$SURFTAB2
 70
     6
  9
$SURFTYPE
 70
     6
  9
$SURFU
 70
     6
  9
$SURFV
 70
     6
  9
$UCSBASE
  2

  9
$UCSNAME
  2

  9
$UCSORG
 10
0.0
 20
0.0
 30
0.0
  9
$UCSXDIR
 10
1.0
 20
0.0
 30
0.0
  9
$UCSYDIR
 10
0.0
 20
1.0
 30
0.0
  9
$UCSORTHOREF
  2

  9
$UCSORTHOVIEW
 70
     0
  9
$UCSORGTOP
 10
0.0
 20
0.0
 30
0.0
  9
$UCSORGBOTTOM
 10
0.0
 20
0.0
 30
0.0
  9
$UCSORGLEFT
 10
0.0
 20
0.0
 30
0.0
  9
$UCSORGRIGHT
 10
0.0
 20
0.0
 30
0.0
  9
$UCSORGFRONT
 10
0.0
 20
0.0
 30
0.0
  9
$UCSORGBACK
 10
0.0
 20
0.0
 30
0.0
  9
$PUCSBASE
  2

  9
$PUCSNAME
  2

  9
$PUCSORG
 10
0.0
 20
0.0
 30
0.0
  9
$PUCSXDIR
 10
1.0
 20
0.0
 30
0.0
  9
$PUCSYDIR
 10
0.0
 20
1.0
 30
0.0
  9
$PUCSORTHOREF
  2

  9
$PUCSORTHOVIEW
 70
     0
  9
$PUCSORGTOP
 10
0.0
 20
0.0
 30
0.0
  9
$PUCSORGBOTTOM
 10
0.0
 20
0.0
 30
0.0
  9
$PUCSORGLEFT
 10
0.0
 20
0.0
 30
0.0
  9
$PUCSORGRIGHT
 10
0.0
 20
0.0
 30
0.0
  9
$PUCSORGFRONT
 10
0.0
 20
0.0
 30
0.0
  9
$PUCSORGBACK
 10
0.0
 20
0.0
 30
0.0
  9
$USERI1
 70
     0
  9
$USERI2
 70
     0
  9
$USERI3
 70
     0
  9
$USERI4
 70
     0
  9
$USERI5
 70
     0
  9
$USERR1
 40
0.0
  9
$USERR2
 40
0.0
  9
$USERR3
 40
0.0
  9
$USERR4
 40
0.0
  9
$USERR5
 40
0.0
  9
$WORLDVIEW
 70
     1
  9
$SHADEDGE
 70
     3
  9
$SHADEDIF
 70
    70
  9
$TILEMODE
 70
     1
  9
$MAXACTVP
 70
    64
  9
$PINSBASE
 10
0.0
 20
0.0
 30
0.0
  9
$PLIMCHECK
 70
     0
  9
$PEXTMIN
 10
1.0000000000E+20
 20
1.0000000000E+20
 30
1.0000000000E+20
  9
$PEXTMAX
 10
-1.0000000000E+20
 20
-1.0000000000E+20
 30
-1.0000000000E+20
  9
$PLIMMIN
 10
0.0
 20
0.0
  9
$PLIMMAX
 10
420.0
 20
297.0
  9
$UNITMODE
 70
     0
  9
$VISRETAIN
 70
     1
  9
$PLINEGEN
 70
     0
  9
$PSLTSCALE
 70
     1
  9
$TREEDEPTH
 70
  3020
  9
$CMLSTYLE
  2
Standard
  9
$CMLJUST
 70
     0
  9
$CMLSCALE
 40
20.0
  9
$PROXYGRAPHICS
 70
     1
  9
$MEASUREMENT
 70
     1
  9
$CELWEIGHT
370
    -1
  9
$ENDCAPS
280
     0
  9
$JOINSTYLE
280
     0
  9
$LWDISPLAY
290
     1
  9
$INSUNITS
 70
     4
  9
$HYPERLINKBASE
  1

  9
$STYLESHEET
  1

  9
$XEDIT
290
     1
  9
$CEPSNTYPE
380
     0
  9
$PSTYLEMODE
290
     1
  9
$FINGERPRINTGUID
  2
{d3556314-7180-436a-8603-995b5250b959}
  9
$VERSIONGUID
  2
{FAEB1C32-E019-11D5-929B-00C0DF256EC4}
  9
$EXTNAMES
290
     1
  9
$PSVPSCALE
 40
0.0
  9
$OLESTARTUP
290
     0
  0
ENDSEC
  0
SECTION
  2
CLASSES
  0
CLASS
  1
ACDBDICTIONARYWDFLT
  2
AcDbDictionaryWithDefault
  3
ObjectDBX Classes
 90
        0
280
     0
281
     0
  0
CLASS
  1
VISUALSTYLE
  2
AcDbVisualStyle
  3
ObjectDBX Classes
 90
     4095
280
     0
281
     0
  0
CLASS
  1
MATERIAL
  2
AcDbMaterial
  3
ObjectDBX Classes
 90
     1153
280
     0
281
     0
  0
CLASS
  1
SCALE
  2
AcDbScale
  3
ObjectDBX Classes
 90
     1153
280
     0
281
     0
  0
CLASS
  1
TABLESTYLE
  2
AcDbTableStyle
  3
ObjectDBX Classes
 90
     4095
280
     0
281
     0
  0
CLASS
  1
MLEADERSTYLE
  2
AcDbMLeaderStyle
  3
ACDB_MLEADERSTYLE_CLASS
 90
     4095
280
     0
281
     0
  0
CLASS
  1
SUN
  2
AcDbSun
  3
SCENEOE
 90
     1153
280
     0
281
     0
  0
CLASS
  1
ACDBPLACEHOLDER
  2
AcDbPlaceHolder
  3
ObjectDBX Classes
 90
        0
280
     0
281
     0
  0
CLASS
  1
LAYOUT
  2
AcDbLayout
  3
ObjectDBX Classes
 90
        0
280
     0
281
     0
  0
ENDSEC
  0
SECTION
  2
TABLES
  0
TABLE
  2
VPORT
  5
8
330
0
100
AcDbSymbolTable
 70
     1
  0
VPORT
  5
29
330
8
100
AcDbSymbolTableRecord
100
AcDbViewportTableRecord
  2
*Active
 70
     0
 10
0.0
 20
0.0
 11
1.0
 21
1.0
 12
139.7
 22
107.95
 13
0.0
 23
0.0
 14
10.0
 24
10.0
 15
10.0
 25
10.0
 16
0.0
 26
0.0
 36
1.0
 17
0.0
 27
0.0
 37
0.0
 40
215.9
 41
1.2941176471
 42
50.0
 43
0.0
 44
0.0
 50
0.0
 51
0.0
 71
     0
 72
  2000
 73
     1
 74
     3
 75
     0
 76
     0
 77
     0
 78
     0
281
     0
 65
     1
110
0.0
120
0.0
130
0.0
111
1.0
121
0.0
131
0.0
112
0.0
122
1.0
132
0.0
 79
     0
146
0.0
  0
ENDTAB
  0
TABLE
  2
LTYPE
  5
5
330
0
100
AcDbSymbolTable
 70
     6
  0
LTYPE
  5
14
330
5
100
AcDbSymbolTableRecord
100
AcDbLinetypeTableRecord
  2
ByBlock
 70
     0
  3

 72
    65
 73
     0
 40
0.0
  0
LTYPE
  5
15
330
5
100
AcDbSymbolTableRecord
100
AcDbLinetypeTableRecord
  2
ByLayer
 70
     0
  3

 72
    65
 73
     0
 40
0.0
  0
LTYPE
  5
16
330
5
100
AcDbSymbolTableRecord
100
AcDbLinetypeTableRecord
  2
Continuous
 70
     0
  3
Solid line
 72
    65
 73
     0
 40
0.0
  0
LTYPE
  5
6E
330
5
100
AcDbSymbolTableRecord
100
AcDbLinetypeTableRecord
  2
HIDDEN
 70
     0
  3
Hidden __ __ __ __ __ __ __ __ __ __ __ __ __ __
 72
    65
 73
     2
 40
1.905
 49
1.27
 74
     0
 49
-0.635
 74
     0
  0
LTYPE
  5
6F
330
5
100
AcDbSymbolTableRecord
100
AcDbLinetypeTableRecord
  2
PHANTOM
 70
     0
  3
Phantom ______  __  __  ______  __  __  ______
 72
    65
 73
     6
 40
12.7
 49
6.35
 74
     0
 49
-1.27
 74
     0
 49
1.27
 74
     0
 49
-1.27
 74
     0
 49
1.27
 74
     0
 49
-1.27
 74
     0
  0
LTYPE
  5
70
330
5
100
AcDbSymbolTableRecord
100
AcDbLinetypeTableRecord
  2
CENTER
 70
     0
  3
Center ____ _ ____ _ ____ _ ____ _ ____ _ ____
 72
    65
 73
     4
 40
10.16
 49
6.35
 74
     0
 49
-1.27
 74
     0
 49
1.27
 74
     0
 49
-1.27
 74
     0
  0
LTYPE
  5
71
330
5
100
AcDbSymbolTableRecord
100
AcDbLinetypeTableRecord
  2
CENTERX2
 70
     0
  3
Center (2x) ________  __  ________  __  _____
 72
    65
 73
     4
 40
20.32
 49
12.7
 74
     0
 49
-2.54
 74
     0
 49
2.54
 74
     0
 49
-2.54
 74
     0
  0
LTYPE
  5
72
330
5
100
AcDbSymbolTableRecord
100
AcDbLinetypeTableRecord
  2
DOT2
 70
     0
  3
Dot (.5x) ........................................
 72
    65
 73
     2
 40
0.635
 49
0.0
 74
     0
 49
-0.635
 74
     0
  0
ENDTAB
  0
TABLE
  2
LAYER
  5
2
330
0
100
AcDbSymbolTable
 70
     1
  0
LAYER
  5
10
330
2
100
AcDbSymbolTableRecord
100
AcDbLayerTableRecord
  2
0
 70
     0
 62
     7
  6
Continuous
370
    -3
390
F
  0
ENDTAB
  0
TABLE
  2
STYLE
  5
3
330
0
100
AcDbSymbolTable
 70
     1
  0
STYLE
  5
11
330
3
100
AcDbSymbolTableRecord
100
AcDbTextStyleTableRecord
  2
Standard
 70
     0
 40
0.0
 41
1.0
 50
0.0
 71
     0
 42
3.5
  3
txt
  4

  0
ENDTAB
  0
TABLE
  2
VIEW
  5
6
330
0
100
AcDbSymbolTable
 70
     0
  0
ENDTAB
  0
TABLE
  2
UCS
  5
7
330
0
100
AcDbSymbolTable
 70
     0
  0
ENDTAB
  0
TABLE
  2
APPID
  5
9
330
0
100
AcDbSymbolTable
 70
     1
  0
APPID
  5
12
330
9
100
AcDbSymbolTableRecord
100
AcDbRegAppTableRecord
  2
ACAD
 70
     0
  0
ENDTAB
  0
TABLE
  2
DIMSTYLE
  5
A
330
0
100
AcDbSymbolTable
 70
     1
100
AcDbDimStyleTable
  0
DIMSTYLE
105
27
330
A
100
AcDbSymbolTableRecord
100
AcDbDimStyleTableRecord
  2
ISO-25
 70
     0
 41
2.5
 42
0.625
 43
3.75
 44
1.25
 73
     0
 74
     0
 77
     1
 78
     8
140
2.5
141
2.5
143
0.0393700787
147
0.625
171
     3
172
     1
178
     0
271
     2
272
     2
274
     3
278
    44
283
     0
284
     8
340
11
  0
ENDTAB
  0
TABLE
  2
BLOCK_RECORD
  5
1
330
0
100
AcDbSymbolTable
 70
     1
  0
BLOCK_RECORD
  5
1F
330
1
100
AcDbSymbolTableRecord
100
AcDbBlockTableRecord
  2
*Model_Space
340
22
  0
BLOCK_RECORD
  5
1B
330
1
100
AcDbSymbolTableRecord
100
AcDbBlockTableRecord
  2
*Paper_Space
340
1E
  0
BLOCK_RECORD
  5
23
330
1
100
AcDbSymbolTableRecord
100
AcDbBlockTableRecord
  2
*Paper_Space0
340
26
  0
ENDTAB
  0
ENDSEC
  0
SECTION
  2
BLOCKS
  0
BLOCK
  5
20
330
1F
100
AcDbEntity
  8
0
100
AcDbBlockBegin
  2
*Model_Space
 70
     0
 10
0.0
 20
0.0
 30
0.0
  3
*Model_Space
  1

  0
ENDBLK
  5
21
330
1F
100
AcDbEntity
  8
0
100
AcDbBlockEnd
  0
BLOCK
  5
1C
330
1B
100
AcDbEntity
 67
     1
  8
0
100
AcDbBlockBegin
  2
*Paper_Space
 70
     0
 10
0.0
 20
0.0
 30
0.0
  3
*Paper_Space
  1

  0
ENDBLK
  5
1D
330
1B
100
AcDbEntity
 67
     1
  8
0
100
AcDbBlockEnd
  0
BLOCK
  5
24
330
23
100
AcDbEntity
  8
0
100
AcDbBlockBegin
  2
*Paper_Space0
 70
     0
 10
0.0
 20
0.0
 30
0.0
  3
*Paper_Space0
  1

  0
ENDBLK
  5
25
330
23
100
AcDbEntity
  8
0
100
AcDbBlockEnd
  0
ENDSEC
  0
SECTION
  2
ENTITIES
  0
LINE
  5
73
330
1F
100
AcDbEntity
  8
0
  6
Continuous
 62
     7
370
    25
100
AcDbLine
 10
39.2870286687
 20
-57.9051301181
 30
0.0
 11
39.2870286687
 21
-105.2321420297
 31
0.0
  0
LINE
  5
74
330
1F
100
AcDbEntity
  8
0
  6
Continuous
 62
     7
370
    25
100
AcDbLine
 10
55.0870286687
 20
-105.2321420297
 30
0.0
 11
55.0870286687
 21
-57.9051301181
 31
0.0
  0
LINE
  5
75
330
1F
100
AcDbEntity
  8
0
  6
Continuous
 62
     7
370
    25
100
AcDbLine
 10
55.0870286687
 20
-57.9051301181
 30
0.0
 11
55.0870286687
 21
227.6948698819
 31
0.0
  0
LINE
  5
76
330
1F
100
AcDbEntity
  8
0
  6
Continuous
 62
     7
370
    25
100
AcDbLine
 10
39.2870286687
 20
227.6948698819
 30
0.0
 11
39.2870286687
 21
-57.9051301181
 31
0.0
  0
LINE
  5
77
330
1F
100
AcDbEntity
  8
0
  6
Continuous
 62
     7
370
    25
100
AcDbLine
 10
39.2870286687
 20
250.3678579703
 30
0.0
 11
39.2870286687
 21
227.6948698819
 31
0.0
  0
LINE
  5
78
330
1F
100
AcDbEntity
  8
0
  6
Continuous
 62
     7
370
    25
100
AcDbLine
 10
55.0870286687
 20
227.6948698819
 30
0.0
 11
55.0870286687
 21
250.3678579703
 31
0.0
  0
SPLINE
  5
79
330
1F
100
AcDbEntity
  8
0
  6
Continuous
 62
     7
370
    25
100
AcDbSpline
210
0.0
220
0.0
230
1.0
 70
     8
 71
     3
 72
    17
 73
    13
 74
     0
 42
0.00000001
 43
0.00000001
 40
0.0
 40
0.0
 40
0.0
 40
0.0
 40
0.1727939157605175
 40
0.4670908646424378
 40
0.5836036464445505
 40
0.6237329378319652
 40
0.6617158152046904
 40
0.7176264960717739
 40
0.7837734229448736
 40
0.8640117675634408
 40
0.954126326186078
 40
1.0
 40
1.0
 40
1.0
 40
1.0
 10
-111.6769706388189
 20
254.4877008746847
 30
0.0
 10
-111.7608417124354
 20
254.482932494014
 30
0.0
 10
-111.9875592569832
 20
254.4700427632576
 30
0.0
 10
-112.1663869170191
 20
254.4558455498169
 30
0.0
 10
-112.2484893706458
 20
254.4471111360303
 30
0.0
 10
-112.310494568929
 20
254.4354715506831
 30
0.0
 10
-112.3794123449088
 20
254.4158420321542
 30
0.0
 10
-112.4731869562362
 20
254.3710930168499
 30
0.0
 10
-112.5766581885984
 20
254.2864624669218
 30
0.0
 10
-112.6632460027403
 20
254.1560605211545
 30
0.0
 10
-112.7084779117379
 20
254.0149095533325
 30
0.0
 10
-112.6947012938316
 20
253.9259638216117
 30
0.0
 10
-112.6900539499785
 20
253.8959592586361
 30
0.0
  0
SPLINE
  5
7A
330
1F
100
AcDbEntity
  8
0
  6
Continuous
 62
     7
370
    25
100
AcDbSpline
210
0.0
220
0.0
230
1.0
 70
     8
 71
     3
 72
    10
 73
     6
 74
     0
 42
0.00000001
 43
0.00000001
 40
0.0
 40
0.0
 40
0.0
 40
0.0
 40
0.2705197672747571
 40
0.6900585277324421
 40
1.0
 40
1.0
 40
1.0
 40
1.0
 10
-112.7693487372809
 20
248.3935080185221
 30
0.0
 10
-112.768678531949
 20
248.3609887845227
 30
0.0
 10
-112.7669689308012
 20
248.2780367142813
 30
0.0
 10
-112.7121550673693
 20
248.1663786987263
 30
0.0
 10
-112.6537042534662
 20
248.1023794935174
 30
0.0
 10
-112.6288696787874
 20
248.0751875190175
 30
0.0
  0
LINE
  5
7B
330
1F
100
AcDbEntity
  8
0
  6
Continuous
 62
     7
370
    25
100
AcDbLine
 10
-111.7723262256
 20
247.8749142463
 30
0.0
 11
-108.2928592904
 21
247.5825480477
 31
0.0
  0
LINE
  5
7C
330
1F
100
AcDbEntity
  8
0
  6
Continuous
 62
     7
370
    25
100
AcDbLine
 10
-108.1905203764
 20
254.6796193861
 30
0.0
 11
-111.6769706388
 21
254.4877008747
 31
0.0
  0
ARC
  5
7D
330
1F
100
AcDbEntity
  8
0
  6
Continuous
 62
     7
370
    25
100
AcDbCircle
 10
-55.3129713313
 20
250.3678579703
 30
0.0
 40
9.141196303513919
100
AcDbArc
 50
294.6735795881
 51
359.173859017
  0
ARC
  5
7E
330
1F
100
AcDbEntity
  8
0
  6
Continuous
 62
     7
370
    25
100
AcDbCircle
 10
-55.3129713313
 20
250.3678579703
 30
0.0
 40
9.141196303513919
100
AcDbArc
 50
359.173859017
 51
63.694338176
  0
SPLINE
  5
7F
330
1F
100
AcDbEntity
  8
0
  6
Continuous
 62
     7
370
    25
100
AcDbSpline
210
0.0
220
0.0
230
1.0
 70
     8
 71
     3
 72
    10
 73
     6
 74
     0
 42
0.00000001
 43
0.00000001
 40
0.0
 40
0.0
 40
0.0
 40
0.0
 40
0.2705197672746665
 40
0.6900585277323403
 40
1.0
 40
1.0
 40
1.0
 40
1.0
 10
207.1706992421585
 20
251.2401995094052
 30
0.0
 10
207.1706526707417
 20
251.272725615631
 30
0.0
 10
207.1705338734958
 20
251.3556952159709
 30
0.0
 10
207.117870972388
 20
251.4683836843647
 30
0.0
 10
207.0606579985325
 20
251.533491836972
 30
0.0
 10
207.036349357182
 20
251.5611549809071
 30
0.0
  0
SPLINE
  5
80
330
1F
100
AcDbEntity
  8
0
  6
Continuous
 62
     7
370
    25
100
AcDbSpline
210
0.0
220
0.0
230
1.0
 70
     8
 71
     3
 72
    17
 73
    13
 74
     0
 42
0.00000001
 43
0.00000001
 40
0.0
 40
0.0
 40
0.0
 40
0.0
 40
0.1727939157605083
 40
0.4670908646424488
 40
0.5836036464445745
 40
0.6237329378319808
 40
0.6617158152047125
 40
0.7176264960717696
 40
0.7837734229449291
 40
0.8640117675634424
 40
0.9541263261861176
 40
1.0
 40
1.0
 40
1.0
 40
1.0
 10
205.9616743536049
 20
245.1680717689043
 30
0.0
 10
206.0456214361879
 20
245.1712311627755
 30
0.0
 10
206.2725444456888
 20
245.1797715330112
 30
0.0
 10
206.4516114434377
 20
245.1905373669572
 30
0.0
 10
206.5338662742805
 20
245.1976959756752
 30
0.0
 10
206.5960832468552
 20
245.2081445585846
 30
0.0
 10
206.6653647221498
 20
245.2264490668998
 30
0.0
 10
206.7599800944788
 20
245.2693918593035
 30
0.0
 10
206.8650549778106
 20
245.3520229357845
 30
0.0
 10
206.9541271489383
 20
245.4807407098034
 30
0.0
 10
207.0020571148156
 20
245.6209984713702
 30
0.0
 10
206.9899884391491
 20
245.7101919994982
 30
0.0
 10
206.9859172450393
 20
245.7402801530268
 30
0.0
  0
LINE
  5
81
330
1F
100
AcDbEntity
  8
0
  6
Continuous
 62
     7
370
    25
100
AcDbLine
 10
202.4721852381
 20
245.0430363327
 30
0.0
 11
205.9616743536
 21
245.1680717689
 31
0.0
  0
LINE
  5
82
330
1F
100
AcDbEntity
  8
0
  6
Continuous
 62
     7
370
    25
100
AcDbLine
 10
206.1838033218
 20
251.7778144569
 30
0.0
 11
202.71058173
 21
252.136840809
 31
0.0
  0
ARC
  5
83
330
1F
100
AcDbEntity
  8
0
  6
Continuous
 62
     7
370
    25
100
AcDbCircle
 10
149.6870286687
 20
250.3678579703
 30
0.0
 40
9.14119630351397
100
AcDbArc
 50
113.5749460385
 51
178.0752254675
  0
ARC
  5
84
330
1F
100
AcDbEntity
  8
0
  6
Continuous
 62
     7
370
    25
100
AcDbCircle
 10
149.6870286687
 20
250.3678579703
 30
0.0
 40
9.141196303513956
100
AcDbArc
 50
178.0752254675
 51
242.5957046265
  0
LINE
  5
85
330
1F
100
AcDbEntity
  8
0
  6
Continuous
 62
     7
370
    25
100
AcDbLine
 10
-72.7634808407
 20
268.3047546761
 30
0.0
 11
-72.6129713313
 21
268.2178579703
 31
0.0
  0
LINE
  5
86
330
1F
100
AcDbEntity
  8
0
  6
Continuous
 62
     7
370
    25
100
AcDbLine
 10
-38.0129713313
 20
268.2178579703
 30
0.0
 11
-37.8624618218
 21
268.3047546761
 31
0.0
  0
ARC
  5
87
330
1F
100
AcDbEntity
  8
0
  6
Continuous
 62
     7
370
    25
100
AcDbCircle
 10
-80.6129713313
 20
307.8178579703
 30
0.0
 40
0.5
100
AcDbArc
 50
90.0
 51
180.0
  0
ARC
  5
88
330
1F
100
AcDbEntity
  8
0
  6
Continuous
 62
     7
370
    25
100
AcDbCircle
 10
-30.0129713313
 20
307.8178579703
 30
0.0
 40
0.5000000000000568
100
AcDbArc
 50
0.0
 51
90.0
  0
ARC
  5
89
330
1F
100
AcDbEntity
  8
0
  6
Continuous
 62
     7
370
    25
100
AcDbCircle
 10
-30.5129713313
 20
305.3178579703
 30
0.0
 40
1.000000000000004
100
AcDbArc
 50
270.0
 51
0.0
  0
ARC
  5
8A
330
1F
100
AcDbEntity
  8
0
  6
Continuous
 62
     7
370
    25
100
AcDbCircle
 10
-80.1129713313
 20
305.3178579703
 30
0.0
 40
1.0
100
AcDbArc
 50
180.0
 51
270.0
  0
LINE
  5
8B
330
1F
100
AcDbEntity
  8
0
  6
Continuous
 62
     7
370
    25
100
AcDbLine
 10
-81.1129713313
 20
307.8178579703
 30
0.0
 11
-81.1129713313
 21
305.3178579703
 31
0.0
  0
LINE
  5
8C
330
1F
100
AcDbEntity
  8
0
  6
Continuous
 62
     7
370
    25
100
AcDbLine
 10
-29.5129713313
 20
305.3178579703
 30
0.0
 11
-29.5129713313
 21
307.8178579703
 31
0.0
  0
LINE
  5
8D
330
1F
100
AcDbEntity
  8
0
  6
Continuous
 62
     7
370
    25
100
AcDbLine
 10
-73.1325926852
 20
289.8662081079
 30
0.0
 11
-69.110134448
 21
289.0329846159
 31
0.0
  0
LINE
  5
8E
330
1F
100
AcDbEntity
  8
0
  6
Continuous
 62
     7
370
    25
100
AcDbLine
 10
-41.5158082146
 20
289.0329846159
 30
0.0
 11
-37.3029181741
 21
289.9056546958
 31
0.0
  0
ARC
  5
8F
330
1F
100
AcDbEntity
  8
0
  6
Continuous
 62
     7
370
    25
100
AcDbCircle
 10
-69.3129713313
 20
288.0537720758
 30
0.0
 40
1.000000000000004
100
AcDbArc
 50
0.0
 51
78.2970985198
  0
ARC
  5
90
330
1F
100
AcDbEntity
  8
0
  6
Continuous
 62
     7
370
    25
100
AcDbCircle
 10
-41.3129713313
 20
288.0537720758
 30
0.0
 40
1.000000000000014
100
AcDbArc
 50
101.7029014802
 51
180.0
  0
LINE
  5
91
330
1F
100
AcDbEntity
  8
0
  6
Continuous
 62
     7
370
    25
100
AcDbLine
 10
-68.3129713313
 20
288.0537720758
 30
0.0
 11
-68.3129713313
 21
284.1178579703
 31
0.0
  0
LINE
  5
92
330
1F
100
AcDbEntity
  8
0
  6
Continuous
 62
     7
370
    25
100
AcDbLine
 10
-42.3129713313
 20
284.1178579703
 30
0.0
 11
-42.3129713313
 21
288.0537720758
 31
0.0
  0
SPLINE
  5
93
330
1F
100
AcDbEntity
  8
0
  6
Continuous
 62
     7
370
    25
100
AcDbSpline
210
0.0
220
0.0
230
1.0
 70
     8
 71
     3
 72
    12
 73
     8
 74
     0
 42
0.00000001
 43
0.00000001
 40
0.0
 40
0.0
 40
0.0
 40
0.0
 40
0.0566097830232007
 40
0.1918936113675569
 40
0.3862454124935976
 40
0.6619627093660274
 40
1.0
 40
1.0
 40
1.0
 40
1.0
 10
-36.57652650891291
 20
303.3178579703384
 30
0.0
 10
-36.57446363563155
 20
303.3543950603614
 30
0.0
 10
-36.56747098908497
 20
303.4782470481092
 30
0.0
 10
-36.46718236008773
 20
303.7142158047639
 30
0.0
 10
-36.19853442978474
 20
304.0037836573807
 30
0.0
 10
-35.72952633468238
 20
304.26103171241
 30
0.0
 10
-35.3324895355924
 20
304.2976756230123
 30
0.0
 10
-35.11381378704667
 20
304.3178579703385
 30
0.0
  0
LINE
  5
94
330
1F
100
AcDbEntity
  8
0
  6
Continuous
 62
     7
370
    25
100
AcDbLine
 10
-36.5765265089
 20
290.8705686685
 30
0.0
 11
-36.5765265089
 21
303.3178579703
 31
0.0
  0
LINE
  5
95
330
1F
100
AcDbEntity
  8
0
  6
Continuous
 62
     7
370
    25
100
AcDbLine
 10
-37.6297474212
 20
289.8455615878
 30
0.0
 11
-37.5488866578
 21
289.8607877261
 31
0.0
  0
SPLINE
  5
96
330
1F
100
AcDbEntity
  8
0
  6
Continuous
 62
     7
370
    25
100
AcDbSpline
210
0.0
220
0.0
230
1.0
 70
     8
 71
     3
 72
    16
 73
    12
 74
     0
 42
0.00000001
 43
0.00000001
 40
0.0
 40
0.0
 40
0.0
 40
0.0
 40
0.0816802095575718
 40
0.1377948324234907
 40
0.1655871203208938
 40
0.2186074287549573
 40
0.3000426746317527
 40
0.422218540139814
 40
0.6032166429768551
 40
0.8418455350636641
 40
1.0
 40
1.0
 40
1.0
 40
1.0
 10
-37.41594062433151
 20
289.8828002372182
 30
0.0
 10
-37.39866833479305
 20
289.8863902489451
 30
0.0
 10
-37.36952991490636
 20
289.8924466127446
 30
0.0
 10
-37.34087872056516
 20
289.8991356235335
 30
0.0
 10
-37.2884444932789
 20
289.9132514799322
 30
0.0
 10
-37.20942609315281
 20
289.9392607859293
 30
0.0
 10
-37.08986881741358
 20
289.9932349136396
 30
0.0
 10
-36.92276469706562
 20
290.1021894529499
 30
0.0
 10
-36.73184152458328
 20
290.3072427711115
 30
0.0
 10
-36.59185683683985
 20
290.5831501335883
 30
0.0
 10
-36.59089775135749
 20
290.7888347263556
 30
0.0
 10
-36.59051546805703
 20
290.8708188522998
 30
0.0
  0
LINE
  5
97
330
1F
100
AcDbEntity
  8
0
  6
Continuous
 62
     7
370
    25
100
AcDbLine
 10
-73.2047230427
 20
289.8814467418
 30
0.0
 11
-73.1156578869
 21
289.8629169623
 31
0.0
  0
SPLINE
  5
98
330
1F
100
AcDbEntity
  8
0
  6
Continuous
 62
     7
370
    25
100
AcDbSpline
210
0.0
220
0.0
230
1.0
 70
     8
 71
     3
 72
    19
 73
    15
 74
     0
 42
0.00000001
 43
0.00000001
 40
0.0
 40
0.0
 40
0.0
 40
0.0
 40
0.0202304595980146
 40
0.2258285753675894
 40
0.3934222233959483
 40
0.5351273996759991
 40
0.6530591297182715
 40
0.7463787804930628
 40
0.811554577795445
 40
0.8426498525346182
 40
0.8647642966474405
 40
0.896406435229536
 40
0.9691251614029222
 40
1.0
 40
1.0
 40
1.0
 40
1.0
 10
-74.04415863238509
 20
290.8712515008414
 30
0.0
 10
-74.04589008743388
 20
290.8607916396753
 30
0.0
 10
-74.06521797393559
 20
290.7440303009506
 30
0.0
 10
-74.00094045011471
 20
290.5361984017456
 30
0.0
 10
-73.88060739960306
 20
290.2961884299282
 30
0.0
 10
-73.72869117904001
 20
290.1282948343542
 30
0.0
 10
-73.57924865747792
 20
290.0180159374535
 30
0.0
 10
-73.45075479419808
 20
289.952597187181
 30
0.0
 10
-73.35641992365144
 20
289.9188226702262
 30
0.0
 10
-73.30557361626738
 20
289.9045501828818
 30
0.0
 10
-73.28093826070847
 20
289.8983047815856
 30
0.0
 10
-73.25490053903935
 20
289.8921877171506
 30
0.0
 10
-73.2398020312681
 20
289.8887076730625
 30
0.0
 10
-73.21277741144638
 20
289.8831138998386
 30
0.0
 10
-73.20472304265438
 20
289.8814467417884
 30
0.0
  0
LINE
  5
99
330
1F
100
AcDbEntity
  8
0
  6
Continuous
 62
     7
370
    25
100
AcDbLine
 10
-74.0494161536
 20
303.3178579703
 30
0.0
 11
-74.0494161536
 21
290.8705686685
 31
0.0
  0
SPLINE
  5
9A
330
1F
100
AcDbEntity
  8
0
  6
Continuous
 62
     7
370
    25
100
AcDbSpline
210
0.0
220
0.0
230
1.0
 70
     8
 71
     3
 72
    12
 73
     8
 74
     0
 42
0.00000001
 43
0.00000001
 40
0.0
 40
0.0
 40
0.0
 40
0.0
 40
0.1504796672482036
 40
0.5021884440834932
 40
0.7384085835496645
 40
0.8953160249745674
 40
1.0
 40
1.0
 40
1.0
 40
1.0
 10
-75.5121288754862
 20
304.3178579703377
 30
0.0
 10
-75.41533652706578
 20
304.3135732817169
 30
0.0
 10
-75.09231615001849
 20
304.2992741996468
 30
0.0
 10
-74.62713690883737
 20
304.1413356594076
 30
0.0
 10
-74.24957488657446
 20
303.8363675645559
 30
0.0
 10
-74.0742973207414
 20
303.5546749088409
 30
0.0
 10
-74.05652735884466
 20
303.3855418471497
 30
0.0
 10
-74.0494161536199
 20
303.3178579703379
 30
0.0
  0
LINE
  5
9B
330
1F
100
AcDbEntity
  8
0
  6
Continuous
 62
     7
370
    25
100
AcDbLine
 10
123.8870286687
 20
307.8178579703
 30
0.0
 11
123.8870286687
 21
305.3178579703
 31
0.0
  0
LINE
  5
9C
330
1F
100
AcDbEntity
  8
0
  6
Continuous
 62
     7
370
    25
100
AcDbLine
 10
175.4870286687
 20
305.3178579703
 30
0.0
 11
175.4870286687
 21
307.8178579703
 31
0.0
  0
ARC
  5
9D
330
1F
100
AcDbEntity
  8
0
  6
Continuous
 62
     7
370
    25
100
AcDbCircle
 10
174.4870286687
 20
305.3178579703
 30
0.0
 40
1.0
100
AcDbArc
 50
270.0
 51
0.0
  0
ARC
  5
9E
330
1F
100
AcDbEntity
  8
0
  6
Continuous
 62
     7
370
    25
100
AcDbCircle
 10
124.8870286687
 20
305.3178579703
 30
0.0
 40
1.0
100
AcDbArc
 50
180.0
 51
270.0
  0
ARC
  5
9F
330
1F
100
AcDbEntity
  8
0
  6
Continuous
 62
     7
370
    25
100
AcDbCircle
 10
124.3870286687
 20
307.8178579703
 30
0.0
 40
0.5
100
AcDbArc
 50
90.0
 51
180.0
  0
ARC
  5
A0
330
1F
100
AcDbEntity
  8
0
  6
Continuous
 62
     7
370
    25
100
AcDbCircle
 10
174.9870286687
 20
307.8178579703
 30
0.0
 40
0.5000000000000568
100
AcDbArc
 50
0.0
 51
90.0
  0
LINE
  5
A1
330
1F
100
AcDbEntity
  8
0
  6
Continuous
 62
     7
370
    25
100
AcDbLine
 10
131.7449271311
 20
289.8915790031
 30
0.0
 11
135.889865552
 21
289.0329846159
 31
0.0
  0
LINE
  5
A2
330
1F
100
AcDbEntity
  8
0
  6
Continuous
 62
     7
370
    25
100
AcDbLine
 10
163.4841917854
 20
289.0329846159
 30
0.0
 11
167.6291302064
 21
289.8915790031
 31
0.0
  0
ARC
  5
A3
330
1F
100
AcDbEntity
  8
0
  6
Continuous
 62
     7
370
    25
100
AcDbCircle
 10
135.6870286687
 20
288.0537720758
 30
0.0
 40
1.00000000000001
100
AcDbArc
 50
0.0
 51
78.2970985198
  0
ARC
  5
A4
330
1F
100
AcDbEntity
  8
0
  6
Continuous
 62
     7
370
    25
100
AcDbCircle
 10
163.6870286687
 20
288.0537720758
 30
0.0
 40
1.00000000000001
100
AcDbArc
 50
101.7029014802
 51
180.0
  0
LINE
  5
A5
330
1F
100
AcDbEntity
  8
0
  6
Continuous
 62
     7
370
    25
100
AcDbLine
 10
136.6870286687
 20
288.0537720758
 30
0.0
 11
136.6870286687
 21
283.5654136785
 31
0.0
  0
LINE
  5
A6
330
1F
100
AcDbEntity
  8
0
  6
Continuous
 62
     7
370
    25
100
AcDbLine
 10
162.6870286687
 20
283.626117102
 30
0.0
 11
162.6870286687
 21
288.0537720758
 31
0.0
  0
SPLINE
  5
A7
330
1F
100
AcDbEntity
  8
0
  6
Continuous
 62
     7
370
    25
100
AcDbSpline
210
0.0
220
0.0
230
1.0
 70
     8
 71
     3
 72
    12
 73
     8
 74
     0
 42
0.00000001
 43
0.00000001
 40
0.0
 40
0.0
 40
0.0
 40
0.0
 40
0.0565776078946115
 40
0.1927698728562043
 40
0.387936083015791
 40
0.66403046697095
 40
0.9999999999999999
 40
0.9999999999999999
 40
0.9999999999999999
 40
0.9999999999999999
 10
168.430176644909
 20
303.3178579703419
 30
0.0
 10
168.4322378064135
 20
303.3543460333863
 30
0.0
 10
168.4392605466094
 20
303.4786672893669
 30
0.0
 10
168.5404041837587
 20
303.7155945988638
 30
0.0
 10
168.8110120300082
 20
304.0056431759238
 30
0.0
 10
169.2805315574485
 20
304.2615707287296
 30
0.0
 10
169.6767738693318
 20
304.2979105747307
 30
0.0
 10
169.8942762261867
 20
304.3178579703419
 30
0.0
  0
LINE
  5
A8
330
1F
100
AcDbEntity
  8
0
  6
Continuous
 62
     7
370
    25
100
AcDbLine
 10
168.4301766449
 20
290.8714142149
 30
0.0
 11
168.4301766449
 21
303.3178579703
 31
0.0
  0
LINE
  5
A9
330
1F
100
AcDbEntity
  8
0
  6
Continuous
 62
     7
370
    25
100
AcDbLine
 10
167.4004063318
 20
289.8467280727
 30
0.0
 11
167.4803474762
 21
289.862453256
 31
0.0
  0
SPLINE
  5
AA
330
1F
100
AcDbEntity
  8
0
  6
Continuous
 62
     7
370
    25
100
AcDbSpline
210
0.0
220
0.0
230
1.0
 70
     8
 71
     3
 72
    21
 73
    17
 74
     0
 42
0.00000001
 43
0.00000001
 40
0.0
 40
0.0
 40
0.0
 40
0.0
 40
0.0077062925166432
 40
0.0702103931912759
 40
0.1043473977217748
 40
0.1192276098950622
 40
0.125855044224911
 40
0.130646819616314
 40
0.1371460580218945
 40
0.1597510275649978
 40
0.1972793147585925
 40
0.320926167335489
 40
0.4452680287055574
 40
0.6310187682370192
 40
0.8576692111857361
 40
0.9999999999999999
 40
0.9999999999999999
 40
0.9999999999999999
 40
0.9999999999999999
 10
167.5982472056518
 20
289.8854755210926
 30
0.0
 10
167.5998207651476
 20
289.8857854574513
 30
0.0
 10
167.6141571312623
 20
289.8886092217397
 30
0.0
 10
167.6160415334902
 20
289.8889779376726
 30
0.0
 10
167.6231330948301
 20
289.8903812297933
 30
0.0
 10
167.6267274502297
 20
289.8910980411453
 30
0.0
 10
167.6311095629483
 20
289.8919876333769
 30
0.0
 10
167.6369636235497
 20
289.8932025575514
 30
0.0
 10
167.6530617997081
 20
289.8966611673164
 30
0.0
 10
167.6873421156607
 20
289.9048310657249
 30
0.0
 10
167.7789463164469
 20
289.9313289557892
 30
0.0
 10
167.916808449383
 20
289.9908046016022
 30
0.0
 10
168.1046643609767
 20
290.1194609849428
 30
0.0
 10
168.2901106169616
 20
290.3316971487917
 30
0.0
 10
168.4191243718755
 20
290.6033256724785
 30
0.0
 10
168.4161133693061
 20
290.7971723513152
 30
0.0
 10
168.4149519054322
 20
290.8719467526473
 30
0.0
  0
SPLINE
  5
AB
330
1F
100
AcDbEntity
  8
0
  6
Continuous
 62
     7
370
    25
100
AcDbSpline
210
0.0
220
0.0
230
1.0
 70
     8
 71
     3
 72
    21
 73
    17
 74
     0
 42
0.00000001
 43
0.00000001
 40
0.0
 40
0.0
 40
0.0
 40
0.0
 40
0.2197999439676611
 40
0.4049956833503145
 40
0.5613983026514358
 40
0.6920265017035021
 40
0.7962984491848436
 40
0.8723452109556167
 40
0.9191630782357838
 40
0.9338074047122938
 40
0.9393539001832943
 40
0.9435414402281931
 40
0.9490025418624128
 40
0.9592278768750113
 40
0.9885077436139206
 40
1.0
 40
1.0
 40
1.0
 40
1.0
 10
130.9459949362593
 20
290.8714437980188
 30
0.0
 10
130.9549909104777
 20
290.7644677030177
 30
0.0
 10
130.9715665776969
 20
290.56735729473
 30
0.0
 10
131.097879635401
 20
290.3206106890847
 30
0.0
 10
131.2460534553389
 20
290.1449776567206
 30
0.0
 10
131.397089071875
 20
290.0285386396166
 30
0.0
 10
131.5303943911683
 20
289.9578907400065
 30
0.0
 10
131.633953115066
 20
289.9194442604323
 30
0.0
 10
131.6975983096326
 20
289.9020073181021
 30
0.0
 10
131.7297503784438
 20
289.8947602392963
 30
0.0
 10
131.7393337399704
 20
289.8927359601075
 30
0.0
 10
131.743267366589
 20
289.8919236736572
 30
0.0
 10
131.746389577854
 20
289.8912883663601
 30
0.0
 10
131.7503408301835
 20
289.8904971945988
 30
0.0
 10
131.7502059209445
 20
289.890519586531
 30
0.0
 10
131.7562834373164
 20
289.8893237420868
 30
0.0
 10
131.7579964797332
 20
289.8889866747502
 30
0.0
  0
LINE
  5
AC
330
1F
100
AcDbEntity
  8
0
  6
Continuous
 62
     7
370
    25
100
AcDbLine
 10
130.9438806926
 20
303.3178579703
 30
0.0
 11
130.9438806926
 21
290.8714142149
 31
0.0
  0
SPLINE
  5
AD
330
1F
100
AcDbEntity
  8
0
  6
Continuous
 62
     7
370
    25
100
AcDbSpline
210
0.0
220
0.0
230
1.0
 70
     8
 71
     3
 72
    12
 73
     8
 74
     0
 42
0.00000001
 43
0.00000001
 40
0.0
 40
0.0
 40
0.0
 40
0.0
 40
0.1505332491701244
 40
0.5019526335369242
 40
0.7380327738150841
 40
0.8950809731961674
 40
0.9999999999999999
 40
0.9999999999999999
 40
0.9999999999999999
 40
0.9999999999999999
 10
129.4797811112803
 20
304.3178579703413
 30
0.0
 10
129.5766892940053
 20
304.3135702488381
 30
0.0
 10
129.8998293165469
 20
304.2992728553236
 30
0.0
 10
130.3651849068957
 20
304.1414410985989
 30
0.0
 10
130.7431450248433
 20
303.8366867440087
 30
0.0
 10
130.9189022460328
 20
303.554897055125
 30
0.0
 10
130.9367375677362
 20
303.3856444024777
 30
0.0
 10
130.943880692558
 20
303.3178579703413
 30
0.0
  0
LINE
  5
AE
330
1F
100
AcDbEntity
  8
0
  6
Continuous
 62
     7
370
    25
100
AcDbLine
 10
132.1870286687
 20
268.2178579703
 30
0.0
 11
132.1870286687
 21
266.4966237464
 31
0.0
  0
LINE
  5
AF
330
1F
100
AcDbEntity
  8
0
  6
Continuous
 62
     7
370
    25
100
AcDbLine
 10
167.1870286687
 20
257.7418752897
 30
0.0
 11
167.1870286687
 21
268.2178579703
 31
0.0
  0
LINE
  5
B0
330
1F
100
AcDbEntity
  8
0
  6
Continuous
 62
     7
370
    25
100
AcDbLine
 10
-72.8129713313
 20
268.2178579703
 30
0.0
 11
-72.8129713313
 21
258.3941693555
 31
0.0
  0
LINE
  5
B1
330
1F
100
AcDbEntity
  8
0
  6
Continuous
 62
     7
370
    25
100
AcDbLine
 10
-37.8129713313
 20
266.4966237464
 30
0.0
 11
-37.8129713313
 21
268.2178579703
 31
0.0
  0
LINE
  5
B2
330
1F
100
AcDbEntity
  8
0
  6
Continuous
 62
     7
370
    25
100
AcDbLine
 10
165.4870286687
 20
268.7159520292
 30
0.0
 11
165.4870286687
 21
269.7107381424
 31
0.0
  0
LWPOLYLINE
  5
B3
330
1F
100
AcDbEntity
  8
0
  6
Continuous
 62
     7
370
    25
100
AcDbPolyline
 90
        3
 70
   128
 43
0.0
 10
139.6558403951
 20
236.9782184414
 10
141.8395584825
 20
235.6760162733
 10
143.1345532963
 20
235.0908722215
  0
LWPOLYLINE
  5
B4
330
1F
100
AcDbEntity
  8
0
  6
Continuous
 62
     7
370
    25
100
AcDbPolyline
 90
        3
 70
   128
 43
0.0
 10
-68.9925769443
 20
240.4037207955
 10
-68.3864921934
 20
239.6845844728
 10
-66.6814579513
 20
238.0134409606
  0
ARC
  5
B5
330
1F
100
AcDbEntity
  8
0
  6
Continuous
 62
     7
370
    25
100
AcDbCircle
 10
47.1870286687
 20
250.3678579703
 30
0.0
 40
9.600000000000001
100
AcDbArc
 50
0.0
 51
214.6221618397
  0
ARC
  5
B6
330
1F
100
AcDbEntity
  8
0
  6
Continuous
 62
     7
370
    25
100
AcDbCircle
 10
47.1870286687
 20
250.3678579703
 30
0.0
 40
9.60000000000001
100
AcDbArc
 50
325.3778381603
 51
0.0
  0
ARC
  5
B7
330
1F
100
AcDbEntity
  8
0
  6
Continuous
 62
     7
370
    25
100
AcDbCircle
 10
47.1870286687
 20
250.3678579703
 30
0.0
 40
10.50000000000001
100
AcDbArc
 50
0.0
 51
221.2029536038
  0
ARC
  5
B8
330
1F
100
AcDbEntity
  8
0
  6
Continuous
 62
     7
370
    25
100
AcDbCircle
 10
47.1870286687
 20
250.3678579703
 30
0.0
 40
10.50000000000001
100
AcDbArc
 50
318.7970463962
 51
0.0
  0
ARC
  5
B9
330
1F
100
AcDbEntity
  8
0
  6
Continuous
 62
     7
370
    25
100
AcDbCircle
 10
47.1870286687
 20
-105.2321420297
 30
0.0
 40
11.55000000000003
100
AcDbArc
 50
133.1556534408
 51
274.9657006069
  0
ARC
  5
BA
330
1F
100
AcDbEntity
  8
0
  6
Continuous
 62
     7
370
    25
100
AcDbCircle
 10
47.1870286687
 20
-105.2321420297
 30
0.0
 40
11.54999999999999
100
AcDbArc
 50
274.9657006069
 51
46.8443465592
  0
ARC
  5
BB
330
1F
100
AcDbEntity
  8
0
  6
Continuous
 62
     7
370
    25
100
AcDbCircle
 10
47.1870286687
 20
250.3678579703
 30
0.0
 40
14.22500000000005
100
AcDbArc
 50
303.7355336397
 51
223.2235523034
  0
LWPOLYLINE
  5
BC
330
1F
100
AcDbEntity
  8
0
  6
Continuous
 62
     7
370
    25
100
AcDbPolyline
 90
        3
 70
   128
 43
0.0
 10
39.2870286687
 20
238.5382077219
 10
38.4730469218
 20
239.1243199545
 10
36.8214536425
 20
240.625913638
  0
LINE
  5
BD
330
1F
100
AcDbEntity
  8
0
  6
Continuous
 62
     7
370
    25
100
AcDbLine
 10
55.0618085827
 20
262.5045140579
 30
0.0
 11
54.9297764016
 21
262.3010253011
 31
0.0
  0
SPLINE
  5
BE
330
1F
100
AcDbEntity
  8
0
  6
Continuous
 62
     7
370
    25
100
AcDbSpline
210
0.0
220
0.0
230
1.0
 70
     8
 71
     3
 72
    11
 73
     7
 74
     0
 42
0.00000001
 43
0.00000001
 40
0.0
 40
0.0
 40
0.0
 40
0.0
 40
0.1446702591042608
 40
0.3907520209323691
 40
0.5962314811354867
 40
1.0
 40
1.0
 40
1.0
 40
1.0
 10
59.78835829690487
 20
257.4753942019503
 30
0.0
 10
59.58924040038971
 20
257.7428921619458
 30
0.0
 10
59.05142619483805
 20
258.4653998087193
 30
0.0
 10
58.16184824088621
 20
259.5151939207846
 30
0.0
 10
56.819040954801
 20
260.9618397716729
 30
0.0
 10
55.7622069608677
 20
261.8896343269983
 30
0.0
 10
55.06180858274057
 20
262.5045140578882
 30
0.0
  0
LINE
  5
BF
330
1F
100
AcDbEntity
  8
0
  6
Continuous
 62
     7
370
    25
100
AcDbLine
 10
59.5770786099
 20
257.3562259812
 30
0.0
 11
59.7883582969
 21
257.475394202
 31
0.0
  0
LINE
  5
C0
330
1F
100
AcDbEntity
  8
0
  6
Continuous
 62
     7
370
    25
100
AcDbLine
 10
40.6137661369
 20
263.2559454689
 30
0.0
 11
40.7239764791
 21
263.0398578675
 31
0.0
  0
SPLINE
  5
C1
330
1F
100
AcDbEntity
  8
0
  6
Continuous
 62
     7
370
    25
100
AcDbSpline
210
0.0
220
0.0
230
1.0
 70
     8
 71
     3
 72
    11
 73
     7
 74
     0
 42
0.00000001
 43
0.00000001
 40
0.0
 40
0.0
 40
0.0
 40
0.0
 40
0.1446702591042511
 40
0.3907520209323644
 40
0.5962314811354579
 40
1.0
 40
1.0
 40
1.0
 40
1.0
 10
47.3323865479266
 20
264.834697665602
 30
0.0
 10
47.00116757085237
 20
264.7960054888694
 30
0.0
 10
46.10655049154233
 20
264.6914985477325
 30
0.0
 10
44.75261314477464
 20
264.4459984969958
 30
0.0
 10
42.82837744458329
 20
264.006416200304
 30
0.0
 10
41.49646679321189
 20
263.5550683916373
 30
0.0
 10
40.61376613692546
 20
263.2559454688547
 30
0.0
  0
LINE
  5
C2
330
1F
100
AcDbEntity
  8
0
  6
Continuous
 62
     7
370
    25
100
AcDbLine
 10
47.3323865479
 20
264.8346976656
 30
0.0
 11
47.3299494109
 21
264.592139979
 31
0.0
  0
SPLINE
  5
C3
330
1F
100
AcDbEntity
  8
0
  6
Continuous
 62
     7
370
    25
100
AcDbSpline
210
0.0
220
0.0
230
1.0
 70
     8
 71
     3
 72
    11
 73
     7
 74
     0
 42
0.00000001
 43
0.00000001
 40
0.0
 40
0.0
 40
0.0
 40
0.0
 40
0.1446702591042585
 40
0.390752020932375
 40
0.5962314811354827
 40
0.9999999999999999
 40
0.9999999999999999
 40
0.9999999999999999
 40
0.9999999999999999
 10
34.58569904056419
 20
243.2603217387291
 30
0.0
 10
34.7848169370793
 20
242.9928237787335
 30
0.0
 10
35.32263114263107
 20
242.2703161319602
 30
0.0
 10
36.21220909658296
 20
241.2205220198951
 30
0.0
 10
37.55501638266806
 20
239.7738761690066
 30
0.0
 10
38.61185037660147
 20
238.8460816136809
 30
0.0
 10
39.31224875472855
 20
238.2312018827911
 30
0.0
  0
LINE
  5
C4
330
1F
100
AcDbEntity
  8
0
  6
Continuous
 62
     7
370
    25
100
AcDbLine
 10
34.5856990406
 20
243.2603217387
 30
0.0
 11
34.7969787276
 21
243.3794899594
 31
0.0
  0
LINE
  5
C5
330
1F
100
AcDbEntity
  8
0
  6
Continuous
 62
     7
370
    25
100
AcDbLine
 10
32.7389862229
 20
251.1192893813
 30
0.0
 11
32.9812287462
 21
251.1066905367
 31
0.0
  0
SPLINE
  5
C6
330
1F
100
AcDbEntity
  8
0
  6
Continuous
 62
     7
370
    25
100
AcDbSpline
210
0.0
220
0.0
230
1.0
 70
     8
 71
     3
 72
    11
 73
     7
 74
     0
 42
0.00000001
 43
0.00000001
 40
0.0
 40
0.0
 40
0.0
 40
0.0
 40
0.144670259104261
 40
0.390752020932367
 40
0.5962314811354686
 40
1.0
 40
1.0
 40
1.0
 40
1.0
 10
34.73105691975631
 20
257.7271614339915
 30
0.0
 10
34.5989558391972
 20
257.4209712972634
 30
0.0
 10
34.2421529654387
 20
256.5939567093529
 30
0.0
 10
33.77779357262312
 20
255.2986625465512
 30
0.0
 10
33.19636515851665
 20
253.4124343989706
 30
0.0
 10
32.92128850107861
 20
252.0332920349785
 30
0.0
 10
32.73898622291937
 20
251.1192893813061
 30
0.0
  0
LINE
  5
C7
330
1F
100
AcDbEntity
  8
0
  6
Continuous
 62
     7
370
    25
100
AcDbLine
 10
34.7310569198
 20
257.727161434
 30
0.0
 11
34.9398994697
 21
257.6037719681
 31
0.0
  0
LINE
  5
C8
330
1F
100
AcDbEntity
  8
0
  6
Continuous
 62
     7
370
    25
100
AcDbLine
 10
61.3928285913
 20
249.6290254039
 30
0.0
 11
61.6350711145
 21
249.6164265594
 31
0.0
  0
SPLINE
  5
C9
330
1F
100
AcDbEntity
  8
0
  6
Continuous
 62
     7
370
    25
100
AcDbSpline
210
0.0
220
0.0
230
1.0
 70
     8
 71
     3
 72
    11
 73
     7
 74
     0
 42
0.00000001
 43
0.00000001
 40
0.0
 40
0.0
 40
0.0
 40
0.0
 40
0.1446702591042609
 40
0.3907520209323516
 40
0.5962314811354708
 40
1.0
 40
1.0
 40
1.0
 40
1.0
 10
59.64300041771276
 20
243.008554506688
 30
0.0
 10
59.77510149827181
 20
243.314744643416
 30
0.0
 10
60.13190437203036
 20
244.1417592313264
 30
0.0
 10
60.59626376484595
 20
245.437053394128
 30
0.0
 10
61.17769217895247
 20
247.3232815417088
 30
0.0
 10
61.45276883639045
 20
248.7024239057008
 30
0.0
 10
61.63507111454969
 20
249.6164265593733
 30
0.0
  0
LINE
  5
CA
330
1F
100
AcDbEntity
  8
0
  6
Continuous
 62
     7
370
    25
100
AcDbLine
 10
59.4341578677
 20
243.1319439726
 30
0.0
 11
59.6430004177
 21
243.0085545067
 31
0.0
  0
SPLINE
  5
CB
330
1F
100
AcDbEntity
  8
0
  6
Continuous
 62
     7
370
    25
100
AcDbSpline
210
0.0
220
0.0
230
1.0
 70
     8
 71
     3
 72
     9
 73
     5
 74
     0
 42
0.00000001
 43
0.00000001
 40
0.0
 40
0.0
 40
0.0
 40
0.0
 40
0.5862283062033018
 40
1.0
 40
1.0
 40
1.0
 40
1.0
 10
61.63507111454969
 20
249.6164265593733
 30
0.0
 10
61.68932375180558
 20
249.9447524143892
 30
0.0
 10
61.78186898833182
 20
250.5048172415931
 30
0.0
 10
61.85292260352954
 20
251.0691941021275
 30
0.0
 10
61.88232257824017
 20
251.3027172716504
 30
0.0
  0
SPLINE
  5
CC
330
1F
100
AcDbEntity
  8
0
  6
Continuous
 62
     7
370
    25
100
AcDbSpline
210
0.0
220
0.0
230
1.0
 70
     8
 71
     3
 72
     9
 73
     5
 74
     0
 42
0.00000001
 43
0.00000001
 40
0.0
 40
0.0
 40
0.0
 40
0.0
 40
0.5863847898283814
 40
0.9999999999999999
 40
0.9999999999999999
 40
0.9999999999999999
 40
0.9999999999999999
 10
60.76075957389776
 20
256.0756994462582
 30
0.0
 10
60.57548670377327
 20
256.3530735053158
 30
0.0
 10
60.25952886629482
 20
256.8260974716071
 30
0.0
 10
59.92621993894348
 20
257.2854139289227
 30
0.0
 10
59.78835829690493
 20
257.4753942019505
 30
0.0
  0
ARC
  5
CD
330
1F
100
AcDbEntity
  8
0
  6
Continuous
 62
     7
370
    25
100
AcDbCircle
 10
47.1870286687
 20
250.3678579703
 30
0.0
 40
14.72500000000002
100
AcDbArc
 50
3.6400367407
 51
22.8070678661
  0
SPLINE
  5
CE
330
1F
100
AcDbEntity
  8
0
  6
Continuous
 62
     7
370
    25
100
AcDbSpline
210
0.0
220
0.0
230
1.0
 70
     8
 71
     3
 72
     9
 73
     5
 74
     0
 42
0.00000001
 43
0.00000001
 40
0.0
 40
0.0
 40
0.0
 40
0.0
 40
0.5863847898283626
 40
1.0
 40
1.0
 40
1.0
 40
1.0
 10
58.91702984023611
 20
241.4665829202937
 30
0.0
 10
59.06460638666861
 20
241.7657209619823
 30
0.0
 10
59.31627823933666
 20
242.2758604589091
 30
0.0
 10
59.54740349607213
 20
242.7941726859613
 30
0.0
 10
59.64300041771276
 20
243.008554506688
 30
0.0
  0
ARC
  5
CF
330
1F
100
AcDbEntity
  8
0
  6
Continuous
 62
     7
370
    25
100
AcDbCircle
 10
47.1870286687
 20
250.3678579703
 30
0.0
 40
14.72500000000007
100
AcDbArc
 50
303.6400367407
 51
322.8070678661
  0
SPLINE
  5
D0
330
1F
100
AcDbEntity
  8
0
  6
Continuous
 62
     7
370
    25
100
AcDbSpline
210
0.0
220
0.0
230
1.0
 70
     8
 71
     3
 72
     9
 73
     5
 74
     0
 42
0.00000001
 43
0.00000001
 40
0.0
 40
0.0
 40
0.0
 40
0.0
 40
0.5862283062032898
 40
1.0
 40
1.0
 40
1.0
 40
1.0
 10
55.06180858274057
 20
262.5045140578882
 30
0.0
 10
54.80459637020557
 20
262.715661147482
 30
0.0
 10
54.36583862034394
 20
263.0758400869151
 30
0.0
 10
53.91260072941195
 20
263.4195627529742
 30
0.0
 10
53.72506371958813
 20
263.5617854627058
 30
0.0
  0
SPLINE
  5
D1
330
1F
100
AcDbEntity
  8
0
  6
Continuous
 62
     7
370
    25
100
AcDbSpline
210
0.0
220
0.0
230
1.0
 70
     8
 71
     3
 72
     9
 73
     5
 74
     0
 42
0.00000001
 43
0.00000001
 40
0.0
 40
0.0
 40
0.0
 40
0.0
 40
0.5863847898283683
 40
0.9999999999999999
 40
0.9999999999999999
 40
0.9999999999999999
 40
0.9999999999999999
 10
49.03075840239629
 20
264.9769744963043
 30
0.0
 10
48.69790898583937
 20
264.9552105136732
 30
0.0
 10
48.13027929569286
 20
264.9180949830376
 30
0.0
 10
47.56584511160577
 20
264.859099213301
 30
0.0
 10
47.3323865479266
 20
264.834697665602
 30
0.0
  0
ARC
  5
D2
330
1F
100
AcDbEntity
  8
0
  6
Continuous
 62
     7
370
    25
100
AcDbCircle
 10
47.1870286687
 20
250.3678579703
 30
0.0
 40
14.72500000000007
100
AcDbArc
 50
63.6400367407
 51
82.8070678661
  0
SPLINE
  5
D3
330
1F
100
AcDbEntity
  8
0
  6
Continuous
 62
     7
370
    25
100
AcDbSpline
210
0.0
220
0.0
230
1.0
 70
     8
 71
     3
 72
     9
 73
     5
 74
     0
 42
0.00000001
 43
0.00000001
 40
0.0
 40
0.0
 40
0.0
 40
0.0
 40
0.5862283062032594
 40
1.0
 40
1.0
 40
1.0
 40
1.0
 10
32.73898622291937
 20
251.1192893813061
 30
0.0
 10
32.68473358566337
 20
250.7909635262902
 30
0.0
 10
32.59218834913719
 20
250.2308986990862
 30
0.0
 10
32.52113473393964
 20
249.666521838552
 30
0.0
 10
32.4917347592289
 20
249.4329986690289
 30
0.0
  0
SPLINE
  5
D4
330
1F
100
AcDbEntity
  8
0
  6
Continuous
 62
     7
370
    25
100
AcDbSpline
210
0.0
220
0.0
230
1.0
 70
     8
 71
     3
 72
     9
 73
     5
 74
     0
 42
0.00000001
 43
0.00000001
 40
0.0
 40
0.0
 40
0.0
 40
0.0
 40
0.5863847898284122
 40
0.9999999999999999
 40
0.9999999999999999
 40
0.9999999999999999
 40
0.9999999999999999
 10
33.6132977635713
 20
244.6600164944211
 30
0.0
 10
33.79857063369573
 20
244.3826424353636
 30
0.0
 10
34.11452847117408
 20
243.9096184690719
 30
0.0
 10
34.44783739852559
 20
243.4503020117569
 30
0.0
 10
34.58569904056419
 20
243.2603217387291
 30
0.0
  0
ARC
  5
D5
330
1F
100
AcDbEntity
  8
0
  6
Continuous
 62
     7
370
    25
100
AcDbCircle
 10
47.1870286687
 20
250.3678579703
 30
0.0
 40
14.72500000000002
100
AcDbArc
 50
183.6400367407
 51
202.8070678661
  0
SPLINE
  5
D6
330
1F
100
AcDbEntity
  8
0
  6
Continuous
 62
     7
370
    25
100
AcDbSpline
210
0.0
220
0.0
230
1.0
 70
     8
 71
     3
 72
     9
 73
     5
 74
     0
 42
0.00000001
 43
0.00000001
 40
0.0
 40
0.0
 40
0.0
 40
0.0
 40
0.5862283062032844
 40
1.0
 40
1.0
 40
1.0
 40
1.0
 10
40.61376613692546
 20
263.2559454688547
 30
0.0
 10
40.30230128713453
 20
263.1387667034327
 30
0.0
 10
39.7709983007466
 20
262.9388808156617
 30
0.0
 10
39.246706794617
 20
262.7182266211864
 30
0.0
 10
39.02976981008243
 20
262.6269261613949
 30
0.0
  0
SPLINE
  5
D7
330
1F
100
AcDbEntity
  8
0
  6
Continuous
 62
     7
370
    25
100
AcDbSpline
210
0.0
220
0.0
230
1.0
 70
     8
 71
     3
 72
     9
 73
     5
 74
     0
 42
0.00000001
 43
0.00000001
 40
0.0
 40
0.0
 40
0.0
 40
0.0
 40
0.5863847898283973
 40
1.0
 40
1.0
 40
1.0
 40
1.0
 10
35.45702749723295
 20
259.2691330203857
 30
0.0
 10
35.30945095080046
 20
258.9699949786971
 30
0.0
 10
35.05777909813251
 20
258.4598554817702
 30
0.0
 10
34.82665384139694
 20
257.9415432547179
 30
0.0
 10
34.73105691975631
 20
257.7271614339915
 30
0.0
  0
ARC
  5
D8
330
1F
100
AcDbEntity
  8
0
  6
Continuous
 62
     7
370
    25
100
AcDbCircle
 10
47.1870286687
 20
250.3678579703
 30
0.0
 40
14.72500000000004
100
AcDbArc
 50
123.6400367407
 51
142.8070678661
  0
SPLINE
  5
D9
330
1F
100
AcDbEntity
  8
0
  6
Continuous
 62
     7
370
    25
100
AcDbSpline
210
0.0
220
0.0
230
1.0
 70
    24
 71
     3
 72
    12
 73
     8
 74
     0
 42
0.00000001
 43
0.00000001
 40
0.0
 40
0.0
 40
0.0
 40
0.0
 40
0.3013828945621001
 40
0.4108442493795508
 40
0.6247185195336539
 40
0.6986171054378641
 40
1.0
 40
1.0
 40
1.0
 40
1.0
 10
61.8567076225387
 20
249.485478099166
 30
0.0
 10
61.66068324673796
 20
248.8352481667865
 30
0.0
 10
61.39346341114305
 20
247.9488566916473
 30
0.0
 10
60.98518448225487
 20
246.5945599148395
 30
0.0
 10
60.72508857412446
 20
245.7317991277438
 30
0.0
 10
60.34018645203754
 20
244.4550452557063
 30
0.0
 10
60.09610286745526
 20
243.6453987408309
 30
0.0
 10
59.9000830235103
 20
242.9951838410124
 30
0.0
  0
ARC
  5
DA
330
1F
100
AcDbEntity
  8
0
  6
Continuous
 62
     7
370
    25
100
AcDbCircle
 10
59.790617827
 20
243.3686523436
 30
0.0
 40
0.3891803587966297
100
AcDbArc
 50
247.7094634934
 51
286.3360839426
  0
ARC
  5
DB
330
1F
100
AcDbEntity
  8
0
  6
Continuous
 62
     7
370
    25
100
AcDbCircle
 10
61.5590634604
 20
249.2347405783
 30
0.0
 40
0.3891803587974135
100
AcDbArc
 50
40.1110206643
 51
78.7376411134
  0
SPLINE
  5
DC
330
1F
100
AcDbEntity
  8
0
  6
Continuous
 62
     7
370
    25
100
AcDbSpline
210
0.0
220
0.0
230
1.0
 70
    24
 71
     3
 72
    12
 73
     8
 74
     0
 42
0.00000001
 43
0.00000001
 40
0.0
 40
0.0
 40
0.0
 40
0.0
 40
0.3013828945620891
 40
0.4108442493795531
 40
0.6247185195336445
 40
0.6986171054378645
 40
0.9999999999999999
 40
0.9999999999999999
 40
0.9999999999999999
 40
0.9999999999999999
 10
39.08802580760806
 20
238.1047332665702
 30
0.0
 10
38.62292235576664
 20
238.5996103219645
 30
0.0
 10
37.98889473839562
 20
239.2742252255545
 30
0.0
 10
37.0201787898608
 20
240.3049535382051
 30
0.0
 10
36.40305398491201
 20
240.9615835956145
 30
0.0
 10
35.48980375839101
 20
241.9332955473312
 30
0.0
 10
34.91067110071461
 20
242.5495013896636
 30
0.0
 10
34.44557840152485
 20
243.0443670040752
 30
0.0
  0
ARC
  5
DD
330
1F
100
AcDbEntity
  8
0
  6
Continuous
 62
     7
370
    25
100
AcDbCircle
 10
34.8237442105
 20
242.9524323938
 30
0.0
 40
0.3891803587966062
100
AcDbArc
 50
127.7094634934
 51
166.3360839426
  0
SPLINE
  5
DE
330
1F
100
AcDbEntity
  8
0
  6
Continuous
 62
     7
370
    25
100
AcDbSpline
210
0.0
220
0.0
230
1.0
 70
    24
 71
     3
 72
    12
 73
     8
 74
     0
 42
0.00000001
 43
0.00000001
 40
0.0
 40
0.0
 40
0.0
 40
0.0
 40
0.3013828945621578
 40
0.4108442493795545
 40
0.6247185195336499
 40
0.6986171054378596
 40
1.0
 40
1.0
 40
1.0
 40
1.0
 10
55.28603152986106
 20
262.6309826741091
 30
0.0
 10
55.75113498170248
 20
262.1361056187147
 30
0.0
 10
56.38516259907345
 20
261.4614907151246
 30
0.0
 10
57.35387854760848
 20
260.4307624024743
 30
0.0
 10
57.97100335255706
 20
259.7741323450652
 30
0.0
 10
58.88425357907801
 20
258.8024203933478
 30
0.0
 10
59.46338623675446
 20
258.1862145510156
 30
0.0
 10
59.92847893594422
 20
257.6913489366043
 30
0.0
  0
ARC
  5
DF
330
1F
100
AcDbEntity
  8
0
  6
Continuous
 62
     7
370
    25
100
AcDbCircle
 10
59.5503131269
 20
257.7832835469
 30
0.0
 40
0.389180358795093
100
AcDbArc
 50
307.7094634933
 51
346.3360839426
  0
ARC
  5
E0
330
1F
100
AcDbEntity
  8
0
  6
Continuous
 62
     7
370
    25
100
AcDbCircle
 10
55.3543545116
 20
262.2478465079
 30
0.0
 40
0.3891803587982694
100
AcDbArc
 50
100.1110206644
 51
138.7376411134
  0
ARC
  5
E1
330
1F
100
AcDbEntity
  8
0
  6
Continuous
 62
     7
370
    25
100
AcDbCircle
 10
32.8149938771
 20
251.5009753625
 30
0.0
 40
0.3891803588385006
100
AcDbArc
 50
220.1110206665
 51
258.7376411113
  0
SPLINE
  5
E2
330
1F
100
AcDbEntity
  8
0
  6
Continuous
 62
     7
370
    25
100
AcDbSpline
210
0.0
220
0.0
230
1.0
 70
    24
 71
     3
 72
    12
 73
     8
 74
     0
 42
0.00000001
 43
0.00000001
 40
0.0
 40
0.0
 40
0.0
 40
0.0
 40
0.3013828945621522
 40
0.410844249379567
 40
0.6247185195336525
 40
0.6986171054378497
 40
1.0
 40
1.0
 40
1.0
 40
1.0
 10
32.51734971493042
 20
251.2502378415135
 30
0.0
 10
32.71337409073133
 20
251.9004677738933
 30
0.0
 10
32.98059392632624
 20
252.7868592490324
 30
0.0
 10
33.38887285521419
 20
254.1411560258401
 30
0.0
 10
33.64896876334467
 20
255.003916812936
 30
0.0
 10
34.03387088543186
 20
256.2806706849731
 30
0.0
 10
34.27795447001392
 20
257.0903171998483
 30
0.0
 10
34.47397431395876
 20
257.7405320996671
 30
0.0
  0
ARC
  5
E3
330
1F
100
AcDbEntity
  8
0
  6
Continuous
 62
     7
370
    25
100
AcDbCircle
 10
34.5834395105
 20
257.3670635971
 30
0.0
 40
0.3891803587961841
100
AcDbArc
 50
67.7094634934
 51
106.3360839426
  0
ARC
  5
E4
330
1F
100
AcDbEntity
  8
0
  6
Continuous
 62
     7
370
    25
100
AcDbCircle
 10
40.98231972
 20
263.3809639
 30
0.0
 40
0.3891803588379174
100
AcDbArc
 50
160.1110206664
 51
198.7376411113
  0
SPLINE
  5
E5
330
1F
100
AcDbEntity
  8
0
  6
Continuous
 62
     7
370
    25
100
AcDbSpline
210
0.0
220
0.0
230
1.0
 70
    24
 71
     3
 72
    12
 73
     8
 74
     0
 42
0.00000001
 43
0.00000001
 40
0.0
 40
0.0
 40
0.0
 40
0.0
 40
0.3013828945621506
 40
0.4108442493795592
 40
0.6247185195336364
 40
0.6986171054378689
 40
0.9999999999999999
 40
0.9999999999999999
 40
0.9999999999999999
 40
0.9999999999999999
 10
40.61635257605695
 20
263.5133625452828
 30
0.0
 10
41.27748040369922
 20
263.6687154222681
 30
0.0
 10
42.17872785666516
 20
263.8804919938175
 30
0.0
 10
43.55572273408798
 20
264.2040604579744
 30
0.0
 10
44.43294344716725
 20
264.4101911876611
 30
0.0
 10
45.73109579577527
 20
264.7152331079814
 30
0.0
 10
46.5543120380339
 20
264.9086737805243
 30
0.0
 10
47.21542458116845
 20
265.0640230659316
 30
0.0
  0
ARC
  5
E6
330
1F
100
AcDbEntity
  8
0
  6
Continuous
 62
     7
370
    25
100
AcDbCircle
 10
46.9467239687
 20
264.7824891736
 30
0.0
 40
0.3891803587970187
100
AcDbArc
 50
7.7094634934
 51
46.3360839425
  0
LINE
  5
E7
330
1F
100
AcDbEntity
  8
0
  6
Continuous
 62
     7
370
    25
100
AcDbLine
 10
59.9000830235
 20
242.995183841
 30
0.0
 11
59.395748954
 21
241.3222637944
 31
0.0
  0
LINE
  5
E8
330
1F
100
AcDbEntity
  8
0
  6
Continuous
 62
     7
370
    25
100
AcDbLine
 10
59.395748954
 20
241.3222637944
 30
0.0
 11
58.9170298402
 21
241.4665829203
 31
0.0
  0
LINE
  5
E9
330
1F
100
AcDbEntity
  8
0
  6
Continuous
 62
     7
370
    25
100
AcDbLine
 10
59.9284789359
 20
257.6913489366
 30
0.0
 11
61.1251031601
 21
256.4181227971
 31
0.0
  0
LINE
  5
EA
330
1F
100
AcDbEntity
  8
0
  6
Continuous
 62
     7
370
    25
100
AcDbLine
 10
61.1251031601
 20
256.4181227971
 30
0.0
 11
60.7607595739
 21
256.0756994463
 31
0.0
  0
LINE
  5
EB
330
1F
100
AcDbEntity
  8
0
  6
Continuous
 62
     7
370
    25
100
AcDbLine
 10
47.2154245812
 20
265.0640230659
 30
0.0
 11
48.9163828748
 21
265.4637169731
 31
0.0
  0
LINE
  5
EC
330
1F
100
AcDbEntity
  8
0
  6
Continuous
 62
     7
370
    25
100
AcDbLine
 10
48.9163828748
 20
265.4637169731
 30
0.0
 11
49.0307584024
 21
264.9769744963
 31
0.0
  0
LINE
  5
ED
330
1F
100
AcDbEntity
  8
0
  6
Continuous
 62
     7
370
    25
100
AcDbLine
 10
34.4455784015
 20
243.0443670041
 30
0.0
 11
33.2489541774
 21
244.3175931435
 31
0.0
  0
LINE
  5
EE
330
1F
100
AcDbEntity
  8
0
  6
Continuous
 62
     7
370
    25
100
AcDbLine
 10
33.6132977636
 20
244.6600164944
 30
0.0
 11
33.2489541774
 21
244.3175931435
 31
0.0
  0
LINE
  5
EF
330
1F
100
AcDbEntity
  8
0
  6
Continuous
 62
     7
370
    25
100
AcDbLine
 10
34.473974314
 20
257.7405320997
 30
0.0
 11
34.9783083834
 21
259.4134521463
 31
0.0
  0
LINE
  5
F0
330
1F
100
AcDbEntity
  8
0
  6
Continuous
 62
     7
370
    25
100
AcDbLine
 10
34.9783083834
 20
259.4134521463
 30
0.0
 11
35.4570274972
 21
259.2691330204
 31
0.0
  0
LINE
  5
F1
330
1F
100
AcDbEntity
  8
0
  6
Continuous
 62
     7
370
    25
100
AcDbLine
 10
55.458663055
 20
237.6220473025
 30
0.0
 11
55.0870286687
 21
237.5347200586
 31
0.0
  0
LINE
  5
F2
330
1F
100
AcDbEntity
  8
0
  6
Continuous
 62
     7
370
    25
100
AcDbLine
 10
55.458663055
 20
237.6220473025
 30
0.0
 11
55.3442875274
 21
238.1087897793
 31
0.0
  0
LINE
  5
F3
330
1F
100
AcDbEntity
  8
0
  6
Continuous
 62
     7
370
    25
100
AcDbLine
 10
62.361041692
 20
251.1583981458
 30
0.0
 11
61.8567076225
 21
249.4854780992
 31
0.0
  0
LINE
  5
F4
330
1F
100
AcDbEntity
  8
0
  6
Continuous
 62
     7
370
    25
100
AcDbLine
 10
61.8823225782
 20
251.3027172717
 30
0.0
 11
62.361041692
 21
251.1583981458
 31
0.0
  0
LINE
  5
F5
330
1F
100
AcDbEntity
  8
0
  6
Continuous
 62
     7
370
    25
100
AcDbLine
 10
54.0894073057
 20
263.9042088136
 30
0.0
 11
55.2860315299
 21
262.6309826741
 31
0.0
  0
LINE
  5
F6
330
1F
100
AcDbEntity
  8
0
  6
Continuous
 62
     7
370
    25
100
AcDbLine
 10
53.7250637196
 20
263.5617854627
 30
0.0
 11
54.0894073057
 21
263.9042088136
 31
0.0
  0
LINE
  5
F7
330
1F
100
AcDbEntity
  8
0
  6
Continuous
 62
     7
370
    25
100
AcDbLine
 10
39.0297698101
 20
262.6269261614
 30
0.0
 11
38.9153942825
 21
263.1136686382
 31
0.0
  0
LINE
  5
F8
330
1F
100
AcDbEntity
  8
0
  6
Continuous
 62
     7
370
    25
100
AcDbLine
 10
38.9153942825
 20
263.1136686382
 30
0.0
 11
40.6163525761
 21
263.5133625453
 31
0.0
  0
LINE
  5
F9
330
1F
100
AcDbEntity
  8
0
  6
Continuous
 62
     7
370
    25
100
AcDbLine
 10
32.4917347592
 20
249.432998669
 30
0.0
 11
32.0130156454
 21
249.5773177949
 31
0.0
  0
LINE
  5
FA
330
1F
100
AcDbEntity
  8
0
  6
Continuous
 62
     7
370
    25
100
AcDbLine
 10
32.0130156454
 20
249.5773177949
 30
0.0
 11
32.5173497149
 21
251.2502378415
 31
0.0
  0
ARC
  5
FB
330
1F
100
AcDbEntity
  8
0
  6
Continuous
 62
     7
370
    25
100
AcDbCircle
 10
47.1870286687
 20
250.3678579703
 30
0.0
 40
16.0
100
AcDbArc
 50
310.309742062
 51
316.1373625449
  0
LINE
  5
FC
330
1F
100
AcDbEntity
  8
0
  6
Continuous
 62
     7
370
    25
100
AcDbLine
 10
57.5377398281
 20
238.1669244612
 30
0.0
 11
57.2142801044
 21
238.5482036334
 31
0.0
  0
ARC
  5
FD
330
1F
100
AcDbEntity
  8
0
  6
Continuous
 62
     7
370
    25
100
AcDbCircle
 10
47.1870286687
 20
250.3678579703
 30
0.0
 40
15.49999999999996
100
AcDbArc
 50
310.309742062
 51
316.1373625449
  0
LINE
  5
FE
330
1F
100
AcDbEntity
  8
0
  6
Continuous
 62
     7
370
    25
100
AcDbLine
 10
58.7230786748
 20
239.2809490117
 30
0.0
 11
58.3625771121
 21
239.6274149167
 31
0.0
  0
ARC
  5
FF
330
1F
100
AcDbEntity
  8
0
  6
Continuous
 62
     7
370
    25
100
AcDbCircle
 10
47.1870286687
 20
250.3678579703
 30
0.0
 40
16.00000000000003
100
AcDbArc
 50
10.309742062
 51
16.1373625449
  0
LINE
  5
100
330
1F
100
AcDbEntity
  8
0
  6
Continuous
 62
     7
370
    25
100
AcDbLine
 10
62.9287026172
 20
253.2313700271
 30
0.0
 11
62.4367753063
 21
253.1418852753
 31
0.0
  0
ARC
  5
101
330
1F
100
AcDbEntity
  8
0
  6
Continuous
 62
     7
370
    25
100
AcDbCircle
 10
47.1870286687
 20
250.3678579703
 30
0.0
 40
15.50000000000005
100
AcDbArc
 50
10.309742062
 51
16.1373625449
  0
LINE
  5
102
330
1F
100
AcDbEntity
  8
0
  6
Continuous
 62
     7
370
    25
100
AcDbLine
 10
62.5565984794
 20
254.8149158556
 30
0.0
 11
62.0762994228
 21
254.6759452967
 31
0.0
  0
LINE
  5
103
330
1F
100
AcDbEntity
  8
0
  6
Continuous
 62
     7
370
    25
100
AcDbLine
 10
55.3442875274
 20
238.1087897793
 30
0.0
 11
57.2142801044
 21
238.5482036334
 31
0.0
  0
LINE
  5
104
330
1F
100
AcDbEntity
  8
0
  6
Continuous
 62
     7
370
    25
100
AcDbLine
 10
58.3625771121
 20
239.6274149167
 30
0.0
 11
58.9170298402
 21
241.4665829203
 31
0.0
  0
LINE
  5
105
330
1F
100
AcDbEntity
  8
0
  6
Continuous
 62
     7
370
    25
100
AcDbLine
 10
59.395748954
 20
241.3222637944
 30
0.0
 11
58.8412962259
 21
239.4830957908
 31
0.0
  0
LINE
  5
106
330
1F
100
AcDbEntity
  8
0
  6
Continuous
 62
     7
370
    25
100
AcDbLine
 10
58.8412962259
 20
239.4830957908
 30
0.0
 11
58.3625771121
 21
239.6274149167
 31
0.0
  0
ARC
  5
107
330
1F
100
AcDbEntity
  8
0
  6
Continuous
 62
     7
370
    25
100
AcDbCircle
 10
58.3625771121
 20
239.6274149167
 30
0.0
 40
0.5000000000000351
100
AcDbArc
 50
316.1373625449
 51
343.2235523034
  0
LINE
  5
108
330
1F
100
AcDbEntity
  8
0
  6
Continuous
 62
     7
370
    25
100
AcDbLine
 10
57.328655632
 20
238.0614611566
 30
0.0
 11
57.2142801044
 21
238.5482036334
 31
0.0
  0
ARC
  5
109
330
1F
100
AcDbEntity
  8
0
  6
Continuous
 62
     7
370
    25
100
AcDbCircle
 10
57.2142801044
 20
238.5482036334
 30
0.0
 40
0.5000000000000263
100
AcDbArc
 50
283.2235523034
 51
310.309742062
  0
LINE
  5
10A
330
1F
100
AcDbEntity
  8
0
  6
Continuous
 62
     7
370
    25
100
AcDbLine
 10
57.328655632
 20
238.0614611566
 30
0.0
 11
55.458663055
 21
237.6220473025
 31
0.0
  0
LINE
  5
10B
330
1F
100
AcDbEntity
  8
0
  6
Continuous
 62
     7
370
    25
100
AcDbLine
 10
61.8823225782
 20
251.3027172717
 30
0.0
 11
62.4367753063
 21
253.1418852753
 31
0.0
  0
LINE
  5
10C
330
1F
100
AcDbEntity
  8
0
  6
Continuous
 62
     7
370
    25
100
AcDbLine
 10
62.0762994228
 20
254.6759452967
 30
0.0
 11
60.7607595739
 21
256.0756994463
 31
0.0
  0
LINE
  5
10D
330
1F
100
AcDbEntity
  8
0
  6
Continuous
 62
     7
370
    25
100
AcDbLine
 10
62.4367753063
 20
253.1418852753
 30
0.0
 11
62.9154944201
 21
252.9975661494
 31
0.0
  0
LINE
  5
10E
330
1F
100
AcDbEntity
  8
0
  6
Continuous
 62
     7
370
    25
100
AcDbLine
 10
62.9154944201
 20
252.9975661494
 30
0.0
 11
62.361041692
 21
251.1583981458
 31
0.0
  0
LINE
  5
10F
330
1F
100
AcDbEntity
  8
0
  6
Continuous
 62
     7
370
    25
100
AcDbLine
 10
62.440643009
 20
255.0183686476
 30
0.0
 11
62.0762994228
 21
254.6759452967
 31
0.0
  0
ARC
  5
110
330
1F
100
AcDbEntity
  8
0
  6
Continuous
 62
     7
370
    25
100
AcDbCircle
 10
62.0762994228
 20
254.6759452967
 30
0.0
 40
0.4999999999999815
100
AcDbArc
 50
16.1373625448
 51
43.2235523034
  0
ARC
  5
111
330
1F
100
AcDbEntity
  8
0
  6
Continuous
 62
     7
370
    25
100
AcDbCircle
 10
62.4367753063
 20
253.1418852753
 30
0.0
 40
0.5000000000000023
100
AcDbArc
 50
343.2235523034
 51
10.309742062
  0
LINE
  5
112
330
1F
100
AcDbEntity
  8
0
  6
Continuous
 62
     7
370
    25
100
AcDbLine
 10
61.1251031601
 20
256.4181227971
 30
0.0
 11
62.440643009
 21
255.0183686476
 31
0.0
  0
ARC
  5
113
330
1F
100
AcDbEntity
  8
0
  6
Continuous
 62
     7
370
    25
100
AcDbCircle
 10
32.2977579146
 20
246.059770644
 30
0.0
 40
0.4999999999999833
100
AcDbArc
 50
196.1373625449
 51
223.2235523034
  0
LINE
  5
114
330
1F
100
AcDbEntity
  8
0
  6
Continuous
 62
     7
370
    25
100
AcDbLine
 10
32.2977579146
 20
246.059770644
 30
0.0
 11
31.8174588581
 21
245.9208000851
 31
0.0
  0
LINE
  5
115
330
1F
100
AcDbEntity
  8
0
  6
Continuous
 62
     7
370
    25
100
AcDbLine
 10
32.2977579146
 20
246.059770644
 30
0.0
 11
31.9334143285
 21
245.7173472931
 31
0.0
  0
LINE
  5
116
330
1F
100
AcDbEntity
  8
0
  6
Continuous
 62
     7
370
    25
100
AcDbLine
 10
48.9163828748
 20
265.4637169731
 30
0.0
 11
50.7863754518
 21
265.9031308271
 31
0.0
  0
LINE
  5
117
330
1F
100
AcDbEntity
  8
0
  6
Continuous
 62
     7
370
    25
100
AcDbLine
 10
50.7863754518
 20
265.9031308271
 30
0.0
 11
50.9007509794
 21
265.4163883504
 31
0.0
  0
LINE
  5
118
330
1F
100
AcDbEntity
  8
0
  6
Continuous
 62
     7
370
    25
100
AcDbLine
 10
50.9007509794
 20
265.4163883504
 30
0.0
 11
49.0307584024
 21
264.9769744963
 31
0.0
  0
LINE
  5
119
330
1F
100
AcDbEntity
  8
0
  6
Continuous
 62
     7
370
    25
100
AcDbLine
 10
53.7250637196
 20
263.5617854627
 30
0.0
 11
52.4095238707
 21
264.9615396123
 31
0.0
  0
ARC
  5
11A
330
1F
100
AcDbEntity
  8
0
  6
Continuous
 62
     7
370
    25
100
AcDbCircle
 10
47.1870286687
 20
250.3678579703
 30
0.0
 40
15.50000000000006
100
AcDbArc
 50
70.309742062
 51
76.1373625449
  0
LINE
  5
11B
330
1F
100
AcDbEntity
  8
0
  6
Continuous
 62
     7
370
    25
100
AcDbLine
 10
32.4917347592
 20
249.432998669
 30
0.0
 11
31.9372820311
 21
247.5938306654
 31
0.0
  0
LINE
  5
11C
330
1F
100
AcDbEntity
  8
0
  6
Continuous
 62
     7
370
    25
100
AcDbLine
 10
31.9372820311
 20
247.5938306654
 30
0.0
 11
31.4585629173
 21
247.7381497913
 31
0.0
  0
LINE
  5
11D
330
1F
100
AcDbEntity
  8
0
  6
Continuous
 62
     7
370
    25
100
AcDbLine
 10
31.4585629173
 20
247.7381497913
 30
0.0
 11
32.0130156454
 21
249.5773177949
 31
0.0
  0
LINE
  5
11E
330
1F
100
AcDbEntity
  8
0
  6
Continuous
 62
     7
370
    25
100
AcDbLine
 10
32.2977579146
 20
246.059770644
 30
0.0
 11
33.6132977636
 21
244.6600164944
 31
0.0
  0
LINE
  5
11F
330
1F
100
AcDbEntity
  8
0
  6
Continuous
 62
     7
370
    25
100
AcDbLine
 10
33.2489541774
 20
244.3175931435
 30
0.0
 11
31.9334143285
 21
245.7173472931
 31
0.0
  0
ARC
  5
120
330
1F
100
AcDbEntity
  8
0
  6
Continuous
 62
     7
370
    25
100
AcDbCircle
 10
50.9007509794
 20
265.4163883504
 30
0.0
 40
0.5000000000000159
100
AcDbArc
 50
76.1373625448
 51
103.2235523034
  0
LINE
  5
121
330
1F
100
AcDbEntity
  8
0
  6
Continuous
 62
     7
370
    25
100
AcDbLine
 10
50.9007509794
 20
265.4163883504
 30
0.0
 11
51.0205484733
 21
265.9018248143
 31
0.0
  0
ARC
  5
122
330
1F
100
AcDbEntity
  8
0
  6
Continuous
 62
     7
370
    25
100
AcDbCircle
 10
47.1870286687
 20
250.3678579703
 30
0.0
 40
15.50000000000001
100
AcDbArc
 50
190.309742062
 51
196.1373625449
  0
ARC
  5
123
330
1F
100
AcDbEntity
  8
0
  6
Continuous
 62
     7
370
    25
100
AcDbCircle
 10
52.4095238707
 20
264.9615396123
 30
0.0
 40
0.500000000000058
100
AcDbArc
 50
43.2235523034
 51
70.309742062
  0
LINE
  5
124
330
1F
100
AcDbEntity
  8
0
  6
Continuous
 62
     7
370
    25
100
AcDbLine
 10
52.4095238707
 20
264.9615396123
 30
0.0
 11
52.7738674568
 21
265.3039629631
 31
0.0
  0
LINE
  5
125
330
1F
100
AcDbEntity
  8
0
  6
Continuous
 62
     7
370
    25
100
AcDbLine
 10
52.5779914578
 20
265.4323035362
 30
0.0
 11
52.4095238707
 21
264.9615396123
 31
0.0
  0
ARC
  5
126
330
1F
100
AcDbEntity
  8
0
  6
Continuous
 62
     7
370
    25
100
AcDbCircle
 10
47.1870286687
 20
250.3678579703
 30
0.0
 40
16.0
100
AcDbArc
 50
190.309742062
 51
196.1373625449
  0
LINE
  5
127
330
1F
100
AcDbEntity
  8
0
  6
Continuous
 62
     7
370
    25
100
AcDbLine
 10
31.9372820311
 20
247.5938306654
 30
0.0
 11
31.4453547202
 21
247.5043459136
 31
0.0
  0
ARC
  5
128
330
1F
100
AcDbEntity
  8
0
  6
Continuous
 62
     7
370
    25
100
AcDbCircle
 10
47.1870286687
 20
250.3678579703
 30
0.0
 40
16.00000000000007
100
AcDbArc
 50
70.309742062
 51
76.1373625449
  0
ARC
  5
129
330
1F
100
AcDbEntity
  8
0
  6
Continuous
 62
     7
370
    25
100
AcDbCircle
 10
31.9372820311
 20
247.5938306654
 30
0.0
 40
0.5000000000000411
100
AcDbArc
 50
163.2235523034
 51
190.309742062
  0
LINE
  5
12A
330
1F
100
AcDbEntity
  8
0
  6
Continuous
 62
     7
370
    25
100
AcDbLine
 10
52.7738674568
 20
265.3039629631
 30
0.0
 11
54.0894073057
 21
263.9042088136
 31
0.0
  0
ARC
  5
12B
330
1F
100
AcDbEntity
  8
0
  6
Continuous
 62
     7
370
    25
100
AcDbCircle
 10
47.1870286687
 20
250.3678579703
 30
0.0
 40
15.50000000000004
100
AcDbArc
 50
130.309742062
 51
136.1373625449
  0
LINE
  5
12C
330
1F
100
AcDbEntity
  8
0
  6
Continuous
 62
     7
370
    25
100
AcDbLine
 10
36.0114802253
 20
261.108301024
 30
0.0
 11
35.6509786627
 21
261.454766929
 31
0.0
  0
ARC
  5
12D
330
1F
100
AcDbEntity
  8
0
  6
Continuous
 62
     7
370
    25
100
AcDbCircle
 10
47.1870286687
 20
250.3678579703
 30
0.0
 40
15.99999999999998
100
AcDbArc
 50
130.309742062
 51
136.1373625449
  0
LINE
  5
12E
330
1F
100
AcDbEntity
  8
0
  6
Continuous
 62
     7
370
    25
100
AcDbLine
 10
37.1597772331
 20
262.1875123073
 30
0.0
 11
36.8363175093
 21
262.5687914795
 31
0.0
  0
LINE
  5
12F
330
1F
100
AcDbEntity
  8
0
  6
Continuous
 62
     7
370
    25
100
AcDbLine
 10
39.0297698101
 20
262.6269261614
 30
0.0
 11
37.1597772331
 21
262.1875123073
 31
0.0
  0
LINE
  5
130
330
1F
100
AcDbEntity
  8
0
  6
Continuous
 62
     7
370
    25
100
AcDbLine
 10
36.0114802253
 20
261.108301024
 30
0.0
 11
35.4570274972
 21
259.2691330204
 31
0.0
  0
ARC
  5
131
330
1F
100
AcDbEntity
  8
0
  6
Continuous
 62
     7
370
    25
100
AcDbCircle
 10
36.0114802253
 20
261.108301024
 30
0.0
 40
0.5000000000000492
100
AcDbArc
 50
136.1373625449
 51
163.2235523034
  0
LINE
  5
132
330
1F
100
AcDbEntity
  8
0
  6
Continuous
 62
     7
370
    25
100
AcDbLine
 10
35.5327611116
 20
261.2526201499
 30
0.0
 11
36.0114802253
 21
261.108301024
 31
0.0
  0
LINE
  5
133
330
1F
100
AcDbEntity
  8
0
  6
Continuous
 62
     7
370
    25
100
AcDbLine
 10
34.9783083834
 20
259.4134521463
 30
0.0
 11
35.5327611116
 21
261.2526201499
 31
0.0
  0
LINE
  5
134
330
1F
100
AcDbEntity
  8
0
  6
Continuous
 62
     7
370
    25
100
AcDbLine
 10
37.1597772331
 20
262.1875123073
 30
0.0
 11
37.0454017054
 21
262.6742547841
 31
0.0
  0
LINE
  5
135
330
1F
100
AcDbEntity
  8
0
  6
Continuous
 62
     7
370
    25
100
AcDbLine
 10
37.0454017054
 20
262.6742547841
 30
0.0
 11
38.9153942825
 21
263.1136686382
 31
0.0
  0
ARC
  5
136
330
1F
100
AcDbEntity
  8
0
  6
Continuous
 62
     7
370
    25
100
AcDbCircle
 10
37.1597772331
 20
262.1875123073
 30
0.0
 40
0.500000000000015
100
AcDbArc
 50
103.2235523034
 51
130.309742062
  0
ARC
  5
137
330
1F
100
AcDbEntity
  8
0
  6
Continuous
 62
     7
370
    25
100
AcDbCircle
 10
47.1870286687
 20
250.3678579703
 30
0.0
 40
9.575000000000031
100
AcDbArc
 50
325.5951096848
 51
214.4048903152
  0
ARC
  5
138
330
1F
100
AcDbEntity
  8
0
  6
Continuous
 62
     7
370
    25
100
AcDbCircle
 10
47.1870286687
 20
250.3678579703
 30
0.0
 40
8.250000000000012
100
AcDbArc
 50
343.2508741362
 51
196.7491258638
  0
ARC
  5
139
330
1F
100
AcDbEntity
  8
0
  6
Continuous
 62
     7
370
    25
100
AcDbCircle
 10
47.1870286687
 20
250.3678579703
 30
0.0
 40
8.05000000000003
100
AcDbArc
 50
348.9219835539
 51
191.0780164461
  0
ARC
  5
13A
330
1F
100
AcDbEntity
  8
0
  6
Continuous
 62
     7
370
    25
100
AcDbCircle
 10
47.1870286687
 20
-105.2321420297
 30
0.0
 40
7.90000000000002
100
AcDbArc
 50
180.0
 51
0.0
  0
ARC
  5
13B
330
1F
100
AcDbEntity
  8
0
  6
Continuous
 62
     7
370
    25
100
AcDbCircle
 10
47.1870286687
 20
-105.2321420297
 30
0.0
 40
10.82499999999997
100
AcDbArc
 50
136.8689719021
 51
180.0
  0
ARC
  5
13C
330
1F
100
AcDbEntity
  8
0
  6
Continuous
 62
     7
370
    25
100
AcDbCircle
 10
47.1870286687
 20
-105.2321420297
 30
0.0
 40
10.82499999999999
100
AcDbArc
 50
180.0
 51
43.1310280979
  0
ARC
  5
13D
330
1F
100
AcDbEntity
  8
0
  6
Continuous
 62
     7
370
    25
100
AcDbCircle
 10
47.1870286687
 20
250.3678579703
 30
0.0
 40
7.90000000000002
100
AcDbArc
 50
0.0
 51
180.0
  0
LWPOLYLINE
  5
13E
330
1F
100
AcDbEntity
  8
0
  6
Continuous
 62
     7
370
    25
100
AcDbPolyline
 90
       23
 70
   128
 43
0.0
 10
50.6907865653
 20
257.417853889
 10
52.2312690302
 20
256.4477954022
 10
53.9596568265
 20
254.4349832249
 10
54.9241960671
 20
251.9635523801
 10
55.0161594378
 20
249.3120590307
 10
54.2251672255
 20
246.7797378976
 10
52.6403860756
 20
244.6520121893
 10
50.4406192055
 20
243.1689588448
 10
47.8739252434
 20
242.4977770879
 10
45.2297059362
 20
242.7141733857
 10
42.8063033295
 20
243.7937233884
 10
40.87687347
 20
245.6147598894
 10
39.6591629675
 20
247.9717699119
 10
39.2904133157
 20
250.5990850573
 10
39.8122408003
 20
253.2002604656
 10
41.1657761003
 20
255.4820067271
 10
43.1984182325
 20
257.1870211732
 10
45.6808281277
 20
258.1229440389
 10
48.3332065633
 20
258.1842686705
 10
50.8562191606
 20
257.3640741716
 10
52.9654976363
 20
255.7548141045
 10
53.3159973299
 20
255.3524084165
 10
53.3159973299
 20
255.3524084165
  0
CIRCLE
  5
13F
330
1F
100
AcDbEntity
  8
0
  6
Continuous
 62
     7
370
    25
100
AcDbCircle
 10
149.6870286687
 20
250.3678579703
 30
0.0
 40
5.074569253689162
  0
CIRCLE
  5
140
330
1F
100
AcDbEntity
  8
0
  6
Continuous
 62
     7
370
    25
100
AcDbCircle
 10
149.6870286687
 20
250.3678579703
 30
0.0
 40
5.328914336627577
  0
CIRCLE
  5
141
330
1F
100
AcDbEntity
  8
0
  6
Continuous
 62
     7
370
    25
100
AcDbCircle
 10
149.6870286687
 20
250.3678579703
 30
0.0
 40
5.925127771161385
  0
CIRCLE
  5
142
330
1F
100
AcDbEntity
  8
0
  6
Continuous
 62
     7
370
    25
100
AcDbCircle
 10
149.6870286687
 20
250.3678579703
 30
0.0
 40
7.149999999999977
  0
LINE
  5
143
330
1F
100
AcDbEntity
  8
0
  6
Continuous
 62
     7
370
    25
100
AcDbLine
 10
147.6269661983
 20
248.6719385684
 30
0.0
 11
147.0921314293
 21
249.74616004
 31
0.0
  0
LINE
  5
144
330
1F
100
AcDbEntity
  8
0
  6
Continuous
 62
     7
370
    25
100
AcDbLine
 10
148.7459468978
 20
249.2290581195
 30
0.0
 11
147.6269661983
 21
248.6719385684
 31
0.0
  0
SPLINE
  5
145
330
1F
100
AcDbEntity
  8
0
  6
Continuous
 62
     7
370
    25
100
AcDbSpline
210
0.0
220
0.0
230
1.0
 70
     8
 71
     3
 72
    12
 73
     8
 74
     0
 42
0.00000001
 43
0.00000001
 40
0.0
 40
0.0
 40
0.0
 40
0.0
 40
0.2133534395475693
 40
0.426791931363469
 40
0.6383539739091532
 40
0.8490950351927761
 40
1.0
 40
1.0
 40
1.0
 40
1.0
 10
149.7516070480773
 20
248.8919414303836
 30
0.0
 10
149.7071418391356
 20
248.9630729503372
 30
0.0
 10
149.6181936954219
 20
249.1053643464646
 30
0.0
 10
149.4043831065324
 20
249.248957433264
 30
0.0
 10
149.1612701082113
 20
249.3167996638379
 30
0.0
 10
148.9311087628788
 20
249.3057177902922
 30
0.0
 10
148.8004621464579
 20
249.2516282151952
 30
0.0
 10
148.7459468977594
 20
249.2290581194729
 30
0.0
  0
LINE
  5
146
330
1F
100
AcDbEntity
  8
0
  6
Continuous
 62
     7
370
    25
100
AcDbLine
 10
150.3087265991
 20
247.7729607309
 30
0.0
 11
149.7516070481
 21
248.8919414304
 31
0.0
  0
LINE
  5
147
330
1F
100
AcDbEntity
  8
0
  6
Continuous
 62
     7
370
    25
100
AcDbLine
 10
151.3829480706
 20
248.3077954999
 30
0.0
 11
150.3087265991
 21
247.7729607309
 31
0.0
  0
LINE
  5
148
330
1F
100
AcDbEntity
  8
0
  6
Continuous
 62
     7
370
    25
100
AcDbLine
 10
150.8258285196
 20
249.4267761994
 30
0.0
 11
151.3829480706
 21
248.3077954999
 31
0.0
  0
SPLINE
  5
149
330
1F
100
AcDbEntity
  8
0
  6
Continuous
 62
     7
370
    25
100
AcDbSpline
210
0.0
220
0.0
230
1.0
 70
     8
 71
     3
 72
    12
 73
     8
 74
     0
 42
0.00000001
 43
0.00000001
 40
0.0
 40
0.0
 40
0.0
 40
0.0
 40
0.2133534395476346
 40
0.4267919313634416
 40
0.6383539739091509
 40
0.8490950351927764
 40
1.0
 40
1.0
 40
1.0
 40
1.0
 10
151.1629452086924
 20
250.4324363496844
 30
0.0
 10
151.0918136887387
 20
250.3879711407426
 30
0.0
 10
150.9495222926112
 20
250.299022997029
 30
0.0
 10
150.8059292058122
 20
250.0852124081393
 30
0.0
 10
150.738086975238
 20
249.8420994098185
 30
0.0
 10
150.7491688487838
 20
249.6119380644857
 30
0.0
 10
150.8032584238808
 20
249.4812914480649
 30
0.0
 10
150.8258285196031
 20
249.4267761993665
 30
0.0
  0
LINE
  5
14A
330
1F
100
AcDbEntity
  8
0
  6
Continuous
 62
     7
370
    25
100
AcDbLine
 10
152.2819259082
 20
250.9895559007
 30
0.0
 11
151.1629452087
 21
250.4324363497
 31
0.0
  0
LINE
  5
14B
330
1F
100
AcDbEntity
  8
0
  6
Continuous
 62
     7
370
    25
100
AcDbLine
 10
151.7470911392
 20
252.0637773722
 30
0.0
 11
152.2819259082
 21
250.9895559007
 31
0.0
  0
LINE
  5
14C
330
1F
100
AcDbEntity
  8
0
  6
Continuous
 62
     7
370
    25
100
AcDbLine
 10
150.6281104397
 20
251.5066578212
 30
0.0
 11
151.7470911392
 21
252.0637773722
 31
0.0
  0
SPLINE
  5
14D
330
1F
100
AcDbEntity
  8
0
  6
Continuous
 62
     7
370
    25
100
AcDbSpline
210
0.0
220
0.0
230
1.0
 70
     8
 71
     3
 72
    12
 73
     8
 74
     0
 42
0.00000001
 43
0.00000001
 40
0.0
 40
0.0
 40
0.0
 40
0.0
 40
0.2133534395475993
 40
0.4267919313634626
 40
0.6383539739091492
 40
0.8490950351927744
 40
1.0
 40
1.0
 40
1.0
 40
1.0
 10
149.6224502893917
 20
251.8437745102996
 30
0.0
 10
149.6669154983334
 20
251.772642990346
 30
0.0
 10
149.7558636420472
 20
251.6303515942186
 30
0.0
 10
149.9696742309366
 20
251.4867585074192
 30
0.0
 10
150.2127872292575
 20
251.4189162768452
 30
0.0
 10
150.4429485745904
 20
251.4299981503912
 30
0.0
 10
150.573595191011
 20
251.4840877254879
 30
0.0
 10
150.6281104397095
 20
251.5066578212102
 30
0.0
  0
LINE
  5
14E
330
1F
100
AcDbEntity
  8
0
  6
Continuous
 62
     7
370
    25
100
AcDbLine
 10
149.0653307384
 20
252.9627552098
 30
0.0
 11
149.6224502894
 21
251.8437745103
 31
0.0
  0
LINE
  5
14F
330
1F
100
AcDbEntity
  8
0
  6
Continuous
 62
     7
370
    25
100
AcDbLine
 10
147.9911092668
 20
252.4279204408
 30
0.0
 11
149.0653307384
 21
252.9627552098
 31
0.0
  0
LINE
  5
150
330
1F
100
AcDbEntity
  8
0
  6
Continuous
 62
     7
370
    25
100
AcDbLine
 10
148.5482288179
 20
251.3089397413
 30
0.0
 11
147.9911092668
 21
252.4279204408
 31
0.0
  0
SPLINE
  5
151
330
1F
100
AcDbEntity
  8
0
  6
Continuous
 62
     7
370
    25
100
AcDbSpline
210
0.0
220
0.0
230
1.0
 70
     8
 71
     3
 72
    12
 73
     8
 74
     0
 42
0.00000001
 43
0.00000001
 40
0.0
 40
0.0
 40
0.0
 40
0.0
 40
0.2133534395476346
 40
0.4267919313634416
 40
0.6383539739091509
 40
0.8490950351927764
 40
1.0
 40
1.0
 40
1.0
 40
1.0
 10
148.2111121287765
 20
250.3032795909987
 30
0.0
 10
148.2822436487302
 20
250.3477447999405
 30
0.0
 10
148.4245350448576
 20
250.4366929436541
 30
0.0
 10
148.5681281316567
 20
250.6505035325438
 30
0.0
 10
148.6359703622309
 20
250.8936165308646
 30
0.0
 10
148.6248884886849
 20
251.1237778761973
 30
0.0
 10
148.570798913588
 20
251.2544244926181
 30
0.0
 10
148.5482288178658
 20
251.3089397413166
 30
0.0
  0
LINE
  5
152
330
1F
100
AcDbEntity
  8
0
  6
Continuous
 62
     7
370
    25
100
AcDbLine
 10
147.0921314293
 20
249.74616004
 30
0.0
 11
148.2111121288
 21
250.303279591
 31
0.0
  0
CIRCLE
  5
153
330
1F
100
AcDbEntity
  8
0
  6
Continuous
 62
     7
370
    25
100
AcDbCircle
 10
149.6870286687
 20
250.3678579703
 30
0.0
 40
4.197433366238966
  0
CIRCLE
  5
154
330
1F
100
AcDbEntity
  8
0
  6
Continuous
 62
     7
370
    25
100
AcDbCircle
 10
149.6870286687
 20
250.3678579703
 30
0.0
 40
4.4999999999999
  0
LINE
  5
155
330
1F
100
AcDbEntity
  8
0
  6
Continuous
 62
     7
370
    25
100
AcDbLine
 10
-57.3730338017
 20
248.6719385684
 30
0.0
 11
-57.9078685707
 21
249.74616004
 31
0.0
  0
LINE
  5
156
330
1F
100
AcDbEntity
  8
0
  6
Continuous
 62
     7
370
    25
100
AcDbLine
 10
-56.2540531022
 20
249.2290581195
 30
0.0
 11
-57.3730338017
 21
248.6719385684
 31
0.0
  0
LINE
  5
157
330
1F
100
AcDbEntity
  8
0
  6
Continuous
 62
     7
370
    25
100
AcDbLine
 10
-54.6912734009
 20
247.7729607309
 30
0.0
 11
-55.2483929519
 21
248.8919414304
 31
0.0
  0
LINE
  5
158
330
1F
100
AcDbEntity
  8
0
  6
Continuous
 62
     7
370
    25
100
AcDbLine
 10
-53.6170519294
 20
248.3077954999
 30
0.0
 11
-54.6912734009
 21
247.7729607309
 31
0.0
  0
LINE
  5
159
330
1F
100
AcDbEntity
  8
0
  6
Continuous
 62
     7
370
    25
100
AcDbLine
 10
-54.1741714804
 20
249.4267761994
 30
0.0
 11
-53.6170519294
 21
248.3077954999
 31
0.0
  0
LINE
  5
15A
330
1F
100
AcDbEntity
  8
0
  6
Continuous
 62
     7
370
    25
100
AcDbLine
 10
-52.7180740918
 20
250.9895559007
 30
0.0
 11
-53.8370547913
 21
250.4324363497
 31
0.0
  0
LINE
  5
15B
330
1F
100
AcDbEntity
  8
0
  6
Continuous
 62
     7
370
    25
100
AcDbLine
 10
-53.2529088608
 20
252.0637773722
 30
0.0
 11
-52.7180740918
 21
250.9895559007
 31
0.0
  0
LINE
  5
15C
330
1F
100
AcDbEntity
  8
0
  6
Continuous
 62
     7
370
    25
100
AcDbLine
 10
-54.3718895603
 20
251.5066578212
 30
0.0
 11
-53.2529088608
 21
252.0637773722
 31
0.0
  0
LINE
  5
15D
330
1F
100
AcDbEntity
  8
0
  6
Continuous
 62
     7
370
    25
100
AcDbLine
 10
-55.9346692616
 20
252.9627552098
 30
0.0
 11
-55.3775497106
 21
251.8437745103
 31
0.0
  0
LINE
  5
15E
330
1F
100
AcDbEntity
  8
0
  6
Continuous
 62
     7
370
    25
100
AcDbLine
 10
-57.0088907332
 20
252.4279204408
 30
0.0
 11
-55.9346692616
 21
252.9627552098
 31
0.0
  0
LINE
  5
15F
330
1F
100
AcDbEntity
  8
0
  6
Continuous
 62
     7
370
    25
100
AcDbLine
 10
-56.4517711821
 20
251.3089397413
 30
0.0
 11
-57.0088907332
 21
252.4279204408
 31
0.0
  0
SPLINE
  5
160
330
1F
100
AcDbEntity
  8
0
  6
Continuous
 62
     7
370
    25
100
AcDbSpline
210
0.0
220
0.0
230
1.0
 70
     8
 71
     3
 72
    12
 73
     8
 74
     0
 42
0.00000001
 43
0.00000001
 40
0.0
 40
0.0
 40
0.0
 40
0.0
 40
0.2133534395476331
 40
0.4267919313634521
 40
0.6383539739091598
 40
0.8490950351927853
 40
1.0
 40
1.0
 40
1.0
 40
1.0
 10
-56.7888878712236
 20
250.3032795909952
 30
0.0
 10
-56.71775635126994
 20
250.3477447999369
 30
0.0
 10
-56.57546495514246
 20
250.4366929436506
 30
0.0
 10
-56.43187186834339
 20
250.6505035325403
 30
0.0
 10
-56.36402963776915
 20
250.8936165308611
 30
0.0
 10
-56.37511151131522
 20
251.1237778761938
 30
0.0
 10
-56.42920108641206
 20
251.2544244926145
 30
0.0
 10
-56.45177118213427
 20
251.3089397413131
 30
0.0
  0
LINE
  5
161
330
1F
100
AcDbEntity
  8
0
  6
Continuous
 62
     7
370
    25
100
AcDbLine
 10
-57.9078685707
 20
249.74616004
 30
0.0
 11
-56.7888878712
 21
250.303279591
 31
0.0
  0
CIRCLE
  5
162
330
1F
100
AcDbEntity
  8
0
  6
Continuous
 62
     7
370
    25
100
AcDbCircle
 10
-55.3129713313
 20
250.3678579703
 30
0.0
 40
4.197433366238979
  0
SPLINE
  5
163
330
1F
100
AcDbEntity
  8
0
  6
Continuous
 62
     7
370
    25
100
AcDbSpline
210
0.0
220
0.0
230
1.0
 70
     8
 71
     3
 72
    12
 73
     8
 74
     0
 42
0.00000001
 43
0.00000001
 40
0.0
 40
0.0
 40
0.0
 40
0.0
 40
0.21335343954758
 40
0.4267919313634571
 40
0.6383539739091382
 40
0.8490950351927343
 40
1.0
 40
1.0
 40
1.0
 40
1.0
 10
-55.2483929519228
 20
248.8919414303801
 30
0.0
 10
-55.29285816086449
 20
248.9630729503337
 30
0.0
 10
-55.38180630457823
 20
249.1053643464612
 30
0.0
 10
-55.59561689346778
 20
249.2489574332604
 30
0.0
 10
-55.83872989178865
 20
249.3167996638344
 30
0.0
 10
-56.06889123712141
 20
249.3057177902888
 30
0.0
 10
-56.1995378535422
 20
249.2516282151915
 30
0.0
 10
-56.25405310224071
 20
249.2290581194694
 30
0.0
  0
SPLINE
  5
164
330
1F
100
AcDbEntity
  8
0
  6
Continuous
 62
     7
370
    25
100
AcDbSpline
210
0.0
220
0.0
230
1.0
 70
     8
 71
     3
 72
    12
 73
     8
 74
     0
 42
0.00000001
 43
0.00000001
 40
0.0
 40
0.0
 40
0.0
 40
0.0
 40
0.21335343954758
 40
0.4267919313634571
 40
0.6383539739091382
 40
0.8490950351927343
 40
1.0
 40
1.0
 40
1.0
 40
1.0
 10
-55.37754971060848
 20
251.8437745102959
 30
0.0
 10
-55.33308450166682
 20
251.7726429903424
 30
0.0
 10
-55.24413635795305
 20
251.6303515942149
 30
0.0
 10
-55.03032576906347
 20
251.4867585074156
 30
0.0
 10
-54.78721277074258
 20
251.4189162768417
 30
0.0
 10
-54.55705142540979
 20
251.4299981503875
 30
0.0
 10
-54.42640480898903
 20
251.4840877254845
 30
0.0
 10
-54.37188956029054
 20
251.5066578212066
 30
0.0
  0
SPLINE
  5
165
330
1F
100
AcDbEntity
  8
0
  6
Continuous
 62
     7
370
    25
100
AcDbSpline
210
0.0
220
0.0
230
1.0
 70
     8
 71
     3
 72
    12
 73
     8
 74
     0
 42
0.00000001
 43
0.00000001
 40
0.0
 40
0.0
 40
0.0
 40
0.0
 40
0.2133534395476331
 40
0.4267919313634521
 40
0.6383539739091598
 40
0.8490950351927853
 40
1.0
 40
1.0
 40
1.0
 40
1.0
 10
-53.83705479130768
 20
250.4324363496808
 30
0.0
 10
-53.90818631126132
 20
250.3879711407393
 30
0.0
 10
-54.0504777073888
 20
250.2990229970254
 30
0.0
 10
-54.19407079418789
 20
250.0852124081359
 30
0.0
 10
-54.26191302476216
 20
249.8420994098148
 30
0.0
 10
-54.25083115121613
 20
249.6119380644821
 30
0.0
 10
-54.19674157611926
 20
249.4812914480613
 30
0.0
 10
-54.17417148039699
 20
249.4267761993629
 30
0.0
  0
CIRCLE
  5
166
330
1F
100
AcDbEntity
  8
0
  6
Continuous
 62
     7
370
    25
100
AcDbCircle
 10
-55.3129713313
 20
250.3678579703
 30
0.0
 40
4.500000000000008
  0
CIRCLE
  5
167
330
1F
100
AcDbEntity
  8
0
  6
Continuous
 62
     7
370
    25
100
AcDbCircle
 10
-55.3129713313
 20
250.3678579703
 30
0.0
 40
5.328914336627593
  0
CIRCLE
  5
168
330
1F
100
AcDbEntity
  8
0
  6
Continuous
 62
     7
370
    25
100
AcDbCircle
 10
-55.3129713313
 20
250.3678579703
 30
0.0
 40
5.074569253689147
  0
CIRCLE
  5
169
330
1F
100
AcDbEntity
  8
0
  6
Continuous
 62
     7
370
    25
100
AcDbCircle
 10
-55.3129713313
 20
250.3678579703
 30
0.0
 40
5.925127771161407
  0
CIRCLE
  5
16A
330
1F
100
AcDbEntity
  8
0
  6
Continuous
 62
     7
370
    25
100
AcDbCircle
 10
-55.3129713313
 20
250.3678579703
 30
0.0
 40
7.149999999999988
  0
SPLINE
  5
16B
330
1F
100
AcDbEntity
  8
0
  6
Continuous
 62
     7
370
    25
100
AcDbSpline
210
0.0
220
0.0
230
1.0
 70
     8
 71
     3
 72
    11
 73
     7
 74
     0
 42
0.00000001
 43
0.00000001
 40
0.0
 40
0.0
 40
0.0
 40
0.0
 40
0.2200386424382335
 40
0.6637869905998129
 40
0.8890365590789663
 40
1.0
 40
1.0
 40
1.0
 40
1.0
 10
-62.0731320019241
 20
244.6898412905497
 30
0.0
 10
-62.27351109684437
 20
244.9577768958413
 30
0.0
 10
-62.87799145048773
 20
245.7660538745585
 30
0.0
 10
-63.38327352308754
 20
247.0366405721378
 30
0.0
 10
-63.61805651834121
 20
248.2067172058123
 30
0.0
 10
-63.58997964939658
 20
248.7176452925926
 30
0.0
 10
-63.58071318468142
 20
248.8862715413908
 30
0.0
  0
SPLINE
  5
16C
330
1F
100
AcDbEntity
  8
0
  6
Continuous
 62
     7
370
    25
100
AcDbSpline
210
0.0
220
0.0
230
1.0
 70
     8
 71
     3
 72
     9
 73
     5
 74
     0
 42
0.00000001
 43
0.00000001
 40
0.0
 40
0.0
 40
0.0
 40
0.0
 40
0.9209630919903208
 40
1.0
 40
1.0
 40
1.0
 40
1.0
 10
-63.70838533944376
 20
245.0337780235244
 30
0.0
 10
-63.19483662998488
 20
244.9695397462604
 30
0.0
 10
-62.6372152508815
 20
244.8997885501238
 30
0.0
 10
-62.11444976920963
 20
244.7052194320375
 30
0.0
 10
-62.0731320019241
 20
244.6898412905497
 30
0.0
  0
SPLINE
  5
16D
330
1F
100
AcDbEntity
  8
0
  6
Continuous
 62
     7
370
    25
100
AcDbSpline
210
0.0
220
0.0
230
1.0
 70
     8
 71
     3
 72
    10
 73
     6
 74
     0
 42
0.00000001
 43
0.00000001
 40
0.0
 40
0.0
 40
0.0
 40
0.0
 40
0.2596150688488835
 40
0.629760644481066
 40
1.0
 40
1.0
 40
1.0
 40
1.0
 10
-110.8412763600509
 20
248.3052556258999
 30
0.0
 10
-106.7682020010111
 20
247.9467370843058
 30
0.0
 10
-96.88795142564388
 20
247.0770615727342
 30
0.0
 10
-81.17192121052963
 20
246.0245055839036
 30
0.0
 10
-69.5300554970256
 20
245.3640484289641
 30
0.0
 10
-63.70838533944376
 20
245.0337780235244
 30
0.0
  0
SPLINE
  5
16E
330
1F
100
AcDbEntity
  8
0
  6
Continuous
 62
     7
370
    25
100
AcDbSpline
210
0.0
220
0.0
230
1.0
 70
     8
 71
     3
 72
    11
 73
     7
 74
     0
 42
0.00000001
 43
0.00000001
 40
0.0
 40
0.0
 40
0.0
 40
0.0
 40
0.0614641195413945
 40
0.4999988937835282
 40
0.9375097801832789
 40
0.9999999999999999
 40
0.9999999999999999
 40
0.9999999999999999
 40
0.9999999999999999
 10
-110.7587162462283
 20
254.0306927503926
 30
0.0
 10
-110.7720633503695
 20
253.9144161345845
 30
0.0
 10
-110.8806394978128
 20
252.9685280341659
 30
0.0
 10
-110.9902469750695
 20
251.1726775189295
 30
0.0
 10
-110.9326272605883
 20
249.3724615788118
 30
0.0
 10
-110.8514250282896
 20
248.4238173378779
 30
0.0
 10
-110.8412763600509
 20
248.3052556258999
 30
0.0
  0
SPLINE
  5
16F
330
1F
100
AcDbEntity
  8
0
  6
Continuous
 62
     7
370
    25
100
AcDbSpline
210
0.0
220
0.0
230
1.0
 70
     8
 71
     3
 72
    10
 73
     6
 74
     0
 42
0.00000001
 43
0.00000001
 40
0.0
 40
0.0
 40
0.0
 40
0.0
 40
0.2594618540778876
 40
0.6296073956705975
 40
1.0
 40
1.0
 40
1.0
 40
1.0
 10
-63.55109309876403
 20
255.9417914998648
 30
0.0
 10
-67.63595033235912
 20
255.8332929382593
 30
0.0
 10
-77.5482217669029
 20
255.5700114742102
 30
0.0
 10
-93.28922719803693
 20
255.0101297242805
 30
0.0
 10
-104.9342582020175
 20
254.3572443481882
 30
0.0
 10
-110.7587162462283
 20
254.0306927503925
 30
0.0
  0
SPLINE
  5
170
330
1F
100
AcDbEntity
  8
0
  6
Continuous
 62
     7
370
    25
100
AcDbSpline
210
0.0
220
0.0
230
1.0
 70
     8
 71
     3
 72
     9
 73
     5
 74
     0
 42
0.00000001
 43
0.00000001
 40
0.0
 40
0.0
 40
0.0
 40
0.0
 40
0.0790369080192106
 40
1.0
 40
1.0
 40
1.0
 40
1.0
 10
-61.90660267542597
 20
256.2384347227863
 30
0.0
 10
-61.9483466733371
 20
256.2242543219479
 30
0.0
 10
-62.47650495985562
 20
256.0448393980361
 30
0.0
 10
-63.03590568098058
 20
255.9911955260629
 30
0.0
 10
-63.55109309876403
 20
255.9417914998648
 30
0.0
  0
SPLINE
  5
171
330
1F
100
AcDbEntity
  8
0
  6
Continuous
 62
     7
370
    25
100
AcDbSpline
210
0.0
220
0.0
230
1.0
 70
     8
 71
     3
 72
    11
 73
     7
 74
     0
 42
0.00000001
 43
0.00000001
 40
0.0
 40
0.0
 40
0.0
 40
0.0
 40
0.0728838064943306
 40
0.4140719411596084
 40
0.9209668754550524
 40
1.0
 40
1.0
 40
1.0
 40
1.0
 10
-63.5345559150138
 20
252.0872185006894
 30
0.0
 10
-63.5406778034327
 20
252.1977646939505
 30
0.0
 10
-63.57545785051172
 20
252.8258064913422
 30
0.0
 10
-63.21106144358457
 20
254.2036877468193
 30
0.0
 10
-62.5531282339826
 20
255.4642639703754
 30
0.0
 10
-61.98344465698457
 20
256.1464216323638
 30
0.0
 10
-61.90660267542594
 20
256.2384347227864
 30
0.0
  0
SPLINE
  5
172
330
1F
100
AcDbEntity
  8
0
  6
Continuous
 62
     7
370
    25
100
AcDbSpline
210
0.0
220
0.0
230
1.0
 70
     8
 71
     3
 72
    10
 73
     6
 74
     0
 42
0.00000001
 43
0.00000001
 40
0.0
 40
0.0
 40
0.0
 40
0.0
 40
0.388020737781157
 40
0.9790637766506906
 40
1.0
 40
1.0
 40
1.0
 40
1.0
 10
-63.58071318468145
 20
248.8862715413906
 30
0.0
 10
-63.50148262948399
 20
249.2960116195295
 30
0.0
 10
-63.30156608110229
 20
250.3298781871818
 30
0.0
 10
-63.38149267578391
 20
251.4249137500411
 30
0.0
 10
-63.52949273322081
 20
252.0653101092831
 30
0.0
 10
-63.5345559150138
 20
252.0872185006894
 30
0.0
  0
ARC
  5
173
330
1F
100
AcDbEntity
  8
0
  6
Continuous
 62
     7
370
    25
100
AcDbCircle
 10
-55.3129713313
 20
250.3678579703
 30
0.0
 40
8.399443654264545
100
AcDbArc
 50
190.15961701
 51
168.1881010241
  0
SPLINE
  5
174
330
1F
100
AcDbEntity
  8
0
  6
Continuous
 62
     7
370
    25
100
AcDbSpline
210
0.0
220
0.0
230
1.0
 70
     8
 71
     3
 72
     9
 73
     5
 74
     0
 42
0.00000001
 43
0.00000001
 40
0.0
 40
0.0
 40
0.0
 40
0.0
 40
0.6817923421274731
 40
0.9999999999999999
 40
0.9999999999999999
 40
0.9999999999999999
 40
0.9999999999999999
 10
-61.90660267542597
 20
256.2384347227863
 30
0.0
 10
-61.76161570333247
 20
256.4262741264963
 30
0.0
 10
-61.54896008499392
 20
256.7017823598741
 30
0.0
 10
-61.31619999608973
 20
256.9313545733517
 30
0.0
 10
-61.24213395335332
 20
257.004406209715
 30
0.0
  0
ARC
  5
175
330
1F
100
AcDbEntity
  8
0
  6
Continuous
 62
     7
370
    25
100
AcDbCircle
 10
-55.3129713313
 20
250.3678579703
 30
0.0
 40
8.899367501836318
100
AcDbArc
 50
226.5697782131
 51
131.7779398209
  0
LINE
  5
176
330
1F
100
AcDbEntity
  8
0
  6
Continuous
 62
     7
370
    25
100
AcDbLine
 10
-61.4310253931
 20
243.9050291447
 30
0.0
 11
-62.0731320019
 21
244.6898412905
 31
0.0
  0
SPLINE
  5
177
330
1F
100
AcDbEntity
  8
0
  6
Continuous
 62
     7
370
    25
100
AcDbSpline
210
0.0
220
0.0
230
1.0
 70
     8
 71
     3
 72
    10
 73
     6
 74
     0
 42
0.00000001
 43
0.00000001
 40
0.0
 40
0.0
 40
0.0
 40
0.0
 40
0.3702896688583039
 40
0.7405318123903298
 40
0.9999999999999999
 40
0.9999999999999999
 40
0.9999999999999999
 40
0.9999999999999999
 10
-110.7638491939579
 20
254.473672387865
 30
0.0
 10
-104.9397737089283
 20
254.7099142226862
 30
0.0
 10
-93.2923702376817
 20
255.1823675715517
 30
0.0
 10
-77.56260285980457
 20
255.8248709186798
 30
0.0
 10
-67.65854590089081
 20
256.2308536593799
 30
0.0
 10
-63.57764142461653
 20
256.3981362982711
 30
0.0
  0
ARC
  5
178
330
1F
100
AcDbEntity
  8
0
  6
Continuous
 62
     7
370
    25
100
AcDbCircle
 10
-70.8028432331
 20
255.7488581487
 30
0.0
 40
7.254316183362557
100
AcDbArc
 50
1.5239989618
 51
5.1349767483
  0
ARC
  5
179
330
1F
100
AcDbEntity
  8
0
  6
Continuous
 62
     7
370
    25
100
AcDbCircle
 10
-106.5053664692
 20
254.3014972414
 30
0.0
 40
4.261961918876712
100
AcDbArc
 50
177.6847295556
 51
183.6430203235
  0
SPLINE
  5
17A
330
1F
100
AcDbEntity
  8
0
  6
Continuous
 62
     7
370
    25
100
AcDbSpline
210
0.0
220
0.0
230
1.0
 70
     8
 71
     3
 72
    10
 73
     6
 74
     0
 42
0.00000001
 43
0.00000001
 40
0.0
 40
0.0
 40
0.0
 40
0.0
 40
0.3702717503651156
 40
0.7405122151371757
 40
1.0
 40
1.0
 40
1.0
 40
1.0
 10
-63.74808076511021
 20
244.5783884520373
 30
0.0
 10
-69.56249753193089
 20
244.9847936576572
 30
0.0
 10
-81.19083978456948
 20
245.7975697302582
 30
0.0
 10
-96.89581846202358
 20
246.8929384417946
 30
0.0
 10
-106.7844426475825
 20
247.5796426829577
 30
0.0
 10
-110.8591799437724
 20
247.8626081724346
 30
0.0
  0
ARC
  5
17B
330
1F
100
AcDbEntity
  8
0
  6
Continuous
 62
     7
370
    25
100
AcDbCircle
 10
-106.597503348
 20
247.9119236475
 30
0.0
 40
4.261961921814669
100
AcDbArc
 50
174.704697713
 51
180.6629884768
  0
ARC
  5
17C
330
1F
100
AcDbEntity
  8
0
  6
Continuous
 62
     7
370
    25
100
AcDbCircle
 10
-70.9515573509
 20
245.4357264064
 30
0.0
 40
7.254316183488856
100
AcDbArc
 50
353.2127412857
 51
356.8237190721
  0
SPLINE
  5
17D
330
1F
100
AcDbEntity
  8
0
  6
Continuous
 62
     7
370
    25
100
AcDbSpline
210
0.0
220
0.0
230
1.0
 70
     8
 71
     3
 72
    12
 73
     8
 74
     0
 42
0.00000001
 43
0.00000001
 40
0.0
 40
0.0
 40
0.0
 40
0.0
 40
0.1224290494151393
 40
0.3423522449770478
 40
0.5614228816909417
 40
0.7807229538533513
 40
1.0
 40
1.0
 40
1.0
 40
1.0
 10
-112.775206828356
 20
248.4438285458311
 30
0.0
 10
-112.7662376968779
 20
248.4413402823832
 30
0.0
 10
-112.741157029245
 20
248.4343822721591
 30
0.0
 10
-112.5254370249269
 20
248.4142618797707
 30
0.0
 10
-112.0899520338539
 20
248.3824686123424
 30
0.0
 10
-111.5065132142551
 20
248.3445002399914
 30
0.0
 10
-111.0630142166448
 20
248.3183367060543
 30
0.0
 10
-110.8412763600509
 20
248.3052556258999
 30
0.0
  0
SPLINE
  5
17E
330
1F
100
AcDbEntity
  8
0
  6
Continuous
 62
     7
370
    25
100
AcDbSpline
210
0.0
220
0.0
230
1.0
 70
     8
 71
     3
 72
    11
 73
     7
 74
     0
 42
0.00000001
 43
0.00000001
 40
0.0
 40
0.0
 40
0.0
 40
0.0
 40
0.0800485240044458
 40
0.5000005853538747
 40
0.920924832227965
 40
1.0
 40
1.0
 40
1.0
 40
1.0
 10
-112.775206828356
 20
248.4438285458311
 30
0.0
 10
-112.7728120059124
 20
248.5900536416059
 30
0.0
 10
-112.7578534212472
 20
249.5034075652427
 30
0.0
 10
-112.7321872105055
 20
251.1976232019495
 30
0.0
 10
-112.7090198417433
 20
252.8900919504178
 30
0.0
 10
-112.6976382150887
 20
253.8034861689958
 30
0.0
 10
-112.695838204907
 20
253.9479399402612
 30
0.0
  0
SPLINE
  5
17F
330
1F
100
AcDbEntity
  8
0
  6
Continuous
 62
     7
370
    25
100
AcDbSpline
210
0.0
220
0.0
230
1.0
 70
     8
 71
     3
 72
    12
 73
     8
 74
     0
 42
0.00000001
 43
0.00000001
 40
0.0
 40
0.0
 40
0.0
 40
0.0
 40
0.1130367476169285
 40
0.3328594693547987
 40
0.5544127937945039
 40
0.7774207483513282
 40
0.9999999999999999
 40
0.9999999999999999
 40
0.9999999999999999
 40
0.9999999999999999
 10
-110.7587162462283
 20
254.0306927503926
 30
0.0
 10
-110.8728475402439
 20
254.0273227428158
 30
0.0
 10
-111.2089301219153
 20
254.0173990767748
 30
0.0
 10
-111.7433114599611
 20
253.999509926612
 30
0.0
 10
-112.2601853210278
 20
253.9790850246286
 30
0.0
 10
-112.617380932742
 20
253.9607914317002
 30
0.0
 10
-112.6697025605334
 20
253.9522210221884
 30
0.0
 10
-112.695838204907
 20
253.9479399402612
 30
0.0
  0
SPLINE
  5
180
330
1F
100
AcDbEntity
  8
0
  6
Continuous
 62
     7
370
    25
100
AcDbSpline
210
0.0
220
0.0
230
1.0
 70
     8
 71
     3
 72
     9
 73
     5
 74
     0
 42
0.00000001
 43
0.00000001
 40
0.0
 40
0.0
 40
0.0
 40
0.0
 40
0.5000106123815461
 40
1.0
 40
1.0
 40
1.0
 40
1.0
 10
-60.93769579225503
 20
243.4660388083413
 30
0.0
 10
-61.36322229499516
 20
243.7600453115654
 30
0.0
 10
-62.21425723746027
 20
244.3480458378417
 30
0.0
 10
-63.2368134903983
 20
244.5016086670836
 30
0.0
 10
-63.74808076511021
 20
244.5783884520373
 30
0.0
  0
SPLINE
  5
181
330
1F
100
AcDbEntity
  8
0
  6
Continuous
 62
     7
370
    25
100
AcDbSpline
210
0.0
220
0.0
230
1.0
 70
     8
 71
     3
 72
     9
 73
     5
 74
     0
 42
0.00000001
 43
0.00000001
 40
0.0
 40
0.0
 40
0.0
 40
0.0
 40
0.9838702326459399
 40
1.0
 40
1.0
 40
1.0
 40
1.0
 10
-61.43102539307646
 20
243.9050291446998
 30
0.0
 10
-61.27178959841784
 20
243.7578855137672
 30
0.0
 10
-61.10994325997296
 20
243.6083295804233
 30
0.0
 10
-60.94043000167479
 20
243.4682974933282
 30
0.0
 10
-60.93769579225503
 20
243.4660388083413
 30
0.0
  0
SPLINE
  5
182
330
1F
100
AcDbEntity
  8
0
  6
Continuous
 62
     7
370
    25
100
AcDbSpline
210
0.0
220
0.0
230
1.0
 70
     8
 71
     3
 72
     9
 73
     5
 74
     0
 42
0.00000001
 43
0.00000001
 40
0.0
 40
0.0
 40
0.0
 40
0.0
 40
0.5055561057107382
 40
1.0
 40
1.0
 40
1.0
 40
1.0
 10
-63.57764142461653
 20
256.3981362982711
 30
0.0
 10
-63.05861701410598
 20
256.4613154085238
 30
0.0
 10
-62.03197644019615
 20
256.5862849411609
 30
0.0
 10
-61.16501534521354
 20
257.1501766575927
 30
0.0
 10
-60.73635172521308
 20
257.4289894738228
 30
0.0
  0
SPLINE
  5
183
330
1F
100
AcDbEntity
  8
0
  6
Continuous
 62
     7
370
    25
100
AcDbSpline
210
0.0
220
0.0
230
1.0
 70
     8
 71
     3
 72
     9
 73
     5
 74
     0
 42
0.00000001
 43
0.00000001
 40
0.0
 40
0.0
 40
0.0
 40
0.0
 40
0.0161297673532551
 40
1.0
 40
1.0
 40
1.0
 40
1.0
 10
-60.7363517252131
 20
257.4289894738226
 30
0.0
 10
-60.73914992419394
 20
257.4268105654987
 30
0.0
 10
-60.91263035447919
 20
257.2917244060825
 30
0.0
 10
-61.07872166098294
 20
257.1468972940874
 30
0.0
 10
-61.24213395335332
 20
257.004406209715
 30
0.0
  0
SPLINE
  5
184
330
1F
100
AcDbEntity
  8
0
  6
Continuous
 62
     7
370
    25
100
AcDbSpline
210
0.0
220
0.0
230
1.0
 70
     8
 71
     3
 72
    12
 73
     8
 74
     0
 42
0.00000001
 43
0.00000001
 40
0.0
 40
0.0
 40
0.0
 40
0.0
 40
0.2230315344150385
 40
0.4461337558340378
 40
0.6675099896776946
 40
0.8870667292264961
 40
1.0
 40
1.0
 40
1.0
 40
1.0
 10
-112.2163359180178
 20
254.4402405396008
 30
0.0
 10
-112.1968314167388
 20
254.4380688432344
 30
0.0
 10
-112.1578162324776
 20
254.43372476221
 30
0.0
 10
-111.8901547619286
 20
254.4368086740946
 30
0.0
 10
-111.5024411962738
 20
254.4468083342901
 30
0.0
 10
-111.1014819267113
 20
254.4603658402989
 30
0.0
 10
-110.8494530913029
 20
254.4702986263148
 30
0.0
 10
-110.7638491939579
 20
254.473672387865
 30
0.0
  0
ARC
  5
185
330
1F
100
AcDbEntity
  8
0
  6
Continuous
 62
     7
370
    25
100
AcDbCircle
 10
-112.1957927047
 20
253.9405627417
 30
0.0
 40
0.5000999153469268
100
AcDbArc
 50
92.3542709417
 51
179.1547735553
  0
SPLINE
  5
186
330
1F
100
AcDbEntity
  8
0
  6
Continuous
 62
     7
370
    25
100
AcDbSpline
210
0.0
220
0.0
230
1.0
 70
     8
 71
     3
 72
    12
 73
     8
 74
     0
 42
0.00000001
 43
0.00000001
 40
0.0
 40
0.0
 40
0.0
 40
0.0
 40
0.2190444340109369
 40
0.4380981679380286
 40
0.6571027493691893
 40
0.8772791087290092
 40
1.0
 40
1.0
 40
1.0
 40
1.0
 10
-110.8591799437724
 20
247.8626081724346
 30
0.0
 10
-111.0254530881915
 20
247.8738355419553
 30
0.0
 10
-111.3580064364481
 20
247.8962907576746
 30
0.0
 10
-111.7958379074009
 20
247.9221247533297
 30
0.0
 10
-112.1226067348885
 20
247.938143679463
 30
0.0
 10
-112.2844074909667
 20
247.9423008845679
 30
0.0
 10
-112.3033274475685
 20
247.9390649139986
 30
0.0
 10
-112.3100987877665
 20
247.9379067793341
 30
0.0
  0
ARC
  5
187
330
1F
100
AcDbEntity
  8
0
  6
Continuous
 62
     7
370
    25
100
AcDbCircle
 10
-112.2751565244
 20
248.4367844833
 30
0.0
 40
0.5000999153470692
100
AcDbArc
 50
179.1929444793
 51
265.9934470923
  0
LINE
  5
188
330
1F
100
AcDbEntity
  8
0
  6
Continuous
 62
     7
370
    25
100
AcDbLine
 10
-63.5776414246
 20
256.3981362983
 30
0.0
 11
-63.6035969108
 21
256.46980826
 31
0.0
  0
LINE
  5
189
330
1F
100
AcDbEntity
  8
0
  6
Continuous
 62
     7
370
    25
100
AcDbLine
 10
-112.2209617958
 20
254.4447461587
 30
0.0
 11
-112.216335918
 21
254.4402405396
 31
0.0
  0
ELLIPSE
  5
18A
330
1F
100
AcDbEntity
  8
0
  6
Continuous
 62
     7
370
    25
100
AcDbEllipse
 10
-110.7201452125
 20
254.5064056735
 30
0.0
 11
1.501038268488003
 21
0.06123645790344767
 31
0.0
210
0.0
220
0.0
230
1.0
 40
0.0174284859
 41
2.25512531669865
 42
3.158083049613502
  0
LINE
  5
18B
330
1F
100
AcDbEntity
  8
0
  6
Continuous
 62
     7
370
    25
100
AcDbLine
 10
-108.201782067
 20
254.6788724711
 30
0.0
 11
-111.6698583548
 21
254.4879653912
 31
0.0
  0
LINE
  5
18C
330
1F
100
AcDbEntity
  8
0
  6
Continuous
 62
     7
370
    25
100
AcDbLine
 10
-108.2017834857
 20
254.6787740901
 30
0.0
 11
-108.201782067
 21
254.6788724711
 31
0.0
  0
ELLIPSE
  5
18D
330
1F
100
AcDbEntity
  8
0
  6
Continuous
 62
     7
370
    25
100
AcDbEllipse
 10
-98.748526379
 20
254.8721395829
 30
0.0
 11
14.51003659538381
 21
0.5919524264004394
 31
0.0
210
0.0
220
0.0
230
1.0
 40
0.0174284859
 41
1.543516838852416
 42
2.279642175407886
  0
ELLIPSE
  5
18E
330
1F
100
AcDbEntity
  8
0
  6
Continuous
 62
     7
370
    25
100
AcDbEllipse
 10
-97.4139522328
 20
255.8032775262
 30
0.0
 11
35.727354215734
 21
1.457535539476197
 31
0.0
210
0.0
220
0.0
230
1.0
 40
0.0174284859
 41
4.685109492442213
 42
5.167309992308051
  0
ELLIPSE
  5
18F
330
1F
100
AcDbEntity
  8
0
  6
Continuous
 62
     7
370
    25
100
AcDbEllipse
 10
-78.3903325701
 20
255.9013939961
 30
0.0
 11
7.505191342439901
 21
0.3061822895175226
 31
0.0
210
0.0
220
0.0
230
1.0
 40
0.0174284859
 41
1.834826681007883
 42
2.025717338717609
  0
LINE
  5
190
330
1F
100
AcDbEntity
  8
0
  6
Continuous
 62
     7
370
    25
100
AcDbLine
 10
-80.3366910167
 20
255.7971020406
 30
0.0
 11
-80.3541388467
 21
255.9477598155
 31
0.0
  0
SPLINE
  5
191
330
1F
100
AcDbEntity
  8
0
  6
Continuous
 62
     7
370
    25
100
AcDbSpline
210
0.0
220
0.0
230
1.0
 70
     8
 71
     3
 72
    10
 73
     6
 74
     0
 42
0.00000001
 43
0.00000001
 40
0.0
 40
0.0
 40
0.0
 40
0.0
 40
0.0186368637457265
 40
0.3939469944632983
 40
1.0
 40
1.0
 40
1.0
 40
1.0
 10
-80.15293182146222
 20
255.7949386729607
 30
0.0
 10
-80.15538903860728
 20
255.794886346134
 30
0.0
 10
-80.20732982232798
 20
255.7937802589526
 30
0.0
 10
-80.31135650109091
 20
255.7926000511399
 30
0.0
 10
-80.32701865737992
 20
255.7953832447822
 30
0.0
 10
-80.33669101671515
 20
255.7971020406179
 30
0.0
  0
LINE
  5
192
330
1F
100
AcDbEntity
  8
0
  6
Continuous
 62
     7
370
    25
100
AcDbLine
 10
-63.6035969108
 20
256.46980826
 30
0.0
 11
-80.1529318215
 21
255.794938673
 31
0.0
  0
LINE
  5
193
330
1F
100
AcDbEntity
  8
0
  6
Continuous
 62
     7
370
    25
100
AcDbLine
 10
-80.3013861875
 20
245.643091106
 30
0.0
 11
-63.7823632533
 21
244.4915993858
 31
0.0
  0
SPLINE
  5
194
330
1F
100
AcDbEntity
  8
0
  6
Continuous
 62
     7
370
    25
100
AcDbSpline
210
0.0
220
0.0
230
1.0
 70
     8
 71
     3
 72
    11
 73
     7
 74
     0
 42
0.00000001
 43
0.00000001
 40
0.0
 40
0.0
 40
0.0
 40
0.0
 40
0.4177469294495242
 40
0.8392770662410461
 40
0.9817832068819345
 40
1.0
 40
1.0
 40
1.0
 40
1.0
 10
-80.48505307507456
 20
245.647089145993
 30
0.0
 10
-80.48040091120015
 20
245.6481053661435
 30
0.0
 10
-80.4710544524403
 20
245.6501470095559
 30
0.0
 10
-80.39558316801069
 20
245.6478564208532
 30
0.0
 10
-80.32536589200798
 20
245.6443731120098
 30
0.0
 10
-80.30382741907854
 20
245.6432216194546
 30
0.0
 10
-80.30138618747421
 20
245.6430911060229
 30
0.0
  0
LINE
  5
195
330
1F
100
AcDbEntity
  8
0
  6
Continuous
 62
     7
370
    25
100
AcDbLine
 10
-80.5046168161
 20
245.5123072391
 30
0.0
 11
-80.4850530751
 21
245.647089146
 31
0.0
  0
ELLIPSE
  5
196
330
1F
100
AcDbEntity
  8
0
  6
Continuous
 62
     7
370
    25
100
AcDbEllipse
 10
-78.5402901486
 20
245.5020298545
 30
0.0
 11
7.493242450720743
 21
-0.5224578985576045
 31
0.0
210
0.0
220
0.0
230
1.0
 40
0.0174284859
 41
4.257467968461579
 42
4.448358626171657
  0
ELLIPSE
  5
197
330
1F
100
AcDbEntity
  8
0
  6
Continuous
 62
     7
370
    25
100
AcDbEllipse
 10
-97.5531711151
 20
246.1486280828
 30
0.0
 11
35.67047328259631
 21
-2.487083613581405
 31
0.0
210
0.0
220
0.0
230
1.0
 40
0.0174284859
 41
1.115875314871843
 42
1.598075814737374
  0
ELLIPSE
  5
198
330
1F
100
AcDbEntity
  8
0
  6
Continuous
 62
     7
370
    25
100
AcDbEllipse
 10
-98.8603421614
 20
247.1178596736
 30
0.0
 11
14.48693540472678
 21
-1.010085270544693
 31
0.0
210
0.0
220
0.0
230
1.0
 40
0.0174284859
 41
4.003543131771858
 42
4.739668468327167
  0
LINE
  5
199
330
1F
100
AcDbEntity
  8
0
  6
Continuous
 62
     7
370
    25
100
AcDbLine
 10
-108.3040947623
 20
247.5836193692
 30
0.0
 11
-108.3040933436
 21
247.5837177502
 31
0.0
  0
LINE
  5
19A
330
1F
100
AcDbEntity
  8
0
  6
Continuous
 62
     7
370
    25
100
AcDbLine
 10
-111.7652245258
 20
247.8744447658
 30
0.0
 11
-108.3040947623
 21
247.5836193692
 31
0.0
  0
ELLIPSE
  5
19B
330
1F
100
AcDbEntity
  8
0
  6
Continuous
 62
     7
370
    25
100
AcDbEllipse
 10
-110.8164379573
 20
247.8286283464
 30
0.0
 11
1.498648490144135
 21
-0.1044915797115209
 31
0.0
210
0.0
220
0.0
230
1.0
 40
0.0174284859
 41
3.125102257564913
 42
4.028059990482467
  0
LINE
  5
19C
330
1F
100
AcDbEntity
  8
0
  6
Continuous
 62
     7
370
    25
100
AcDbLine
 10
-112.3100987878
 20
247.9379067793
 30
0.0
 11
-112.3148526562
 21
247.933536415
 31
0.0
  0
LINE
  5
19D
330
1F
100
AcDbEntity
  8
0
  6
Continuous
 62
     7
370
    25
100
AcDbLine
 10
-63.7823632533
 20
244.4915993858
 30
0.0
 11
-63.7480807651
 21
244.578388452
 31
0.0
  0
SPLINE
  5
19E
330
1F
100
AcDbEntity
  8
0
  6
Continuous
 62
     7
370
    25
100
AcDbSpline
210
0.0
220
0.0
230
1.0
 70
     8
 71
     3
 72
     9
 73
     5
 74
     0
 42
0.00000001
 43
0.00000001
 40
0.0
 40
0.0
 40
0.0
 40
0.0
 40
0.5001021276704701
 40
1.0
 40
1.0
 40
1.0
 40
1.0
 10
-60.76861997387331
 20
257.4951530543948
 30
0.0
 10
-61.20165439600064
 20
257.2148419370149
 30
0.0
 10
-62.06754637719347
 20
256.6543341889557
 30
0.0
 10
-63.09164979244058
 20
256.5313085267884
 30
0.0
 10
-63.603596910768
 20
256.4698082600291
 30
0.0
  0
LINE
  5
19F
330
1F
100
AcDbEntity
  8
0
  6
Continuous
 62
     7
370
    25
100
AcDbLine
 10
-60.7686199739
 20
257.4951530544
 30
0.0
 11
-60.7363517252
 21
257.4289894738
 31
0.0
  0
SPLINE
  5
1A0
330
1F
100
AcDbEntity
  8
0
  6
Continuous
 62
     7
370
    25
100
AcDbSpline
210
0.0
220
0.0
230
1.0
 70
     8
 71
     3
 72
     9
 73
     5
 74
     0
 42
0.00000001
 43
0.00000001
 40
0.0
 40
0.0
 40
0.0
 40
0.0
 40
0.4007227371565279
 40
1.0
 40
1.0
 40
1.0
 40
1.0
 10
-63.78236325332223
 20
244.4915993858154
 30
0.0
 10
-63.374417567268
 20
244.4373045636154
 30
0.0
 10
-62.35639276301322
 20
244.3018123213101
 30
0.0
 10
-61.49548289971696
 20
243.7292326020615
 30
0.0
 10
-60.97955919328582
 20
243.3860985951504
 30
0.0
  0
LINE
  5
1A1
330
1F
100
AcDbEntity
  8
0
  6
Continuous
 62
     7
370
    25
100
AcDbLine
 10
-60.9376957923
 20
243.4660388083
 30
0.0
 11
-60.9795591933
 21
243.3860985952
 31
0.0
  0
ARC
  5
1A2
330
1F
100
AcDbEntity
  8
0
  6
Continuous
 62
     7
370
    25
100
AcDbCircle
 10
-55.3129713313
 20
250.3678579703
 30
0.0
 40
8.97565804422218
100
AcDbArc
 50
64.3387444117
 51
127.4325569999
  0
LWPOLYLINE
  5
1A3
330
1F
100
AcDbEntity
  8
0
  6
Continuous
 62
     7
370
    25
100
AcDbPolyline
 90
        3
 70
   128
 43
0.0
 10
-51.2591058316
 20
258.5609191887
 10
-51.3646317769
 20
258.4961815612
 10
-51.4260656545
 20
258.4582474286
  0
ARC
  5
1A4
330
1F
100
AcDbEntity
  8
0
  6
Continuous
 62
     7
370
    25
100
AcDbCircle
 10
-55.3129713313
 20
250.3678579703
 30
0.0
 40
9.14112015109215
100
AcDbArc
 50
294.6735754346
 51
63.6741384459
  0
LWPOLYLINE
  5
1A5
330
1F
100
AcDbEntity
  8
0
  6
Continuous
 62
     7
370
    25
100
AcDbPolyline
 90
        3
 70
   128
 43
0.0
 10
-51.6448169492
 20
242.1581183033
 10
-51.6006435765
 20
242.1290684795
 10
-51.4970281358
 20
242.0613150582
  0
ARC
  5
1A6
330
1F
100
AcDbEntity
  8
0
  6
Continuous
 62
     7
370
    25
100
AcDbCircle
 10
-55.3129713313
 20
250.3678579703
 30
0.0
 40
8.991950954660679
100
AcDbArc
 50
230.936266164
 51
294.0753401836
  0
LINE
  5
1A7
330
1F
100
AcDbEntity
  8
0
  6
Continuous
 62
     7
370
    25
100
AcDbLine
 10
-112.7799606968
 20
248.4394581815
 30
0.0
 11
-112.7752068284
 21
248.4438285458
 31
0.0
  0
LINE
  5
1A8
330
1F
100
AcDbEntity
  8
0
  6
Continuous
 62
     7
370
    25
100
AcDbLine
 10
-112.7004640827
 20
253.9524455594
 30
0.0
 11
-112.7799606968
 21
248.4394581815
 31
0.0
  0
LINE
  5
1A9
330
1F
100
AcDbEntity
  8
0
  6
Continuous
 62
     7
370
    25
100
AcDbLine
 10
-112.6958382049
 20
253.9479399403
 30
0.0
 11
-112.7004640827
 21
253.9524455594
 31
0.0
  0
ARC
  5
1AA
330
1F
100
AcDbEntity
  8
0
  6
Continuous
 62
     7
370
    25
100
AcDbCircle
 10
-112.2799103928
 20
248.4324141191
 30
0.0
 40
0.5000999153470745
100
AcDbArc
 50
179.1929444787
 51
265.9934470923
  0
ARC
  5
1AB
330
1F
100
AcDbEntity
  8
0
  6
Continuous
 62
     7
370
    25
100
AcDbCircle
 10
-112.2004185825
 20
253.9450683608
 30
0.0
 40
0.5000999153470888
100
AcDbArc
 50
92.3542709417
 51
179.1547735553
  0
LINE
  5
1AC
330
1F
100
AcDbEntity
  8
0
  6
Continuous
 62
     7
370
    25
100
AcDbLine
 10
-111.6698583548
 20
254.4879653912
 30
0.0
 11
-111.6769706388
 21
254.4877008747
 31
0.0
  0
LINE
  5
1AD
330
1F
100
AcDbEntity
  8
0
  6
Continuous
 62
     7
370
    25
100
AcDbLine
 10
-111.7652245258
 20
247.8744447658
 30
0.0
 11
-111.7723262256
 21
247.8749142463
 31
0.0
  0
SPLINE
  5
1AE
330
1F
100
AcDbEntity
  8
0
  6
Continuous
 62
     7
370
    25
100
AcDbSpline
210
0.0
220
0.0
230
1.0
 70
     8
 71
     3
 72
    11
 73
     7
 74
     0
 42
0.00000001
 43
0.00000001
 40
0.0
 40
0.0
 40
0.0
 40
0.0
 40
0.134599067676596
 40
0.4126978815969504
 40
0.6969472592954593
 40
1.0
 40
1.0
 40
1.0
 40
1.0
 10
-51.42527549886383
 20
258.4590427356123
 30
0.0
 10
-51.85178465613241
 20
258.6560966759477
 30
0.0
 10
-53.15951604480262
 20
259.2602891502387
 30
0.0
 10
-55.52610415075526
 20
259.9169476621632
 30
0.0
 10
-58.57404754487236
 20
260.3374404629615
 30
0.0
 10
-60.76445836111793
 20
260.3961700731155
 30
0.0
 10
-61.89472842201457
 20
260.4264750367105
 30
0.0
  0
ARC
  5
1AF
330
1F
100
AcDbEntity
  8
0
  6
Continuous
 62
     7
370
    25
100
AcDbCircle
 10
-57.4116012877
 20
259.7419404012
 30
0.0
 40
4.53508727252085
100
AcDbArc
 50
148.2023216577
 51
171.3184857153
  0
SPLINE
  5
1B0
330
1F
100
AcDbEntity
  8
0
  6
Continuous
 62
     7
370
    25
100
AcDbSpline
210
0.0
220
0.0
230
1.0
 70
     8
 71
     3
 72
    12
 73
     8
 74
     0
 42
0.00000001
 43
0.00000001
 40
0.0
 40
0.0
 40
0.0
 40
0.0
 40
0.1662426524176553
 40
0.3368059756191315
 40
0.6054181071254588
 40
0.8801435087136193
 40
1.0
 40
1.0
 40
1.0
 40
1.0
 10
-61.26603565521533
 20
262.1315747406186
 30
0.0
 10
-60.63066226627531
 20
261.9669113929813
 30
0.0
 10
-59.34340204134372
 20
261.6333050732848
 30
0.0
 10
-57.16900158894236
 20
260.9389164530703
 30
0.0
 10
-54.81956004388555
 20
260.0527542770415
 30
0.0
 10
-52.86637614112882
 20
259.1818733212028
 30
0.0
 10
-51.76047197622444
 20
258.6280123073363
 30
0.0
 10
-51.42454730431719
 20
258.4597738783025
 30
0.0
  0
LINE
  5
1B1
330
1F
100
AcDbEntity
  8
0
  6
Continuous
 62
     7
370
    25
100
AcDbLine
 10
-51.4245473043
 20
258.4597738783
 30
0.0
 11
-51.4252754989
 21
258.4590427356
 31
0.0
  0
LINE
  5
1B2
330
1F
100
AcDbEntity
  8
0
  6
Continuous
 62
     7
370
    25
100
AcDbLine
 10
-61.2660356552
 20
262.1315747406
 30
0.0
 11
-61.2491775309
 21
262.2008124026
 31
0.0
  0
ARC
  5
1B3
330
1F
100
AcDbEntity
  8
0
  6
Continuous
 62
     7
370
    25
100
AcDbCircle
 10
-72.6470961449
 20
215.3886509832
 30
0.0
 40
48.17977797259058
100
AcDbArc
 50
63.6457069293
 51
76.3157780851
  0
LWPOLYLINE
  5
1B4
330
1F
100
AcDbEntity
  8
0
  6
Continuous
 62
     7
370
    25
100
AcDbPolyline
 90
        3
 70
   128
 43
0.0
 10
-51.4245473043
 20
258.4597738783
 10
-51.3646245963
 20
258.4964374046
 10
-51.2591058097
 20
258.5609207276
  0
LINE
  5
1B5
330
1F
100
AcDbEntity
  8
0
  6
Continuous
 62
     7
370
    25
100
AcDbLine
 10
-60.7686199739
 20
257.4951530544
 30
0.0
 11
-62.9260777128
 21
260.3136699611
 31
0.0
  0
ARC
  5
1B6
330
1F
100
AcDbEntity
  8
0
  6
Continuous
 62
     7
370
    25
100
AcDbCircle
 10
-55.3129713313
 20
250.3678579703
 30
0.0
 40
12.52511736202728
100
AcDbArc
 50
127.0321658872
 51
127.4325569999
  0
LINE
  5
1B7
330
1F
100
AcDbEntity
  8
0
  6
Continuous
 62
     7
370
    25
100
AcDbLine
 10
-61.894728422
 20
260.4264750367
 30
0.0
 11
-62.8563896309
 21
260.3666281592
 31
0.0
  0
LINE
  5
1B8
330
1F
100
AcDbEntity
  8
0
  6
Continuous
 62
     7
370
    25
100
AcDbLine
 10
-51.4260656545
 20
258.4582474286
 30
0.0
 11
-51.4252754989
 21
258.4590427356
 31
0.0
  0
LINE
  5
1B9
330
1F
100
AcDbEntity
  8
0
  6
Continuous
 62
     7
370
    25
100
AcDbLine
 10
-65.8497576381
 20
259.9306208684
 30
0.0
 11
-63.7482210245
 21
260.0163199708
 31
0.0
  0
LINE
  5
1BA
330
1F
100
AcDbEntity
  8
0
  6
Continuous
 62
     7
370
    25
100
AcDbLine
 10
-63.6035969108
 20
256.46980826
 30
0.0
 11
-63.7482210245
 21
260.0163199708
 31
0.0
  0
SPLINE
  5
1BB
330
1F
100
AcDbEntity
  8
0
  6
Continuous
 62
     7
370
    25
100
AcDbSpline
210
0.0
220
0.0
230
1.0
 70
     8
 71
     3
 72
    16
 73
    12
 74
     0
 42
0.00000001
 43
0.00000001
 40
0.0
 40
0.0
 40
0.0
 40
0.0
 40
0.2861254310575664
 40
0.7591203623085437
 40
0.8520758313858456
 40
0.9266344548631272
 40
0.9604862301433729
 40
0.9835335436569244
 40
0.9930756629548354
 40
0.9972242292023619
 40
1.0
 40
1.0
 40
1.0
 40
1.0
 10
-67.29783354544571
 20
259.4273037760879
 30
0.0
 10
-68.53349542861595
 20
258.9149994559216
 30
0.0
 10
-71.81183420813639
 20
257.5558031073154
 30
0.0
 10
-75.62369610404929
 20
256.5928518810946
 30
0.0
 10
-78.42916891589635
 20
256.0713278255864
 30
0.0
 10
-79.29643960008396
 20
255.9293151862693
 30
0.0
 10
-79.82324745865587
 20
255.8483818236136
 30
0.0
 10
-80.05744932209832
 20
255.8126455367782
 30
0.0
 10
-80.13529786826979
 20
255.7994466457497
 30
0.0
 10
-80.15143168607744
 20
255.7959451666732
 30
0.0
 10
-80.15250254458597
 20
255.7952266899498
 30
0.0
 10
-80.15293182146222
 20
255.7949386729607
 30
0.0
  0
LINE
  5
1BC
330
1F
100
AcDbEntity
  8
0
  6
Continuous
 62
     7
370
    25
100
AcDbLine
 10
-65.8497576381
 20
259.9306208684
 30
0.0
 11
-67.2978335454
 21
259.4273037761
 31
0.0
  0
ARC
  5
1BD
330
1F
100
AcDbEntity
  8
0
  6
Continuous
 62
     7
370
    25
100
AcDbCircle
 10
-73.1527004801
 20
255.9022526652
 30
0.0
 40
6.834138728215264
100
AcDbArc
 50
31.0509661473
 51
46.1226597598
  0
SPLINE
  5
1BE
330
1F
100
AcDbEntity
  8
0
  6
Continuous
 62
     7
370
    25
100
AcDbSpline
210
0.0
220
0.0
230
1.0
 70
     8
 71
     3
 72
    10
 73
     6
 74
     0
 42
0.00000001
 43
0.00000001
 40
0.0
 40
0.0
 40
0.0
 40
0.0
 40
0.5975855365574619
 40
0.9790563563181734
 40
1.0
 40
1.0
 40
1.0
 40
1.0
 10
-80.26281410891039
 20
255.8056510084938
 30
0.0
 10
-80.26538690101661
 20
255.8019484213781
 30
0.0
 10
-80.26960204397263
 20
255.7958822748121
 30
0.0
 10
-80.1952440776828
 20
255.7944334438914
 30
0.0
 10
-80.15502502058314
 20
255.7949136791376
 30
0.0
 10
-80.15293182146222
 20
255.7949386729607
 30
0.0
  0
SPLINE
  5
1BF
330
1F
100
AcDbEntity
  8
0
  6
Continuous
 62
     7
370
    25
100
AcDbSpline
210
0.0
220
0.0
230
1.0
 70
     8
 71
     3
 72
    14
 73
    10
 74
     0
 42
0.00000001
 43
0.00000001
 40
0.0
 40
0.0
 40
0.0
 40
0.0
 40
0.0129036569231479
 40
0.0519665716781168
 40
0.1318891824261215
 40
0.2280032005552161
 40
0.4679440229400844
 40
0.7079115564493639
 40
0.9999999999999999
 40
0.9999999999999999
 40
0.9999999999999999
 40
0.9999999999999999
 10
-80.26281410891039
 20
255.8056510084938
 30
0.0
 10
-80.22923589969108
 20
255.8130126043938
 30
0.0
 10
-80.09400722563278
 20
255.8426597736637
 30
0.0
 10
-79.65330325989903
 20
255.9386975665921
 30
0.0
 10
-78.83904188776636
 20
256.1293785663589
 30
0.0
 10
-77.17900247083237
 20
256.5725402337347
 30
0.0
 10
-74.82288131349868
 20
257.3761093727066
 30
0.0
 10
-71.65728037197714
 20
258.7755522462309
 30
0.0
 10
-69.56465496443612
 20
260.1008886284559
 30
0.0
 10
-68.41584407878307
 20
260.8284726755413
 30
0.0
  0
LWPOLYLINE
  5
1C0
330
1F
100
AcDbEntity
  8
0
  6
Continuous
 62
     7
370
    25
100
AcDbPolyline
 90
        4
 70
   128
 43
0.0
 10
-80.2801603396
 20
255.9570124234
 10
-80.2781662137
 20
255.9396237169
 10
-80.2701932204
 20
255.8700687828
 10
-80.2628141089
 20
255.8056510085
  0
LINE
  5
1C1
330
1F
100
AcDbEntity
  8
0
  6
Continuous
 62
     7
370
    25
100
AcDbLine
 10
-78.4860288408
 20
256.3607134207
 30
0.0
 11
-80.2801603396
 21
255.9570124234
 31
0.0
  0
ARC
  5
1C2
330
1F
100
AcDbEntity
  8
0
  6
Continuous
 62
     7
370
    25
100
AcDbCircle
 10
-86.2320471176
 20
286.9012667525
 30
0.0
 40
31.5075577752833
100
AcDbArc
 50
284.2318562649
 51
304.3457884339
  0
LINE
  5
1C3
330
1F
100
AcDbEntity
  8
0
  6
Continuous
 62
     7
370
    25
100
AcDbLine
 10
-68.4158440788
 20
260.8284726755
 30
0.0
 11
-68.4559224646
 21
260.8871246509
 31
0.0
  0
SPLINE
  5
1C4
330
1F
100
AcDbEntity
  8
0
  6
Continuous
 62
     7
370
    25
100
AcDbSpline
210
0.0
220
0.0
230
1.0
 70
     8
 71
     3
 72
     9
 73
     5
 74
     0
 42
0.00000001
 43
0.00000001
 40
0.0
 40
0.0
 40
0.0
 40
0.0
 40
0.4998978730609647
 40
1.0
 40
1.0
 40
1.0
 40
1.0
 10
-63.74822102446701
 20
260.0163199707795
 30
0.0
 10
-63.59975363120926
 20
260.0341475025724
 30
0.0
 10
-63.3027581822215
 20
260.0698098503312
 30
0.0
 10
-63.05165496552082
 20
260.2323721895448
 30
0.0
 10
-62.92607771276754
 20
260.3136699611456
 30
0.0
  0
ARC
  5
1C5
330
1F
100
AcDbEntity
  8
0
  6
Continuous
 62
     7
370
    25
100
AcDbCircle
 10
-80.3570781882
 20
256.2967626349
 30
0.0
 40
0.500076340371811
100
AcDbArc
 50
272.3364886569
 51
280.8652225788
  0
ARC
  5
1C6
330
1F
100
AcDbEntity
  8
0
  6
Continuous
 62
     7
370
    25
100
AcDbCircle
 10
-71.6313067859
 20
285.8323293818
 30
0.0
 40
48.10950076354639
100
AcDbArc
 50
282.0319399489
 51
282.2805223384
  0
SPLINE
  5
1C7
330
1F
100
AcDbEntity
  8
0
  6
Continuous
 62
     7
370
    25
100
AcDbSpline
210
0.0
220
0.0
230
1.0
 70
     8
 71
     3
 72
    12
 73
     8
 74
     0
 42
0.00000001
 43
0.00000001
 40
0.0
 40
0.0
 40
0.0
 40
0.0
 40
0.0460732444350203
 40
0.2494607408078324
 40
0.4779405209378921
 40
0.7057893369168746
 40
1.0
 40
1.0
 40
1.0
 40
1.0
 10
-51.64360120480302
 20
242.1568262962988
 30
0.0
 10
-51.7728263184482
 20
242.0961778113319
 30
0.0
 10
-52.47250772739184
 20
241.7678003294713
 30
0.0
 10
-53.84054075872882
 20
241.1689207999146
 30
0.0
 10
-55.86193241816004
 20
240.3902605007392
 30
0.0
 10
-58.36944940164088
 20
239.5542500179778
 30
0.0
 10
-60.30673111128712
 20
239.086997178011
 30
0.0
 10
-61.39850122414433
 20
238.8236732208996
 30
0.0
  0
LWPOLYLINE
  5
1C8
330
1F
100
AcDbEntity
  8
0
  6
Continuous
 62
     7
370
    25
100
AcDbPolyline
 90
        3
 70
   128
 43
0.0
 10
-51.6436012048
 20
242.1568262963
 10
-51.6006437758
 20
242.1288125353
 10
-51.4970281583
 20
242.0613135193
  0
ARC
  5
1C9
330
1F
100
AcDbEntity
  8
0
  6
Continuous
 62
     7
370
    25
100
AcDbCircle
 10
-71.6313067859
 20
285.8323293818
 30
0.0
 40
48.17977797259049
100
AcDbArc
 50
282.0319399489
 51
294.7020103158
  0
LINE
  5
1CA
330
1F
100
AcDbEntity
  8
0
  6
Continuous
 62
     7
370
    25
100
AcDbLine
 10
-61.6025477616
 20
238.7797199308
 30
0.0
 11
-61.5878979901
 21
238.7109866033
 31
0.0
  0
LINE
  5
1CB
330
1F
100
AcDbEntity
  8
0
  6
Continuous
 62
     7
370
    25
100
AcDbLine
 10
-61.8238328902
 20
240.7776114563
 30
0.0
 11
-61.3985012241
 21
238.8236732209
 31
0.0
  0
SPLINE
  5
1CC
330
1F
100
AcDbEntity
  8
0
  6
Continuous
 62
     7
370
    25
100
AcDbSpline
210
0.0
220
0.0
230
1.0
 70
     8
 71
     3
 72
    13
 73
     9
 74
     0
 42
0.00000001
 43
0.00000001
 40
0.0
 40
0.0
 40
0.0
 40
0.0
 40
0.2574896950994375
 40
0.4890886589321048
 40
0.7206004760683489
 40
0.9447506334961295
 40
0.9460032291293321
 40
1.0
 40
1.0
 40
1.0
 40
1.0
 10
-61.82383289017868
 20
240.7776114563376
 30
0.0
 10
-60.90560743844453
 20
240.736304874335
 30
0.0
 10
-59.16148461204349
 20
240.6578451099978
 30
0.0
 10
-56.66480592871604
 20
240.7864245311563
 30
0.0
 10
-54.34343665149749
 20
241.1663676355533
 30
0.0
 10
-52.85927879005267
 20
241.6445753789753
 30
0.0
 10
-51.98271193742901
 20
242.0062171521474
 30
0.0
 10
-51.81154443523839
 20
242.0827375667519
 30
0.0
 10
-51.64425758687888
 20
242.157523135452
 30
0.0
  0
LINE
  5
1CD
330
1F
100
AcDbEntity
  8
0
  6
Continuous
 62
     7
370
    25
100
AcDbLine
 10
-51.6442575869
 20
242.1575231355
 30
0.0
 11
-51.6436012048
 21
242.1568262963
 31
0.0
  0
LINE
  5
1CE
330
1F
100
AcDbEntity
  8
0
  6
Continuous
 62
     7
370
    25
100
AcDbLine
 10
-63.7823632533
 20
244.4915993858
 30
0.0
 11
-63.9631352202
 21
241.89828828
 31
0.0
  0
LINE
  5
1CF
330
1F
100
AcDbEntity
  8
0
  6
Continuous
 62
     7
370
    25
100
AcDbLine
 10
-63.9631352202
 20
241.89828828
 30
0.0
 11
-67.9096599813
 21
242.1733887266
 31
0.0
  0
SPLINE
  5
1D0
330
1F
100
AcDbEntity
  8
0
  6
Continuous
 62
     7
370
    25
100
AcDbSpline
210
0.0
220
0.0
230
1.0
 70
     8
 71
     3
 72
    17
 73
    13
 74
     0
 42
0.00000001
 43
0.00000001
 40
0.0
 40
0.0
 40
0.0
 40
0.0
 40
0.0068264277560532
 40
0.0088450004853847
 40
0.0223994102884425
 40
0.030959827023922
 40
0.0563228448230685
 40
0.1198844474831659
 40
0.19574936988938
 40
0.5558716060100624
 40
0.7769840750939119
 40
1.0
 40
1.0
 40
1.0
 40
1.0
 10
-80.30138618747421
 20
245.6430911060229
 30
0.0
 10
-80.29778138753827
 20
245.6420008342667
 30
0.0
 10
-80.29311064929537
 20
245.6405881694648
 30
0.0
 10
-80.24969189723724
 20
245.6323712991474
 30
0.0
 10
-80.17533715858713
 20
245.6195463843404
 30
0.0
 10
-80.00889308738235
 20
245.5914247115339
 30
0.0
 10
-79.6282001914577
 20
245.5274145099636
 30
0.0
 10
-78.9469460974459
 20
245.4083824997689
 30
0.0
 10
-76.84744313056144
 20
245.0108983326631
 30
0.0
 10
-74.04873800898842
 20
244.3373086147991
 30
0.0
 10
-70.66412353944709
 20
243.2759517503355
 30
0.0
 10
-68.83043412361154
 20
242.5419583232291
 30
0.0
 10
-67.90965998127568
 20
242.1733887266074
 30
0.0
  0
LINE
  5
1D1
330
1F
100
AcDbEntity
  8
0
  6
Continuous
 62
     7
370
    25
100
AcDbLine
 10
-67.9096599813
 20
242.1733887266
 30
0.0
 11
-69.0628107945
 21
240.5396736792
 31
0.0
  0
SPLINE
  5
1D2
330
1F
100
AcDbEntity
  8
0
  6
Continuous
 62
     7
370
    25
100
AcDbSpline
210
0.0
220
0.0
230
1.0
 70
     8
 71
     3
 72
    14
 73
    10
 74
     0
 42
0.00000001
 43
0.00000001
 40
0.0
 40
0.0
 40
0.0
 40
0.0
 40
0.2256458607195967
 40
0.4518169308148953
 40
0.8157761447763433
 40
0.894614057330537
 40
0.9637846180221645
 40
0.9940799143125658
 40
1.0
 40
1.0
 40
1.0
 40
1.0
 10
-69.06281079446418
 20
240.5396736792138
 30
0.0
 10
-69.90061206638606
 20
241.0968350564037
 30
0.0
 10
-71.57816466187977
 20
242.2124546499014
 30
0.0
 10
-74.73548505164216
 20
243.8235866594023
 30
0.0
 10
-77.39273925587185
 20
244.8153818935246
 30
0.0
 10
-79.33554654734908
 20
245.3648992971267
 30
0.0
 10
-79.97731576816702
 20
245.5295503601847
 30
0.0
 10
-80.304143264282
 20
245.6098210884273
 30
0.0
 10
-80.39636068288888
 20
245.6326738639657
 30
0.0
 10
-80.41143535531286
 20
245.6364095801723
 30
0.0
  0
SPLINE
  5
1D3
330
1F
100
AcDbEntity
  8
0
  6
Continuous
 62
     7
370
    25
100
AcDbSpline
210
0.0
220
0.0
230
1.0
 70
     8
 71
     3
 72
    11
 73
     7
 74
     0
 42
0.00000001
 43
0.00000001
 40
0.0
 40
0.0
 40
0.0
 40
0.0
 40
0.0195561212295961
 40
0.1681891996744876
 40
0.5898876540792876
 40
1.0
 40
1.0
 40
1.0
 40
1.0
 10
-80.30138618747424
 20
245.6430911060228
 30
0.0
 10
-80.30334385910781
 20
245.6431774551693
 30
0.0
 10
-80.32018049155745
 20
245.6439200867816
 30
0.0
 10
-80.37206345627162
 20
245.6455147382925
 30
0.0
 10
-80.42137308948847
 20
245.6441362615377
 30
0.0
 10
-80.41471702977735
 20
245.6389611127936
 30
0.0
 10
-80.41143535531286
 20
245.6364095801723
 30
0.0
  0
LINE
  5
1D4
330
1F
100
AcDbEntity
  8
0
  6
Continuous
 62
     7
370
    25
100
AcDbLine
 10
-60.9795591933
 20
243.3860985952
 30
0.0
 11
-62.6177892714
 21
241.3676479005
 31
0.0
  0
LINE
  5
1D5
330
1F
100
AcDbEntity
  8
0
  6
Continuous
 62
     7
370
    25
100
AcDbLine
 10
-51.6442575869
 20
242.1575231355
 30
0.0
 11
-51.6448169492
 21
242.1581183033
 31
0.0
  0
ARC
  5
1D6
330
1F
100
AcDbEntity
  8
0
  6
Continuous
 62
     7
370
    25
100
AcDbCircle
 10
-55.3129713313
 20
250.3678579703
 30
0.0
 40
11.59155496206739
100
AcDbArc
 50
230.936266164
 51
235.8272404542
  0
LWPOLYLINE
  5
1D7
330
1F
100
AcDbEntity
  8
0
  6
Continuous
 62
     7
370
    25
100
AcDbPolyline
 90
        4
 70
   128
 43
0.0
 10
-80.4114353553
 20
245.6364095802
 10
-80.4139276465
 20
245.6190854591
 10
-80.4239003061
 20
245.5497891837
 10
-80.4309358553
 20
245.5009253995
  0
ARC
  5
1D8
330
1F
100
AcDbEntity
  8
0
  6
Continuous
 62
     7
370
    25
100
AcDbCircle
 10
-87.2725872771
 20
214.7411523505
 30
0.0
 40
31.57783498432753
100
AcDbArc
 50
54.0019296001
 51
54.7838070274
  0
LINE
  5
1D9
330
1F
100
AcDbEntity
  8
0
  6
Continuous
 62
     7
370
    25
100
AcDbLine
 10
-68.7124619533
 20
240.2887825784
 30
0.0
 11
-68.7537679456
 21
240.2319257308
 31
0.0
  0
ARC
  5
1DA
330
1F
100
AcDbEntity
  8
0
  6
Continuous
 62
     7
370
    25
100
AcDbCircle
 10
-87.2725872771
 20
214.7411523505
 30
0.0
 40
31.5075577752834
100
AcDbArc
 50
54.0019296001
 51
74.1158617691
  0
LINE
  5
1DB
330
1F
100
AcDbEntity
  8
0
  6
Continuous
 62
     7
370
    25
100
AcDbLine
 10
-80.4309358553
 20
245.5009253995
 30
0.0
 11
-78.6491905385
 21
245.0456606892
 31
0.0
  0
LINE
  5
1DC
330
1F
100
AcDbEntity
  8
0
  6
Continuous
 62
     7
370
    25
100
AcDbLine
 10
-80.3541388467
 20
255.9477598155
 30
0.0
 11
-80.2801603396
 21
255.9570124234
 31
0.0
  0
SPLINE
  5
1DD
330
1F
100
AcDbEntity
  8
0
  6
Continuous
 62
     7
370
    25
100
AcDbSpline
210
0.0
220
0.0
230
1.0
 70
     8
 71
     3
 72
    10
 73
     6
 74
     0
 42
0.00000001
 43
0.00000001
 40
0.0
 40
0.0
 40
0.0
 40
0.0
 40
0.0490769085761821
 40
0.5995805843665509
 40
1.0
 40
1.0
 40
1.0
 40
1.0
 10
-62.61778927135298
 20
241.3676479005233
 30
0.0
 10
-62.63652400395303
 20
241.3825423089075
 30
0.0
 10
-62.86540928312368
 20
241.5645097217289
 30
0.0
 10
-63.30786205852345
 20
241.8049661631798
 30
0.0
 10
-63.76896971801524
 20
241.8706357883131
 30
0.0
 10
-63.963135220171
 20
241.8982882800424
 30
0.0
  0
ARC
  5
1DE
330
1F
100
AcDbEntity
  8
0
  6
Continuous
 62
     7
370
    25
100
AcDbCircle
 10
-80.5198388683
 20
245.1482241393
 30
0.0
 40
0.5000763405334673
100
AcDbArc
 50
77.4803793551
 51
86.0112290514
  0
SPLINE
  5
1DF
330
1F
100
AcDbEntity
  8
0
  6
Continuous
 62
     7
370
    25
100
AcDbSpline
210
0.0
220
0.0
230
1.0
 70
     8
 71
     3
 72
     9
 73
     5
 74
     0
 42
0.00000001
 43
0.00000001
 40
0.0
 40
0.0
 40
0.0
 40
0.0
 40
0.8458911907783627
 40
1.0
 40
1.0
 40
1.0
 40
1.0
 10
-80.43093585529022
 20
245.5009253995022
 30
0.0
 10
-80.45171928167686
 20
245.5050402975914
 30
0.0
 10
-80.47628913961275
 20
245.5099048689858
 30
0.0
 10
-80.50083420523873
 20
245.511986449216
 30
0.0
 10
-80.5046168160746
 20
245.5123072390667
 30
0.0
  0
LINE
  5
1E0
330
1F
100
AcDbEntity
  8
0
  6
Continuous
 62
     7
370
    25
100
AcDbLine
 10
-68.4158440788
 20
260.8284726755
 30
0.0
 11
-66.5629197284
 21
261.7988236109
 31
0.0
  0
LINE
  5
1E1
330
1F
100
AcDbEntity
  8
0
  6
Continuous
 62
     7
370
    25
100
AcDbLine
 10
-65.8497576381
 20
259.9306208684
 30
0.0
 11
-66.5629197284
 21
261.7988236109
 31
0.0
  0
LINE
  5
1E2
330
1F
100
AcDbEntity
  8
0
  6
Continuous
 62
     7
370
    25
100
AcDbLine
 10
-62.8563896309
 20
260.3666281592
 30
0.0
 11
-62.7057897422
 21
262.3606445402
 31
0.0
  0
LINE
  5
1E3
330
1F
100
AcDbEntity
  8
0
  6
Continuous
 62
     7
370
    25
100
AcDbLine
 10
-62.7057897422
 20
262.3606445402
 30
0.0
 11
-61.2660356552
 21
262.1315747406
 31
0.0
  0
ARC
  5
1E4
330
1F
100
AcDbEntity
  8
0
  6
Continuous
 62
     7
370
    25
100
AcDbCircle
 10
-71.6313067859
 20
285.8323293818
 30
0.0
 40
46.10980537323356
100
AcDbArc
 50
282.0319399489
 51
282.2805223384
  0
LINE
  5
1E5
330
1F
100
AcDbEntity
  8
0
  6
Continuous
 62
     7
370
    25
100
AcDbLine
 10
-62.0193981315
 20
240.7354851066
 30
0.0
 11
-61.6025477616
 21
238.7797199308
 31
0.0
  0
ARC
  5
1E6
330
1F
100
AcDbEntity
  8
0
  6
Continuous
 62
     7
370
    25
100
AcDbCircle
 10
-63.3782936966
 20
253.4563623846
 30
0.0
 40
6.929946387144247
100
AcDbArc
 50
85.6808843456
 51
110.8937053005
  0
ARC
  5
1E7
330
1F
100
AcDbEntity
  8
0
  6
Continuous
 62
     7
370
    25
100
AcDbCircle
 10
-63.3782936966
 20
253.4563623846
 30
0.0
 40
8.929641777457114
100
AcDbArc
 50
85.6808843456
 51
110.8937053005
  0
ARC
  5
1E8
330
1F
100
AcDbEntity
  8
0
  6
Continuous
 62
     7
370
    25
100
AcDbCircle
 10
-87.2725872771
 20
214.7411523505
 30
0.0
 40
33.57753037464025
100
AcDbArc
 50
54.0019296001
 51
54.7838070274
  0
ARC
  5
1E9
330
1F
100
AcDbEntity
  8
0
  6
Continuous
 62
     7
370
    25
100
AcDbCircle
 10
-63.463993508
 20
247.5131912914
 30
0.0
 40
6.929946387144405
100
AcDbArc
 50
234.0019296001
 51
282.0319399489
  0
ARC
  5
1EA
330
1F
100
AcDbEntity
  8
0
  6
Continuous
 62
     7
370
    25
100
AcDbCircle
 10
-63.463993508
 20
247.5131912914
 30
0.0
 40
8.92964177745721
100
AcDbArc
 50
234.0019296001
 51
282.0319399489
  0
LINE
  5
1EB
330
1F
100
AcDbEntity
  8
0
  6
Continuous
 62
     7
370
    25
100
AcDbLine
 10
-67.5371249781
 20
241.9066097165
 30
0.0
 11
-68.7124619533
 21
240.2887825784
 31
0.0
  0
ARC
  5
1EC
330
1F
100
AcDbEntity
  8
0
  6
Continuous
 62
     7
370
    25
100
AcDbCircle
 10
-63.3782936966
 20
253.4563623846
 30
0.0
 40
8.999918986501271
100
AcDbArc
 50
76.3157780851
 51
124.3457884339
  0
ARC
  5
1ED
330
1F
100
AcDbEntity
  8
0
  6
Continuous
 62
     7
370
    25
100
AcDbCircle
 10
-63.463993508
 20
247.5131912914
 30
0.0
 40
8.999918986501314
100
AcDbArc
 50
234.0019296001
 51
282.0319399489
  0
SPLINE
  5
1EE
330
1F
100
AcDbEntity
  8
0
  6
Continuous
 62
     7
370
    25
100
AcDbSpline
210
0.0
220
0.0
230
1.0
 70
     8
 71
     3
 72
    11
 73
     7
 74
     0
 42
0.00000001
 43
0.00000001
 40
0.0
 40
0.0
 40
0.0
 40
0.0
 40
0.2200386424382388
 40
0.6637869905998197
 40
0.8890365590789775
 40
1.0
 40
1.0
 40
1.0
 40
1.0
 10
156.5548146246003
 20
255.9152142572122
 30
0.0
 10
156.7500195942539
 20
255.6434859184498
 30
0.0
 10
157.3388912484355
 20
254.8237674624135
 30
0.0
 10
157.8197187166501
 20
253.5437262619959
 30
0.0
 10
158.0320239729834
 20
252.3693630891807
 30
0.0
 10
157.9941559358142
 20
251.8590672610658
 30
0.0
 10
157.9816580026952
 20
251.690649682352
 30
0.0
  0
SPLINE
  5
1EF
330
1F
100
AcDbEntity
  8
0
  6
Continuous
 62
     7
370
    25
100
AcDbSpline
210
0.0
220
0.0
230
1.0
 70
     8
 71
     3
 72
     9
 73
     5
 74
     0
 42
0.00000001
 43
0.00000001
 40
0.0
 40
0.0
 40
0.0
 40
0.0
 40
0.9209630919902975
 40
1.0
 40
1.0
 40
1.0
 40
1.0
 10
158.1831728484105
 20
255.5399870605589
 30
0.0
 10
157.6709502236631
 20
255.6140601052486
 30
0.0
 10
157.1147687336531
 20
255.6944900870079
 30
0.0
 10
156.5958299421287
 20
255.8990467324442
 30
0.0
 10
156.5548146246004
 20
255.9152142572123
 30
0.0
  0
SPLINE
  5
1F0
330
1F
100
AcDbEntity
  8
0
  6
Continuous
 62
     7
370
    25
100
AcDbSpline
210
0.0
220
0.0
230
1.0
 70
     8
 71
     3
 72
    10
 73
     6
 74
     0
 42
0.00000001
 43
0.00000001
 40
0.0
 40
0.0
 40
0.0
 40
0.0
 40
0.2596150688488837
 40
0.6297606444810656
 40
1.0
 40
1.0
 40
1.0
 40
1.0
 10
205.2446734189686
 20
251.3654037627158
 30
0.0
 10
201.1792219047938
 20
251.8019518870129
 30
0.0
 10
191.3174624274824
 20
252.8609074758518
 30
0.0
 10
175.6245025803765
 20
254.2146028142222
 30
0.0
 10
163.9974403345985
 20
255.0981550071199
 30
0.0
 10
158.1831728484105
 20
255.5399870605589
 30
0.0
  0
SPLINE
  5
1F1
330
1F
100
AcDbEntity
  8
0
  6
Continuous
 62
     7
370
    25
100
AcDbSpline
210
0.0
220
0.0
230
1.0
 70
     8
 71
     3
 72
    11
 73
     7
 74
     0
 42
0.00000001
 43
0.00000001
 40
0.0
 40
0.0
 40
0.0
 40
0.0
 40
0.0614641195414043
 40
0.4999988937835358
 40
0.9375097801832714
 40
0.9999999999999999
 40
0.9999999999999999
 40
0.9999999999999999
 40
0.9999999999999999
 10
205.0523512539489
 20
245.6426021215827
 30
0.0
 10
205.0679253455445
 20
245.7586014502174
 30
0.0
 10
205.1946176113339
 20
246.7022338723478
 30
0.0
 10
205.3386378547742
 20
248.4956526861297
 30
0.0
 10
205.3155453488049
 20
250.2966424691985
 30
0.0
 10
205.2525469670028
 20
251.2466692594932
 30
0.0
 10
205.2446734189686
 20
251.3654037627158
 30
0.0
  0
SPLINE
  5
1F2
330
1F
100
AcDbEntity
  8
0
  6
Continuous
 62
     7
370
    25
100
AcDbSpline
210
0.0
220
0.0
230
1.0
 70
     8
 71
     3
 72
    10
 73
     6
 74
     0
 42
0.00000001
 43
0.00000001
 40
0.0
 40
0.0
 40
0.0
 40
0.0
 40
0.259461854077887
 40
0.6296073956705974
 40
1.0
 40
1.0
 40
1.0
 40
1.0
 10
157.8167636603929
 20
244.6369946659938
 30
0.0
 10
161.902950281143
 20
244.6671518728953
 30
0.0
 10
171.818447592521
 20
244.7403310327587
 30
0.0
 10
187.5672942970112
 20
244.9982981534549
 30
0.0
 10
199.2227027527605
 20
245.4277863694033
 30
0.0
 10
205.052351253949
 20
245.6426021215829
 30
0.0
  0
SPLINE
  5
1F3
330
1F
100
AcDbEntity
  8
0
  6
Continuous
 62
     7
370
    25
100
AcDbSpline
210
0.0
220
0.0
230
1.0
 70
     8
 71
     3
 72
     9
 73
     5
 74
     0
 42
0.00000001
 43
0.00000001
 40
0.0
 40
0.0
 40
0.0
 40
0.0
 40
0.0790369080192365
 40
1.0
 40
1.0
 40
1.0
 40
1.0
 10
156.1668878264331
 20
244.3719367729382
 30
0.0
 10
156.208896039833
 20
244.3853141843656
 30
0.0
 10
156.740397264422
 20
244.5545694318519
 30
0.0
 10
157.3007236967539
 20
244.5974777180578
 30
0.0
 10
157.8167636603929
 20
244.6369946659938
 30
0.0
  0
SPLINE
  5
1F4
330
1F
100
AcDbEntity
  8
0
  6
Continuous
 62
     7
370
    25
100
AcDbSpline
210
0.0
220
0.0
230
1.0
 70
     8
 71
     3
 72
    11
 73
     7
 74
     0
 42
0.00000001
 43
0.00000001
 40
0.0
 40
0.0
 40
0.0
 40
0.0
 40
0.0728838064943162
 40
0.4140719411595867
 40
0.9209668754550528
 40
1.0
 40
1.0
 40
1.0
 40
1.0
 10
157.8741355487829
 20
248.4911761550834
 30
0.0
 10
157.878136743573
 20
248.3805329049388
 30
0.0
 10
157.9008685762444
 20
247.7519397020413
 30
0.0
 10
157.5101202155145
 20
246.3812985330386
 30
0.0
 10
156.8281381725687
 20
245.1335689883086
 30
0.0
 10
156.2454799040872
 20
244.4624596113218
 30
0.0
 10
156.1668878264331
 20
244.3719367729383
 30
0.0
  0
SPLINE
  5
1F5
330
1F
100
AcDbEntity
  8
0
  6
Continuous
 62
     7
370
    25
100
AcDbSpline
210
0.0
220
0.0
230
1.0
 70
     8
 71
     3
 72
    10
 73
     6
 74
     0
 42
0.00000001
 43
0.00000001
 40
0.0
 40
0.0
 40
0.0
 40
0.0
 40
0.3880207377811508
 40
0.979063776650665
 40
1.0
 40
1.0
 40
1.0
 40
1.0
 10
157.9816580026952
 20
251.690649682352
 30
0.0
 10
157.8945858210443
 20
251.2825040616565
 30
0.0
 10
157.6748830817117
 20
250.2526606695056
 30
0.0
 10
157.733799212082
 20
249.156293927015
 30
0.0
 10
157.8694933604399
 20
248.5131775984739
 30
0.0
 10
157.8741355487829
 20
248.4911761550834
 30
0.0
  0
ARC
  5
1F6
330
1F
100
AcDbEntity
  8
0
  6
Continuous
 62
     7
370
    25
100
AcDbCircle
 10
149.6870286687
 20
250.3678579703
 30
0.0
 40
8.399443654264592
100
AcDbArc
 50
9.0609834605
 51
347.0894674746
  0
SPLINE
  5
1F7
330
1F
100
AcDbEntity
  8
0
  6
Continuous
 62
     7
370
    25
100
AcDbSpline
210
0.0
220
0.0
230
1.0
 70
     8
 71
     3
 72
     9
 73
     5
 74
     0
 42
0.00000001
 43
0.00000001
 40
0.0
 40
0.0
 40
0.0
 40
0.0
 40
0.6817923421274276
 40
1.0
 40
1.0
 40
1.0
 40
1.0
 10
156.1668878264331
 20
244.3719367729382
 30
0.0
 10
156.0183259501767
 20
244.1869118216851
 30
0.0
 10
155.800426940351
 20
243.9155316083555
 30
0.0
 10
155.5633079145379
 20
243.6904644455238
 30
0.0
 10
155.4878548246969
 20
243.6188463507751
 30
0.0
  0
ARC
  5
1F8
330
1F
100
AcDbEntity
  8
0
  6
Continuous
 62
     7
370
    25
100
AcDbCircle
 10
149.6870286687
 20
250.3678579703
 30
0.0
 40
8.899367501836307
100
AcDbArc
 50
45.4711446636
 51
310.6793062714
  0
LINE
  5
1F9
330
1F
100
AcDbEntity
  8
0
  6
Continuous
 62
     7
370
    25
100
AcDbLine
 10
155.9278737268
 20
256.7121936246
 30
0.0
 11
156.5548146246
 21
255.9152142572
 31
0.0
  0
SPLINE
  5
1FA
330
1F
100
AcDbEntity
  8
0
  6
Continuous
 62
     7
370
    25
100
AcDbSpline
210
0.0
220
0.0
230
1.0
 70
     8
 71
     3
 72
    10
 73
     6
 74
     0
 42
0.00000001
 43
0.00000001
 40
0.0
 40
0.0
 40
0.0
 40
0.0
 40
0.3702896688583038
 40
0.7405318123903294
 40
0.9999999999999999
 40
0.9999999999999999
 40
0.9999999999999999
 40
0.9999999999999999
 10
205.048989744716
 20
245.1996055001246
 30
0.0
 10
199.221455295449
 20
245.075075574211
 30
0.0
 10
187.5671343396727
 20
244.826031705345
 30
0.0
 10
171.8279394692759
 20
244.4852427018924
 30
0.0
 10
161.9179190265843
 20
244.2692309971484
 30
0.0
 10
157.8345573342676
 20
244.1802247306784
 30
0.0
  0
ARC
  5
1FB
330
1F
100
AcDbEntity
  8
0
  6
Continuous
 62
     7
370
    25
100
AcDbCircle
 10
165.0708799296
 20
244.6908504103
 30
0.0
 40
7.254316183336706
100
AcDbArc
 50
180.4253654123
 51
184.0363431988
  0
ARC
  5
1FC
330
1F
100
AcDbEntity
  8
0
  6
Continuous
 62
     7
370
    25
100
AcDbCircle
 10
200.7945910752
 20
245.4533994302
 30
0.0
 40
4.261961918851467
100
AcDbArc
 50
356.5860960061
 51
2.544386774
  0
SPLINE
  5
1FD
330
1F
100
AcDbEntity
  8
0
  6
Continuous
 62
     7
370
    25
100
AcDbSpline
210
0.0
220
0.0
230
1.0
 70
     8
 71
     3
 72
    10
 73
     6
 74
     0
 42
0.00000001
 43
0.00000001
 40
0.0
 40
0.0
 40
0.0
 40
0.0
 40
0.3702717503651152
 40
0.7405122151371748
 40
1.0
 40
1.0
 40
1.0
 40
1.0
 10
158.2315924333079
 20
255.9945318135111
 30
0.0
 10
164.037148084096
 20
255.4767180293733
 30
0.0
 10
175.6477688533768
 20
254.4411342130485
 30
0.0
 10
191.3288583205077
 20
253.0448459199866
 30
0.0
 10
201.202498086222
 20
252.1686674136547
 30
0.0
 10
205.2710608556772
 20
251.8076265680451
 30
0.0
  0
ARC
  5
1FE
330
1F
100
AcDbEntity
  8
0
  6
Continuous
 62
     7
370
    25
100
AcDbCircle
 10
201.0092221302
 20
251.8400318313
 30
0.0
 40
4.261961921815534
100
AcDbArc
 50
353.6060641635
 51
359.5643549273
  0
ARC
  5
1FF
330
1F
100
AcDbEntity
  8
0
  6
Continuous
 62
     7
370
    25
100
AcDbCircle
 10
165.4173065485
 20
254.9992349015
 30
0.0
 40
7.254316183343022
100
AcDbArc
 50
172.1141077361
 51
175.7250855227
  0
SPLINE
  5
200
330
1F
100
AcDbEntity
  8
0
  6
Continuous
 62
     7
370
    25
100
AcDbSpline
210
0.0
220
0.0
230
1.0
 70
     8
 71
     3
 72
    12
 73
     8
 74
     0
 42
0.00000001
 43
0.00000001
 40
0.0
 40
0.0
 40
0.0
 40
0.0
 40
0.1224290494151416
 40
0.3423522449770543
 40
0.5614228816909421
 40
0.7807229538533651
 40
1.0
 40
1.0
 40
1.0
 40
1.0
 10
207.1755914307906
 20
251.1897759118532
 30
0.0
 10
207.1666716570732
 20
251.1924356884019
 30
0.0
 10
207.1417290101164
 20
251.1998733061644
 30
0.0
 10
206.926434441986
 20
251.2241261283999
 30
0.0
 10
206.4916390975795
 20
251.2642633652978
 30
0.0
 10
205.9090355220242
 20
251.3134113791368
 30
0.0
 10
205.4661197020523
 20
251.3480735747968
 30
0.0
 10
205.2446734189686
 20
251.3654037627158
 30
0.0
  0
SPLINE
  5
201
330
1F
100
AcDbEntity
  8
0
  6
Continuous
 62
     7
370
    25
100
AcDbSpline
210
0.0
220
0.0
230
1.0
 70
     8
 71
     3
 72
    11
 73
     7
 74
     0
 42
0.00000001
 43
0.00000001
 40
0.0
 40
0.0
 40
0.0
 40
0.0
 40
0.0800485240044348
 40
0.500000585353877
 40
0.9209248322279565
 40
0.9999999999999999
 40
0.9999999999999999
 40
0.9999999999999999
 40
0.9999999999999999
 10
207.1755914307906
 20
251.1897759118532
 30
0.0
 10
207.1703933874236
 20
251.043623614047
 30
0.0
 10
207.137925271884
 20
250.130724402441
 30
0.0
 10
207.0797795702844
 20
248.4373123275393
 30
0.0
 10
207.024165745435
 20
246.7455989079556
 30
0.0
 10
206.9952731577532
 20
245.8325908256611
 30
0.0
 10
206.9907037799671
 20
245.68819812205
 30
0.0
  0
SPLINE
  5
202
330
1F
100
AcDbEntity
  8
0
  6
Continuous
 62
     7
370
    25
100
AcDbSpline
210
0.0
220
0.0
230
1.0
 70
     8
 71
     3
 72
    12
 73
     8
 74
     0
 42
0.00000001
 43
0.00000001
 40
0.0
 40
0.0
 40
0.0
 40
0.0
 40
0.1130367476169351
 40
0.3328594693548084
 40
0.5544127937945095
 40
0.7774207483513299
 40
1.0
 40
1.0
 40
1.0
 40
1.0
 10
205.0523512539489
 20
245.6426021215827
 30
0.0
 10
205.1665261823417
 20
245.6437832021301
 30
0.0
 10
205.5027372542245
 20
245.6472611316757
 30
0.0
 10
206.0373633561461
 20
245.6549009804605
 30
0.0
 10
206.5545338189788
 20
245.6654117962386
 30
0.0
 10
206.9120145213008
 20
245.6768533012804
 30
0.0
 10
206.9644908563747
 20
245.6844189414471
 30
0.0
 10
206.9907037799671
 20
245.68819812205
 30
0.0
  0
SPLINE
  5
203
330
1F
100
AcDbEntity
  8
0
  6
Continuous
 62
     7
370
    25
100
AcDbSpline
210
0.0
220
0.0
230
1.0
 70
     8
 71
     3
 72
     9
 73
     5
 74
     0
 42
0.00000001
 43
0.00000001
 40
0.0
 40
0.0
 40
0.0
 40
0.0
 40
0.500010612381547
 40
1.0
 40
1.0
 40
1.0
 40
1.0
 10
155.443051839029
 20
257.1605621645481
 30
0.0
 10
155.8628629546726
 20
256.8584508346474
 30
0.0
 10
156.7024673655549
 20
256.2542409990566
 30
0.0
 10
157.7218912897341
 20
256.0811003170696
 30
0.0
 10
158.2315924333079
 20
255.9945318135111
 30
0.0
  0
SPLINE
  5
204
330
1F
100
AcDbEntity
  8
0
  6
Continuous
 62
     7
370
    25
100
AcDbSpline
210
0.0
220
0.0
230
1.0
 70
     8
 71
     3
 72
     9
 73
     5
 74
     0
 42
0.00000001
 43
0.00000001
 40
0.0
 40
0.0
 40
0.0
 40
0.0
 40
0.983870232645926
 40
1.0
 40
1.0
 40
1.0
 40
1.0
 10
155.9278737267948
 20
256.7121936246102
 30
0.0
 10
155.7714884772923
 20
256.8623633291534
 30
0.0
 10
155.6125394164165
 20
257.0149949461698
 30
0.0
 10
155.4457422387008
 20
257.1582514701443
 30
0.0
 10
155.443051839029
 20
257.1605621645481
 30
0.0
  0
SPLINE
  5
205
330
1F
100
AcDbEntity
  8
0
  6
Continuous
 62
     7
370
    25
100
AcDbSpline
210
0.0
220
0.0
230
1.0
 70
     8
 71
     3
 72
     9
 73
     5
 74
     0
 42
0.00000001
 43
0.00000001
 40
0.0
 40
0.0
 40
0.0
 40
0.0
 40
0.5055561057107385
 40
0.9999999999999999
 40
0.9999999999999999
 40
0.9999999999999999
 40
0.9999999999999999
 10
157.8345573342676
 20
244.1802247306784
 30
0.0
 10
157.3144169653366
 20
244.1270087999208
 30
0.0
 10
156.2855690035464
 20
244.0217466338495
 30
0.0
 10
155.4079554493671
 20
243.4745813410957
 30
0.0
 10
154.9740247859579
 20
243.2040388029266
 30
0.0
  0
SPLINE
  5
206
330
1F
100
AcDbEntity
  8
0
  6
Continuous
 62
     7
370
    25
100
AcDbSpline
210
0.0
220
0.0
230
1.0
 70
     8
 71
     3
 72
     9
 73
     5
 74
     0
 42
0.00000001
 43
0.00000001
 40
0.0
 40
0.0
 40
0.0
 40
0.0
 40
0.0161297673533045
 40
1.0
 40
1.0
 40
1.0
 40
1.0
 10
154.9740247859578
 20
243.2040388029265
 30
0.0
 10
154.9768642480564
 20
243.2061636591595
 30
0.0
 10
155.1529028750585
 20
243.3378987416598
 30
0.0
 10
155.3217405057294
 20
243.479514662143
 30
0.0
 10
155.4878548246969
 20
243.6188463507752
 30
0.0
  0
SPLINE
  5
207
330
1F
100
AcDbEntity
  8
0
  6
Continuous
 62
     7
370
    25
100
AcDbSpline
210
0.0
220
0.0
230
1.0
 70
     8
 71
     3
 72
    12
 73
     8
 74
     0
 42
0.00000001
 43
0.00000001
 40
0.0
 40
0.0
 40
0.0
 40
0.0
 40
0.223031534415035
 40
0.4461337558340201
 40
0.6675099896776863
 40
0.8870667292264853
 40
1.0
 40
1.0
 40
1.0
 40
1.0
 10
206.5018504664839
 20
245.2051818064471
 30
0.0
 10
206.4823911899563
 20
245.2077270750513
 30
0.0
 10
206.443466469531
 20
245.2128184189501
 30
0.0
 10
206.1757950735905
 20
245.2148671073464
 30
0.0
 10
205.7879610519828
 20
245.2123031493332
 30
0.0
 10
205.3868155447257
 20
245.2064359673456
 30
0.0
 10
205.1346425926159
 20
245.2013373067834
 30
0.0
 10
205.0489897447159
 20
245.1996055001245
 30
0.0
  0
ARC
  5
208
330
1F
100
AcDbEntity
  8
0
  6
Continuous
 62
     7
370
    25
100
AcDbCircle
 10
206.4908916507
 20
245.7051616357
 30
0.0
 40
0.5000999153469554
100
AcDbArc
 50
271.2556373922
 51
358.0561400058
  0
SPLINE
  5
209
330
1F
100
AcDbEntity
  8
0
  6
Continuous
 62
     7
370
    25
100
AcDbSpline
210
0.0
220
0.0
230
1.0
 70
     8
 71
     3
 72
    12
 73
     8
 74
     0
 42
0.00000001
 43
0.00000001
 40
0.0
 40
0.0
 40
0.0
 40
0.0
 40
0.2190444340109387
 40
0.4380981679380302
 40
0.6571027493691947
 40
0.8772791087290103
 40
1.0
 40
1.0
 40
1.0
 40
1.0
 10
205.2710608556772
 20
251.8076265680451
 30
0.0
 10
205.4370881649839
 20
251.793213208071
 30
0.0
 10
205.7691498325784
 20
251.7643858761783
 30
0.0
 10
206.2064054861907
 20
251.7301618250978
 30
0.0
 10
206.5328071032138
 20
251.7078805096796
 30
0.0
 10
206.6944984068287
 20
251.7006217661861
 30
0.0
 10
206.7134769305666
 20
251.7034943782488
 30
0.0
 10
206.7202692315952
 20
251.7045224690602
 30
0.0
  0
ARC
  5
20A
330
1F
100
AcDbEntity
  8
0
  6
Continuous
 62
     7
370
    25
100
AcDbCircle
 10
206.6757681112
 20
251.2064064428
 30
0.0
 40
0.5000999153471374
100
AcDbArc
 50
358.0943109298
 51
84.8948135427
  0
LINE
  5
20B
330
1F
100
AcDbEntity
  8
0
  6
Continuous
 62
     7
370
    25
100
AcDbLine
 10
157.8345573343
 20
244.1802247307
 30
0.0
 11
157.8591338397
 21
244.1080682844
 31
0.0
  0
LINE
  5
20C
330
1F
100
AcDbEntity
  8
0
  6
Continuous
 62
     7
370
    25
100
AcDbLine
 10
206.506389105
 20
245.2005883209
 30
0.0
 11
206.5018504665
 21
245.2051818064
 31
0.0
  0
ELLIPSE
  5
20D
330
1F
100
AcDbEntity
  8
0
  6
Continuous
 62
     7
370
    25
100
AcDbEllipse
 10
205.0046661825
 20
245.1677161944
 30
0.0
 11
1.501936455350375
 21
0.03244489684948348
 31
0.0
210
0.0
220
0.0
230
1.0
 40
0.0174284859
 41
5.39671797028548
 42
6.29967570319829
  0
LINE
  5
20E
330
1F
100
AcDbEntity
  8
0
  6
Continuous
 62
     7
370
    25
100
AcDbLine
 10
202.4834591796
 20
245.0435671833
 30
0.0
 11
205.9545583053
 21
245.1679436691
 31
0.0
  0
LINE
  5
20F
330
1F
100
AcDbEntity
  8
0
  6
Continuous
 62
     7
370
    25
100
AcDbLine
 10
202.4834624843
 20
245.043665519
 30
0.0
 11
202.4834591796
 21
245.0435671833
 31
0.0
  0
ELLIPSE
  5
210
330
1F
100
AcDbEntity
  8
0
  6
Continuous
 62
     7
370
    25
100
AcDbEllipse
 10
193.0282356607
 20
245.0315885217
 30
0.0
 11
14.51871906838676
 21
0.313634002878274
 31
0.0
210
0.0
220
0.0
230
1.0
 40
0.0174284859
 41
4.685109492442205
 42
5.421234828998081
  0
ELLIPSE
  5
211
330
1F
100
AcDbEntity
  8
0
  6
Continuous
 62
     7
370
    25
100
AcDbEllipse
 10
191.6760535854
 20
244.1262103376
 30
0.0
 11
35.74873264482386
 21
0.7722456825846394
 31
0.0
210
0.0
220
0.0
230
1.0
 40
0.0174284859
 41
1.543516838852423
 42
2.025717338717964
  0
ELLIPSE
  5
212
330
1F
100
AcDbEntity
  8
0
  6
Continuous
 62
     7
370
    25
100
AcDbEllipse
 10
172.6540497951
 20
244.3928631353
 30
0.0
 11
7.509682276751761
 21
0.162224484247389
 31
0.0
210
0.0
220
0.0
230
1.0
 40
0.0174284859
 41
4.976419334597729
 42
5.167309992307958
  0
LINE
  5
213
330
1F
100
AcDbEntity
  8
0
  6
Continuous
 62
     7
370
    25
100
AcDbLine
 10
174.602050094
 20
244.4598172248
 30
0.0
 11
174.6166060649
 21
244.3088526077
 31
0.0
  0
SPLINE
  5
214
330
1F
100
AcDbEntity
  8
0
  6
Continuous
 62
     7
370
    25
100
AcDbSpline
210
0.0
220
0.0
230
1.0
 70
     8
 71
     3
 72
    10
 73
     6
 74
     0
 42
0.00000001
 43
0.00000001
 40
0.0
 40
0.0
 40
0.0
 40
0.0
 40
0.0186368637457477
 40
0.3939469944632952
 40
1.0
 40
1.0
 40
1.0
 40
1.0
 10
174.4183661587658
 20
244.46550351966
 30
0.0
 10
174.4208239274934
 20
244.4655087231744
 30
0.0
 10
174.4727763705931
 20
244.4656187153301
 30
0.0
 10
174.5768065549291
 20
244.4648041404933
 30
0.0
 10
174.5924124682033
 20
244.4617211586023
 30
0.0
 10
174.6020500939656
 20
244.4598172248066
 30
0.0
  0
LINE
  5
215
330
1F
100
AcDbEntity
  8
0
  6
Continuous
 62
     7
370
    25
100
AcDbLine
 10
157.8591338397
 20
244.1080682844
 30
0.0
 11
174.4183661588
 21
244.4655035197
 31
0.0
  0
LINE
  5
216
330
1F
100
AcDbEntity
  8
0
  6
Continuous
 62
     7
370
    25
100
AcDbLine
 10
174.7614406758
 20
254.6126384649
 30
0.0
 11
158.267532678
 21
256.0806476066
 31
0.0
  0
SPLINE
  5
217
330
1F
100
AcDbEntity
  8
0
  6
Continuous
 62
     7
370
    25
100
AcDbSpline
210
0.0
220
0.0
230
1.0
 70
     8
 71
     3
 72
    11
 73
     7
 74
     0
 42
0.00000001
 43
0.00000001
 40
0.0
 40
0.0
 40
0.0
 40
0.0
 40
0.4177469294494799
 40
0.8392770662410579
 40
0.9817832068818988
 40
1.0
 40
1.0
 40
1.0
 40
1.0
 10
174.9449971430687
 20
254.6051196048702
 30
0.0
 10
174.9403263498067
 20
254.6041927702505
 30
0.0
 10
174.9309424635598
 20
254.6023307073945
 30
0.0
 10
174.8555289718672
 20
254.6060679310654
 30
0.0
 10
174.7853913914913
 20
254.6108969173745
 30
0.0
 10
174.7638789562413
 20
254.6124611682661
 30
0.0
 10
174.7614406758214
 20
254.6126384648983
 30
0.0
  0
LINE
  5
218
330
1F
100
AcDbEntity
  8
0
  6
Continuous
 62
     7
370
    25
100
AcDbLine
 10
174.9671415417
 20
254.7395016275
 30
0.0
 11
174.9449971431
 21
254.6051196049
 31
0.0
  0
ELLIPSE
  5
219
330
1F
100
AcDbEntity
  8
0
  6
Continuous
 62
     7
370
    25
100
AcDbEllipse
 10
173.0033730315
 20
254.7874403321
 30
0.0
 11
7.481847567972752
 21
-0.6660342713921922
 31
0.0
210
0.0
220
0.0
230
1.0
 40
0.0174284859
 41
1.115875314871602
 42
1.306765972581834
  0
ELLIPSE
  5
21A
330
1F
100
AcDbEntity
  8
0
  6
Continuous
 62
     7
370
    25
100
AcDbEllipse
 10
192.0003612397
 20
253.7764156368
 30
0.0
 11
35.61622962729032
 21
-3.170557717734454
 31
0.0
210
0.0
220
0.0
230
1.0
 40
0.0174284859
 41
4.257467968461679
 42
4.739668468327173
  0
ELLIPSE
  5
21B
330
1F
100
AcDbEntity
  8
0
  6
Continuous
 62
     7
370
    25
100
AcDbEllipse
 10
193.2887083317
 20
252.7822990484
 30
0.0
 11
14.46490529808068
 21
-1.287666258024899
 31
0.0
210
0.0
220
0.0
230
1.0
 40
0.0174284859
 41
0.8619504781820129
 42
1.598075814737367
  0
LINE
  5
21C
330
1F
100
AcDbEntity
  8
0
  6
Continuous
 62
     7
370
    25
100
AcDbLine
 10
202.7217945954
 20
252.1355542601
 30
0.0
 11
202.7217912907
 21
252.1354559244
 31
0.0
  0
LINE
  5
21D
330
1F
100
AcDbEntity
  8
0
  6
Continuous
 62
     7
370
    25
100
AcDbLine
 10
206.1767119291
 20
251.7784200162
 30
0.0
 11
202.7217945954
 21
252.1355542601
 31
0.0
  0
ELLIPSE
  5
21E
330
1F
100
AcDbEntity
  8
0
  6
Continuous
 62
     7
370
    25
100
AcDbEllipse
 10
205.228978242
 20
251.8424196652
 30
0.0
 11
1.496369513594544
 21
-0.133206854278427
 31
0.0
210
0.0
220
0.0
230
1.0
 40
0.0174284859
 41
6.26669491115753
 42
7.169652644071002
  0
LINE
  5
21F
330
1F
100
AcDbEntity
  8
0
  6
Continuous
 62
     7
370
    25
100
AcDbLine
 10
206.7202692316
 20
251.7045224691
 30
0.0
 11
206.7251060217
 21
251.7088008812
 31
0.0
  0
LINE
  5
220
330
1F
100
AcDbEntity
  8
0
  6
Continuous
 62
     7
370
    25
100
AcDbLine
 10
158.267532678
 20
256.0806476066
 30
0.0
 11
158.2315924333
 21
255.9945318135
 31
0.0
  0
SPLINE
  5
221
330
1F
100
AcDbEntity
  8
0
  6
Continuous
 62
     7
370
    25
100
AcDbSpline
210
0.0
220
0.0
230
1.0
 70
     8
 71
     3
 72
     9
 73
     5
 74
     0
 42
0.00000001
 43
0.00000001
 40
0.0
 40
0.0
 40
0.0
 40
0.0
 40
0.5001021276704672
 40
1.0
 40
1.0
 40
1.0
 40
1.0
 10
155.0050185088572
 20
243.1372686868074
 30
0.0
 10
155.4433478987311
 20
243.4092254466919
 30
0.0
 10
156.319827652808
 20
243.9530278919068
 30
0.0
 10
157.3461016513514
 20
244.0563951913099
 30
0.0
 10
157.8591338396506
 20
244.1080682843502
 30
0.0
  0
LINE
  5
222
330
1F
100
AcDbEntity
  8
0
  6
Continuous
 62
     7
370
    25
100
AcDbLine
 10
155.0050185089
 20
243.1372686868
 30
0.0
 11
154.974024786
 21
243.2040388029
 31
0.0
  0
SPLINE
  5
223
330
1F
100
AcDbEntity
  8
0
  6
Continuous
 62
     7
370
    25
100
AcDbSpline
210
0.0
220
0.0
230
1.0
 70
     8
 71
     3
 72
     9
 73
     5
 74
     0
 42
0.00000001
 43
0.00000001
 40
0.0
 40
0.0
 40
0.0
 40
0.0
 40
0.4007227371565357
 40
0.9999999999999999
 40
0.9999999999999999
 40
0.9999999999999999
 40
0.9999999999999999
 10
158.2675326780021
 20
256.0806476066329
 30
0.0
 10
157.8607030118142
 20
256.1427542342779
 30
0.0
 10
156.845463225136
 20
256.2977407670757
 30
0.0
 10
155.9956900363819
 20
256.8867219682107
 30
0.0
 10
155.4864402857875
 20
257.239685010293
 30
0.0
  0
LINE
  5
224
330
1F
100
AcDbEntity
  8
0
  6
Continuous
 62
     7
370
    25
100
AcDbLine
 10
155.443051839
 20
257.1605621645
 30
0.0
 11
155.4864402858
 21
257.2396850103
 31
0.0
  0
ARC
  5
225
330
1F
100
AcDbEntity
  8
0
  6
Continuous
 62
     7
370
    25
100
AcDbCircle
 10
149.6870286687
 20
250.3678579703
 30
0.0
 40
8.975658044222056
100
AcDbArc
 50
243.2401108622
 51
306.3339234504
  0
LWPOLYLINE
  5
226
330
1F
100
AcDbEntity
  8
0
  6
Continuous
 62
     7
370
    25
100
AcDbPolyline
 90
        3
 70
   128
 43
0.0
 10
145.4768179325
 20
242.2540300714
 10
145.5835657322
 20
242.3167324862
 10
145.6457156501
 20
242.3534817368
  0
ARC
  5
227
330
1F
100
AcDbEntity
  8
0
  6
Continuous
 62
     7
370
    25
100
AcDbCircle
 10
149.6870286687
 20
250.3678579703
 30
0.0
 40
9.141120151092174
100
AcDbArc
 50
113.5749418851
 51
242.5755048964
  0
LWPOLYLINE
  5
228
330
1F
100
AcDbEntity
  8
0
  6
Continuous
 62
     7
370
    25
100
AcDbPolyline
 90
        3
 70
   128
 43
0.0
 10
146.1769588505
 20
258.6464201548
 10
146.1333505878
 20
258.6763116009
 10
146.0310532717
 20
258.7460392478
  0
ARC
  5
229
330
1F
100
AcDbEntity
  8
0
  6
Continuous
 62
     7
370
    25
100
AcDbCircle
 10
149.6870286687
 20
250.3678579703
 30
0.0
 40
8.99195095466078
100
AcDbArc
 50
49.8376326145
 51
112.9767066341
  0
LINE
  5
22A
330
1F
100
AcDbEntity
  8
0
  6
Continuous
 62
     7
370
    25
100
AcDbLine
 10
207.1804282209
 20
251.194054324
 30
0.0
 11
207.1755914308
 21
251.1897759119
 31
0.0
  0
LINE
  5
22B
330
1F
100
AcDbEntity
  8
0
  6
Continuous
 62
     7
370
    25
100
AcDbLine
 10
206.9952424185
 20
245.6836046365
 30
0.0
 11
207.1804282209
 21
251.194054324
 31
0.0
  0
LINE
  5
22C
330
1F
100
AcDbEntity
  8
0
  6
Continuous
 62
     7
370
    25
100
AcDbLine
 10
206.99070378
 20
245.6881981221
 30
0.0
 11
206.9952424185
 21
245.6836046365
 31
0.0
  0
ARC
  5
22D
330
1F
100
AcDbEntity
  8
0
  6
Continuous
 62
     7
370
    25
100
AcDbCircle
 10
206.6806049013
 20
251.2106848549
 30
0.0
 40
0.5000999153470111
100
AcDbArc
 50
358.0943109292
 51
84.8948135427
  0
ARC
  5
22E
330
1F
100
AcDbEntity
  8
0
  6
Continuous
 62
     7
370
    25
100
AcDbCircle
 10
206.4954302892
 20
245.7005681502
 30
0.0
 40
0.500099915346736
100
AcDbArc
 50
271.2556373922
 51
358.0561400058
  0
LINE
  5
22F
330
1F
100
AcDbEntity
  8
0
  6
Continuous
 62
     7
370
    25
100
AcDbLine
 10
206.1767119291
 20
251.7784200162
 30
0.0
 11
206.1838033218
 21
251.7778144569
 31
0.0
  0
LINE
  5
230
330
1F
100
AcDbEntity
  8
0
  6
Continuous
 62
     7
370
    25
100
AcDbLine
 10
205.9545583053
 20
245.1679436691
 30
0.0
 11
205.9616743536
 21
245.1680717689
 31
0.0
  0
SPLINE
  5
231
330
1F
100
AcDbEntity
  8
0
  6
Continuous
 62
     7
370
    25
100
AcDbSpline
210
0.0
220
0.0
230
1.0
 70
     8
 71
     3
 72
    11
 73
     7
 74
     0
 42
0.00000001
 43
0.00000001
 40
0.0
 40
0.0
 40
0.0
 40
0.0
 40
0.1345990676765969
 40
0.4126978815969503
 40
0.6969472592954602
 40
0.9999999999999999
 40
0.9999999999999999
 40
0.9999999999999999
 40
0.9999999999999999
 10
145.6449103908656
 20
242.3527017261503
 30
0.0
 10
146.0675629098356
 20
242.1475062952947
 30
0.0
 10
147.3634693543708
 20
241.5183509743161
 30
0.0
 10
149.7170319035173
 20
240.8164371678028
 30
0.0
 10
152.7563526334092
 20
240.3375816257911
 30
0.0
 10
154.9452347278097
 20
240.2368647560677
 30
0.0
 10
156.0747159556162
 20
240.1848940199706
 30
0.0
  0
ARC
  5
232
330
1F
100
AcDbEntity
  8
0
  6
Continuous
 62
     7
370
    25
100
AcDbCircle
 10
151.6055379478
 20
240.9552604935
 30
0.0
 40
4.535087272517443
100
AcDbArc
 50
327.1036881082
 51
350.2198521658
  0
SPLINE
  5
233
330
1F
100
AcDbEntity
  8
0
  6
Continuous
 62
     7
370
    25
100
AcDbSpline
210
0.0
220
0.0
230
1.0
 70
     8
 71
     3
 72
    12
 73
     8
 74
     0
 42
0.00000001
 43
0.00000001
 40
0.0
 40
0.0
 40
0.0
 40
0.0
 40
0.1662426524176539
 40
0.3368059756191313
 40
0.6054181071254604
 40
0.8801435087136209
 40
0.9999999999999999
 40
0.9999999999999999
 40
0.9999999999999999
 40
0.9999999999999999
 10
155.4134458657995
 20
238.4921620672956
 30
0.0
 10
154.7813464665425
 20
238.6689775385842
 30
0.0
 10
153.5007193124459
 20
239.0272039410496
 30
0.0
 10
151.3400325088511
 20
239.763155991157
 30
0.0
 10
149.0080137794757
 20
240.6942025107819
 30
0.0
 10
147.0718868522611
 20
241.6023729347364
 30
0.0
 10
145.9768054943533
 20
242.17733629374
 30
0.0
 10
145.6441683115475
 20
242.3519846799757
 30
0.0
  0
LINE
  5
234
330
1F
100
AcDbEntity
  8
0
  6
Continuous
 62
     7
370
    25
100
AcDbLine
 10
145.6441683115
 20
242.35198468
 30
0.0
 11
145.6449103909
 21
242.3527017262
 31
0.0
  0
LINE
  5
235
330
1F
100
AcDbEntity
  8
0
  6
Continuous
 62
     7
370
    25
100
AcDbLine
 10
155.4134458658
 20
238.4921620673
 30
0.0
 11
155.3952633054
 21
238.4232603642
 31
0.0
  0
ARC
  5
236
330
1F
100
AcDbEntity
  8
0
  6
Continuous
 62
     7
370
    25
100
AcDbCircle
 10
167.6886441883
 20
285.0082771824
 30
0.0
 40
48.17977797259055
100
AcDbArc
 50
242.5470733798
 51
255.2171445356
  0
LWPOLYLINE
  5
237
330
1F
100
AcDbEntity
  8
0
  6
Continuous
 62
     7
370
    25
100
AcDbPolyline
 90
        3
 70
   128
 43
0.0
 10
145.6441683115
 20
242.35198468
 10
145.5835536474
 20
242.3164768274
 10
145.4768178811
 20
242.2540285332
  0
LINE
  5
238
330
1F
100
AcDbEntity
  8
0
  6
Continuous
 62
     7
370
    25
100
AcDbLine
 10
155.0050185089
 20
243.1372686868
 30
0.0
 11
157.1080385322
 21
240.2779036821
 31
0.0
  0
ARC
  5
239
330
1F
100
AcDbEntity
  8
0
  6
Continuous
 62
     7
370
    25
100
AcDbCircle
 10
149.6870286687
 20
250.3678579703
 30
0.0
 40
12.52511736202726
100
AcDbArc
 50
305.9335323377
 51
306.3339234504
  0
LINE
  5
23A
330
1F
100
AcDbEntity
  8
0
  6
Continuous
 62
     7
370
    25
100
AcDbLine
 10
156.0747159556
 20
240.18489402
 30
0.0
 11
157.0373478619
 21
240.2262913906
 31
0.0
  0
LINE
  5
23B
330
1F
100
AcDbEntity
  8
0
  6
Continuous
 62
     7
370
    25
100
AcDbLine
 10
145.6457156501
 20
242.3534817368
 30
0.0
 11
145.6449103909
 21
242.3527017262
 31
0.0
  0
LINE
  5
23C
330
1F
100
AcDbEntity
  8
0
  6
Continuous
 62
     7
370
    25
100
AcDbLine
 10
160.0385254258
 20
240.604824896
 30
0.0
 11
157.9357319782
 21
240.5594355654
 31
0.0
  0
LINE
  5
23D
330
1F
100
AcDbEntity
  8
0
  6
Continuous
 62
     7
370
    25
100
AcDbLine
 10
157.8591338397
 20
244.1080682844
 30
0.0
 11
157.9357319782
 21
240.5594355654
 31
0.0
  0
SPLINE
  5
23E
330
1F
100
AcDbEntity
  8
0
  6
Continuous
 62
     7
370
    25
100
AcDbSpline
210
0.0
220
0.0
230
1.0
 70
     8
 71
     3
 72
    16
 73
    12
 74
     0
 42
0.00000001
 43
0.00000001
 40
0.0
 40
0.0
 40
0.0
 40
0.0
 40
0.2861254310575668
 40
0.7591203623085425
 40
0.8520758313858462
 40
0.9266344548631257
 40
0.9604862301433723
 40
0.983533543656923
 40
0.9930756629548356
 40
0.9972242292023621
 40
1.0
 40
1.0
 40
1.0
 40
1.0
 10
161.495985532308
 20
241.0802846384932
 30
0.0
 10
162.7412429803066
 20
241.568802697714
 30
0.0
 10
166.0450397857774
 20
242.8648916358391
 30
0.0
 10
169.8746641853371
 20
243.7545787358354
 30
0.0
 10
172.68962075866
 20
244.222215912273
 30
0.0
 10
173.559454905418
 20
244.3475737461406
 30
0.0
 10
174.0877177044698
 20
244.4183914288285
 30
0.0
 10
174.3225617076966
 20
244.4496306539343
 30
0.0
 10
174.4006490131719
 20
244.4613344818977
 30
0.0
 10
174.4168470010458
 20
244.464525973964
 30
0.0
 10
174.4179314384817
 20
244.4652237863992
 30
0.0
 10
174.4183661587658
 20
244.46550351966
 30
0.0
  0
LINE
  5
23F
330
1F
100
AcDbEntity
  8
0
  6
Continuous
 62
     7
370
    25
100
AcDbLine
 10
160.0385254258
 20
240.604824896
 30
0.0
 11
161.4959855323
 21
241.0802846385
 31
0.0
  0
ARC
  5
240
330
1F
100
AcDbEntity
  8
0
  6
Continuous
 62
     7
370
    25
100
AcDbCircle
 10
167.4173640769
 20
244.4924288747
 30
0.0
 40
6.834138728218321
100
AcDbArc
 50
209.9523325978
 51
225.0240262103
  0
SPLINE
  5
241
330
1F
100
AcDbEntity
  8
0
  6
Continuous
 62
     7
370
    25
100
AcDbSpline
210
0.0
220
0.0
230
1.0
 70
     8
 71
     3
 72
    10
 73
     6
 74
     0
 42
0.00000001
 43
0.00000001
 40
0.0
 40
0.0
 40
0.0
 40
0.0
 40
0.5975855365574059
 40
0.9790563563181979
 40
1.0
 40
1.0
 40
1.0
 40
1.0
 10
174.5280228525054
 20
244.4526863146018
 30
0.0
 10
174.5306661635703
 20
244.4563388913886
 30
0.0
 10
174.5349968415093
 20
244.4623231033572
 30
0.0
 10
174.4606803237699
 20
244.4651973776738
 30
0.0
 10
174.4204594523147
 20
244.4654883747306
 30
0.0
 10
174.4183661587658
 20
244.46550351966
 30
0.0
  0
SPLINE
  5
242
330
1F
100
AcDbEntity
  8
0
  6
Continuous
 62
     7
370
    25
100
AcDbSpline
210
0.0
220
0.0
230
1.0
 70
     8
 71
     3
 72
    14
 73
    10
 74
     0
 42
0.00000001
 43
0.00000001
 40
0.0
 40
0.0
 40
0.0
 40
0.0
 40
0.0129036569231474
 40
0.0519665716781133
 40
0.1318891824261219
 40
0.2280032005552178
 40
0.4679440229400844
 40
0.7079115564493597
 40
0.9999999999999999
 40
0.9999999999999999
 40
0.9999999999999999
 40
0.9999999999999999
 10
174.5280228525054
 20
244.4526863146018
 30
0.0
 10
174.4943096677006
 20
244.4459698870623
 30
0.0
 10
174.3585374098756
 20
244.418920988039
 30
0.0
 10
173.9160730688853
 20
244.3313507303262
 30
0.0
 10
173.0983053418985
 20
244.1563171035041
 30
0.0
 10
171.4300740870052
 20
243.7450658306753
 30
0.0
 10
169.0589787447638
 20
242.9868197313493
 30
0.0
 10
165.8671273819796
 20
241.6483300768827
 30
0.0
 10
163.7494751957917
 20
240.3633604894333
 30
0.0
 10
162.5869250925804
 20
239.657937032146
 30
0.0
  0
LWPOLYLINE
  5
243
330
1F
100
AcDbEntity
  8
0
  6
Continuous
 62
     7
370
    25
100
AcDbPolyline
 90
        4
 70
   128
 43
0.0
 10
174.5424637516
 20
244.3010201349
 10
174.5408033963
 20
244.3184438794
 10
174.534165487
 20
244.3881388981
 10
174.5280228525
 20
244.4526863146
  0
LINE
  5
244
330
1F
100
AcDbEntity
  8
0
  6
Continuous
 62
     7
370
    25
100
AcDbLine
 10
172.740921668
 20
243.9317933057
 30
0.0
 11
174.5424637516
 21
244.3010201349
 31
0.0
  0
ARC
  5
245
330
1F
100
AcDbEntity
  8
0
  6
Continuous
 62
     7
370
    25
100
AcDbCircle
 10
179.8999437078
 20
213.2483352151
 30
0.0
 40
31.50755777528332
100
AcDbArc
 50
103.1332227153
 51
123.2471548844
  0
LINE
  5
246
330
1F
100
AcDbEntity
  8
0
  6
Continuous
 62
     7
370
    25
100
AcDbLine
 10
162.5869250926
 20
239.6579370321
 30
0.0
 11
162.6258715414
 21
239.598527392
 31
0.0
  0
SPLINE
  5
247
330
1F
100
AcDbEntity
  8
0
  6
Continuous
 62
     7
370
    25
100
AcDbSpline
210
0.0
220
0.0
230
1.0
 70
     8
 71
     3
 72
     9
 73
     5
 74
     0
 42
0.00000001
 43
0.00000001
 40
0.0
 40
0.0
 40
0.0
 40
0.0
 40
0.4998978730610189
 40
1.0
 40
1.0
 40
1.0
 40
1.0
 10
157.9357319781681
 20
240.5594355654104
 30
0.0
 10
157.7869500597959
 20
240.5444579649326
 30
0.0
 10
157.489325432067
 20
240.5144966442608
 30
0.0
 10
157.2351514708535
 20
240.356778741
 30
0.0
 10
157.108038532238
 20
240.277903682123
 30
0.0
  0
ARC
  5
248
330
1F
100
AcDbEntity
  8
0
  6
Continuous
 62
     7
370
    25
100
AcDbCircle
 10
174.6128532265
 20
243.9598575879
 30
0.0
 40
0.5000763403668494
100
AcDbArc
 50
91.2378551073
 51
99.7665890293
  0
ARC
  5
249
330
1F
100
AcDbEntity
  8
0
  6
Continuous
 62
     7
370
    25
100
AcDbCircle
 10
165.32238281
 20
214.5970248045
 30
0.0
 40
48.10950076354639
100
AcDbArc
 50
100.9333063994
 51
101.1818887889
  0
SPLINE
  5
24A
330
1F
100
AcDbEntity
  8
0
  6
Continuous
 62
     7
370
    25
100
AcDbSpline
210
0.0
220
0.0
230
1.0
 70
     8
 71
     3
 72
    12
 73
     8
 74
     0
 42
0.00000001
 43
0.00000001
 40
0.0
 40
0.0
 40
0.0
 40
0.0
 40
0.0460732444350166
 40
0.2494607408078302
 40
0.4779405209378878
 40
0.7057893369168763
 40
1.0
 40
1.0
 40
1.0
 40
1.0
 10
146.1757681020233
 20
258.6477352345112
 30
0.0
 10
146.306132309828
 20
258.7058948601021
 30
0.0
 10
147.0119812738538
 20
259.0207965663507
 30
0.0
 10
148.3912454944261
 20
259.5933358886672
 30
0.0
 10
150.4271952801226
 20
260.3330956959383
 30
0.0
 10
152.9502806346436
 20
261.1208743726828
 30
0.0
 10
154.8961651311612
 20
261.5508966572208
 30
0.0
 10
155.9927834111934
 20
261.7932390464477
 30
0.0
  0
LWPOLYLINE
  5
24B
330
1F
100
AcDbEntity
  8
0
  6
Continuous
 62
     7
370
    25
100
AcDbPolyline
 90
        3
 70
   128
 43
0.0
 10
146.175768102
 20
258.6477352345
 10
146.1333556945
 20
258.6765674942
 10
146.0310533236
 20
258.746040786
  0
ARC
  5
24C
330
1F
100
AcDbEntity
  8
0
  6
Continuous
 62
     7
370
    25
100
AcDbCircle
 10
165.32238281
 20
214.5970248045
 30
0.0
 40
48.17977797259057
100
AcDbArc
 50
100.9333063994
 51
113.6033767663
  0
LINE
  5
24D
330
1F
100
AcDbEntity
  8
0
  6
Continuous
 62
     7
370
    25
100
AcDbLine
 10
156.1976351814
 20
261.8332719504
 30
0.0
 11
156.1843059681
 21
261.9022735314
 31
0.0
  0
LINE
  5
24E
330
1F
100
AcDbEntity
  8
0
  6
Continuous
 62
     7
370
    25
100
AcDbLine
 10
156.3805728627
 20
259.8315048658
 30
0.0
 11
155.9927834112
 21
261.7932390464
 31
0.0
  0
SPLINE
  5
24F
330
1F
100
AcDbEntity
  8
0
  6
Continuous
 62
     7
370
    25
100
AcDbSpline
210
0.0
220
0.0
230
1.0
 70
     8
 71
     3
 72
    13
 73
     9
 74
     0
 42
0.00000001
 43
0.00000001
 40
0.0
 40
0.0
 40
0.0
 40
0.0
 40
0.2574896950994386
 40
0.4890886589321009
 40
0.7206004760683454
 40
0.9447506334961244
 40
0.9460032291293291
 40
1.0
 40
1.0
 40
1.0
 40
1.0
 10
156.3805728626565
 20
259.831504865838
 30
0.0
 10
155.4633082043895
 20
259.8904095398747
 30
0.0
 10
153.721010356608
 20
260.0022959903918
 30
0.0
 10
151.222325308429
 20
259.9216105187633
 30
0.0
 10
148.8940978930275
 20
259.5862462601341
 30
0.0
 10
147.401043901897
 20
259.136583071592
 30
0.0
 10
146.5177042149584
 20
258.7918147193628
 30
0.0
 10
146.3451010068971
 20
258.7185902683619
 30
0.0
 10
146.1764110025226
 20
258.6470259382522
 30
0.0
  0
LINE
  5
250
330
1F
100
AcDbEntity
  8
0
  6
Continuous
 62
     7
370
    25
100
AcDbLine
 10
146.1764110025
 20
258.6470259383
 30
0.0
 11
146.175768102
 21
258.6477352345
 31
0.0
  0
LINE
  5
251
330
1F
100
AcDbEntity
  8
0
  6
Continuous
 62
     7
370
    25
100
AcDbLine
 10
158.267532678
 20
256.0806476066
 30
0.0
 11
158.4979945174
 21
258.6700159342
 31
0.0
  0
LINE
  5
252
330
1F
100
AcDbEntity
  8
0
  6
Continuous
 62
     7
370
    25
100
AcDbLine
 10
158.4979945174
 20
258.6700159342
 30
0.0
 11
162.4385191223
 21
258.3192969813
 31
0.0
  0
SPLINE
  5
253
330
1F
100
AcDbEntity
  8
0
  6
Continuous
 62
     7
370
    25
100
AcDbSpline
210
0.0
220
0.0
230
1.0
 70
     8
 71
     3
 72
    17
 73
    13
 74
     0
 42
0.00000001
 43
0.00000001
 40
0.0
 40
0.0
 40
0.0
 40
0.0
 40
0.0068264277560532
 40
0.008845000485384
 40
0.022399410288441
 40
0.0309598270239203
 40
0.0563228448230685
 40
0.1198844474831679
 40
0.195749369889379
 40
0.5558716060100621
 40
0.7769840750939088
 40
0.9999999999999999
 40
0.9999999999999999
 40
0.9999999999999999
 40
0.9999999999999999
 10
174.7614406758214
 20
254.6126384648983
 30
0.0
 10
174.7578574429891
 20
254.6137976532133
 30
0.0
 10
174.7532146492362
 20
254.6152996131808
 30
0.0
 10
174.7099614258274
 20
254.6243474666744
 30
0.0
 10
174.6358662555901
 20
254.6385956717212
 30
0.0
 10
174.4699919754943
 20
254.6699035065768
 30
0.0
 10
174.0905963683229
 20
254.741201193577
 30
0.0
 10
173.4117497813506
 20
254.8732734140284
 30
0.0
 10
171.3202539682959
 20
255.3109395368104
 30
0.0
 10
168.5349784718705
 20
256.0380666746233
 30
0.0
 10
165.1713362266629
 20
257.1641236658215
 30
0.0
 10
163.3520571932497
 20
257.9331405858994
 30
0.0
 10
162.4385191223016
 20
258.3192969812582
 30
0.0
  0
LINE
  5
254
330
1F
100
AcDbEntity
  8
0
  6
Continuous
 62
     7
370
    25
100
AcDbLine
 10
162.4385191223
 20
258.3192969813
 30
0.0
 11
163.6227821465
 21
259.9306016525
 31
0.0
  0
SPLINE
  5
255
330
1F
100
AcDbEntity
  8
0
  6
Continuous
 62
     7
370
    25
100
AcDbSpline
210
0.0
220
0.0
230
1.0
 70
     8
 71
     3
 72
    14
 73
    10
 74
     0
 42
0.00000001
 43
0.00000001
 40
0.0
 40
0.0
 40
0.0
 40
0.0
 40
0.2256458607195969
 40
0.4518169308148938
 40
0.8157761447763445
 40
0.8946140573305364
 40
0.9637846180221658
 40
0.9940799143125663
 40
1.0
 40
1.0
 40
1.0
 40
1.0
 10
163.6227821465281
 20
259.9306016524758
 30
0.0
 10
164.449746617056
 20
259.3574790338765
 30
0.0
 10
166.1056003862117
 20
258.2098998064515
 30
0.0
 10
169.2314491677122
 20
256.5385267808107
 30
0.0
 10
171.8691986051978
 20
255.4959647455489
 30
0.0
 10
173.8011125241434
 20
254.9092977544355
 30
0.0
 10
174.4396068150706
 20
254.7323719343607
 30
0.0
 10
174.7648351517285
 20
254.6458495033739
 30
0.0
 10
174.8565974480526
 20
254.6212327891808
 30
0.0
 10
174.871597722175
 20
254.6172087240072
 30
0.0
  0
SPLINE
  5
256
330
1F
100
AcDbEntity
  8
0
  6
Continuous
 62
     7
370
    25
100
AcDbSpline
210
0.0
220
0.0
230
1.0
 70
     8
 71
     3
 72
    11
 73
     7
 74
     0
 42
0.00000001
 43
0.00000001
 40
0.0
 40
0.0
 40
0.0
 40
0.0
 40
0.0195561212296432
 40
0.1681891996745257
 40
0.5898876540792964
 40
1.0
 40
1.0
 40
1.0
 40
1.0
 10
174.7614406758214
 20
254.6126384648983
 30
0.0
 10
174.7633963319518
 20
254.6125145960171
 30
0.0
 10
174.7802156303978
 20
254.611449282105
 30
0.0
 10
174.8320584822439
 20
254.6088601406452
 30
0.0
 10
174.8813854812132
 20
254.6092929209228
 30
0.0
 10
174.8748298713082
 20
254.6145947389289
 30
0.0
 10
174.871597722175
 20
254.6172087240072
 30
0.0
  0
LINE
  5
257
330
1F
100
AcDbEntity
  8
0
  6
Continuous
 62
     7
370
    25
100
AcDbLine
 10
155.4864402858
 20
257.2396850103
 30
0.0
 11
157.1630701691
 21
259.226353888
 31
0.0
  0
LINE
  5
258
330
1F
100
AcDbEntity
  8
0
  6
Continuous
 62
     7
370
    25
100
AcDbLine
 10
146.1764110025
 20
258.6470259383
 30
0.0
 11
146.1769588505
 21
258.6464201548
 31
0.0
  0
ARC
  5
259
330
1F
100
AcDbEntity
  8
0
  6
Continuous
 62
     7
370
    25
100
AcDbCircle
 10
149.6870286687
 20
250.3678579703
 30
0.0
 40
11.59155496206736
100
AcDbArc
 50
49.8376326145
 51
54.7286069047
  0
LWPOLYLINE
  5
25A
330
1F
100
AcDbEntity
  8
0
  6
Continuous
 62
     7
370
    25
100
AcDbPolyline
 90
        4
 70
   128
 43
0.0
 10
174.8715977222
 20
254.617208724
 10
174.8744217209
 20
254.6344818742
 10
174.8857212061
 20
254.703574199
 10
174.8936923565
 20
254.7522941038
  0
ARC
  5
25B
330
1F
100
AcDbEntity
  8
0
  6
Continuous
 62
     7
370
    25
100
AcDbCircle
 10
182.32386159
 20
285.3752335017
 30
0.0
 40
31.57783498432758
100
AcDbArc
 50
232.9032960505
 51
233.6851734779
  0
LINE
  5
25C
330
1F
100
AcDbEntity
  8
0
  6
Continuous
 62
     7
370
    25
100
AcDbLine
 10
163.2773081952
 20
260.1881640796
 30
0.0
 11
163.3196967444
 21
260.2442184907
 31
0.0
  0
ARC
  5
25D
330
1F
100
AcDbEntity
  8
0
  6
Continuous
 62
     7
370
    25
100
AcDbCircle
 10
182.32386159
 20
285.3752335017
 30
0.0
 40
31.50755777528344
100
AcDbArc
 50
232.9032960505
 51
253.0172282196
  0
LINE
  5
25E
330
1F
100
AcDbEntity
  8
0
  6
Continuous
 62
     7
370
    25
100
AcDbLine
 10
174.8936923565
 20
254.7522941038
 30
0.0
 11
173.121003641
 21
255.2416375907
 31
0.0
  0
LINE
  5
25F
330
1F
100
AcDbEntity
  8
0
  6
Continuous
 62
     7
370
    25
100
AcDbLine
 10
174.6166060649
 20
244.3088526077
 30
0.0
 11
174.5424637516
 21
244.3010201349
 31
0.0
  0
SPLINE
  5
260
330
1F
100
AcDbEntity
  8
0
  6
Continuous
 62
     7
370
    25
100
AcDbSpline
210
0.0
220
0.0
230
1.0
 70
     8
 71
     3
 72
    10
 73
     6
 74
     0
 42
0.00000001
 43
0.00000001
 40
0.0
 40
0.0
 40
0.0
 40
0.0
 40
0.049076908576186
 40
0.5995805843665285
 40
0.9999999999999999
 40
0.9999999999999999
 40
0.9999999999999999
 40
0.9999999999999999
 10
157.1630701691475
 20
259.2263538879747
 30
0.0
 10
157.1815158783409
 20
259.2111030054077
 30
0.0
 10
157.4068701114837
 20
259.0247804894452
 30
0.0
 10
157.8446311355676
 20
258.7758848396497
 30
0.0
 10
158.3043949065147
 20
258.7013861938119
 30
0.0
 10
158.497994517411
 20
258.6700159342179
 30
0.0
  0
ARC
  5
261
330
1F
100
AcDbEntity
  8
0
  6
Continuous
 62
     7
370
    25
100
AcDbCircle
 10
174.9893415786
 20
255.1032259363
 30
0.0
 40
0.5000763405062284
100
AcDbArc
 50
256.3817458053
 51
264.9125955021
  0
SPLINE
  5
262
330
1F
100
AcDbEntity
  8
0
  6
Continuous
 62
     7
370
    25
100
AcDbSpline
210
0.0
220
0.0
230
1.0
 70
     8
 71
     3
 72
     9
 73
     5
 74
     0
 42
0.00000001
 43
0.00000001
 40
0.0
 40
0.0
 40
0.0
 40
0.0
 40
0.8458911907785739
 40
1.0
 40
1.0
 40
1.0
 40
1.0
 10
174.8936923565481
 20
254.7522941038347
 30
0.0
 10
174.9143930649101
 20
254.7477814691312
 30
0.0
 10
174.9388651348262
 20
254.7424466994204
 30
0.0
 10
174.9633657769427
 20
254.7398948846335
 30
0.0
 10
174.9671415417245
 20
254.7395016274951
 30
0.0
  0
LINE
  5
263
330
1F
100
AcDbEntity
  8
0
  6
Continuous
 62
     7
370
    25
100
AcDbLine
 10
192.9165957846
 20
253.0694291689
 30
0.0
 11
192.9161389569
 21
253.0694696744
 31
0.0
  0
LINE
  5
264
330
1F
100
AcDbEntity
  8
0
  6
Continuous
 62
     7
370
    25
100
AcDbLine
 10
162.5869250926
 20
239.6579370321
 30
0.0
 11
160.7157362474
 21
238.7232917028
 31
0.0
  0
LINE
  5
265
330
1F
100
AcDbEntity
  8
0
  6
Continuous
 62
     7
370
    25
100
AcDbLine
 10
160.0385254258
 20
240.604824896
 30
0.0
 11
160.7157362474
 21
238.7232917028
 31
0.0
  0
LINE
  5
266
330
1F
100
AcDbEntity
  8
0
  6
Continuous
 62
     7
370
    25
100
AcDbLine
 10
157.0373478619
 20
240.2262913906
 30
0.0
 11
156.8485431901
 21
238.235529112
 31
0.0
  0
LINE
  5
267
330
1F
100
AcDbEntity
  8
0
  6
Continuous
 62
     7
370
    25
100
AcDbLine
 10
156.8485431901
 20
238.235529112
 30
0.0
 11
155.4134458658
 21
238.4921620673
 31
0.0
  0
ARC
  5
268
330
1F
100
AcDbEntity
  8
0
  6
Continuous
 62
     7
370
    25
100
AcDbCircle
 10
182.32386159
 20
285.3752335017
 30
0.0
 40
33.57753037464037
100
AcDbArc
 50
232.9032960505
 51
233.6851734779
  0
ARC
  5
269
330
1F
100
AcDbEntity
  8
0
  6
Continuous
 62
     7
370
    25
100
AcDbCircle
 10
165.32238281
 20
214.5970248045
 30
0.0
 40
46.10980537323363
100
AcDbArc
 50
100.9333063994
 51
101.1818887889
  0
ARC
  5
26A
330
1F
100
AcDbEntity
  8
0
  6
Continuous
 62
     7
370
    25
100
AcDbCircle
 10
157.891286671
 20
253.0657154547
 30
0.0
 40
6.929946387144298
100
AcDbArc
 50
52.9032960505
 51
100.9333063994
  0
ARC
  5
26B
330
1F
100
AcDbEntity
  8
0
  6
Continuous
 62
     7
370
    25
100
AcDbCircle
 10
157.691650642
 20
247.1252800702
 30
0.0
 40
6.929946387144252
100
AcDbArc
 50
264.5822507961
 51
289.795071751
  0
ARC
  5
26C
330
1F
100
AcDbEntity
  8
0
  6
Continuous
 62
     7
370
    25
100
AcDbCircle
 10
157.691650642
 20
247.1252800702
 30
0.0
 40
8.929641777457032
100
AcDbArc
 50
264.5822507961
 51
289.795071751
  0
LINE
  5
26D
330
1F
100
AcDbEntity
  8
0
  6
Continuous
 62
     7
370
    25
100
AcDbLine
 10
156.5769098669
 20
259.8698737822
 30
0.0
 11
156.1976351814
 21
261.8332719504
 31
0.0
  0
ARC
  5
26E
330
1F
100
AcDbEntity
  8
0
  6
Continuous
 62
     7
370
    25
100
AcDbCircle
 10
157.891286671
 20
253.0657154547
 30
0.0
 40
8.929641777457082
100
AcDbArc
 50
52.9032960505
 51
100.9333063994
  0
LINE
  5
26F
330
1F
100
AcDbEntity
  8
0
  6
Continuous
 62
     7
370
    25
100
AcDbLine
 10
162.0711677158
 20
258.5931697856
 30
0.0
 11
163.2773081952
 21
260.1881640796
 31
0.0
  0
ARC
  5
270
330
1F
100
AcDbEntity
  8
0
  6
Continuous
 62
     7
370
    25
100
AcDbCircle
 10
157.691650642
 20
247.1252800702
 30
0.0
 40
8.999918986501207
100
AcDbArc
 50
255.2171445356
 51
303.2471548844
  0
ARC
  5
271
330
1F
100
AcDbEntity
  8
0
  6
Continuous
 62
     7
370
    25
100
AcDbCircle
 10
157.891286671
 20
253.0657154547
 30
0.0
 40
8.999918986501225
100
AcDbArc
 50
52.9032960505
 51
100.9333063994
  0
SPLINE
  5
272
330
1F
100
AcDbEntity
  8
0
  6
Continuous
 62
     7
370
    25
100
AcDbSpline
210
0.0
220
0.0
230
1.0
 70
     8
 71
     3
 72
    11
 73
     7
 74
     0
 42
0.00000001
 43
0.00000001
 40
0.0
 40
0.0
 40
0.0
 40
0.0
 40
0.264609375767609
 40
0.5349569643242567
 40
0.7653478824379772
 40
0.9999999999999999
 40
0.9999999999999999
 40
0.9999999999999999
 40
0.9999999999999999
 10
149.6652477489842
 20
282.5012772166107
 30
0.0
 10
151.1770325854118
 20
282.9503417036797
 30
0.0
 10
154.2333862178585
 20
283.8582089101665
 30
0.0
 10
158.7617291127216
 20
284.1903025014732
 30
0.0
 10
163.0904648850206
 20
283.7027990226526
 30
0.0
 10
165.7442085944214
 20
282.9042236065924
 30
0.0
 10
167.0832386047794
 20
282.501277216611
 30
0.0
  0
LINE
  5
273
330
1F
100
AcDbEntity
  8
0
  6
Continuous
 62
     7
370
    25
100
AcDbLine
 10
167.0832386048
 20
269.8344387241
 30
0.0
 11
167.0832386048
 21
282.5012772166
 31
0.0
  0
SPLINE
  5
274
330
1F
100
AcDbEntity
  8
0
  6
Continuous
 62
     7
370
    25
100
AcDbSpline
210
0.0
220
0.0
230
1.0
 70
     8
 71
     3
 72
    11
 73
     7
 74
     0
 42
0.00000001
 43
0.00000001
 40
0.0
 40
0.0
 40
0.0
 40
0.0
 40
0.2646093757676088
 40
0.5349569643242564
 40
0.7653478824379792
 40
1.0
 40
1.0
 40
1.0
 40
1.0
 10
167.0832386047796
 20
269.8344387240729
 30
0.0
 10
165.571453768352
 20
269.3853742370038
 30
0.0
 10
162.5151001359054
 20
268.4775070305172
 30
0.0
 10
157.9867572410421
 20
268.1454134392101
 30
0.0
 10
153.6580214687435
 20
268.6329169180311
 30
0.0
 10
151.0042777593425
 20
269.4314923340913
 30
0.0
 10
149.6652477489844
 20
269.8344387240725
 30
0.0
  0
LINE
  5
275
330
1F
100
AcDbEntity
  8
0
  6
Continuous
 62
     7
370
    25
100
AcDbLine
 10
149.665247749
 20
269.8344387241
 30
0.0
 11
149.665247749
 21
282.5012772166
 31
0.0
  0
LINE
  5
276
330
1F
100
AcDbEntity
  8
0
  6
Continuous
 62
     7
370
    25
100
AcDbLine
 10
165.4870286687
 20
269.374744141
 30
0.0
 11
167.1050195245
 21
269.8344387241
 31
0.0
  0
LINE
  5
277
330
1F
100
AcDbEntity
  8
0
  6
Continuous
 62
     7
370
    25
100
AcDbLine
 10
132.2908187327
 20
269.8344387241
 30
0.0
 11
133.9943333688
 21
269.3931130135
 31
0.0
  0
SPLINE
  5
278
330
1F
100
AcDbEntity
  8
0
  6
Continuous
 62
     7
370
    25
100
AcDbSpline
210
0.0
220
0.0
230
1.0
 70
     8
 71
     3
 72
    11
 73
     7
 74
     0
 42
0.00000001
 43
0.00000001
 40
0.0
 40
0.0
 40
0.0
 40
0.0
 40
0.26460937576761
 40
0.5349569643242567
 40
0.7653478824379777
 40
1.0
 40
1.0
 40
1.0
 40
1.0
 10
132.2690378129388
 20
269.8344387240722
 30
0.0
 10
132.270928275764
 20
269.3853742370031
 30
0.0
 10
132.2747501972329
 20
268.4775070305167
 30
0.0
 10
132.2804128177962
 20
268.1454134392097
 30
0.0
 10
132.2858258328364
 20
268.6329169180307
 30
0.0
 10
132.2891442970181
 20
269.4314923340909
 30
0.0
 10
132.2908187326886
 20
269.8344387240722
 30
0.0
  0
SPLINE
  5
279
330
1F
100
AcDbEntity
  8
0
  6
Continuous
 62
     7
370
    25
100
AcDbSpline
210
0.0
220
0.0
230
1.0
 70
     8
 71
     3
 72
    12
 73
     8
 74
     0
 42
0.00000001
 43
0.00000001
 40
0.0
 40
0.0
 40
0.0
 40
0.0
 40
0.1820499033062403
 40
0.3656406087374416
 40
0.614961334899165
 40
0.8710066969717205
 40
1.0
 40
1.0
 40
1.0
 40
1.0
 10
149.6652477489844
 20
269.8344387240725
 30
0.0
 10
148.6296829446896
 20
269.5154748391847
 30
0.0
 10
146.5497887038647
 20
268.8748474786775
 30
0.0
 10
142.9612021939575
 20
268.2648464974023
 30
0.0
 10
138.8896661971553
 20
268.231292623215
 30
0.0
 10
135.1872640157773
 20
268.9161745616116
 30
0.0
 10
133.0013495371646
 20
269.604005726297
 30
0.0
 10
132.2690378129388
 20
269.8344387240722
 30
0.0
  0
SPLINE
  5
27A
330
1F
100
AcDbEntity
  8
0
  6
Continuous
 62
     7
370
    25
100
AcDbSpline
210
0.0
220
0.0
230
1.0
 70
     8
 71
     3
 72
    11
 73
     7
 74
     0
 42
0.00000001
 43
0.00000001
 40
0.0
 40
0.0
 40
0.0
 40
0.0
 40
0.2646093757676108
 40
0.5349569643242568
 40
0.7653478824379781
 40
1.0
 40
1.0
 40
1.0
 40
1.0
 10
167.1050195245293
 20
269.8344387240729
 30
0.0
 10
167.1031290617042
 20
269.3853742370038
 30
0.0
 10
167.0993071402353
 20
268.4775070305171
 30
0.0
 10
167.0936445196722
 20
268.1454134392104
 30
0.0
 10
167.0882315046318
 20
268.6329169180314
 30
0.0
 10
167.0849130404503
 20
269.4314923340917
 30
0.0
 10
167.0832386047796
 20
269.8344387240729
 30
0.0
  0
LINE
  5
27B
330
1F
100
AcDbEntity
  8
0
  6
Continuous
 62
     7
370
    25
100
AcDbLine
 10
132.4057418398
 20
268.2178579703
 30
0.0
 11
166.9683154977
 21
268.2178579703
 31
0.0
  0
LINE
  5
27C
330
1F
100
AcDbEntity
  8
0
  6
Continuous
 62
     7
370
    25
100
AcDbLine
 10
132.2690378129
 20
269.8344387241
 30
0.0
 11
132.2690378129
 21
282.5012772166
 31
0.0
  0
SPLINE
  5
27D
330
1F
100
AcDbEntity
  8
0
  6
Continuous
 62
     7
370
    25
100
AcDbSpline
210
0.0
220
0.0
230
1.0
 70
     8
 71
     3
 72
    12
 73
     8
 74
     0
 42
0.00000001
 43
0.00000001
 40
0.0
 40
0.0
 40
0.0
 40
0.0
 40
0.1289937508738273
 40
0.3786272441489045
 40
0.6343574588057703
 40
0.8162656302547749
 40
1.0
 40
1.0
 40
1.0
 40
1.0
 10
132.2690378129386
 20
282.5012772166103
 30
0.0
 10
133.0013613462555
 20
282.7317156552613
 30
0.0
 10
135.1509045556499
 20
283.4081071112919
 30
0.0
 10
138.8511461475344
 20
284.1002425955052
 30
0.0
 10
142.9139332820343
 20
284.0774402202509
 30
0.0
 10
146.539993196944
 20
283.4632050751949
 30
0.0
 10
148.6200333179107
 20
282.822985692737
 30
0.0
 10
149.6652477489842
 20
282.5012772166107
 30
0.0
  0
LINE
  5
27E
330
1F
100
AcDbEntity
  8
0
  6
Continuous
 62
     7
370
    25
100
AcDbLine
 10
162.9870286687
 20
283.8678579703
 30
0.0
 11
162.6870286687
 21
283.8678579703
 31
0.0
  0
LINE
  5
27F
330
1F
100
AcDbEntity
  8
0
  6
Continuous
 62
     7
370
    25
100
AcDbLine
 10
136.6870286687
 20
283.8678579703
 30
0.0
 11
136.3870286687
 21
283.8678579703
 31
0.0
  0
LINE
  5
280
330
1F
100
AcDbEntity
  8
0
  6
Continuous
 62
     7
370
    25
100
AcDbLine
 10
167.1050195245
 20
269.8344387241
 30
0.0
 11
167.1050195245
 21
282.5012772166
 31
0.0
  0
SPLINE
  5
281
330
1F
100
AcDbEntity
  8
0
  6
Continuous
 62
     7
370
    25
100
AcDbSpline
210
0.0
220
0.0
230
1.0
 70
     8
 71
     3
 72
    11
 73
     7
 74
     0
 42
0.00000001
 43
0.00000001
 40
0.0
 40
0.0
 40
0.0
 40
0.0
 40
0.26460937576761
 40
0.5349569643242567
 40
0.7653478824379784
 40
1.0
 40
1.0
 40
1.0
 40
1.0
 10
167.0832386047794
 20
282.501277216611
 30
0.0
 10
167.0851290676045
 20
282.95034170368
 30
0.0
 10
167.0889509890734
 20
283.8582089101666
 30
0.0
 10
167.0946136096368
 20
284.1903025014739
 30
0.0
 10
167.1000266246769
 20
283.7027990226523
 30
0.0
 10
167.1033450888586
 20
282.9042236065923
 30
0.0
 10
167.1050195245292
 20
282.5012772166111
 30
0.0
  0
SPLINE
  5
282
330
1F
100
AcDbEntity
  8
0
  6
Continuous
 62
     7
370
    25
100
AcDbSpline
210
0.0
220
0.0
230
1.0
 70
     8
 71
     3
 72
    12
 73
     8
 74
     0
 42
0.00000001
 43
0.00000001
 40
0.0
 40
0.0
 40
0.0
 40
0.0
 40
0.1289937508738273
 40
0.378627244148903
 40
0.63435745880577
 40
0.8162656302547752
 40
1.0
 40
1.0
 40
1.0
 40
1.0
 10
-55.88209499676969
 20
269.834438724069
 30
0.0
 10
-56.60260448971938
 20
269.6040002854181
 30
0.0
 10
-58.7174706894433
 20
268.9276088293874
 30
0.0
 10
-62.35801898793245
 20
268.2354733451741
 30
0.0
 10
-66.35526414675297
 20
268.2582757204283
 30
0.0
 10
-69.92282748704851
 20
268.8725108654847
 30
0.0
 10
-71.96931184087616
 20
269.5127302479424
 30
0.0
 10
-72.99766459139562
 20
269.8344387240687
 30
0.0
  0
SPLINE
  5
283
330
1F
100
AcDbEntity
  8
0
  6
Continuous
 62
     7
370
    25
100
AcDbSpline
210
0.0
220
0.0
230
1.0
 70
     8
 71
     3
 72
    11
 73
     7
 74
     0
 42
0.00000001
 43
0.00000001
 40
0.0
 40
0.0
 40
0.0
 40
0.0
 40
0.2646093757676116
 40
0.5349569643242563
 40
0.765347882437978
 40
0.9999999999999999
 40
0.9999999999999999
 40
0.9999999999999999
 40
0.9999999999999999
 10
-38.19740173663988
 20
269.8344387240693
 30
0.0
 10
-39.73233486003416
 20
269.3853742370002
 30
0.0
 10
-42.83548705088045
 20
268.4775070305136
 30
0.0
 10
-47.43316744555706
 20
268.1454134392065
 30
0.0
 10
-51.828184354857
 20
268.6329169180274
 30
0.0
 10
-54.52256190277843
 20
269.4314923340877
 30
0.0
 10
-55.88209499676969
 20
269.834438724069
 30
0.0
  0
SPLINE
  5
284
330
1F
100
AcDbEntity
  8
0
  6
Continuous
 62
     7
370
    25
100
AcDbSpline
210
0.0
220
0.0
230
1.0
 70
     8
 71
     3
 72
    11
 73
     7
 74
     0
 42
0.00000001
 43
0.00000001
 40
0.0
 40
0.0
 40
0.0
 40
0.0
 40
0.2646093757676103
 40
0.5349569643242568
 40
0.7653478824379781
 40
1.0
 40
1.0
 40
1.0
 40
1.0
 10
-37.62827807113606
 20
269.8344387240693
 30
0.0
 10
-37.67767484339779
 20
269.3853742370003
 30
0.0
 10
-37.77753958651164
 20
268.4775070305138
 30
0.0
 10
-37.92550080249343
 20
268.1454134392066
 30
0.0
 10
-38.06693996101201
 20
268.6329169180281
 30
0.0
 10
-38.15364963721438
 20
269.431492334088
 30
0.0
 10
-38.19740173663988
 20
269.8344387240693
 30
0.0
  0
SPLINE
  5
285
330
1F
100
AcDbEntity
  8
0
  6
Continuous
 62
     7
370
    25
100
AcDbSpline
210
0.0
220
0.0
230
1.0
 70
     8
 71
     3
 72
     9
 73
     5
 74
     0
 42
0.00000001
 43
0.00000001
 40
0.0
 40
0.0
 40
0.0
 40
0.0
 40
0.5562029212208732
 40
1.0
 40
1.0
 40
1.0
 40
1.0
 10
-72.99766459139562
 20
269.8344387240687
 30
0.0
 10
-72.94829076010248
 20
269.3639890655606
 30
0.0
 10
-72.85952130311227
 20
268.5181652833421
 30
0.0
 10
-72.76771700021709
 20
268.414148032602
 30
0.0
 10
-72.72697451877286
 20
268.3679854805807
 30
0.0
  0
SPLINE
  5
286
330
1F
100
AcDbEntity
  8
0
  6
Continuous
 62
     7
370
    25
100
AcDbSpline
210
0.0
220
0.0
230
1.0
 70
     8
 71
     3
 72
    11
 73
     7
 74
     0
 42
0.00000001
 43
0.00000001
 40
0.0
 40
0.0
 40
0.0
 40
0.0
 40
0.2646093757676095
 40
0.5349569643242564
 40
0.7653478824379777
 40
1.0
 40
1.0
 40
1.0
 40
1.0
 10
-55.88209499676991
 20
282.5012772166071
 30
0.0
 10
-54.34716187337563
 20
282.9503417036763
 30
0.0
 10
-51.24400968252935
 20
283.8582089101628
 30
0.0
 10
-46.6463292878527
 20
284.1903025014699
 30
0.0
 10
-42.25131237855295
 20
283.7027990226485
 30
0.0
 10
-39.55693483063138
 20
282.9042236065885
 30
0.0
 10
-38.1974017366401
 20
282.5012772166074
 30
0.0
  0
LINE
  5
287
330
1F
100
AcDbEntity
  8
0
  6
Continuous
 62
     7
370
    25
100
AcDbLine
 10
-38.1974017366
 20
269.8344387241
 30
0.0
 11
-38.1974017366
 21
282.5012772166
 31
0.0
  0
LINE
  5
288
330
1F
100
AcDbEntity
  8
0
  6
Continuous
 62
     7
370
    25
100
AcDbLine
 10
-55.8820949968
 20
269.8344387241
 30
0.0
 11
-55.8820949968
 21
282.5012772166
 31
0.0
  0
SPLINE
  5
289
330
1F
100
AcDbEntity
  8
0
  6
Continuous
 62
     7
370
    25
100
AcDbSpline
210
0.0
220
0.0
230
1.0
 70
     8
 71
     3
 72
    11
 73
     7
 74
     0
 42
0.00000001
 43
0.00000001
 40
0.0
 40
0.0
 40
0.0
 40
0.0
 40
0.2646093757676103
 40
0.5349569643242568
 40
0.765347882437978
 40
1.0
 40
1.0
 40
1.0
 40
1.0
 10
-38.1974017366401
 20
282.5012772166074
 30
0.0
 10
-38.14800496437837
 20
282.9503417036765
 30
0.0
 10
-38.04814022126452
 20
283.858208910163
 30
0.0
 10
-37.90017900528269
 20
284.1903025014701
 30
0.0
 10
-37.7587398467642
 20
283.7027990226488
 30
0.0
 10
-37.67203017056178
 20
282.9042236065887
 30
0.0
 10
-37.62827807113628
 20
282.5012772166074
 30
0.0
  0
SPLINE
  5
28A
330
1F
100
AcDbEntity
  8
0
  6
Continuous
 62
     7
370
    25
100
AcDbSpline
210
0.0
220
0.0
230
1.0
 70
     8
 71
     3
 72
    12
 73
     8
 74
     0
 42
0.00000001
 43
0.00000001
 40
0.0
 40
0.0
 40
0.0
 40
0.0
 40
0.1820499033062394
 40
0.3656406087374419
 40
0.6149613348991659
 40
0.8710066969717204
 40
1.0
 40
1.0
 40
1.0
 40
1.0
 10
-72.99766459139583
 20
282.5012772166068
 30
0.0
 10
-71.97880579727853
 20
282.8202411014946
 30
0.0
 10
-69.93246497021485
 20
283.4608684620019
 30
0.0
 10
-66.40177050386495
 20
284.0708694432772
 30
0.0
 10
-62.39591762174388
 20
284.1044233174645
 30
0.0
 10
-58.75324358897282
 20
283.4195413790677
 30
0.0
 10
-56.602592871136
 20
282.7317102143824
 30
0.0
 10
-55.88209499676991
 20
282.5012772166071
 30
0.0
  0
SPLINE
  5
28B
330
1F
100
AcDbEntity
  8
0
  6
Continuous
 62
     7
370
    25
100
AcDbSpline
210
0.0
220
0.0
230
1.0
 70
     8
 71
     3
 72
    11
 73
     7
 74
     0
 42
0.00000001
 43
0.00000001
 40
0.0
 40
0.0
 40
0.0
 40
0.0
 40
0.2646093757676099
 40
0.5349569643242565
 40
0.765347882437978
 40
1.0
 40
1.0
 40
1.0
 40
1.0
 10
-72.428540925892
 20
282.5012772166068
 30
0.0
 10
-72.4779376981537
 20
282.9503417036759
 30
0.0
 10
-72.57780244126766
 20
283.8582089101622
 30
0.0
 10
-72.72576365724942
 20
284.1903025014696
 30
0.0
 10
-72.86720281576802
 20
283.7027990226483
 30
0.0
 10
-72.95391249197039
 20
282.9042236065881
 30
0.0
 10
-72.99766459139583
 20
282.5012772166068
 30
0.0
  0
SPLINE
  5
28C
330
1F
100
AcDbEntity
  8
0
  6
Continuous
 62
     7
370
    25
100
AcDbSpline
210
0.0
220
0.0
230
1.0
 70
     8
 71
     3
 72
     9
 73
     5
 74
     0
 42
0.00000001
 43
0.00000001
 40
0.0
 40
0.0
 40
0.0
 40
0.0
 40
0.0036504154713571
 40
1.0
 40
1.0
 40
1.0
 40
1.0
 10
-68.31297133126613
 20
283.5870122356153
 30
0.0
 10
-68.31808771371237
 20
283.5864386203648
 30
0.0
 10
-69.71967678937033
 20
283.429301643754
 30
0.0
 10
-71.07658549790256
 20
282.9644409628697
 30
0.0
 10
-72.428540925892
 20
282.5012772166068
 30
0.0
  0
SPLINE
  5
28D
330
1F
100
AcDbEntity
  8
0
  6
Continuous
 62
     7
370
    25
100
AcDbSpline
210
0.0
220
0.0
230
1.0
 70
     8
 71
     3
 72
     9
 73
     5
 74
     0
 42
0.00000001
 43
0.00000001
 40
0.0
 40
0.0
 40
0.0
 40
0.0
 40
0.46789250564047
 40
1.0
 40
1.0
 40
1.0
 40
1.0
 10
-37.62827807113628
 20
282.5012772166074
 30
0.0
 10
-38.34756551896565
 20
282.7411052502487
 30
0.0
 10
-39.88485760883312
 20
283.2536760453568
 30
0.0
 10
-41.46967703656399
 20
283.4979929144629
 30
0.0
 10
-42.31297133126613
 20
283.6279957515126
 30
0.0
  0
LINE
  5
28E
330
1F
100
AcDbEntity
  8
0
  6
Continuous
 62
     7
370
    25
100
AcDbLine
 10
-38.016187094
 20
284.1178579703
 30
0.0
 11
-72.6097555685
 21
284.1178579703
 31
0.0
  0
LINE
  5
28F
330
1F
100
AcDbEntity
  8
0
  6
Continuous
 62
     7
370
    25
100
AcDbLine
 10
-72.9976645914
 20
269.8344387241
 30
0.0
 11
-72.9976645914
 21
282.5012772166
 31
0.0
  0
LINE
  5
290
330
1F
100
AcDbEntity
  8
0
  6
Continuous
 62
     7
370
    25
100
AcDbLine
 10
-37.6282780711
 20
269.8344387241
 30
0.0
 11
-37.6282780711
 21
282.5012772166
 31
0.0
  0
LINE
  5
291
330
1F
100
AcDbEntity
  8
0
  6
Continuous
 62
     7
370
    25
100
AcDbLine
 10
-80.6129713313
 20
308.3178579703
 30
0.0
 11
-30.0129713313
 21
308.3178579703
 31
0.0
  0
LINE
  5
292
330
1F
100
AcDbEntity
  8
0
  6
Continuous
 62
     7
370
    25
100
AcDbLine
 10
-30.5129713313
 20
304.3178579703
 30
0.0
 11
-80.1129713313
 21
304.3178579703
 31
0.0
  0
ELLIPSE
  5
293
330
1F
100
AcDbEntity
  8
0
  6
Continuous
 62
     7
370
    25
100
AcDbEllipse
 10
-35.113813787
 20
303.3178579703
 30
0.0
 11
1.759670971157206
 21
0.0
 31
0.0
210
0.0
220
0.0
230
1.0
 40
0.5682880586
 41
1.570796326794913
 42
3.141592653589793
  0
LINE
  5
294
330
1F
100
AcDbEntity
  8
0
  6
Continuous
 62
     7
370
    25
100
AcDbLine
 10
-36.8734847582
 20
303.3178579703
 30
0.0
 11
-45.6522690176
 21
303.3178579703
 31
0.0
  0
ELLIPSE
  5
295
330
1F
100
AcDbEntity
  8
0
  6
Continuous
 62
     7
370
    25
100
AcDbEllipse
 10
-45.7088982381
 20
303.3178579703
 30
0.0
 11
-2.842170943040401E-14
 21
1.0
 31
0.0
210
0.0
220
0.0
230
1.0
 40
0.0566292204
 41
4.712388980384689
 42
6.283185307179586
  0
ELLIPSE
  5
296
330
1F
100
AcDbEntity
  8
0
  6
Continuous
 62
     7
370
    25
100
AcDbEllipse
 10
-45.7088982381
 20
303.3178579703
 30
0.0
 11
1.703041750709041
 21
0.0
 31
0.0
210
0.0
220
0.0
230
1.0
 40
0.5871846651
 41
1.570796326794913
 42
3.141592653589793
  0
LINE
  5
297
330
1F
100
AcDbEntity
  8
0
  6
Continuous
 62
     7
370
    25
100
AcDbLine
 10
-47.4119399888
 20
303.3178579703
 30
0.0
 11
-64.1483848111
 21
303.3178579703
 31
0.0
  0
ELLIPSE
  5
298
330
1F
100
AcDbEntity
  8
0
  6
Continuous
 62
     7
370
    25
100
AcDbEllipse
 10
-65.9080557823
 20
303.3178579703
 30
0.0
 11
1.759670971157206
 21
0.0
 31
0.0
210
0.0
220
0.0
230
1.0
 40
0.5682880586
 41
0.0
 42
1.570796326794913
  0
LINE
  5
299
330
1F
100
AcDbEntity
  8
0
  6
Continuous
 62
     7
370
    25
100
AcDbLine
 10
-45.6522690176
 20
303.3178579703
 30
0.0
 11
-47.4119399888
 21
303.3178579703
 31
0.0
  0
LINE
  5
29A
330
1F
100
AcDbEntity
  8
0
  6
Continuous
 62
     7
370
    25
100
AcDbLine
 10
-64.1483848111
 20
303.3178579703
 30
0.0
 11
-65.8514265618
 21
303.3178579703
 31
0.0
  0
ELLIPSE
  5
29B
330
1F
100
AcDbEntity
  8
0
  6
Continuous
 62
     7
370
    25
100
AcDbEllipse
 10
-65.9080557823
 20
303.3178579703
 30
0.0
 11
-2.842170943040401E-14
 21
1.0
 31
0.0
210
0.0
220
0.0
230
1.0
 40
0.0566292204
 41
4.712388980384689
 42
6.283185307179586
  0
LINE
  5
29C
330
1F
100
AcDbEntity
  8
0
  6
Continuous
 62
     7
370
    25
100
AcDbLine
 10
-65.8514265618
 20
303.3178579703
 30
0.0
 11
-73.8090871248
 21
303.3178579703
 31
0.0
  0
ELLIPSE
  5
29D
330
1F
100
AcDbEntity
  8
0
  6
Continuous
 62
     7
370
    25
100
AcDbEllipse
 10
-75.5121288755
 20
303.3178579703
 30
0.0
 11
1.703041750709048
 21
0.0
 31
0.0
210
0.0
220
0.0
230
1.0
 40
0.5871846651
 41
0.0
 42
1.570796326794913
  0
LINE
  5
29E
330
1F
100
AcDbEntity
  8
0
  6
Continuous
 62
     7
370
    25
100
AcDbLine
 10
-45.6522690176
 20
303.3178579703
 30
0.0
 11
-45.6522690176
 21
290.8453162229
 31
0.0
  0
SPLINE
  5
29F
330
1F
100
AcDbEntity
  8
0
  6
Continuous
 62
     7
370
    25
100
AcDbSpline
210
0.0
220
0.0
230
1.0
 70
     8
 71
     3
 72
    11
 73
     7
 74
     0
 42
0.00000001
 43
0.00000001
 40
0.0
 40
0.0
 40
0.0
 40
0.0
 40
0.1883467346499958
 40
0.5045742105980986
 40
0.8244987390967928
 40
1.0
 40
1.0
 40
1.0
 40
1.0
 10
-45.65226901761915
 20
290.8453162228769
 30
0.0
 10
-45.72757449109152
 20
290.8511076680749
 30
0.0
 10
-45.92931517909255
 20
290.8666227440033
 30
0.0
 10
-46.39935481366772
 20
290.8749269001028
 30
0.0
 10
-46.94430449931591
 20
290.8660940225485
 30
0.0
 10
-47.28961578378122
 20
290.850751284767
 30
0.0
 10
-47.41193998878662
 20
290.8453162228789
 30
0.0
  0
LINE
  5
2A0
330
1F
100
AcDbEntity
  8
0
  6
Continuous
 62
     7
370
    25
100
AcDbLine
 10
-47.4119399888
 20
290.8453162229
 30
0.0
 11
-47.4119399888
 21
303.3178579703
 31
0.0
  0
ARC
  5
2A1
330
1F
100
AcDbEntity
  8
0
  6
Continuous
 62
     7
370
    25
100
AcDbCircle
 10
-46.6797098155
 20
290.8554540504
 30
0.0
 40
1.027490811927283
100
AcDbArc
 50
285.6600875045
 51
359.4346770303
  0
SPLINE
  5
2A2
330
1F
100
AcDbEntity
  8
0
  6
Continuous
 62
     7
370
    25
100
AcDbSpline
210
0.0
220
0.0
230
1.0
 70
     8
 71
     3
 72
    11
 73
     7
 74
     0
 42
0.00000001
 43
0.00000001
 40
0.0
 40
0.0
 40
0.0
 40
0.0
 40
0.175570297168428
 40
0.495427368612586
 40
0.8115831191424503
 40
1.0
 40
1.0
 40
1.0
 40
1.0
 10
-47.29232552479606
 20
289.866103682739
 30
0.0
 10
-47.23060344956223
 20
289.8715385009012
 30
0.0
 10
-47.0564350064282
 20
289.8868745668784
 30
0.0
 10
-46.7809790259282
 20
289.8957179745677
 30
0.0
 10
-46.54300167297096
 20
289.8874034523857
 30
0.0
 10
-46.44059866513079
 20
289.8718948759519
 30
0.0
 10
-46.40235946203605
 20
289.866103682739
 30
0.0
  0
ARC
  5
2A3
330
1F
100
AcDbEntity
  8
0
  6
Continuous
 62
     7
370
    25
100
AcDbCircle
 10
-34.5470133134
 20
291.9199030526
 30
0.0
 40
12.90972792969003
100
AcDbArc
 50
184.77474132
 51
189.1540389589
  0
SPLINE
  5
2A4
330
1F
100
AcDbEntity
  8
0
  6
Continuous
 62
     7
370
    25
100
AcDbSpline
210
0.0
220
0.0
230
1.0
 70
     8
 71
     3
 72
    10
 73
     6
 74
     0
 42
0.00000001
 43
0.00000001
 40
0.0
 40
0.0
 40
0.0
 40
0.0
 40
0.4993920432232372
 40
0.8818015523862031
 40
1.0
 40
1.0
 40
1.0
 40
1.0
 10
-47.29232552479603
 20
289.8661036827392
 30
0.0
 10
-50.10956758449645
 20
289.6553454441626
 30
0.0
 10
-55.08411304512781
 20
289.283199062423
 30
0.0
 10
-60.73988707215685
 20
289.5467713415218
 30
0.0
 10
-63.55645689745263
 20
289.8051078902957
 30
0.0
 10
-64.22147665281037
 20
289.8661036827389
 30
0.0
  0
ARC
  5
2A5
330
1F
100
AcDbEntity
  8
0
  6
Continuous
 62
     7
370
    25
100
AcDbCircle
 10
-51.5218297223
 20
289.4104918961
 30
0.0
 40
12.70781705332991
100
AcDbArc
 50
173.5169777305
 51
177.9453411859
  0
SPLINE
  5
2A6
330
1F
100
AcDbEntity
  8
0
  6
Continuous
 62
     7
370
    25
100
AcDbSpline
210
0.0
220
0.0
230
1.0
 70
     8
 71
     3
 72
     9
 73
     5
 74
     0
 42
0.00000001
 43
0.00000001
 40
0.0
 40
0.0
 40
0.0
 40
0.0
 40
0.5005562931490417
 40
1.0
 40
1.0
 40
1.0
 40
1.0
 10
-64.1483848111206
 20
290.8453162228767
 30
0.0
 10
-61.35586111010208
 20
290.6259675787529
 30
0.0
 10
-55.77702064952075
 20
290.1877578366605
 30
0.0
 10
-50.19823124748171
 20
290.6262927301109
 30
0.0
 10
-47.41193998878662
 20
290.8453162228789
 30
0.0
  0
LINE
  5
2A7
330
1F
100
AcDbEntity
  8
0
  6
Continuous
 62
     7
370
    25
100
AcDbLine
 10
-64.1483848111
 20
303.3178579703
 30
0.0
 11
-64.1483848111
 21
290.8453162229
 31
0.0
  0
SPLINE
  5
2A8
330
1F
100
AcDbEntity
  8
0
  6
Continuous
 62
     7
370
    25
100
AcDbSpline
210
0.0
220
0.0
230
1.0
 70
     8
 71
     3
 72
    10
 73
     6
 74
     0
 42
0.00000001
 43
0.00000001
 40
0.0
 40
0.0
 40
0.0
 40
0.0
 40
0.4890561215099952
 40
0.8793262989674555
 40
1.0
 40
1.0
 40
1.0
 40
1.0
 10
-65.25534302059097
 20
289.8474097537459
 30
0.0
 10
-66.54906593592693
 20
289.6465232465083
 30
0.0
 10
-68.8751887120192
 20
289.2853279129822
 30
0.0
 10
-71.4924935216692
 20
289.5472912360419
 30
0.0
 10
-72.81883568788281
 20
289.8051929685257
 30
0.0
 10
-73.1320885220405
 20
289.8661036827387
 30
0.0
  0
SPLINE
  5
2A9
330
1F
100
AcDbEntity
  8
0
  6
Continuous
 62
     7
370
    25
100
AcDbSpline
210
0.0
220
0.0
230
1.0
 70
     8
 71
     3
 72
    11
 73
     7
 74
     0
 42
0.00000001
 43
0.00000001
 40
0.0
 40
0.0
 40
0.0
 40
0.0
 40
0.1755702971684286
 40
0.4954273686125883
 40
0.8115831191424652
 40
1.0
 40
1.0
 40
1.0
 40
1.0
 10
-65.08280208605183
 20
289.8661036827388
 30
0.0
 10
-65.05029886785158
 20
289.8715385009008
 30
0.0
 10
-64.95858071208089
 20
289.8868745668777
 30
0.0
 10
-64.73672403207733
 20
289.8957179745673
 30
0.0
 10
-64.4643329248481
 20
289.8874034523856
 30
0.0
 10
-64.28750683142847
 20
289.8718948759517
 30
0.0
 10
-64.22147665281037
 20
289.8661036827389
 30
0.0
  0
SPLINE
  5
2AA
330
1F
100
AcDbEntity
  8
0
  6
Continuous
 62
     7
370
    25
100
AcDbSpline
210
0.0
220
0.0
230
1.0
 70
     8
 71
     3
 72
    10
 73
     6
 74
     0
 42
0.00000001
 43
0.00000001
 40
0.0
 40
0.0
 40
0.0
 40
0.0
 40
0.4999493505749384
 40
0.8818990399724898
 40
1.0
 40
1.0
 40
1.0
 40
1.0
 10
-37.5224947700104
 20
289.8661036827393
 30
0.0
 10
-38.99149770141877
 20
289.6551849563677
 30
0.0
 10
-41.58278474566837
 20
289.2831292229513
 30
0.0
 10
-44.56404317803037
 20
289.5470955990373
 30
0.0
 10
-46.05113993165652
 20
289.8051555910969
 30
0.0
 10
-46.40235946203605
 20
289.866103682739
 30
0.0
  0
SPLINE
  5
2AB
330
1F
100
AcDbEntity
  8
0
  6
Continuous
 62
     7
370
    25
100
AcDbSpline
210
0.0
220
0.0
230
1.0
 70
     8
 71
     3
 72
     9
 73
     5
 74
     0
 42
0.00000001
 43
0.00000001
 40
0.0
 40
0.0
 40
0.0
 40
0.0
 40
0.0727884863178727
 40
1.0
 40
1.0
 40
1.0
 40
1.0
 10
-37.41588205918464
 20
289.8825089364952
 30
0.0
 10
-37.41651445578195
 20
289.8823566734041
 30
0.0
 10
-37.42520259630086
 20
289.8802648165901
 30
0.0
 10
-37.46082481197555
 20
289.8729168250746
 30
0.0
 10
-37.49385414049189
 20
289.8661036827393
 30
0.0
  0
SPLINE
  5
2AC
330
1F
100
AcDbEntity
  8
0
  6
Continuous
 62
     7
370
    25
100
AcDbSpline
210
0.0
220
0.0
230
1.0
 70
     8
 71
     3
 72
    11
 73
     7
 74
     0
 42
0.00000001
 43
0.00000001
 40
0.0
 40
0.0
 40
0.0
 40
0.0
 40
0.1883467346483164
 40
0.5045742105936618
 40
0.8244987390895705
 40
1.0
 40
1.0
 40
1.0
 40
1.0
 10
-64.1483848111206
 20
290.8453162228767
 30
0.0
 10
-64.27927818054383
 20
290.8511076680746
 30
0.0
 10
-64.62993686688637
 20
290.866622744003
 30
0.0
 10
-65.16883291846095
 20
290.8749269001025
 30
0.0
 10
-65.6069423446943
 20
290.8660940225483
 30
0.0
 10
-65.78747432090312
 20
290.8507512847654
 30
0.0
 10
-65.85142656185783
 20
290.8453162228768
 30
0.0
  0
LINE
  5
2AD
330
1F
100
AcDbEntity
  8
0
  6
Continuous
 62
     7
370
    25
100
AcDbLine
 10
-65.8514265619
 20
290.8453162229
 30
0.0
 11
-65.8514265618
 21
303.3178579703
 31
0.0
  0
ARC
  5
2AE
330
1F
100
AcDbEntity
  8
0
  6
Continuous
 62
     7
370
    25
100
AcDbCircle
 10
-64.8254405591
 20
290.8593862651
 30
0.0
 40
1.026082474206035
100
AcDbArc
 50
180.7856866483
 51
255.4739867895
  0
ARC
  5
2AF
330
1F
100
AcDbEntity
  8
0
  6
Continuous
 62
     7
370
    25
100
AcDbCircle
 10
-37.7758922612
 20
290.7387366105
 30
0.0
 40
0.9086795447911915
100
AcDbArc
 50
286.1923821461
 51
6.7357638105
  0
SPLINE
  5
2B0
330
1F
100
AcDbEntity
  8
0
  6
Continuous
 62
     7
370
    25
100
AcDbSpline
210
0.0
220
0.0
230
1.0
 70
     8
 71
     3
 72
     9
 73
     5
 74
     0
 42
0.00000001
 43
0.00000001
 40
0.0
 40
0.0
 40
0.0
 40
0.0
 40
0.5000000000003498
 40
1.0
 40
1.0
 40
1.0
 40
1.0
 10
-45.65226901761915
 20
290.8453162228769
 30
0.0
 10
-44.18913830771828
 20
290.626130043878
 30
0.0
 10
-41.26287688791857
 20
290.1877576858805
 30
0.0
 10
-38.33661546811889
 20
290.6261300438777
 30
0.0
 10
-36.87348475822008
 20
290.845316222876
 30
0.0
  0
LINE
  5
2B1
330
1F
100
AcDbEntity
  8
0
  6
Continuous
 62
     7
370
    25
100
AcDbLine
 10
-36.8734847582
 20
290.8453162229
 30
0.0
 11
-36.8734847582
 21
303.3178579703
 31
0.0
  0
ARC
  5
2B2
330
1F
100
AcDbEntity
  8
0
  6
Continuous
 62
     7
370
    25
100
AcDbCircle
 10
-72.8964394261
 20
290.7526591817
 30
0.0
 40
0.9173391679912918
100
AcDbArc
 50
174.202878985
 51
255.1147928552
  0
SPLINE
  5
2B3
330
1F
100
AcDbEntity
  8
0
  6
Continuous
 62
     7
370
    25
100
AcDbSpline
210
0.0
220
0.0
230
1.0
 70
     8
 71
     3
 72
     9
 73
     5
 74
     0
 42
0.00000001
 43
0.00000001
 40
0.0
 40
0.0
 40
0.0
 40
0.0
 40
0.4999999999999593
 40
1.0
 40
1.0
 40
1.0
 40
1.0
 10
-73.80908712476759
 20
290.8453162228765
 30
0.0
 10
-72.48281036428273
 20
290.6261300438775
 30
0.0
 10
-69.83025684331281
 20
290.1877576858795
 30
0.0
 10
-67.17770332234291
 20
290.6261300438777
 30
0.0
 10
-65.85142656185786
 20
290.8453162228767
 30
0.0
  0
LINE
  5
2B4
330
1F
100
AcDbEntity
  8
0
  6
Continuous
 62
     7
370
    25
100
AcDbLine
 10
-73.8090871248
 20
303.3178579703
 30
0.0
 11
-73.8090871248
 21
290.8453162229
 31
0.0
  0
LINE
  5
2B5
330
1F
100
AcDbEntity
  8
0
  6
Continuous
 62
     7
370
    25
100
AcDbLine
 10
174.4870286687
 20
304.3178579703
 30
0.0
 11
124.8870432294
 21
304.3178579703
 31
0.0
  0
LINE
  5
2B6
330
1F
100
AcDbEntity
  8
0
  6
Continuous
 62
     7
370
    25
100
AcDbLine
 10
124.3870286687
 20
308.3178579703
 30
0.0
 11
174.9870138145
 21
308.3178579703
 31
0.0
  0
ELLIPSE
  5
2B7
330
1F
100
AcDbEntity
  8
0
  6
Continuous
 62
     7
370
    25
100
AcDbEllipse
 10
169.8942762262
 20
303.3178579703
 30
0.0
 11
1.733133418487085
 21
0.0
 31
0.0
210
0.0
220
0.0
230
1.0
 40
0.5769896243
 41
1.570796326794897
 42
3.141592653589793
  0
LINE
  5
2B8
330
1F
100
AcDbEntity
  8
0
  6
Continuous
 62
     7
370
    25
100
AcDbLine
 10
168.1611428077
 20
303.3178579703
 30
0.0
 11
159.7738562158
 21
303.3178579703
 31
0.0
  0
ELLIPSE
  5
2B9
330
1F
100
AcDbEntity
  8
0
  6
Continuous
 62
     7
370
    25
100
AcDbEllipse
 10
159.7716889601
 20
303.3178579703
 30
0.0
 11
-2.842170943040401E-14
 21
1.0
 31
0.0
210
0.0
220
0.0
230
1.0
 40
0.0021672557
 41
4.71238898038469
 42
6.283185307179586
  0
LINE
  5
2BA
330
1F
100
AcDbEntity
  8
0
  6
Continuous
 62
     7
370
    25
100
AcDbLine
 10
159.7738562158
 20
303.3178579703
 30
0.0
 11
158.0407227973
 21
303.3178579703
 31
0.0
  0
ELLIPSE
  5
2BB
330
1F
100
AcDbEntity
  8
0
  6
Continuous
 62
     7
370
    25
100
AcDbEllipse
 10
159.7716889601
 20
303.3178579703
 30
0.0
 11
1.730966162790594
 21
0.0
 31
0.0
210
0.0
220
0.0
230
1.0
 40
0.577712044
 41
1.570796326794897
 42
3.141592653589793
  0
LINE
  5
2BC
330
1F
100
AcDbEntity
  8
0
  6
Continuous
 62
     7
370
    25
100
AcDbLine
 10
158.0407227973
 20
303.3178579703
 30
0.0
 11
141.2975748211
 21
303.3178579703
 31
0.0
  0
ELLIPSE
  5
2BD
330
1F
100
AcDbEntity
  8
0
  6
Continuous
 62
     7
370
    25
100
AcDbEllipse
 10
139.5644414027
 20
303.3178579703
 30
0.0
 11
1.733133418487085
 21
0.0
 31
0.0
210
0.0
220
0.0
230
1.0
 40
0.5769896243
 41
0.0
 42
1.570796326794897
  0
LINE
  5
2BE
330
1F
100
AcDbEntity
  8
0
  6
Continuous
 62
     7
370
    25
100
AcDbLine
 10
141.2975748211
 20
303.3178579703
 30
0.0
 11
139.5666086584
 21
303.3178579703
 31
0.0
  0
ELLIPSE
  5
2BF
330
1F
100
AcDbEntity
  8
0
  6
Continuous
 62
     7
370
    25
100
AcDbEllipse
 10
139.5644414027
 20
303.3178579703
 30
0.0
 11
-2.842170943040401E-14
 21
1.0
 31
0.0
210
0.0
220
0.0
230
1.0
 40
0.0021672557
 41
4.71238898038469
 42
6.283185307179586
  0
ELLIPSE
  5
2C0
330
1F
100
AcDbEntity
  8
0
  6
Continuous
 62
     7
370
    25
100
AcDbEllipse
 10
129.4797811113
 20
303.3178579703
 30
0.0
 11
1.730966162790594
 21
0.0
 31
0.0
210
0.0
220
0.0
230
1.0
 40
0.577712044
 41
0.0
 42
1.570796326794897
  0
LINE
  5
2C1
330
1F
100
AcDbEntity
  8
0
  6
Continuous
 62
     7
370
    25
100
AcDbLine
 10
139.5666086584
 20
303.3178579703
 30
0.0
 11
131.2107472741
 21
303.3178579703
 31
0.0
  0
SPLINE
  5
2C2
330
1F
100
AcDbEntity
  8
0
  6
Continuous
 62
     7
370
    25
100
AcDbSpline
210
0.0
220
0.0
230
1.0
 70
     8
 71
     3
 72
    11
 73
     7
 74
     0
 42
0.00000001
 43
0.00000001
 40
0.0
 40
0.0
 40
0.0
 40
0.0
 40
0.1755702971684292
 40
0.4954273686125881
 40
0.8115831191424532
 40
1.0
 40
1.0
 40
1.0
 40
1.0
 10
158.138004773936
 20
289.8661036827427
 30
0.0
 10
158.1996523230382
 20
289.871538500905
 30
0.0
 10
158.3736104670164
 20
289.8868745668818
 30
0.0
 10
158.6463189445157
 20
289.8957179745716
 30
0.0
 10
158.8793844418666
 20
289.8874034523896
 30
0.0
 10
158.9777993205087
 20
289.8718948759554
 30
0.0
 10
159.014549281387
 20
289.8661036827427
 30
0.0
  0
ARC
  5
2C3
330
1F
100
AcDbEntity
  8
0
  6
Continuous
 62
     7
370
    25
100
AcDbCircle
 10
490.7293189993
 20
323.4025419968
 30
0.0
 40
334.2778410139961
100
AcDbArc
 50
185.5892231584
 51
185.75788812
  0
SPLINE
  5
2C4
330
1F
100
AcDbEntity
  8
0
  6
Continuous
 62
     7
370
    25
100
AcDbSpline
210
0.0
220
0.0
230
1.0
 70
     8
 71
     3
 72
    11
 73
     7
 74
     0
 42
0.00000001
 43
0.00000001
 40
0.0
 40
0.0
 40
0.0
 40
0.0
 40
0.188346734648225
 40
0.5045742105933796
 40
0.8244987390890889
 40
1.0
 40
1.0
 40
1.0
 40
1.0
 10
159.7738562158224
 20
290.8453162228807
 30
0.0
 10
159.7015105378268
 20
290.8511076680788
 30
0.0
 10
159.5076990367532
 20
290.8666227440072
 30
0.0
 10
159.0473888317421
 20
290.8749269001063
 30
0.0
 10
158.5078494695236
 20
290.8660940225525
 30
0.0
 10
158.1629139057738
 20
290.8507512847693
 30
0.0
 10
158.040722797306
 20
290.8453162228806
 30
0.0
  0
ARC
  5
2C5
330
1F
100
AcDbEntity
  8
0
  6
Continuous
 62
     7
370
    25
100
AcDbCircle
 10
158.7471486949
 20
290.8574525366
 30
0.0
 40
1.026779247749628
100
AcDbArc
 50
285.0953741522
 51
359.322760227
  0
LINE
  5
2C6
330
1F
100
AcDbEntity
  8
0
  6
Continuous
 62
     7
370
    25
100
AcDbLine
 10
159.7738562158
 20
303.3178579703
 30
0.0
 11
159.7738562158
 21
290.8453162229
 31
0.0
  0
LINE
  5
2C7
330
1F
100
AcDbEntity
  8
0
  6
Continuous
 62
     7
370
    25
100
AcDbLine
 10
158.0407227973
 20
290.8453162229
 30
0.0
 11
158.0407227973
 21
303.3178579703
 31
0.0
  0
SPLINE
  5
2C8
330
1F
100
AcDbEntity
  8
0
  6
Continuous
 62
     7
370
    25
100
AcDbSpline
210
0.0
220
0.0
230
1.0
 70
     8
 71
     3
 72
    10
 73
     6
 74
     0
 42
0.00000001
 43
0.00000001
 40
0.0
 40
0.0
 40
0.0
 40
0.0
 40
0.5005066582626875
 40
0.8819976404752589
 40
1.0
 40
1.0
 40
1.0
 40
1.0
 10
158.138004773936
 20
289.8661036827427
 30
0.0
 10
155.3136468394989
 20
289.6550246528934
 30
0.0
 10
150.336536159937
 20
289.2830591591131
 30
0.0
 10
144.6781164284525
 20
289.5474202753463
 30
0.0
 10
141.8663391330089
 20
289.8052038352822
 30
0.0
 10
141.2020733108331
 20
289.8661036827423
 30
0.0
  0
ARC
  5
2C9
330
1F
100
AcDbEntity
  8
0
  6
Continuous
 62
     7
370
    25
100
AcDbCircle
 10
473.7477015417
 20
257.9275616387
 30
0.0
 40
334.0758376826926
100
AcDbArc
 50
174.3452548254
 51
174.5139918582
  0
SPLINE
  5
2CA
330
1F
100
AcDbEntity
  8
0
  6
Continuous
 62
     7
370
    25
100
AcDbSpline
210
0.0
220
0.0
230
1.0
 70
     8
 71
     3
 72
     9
 73
     5
 74
     0
 42
0.00000001
 43
0.00000001
 40
0.0
 40
0.0
 40
0.0
 40
0.0
 40
0.4994437068503684
 40
1.0
 40
1.0
 40
1.0
 40
1.0
 10
141.2975748211697
 20
290.8453162228802
 30
0.0
 10
144.0849820240804
 20
290.626292730113
 30
0.0
 10
149.6660058004917
 20
290.1877578366647
 30
0.0
 10
155.2470806558948
 20
290.6259675787568
 30
0.0
 10
158.040722797306
 20
290.8453162228806
 30
0.0
  0
LINE
  5
2CB
330
1F
100
AcDbEntity
  8
0
  6
Continuous
 62
     7
370
    25
100
AcDbLine
 10
141.2975748211
 20
303.3178579703
 30
0.0
 11
141.2975748212
 21
290.8453162229
 31
0.0
  0
SPLINE
  5
2CC
330
1F
100
AcDbEntity
  8
0
  6
Continuous
 62
     7
370
    25
100
AcDbSpline
210
0.0
220
0.0
230
1.0
 70
     8
 71
     3
 72
    11
 73
     7
 74
     0
 42
0.00000001
 43
0.00000001
 40
0.0
 40
0.0
 40
0.0
 40
0.0
 40
0.1883467346500179
 40
0.504574210598114
 40
0.8244987390967978
 40
1.0
 40
1.0
 40
1.0
 40
1.0
 10
141.2975748211697
 20
290.8453162228802
 30
0.0
 10
141.1664199918179
 20
290.8511076680782
 30
0.0
 10
140.8150608636165
 20
290.8666227440071
 30
0.0
 10
140.2700572329417
 20
290.8749269001062
 30
0.0
 10
139.8218627984988
 20
290.8660940225512
 30
0.0
 10
139.6333780983827
 20
290.8507512847705
 30
0.0
 10
139.5666086583594
 20
290.8453162228822
 30
0.0
  0
SPLINE
  5
2CD
330
1F
100
AcDbEntity
  8
0
  6
Continuous
 62
     7
370
    25
100
AcDbSpline
210
0.0
220
0.0
230
1.0
 70
     8
 71
     3
 72
    11
 73
     7
 74
     0
 42
0.00000001
 43
0.00000001
 40
0.0
 40
0.0
 40
0.0
 40
0.0
 40
0.1755702971684358
 40
0.4954273686125845
 40
0.811583119142427
 40
1.0
 40
1.0
 40
1.0
 40
1.0
 10
140.3266249083079
 20
289.8661036827423
 30
0.0
 10
140.3605458513584
 20
289.8715385009045
 30
0.0
 10
140.456264568177
 20
289.8868745668814
 30
0.0
 10
140.6832123997443
 20
289.8957179745711
 30
0.0
 10
140.9587029308935
 20
289.8874034523889
 30
0.0
 10
141.1359033514455
 20
289.8718948759551
 30
0.0
 10
141.2020733108331
 20
289.8661036827423
 30
0.0
  0
ARC
  5
2CE
330
1F
100
AcDbEntity
  8
0
  6
Continuous
 62
     7
370
    25
100
AcDbCircle
 10
140.5932610592
 20
290.8576031961
 30
0.0
 40
1.026725923458425
100
AcDbArc
 50
180.6856829998
 51
254.9480022117
  0
LINE
  5
2CF
330
1F
100
AcDbEntity
  8
0
  6
Continuous
 62
     7
370
    25
100
AcDbLine
 10
139.5666086584
 20
290.8453162229
 30
0.0
 11
139.5666086584
 21
303.3178579703
 31
0.0
  0
SPLINE
  5
2D0
330
1F
100
AcDbEntity
  8
0
  6
Continuous
 62
     7
370
    25
100
AcDbSpline
210
0.0
220
0.0
230
1.0
 70
     8
 71
     3
 72
    10
 73
     6
 74
     0
 42
0.00000001
 43
0.00000001
 40
0.0
 40
0.0
 40
0.0
 40
0.0
 40
0.4999493505749385
 40
0.8818990399724878
 40
1.0
 40
1.0
 40
1.0
 40
1.0
 10
140.3266249083079
 20
289.8661036827423
 30
0.0
 10
138.9082928665836
 20
289.6551849563708
 30
0.0
 10
136.4063880945891
 20
289.2831292229543
 30
0.0
 10
133.597113414465
 20
289.5470955990406
 30
0.0
 10
132.2036565477664
 20
289.8051555910999
 30
0.0
 10
131.8745526981799
 20
289.8661036827421
 30
0.0
  0
SPLINE
  5
2D1
330
1F
100
AcDbEntity
  8
0
  6
Continuous
 62
     7
370
    25
100
AcDbSpline
210
0.0
220
0.0
230
1.0
 70
     8
 71
     3
 72
    10
 73
     6
 74
     0
 42
0.00000001
 43
0.00000001
 40
0.0
 40
0.0
 40
0.0
 40
0.0
 40
0.4999493505749388
 40
0.8818990399724892
 40
1.0
 40
1.0
 40
1.0
 40
1.0
 10
167.4984085343619
 20
289.8661036827429
 30
0.0
 10
166.0955395359038
 20
289.6551849563714
 30
0.0
 10
163.6209112130055
 20
289.2831292229551
 30
0.0
 10
160.7717263728057
 20
289.5470955990408
 30
0.0
 10
159.3502667627645
 20
289.8051555911004
 30
0.0
 10
159.014549281387
 20
289.8661036827427
 30
0.0
  0
SPLINE
  5
2D2
330
1F
100
AcDbEntity
  8
0
  6
Continuous
 62
     7
370
    25
100
AcDbSpline
210
0.0
220
0.0
230
1.0
 70
     8
 71
     3
 72
     9
 73
     5
 74
     0
 42
0.00000001
 43
0.00000001
 40
0.0
 40
0.0
 40
0.0
 40
0.0
 40
0.4835383487029637
 40
1.0
 40
1.0
 40
1.0
 40
1.0
 10
167.4984085343619
 20
289.8661036827428
 30
0.0
 10
167.5276700341488
 20
289.8718394192664
 30
0.0
 10
167.5881853994045
 20
289.8837014288441
 30
0.0
 10
167.6019861937649
 20
289.8863645462895
 30
0.0
 10
167.6091137748094
 20
289.8877399443227
 30
0.0
  0
SPLINE
  5
2D3
330
1F
100
AcDbEntity
  8
0
  6
Continuous
 62
     7
370
    25
100
AcDbSpline
210
0.0
220
0.0
230
1.0
 70
     8
 71
     3
 72
     9
 73
     5
 74
     0
 42
0.00000001
 43
0.00000001
 40
0.0
 40
0.0
 40
0.0
 40
0.0
 40
0.6085116260098383
 40
1.0
 40
1.0
 40
1.0
 40
1.0
 10
131.7449356513839
 20
289.8916201356031
 30
0.0
 10
131.7533655398661
 20
289.8899580602255
 30
0.0
 10
131.7672188306199
 20
289.887226682045
 30
0.0
 10
131.8443548452402
 20
289.872046534156
 30
0.0
 10
131.8745526981799
 20
289.8661036827421
 30
0.0
  0
ARC
  5
2D4
330
1F
100
AcDbEntity
  8
0
  6
Continuous
 62
     7
370
    25
100
AcDbCircle
 10
167.253892611
 20
290.7454695052
 30
0.0
 40
0.9127279367080819
100
AcDbArc
 50
285.5390892353
 51
6.280368218
  0
SPLINE
  5
2D5
330
1F
100
AcDbEntity
  8
0
  6
Continuous
 62
     7
370
    25
100
AcDbSpline
210
0.0
220
0.0
230
1.0
 70
     8
 71
     3
 72
     9
 73
     5
 74
     0
 42
0.00000001
 43
0.00000001
 40
0.0
 40
0.0
 40
0.0
 40
0.0
 40
0.4999999999994134
 40
1.0
 40
1.0
 40
1.0
 40
1.0
 10
159.7738562158223
 20
290.8453162228806
 30
0.0
 10
161.1717373144669
 20
290.6261300438816
 30
0.0
 10
163.9674995117595
 20
290.1877576858832
 30
0.0
 10
166.763261709052
 20
290.6261300438827
 30
0.0
 10
168.1611428076998
 20
290.8453162228827
 30
0.0
  0
LINE
  5
2D6
330
1F
100
AcDbEntity
  8
0
  6
Continuous
 62
     7
370
    25
100
AcDbLine
 10
168.1611428077
 20
290.8453162229
 30
0.0
 11
168.1611428077
 21
303.3178579703
 31
0.0
  0
ARC
  5
2D7
330
1F
100
AcDbEntity
  8
0
  6
Continuous
 62
     7
370
    25
100
AcDbCircle
 10
132.1183899295
 20
290.7460024395
 30
0.0
 40
0.9130599199665154
100
AcDbArc
 50
173.755567523
 51
254.5109019979
  0
SPLINE
  5
2D8
330
1F
100
AcDbEntity
  8
0
  6
Continuous
 62
     7
370
    25
100
AcDbSpline
210
0.0
220
0.0
230
1.0
 70
     8
 71
     3
 72
     9
 73
     5
 74
     0
 42
0.00000001
 43
0.00000001
 40
0.0
 40
0.0
 40
0.0
 40
0.0
 40
0.4999999999994122
 40
1.0
 40
1.0
 40
1.0
 40
1.0
 10
131.2107472740809
 20
290.84531622288
 30
0.0
 10
132.6033908381257
 20
290.6261300438813
 30
0.0
 10
135.3886779662187
 20
290.1877576858829
 30
0.0
 10
138.1739650943113
 20
290.6261300438821
 30
0.0
 10
139.5666086583594
 20
290.8453162228822
 30
0.0
  0
LINE
  5
2D9
330
1F
100
AcDbEntity
  8
0
  6
Continuous
 62
     7
370
    25
100
AcDbLine
 10
131.2107472741
 20
303.3178579703
 30
0.0
 11
131.2107472741
 21
290.8453162229
 31
0.0
  0
ARC
  5
2DA
330
1F
100
AcDbEntity
  8
0
  6
Continuous
 62
     7
370
    25
100
AcDbCircle
 10
149.6870286687
 20
250.3678579703
 30
0.0
 40
10.30000000000002
100
AcDbArc
 50
199.9280483469
 51
214.4663264937
  0
SPLINE
  5
2DB
330
1F
100
AcDbEntity
  8
0
  6
Continuous
 62
     7
370
    25
100
AcDbSpline
210
0.0
220
0.0
230
1.0
 70
    24
 71
     3
 72
    13
 73
     9
 74
     0
 42
0.00000001
 43
0.00000001
 40
0.0
 40
0.0
 40
0.0
 40
0.0
 40
0.0295448902054207
 40
0.2606471239688238
 40
0.4913152552054776
 40
0.730868263847869
 40
0.9709134921287332
 40
1.0
 40
1.0
 40
1.0
 40
1.0
 10
140.003778389798
 20
246.857207883039
 30
0.0
 10
140.0074557242499
 20
246.9323208797565
 30
0.0
 10
140.0398974304837
 20
247.5949730822521
 30
0.0
 10
140.1029603792251
 20
248.8830928124217
 30
0.0
 10
140.196070968183
 20
250.7849637067728
 30
0.0
 10
140.2905244617366
 20
252.7142646839207
 30
0.0
 10
140.3558911994651
 20
254.049441459591
 30
0.0
 10
140.3893877689501
 20
254.7336402309313
 30
0.0
 10
140.3930079225815
 20
254.8075852558942
 30
0.0
  0
ARC
  5
2DC
330
1F
100
AcDbEntity
  8
0
  6
Continuous
 62
     7
370
    25
100
AcDbCircle
 10
149.6870286687
 20
250.3678579703
 30
0.0
 40
10.30000000000004
100
AcDbArc
 50
139.9280483469
 51
154.4663264937
  0
SPLINE
  5
2DD
330
1F
100
AcDbEntity
  8
0
  6
Continuous
 62
     7
370
    25
100
AcDbSpline
210
0.0
220
0.0
230
1.0
 70
    24
 71
     3
 72
    11
 73
     7
 74
     0
 42
0.00000001
 43
0.00000001
 40
0.0
 40
0.0
 40
0.0
 40
0.0
 40
0.2431641197380936
 40
0.4936284730588973
 40
0.7421706076863339
 40
1.0
 40
1.0
 40
1.0
 40
1.0
 10
141.805091369864
 20
256.9984736594518
 30
0.0
 10
142.3632302364308
 20
257.2852834399865
 30
0.0
 10
143.4962643236761
 20
257.8675135575559
 30
0.0
 10
145.2936226493445
 20
258.7911187350593
 30
0.0
 10
147.1289033706795
 20
259.7342110234418
 30
0.0
 10
148.2924774386163
 20
260.3321346640468
 30
0.0
 10
148.8849349108214
 20
260.6365796825858
 30
0.0
  0
ARC
  5
2DE
330
1F
100
AcDbEntity
  8
0
  6
Continuous
 62
     7
370
    25
100
AcDbCircle
 10
149.6870286687
 20
250.3678579703
 30
0.0
 40
10.29999999999998
100
AcDbArc
 50
82.8673793136
 51
94.4663264937
  0
ARC
  5
2DF
330
1F
100
AcDbEntity
  8
0
  6
Continuous
 62
     7
370
    25
100
AcDbCircle
 10
149.6870286687
 20
250.3678579703
 30
0.0
 40
10.30000000000001
100
AcDbArc
 50
259.9280483469
 51
273.2830716215
  0
SPLINE
  5
2E0
330
1F
100
AcDbEntity
  8
0
  6
Continuous
 62
     7
370
    25
100
AcDbSpline
210
0.0
220
0.0
230
1.0
 70
    24
 71
     3
 72
    11
 73
     7
 74
     0
 42
0.00000001
 43
0.00000001
 40
0.0
 40
0.0
 40
0.0
 40
0.0
 40
0.2431641197380875
 40
0.4936284730588945
 40
0.7421706076863298
 40
1.0
 40
1.0
 40
1.0
 40
1.0
 10
147.8857156886685
 20
240.2265921939287
 30
0.0
 10
147.3582616993883
 20
240.5665497409477
 30
0.0
 10
146.2875185831024
 20
241.2566709850713
 30
0.0
 10
144.5889738734829
 20
242.3514263660512
 30
0.0
 10
142.8545916329633
 20
243.4692799496122
 30
0.0
 10
141.7549875367075
 20
244.1780028313279
 30
0.0
 10
141.1951016804945
 20
244.5388635436499
 30
0.0
  0
ARC
  5
2E1
330
1F
100
AcDbEntity
  8
0
  6
Continuous
 62
     7
370
    25
100
AcDbCircle
 10
-55.3129713313
 20
250.3678579703
 30
0.0
 40
10.30000000000003
100
AcDbArc
 50
356.7363618434
 51
11.2746399902
  0
SPLINE
  5
2E2
330
1F
100
AcDbEntity
  8
0
  6
Continuous
 62
     7
370
    25
100
AcDbSpline
210
0.0
220
0.0
230
1.0
 70
    24
 71
     3
 72
    13
 73
     9
 74
     0
 42
0.00000001
 43
0.00000001
 40
0.0
 40
0.0
 40
0.0
 40
0.0
 40
0.0295448902054277
 40
0.2606471239688225
 40
0.4913152552054801
 40
0.7308682638478772
 40
0.9709134921287357
 40
1.0
 40
1.0
 40
1.0
 40
1.0
 10
-45.02967641049363
 20
249.7814745015859
 30
0.0
 10
-45.06263672834013
 20
249.7138793648377
 30
0.0
 10
-45.35341499801893
 20
249.1175502580036
 30
0.0
 10
-45.91865453825977
 20
247.958355003999
 30
0.0
 10
-46.75321409413139
 20
246.2468373066735
 30
0.0
 10
-47.5998102387033
 20
244.5106349305485
 30
0.0
 10
-48.18569887090446
 20
243.3090924455103
 30
0.0
 10
-48.48593198579842
 20
242.6933733085731
 30
0.0
 10
-48.51837978621187
 20
242.6268292443944
 30
0.0
  0
ARC
  5
2E3
330
1F
100
AcDbEntity
  8
0
  6
Continuous
 62
     7
370
    25
100
AcDbCircle
 10
-55.3129713313
 20
250.3678579703
 30
0.0
 40
10.30000000000003
100
AcDbArc
 50
296.7363618434
 51
311.2746399902
  0
SPLINE
  5
2E4
330
1F
100
AcDbEntity
  8
0
  6
Continuous
 62
     7
370
    25
100
AcDbSpline
210
0.0
220
0.0
230
1.0
 70
    24
 71
     3
 72
     9
 73
     5
 74
     0
 42
0.00000001
 43
0.00000001
 40
0.0
 40
0.0
 40
0.0
 40
0.0
 40
0.5117775781475451
 40
0.9999999999999999
 40
0.9999999999999999
 40
0.9999999999999999
 40
0.9999999999999999
 10
-50.67914685117822
 20
241.1690715999659
 30
0.0
 10
-51.30487454611388
 20
241.1252560873947
 30
0.0
 10
-52.52753009347208
 20
241.03964172201
 30
0.0
 10
-53.81799066636417
 20
240.9492794255802
 30
0.0
 10
-54.4480224525666
 20
240.9051625263732
 30
0.0
  0
SPLINE
  5
2E5
330
1F
100
AcDbEntity
  8
0
  6
Continuous
 62
     7
370
    25
100
AcDbSpline
210
0.0
220
0.0
230
1.0
 70
    24
 71
     3
 72
     9
 73
     5
 74
     0
 42
0.00000001
 43
0.00000001
 40
0.0
 40
0.0
 40
0.0
 40
0.0
 40
0.2427511950105716
 40
1.0
 40
1.0
 40
1.0
 40
1.0
 10
-54.68691857214983
 20
259.9349582561118
 30
0.0
 10
-54.4631571198376
 20
259.950626769438
 30
0.0
 10
-53.54138430507335
 20
260.0151723356325
 30
0.0
 10
-52.66783428471503
 20
260.0763411830532
 30
0.0
 10
-52.00633957570022
 20
260.1226612196652
 30
0.0
  0
ARC
  5
2E6
330
1F
100
AcDbEntity
  8
0
  6
Continuous
 62
     7
370
    25
100
AcDbCircle
 10
-55.3129713313
 20
250.3678579703
 30
0.0
 40
10.29999999999998
100
AcDbArc
 50
56.7363618434
 51
71.2746399902
  0
SPLINE
  5
2E7
330
1F
100
AcDbEntity
  8
0
  6
Continuous
 62
     7
370
    25
100
AcDbSpline
210
0.0
220
0.0
230
1.0
 70
    24
 71
     3
 72
    11
 73
     7
 74
     0
 42
0.00000001
 43
0.00000001
 40
0.0
 40
0.0
 40
0.0
 40
0.0
 40
0.2431641197380878
 40
0.4936284730588954
 40
0.7421706076863348
 40
1.0
 40
1.0
 40
1.0
 40
1.0
 10
-49.66350089058106
 20
258.9802608719579
 30
0.0
 10
-49.31254733050513
 20
258.4600585620313
 30
0.0
 10
-48.60010393975542
 20
257.404036513189
 30
0.0
 10
-47.46993841839434
 20
255.7288441752504
 30
0.0
 10
-46.31592757723352
 20
254.0183070172228
 30
0.0
 10
-45.58428087420721
 20
252.9338207823999
 30
0.0
 10
-45.21174803064648
 20
252.3816324937218
 30
0.0
  0
LINE
  5
2E8
330
1F
100
AcDbEntity
  8
0
  6
Continuous
 62
     7
370
    25
100
AcDbLine
 10
-54.6319119068
 20
240.6416738234
 30
0.0
 11
-54.9736791348
 21
240.6237633071
 31
0.0
  0
LWPOLYLINE
  5
2E9
330
1F
100
AcDbEntity
  8
0
  6
Continuous
 62
     7
370
    25
100
AcDbPolyline
 90
        3
 70
   128
 43
0.0
 10
-52.5257709747
 20
241.0247313966
 10
-52.8035270852
 20
240.9463299851
 10
-54.6319119068
 20
240.6416738234
  0
ARC
  5
2EA
330
1F
100
AcDbEntity
  8
0
  6
Continuous
 62
     7
370
    25
100
AcDbCircle
 10
-55.3129713313
 20
250.3678579703
 30
0.0
 40
14.87499999999998
100
AcDbArc
 50
232.5576060541
 51
94.0055009168
  0
ARC
  5
2EB
330
1F
100
AcDbEntity
  8
0
  6
Continuous
 62
     7
370
    25
100
AcDbCircle
 10
-55.3129713313
 20
250.3678579703
 30
0.0
 40
14.87500000000002
100
AcDbArc
 50
94.0055009168
 51
125.7901119666
  0
ARC
  5
2EC
330
1F
100
AcDbEntity
  8
0
  6
Continuous
 62
     7
370
    25
100
AcDbCircle
 10
-55.3129713313
 20
250.3678579703
 30
0.0
 40
10.57500000000001
100
AcDbArc
 50
260.8247607777
 51
97.5229572563
  0
SPLINE
  5
2ED
330
1F
100
AcDbEntity
  8
0
  6
Continuous
 62
     7
370
    25
100
AcDbSpline
210
0.0
220
0.0
230
1.0
 70
     8
 71
     3
 72
     9
 73
     5
 74
     0
 42
0.00000001
 43
0.00000001
 40
0.0
 40
0.0
 40
0.0
 40
0.0
 40
0.5850553834534072
 40
1.0
 40
1.0
 40
1.0
 40
1.0
 10
-48.29926251980909
 20
234.569190662363
 30
0.0
 10
-47.83796512441788
 20
234.6332682590138
 30
0.0
 10
-47.04949721447688
 20
234.7427922433459
 30
0.0
 10
-46.32524857988546
 20
235.1371065954416
 30
0.0
 10
-46.02472550792053
 20
235.3007252130708
 30
0.0
  0
SPLINE
  5
2EE
330
1F
100
AcDbEntity
  8
0
  6
Continuous
 62
     7
370
    25
100
AcDbSpline
210
0.0
220
0.0
230
1.0
 70
    24
 71
     3
 72
    11
 73
     7
 74
     0
 42
0.00000001
 43
0.00000001
 40
0.0
 40
0.0
 40
0.0
 40
0.0
 40
0.2379053903768481
 40
0.481490514130317
 40
0.7366519444348043
 40
1.0
 40
1.0
 40
1.0
 40
1.0
 10
-60.05648206130476
 20
233.7459114551429
 30
0.0
 10
-59.14524911459185
 20
233.8097189850877
 30
0.0
 10
-57.30102852206853
 20
233.9388573806066
 30
0.0
 10
-54.35558863759773
 20
234.1451067752396
 30
0.0
 10
-51.29880680478066
 20
234.3591526995405
 30
0.0
 10
-49.30957976197478
 20
234.498444923948
 30
0.0
 10
-48.29926251980909
 20
234.569190662363
 30
0.0
  0
SPLINE
  5
2EF
330
1F
100
AcDbEntity
  8
0
  6
Continuous
 62
     7
370
    25
100
AcDbSpline
210
0.0
220
0.0
230
1.0
 70
     8
 71
     3
 72
     9
 73
     5
 74
     0
 42
0.00000001
 43
0.00000001
 40
0.0
 40
0.0
 40
0.0
 40
0.0
 40
0.5841917497409886
 40
1.0
 40
1.0
 40
1.0
 40
1.0
 10
-62.41077164055811
 20
234.1533203337167
 30
0.0
 10
-61.95416109217097
 20
233.9937435948407
 30
0.0
 10
-61.17255034777144
 20
233.7205854426645
 30
0.0
 10
-60.38425978210865
 20
233.7384734670307
 30
0.0
 10
-60.05648206130476
 20
233.7459114551429
 30
0.0
  0
ARC
  5
2F0
330
1F
100
AcDbEntity
  8
0
  6
Continuous
 62
     7
370
    25
100
AcDbCircle
 10
-55.3129713313
 20
250.3678579703
 30
0.0
 40
17.70000000000002
100
AcDbArc
 50
241.6520644894
 51
246.3589373442
  0
SPLINE
  5
2F1
330
1F
100
AcDbEntity
  8
0
  6
Continuous
 62
     7
370
    25
100
AcDbSpline
210
0.0
220
0.0
230
1.0
 70
     8
 71
     3
 72
     9
 73
     5
 74
     0
 42
0.00000001
 43
0.00000001
 40
0.0
 40
0.0
 40
0.0
 40
0.0
 40
0.5850553834536304
 40
1.0
 40
1.0
 40
1.0
 40
1.0
 10
-65.48816416018153
 20
236.394474310881
 30
0.0
 10
-65.20202263597282
 20
236.0270178460981
 30
0.0
 10
-64.71293812824707
 20
235.3989465981871
 30
0.0
 10
-64.00932756496017
 20
234.968886058023
 30
0.0
 10
-63.71736814957909
 20
234.7904347520929
 30
0.0
  0
SPLINE
  5
2F2
330
1F
100
AcDbEntity
  8
0
  6
Continuous
 62
     7
370
    25
100
AcDbSpline
210
0.0
220
0.0
230
1.0
 70
    24
 71
     3
 72
     9
 73
     5
 74
     0
 42
0.00000001
 43
0.00000001
 40
0.0
 40
0.0
 40
0.0
 40
0.0
 40
0.2293586310767405
 40
1.0
 40
1.0
 40
1.0
 40
1.0
 10
-67.77303981010088
 20
239.781240328373
 30
0.0
 10
-67.59381548338541
 20
239.5155843574455
 30
0.0
 10
-66.81240025661103
 20
238.3573285304017
 30
0.0
 10
-66.06451527003418
 20
237.2487730352173
 30
0.0
 10
-65.48816416018153
 20
236.394474310881
 30
0.0
  0
LINE
  5
2F3
330
1F
100
AcDbEntity
  8
0
  6
Continuous
 62
     7
370
    25
100
AcDbLine
 10
-67.3362439088
 20
262.7868320233
 30
0.0
 11
-68.1731395335
 21
261.0705235076
 31
0.0
  0
SPLINE
  5
2F4
330
1F
100
AcDbEntity
  8
0
  6
Continuous
 62
     7
370
    25
100
AcDbSpline
210
0.0
220
0.0
230
1.0
 70
     8
 71
     3
 72
     9
 73
     5
 74
     0
 42
0.00000001
 43
0.00000001
 40
0.0
 40
0.0
 40
0.0
 40
0.0
 40
0.5841917497409113
 40
1.0
 40
1.0
 40
1.0
 40
1.0
 10
-65.80627268055225
 20
264.6220021674851
 30
0.0
 10
-66.17277546446543
 20
264.3063542023839
 30
0.0
 10
-66.80014273570087
 20
263.7660385179511
 30
0.0
 10
-67.1787965350076
 20
263.0744148503403
 30
0.0
 10
-67.33624390875131
 20
262.7868320232733
 30
0.0
  0
ARC
  5
2F5
330
1F
100
AcDbEntity
  8
0
  6
Continuous
 62
     7
370
    25
100
AcDbCircle
 10
-55.3129713313
 20
250.3678579703
 30
0.0
 40
17.70000000000001
100
AcDbArc
 50
121.6520644894
 51
126.3589373442
  0
SPLINE
  5
2F6
330
1F
100
AcDbEntity
  8
0
  6
Continuous
 62
     7
370
    25
100
AcDbSpline
210
0.0
220
0.0
230
1.0
 70
     8
 71
     3
 72
     9
 73
     5
 74
     0
 42
0.00000001
 43
0.00000001
 40
0.0
 40
0.0
 40
0.0
 40
0.0
 40
0.5850553834536183
 40
1.0
 40
1.0
 40
1.0
 40
1.0
 10
-62.32668014272372
 20
266.166525278313
 30
0.0
 10
-62.78797753811482
 20
266.1024476816619
 30
0.0
 10
-63.57644544805527
 20
265.9929236973296
 30
0.0
 10
-64.30069408264607
 20
265.5986093452343
 30
0.0
 10
-64.60121715461065
 20
265.4349907276052
 30
0.0
  0
SPLINE
  5
2F7
330
1F
100
AcDbEntity
  8
0
  6
Continuous
 62
     7
370
    25
100
AcDbSpline
210
0.0
220
0.0
230
1.0
 70
    24
 71
     3
 72
    11
 73
     7
 74
     0
 42
0.00000001
 43
0.00000001
 40
0.0
 40
0.0
 40
0.0
 40
0.0
 40
0.2556279644380972
 40
0.5185037642963862
 40
0.7560467972580095
 40
1.0
 40
1.0
 40
1.0
 40
1.0
 10
-50.56946060122672
 20
266.9898044855331
 30
0.0
 10
-51.54964664212092
 20
266.9211686329978
 30
0.0
 10
-53.53780999909771
 20
266.7819508913727
 30
0.0
 10
-56.570805120814
 20
266.5695705908695
 30
0.0
 10
-59.546949080338
 20
266.3611711958488
 30
0.0
 10
-61.39191576151007
 20
266.2319805567474
 30
0.0
 10
-62.32668014272375
 20
266.1665252783129
 30
0.0
  0
SPLINE
  5
2F8
330
1F
100
AcDbEntity
  8
0
  6
Continuous
 62
     7
370
    25
100
AcDbSpline
210
0.0
220
0.0
230
1.0
 70
     8
 71
     3
 72
     9
 73
     5
 74
     0
 42
0.00000001
 43
0.00000001
 40
0.0
 40
0.0
 40
0.0
 40
0.0
 40
0.5841917497409178
 40
1.0
 40
1.0
 40
1.0
 40
1.0
 10
-48.21517102197312
 20
266.5823956069593
 30
0.0
 10
-48.67178157036023
 20
266.7419723458353
 30
0.0
 10
-49.45339231475987
 20
267.0151304980115
 30
0.0
 10
-50.24168288042269
 20
266.9972424736454
 30
0.0
 10
-50.56946060122672
 20
266.9898044855331
 30
0.0
  0
ARC
  5
2F9
330
1F
100
AcDbEntity
  8
0
  6
Continuous
 62
     7
370
    25
100
AcDbCircle
 10
-55.3129713313
 20
250.3678579703
 30
0.0
 40
17.7
100
AcDbArc
 50
61.6520644894
 51
66.3589373442
  0
SPLINE
  5
2FA
330
1F
100
AcDbEntity
  8
0
  6
Continuous
 62
     7
370
    25
100
AcDbSpline
210
0.0
220
0.0
230
1.0
 70
     8
 71
     3
 72
     9
 73
     5
 74
     0
 42
0.00000001
 43
0.00000001
 40
0.0
 40
0.0
 40
0.0
 40
0.0
 40
0.58505538345363
 40
1.0
 40
1.0
 40
1.0
 40
1.0
 10
-45.1377785023497
 20
264.341241629795
 30
0.0
 10
-45.4239200265584
 20
264.7086980945779
 30
0.0
 10
-45.91300453428416
 20
265.3367693424888
 30
0.0
 10
-46.61661509757104
 20
265.766829882653
 30
0.0
 10
-46.90857451295214
 20
265.9452811885831
 30
0.0
  0
SPLINE
  5
2FB
330
1F
100
AcDbEntity
  8
0
  6
Continuous
 62
     7
370
    25
100
AcDbSpline
210
0.0
220
0.0
230
1.0
 70
    24
 71
     3
 72
    11
 73
     7
 74
     0
 42
0.00000001
 43
0.00000001
 40
0.0
 40
0.0
 40
0.0
 40
0.0
 40
0.2328716322111434
 40
0.4710265024313214
 40
0.731142121256028
 40
1.0
 40
1.0
 40
1.0
 40
1.0
 10
-38.54618802374099
 20
254.5708304325979
 30
0.0
 10
-39.04609734063919
 20
255.31182300537
 30
0.0
 10
-40.05725758731909
 20
256.810619301709
 30
0.0
 10
-41.69462442855959
 20
259.2376128128336
 30
0.0
 10
-43.42115394178445
 20
261.7967680490469
 30
0.0
 10
-44.55930032806879
 20
263.4837900557523
 30
0.0
 10
-45.1377785023497
 20
264.341241629795
 30
0.0
  0
SPLINE
  5
2FC
330
1F
100
AcDbEntity
  8
0
  6
Continuous
 62
     7
370
    25
100
AcDbSpline
210
0.0
220
0.0
230
1.0
 70
     8
 71
     3
 72
     9
 73
     5
 74
     0
 42
0.00000001
 43
0.00000001
 40
0.0
 40
0.0
 40
0.0
 40
0.0
 40
0.5841917497409337
 40
1.0
 40
1.0
 40
1.0
 40
1.0
 10
-37.72186967268645
 20
252.3282514098123
 30
0.0
 10
-37.8119774371603
 20
252.8034761137895
 30
0.0
 10
-37.96622091032453
 20
253.6169499503986
 30
0.0
 10
-38.3758576766807
 20
254.2906855936432
 30
0.0
 10
-38.54618802374096
 20
254.570830432598
 30
0.0
  0
ARC
  5
2FD
330
1F
100
AcDbEntity
  8
0
  6
Continuous
 62
     7
370
    25
100
AcDbCircle
 10
-55.3129713313
 20
250.3678579703
 30
0.0
 40
17.70000000000001
100
AcDbArc
 50
1.6520644894
 51
6.3589373442
  0
SPLINE
  5
2FE
330
1F
100
AcDbEntity
  8
0
  6
Continuous
 62
     7
370
    25
100
AcDbSpline
210
0.0
220
0.0
230
1.0
 70
     8
 71
     3
 72
     9
 73
     5
 74
     0
 42
0.00000001
 43
0.00000001
 40
0.0
 40
0.0
 40
0.0
 40
0.0
 40
0.5850553834536127
 40
1.0
 40
1.0
 40
1.0
 40
1.0
 10
-38.1240696908916
 20
248.54257432182
 30
0.0
 10
-37.94891381970922
 20
248.9741083832538
 30
0.0
 10
-37.64953041749444
 20
249.7117036154973
 30
0.0
 10
-37.62889234619055
 20
250.5360785077567
 30
0.0
 10
-37.62032868960705
 20
250.878148431316
 30
0.0
  0
SPLINE
  5
2FF
330
1F
100
AcDbEntity
  8
0
  6
Continuous
 62
     7
370
    25
100
AcDbSpline
210
0.0
220
0.0
230
1.0
 70
    24
 71
     3
 72
    11
 73
     7
 74
     0
 42
0.00000001
 43
0.00000001
 40
0.0
 40
0.0
 40
0.0
 40
0.0
 40
0.2328716322111489
 40
0.4710265024313289
 40
0.7311421212560318
 40
1.0
 40
1.0
 40
1.0
 40
1.0
 10
-43.28969875377989
 20
237.9488839174028
 30
0.0
 10
-42.89793502019263
 20
238.7523143718112
 30
0.0
 10
-42.10551947580496
 20
240.3774029809024
 30
0.0
 10
-40.82236486097118
 20
243.0089010162932
 30
0.0
 10
-39.46933617079517
 20
245.7836970532361
 30
0.0
 10
-38.57740544938715
 20
247.6128717403364
 30
0.0
 10
-38.1240696908916
 20
248.54257432182
 30
0.0
  0
SPLINE
  5
300
330
1F
100
AcDbEntity
  8
0
  6
Continuous
 62
     7
370
    25
100
AcDbSpline
210
0.0
220
0.0
230
1.0
 70
     8
 71
     3
 72
     9
 73
     5
 74
     0
 42
0.00000001
 43
0.00000001
 40
0.0
 40
0.0
 40
0.0
 40
0.0
 40
0.5841917497409014
 40
1.0
 40
1.0
 40
1.0
 40
1.0
 10
-44.81966998197892
 20
236.1137137731911
 30
0.0
 10
-44.45316719806569
 20
236.4293617382923
 30
0.0
 10
-43.82579992683031
 20
236.969677422725
 30
0.0
 10
-43.44714612752354
 20
237.6613010903358
 30
0.0
 10
-43.28969875377989
 20
237.9488839174028
 30
0.0
  0
ARC
  5
301
330
1F
100
AcDbEntity
  8
0
  6
Continuous
 62
     7
370
    25
100
AcDbCircle
 10
-55.3129713313
 20
250.3678579703
 30
0.0
 40
17.70000000000009
100
AcDbArc
 50
301.6520644894
 51
306.3589373442
  0
ARC
  5
302
330
1F
100
AcDbEntity
  8
0
  6
Continuous
 62
     7
370
    25
100
AcDbCircle
 10
-55.3129713313
 20
250.3678579703
 30
0.0
 40
16.19999999999999
100
AcDbArc
 50
274.0055009168
 51
135.248782845
  0
ARC
  5
303
330
1F
100
AcDbEntity
  8
0
  6
Continuous
 62
     7
370
    25
100
AcDbCircle
 10
-55.3129713313
 20
250.3678579703
 30
0.0
 40
16.20000000000003
100
AcDbArc
 50
223.0989351841
 51
274.0055009168
  0
LINE
  5
304
330
1F
100
AcDbEntity
  8
0
  6
Continuous
 62
     7
370
    25
100
AcDbLine
 10
145.2307495738
 20
259.0398863737
 30
0.0
 11
146.454684409
 21
259.5664693105
 31
0.0
  0
LWPOLYLINE
  5
305
330
1F
100
AcDbEntity
  8
0
  6
Continuous
 62
     7
370
    25
100
AcDbPolyline
 90
        3
 70
   128
 43
0.0
 10
143.4456519907
 20
257.8583664419
 10
143.670088176
 20
258.0398151591
 10
145.2307495738
 20
259.0398863737
  0
ARC
  5
306
330
1F
100
AcDbEntity
  8
0
  6
Continuous
 62
     7
370
    25
100
AcDbCircle
 10
149.6870286687
 20
250.3678579703
 30
0.0
 40
14.87500000000006
100
AcDbArc
 50
51.4589725729
 51
304.6914783619
  0
ARC
  5
307
330
1F
100
AcDbEntity
  8
0
  6
Continuous
 62
     7
370
    25
100
AcDbCircle
 10
149.6870286687
 20
250.3678579703
 30
0.0
 40
10.57500000000007
100
AcDbArc
 50
78.8626668473
 51
276.4243237074
  0
ARC
  5
308
330
1F
100
AcDbEntity
  8
0
  6
Continuous
 62
     7
370
    25
100
AcDbCircle
 10
149.6870286687
 20
250.3678579703
 30
0.0
 40
16.19999999999995
100
AcDbArc
 50
117.1971874203
 51
314.1501492002
  0
ARC
  5
309
330
1F
100
AcDbEntity
  8
0
  6
Continuous
 62
     7
370
    25
100
AcDbCircle
 10
149.6870286687
 20
250.3678579703
 30
0.0
 40
16.19999999999999
100
AcDbArc
 50
42.0003017748
 51
117.1971874203
  0
SPLINE
  5
30A
330
1F
100
AcDbEntity
  8
0
  6
Continuous
 62
     7
370
    25
100
AcDbSpline
210
0.0
220
0.0
230
1.0
 70
     8
 71
     3
 72
     9
 73
     5
 74
     0
 42
0.00000001
 43
0.00000001
 40
0.0
 40
0.0
 40
0.0
 40
0.0
 40
0.5850553834534293
 40
1.0
 40
1.0
 40
1.0
 40
1.0
 10
137.018430084254
 20
262.1278158744024
 30
0.0
 10
136.6196432877221
 20
261.8872533746251
 30
0.0
 10
135.9380209869784
 20
261.4760743536623
 30
0.0
 10
135.4275814410085
 20
260.8284082646273
 30
0.0
 10
135.2157772993357
 20
260.5596627076624
 30
0.0
  0
SPLINE
  5
30B
330
1F
100
AcDbEntity
  8
0
  6
Continuous
 62
     7
370
    25
100
AcDbSpline
210
0.0
220
0.0
230
1.0
 70
    24
 71
     3
 72
    11
 73
     7
 74
     0
 42
0.00000001
 43
0.00000001
 40
0.0
 40
0.0
 40
0.0
 40
0.0
 40
0.2379053903768507
 40
0.4814905141303165
 40
0.73665194443481
 40
1.0
 40
1.0
 40
1.0
 40
1.0
 10
147.5013636034554
 20
267.5146614107039
 30
0.0
 10
146.688893072716
 20
267.0971586912722
 30
0.0
 10
145.0445551577923
 20
266.2521858274307
 30
0.0
 10
142.4183517102223
 20
264.9026635498115
 30
0.0
 10
139.6928739199144
 20
263.5021273504626
 30
0.0
 10
137.9192458294687
 20
262.5907163847653
 30
0.0
 10
137.018430084254
 20
262.1278158744024
 30
0.0
  0
SPLINE
  5
30C
330
1F
100
AcDbEntity
  8
0
  6
Continuous
 62
     7
370
    25
100
AcDbSpline
210
0.0
220
0.0
230
1.0
 70
     8
 71
     3
 72
     9
 73
     5
 74
     0
 42
0.00000001
 43
0.00000001
 40
0.0
 40
0.0
 40
0.0
 40
0.0
 40
0.5841917497409918
 40
1.0
 40
1.0
 40
1.0
 40
1.0
 10
149.8258499993267
 20
268.0673135732173
 30
0.0
 10
149.343294329833
 20
268.034178179329
 30
0.0
 10
148.5172715903684
 20
267.9774581145508
 30
0.0
 10
147.79972527947
 20
267.6505800194681
 30
0.0
 10
147.5013636034554
 20
267.5146614107039
 30
0.0
  0
ARC
  5
30D
330
1F
100
AcDbEntity
  8
0
  6
Continuous
 62
     7
370
    25
100
AcDbCircle
 10
149.6870286687
 20
250.3678579703
 30
0.0
 40
17.70000000000003
100
AcDbArc
 50
84.8437509929
 51
89.5506238477
  0
SPLINE
  5
30E
330
1F
100
AcDbEntity
  8
0
  6
Continuous
 62
     7
370
    25
100
AcDbSpline
210
0.0
220
0.0
230
1.0
 70
     8
 71
     3
 72
     9
 73
     5
 74
     0
 42
0.00000001
 43
0.00000001
 40
0.0
 40
0.0
 40
0.0
 40
0.0
 40
0.5850553834536163
 40
1.0
 40
1.0
 40
1.0
 40
1.0
 10
153.5371516688451
 20
267.2191651268805
 30
0.0
 10
153.1294250345742
 20
267.4442433734822
 30
0.0
 10
152.4325224065459
 20
267.8289560912302
 30
0.0
 10
151.6164073472872
 20
267.9471766606187
 30
0.0
 10
151.2777647969655
 20
267.9962316494517
 30
0.0
  0
SPLINE
  5
30F
330
1F
100
AcDbEntity
  8
0
  6
Continuous
 62
     7
370
    25
100
AcDbSpline
210
0.0
220
0.0
230
1.0
 70
    24
 71
     3
 72
    11
 73
     7
 74
     0
 42
0.00000001
 43
0.00000001
 40
0.0
 40
0.0
 40
0.0
 40
0.0
 40
0.2328716322111486
 40
0.4710265024313226
 40
0.7311421212560276
 40
1.0
 40
1.0
 40
1.0
 40
1.0
 10
163.443763509147
 20
260.8341011612188
 30
0.0
 10
162.6924414156504
 20
261.3183474104031
 30
0.0
 10
161.1727517285088
 20
262.297826168305
 30
0.0
 10
158.71192565186
 20
263.8838913297408
 30
0.0
 10
156.1170955006466
 20
265.5563255345535
 30
0.0
 10
154.4065562153327
 20
266.6588117254504
 30
0.0
 10
153.5371516688451
 20
267.2191651268805
 30
0.0
  0
SPLINE
  5
310
330
1F
100
AcDbEntity
  8
0
  6
Continuous
 62
     7
370
    25
100
AcDbSpline
210
0.0
220
0.0
230
1.0
 70
     8
 71
     3
 72
     9
 73
     5
 74
     0
 42
0.00000001
 43
0.00000001
 40
0.0
 40
0.0
 40
0.0
 40
0.0
 40
0.5841917497409274
 40
1.0
 40
1.0
 40
1.0
 40
1.0
 10
165.0846175192758
 20
259.0973629728994
 30
0.0
 10
164.8146435916573
 20
259.4987007444771
 30
0.0
 10
164.3525112049225
 20
260.1856973885677
 30
0.0
 10
163.7106533151911
 20
260.6436716746566
 30
0.0
 10
163.4437635091469
 20
260.8341011612187
 30
0.0
  0
ARC
  5
311
330
1F
100
AcDbEntity
  8
0
  6
Continuous
 62
     7
370
    25
100
AcDbCircle
 10
149.6870286687
 20
250.3678579703
 30
0.0
 40
17.69999999999999
100
AcDbArc
 50
324.8437509929
 51
327.1558348375
  0
SPLINE
  5
312
330
1F
100
AcDbEntity
  8
0
  6
Continuous
 62
     7
370
    25
100
AcDbSpline
210
0.0
220
0.0
230
1.0
 70
     8
 71
     3
 72
     9
 73
     5
 74
     0
 42
0.00000001
 43
0.00000001
 40
0.0
 40
0.0
 40
0.0
 40
0.0
 40
0.5850553834536061
 40
1.0
 40
1.0
 40
1.0
 40
1.0
 10
162.3556272532163
 20
238.6079000662815
 30
0.0
 10
162.754414049748
 20
238.8484625660589
 30
0.0
 10
163.436036350491
 20
239.2596415870215
 30
0.0
 10
163.9464758964606
 20
239.9073076760562
 30
0.0
 10
164.1582800381331
 20
240.1760532330207
 30
0.0
  0
SPLINE
  5
313
330
1F
100
AcDbEntity
  8
0
  6
Continuous
 62
     7
370
    25
100
AcDbSpline
210
0.0
220
0.0
230
1.0
 70
    24
 71
     3
 72
    11
 73
     7
 74
     0
 42
0.00000001
 43
0.00000001
 40
0.0
 40
0.0
 40
0.0
 40
0.0
 40
0.255627964438095
 40
0.5185037642963854
 40
0.7560467972580067
 40
1.0
 40
1.0
 40
1.0
 40
1.0
 10
151.8726937340137
 20
233.2210545299794
 30
0.0
 10
152.7466439963931
 20
233.6701497246809
 30
0.0
 10
154.5193236867691
 20
234.5810733377996
 30
0.0
 10
157.2235928477555
 20
235.9707110982732
 30
0.0
 10
159.8771725620026
 20
237.3343011670959
 30
0.0
 10
161.52217570204
 20
238.1796158689284
 30
0.0
 10
162.3556272532163
 20
238.6079000662816
 30
0.0
  0
SPLINE
  5
314
330
1F
100
AcDbEntity
  8
0
  6
Continuous
 62
     7
370
    25
100
AcDbSpline
210
0.0
220
0.0
230
1.0
 70
     8
 71
     3
 72
     9
 73
     5
 74
     0
 42
0.00000001
 43
0.00000001
 40
0.0
 40
0.0
 40
0.0
 40
0.0
 40
0.5841917497409176
 40
1.0
 40
1.0
 40
1.0
 40
1.0
 10
149.5482073381421
 20
232.6684023674658
 30
0.0
 10
150.0307630076358
 20
232.701537761354
 30
0.0
 10
150.8567857471006
 20
232.7582578261326
 30
0.0
 10
151.5743320579991
 20
233.0851359212152
 30
0.0
 10
151.8726937340137
 20
233.2210545299794
 30
0.0
  0
ARC
  5
315
330
1F
100
AcDbEntity
  8
0
  6
Continuous
 62
     7
370
    25
100
AcDbCircle
 10
149.6870286687
 20
250.3678579703
 30
0.0
 40
17.7
100
AcDbArc
 50
264.8437509929
 51
269.5506238477
  0
SPLINE
  5
316
330
1F
100
AcDbEntity
  8
0
  6
Continuous
 62
     7
370
    25
100
AcDbSpline
210
0.0
220
0.0
230
1.0
 70
     8
 71
     3
 72
     9
 73
     5
 74
     0
 42
0.00000001
 43
0.00000001
 40
0.0
 40
0.0
 40
0.0
 40
0.0
 40
0.5850553834536039
 40
1.0
 40
1.0
 40
1.0
 40
1.0
 10
145.8369056686237
 20
233.5165508138027
 30
0.0
 10
146.2446323028947
 20
233.2914725672012
 30
0.0
 10
146.941534930923
 20
232.9067598494531
 30
0.0
 10
147.7576499901815
 20
232.7885392800643
 30
0.0
 10
148.0962925405034
 20
232.7394842912315
 30
0.0
  0
SPLINE
  5
317
330
1F
100
AcDbEntity
  8
0
  6
Continuous
 62
     7
370
    25
100
AcDbSpline
210
0.0
220
0.0
230
1.0
 70
    24
 71
     3
 72
    11
 73
     7
 74
     0
 42
0.00000001
 43
0.00000001
 40
0.0
 40
0.0
 40
0.0
 40
0.0
 40
0.2328716322111498
 40
0.4710265024313244
 40
0.7311421212560301
 40
1.0
 40
1.0
 40
1.0
 40
1.0
 10
135.9302938283219
 20
239.9016147794645
 30
0.0
 10
136.6816159218186
 20
239.4173685302802
 30
0.0
 10
138.2013056089602
 20
238.4378897723784
 30
0.0
 10
140.6621316856088
 20
236.8518246109426
 30
0.0
 10
143.2569618368221
 20
235.1793904061293
 30
0.0
 10
144.9675011221359
 20
234.0769042152326
 30
0.0
 10
145.8369056686237
 20
233.5165508138027
 30
0.0
  0
SPLINE
  5
318
330
1F
100
AcDbEntity
  8
0
  6
Continuous
 62
     7
370
    25
100
AcDbSpline
210
0.0
220
0.0
230
1.0
 70
     8
 71
     3
 72
     9
 73
     5
 74
     0
 42
0.00000001
 43
0.00000001
 40
0.0
 40
0.0
 40
0.0
 40
0.0
 40
0.584191749740929
 40
1.0
 40
1.0
 40
1.0
 40
1.0
 10
134.289439818193
 20
241.6383529677838
 30
0.0
 10
134.5594137458115
 20
241.2370151962062
 30
0.0
 10
135.0215461325463
 20
240.5500185521153
 30
0.0
 10
135.6634040222778
 20
240.0920442660267
 30
0.0
 10
135.9302938283219
 20
239.9016147794645
 30
0.0
  0
ARC
  5
319
330
1F
100
AcDbEntity
  8
0
  6
Continuous
 62
     7
370
    25
100
AcDbCircle
 10
149.6870286687
 20
250.3678579703
 30
0.0
 40
17.69999999999998
100
AcDbArc
 50
204.8437509929
 51
209.5506238477
  0
SPLINE
  5
31A
330
1F
100
AcDbEntity
  8
0
  6
Continuous
 62
     7
370
    25
100
AcDbSpline
210
0.0
220
0.0
230
1.0
 70
     8
 71
     3
 72
     9
 73
     5
 74
     0
 42
0.00000001
 43
0.00000001
 40
0.0
 40
0.0
 40
0.0
 40
0.0
 40
0.585055383453617
 40
1.0
 40
1.0
 40
1.0
 40
1.0
 10
133.1683070841419
 20
245.2765087178628
 30
0.0
 10
133.1772469218811
 20
244.8108679714839
 30
0.0
 10
133.1925272491665
 20
244.0149762327731
 30
0.0
 10
133.4982027624552
 20
243.2490895743499
 30
0.0
 10
133.6250411711046
 20
242.9312890285524
 30
0.0
  0
SPLINE
  5
31B
330
1F
100
AcDbEntity
  8
0
  6
Continuous
 62
     7
370
    25
100
AcDbSpline
210
0.0
220
0.0
230
1.0
 70
    24
 71
     3
 72
    11
 73
     7
 74
     0
 42
0.00000001
 43
0.00000001
 40
0.0
 40
0.0
 40
0.0
 40
0.0
 40
0.2328716322111479
 40
0.4710265024313228
 40
0.7311421212560291
 40
1.0
 40
1.0
 40
1.0
 40
1.0
 10
133.7446287630427
 20
257.0484182198267
 30
0.0
 10
133.70092025631
 20
256.1556310758419
 30
0.0
 10
133.6125116130706
 20
254.3498018219572
 30
0.0
 10
133.469351929534
 20
251.4256313445663
 30
0.0
 10
133.3183964976147
 20
248.3422254127032
 30
0.0
 10
133.2188850916335
 20
246.3096118420017
 30
0.0
 10
133.1683070841419
 20
245.2765087178628
 30
0.0
  0
SPLINE
  5
31C
330
1F
100
AcDbEntity
  8
0
  6
Continuous
 62
     7
370
    25
100
AcDbSpline
210
0.0
220
0.0
230
1.0
 70
     8
 71
     3
 72
     9
 73
     5
 74
     0
 42
0.00000001
 43
0.00000001
 40
0.0
 40
0.0
 40
0.0
 40
0.0
 40
0.584191749740934
 40
1.0
 40
1.0
 40
1.0
 40
1.0
 10
134.4282611487853
 20
259.3378085706596
 30
0.0
 10
134.2156794069101
 20
258.9033354051936
 30
0.0
 10
133.8517890541803
 20
258.1596186963242
 30
0.0
 10
133.776100633013
 20
257.3747663151531
 30
0.0
 10
133.7446287630427
 20
257.0484182198267
 30
0.0
  0
ARC
  5
31D
330
1F
100
AcDbEntity
  8
0
  6
Continuous
 62
     7
370
    25
100
AcDbCircle
 10
149.6870286687
 20
250.3678579703
 30
0.0
 40
17.70000000000003
100
AcDbArc
 50
144.8437509929
 51
149.5506238477
  0
SPLINE
  5
31E
330
1F
100
AcDbEntity
  8
0
  6
Continuous
 62
     7
370
    25
100
AcDbSpline
210
0.0
220
0.0
230
1.0
 70
     8
 71
     3
 72
    15
 73
    11
 74
     0
 42
0.00000001
 43
0.00000001
 40
0.0
 40
0.0
 40
0.0
 40
0.0
 40
0.1250000000000013
 40
0.2500000000000013
 40
0.3750000000000016
 40
0.5000000000000014
 40
0.6250000000000022
 40
0.7500000000000004
 40
0.8749999999999978
 40
1.0
 40
1.0
 40
1.0
 40
1.0
 10
118.7122405338661
 20
239.617857970341
 30
0.0
 10
118.4702456498127
 20
239.657866371455
 30
0.0
 10
117.9862558817057
 20
239.7378831736831
 30
0.0
 10
117.2881834915788
 20
240.3771065709646
 30
0.0
 10
116.6447844990161
 20
241.3706085175266
 30
0.0
 10
116.0810328672444
 20
242.7178171874612
 30
0.0
 10
115.6176646471946
 20
244.3568831681425
 30
0.0
 10
115.2759527514298
 20
246.2275179322505
 30
0.0
 10
115.0560938576868
 20
248.2571115373534
 30
0.0
 10
115.0285723281347
 20
249.6642758260118
 30
0.0
 10
115.0148115633586
 20
250.367857970341
 30
0.0
  0
SPLINE
  5
31F
330
1F
100
AcDbEntity
  8
0
  6
Continuous
 62
     7
370
    25
100
AcDbSpline
210
0.0
220
0.0
230
1.0
 70
     8
 71
     3
 72
    13
 73
     9
 74
     0
 42
0.00000001
 43
0.00000001
 40
0.0
 40
0.0
 40
0.0
 40
0.0
 40
0.0235602643990878
 40
0.184533729571058
 40
0.3926794609042634
 40
0.6006388091891953
 40
0.8003924978519102
 40
1.0
 40
1.0
 40
1.0
 40
1.0
 10
139.8296023633976
 20
237.3603873940831
 30
0.0
 10
139.7342569046395
 20
237.3818565170515
 30
0.0
 10
138.9874718599433
 20
237.5500115625486
 30
0.0
 10
136.9992489957925
 20
237.9434008014935
 30
0.0
 10
133.6324044845747
 20
238.5288041912937
 30
0.0
 10
129.2564237552992
 20
239.0935361595069
 30
0.0
 10
124.2870134831006
 20
239.5215511236168
 30
0.0
 10
120.5700446503757
 20
239.5857635231013
 30
0.0
 10
118.7122405338661
 20
239.617857970341
 30
0.0
  0
SPLINE
  5
320
330
1F
100
AcDbEntity
  8
0
  6
Continuous
 62
     7
370
    25
100
AcDbSpline
210
0.0
220
0.0
230
1.0
 70
     8
 71
     3
 72
    15
 73
    11
 74
     0
 42
0.00000001
 43
0.00000001
 40
0.0
 40
0.0
 40
0.0
 40
0.0
 40
0.1250000000000008
 40
0.2500000000000004
 40
0.3750000000000012
 40
0.5000000000000011
 40
0.6250000000000014
 40
0.7500000000000003
 40
0.8749999999999977
 40
1.0
 40
1.0
 40
1.0
 40
1.0
 10
-24.3381831963968
 20
239.6178579703385
 30
0.0
 10
-24.09618831234342
 20
239.6578663714526
 30
0.0
 10
-23.61219854423657
 20
239.7378831736805
 30
0.0
 10
-22.91412615410954
 20
240.3771065709622
 30
0.0
 10
-22.27072716154688
 20
241.3706085175241
 30
0.0
 10
-21.7069755297753
 20
242.7178171874586
 30
0.0
 10
-21.24360730972555
 20
244.3568831681402
 30
0.0
 10
-20.9018954139607
 20
246.2275179322478
 30
0.0
 10
-20.68203652021783
 20
248.2571115373512
 30
0.0
 10
-20.65451499066581
 20
249.6642758260094
 30
0.0
 10
-20.64075422588979
 20
250.3678579703385
 30
0.0
  0
SPLINE
  5
321
330
1F
100
AcDbEntity
  8
0
  6
Continuous
 62
     7
370
    25
100
AcDbSpline
210
0.0
220
0.0
230
1.0
 70
     8
 71
     3
 72
    12
 73
     8
 74
     0
 42
0.00000001
 43
0.00000001
 40
0.0
 40
0.0
 40
0.0
 40
0.0
 40
0.0344657309612291
 40
0.2809159445925474
 40
0.527145475619567
 40
0.7636592822167453
 40
1.0
 40
1.0
 40
1.0
 40
1.0
 10
-43.23604070894194
 20
237.8116840136051
 30
0.0
 10
-43.09555543969162
 20
237.8400633358843
 30
0.0
 10
-41.9505180065039
 20
238.0713714759584
 30
0.0
 10
-39.21848715977566
 20
238.5312447982667
 30
0.0
 10
-34.89252484921998
 20
239.0929141638597
 30
0.0
 10
-29.91046140954073
 20
239.5217038750501
 30
0.0
 10
-26.19515593716773
 20
239.5858144278171
 30
0.0
 10
-24.33818319639683
 20
239.6178579703385
 30
0.0
  0
SPLINE
  5
322
330
1F
100
AcDbEntity
  8
0
  6
Continuous
 62
     7
370
    25
100
AcDbSpline
210
0.0
220
0.0
230
1.0
 70
     8
 71
     3
 72
    15
 73
    11
 74
     0
 42
0.00000001
 43
0.00000001
 40
0.0
 40
0.0
 40
0.0
 40
0.0
 40
0.1250000000000006
 40
0.2500000000000008
 40
0.3750000000000012
 40
0.500000000000001
 40
0.6250000000000019
 40
0.7500000000000002
 40
0.8749999999999977
 40
1.0
 40
1.0
 40
1.0
 40
1.0
 10
118.7122405338657
 20
261.117857970341
 30
0.0
 10
118.4702456498123
 20
261.077849569227
 30
0.0
 10
117.9862558817054
 20
260.997832766999
 30
0.0
 10
117.2881834915786
 20
260.3586093697176
 30
0.0
 10
116.6447844990156
 20
259.3651074231555
 30
0.0
 10
116.0810328672442
 20
258.0178987532208
 30
0.0
 10
115.6176646471944
 20
256.3788327725395
 30
0.0
 10
115.2759527514297
 20
254.5081980084316
 30
0.0
 10
115.0560938576867
 20
252.4786044033284
 30
0.0
 10
115.0285723281347
 20
251.0714401146702
 30
0.0
 10
115.0148115633586
 20
250.367857970341
 30
0.0
  0
SPLINE
  5
323
330
1F
100
AcDbEntity
  8
0
  6
Continuous
 62
     7
370
    25
100
AcDbSpline
210
0.0
220
0.0
230
1.0
 70
     8
 71
     3
 72
    10
 73
     6
 74
     0
 42
0.00000001
 43
0.00000001
 40
0.0
 40
0.0
 40
0.0
 40
0.0
 40
0.0912770336737117
 40
0.5389101874809065
 40
1.0
 40
1.0
 40
1.0
 40
1.0
 10
129.9919238921626
 20
261.7560507034816
 30
0.0
 10
129.6907770243281
 20
261.7228253139174
 30
0.0
 10
127.9127710082236
 20
261.5266587625018
 30
0.0
 10
124.3155034686177
 20
261.213871108596
 30
0.0
 10
120.5983431429082
 20
261.1501767518573
 30
0.0
 10
118.7122405338658
 20
261.1178579703412
 30
0.0
  0
SPLINE
  5
324
330
1F
100
AcDbEntity
  8
0
  6
Continuous
 62
     7
370
    25
100
AcDbSpline
210
0.0
220
0.0
230
1.0
 70
     8
 71
     3
 72
    10
 73
     6
 74
     0
 42
0.00000001
 43
0.00000001
 40
0.0
 40
0.0
 40
0.0
 40
0.0
 40
0.1840120149020942
 40
0.5902523693614874
 40
1.0
 40
1.0
 40
1.0
 40
1.0
 10
136.3582980808943
 20
262.6870871054997
 30
0.0
 10
135.9256607837643
 20
262.6095720068558
 30
0.0
 10
134.537897110609
 20
262.3609280764028
 30
0.0
 10
132.3411312406171
 20
262.0171622297528
 30
0.0
 10
130.7772336543575
 20
261.8433369239751
 30
0.0
 10
129.9919238921627
 20
261.7560507034817
 30
0.0
  0
SPLINE
  5
325
330
1F
100
AcDbEntity
  8
0
  6
Continuous
 62
     7
370
    25
100
AcDbSpline
210
0.0
220
0.0
230
1.0
 70
     8
 71
     3
 72
     9
 73
     5
 74
     0
 42
0.00000001
 43
0.00000001
 40
0.0
 40
0.0
 40
0.0
 40
0.0
 40
0.7296320066210518
 40
0.9999999999999999
 40
0.9999999999999999
 40
0.9999999999999999
 40
0.9999999999999999
 10
139.1795834172814
 20
263.2383637152295
 30
0.0
 10
138.542658316333
 20
263.1062860153809
 30
0.0
 10
137.6697181284457
 20
262.9252664073452
 30
0.0
 10
136.637403039915
 20
262.7377779763654
 30
0.0
 10
136.3582980808943
 20
262.6870871054997
 30
0.0
  0
SPLINE
  5
326
330
1F
100
AcDbEntity
  8
0
  6
Continuous
 62
     7
370
    25
100
AcDbSpline
210
0.0
220
0.0
230
1.0
 70
     8
 71
     3
 72
    10
 73
     6
 74
     0
 42
0.00000001
 43
0.00000001
 40
0.0
 40
0.0
 40
0.0
 40
0.0
 40
0.1840120149020942
 40
0.5902523693614864
 40
1.0
 40
1.0
 40
1.0
 40
1.0
 10
-41.98424074342591
 20
262.6870871054966
 30
0.0
 10
-41.55160344629572
 20
262.6095720068527
 30
0.0
 10
-40.16383977314053
 20
262.3609280763993
 30
0.0
 10
-37.9670739031486
 20
262.01716222975
 30
0.0
 10
-36.40317631688905
 20
261.8433369239723
 30
0.0
 10
-35.61786655469415
 20
261.7560507034788
 30
0.0
  0
SPLINE
  5
327
330
1F
100
AcDbEntity
  8
0
  6
Continuous
 62
     7
370
    25
100
AcDbSpline
210
0.0
220
0.0
230
1.0
 70
     8
 71
     3
 72
    10
 73
     6
 74
     0
 42
0.00000001
 43
0.00000001
 40
0.0
 40
0.0
 40
0.0
 40
0.0
 40
0.0912770336737117
 40
0.5389101874809065
 40
1.0
 40
1.0
 40
1.0
 40
1.0
 10
-35.61786655469415
 20
261.7560507034788
 30
0.0
 10
-35.31671968685956
 20
261.7228253139145
 30
0.0
 10
-33.53871367075531
 20
261.5266587624989
 30
0.0
 10
-29.94144613114932
 20
261.2138711085934
 30
0.0
 10
-26.22428580543967
 20
261.1501767518547
 30
0.0
 10
-24.33818319639716
 20
261.1178579703387
 30
0.0
  0
SPLINE
  5
328
330
1F
100
AcDbEntity
  8
0
  6
Continuous
 62
     7
370
    25
100
AcDbSpline
210
0.0
220
0.0
230
1.0
 70
     8
 71
     3
 72
    15
 73
    11
 74
     0
 42
0.00000001
 43
0.00000001
 40
0.0
 40
0.0
 40
0.0
 40
0.0
 40
0.1250000000000001
 40
0.2499999999999998
 40
0.3750000000000007
 40
0.5000000000000007
 40
0.6250000000000017
 40
0.7500000000000002
 40
0.8749999999999977
 40
1.0
 40
1.0
 40
1.0
 40
1.0
 10
-24.33818319639716
 20
261.1178579703386
 30
0.0
 10
-24.09618831234372
 20
261.0778495692246
 30
0.0
 10
-23.61219854423688
 20
260.9978327669967
 30
0.0
 10
-22.91412615411001
 20
260.3586093697148
 30
0.0
 10
-22.2707271615471
 20
259.3651074231531
 30
0.0
 10
-21.70697552977555
 20
258.0178987532184
 30
0.0
 10
-21.24360730972585
 20
256.378832772537
 30
0.0
 10
-20.90189541396079
 20
254.508198008429
 30
0.0
 10
-20.68203652021797
 20
252.4786044033262
 30
0.0
 10
-20.65451499066581
 20
251.0714401146678
 30
0.0
 10
-20.64075422588979
 20
250.3678579703385
 30
0.0
  0
SPLINE
  5
329
330
1F
100
AcDbEntity
  8
0
  6
Continuous
 62
     7
370
    25
100
AcDbSpline
210
0.0
220
0.0
230
1.0
 70
     8
 71
     3
 72
     9
 73
     5
 74
     0
 42
0.00000001
 43
0.00000001
 40
0.0
 40
0.0
 40
0.0
 40
0.0
 40
0.6726449866773436
 40
0.9999999999999999
 40
0.9999999999999999
 40
0.9999999999999999
 40
0.9999999999999999
 10
-44.32939004832187
 20
263.1430046294002
 30
0.0
 10
-43.84274731287235
 20
263.0423711430073
 30
0.0
 10
-43.11927096935062
 20
262.892762525704
 30
0.0
 10
-42.26416422358001
 20
262.7378111990861
 30
0.0
 10
-41.98424074342589
 20
262.6870871054967
 30
0.0
  0
LINE
  5
32A
330
1F
100
AcDbEntity
  8
0
  6
Continuous
 62
     7
370
    25
100
AcDbLine
 10
145.4590217257
 20
268.2178579703
 30
0.0
 11
149.6870286687
 21
268.2178579703
 31
0.0
  0
LINE
  5
32B
330
1F
100
AcDbEntity
  8
0
  6
Continuous
 62
     7
370
    25
100
AcDbLine
 10
-51.0849643883
 20
268.2178579703
 30
0.0
 11
-55.3129713313
 21
268.2178579703
 31
0.0
  0
LINE
  5
32C
330
1F
100
AcDbEntity
  8
0
  6
Continuous
 62
     7
370
    25
100
AcDbLine
 10
149.6870286687
 20
268.2178579703
 30
0.0
 11
156.7033214361
 21
268.2178579703
 31
0.0
  0
LINE
  5
32D
330
1F
100
AcDbEntity
  8
0
  6
Continuous
 62
     7
370
    25
100
AcDbLine
 10
-55.3129713313
 20
268.2178579703
 30
0.0
 11
-62.3292640987
 21
268.2178579703
 31
0.0
  0
LINE
  5
32E
330
1F
100
AcDbEntity
  8
0
  6
Continuous
 62
     7
370
    25
100
AcDbLine
 10
141.0455297826
 20
268.2178579703
 30
0.0
 11
145.4590217257
 21
268.2178579703
 31
0.0
  0
LINE
  5
32F
330
1F
100
AcDbEntity
  8
0
  6
Continuous
 62
     7
370
    25
100
AcDbLine
 10
-46.6714724451
 20
268.2178579703
 30
0.0
 11
-51.0849643883
 21
268.2178579703
 31
0.0
  0
SPLINE
  5
330
330
1F
100
AcDbEntity
  8
0
  6
Continuous
 62
     7
370
    25
100
AcDbSpline
210
0.0
220
0.0
230
1.0
 70
     8
 71
     3
 72
     9
 73
     5
 74
     0
 42
0.00000001
 43
0.00000001
 40
0.0
 40
0.0
 40
0.0
 40
0.0
 40
0.6732537698586498
 40
1.0
 40
1.0
 40
1.0
 40
1.0
 10
138.634002640252
 20
267.6086256487419
 30
0.0
 10
139.1573594149386
 20
267.7327280970067
 30
0.0
 10
139.9347138065767
 20
267.9170604451061
 30
0.0
 10
140.7719620691187
 20
268.1437786511969
 30
0.0
 10
141.0455297825966
 20
268.2178579703415
 30
0.0
  0
LWPOLYLINE
  5
331
330
1F
100
AcDbEntity
  8
0
  6
Continuous
 62
     7
370
    25
100
AcDbPolyline
 90
        9
 70
   128
 43
0.0
 10
138.6340026403
 20
267.6086256487
 10
138.6784161493
 20
266.7103635046
 10
138.6165937932
 20
265.841899959
 10
138.4505864425
 20
265.0320450834
 10
138.1859011606
 20
264.307664688
 10
137.8313185138
 20
263.6927890859
 10
137.3986012889
 20
263.2078159209
 10
136.9021042784
 20
262.8688335038
 10
136.3582980809
 20
262.6870871055
  0
SPLINE
  5
332
330
1F
100
AcDbEntity
  8
0
  6
Continuous
 62
     7
370
    25
100
AcDbSpline
210
0.0
220
0.0
230
1.0
 70
     8
 71
     3
 72
     9
 73
     5
 74
     0
 42
0.00000001
 43
0.00000001
 40
0.0
 40
0.0
 40
0.0
 40
0.0
 40
0.6732537698586581
 40
0.9999999999999999
 40
0.9999999999999999
 40
0.9999999999999999
 40
0.9999999999999999
 10
-44.25994530278376
 20
267.6086256487388
 30
0.0
 10
-44.78330207747033
 20
267.7327280970035
 30
0.0
 10
-45.56065646910845
 20
267.9170604451029
 30
0.0
 10
-46.3979047316504
 20
268.1437786511935
 30
0.0
 10
-46.67147244512832
 20
268.2178579703382
 30
0.0
  0
LWPOLYLINE
  5
333
330
1F
100
AcDbEntity
  8
0
  6
Continuous
 62
     7
370
    25
100
AcDbPolyline
 90
        9
 70
   128
 43
0.0
 10
-44.2599453028
 20
267.6086256487
 10
-44.3043588119
 20
266.7103635046
 10
-44.2425364557
 20
265.841899959
 10
-44.0765291051
 20
265.0320450834
 10
-43.8118438231
 20
264.307664688
 10
-43.4572611764
 20
263.6927890859
 10
-43.0245439514
 20
263.2078159209
 10
-42.5280469409
 20
262.8688335038
 10
-41.9842407434
 20
262.6870871055
  0
SPLINE
  5
334
330
1F
100
AcDbEntity
  8
0
  6
Continuous
 62
     7
370
    25
100
AcDbSpline
210
0.0
220
0.0
230
1.0
 70
     8
 71
     3
 72
    10
 73
     6
 74
     0
 42
0.00000001
 43
0.00000001
 40
0.0
 40
0.0
 40
0.0
 40
0.0
 40
0.8221941384101841
 40
0.9999856333282585
 40
1.0
 40
1.0
 40
1.0
 40
1.0
 10
60.64913661749232
 20
260.1828316192246
 30
0.0
 10
59.87084678565785
 20
260.4548898377894
 30
0.0
 10
58.92425933867757
 20
260.7857780031075
 30
0.0
 10
57.96473798080587
 20
260.9483160938093
 30
0.0
 10
57.7935847824696
 20
260.9743981475135
 30
0.0
 10
57.79357095333143
 20
260.9744002549371
 30
0.0
  0
SPLINE
  5
335
330
1F
100
AcDbEntity
  8
0
  6
Continuous
 62
     7
370
    25
100
AcDbSpline
210
0.0
220
0.0
230
1.0
 70
     8
 71
     3
 72
    10
 73
     6
 74
     0
 42
0.00000001
 43
0.00000001
 40
0.0
 40
0.0
 40
0.0
 40
0.0
 40
0.0000143666717578
 40
0.1778058615897094
 40
1.0
 40
1.0
 40
1.0
 40
1.0
 10
36.58048638413758
 20
239.7613156857425
 30
0.0
 10
36.58047255499925
 20
239.7613177931663
 30
0.0
 10
36.40931935441455
 20
239.7873998467492
 30
0.0
 10
35.44979800374748
 20
239.9499379378394
 30
0.0
 10
34.50321055404731
 20
240.2808261030107
 30
0.0
 10
33.72492071997652
 20
240.5528843214549
 30
0.0
  0
SPLINE
  5
336
330
1F
100
AcDbEntity
  8
0
  6
Continuous
 62
     7
370
    25
100
AcDbSpline
210
0.0
220
0.0
230
1.0
 70
     8
 71
     3
 72
    10
 73
     6
 74
     0
 42
0.00000001
 43
0.00000001
 40
0.0
 40
0.0
 40
0.0
 40
0.0
 40
0.4063719965825431
 40
0.9791213808051974
 40
1.0
 40
1.0
 40
1.0
 40
1.0
 10
65.70721449419104
 20
249.5024880250586
 30
0.0
 10
65.1712897004068
 20
249.5664686061326
 30
0.0
 10
63.88002103890783
 20
249.720624786708
 30
0.0
 10
62.84249884351966
 20
250.0899141619173
 30
0.0
 10
62.31041106018043
 20
250.3584144871943
 30
0.0
 10
62.29169688540664
 20
250.36785797034
 30
0.0
  0
SPLINE
  5
337
330
1F
100
AcDbEntity
  8
0
  6
Continuous
 62
     7
370
    25
100
AcDbSpline
210
0.0
220
0.0
230
1.0
 70
     8
 71
     3
 72
    14
 73
    10
 74
     0
 42
0.00000001
 43
0.00000001
 40
0.0
 40
0.0
 40
0.0
 40
0.0
 40
0.1975570819264164
 40
0.2559404439678212
 40
0.5041840487204929
 40
0.6450309935929905
 40
0.7854108765490286
 40
0.9393620813605582
 40
0.9999999999999999
 40
0.9999999999999999
 40
0.9999999999999999
 40
0.9999999999999999
 10
60.64913661749266
 20
240.5528843214554
 30
0.0
 10
61.24142036502933
 20
240.8295032888216
 30
0.0
 10
62.00873968267295
 20
241.1878705041462
 30
0.0
 10
62.99336519711968
 20
242.2933246451899
 30
0.0
 10
63.60680846095396
 20
243.559016487922
 30
0.0
 10
64.10809330214873
 20
245.3983307736125
 30
0.0
 10
64.5548490966551
 20
247.0702041472977
 30
0.0
 10
65.0879226725185
 20
248.5086778440442
 30
0.0
 10
65.57077235241803
 20
249.2835321388866
 30
0.0
 10
65.70721449419104
 20
249.5024880250586
 30
0.0
  0
SPLINE
  5
338
330
1F
100
AcDbEntity
  8
0
  6
Continuous
 62
     7
370
    25
100
AcDbSpline
210
0.0
220
0.0
230
1.0
 70
     8
 71
     3
 72
    14
 73
    10
 74
     0
 42
0.00000001
 43
0.00000001
 40
0.0
 40
0.0
 40
0.0
 40
0.0
 40
0.0625227234691161
 40
0.2145654391951761
 40
0.3549174042288036
 40
0.4957363382923737
 40
0.7439305738224002
 40
0.947345168859286
 40
1.0
 40
1.0
 40
1.0
 40
1.0
 10
65.70721449419864
 20
251.2332279156104
 30
0.0
 10
65.56672991239998
 20
251.4592144275041
 30
0.0
 10
65.0846150216649
 20
252.2347547828536
 30
0.0
 10
64.55292749048685
 20
253.6727029089041
 30
0.0
 10
64.10841548296182
 20
255.3373655058999
 30
0.0
 10
63.60508444397156
 20
257.1768346180224
 30
0.0
 10
62.80568476160747
 20
258.8518329766665
 30
0.0
 10
61.64781447562556
 20
259.8086515091464
 30
0.0
 10
60.81946730171117
 20
260.119012887637
 30
0.0
 10
60.64913661749232
 20
260.1828316192246
 30
0.0
  0
SPLINE
  5
339
330
1F
100
AcDbEntity
  8
0
  6
Continuous
 62
     7
370
    25
100
AcDbSpline
210
0.0
220
0.0
230
1.0
 70
     8
 71
     3
 72
    10
 73
     6
 74
     0
 42
0.00000001
 43
0.00000001
 40
0.0
 40
0.0
 40
0.0
 40
0.0
 40
0.0208786192184286
 40
0.5936280034167074
 40
1.0
 40
1.0
 40
1.0
 40
1.0
 10
62.29169688540664
 20
250.36785797034
 30
0.0
 10
62.31041106020236
 20
250.3773014534935
 30
0.0
 10
62.8424988435613
 20
250.6458017786827
 30
0.0
 10
63.88002103893431
 20
251.0150911540065
 30
0.0
 10
65.17128970041014
 20
251.1692473345487
 30
0.0
 10
65.70721449419864
 20
251.2332279156104
 30
0.0
  0
SPLINE
  5
33A
330
1F
100
AcDbEntity
  8
0
  6
Continuous
 62
     7
370
    25
100
AcDbSpline
210
0.0
220
0.0
230
1.0
 70
     8
 71
     3
 72
    10
 73
     6
 74
     0
 42
0.00000001
 43
0.00000001
 40
0.0
 40
0.0
 40
0.0
 40
0.0
 40
0.0208786192184286
 40
0.5936280034167074
 40
1.0
 40
1.0
 40
1.0
 40
1.0
 10
32.0823604520622
 20
250.3678579703396
 30
0.0
 10
32.06364627726654
 20
250.377301453493
 30
0.0
 10
31.53155849390665
 20
250.6458017786821
 30
0.0
 10
30.49403629853465
 20
251.0150911540058
 30
0.0
 10
29.20276763705881
 20
251.169247334548
 30
0.0
 10
28.6668428432702
 20
251.2332279156097
 30
0.0
  0
SPLINE
  5
33B
330
1F
100
AcDbEntity
  8
0
  6
Continuous
 62
     7
370
    25
100
AcDbSpline
210
0.0
220
0.0
230
1.0
 70
     8
 71
     3
 72
    14
 73
    10
 74
     0
 42
0.00000001
 43
0.00000001
 40
0.0
 40
0.0
 40
0.0
 40
0.0
 40
0.0625212926160809
 40
0.2145605287947187
 40
0.3523009272493094
 40
0.4957478785316796
 40
0.7439364340552138
 40
0.9473463738823684
 40
1.0
 40
1.0
 40
1.0
 40
1.0
 10
28.6668428432702
 20
251.2332279156097
 30
0.0
 10
28.80729225763501
 20
251.4592284552171
 30
0.0
 10
29.28928646079537
 20
252.2348169508647
 30
0.0
 10
29.81890845182922
 20
253.6614623326635
 30
0.0
 10
30.25796979573958
 20
255.3299314378138
 30
0.0
 10
30.76820344651626
 20
257.1681854816883
 30
0.0
 10
31.56761166695648
 20
258.8521639032126
 30
0.0
 10
32.72627875915602
 20
259.8086358970621
 30
0.0
 10
33.55459615826606
 20
260.119010224899
 30
0.0
 10
33.72492071997624
 20
260.1828316192243
 30
0.0
  0
SPLINE
  5
33C
330
1F
100
AcDbEntity
  8
0
  6
Continuous
 62
     7
370
    25
100
AcDbSpline
210
0.0
220
0.0
230
1.0
 70
     8
 71
     3
 72
    10
 73
     6
 74
     0
 42
0.00000001
 43
0.00000001
 40
0.0
 40
0.0
 40
0.0
 40
0.0
 40
0.4063719965825411
 40
0.9791213808051974
 40
1.0
 40
1.0
 40
1.0
 40
1.0
 10
28.66684284327781
 20
249.502488025058
 30
0.0
 10
29.20276763706209
 20
249.5664686061321
 30
0.0
 10
30.49403629856096
 20
249.7206247867072
 30
0.0
 10
31.53155849394967
 20
250.0899141619176
 30
0.0
 10
32.06364627728841
 20
250.3584144871938
 30
0.0
 10
32.0823604520622
 20
250.3678579703396
 30
0.0
  0
SPLINE
  5
33D
330
1F
100
AcDbEntity
  8
0
  6
Continuous
 62
     7
370
    25
100
AcDbSpline
210
0.0
220
0.0
230
1.0
 70
     8
 71
     3
 72
    14
 73
    10
 74
     0
 42
0.00000001
 43
0.00000001
 40
0.0
 40
0.0
 40
0.0
 40
0.0
 40
0.1975570819264149
 40
0.2559404439678193
 40
0.5041840487204892
 40
0.6450309935929857
 40
0.7854108765490229
 40
0.9393620813605512
 40
1.0
 40
1.0
 40
1.0
 40
1.0
 10
33.72492071997652
 20
240.5528843214549
 30
0.0
 10
33.13263697243995
 20
240.829503288821
 30
0.0
 10
32.36531765479639
 20
241.1878705041456
 30
0.0
 10
31.38069214034911
 20
242.2933246451896
 30
0.0
 10
30.767248876515
 20
243.5590164879211
 30
0.0
 10
30.26596403532039
 20
245.3983307736119
 30
0.0
 10
29.81920824081385
 20
247.070204147297
 30
0.0
 10
29.28613466495034
 20
248.5086778440436
 30
0.0
 10
28.8032849850508
 20
249.2835321388861
 30
0.0
 10
28.66684284327781
 20
249.502488025058
 30
0.0
  0
ARC
  5
33E
330
1F
100
AcDbEntity
  8
0
  6
Continuous
 62
     7
370
    25
100
AcDbCircle
 10
129.2331267074
 20
266.4023416824
 30
0.0
 40
4.707843776969099
100
AcDbArc
 50
279.2752330304
 51
3.919444943
  0
SPLINE
  5
33F
330
1F
100
AcDbEntity
  8
0
  6
Continuous
 62
     7
370
    25
100
AcDbSpline
210
0.0
220
0.0
230
1.0
 70
     8
 71
     3
 72
    10
 73
     6
 74
     0
 42
0.00000001
 43
0.00000001
 40
0.0
 40
0.0
 40
0.0
 40
0.0
 40
0.4002088599189592
 40
0.8141959364606324
 40
0.9999999999999999
 40
0.9999999999999999
 40
0.9999999999999999
 40
0.9999999999999999
 10
133.9299594896891
 20
266.7241410668248
 30
0.0
 10
134.4241896279552
 20
266.7891797533076
 30
0.0
 10
135.4296650448016
 20
266.9214962498933
 30
0.0
 10
137.128027625803
 20
267.2590187204991
 30
0.0
 10
138.277818849944
 20
267.5259388049199
 30
0.0
 10
138.634002640252
 20
267.6086256487418
 30
0.0
  0
SPLINE
  5
340
330
1F
100
AcDbEntity
  8
0
  6
Continuous
 62
     7
370
    25
100
AcDbSpline
210
0.0
220
0.0
230
1.0
 70
     8
 71
     3
 72
    10
 73
     6
 74
     0
 42
0.00000001
 43
0.00000001
 40
0.0
 40
0.0
 40
0.0
 40
0.0
 40
0.4002088599189572
 40
0.8141959364606284
 40
1.0
 40
1.0
 40
1.0
 40
1.0
 10
-39.55590215222082
 20
266.7241410668216
 30
0.0
 10
-40.05013229048693
 20
266.7891797533045
 30
0.0
 10
-41.05560770733338
 20
266.9214962498904
 30
0.0
 10
-42.75397028833464
 20
267.2590187204958
 30
0.0
 10
-43.90376151247569
 20
267.5259388049167
 30
0.0
 10
-44.25994530278376
 20
267.6086256487388
 30
0.0
  0
ARC
  5
341
330
1F
100
AcDbEntity
  8
0
  6
Continuous
 62
     7
370
    25
100
AcDbCircle
 10
-34.85906937
 20
266.4023416824
 30
0.0
 40
4.707843776968939
100
AcDbArc
 50
176.080555057
 51
260.7247669696
  0
SPLINE
  5
342
330
1F
100
AcDbEntity
  8
0
  6
Continuous
 62
     7
370
    25
100
AcDbSpline
210
0.0
220
0.0
230
1.0
 70
     8
 71
     3
 72
    10
 73
     6
 74
     0
 42
0.00000001
 43
0.00000001
 40
0.0
 40
0.0
 40
0.0
 40
0.0
 40
0.3644327143101648
 40
0.7393133379813293
 40
1.0
 40
1.0
 40
1.0
 40
1.0
 10
132.1870286687342
 20
266.4966237463624
 30
0.0
 10
132.2338321488671
 20
266.5020472760665
 30
0.0
 10
132.3287809165476
 20
266.5130498224676
 30
0.0
 10
132.9848644824256
 20
266.5908412893768
 30
0.0
 10
133.6550667950862
 20
266.6853691605815
 30
0.0
 10
133.9299594896891
 20
266.7241410668248
 30
0.0
  0
LINE
  5
343
330
1F
100
AcDbEntity
  8
0
  6
Continuous
 62
     7
370
    25
100
AcDbLine
 10
156.7033214361
 20
268.2178579703
 30
0.0
 11
167.1870286687
 21
268.2178579703
 31
0.0
  0
LINE
  5
344
330
1F
100
AcDbEntity
  8
0
  6
Continuous
 62
     7
370
    25
100
AcDbLine
 10
132.1870286687
 20
268.2178579703
 30
0.0
 11
141.0455297826
 21
268.2178579703
 31
0.0
  0
SPLINE
  5
345
330
1F
100
AcDbEntity
  8
0
  6
Continuous
 62
     7
370
    25
100
AcDbSpline
210
0.0
220
0.0
230
1.0
 70
     8
 71
     3
 72
    10
 73
     6
 74
     0
 42
0.00000001
 43
0.00000001
 40
0.0
 40
0.0
 40
0.0
 40
0.0
 40
0.3644327143101642
 40
0.7393133379813295
 40
1.0
 40
1.0
 40
1.0
 40
1.0
 10
-37.81297133126588
 20
266.4966237463594
 30
0.0
 10
-37.85977481139882
 20
266.5020472760636
 30
0.0
 10
-37.95472357907936
 20
266.5130498224647
 30
0.0
 10
-38.6108071449571
 20
266.5908412893737
 30
0.0
 10
-39.28100945761798
 20
266.6853691605783
 30
0.0
 10
-39.55590215222082
 20
266.7241410668216
 30
0.0
  0
LINE
  5
346
330
1F
100
AcDbEntity
  8
0
  6
Continuous
 62
     7
370
    25
100
AcDbLine
 10
-62.3292640987
 20
268.2178579703
 30
0.0
 11
-72.8129713313
 21
268.2178579703
 31
0.0
  0
LINE
  5
347
330
1F
100
AcDbEntity
  8
0
  6
Continuous
 62
     7
370
    25
100
AcDbLine
 10
-37.8129713313
 20
268.2178579703
 30
0.0
 11
-46.6714724451
 21
268.2178579703
 31
0.0
  0
ARC
  5
348
330
1F
100
AcDbEntity
  8
0
  6
Continuous
 62
     7
370
    25
100
AcDbCircle
 10
48.3145206413
 20
250.3678579704
 30
0.0
 40
17.41420869868793
100
AcDbArc
 50
357.1516090285
 51
2.848390971
  0
ARC
  5
349
330
1F
100
AcDbEntity
  8
0
  6
Continuous
 62
     7
370
    25
100
AcDbCircle
 10
46.0595366962
 20
250.3678579704
 30
0.0
 40
17.41420869872452
100
AcDbArc
 50
177.151609029
 51
182.8483909715
  0
SPLINE
  5
34A
330
1F
100
AcDbEntity
  8
0
  6
Continuous
 62
     7
370
    25
100
AcDbSpline
210
0.0
220
0.0
230
1.0
 70
    24
 71
     3
 72
     9
 73
     5
 74
     0
 42
0.00000001
 43
0.00000001
 40
0.0
 40
0.0
 40
0.0
 40
0.0
 40
0.5056315204548594
 40
1.0
 40
1.0
 40
1.0
 40
1.0
 10
104.6964051340362
 20
250.3678579703409
 30
0.0
 10
106.4763059716384
 20
250.3678579703409
 30
0.0
 10
109.9964600079235
 20
250.3678579703409
 30
0.0
 10
113.3546354674078
 20
250.3678579703409
 30
0.0
 10
115.0148115633587
 20
250.3678579703411
 30
0.0
  0
SPLINE
  5
34B
330
1F
100
AcDbEntity
  8
0
  6
Continuous
 62
     7
370
    25
100
AcDbSpline
210
0.0
220
0.0
230
1.0
 70
    24
 71
     3
 72
    15
 73
    11
 74
     0
 42
0.00000001
 43
0.00000001
 40
0.0
 40
0.0
 40
0.0
 40
0.0
 40
0.1249999999999999
 40
0.2499999999999997
 40
0.3750000000000011
 40
0.500000000000001
 40
0.6250000000000017
 40
0.7500000000000003
 40
0.8749999999999978
 40
1.0
 40
1.0
 40
1.0
 40
1.0
 10
104.6964051340359
 20
261.1178579703408
 30
0.0
 10
104.6964051340359
 20
261.0778495692268
 30
0.0
 10
104.6964051340359
 20
260.9978327669987
 30
0.0
 10
104.6964051340359
 20
260.3586093697172
 30
0.0
 10
104.696405134036
 20
259.3651074231553
 30
0.0
 10
104.6964051340359
 20
258.0178987532205
 30
0.0
 10
104.6964051340361
 20
256.3788327725392
 30
0.0
 10
104.6964051340361
 20
254.5081980084314
 30
0.0
 10
104.6964051340361
 20
252.4786044033283
 30
0.0
 10
104.6964051340361
 20
251.0714401146699
 30
0.0
 10
104.6964051340361
 20
250.3678579703408
 30
0.0
  0
SPLINE
  5
34C
330
1F
100
AcDbEntity
  8
0
  6
Continuous
 62
     7
370
    25
100
AcDbSpline
210
0.0
220
0.0
230
1.0
 70
    24
 71
     3
 72
     9
 73
     5
 74
     0
 42
0.00000001
 43
0.00000001
 40
0.0
 40
0.0
 40
0.0
 40
0.0
 40
0.4943684795451426
 40
0.9999999999999999
 40
0.9999999999999999
 40
0.9999999999999999
 40
0.9999999999999999
 10
118.7122405338658
 20
261.117857970341
 30
0.0
 10
116.4571680035322
 20
261.1178579703409
 30
0.0
 10
111.8956463377329
 20
261.1178579703408
 30
0.0
 10
107.1141037717788
 20
261.1178579703408
 30
0.0
 10
104.6964051340359
 20
261.1178579703408
 30
0.0
  0
SPLINE
  5
34D
330
1F
100
AcDbEntity
  8
0
  6
Continuous
 62
     7
370
    25
100
AcDbSpline
210
0.0
220
0.0
230
1.0
 70
    24
 71
     3
 72
     9
 73
     5
 74
     0
 42
0.00000001
 43
0.00000001
 40
0.0
 40
0.0
 40
0.0
 40
0.0
 40
0.4943684795451426
 40
0.9999999999999999
 40
0.9999999999999999
 40
0.9999999999999999
 40
0.9999999999999999
 10
118.7122405338661
 20
239.617857970341
 30
0.0
 10
116.4571680035326
 20
239.6178579703409
 30
0.0
 10
111.8956463377332
 20
239.6178579703409
 30
0.0
 10
107.1141037717792
 20
239.6178579703406
 30
0.0
 10
104.6964051340363
 20
239.6178579703407
 30
0.0
  0
SPLINE
  5
34E
330
1F
100
AcDbEntity
  8
0
  6
Continuous
 62
     7
370
    25
100
AcDbSpline
210
0.0
220
0.0
230
1.0
 70
    24
 71
     3
 72
    15
 73
    11
 74
     0
 42
0.00000001
 43
0.00000001
 40
0.0
 40
0.0
 40
0.0
 40
0.0
 40
0.1249999999999999
 40
0.2499999999999997
 40
0.3750000000000004
 40
0.5000000000000003
 40
0.6250000000000016
 40
0.7500000000000002
 40
0.8749999999999977
 40
0.9999999999999999
 40
0.9999999999999999
 40
0.9999999999999999
 40
0.9999999999999999
 10
104.6964051340363
 20
239.6178579703407
 30
0.0
 10
104.6964051340363
 20
239.6578663714547
 30
0.0
 10
104.6964051340363
 20
239.7378831736828
 30
0.0
 10
104.6964051340362
 20
240.3771065709643
 30
0.0
 10
104.6964051340364
 20
241.3706085175264
 30
0.0
 10
104.6964051340362
 20
242.7178171874609
 30
0.0
 10
104.6964051340362
 20
244.3568831681423
 30
0.0
 10
104.6964051340362
 20
246.2275179322502
 30
0.0
 10
104.6964051340362
 20
248.2571115373534
 30
0.0
 10
104.6964051340361
 20
249.6642758260116
 30
0.0
 10
104.6964051340361
 20
250.3678579703408
 30
0.0
  0
SPLINE
  5
34F
330
1F
100
AcDbEntity
  8
0
  6
Continuous
 62
     7
370
    25
100
AcDbSpline
210
0.0
220
0.0
230
1.0
 70
    24
 71
     3
 72
     9
 73
     5
 74
     0
 42
0.00000001
 43
0.00000001
 40
0.0
 40
0.0
 40
0.0
 40
0.0
 40
0.4943684795451436
 40
1.0
 40
1.0
 40
1.0
 40
1.0
 10
-24.33818319639725
 20
261.1178579703386
 30
0.0
 10
-22.0831106660638
 20
261.1178579703386
 30
0.0
 10
-17.52158900026443
 20
261.1178579703387
 30
0.0
 10
-12.74004643431037
 20
261.1178579703388
 30
0.0
 10
-10.32234779656746
 20
261.1178579703388
 30
0.0
  0
SPLINE
  5
350
330
1F
100
AcDbEntity
  8
0
  6
Continuous
 62
     7
370
    25
100
AcDbSpline
210
0.0
220
0.0
230
1.0
 70
    24
 71
     3
 72
    15
 73
    11
 74
     0
 42
0.00000001
 43
0.00000001
 40
0.0
 40
0.0
 40
0.0
 40
0.0
 40
0.1249999999999999
 40
0.2500000000000004
 40
0.3750000000000011
 40
0.5000000000000004
 40
0.6250000000000016
 40
0.7500000000000003
 40
0.8749999999999977
 40
1.0
 40
1.0
 40
1.0
 40
1.0
 10
-10.32234779656746
 20
261.1178579703388
 30
0.0
 10
-10.32234779656743
 20
261.077849569225
 30
0.0
 10
-10.32234779656746
 20
260.9978327669969
 30
0.0
 10
-10.32234779656749
 20
260.3586093697151
 30
0.0
 10
-10.32234779656743
 20
259.3651074231533
 30
0.0
 10
-10.32234779656743
 20
258.0178987532187
 30
0.0
 10
-10.3223477965674
 20
256.3788327725371
 30
0.0
 10
-10.32234779656735
 20
254.5081980084295
 30
0.0
 10
-10.32234779656727
 20
252.4786044033262
 30
0.0
 10
-10.32234779656729
 20
251.0714401146679
 30
0.0
 10
-10.32234779656729
 20
250.3678579703388
 30
0.0
  0
SPLINE
  5
351
330
1F
100
AcDbEntity
  8
0
  6
Continuous
 62
     7
370
    25
100
AcDbSpline
210
0.0
220
0.0
230
1.0
 70
    24
 71
     3
 72
     9
 73
     5
 74
     0
 42
0.00000001
 43
0.00000001
 40
0.0
 40
0.0
 40
0.0
 40
0.0
 40
0.5056315204548582
 40
1.0
 40
1.0
 40
1.0
 40
1.0
 10
-10.32234779656729
 20
250.3678579703388
 30
0.0
 10
-12.1022486341695
 20
250.3678579703387
 30
0.0
 10
-15.62240267045467
 20
250.3678579703385
 30
0.0
 10
-18.98057812993883
 20
250.3678579703387
 30
0.0
 10
-20.64075422588985
 20
250.3678579703385
 30
0.0
  0
SPLINE
  5
352
330
1F
100
AcDbEntity
  8
0
  6
Continuous
 62
     7
370
    25
100
AcDbSpline
210
0.0
220
0.0
230
1.0
 70
    24
 71
     3
 72
    15
 73
    11
 74
     0
 42
0.00000001
 43
0.00000001
 40
0.0
 40
0.0
 40
0.0
 40
0.0
 40
0.1249999999999999
 40
0.2499999999999997
 40
0.3750000000000011
 40
0.5000000000000004
 40
0.6250000000000016
 40
0.7500000000000003
 40
0.8749999999999977
 40
1.0
 40
1.0
 40
1.0
 40
1.0
 10
-10.3223477965671
 20
239.6178579703387
 30
0.0
 10
-10.32234779656713
 20
239.6578663714527
 30
0.0
 10
-10.32234779656713
 20
239.7378831736807
 30
0.0
 10
-10.32234779656713
 20
240.3771065709624
 30
0.0
 10
-10.32234779656704
 20
241.3706085175245
 30
0.0
 10
-10.32234779656715
 20
242.717817187459
 30
0.0
 10
-10.32234779656718
 20
244.3568831681404
 30
0.0
 10
-10.32234779656721
 20
246.2275179322483
 30
0.0
 10
-10.32234779656718
 20
248.2571115373514
 30
0.0
 10
-10.32234779656727
 20
249.6642758260096
 30
0.0
 10
-10.32234779656729
 20
250.3678579703388
 30
0.0
  0
SPLINE
  5
353
330
1F
100
AcDbEntity
  8
0
  6
Continuous
 62
     7
370
    25
100
AcDbSpline
210
0.0
220
0.0
230
1.0
 70
    24
 71
     3
 72
     9
 73
     5
 74
     0
 42
0.00000001
 43
0.00000001
 40
0.0
 40
0.0
 40
0.0
 40
0.0
 40
0.4943684795451436
 40
1.0
 40
1.0
 40
1.0
 40
1.0
 10
-24.33818319639688
 20
239.6178579703385
 30
0.0
 10
-22.08311066606344
 20
239.6178579703384
 30
0.0
 10
-17.52158900026407
 20
239.6178579703387
 30
0.0
 10
-12.74004643431001
 20
239.6178579703387
 30
0.0
 10
-10.3223477965671
 20
239.6178579703387
 30
0.0
  0
ARC
  5
354
330
1F
100
AcDbEntity
  8
0
  6
Continuous
 62
     7
370
    25
100
AcDbCircle
 10
60.5687514494
 20
236.8579750669
 30
0.0
 40
3.695783567042303
100
AcDbArc
 50
71.647830712
 51
88.7536894373
  0
SPLINE
  5
355
330
1F
100
AcDbEntity
  8
0
  6
Continuous
 62
     7
370
    25
100
AcDbSpline
210
0.0
220
0.0
230
1.0
 70
     8
 71
     3
 72
    12
 73
     8
 74
     0
 42
0.00000001
 43
0.00000001
 40
0.0
 40
0.0
 40
0.0
 40
0.0
 40
0.0083795365781601
 40
0.0958567924053477
 40
0.1830705552997318
 40
0.3564922358642379
 40
0.9999999999999999
 40
0.9999999999999999
 40
0.9999999999999999
 40
0.9999999999999999
 10
68.04194384022367
 20
250.3678579703401
 30
0.0
 10
68.03592963793531
 20
250.3641737907064
 30
0.0
 10
67.9671308284952
 20
250.3220290206424
 30
0.0
 10
67.83160611606404
 20
250.2483191490958
 30
0.0
 10
67.56739053681743
 20
250.1219087640428
 30
0.0
 10
66.86433018137927
 20
249.8281687748978
 30
0.0
 10
66.2170706689063
 20
249.6459916894976
 30
0.0
 10
65.70721449419104
 20
249.5024880250586
 30
0.0
  0
SPLINE
  5
356
330
1F
100
AcDbEntity
  8
0
  6
Continuous
 62
     7
370
    25
100
AcDbSpline
210
0.0
220
0.0
230
1.0
 70
     8
 71
     3
 72
    14
 73
    10
 74
     0
 42
0.00000001
 43
0.00000001
 40
0.0
 40
0.0
 40
0.0
 40
0.0
 40
0.0036519633757383
 40
0.1287488180035151
 40
0.2542734475680392
 40
0.5068715809684015
 40
0.7404998306596399
 40
0.8703390027579804
 40
0.9999999999999999
 40
0.9999999999999999
 40
0.9999999999999999
 40
0.9999999999999999
 10
68.04194384022367
 20
250.3678579703401
 30
0.0
 10
68.03553395057399
 20
250.3512814168399
 30
0.0
 10
67.80955531085941
 20
249.7668802468033
 30
0.0
 10
67.54680220322223
 20
248.5486489313265
 30
0.0
 10
67.09139711300644
 20
246.2099160083144
 30
0.0
 10
66.0938541665641
 20
243.6916254544296
 30
0.0
 10
64.67752600324845
 20
241.8480679088465
 30
0.0
 10
63.19809500871298
 20
240.8437064514427
 30
0.0
 10
62.2207373454951
 20
240.5250212618363
 30
0.0
 10
61.73239404461361
 20
240.3657880729112
 30
0.0
  0
SPLINE
  5
357
330
1F
100
AcDbEntity
  8
0
  6
Continuous
 62
     7
370
    25
100
AcDbSpline
210
0.0
220
0.0
230
1.0
 70
     8
 71
     3
 72
    12
 73
     8
 74
     0
 42
0.00000001
 43
0.00000001
 40
0.0
 40
0.0
 40
0.0
 40
0.0
 40
0.0083795365781602
 40
0.095856792405349
 40
0.1830705552997342
 40
0.3564922358642426
 40
1.0
 40
1.0
 40
1.0
 40
1.0
 10
26.33211349724518
 20
250.3678579703395
 30
0.0
 10
26.33812769953353
 20
250.3641737907057
 30
0.0
 10
26.40692650897347
 20
250.3220290206413
 30
0.0
 10
26.54245122140481
 20
250.2483191490954
 30
0.0
 10
26.80666680065147
 20
250.1219087640423
 30
0.0
 10
27.50972715608946
 20
249.8281687748965
 30
0.0
 10
28.15698666856253
 20
249.6459916894969
 30
0.0
 10
28.66684284327781
 20
249.502488025058
 30
0.0
  0
ARC
  5
358
330
1F
100
AcDbEntity
  8
0
  6
Continuous
 62
     7
370
    25
100
AcDbCircle
 10
33.8053058881
 20
236.8579750669
 30
0.0
 40
3.695783567042304
100
AcDbArc
 50
91.2463105627
 51
108.352169288
  0
SPLINE
  5
359
330
1F
100
AcDbEntity
  8
0
  6
Continuous
 62
     7
370
    25
100
AcDbSpline
210
0.0
220
0.0
230
1.0
 70
     8
 71
     3
 72
    14
 73
    10
 74
     0
 42
0.00000001
 43
0.00000001
 40
0.0
 40
0.0
 40
0.0
 40
0.0
 40
0.0036519633757383
 40
0.1287488180035151
 40
0.2542734475680392
 40
0.5068715809684015
 40
0.7404998306596399
 40
0.8703390027579804
 40
0.9999999999999999
 40
0.9999999999999999
 40
0.9999999999999999
 40
0.9999999999999999
 10
26.33211349724518
 20
250.3678579703395
 30
0.0
 10
26.33852338689491
 20
250.3512814168393
 30
0.0
 10
26.56450202660915
 20
249.7668802468026
 30
0.0
 10
26.827255134247
 20
248.5486489313258
 30
0.0
 10
27.28266022446252
 20
246.2099160083138
 30
0.0
 10
28.28020317090485
 20
243.6916254544289
 30
0.0
 10
29.6965313342209
 20
241.8480679088458
 30
0.0
 10
31.17596232875603
 20
240.8437064514422
 30
0.0
 10
32.15331999197407
 20
240.5250212618358
 30
0.0
 10
32.64166329285556
 20
240.3657880729108
 30
0.0
  0
ARC
  5
35A
330
1F
100
AcDbEntity
  8
0
  6
Continuous
 62
     7
370
    25
100
AcDbCircle
 10
60.5687514494
 20
263.8777408737
 30
0.0
 40
3.695783567041707
100
AcDbArc
 50
271.2463105627
 51
288.352169288
  0
SPLINE
  5
35B
330
1F
100
AcDbEntity
  8
0
  6
Continuous
 62
     7
370
    25
100
AcDbSpline
210
0.0
220
0.0
230
1.0
 70
     8
 71
     3
 72
    13
 73
     9
 74
     0
 42
0.00000001
 43
0.00000001
 40
0.0
 40
0.0
 40
0.0
 40
0.0
 40
0.1296625909659293
 40
0.2595033589782112
 40
0.4931344803034457
 40
0.7457357185055095
 40
0.8731652299838693
 40
1.0
 40
1.0
 40
1.0
 40
1.0
 10
61.73239404461328
 20
260.3699278677688
 30
0.0
 10
62.220685266697
 20
260.2106779648701
 30
0.0
 10
63.19793870075491
 20
259.8919593243484
 30
0.0
 10
64.67836084567685
 20
258.8879159630274
 30
0.0
 10
66.08760927477519
 20
257.0420862741349
 30
0.0
 10
67.11414999086979
 20
254.5242710399662
 30
0.0
 10
67.51712245493341
 20
252.1499773489446
 30
0.0
 10
67.86727638975643
 20
250.9609707073848
 30
0.0
 10
68.04194384022367
 20
250.3678579703401
 30
0.0
  0
SPLINE
  5
35C
330
1F
100
AcDbEntity
  8
0
  6
Continuous
 62
     7
370
    25
100
AcDbSpline
210
0.0
220
0.0
230
1.0
 70
     8
 71
     3
 72
    12
 73
     8
 74
     0
 42
0.00000001
 43
0.00000001
 40
0.0
 40
0.0
 40
0.0
 40
0.0
 40
0.6435077641343233
 40
0.816929444699491
 40
0.9041432075942079
 40
0.9916204634217516
 40
1.0
 40
1.0
 40
1.0
 40
1.0
 10
65.70721449419864
 20
251.2332279156104
 30
0.0
 10
66.21707066891241
 20
251.0897242511774
 30
0.0
 10
66.8643301813846
 20
250.9075471657847
 30
0.0
 10
67.56739053681599
 20
250.6138071766355
 30
0.0
 10
67.83160611606631
 20
250.4873967915879
 30
0.0
 10
67.96713082848926
 20
250.413686920029
 30
0.0
 10
68.03592963793481
 20
250.371542149973
 30
0.0
 10
68.04194384022367
 20
250.3678579703401
 30
0.0
  0
SPLINE
  5
35D
330
1F
100
AcDbEntity
  8
0
  6
Continuous
 62
     7
370
    25
100
AcDbSpline
210
0.0
220
0.0
230
1.0
 70
     8
 71
     3
 72
    12
 73
     8
 74
     0
 42
0.00000001
 43
0.00000001
 40
0.0
 40
0.0
 40
0.0
 40
0.0
 40
0.6435077641343233
 40
0.816929444699491
 40
0.9041432075942079
 40
0.9916204634217516
 40
1.0
 40
1.0
 40
1.0
 40
1.0
 10
28.6668428432702
 20
251.2332279156097
 30
0.0
 10
28.15698666855637
 20
251.0897242511767
 30
0.0
 10
27.50972715608446
 20
250.907547165784
 30
0.0
 10
26.80666680065297
 20
250.6138071766349
 30
0.0
 10
26.54245122140231
 20
250.4873967915873
 30
0.0
 10
26.4069265089798
 20
250.4136869200283
 30
0.0
 10
26.33812769953403
 20
250.3715421499724
 30
0.0
 10
26.33211349724518
 20
250.3678579703395
 30
0.0
  0
SPLINE
  5
35E
330
1F
100
AcDbEntity
  8
0
  6
Continuous
 62
     7
370
    25
100
AcDbSpline
210
0.0
220
0.0
230
1.0
 70
     8
 71
     3
 72
    13
 73
     9
 74
     0
 42
0.00000001
 43
0.00000001
 40
0.0
 40
0.0
 40
0.0
 40
0.0
 40
0.1296625909659293
 40
0.2595033589782112
 40
0.4931344803034457
 40
0.7457357185055095
 40
0.8731652299838693
 40
1.0
 40
1.0
 40
1.0
 40
1.0
 10
32.64166329285523
 20
260.3699278677684
 30
0.0
 10
32.15337207077151
 20
260.2106779648696
 30
0.0
 10
31.17611863671355
 20
259.8919593243479
 30
0.0
 10
29.69569649179177
 20
258.8879159630267
 30
0.0
 10
28.2864480626932
 20
257.0420862741342
 30
0.0
 10
27.259907346599
 20
254.5242710399656
 30
0.0
 10
26.85693488253538
 20
252.149977348944
 30
0.0
 10
26.50678094771236
 20
250.9609707073841
 30
0.0
 10
26.33211349724518
 20
250.3678579703395
 30
0.0
  0
ARC
  5
35F
330
1F
100
AcDbEntity
  8
0
  6
Continuous
 62
     7
370
    25
100
AcDbCircle
 10
33.8053058881
 20
263.8777408737
 30
0.0
 40
3.695783567038679
100
AcDbArc
 50
251.647830712
 51
268.7536894373
  0
LINE
  5
360
330
1F
100
AcDbEntity
  8
0
  6
Continuous
 62
     7
370
    25
100
AcDbLine
 10
104.696405134
 20
239.6178579703
 30
0.0
 11
58.8819228886
 21
239.6178579703
 31
0.0
  0
LINE
  5
361
330
1F
100
AcDbEntity
  8
0
  6
Continuous
 62
     7
370
    25
100
AcDbLine
 10
104.696405134
 20
261.1178579703
 30
0.0
 11
56.7081211481
 21
261.1178579703
 31
0.0
  0
LINE
  5
362
330
1F
100
AcDbEntity
  8
0
  6
Continuous
 62
     7
370
    25
100
AcDbLine
 10
-10.3223477966
 20
239.6178579703
 30
0.0
 11
37.6659361894
 21
239.6178579703
 31
0.0
  0
LINE
  5
363
330
1F
100
AcDbEntity
  8
0
  6
Continuous
 62
     7
370
    25
100
AcDbLine
 10
-10.3223477966
 20
261.1178579703
 30
0.0
 11
35.4921344489
 21
261.1178579703
 31
0.0
  0
ARC
  5
364
330
1F
100
AcDbEntity
  8
0
  6
Continuous
 62
     7
370
    25
100
AcDbCircle
 10
127.1870286687
 20
266.4966237464
 30
0.0
 40
5.000000000000014
100
AcDbArc
 50
275.1180625961
 51
0.0
  0
ARC
  5
365
330
1F
100
AcDbEntity
  8
0
  6
Continuous
 62
     7
370
    25
100
AcDbCircle
 10
-32.8129713313
 20
266.4966237464
 30
0.0
 40
5.000000000000039
100
AcDbArc
 50
180.0
 51
264.8819374039
  0
ARC
  5
366
330
1F
100
AcDbEntity
  8
0
  6
Continuous
 62
     7
370
    25
100
AcDbCircle
 10
136.7881398713
 20
232.8823306443
 30
0.0
 40
5.00000000000003
100
AcDbArc
 50
55.0204557102
 51
79.031305318
  0
LINE
  5
367
330
1F
100
AcDbEntity
  8
0
  6
Continuous
 62
     8
370
    25
100
AcDbLine
 10
39.1277948214
 20
242.7934969432
 30
0.0
 11
39.2870286687
 21
242.6275611301
 31
0.0
  0
ARC
  5
368
330
1F
100
AcDbEntity
  8
0
  6
Continuous
 62
     8
370
    25
100
AcDbCircle
 10
47.1870286687
 20
250.3678579703
 30
0.0
 40
11.05993649053894
100
AcDbArc
 50
315.5850271977
 51
223.2235523034
  0
ARC
  5
369
330
1F
100
AcDbEntity
  8
0
  6
Continuous
 62
     8
370
    25
100
AcDbCircle
 10
47.1870286687
 20
250.3678579703
 30
0.0
 40
11.30993649053897
100
AcDbArc
 50
314.3068486059
 51
225.6931513941
  0
LINE
  5
36A
330
1F
100
AcDbEntity
  8
0
  6
Continuous
 62
     8
370
    25
100
AcDbLine
 10
55.0870286687
 20
238.0021216604
 30
0.0
 11
55.3442875274
 21
238.1087897793
 31
0.0
  0
ARC
  5
36B
330
1F
100
AcDbEntity
  8
0
  6
Continuous
 62
     8
370
    25
100
AcDbCircle
 10
39.0295381619
 20
238.452803745
 30
0.0
 40
0.3529502268475728
100
AcDbArc
 50
279.5385256861
 51
316.8476542184
  0
ARC
  5
36C
330
1F
100
AcDbEntity
  8
0
  6
Continuous
 62
     8
370
    25
100
AcDbCircle
 10
47.1870286687
 20
250.3678579703
 30
0.0
 40
9.375000000000014
100
AcDbArc
 50
327.4227936768
 51
212.5772063232
  0
LWPOLYLINE
  5
36D
330
1F
100
AcDbEntity
  8
0
  6
Continuous
 62
     8
370
    25
100
AcDbPolyline
 90
       17
 70
   128
 43
0.0
 10
39.2870286687
 20
-57.9051301181
 10
39.3333388072
 20
-57.6043016329
 10
39.7005686164
 20
-57.0167110682
 10
40.417856977
 20
-56.4706619908
 10
41.4516642825
 20
-55.9916870488
 10
42.7536508524
 20
-55.602182578
 10
44.2629372416
 20
-55.3203613747
 10
45.908950896
 20
-55.1594010851
 10
47.6147260466
 20
-55.1268280334
 10
49.3005025431
 20
-55.2241652993
 10
50.8874553503
 20
-55.4468615004
 10
52.3013803185
 20
-55.78450361
 10
53.4761638878
 20
-56.2213038581
 10
54.3568744841
 20
-56.7368379508
 10
54.9023310588
 20
-57.3070000867
 10
55.0870286687
 20
-57.9051301181
 10
55.0870286687
 20
-57.9051301181
  0
LWPOLYLINE
  5
36E
330
1F
100
AcDbEntity
  8
0
  6
Continuous
 62
     8
370
    25
100
AcDbPolyline
 90
       17
 70
   128
 43
0.0
 10
39.2870286687
 20
227.6948698819
 10
39.3333388072
 20
227.9956983671
 10
39.7005686164
 20
228.5832889318
 10
40.417856977
 20
229.1293380092
 10
41.4516642825
 20
229.6083129512
 10
42.7536508524
 20
229.997817422
 10
44.2629372415
 20
230.2796386253
 10
45.908950896
 20
230.4405989149
 10
47.6147260466
 20
230.4731719666
 10
49.3005025431
 20
230.3758347007
 10
50.8874553503
 20
230.1531384996
 10
52.3013803185
 20
229.81549639
 10
53.4761638878
 20
229.3786961419
 10
54.3568744841
 20
228.8631620492
 10
54.9023310588
 20
228.2929999133
 10
55.0870286687
 20
227.6948698819
 10
55.0870286687
 20
227.6948698819
  0
ARC
  5
36F
330
1F
100
AcDbEntity
  8
0
  6
Continuous
 62
     8
370
    25
100
AcDbCircle
 10
47.1870286687
 20
-105.2321420297
 30
0.0
 40
8.410472292019556
100
AcDbArc
 50
159.9351921799
 51
0.0
  0
LWPOLYLINE
  5
370
330
1F
100
AcDbEntity
  8
0
  6
Continuous
 62
     8
370
    25
100
AcDbPolyline
 90
        3
 70
   128
 43
0.0
 10
55.0870286687
 20
-102.3466534792
 10
55.4137119622
 20
-103.4835065149
 10
55.5975009608
 20
-105.2321420297
  0
LINE
  5
371
330
1F
100
AcDbEntity
  8
0
  6
Continuous
 62
     8
370
    25
100
AcDbLine
 10
-29.5129713313
 20
307.8178579703
 30
0.0
 11
-81.1129713313
 21
307.8178579703
 31
0.0
  0
LINE
  5
372
330
1F
100
AcDbEntity
  8
0
  6
Continuous
 62
     8
370
    25
100
AcDbLine
 10
-29.5233155562
 20
305.3178579703
 30
0.0
 11
-29.5129713313
 21
305.3178579703
 31
0.0
  0
LINE
  5
373
330
1F
100
AcDbEntity
  8
0
  6
Continuous
 62
     8
370
    25
100
AcDbLine
 10
-81.1129713313
 20
305.3178579703
 30
0.0
 11
-29.5233155562
 21
305.3178579703
 31
0.0
  0
LINE
  5
374
330
1F
100
AcDbEntity
  8
0
  6
Continuous
 62
     8
370
    25
100
AcDbLine
 10
-65.0828020861
 20
289.8661036827
 30
0.0
 11
-65.2553430206
 21
289.8474097537
 31
0.0
  0
SPLINE
  5
375
330
1F
100
AcDbEntity
  8
0
  6
Continuous
 62
     8
370
    25
100
AcDbSpline
210
0.0
220
0.0
230
1.0
 70
     8
 71
     3
 72
    10
 73
     6
 74
     0
 42
0.00000001
 43
0.00000001
 40
0.0
 40
0.0
 40
0.0
 40
0.0
 40
0.2203464856976093
 40
0.6217776090421351
 40
1.0
 40
1.0
 40
1.0
 40
1.0
 10
-37.5224947700104
 20
289.8661036827393
 30
0.0
 10
-37.49348344338927
 20
289.8714979850481
 30
0.0
 10
-37.41161876901278
 20
289.8867197226741
 30
0.0
 10
-37.351965084991
 20
289.8967746561833
 30
0.0
 10
-37.39500345665694
 20
289.8871688612632
 30
0.0
 10
-37.41588205918464
 20
289.8825089364952
 30
0.0
  0
LINE
  5
376
330
1F
100
AcDbEntity
  8
0
  6
Continuous
 62
     8
370
    25
100
AcDbLine
 10
-69.110134448
 20
289.0329846159
 30
0.0
 11
-41.5158082146
 21
289.0329846159
 31
0.0
  0
LINE
  5
377
330
1F
100
AcDbEntity
  8
0
  6
Continuous
 62
     8
370
    25
100
AcDbLine
 10
-42.3129713313
 20
288.0537720758
 30
0.0
 11
-68.3129713313
 21
288.0537720758
 31
0.0
  0
LINE
  5
378
330
1F
100
AcDbEntity
  8
0
  6
Continuous
 62
     8
370
    25
100
AcDbLine
 10
-36.5765267362
 20
303.3178579703
 30
0.0
 11
-36.8734847582
 21
303.3178579703
 31
0.0
  0
SPLINE
  5
379
330
1F
100
AcDbEntity
  8
0
  6
Continuous
 62
     8
370
    25
100
AcDbSpline
210
0.0
220
0.0
230
1.0
 70
     8
 71
     3
 72
    10
 73
     6
 74
     0
 42
0.00000001
 43
0.00000001
 40
0.0
 40
0.0
 40
0.0
 40
0.0
 40
0.0595198163307544
 40
0.6668412068398877
 40
1.0
 40
1.0
 40
1.0
 40
1.0
 10
-36.58628236681219
 20
290.8705686684797
 30
0.0
 10
-36.58310680230106
 20
290.8709391711474
 30
0.0
 10
-36.54752878137402
 20
290.8750901659134
 30
0.0
 10
-36.65721310028286
 20
290.865423103048
 30
0.0
 10
-36.81691236536467
 20
290.850575785479
 30
0.0
 10
-36.87348475822008
 20
290.845316222876
 30
0.0
  0
SPLINE
  5
37A
330
1F
100
AcDbEntity
  8
0
  6
Continuous
 62
     8
370
    25
100
AcDbSpline
210
0.0
220
0.0
230
1.0
 70
     8
 71
     3
 72
     9
 73
     5
 74
     0
 42
0.00000001
 43
0.00000001
 40
0.0
 40
0.0
 40
0.0
 40
0.0
 40
0.3980127522004955
 40
1.0
 40
1.0
 40
1.0
 40
1.0
 10
-73.80908712476759
 20
290.8453162228765
 30
0.0
 10
-73.86633985621846
 20
290.8512699185634
 30
0.0
 10
-74.01018633132345
 20
290.8662284736705
 30
0.0
 10
-74.0285842688787
 20
290.8689376784024
 30
0.0
 10
-74.0396595926728
 20
290.8705685851025
 30
0.0
  0
LINE
  5
37B
330
1F
100
AcDbEntity
  8
0
  6
Continuous
 62
     8
370
    25
100
AcDbLine
 10
-73.8090871248
 20
303.3178579703
 30
0.0
 11
-74.0494161536
 21
303.3178579703
 31
0.0
  0
LINE
  5
37C
330
1F
100
AcDbEntity
  8
0
  6
Continuous
 62
     8
370
    25
100
AcDbLine
 10
123.8870438166
 20
305.3178579703
 30
0.0
 11
175.4870286687
 21
305.3178579703
 31
0.0
  0
LINE
  5
37D
330
1F
100
AcDbEntity
  8
0
  6
Continuous
 62
     8
370
    25
100
AcDbLine
 10
175.4870135209
 20
307.8178579703
 30
0.0
 11
123.8870286687
 21
307.8178579703
 31
0.0
  0
SPLINE
  5
37E
330
1F
100
AcDbEntity
  8
0
  6
Continuous
 62
     8
370
    25
100
AcDbSpline
210
0.0
220
0.0
230
1.0
 70
     8
 71
     3
 72
     9
 73
     5
 74
     0
 42
0.00000001
 43
0.00000001
 40
0.0
 40
0.0
 40
0.0
 40
0.0
 40
0.8503475205276124
 40
1.0
 40
1.0
 40
1.0
 40
1.0
 10
167.6091137748094
 20
289.8877399443227
 30
0.0
 10
167.6235794056371
 20
289.8905602685015
 30
0.0
 10
167.6405908397609
 20
289.8938769409333
 30
0.0
 10
167.6306146479274
 20
289.8919139083043
 30
0.0
 10
167.6291216860837
 20
289.8916201356039
 30
0.0
  0
LINE
  5
37F
330
1F
100
AcDbEntity
  8
0
  6
Continuous
 62
     8
370
    25
100
AcDbLine
 10
135.889865552
 20
289.0329846159
 30
0.0
 11
163.4841836848
 21
289.0329846159
 31
0.0
  0
LINE
  5
380
330
1F
100
AcDbEntity
  8
0
  6
Continuous
 62
     8
370
    25
100
AcDbLine
 10
162.6870210361
 20
288.0537720758
 30
0.0
 11
136.6870286687
 21
288.0537720758
 31
0.0
  0
LINE
  5
381
330
1F
100
AcDbEntity
  8
0
  6
Continuous
 62
     8
370
    25
100
AcDbLine
 10
168.4301762475
 20
303.3178579703
 30
0.0
 11
168.1611428077
 21
303.3178579703
 31
0.0
  0
SPLINE
  5
382
330
1F
100
AcDbEntity
  8
0
  6
Continuous
 62
     8
370
    25
100
AcDbSpline
210
0.0
220
0.0
230
1.0
 70
     8
 71
     3
 72
    10
 73
     6
 74
     0
 42
0.00000001
 43
0.00000001
 40
0.0
 40
0.0
 40
0.0
 40
0.0
 40
0.0110620927799945
 40
0.6496753835087538
 40
0.9999999999999999
 40
0.9999999999999999
 40
0.9999999999999999
 40
0.9999999999999999
 10
168.4282998340468
 20
290.8714142148653
 30
0.0
 10
168.4289238319052
 20
290.8714756887096
 30
0.0
 10
168.4655711513599
 20
290.8750860402153
 30
0.0
 10
168.3651110676266
 20
290.8653205070447
 30
0.0
 10
168.2144968747106
 20
290.8505489483964
 30
0.0
 10
168.1611428076998
 20
290.8453162228827
 30
0.0
  0
SPLINE
  5
383
330
1F
100
AcDbEntity
  8
0
  6
Continuous
 62
     8
370
    25
100
AcDbSpline
210
0.0
220
0.0
230
1.0
 70
     8
 71
     3
 72
     9
 73
     5
 74
     0
 42
0.00000001
 43
0.00000001
 40
0.0
 40
0.0
 40
0.0
 40
0.0
 40
0.3774889695044417
 40
1.0
 40
1.0
 40
1.0
 40
1.0
 10
131.2107472740809
 20
290.84531622288
 30
0.0
 10
131.1506147396678
 20
290.8512365646998
 30
0.0
 10
130.9913186031681
 20
290.866920047657
 30
0.0
 10
130.9632556427323
 20
290.8696881925529
 30
0.0
 10
130.9457861403126
 20
290.8714113932845
 30
0.0
  0
LINE
  5
384
330
1F
100
AcDbEntity
  8
0
  6
Continuous
 62
     8
370
    25
100
AcDbLine
 10
131.2107472741
 20
303.3178579703
 30
0.0
 11
130.9438806926
 21
303.3178579703
 31
0.0
  0
SPLINE
  5
385
330
1F
100
AcDbEntity
  8
0
  6
Continuous
 62
     8
370
    25
100
AcDbSpline
210
0.0
220
0.0
230
1.0
 70
     8
 71
     3
 72
    13
 73
     9
 74
     0
 42
0.00000001
 43
0.00000001
 40
0.0
 40
0.0
 40
0.0
 40
0.0
 40
0.1896269386792339
 40
0.379291109764179
 40
0.5788446253056952
 40
0.7786725249372743
 40
0.9522882487192532
 40
1.0
 40
1.0
 40
1.0
 40
1.0
 10
115.0148115633586
 20
250.367857970341
 30
0.0
 10
116.5198486098965
 20
250.3294468362254
 30
0.0
 10
119.5302182103002
 20
250.252617026139
 30
0.0
 10
123.6355166786549
 20
249.6201876472362
 30
0.0
 10
127.2483869691428
 20
248.5531668856993
 30
0.0
 10
130.2111862482643
 20
247.0022416929351
 30
0.0
 10
132.0696828544295
 20
245.5365030401344
 30
0.0
 10
133.0390456412564
 20
244.602258879485
 30
0.0
 10
133.2480119983378
 20
244.4008630743968
 30
0.0
  0
SPLINE
  5
386
330
1F
100
AcDbEntity
  8
0
  6
Continuous
 62
     8
370
    25
100
AcDbSpline
210
0.0
220
0.0
230
1.0
 70
     8
 71
     3
 72
    14
 73
    10
 74
     0
 42
0.00000001
 43
0.00000001
 40
0.0
 40
0.0
 40
0.0
 40
0.0
 40
0.1586892998889442
 40
0.3226994796250599
 40
0.490175693141466
 40
0.6625115993806052
 40
0.8097228148047182
 40
0.9580334483029658
 40
1.0
 40
1.0
 40
1.0
 40
1.0
 10
-20.64075422588979
 20
250.3678579703385
 30
0.0
 10
-22.12299736677273
 20
250.3310080756171
 30
0.0
 10
-25.1371835190557
 20
250.25607270279
 30
0.0
 10
-29.21848096988899
 20
249.6280856799376
 30
0.0
 10
-32.8737736106374
 20
248.5605884350842
 30
0.0
 10
-35.81202331714536
 20
247.023901461902
 30
0.0
 10
-38.27234659021597
 20
245.0641856854211
 30
0.0
 10
-39.9261795712198
 20
243.3835098308163
 30
0.0
 10
-40.99596312193363
 20
242.3884676917518
 30
0.0
 10
-41.2319090480813
 20
242.1690063447338
 30
0.0
  0
SPLINE
  5
387
330
1F
100
AcDbEntity
  8
0
  6
Continuous
 62
     8
370
    25
100
AcDbSpline
210
0.0
220
0.0
230
1.0
 70
     8
 71
     3
 72
    13
 73
     9
 74
     0
 42
0.00000001
 43
0.00000001
 40
0.0
 40
0.0
 40
0.0
 40
0.0
 40
0.1799003222414495
 40
0.3658327336015987
 40
0.5556944621520713
 40
0.7510654486514159
 40
0.9179534814985408
 40
0.9999999999999999
 40
0.9999999999999999
 40
0.9999999999999999
 40
0.9999999999999999
 10
115.0148115633586
 20
250.367857970341
 30
0.0
 10
116.4970182082546
 20
250.404649903871
 30
0.0
 10
119.5111301448468
 20
250.4794674108662
 30
0.0
 10
123.593002598136
 20
251.1083676252834
 30
0.0
 10
127.246028845683
 20
252.1722654921988
 30
0.0
 10
130.1925918870048
 20
253.7221553085158
 30
0.0
 10
132.2310064229946
 20
255.3279381958941
 30
0.0
 10
133.3599594443561
 20
256.4287171902844
 30
0.0
 10
133.7320518857332
 20
256.7915237337714
 30
0.0
  0
SPLINE
  5
388
330
1F
100
AcDbEntity
  8
0
  6
Continuous
 62
     8
370
    25
100
AcDbSpline
210
0.0
220
0.0
230
1.0
 70
     8
 71
     3
 72
    14
 73
    10
 74
     0
 42
0.00000001
 43
0.00000001
 40
0.0
 40
0.0
 40
0.0
 40
0.0
 40
0.1584297727246407
 40
0.3221717233054598
 40
0.4893740391689515
 40
0.6614281000090297
 40
0.8083985600115773
 40
0.9564666400536386
 40
1.0
 40
1.0
 40
1.0
 40
1.0
 10
-20.64075422588979
 20
250.3678579703385
 30
0.0
 10
-22.12299699179254
 20
250.4047077354558
 30
0.0
 10
-25.13718238154197
 20
250.4796428447289
 30
0.0
 10
-29.21848574027219
 20
251.1076319095238
 30
0.0
 10
-32.87375509482926
 20
252.1751211059848
 30
0.0
 10
-35.81209021718848
 20
253.7118376013964
 30
0.0
 10
-38.2721366011037
 20
255.6714576768456
 30
0.0
 10
-39.93476444778482
 20
257.3605565290382
 30
0.0
 10
-41.01405470746091
 20
258.3642676996532
 30
0.0
 10
-41.25927797594961
 20
258.5923188023754
 30
0.0
  0
ARC
  5
389
330
1F
100
AcDbEntity
  8
0
  6
Continuous
 62
     8
370
    25
100
AcDbCircle
 10
125.9134558208
 20
263.8036923211
 30
0.0
 40
20.03781437487528
100
AcDbArc
 50
8.0360447263
 51
12.7261707796
  0
LINE
  5
38A
330
1F
100
AcDbEntity
  8
0
  6
Continuous
 62
     8
370
    25
100
AcDbLine
 10
-55.3129713313
 20
268.2178579703
 30
0.0
 11
-55.3129713313
 21
266.652803392
 31
0.0
  0
LWPOLYLINE
  5
38B
330
1F
100
AcDbEntity
  8
0
  6
Continuous
 62
     8
370
    25
100
AcDbPolyline
 90
        3
 70
   128
 43
0.0
 10
-51.0849643883
 20
268.2178579703
 10
-51.2271976826
 20
267.5286676355
 10
-51.336737996
 20
266.9017506775
  0
ARC
  5
38C
330
1F
100
AcDbEntity
  8
0
  6
Continuous
 62
     8
370
    25
100
AcDbCircle
 10
165.3889087692
 20
264.3404554959
 30
0.0
 40
9.511765202578186
100
AcDbArc
 50
155.94315588
 51
172.5543197163
  0
ARC
  5
38D
330
1F
100
AcDbEntity
  8
0
  6
Continuous
 62
     8
370
    25
100
AcDbCircle
 10
-72.126469296
 20
263.966190035
 30
0.0
 40
10.67997705574935
100
AcDbArc
 50
11.98578437
 51
23.4592730309
  0
ARC
  5
38E
330
1F
100
AcDbEntity
  8
0
  6
Continuous
 62
     8
370
    25
100
AcDbCircle
 10
136.0203392162
 20
266.7265198313
 30
0.0
 40
5.24181549403639
100
AcDbArc
 50
325.7757798728
 51
16.5294381717
  0
ARC
  5
38F
330
1F
100
AcDbEntity
  8
0
  6
Continuous
 62
     8
370
    25
100
AcDbCircle
 10
-38.1328267019
 20
266.7568362282
 30
0.0
 40
8.662739500784298
100
AcDbArc
 50
170.2903231443
 51
186.6466132075
  0
SPLINE
  5
390
330
1F
100
AcDbEntity
  8
0
  6
Continuous
 62
     8
370
    25
100
AcDbSpline
210
0.0
220
0.0
230
1.0
 70
     8
 71
     3
 72
    10
 73
     6
 74
     0
 42
0.00000001
 43
0.00000001
 40
0.0
 40
0.0
 40
0.0
 40
0.0
 40
0.4182737147096627
 40
0.738244778055182
 40
0.9999999999999999
 40
0.9999999999999999
 40
0.9999999999999999
 40
0.9999999999999999
 10
156.7033214361289
 20
268.2178579703417
 30
0.0
 10
157.7456077755498
 20
267.4145546285778
 30
0.0
 10
159.585222411267
 20
265.9967402252439
 30
0.0
 10
161.4538374842384
 20
263.5890217956554
 30
0.0
 10
162.2813445123144
 20
262.0402239437973
 30
0.0
 10
162.6536919397423
 20
261.3433224357997
 30
0.0
  0
SPLINE
  5
391
330
1F
100
AcDbEntity
  8
0
  6
Continuous
 62
     8
370
    25
100
AcDbSpline
210
0.0
220
0.0
230
1.0
 70
     8
 71
     3
 72
    11
 73
     7
 74
     0
 42
0.00000001
 43
0.00000001
 40
0.0
 40
0.0
 40
0.0
 40
0.0
 40
0.3924482723024056
 40
0.6954681406405608
 40
0.9987514703352354
 40
1.0
 40
1.0
 40
1.0
 40
1.0
 10
-62.3292640986606
 20
268.2178579703379
 30
0.0
 10
-63.37737811730631
 20
267.4178943143555
 30
0.0
 10
-65.23476916517707
 20
266.00025719968
 30
0.0
 10
-67.15716101204835
 20
263.3985144603383
 30
0.0
 10
-68.20164391066577
 20
261.7476268041711
 30
0.0
 10
-68.57071946034338
 20
260.8282563347011
 30
0.0
 10
-68.572232608338
 20
260.8244870696186
 30
0.0
  0
SPLINE
  5
392
330
1F
100
AcDbEntity
  8
0
  6
Continuous
 62
     8
370
    25
100
AcDbSpline
210
0.0
220
0.0
230
1.0
 70
     8
 71
     3
 72
     9
 73
     5
 74
     0
 42
0.00000001
 43
0.00000001
 40
0.0
 40
0.0
 40
0.0
 40
0.0
 40
0.4340401513875742
 40
0.9999999999999999
 40
0.9999999999999999
 40
0.9999999999999999
 40
0.9999999999999999
 10
61.633683065068
 20
249.3848083708703
 30
0.0
 10
61.71305935836396
 20
249.5491916615669
 30
0.0
 10
61.89593712449265
 20
249.9279199662434
 30
0.0
 10
62.1486637581064
 20
250.2088582064458
 30
0.0
 10
62.29169688540664
 20
250.36785797034
 30
0.0
  0
SPLINE
  5
393
330
1F
100
AcDbEntity
  8
0
  6
Continuous
 62
     8
370
    25
100
AcDbSpline
210
0.0
220
0.0
230
1.0
 70
     8
 71
     3
 72
     9
 73
     5
 74
     0
 42
0.00000001
 43
0.00000001
 40
0.0
 40
0.0
 40
0.0
 40
0.0
 40
0.4340401513878531
 40
0.9999999999999999
 40
0.9999999999999999
 40
0.9999999999999999
 40
0.9999999999999999
 10
32.74037427240112
 20
251.3509075698098
 30
0.0
 10
32.66099797910505
 20
251.1865242791129
 30
0.0
 10
32.47812021297608
 20
250.8077959744357
 30
0.0
 10
32.22539357936233
 20
250.5268577342335
 30
0.0
 10
32.0823604520622
 20
250.3678579703396
 30
0.0
  0
LINE
  5
394
330
1F
100
AcDbEntity
  8
0
  6
Continuous
 62
     8
370
    25
100
AcDbLine
 10
60.6491366175
 20
240.5528843215
 30
0.0
 11
59.1072665472
 21
240.3653425181
 31
0.0
  0
LINE
  5
395
330
1F
100
AcDbEntity
  8
0
  6
Continuous
 62
     8
370
    25
100
AcDbLine
 10
59.016278125
 20
240.0635259947
 30
0.0
 11
60.6491366175
 21
240.5528843215
 31
0.0
  0
SPLINE
  5
396
330
1F
100
AcDbEntity
  8
0
  6
Continuous
 62
     8
370
    25
100
AcDbSpline
210
0.0
220
0.0
230
1.0
 70
     8
 71
     3
 72
    10
 73
     6
 74
     0
 42
0.00000001
 43
0.00000001
 40
0.0
 40
0.0
 40
0.0
 40
0.0
 40
0.4789890081591344
 40
0.7639882280662394
 40
1.0
 40
1.0
 40
1.0
 40
1.0
 10
60.64913661749232
 20
260.1828316192246
 30
0.0
 10
59.99564239068189
 20
260.2626369131686
 30
0.0
 10
58.95331806196463
 20
260.3899264836433
 30
0.0
 10
57.89249821319986
 20
260.5164358288102
 30
0.0
 10
57.37088225901488
 20
260.6180512673243
 30
0.0
 10
57.13459644634688
 20
260.664081850316
 30
0.0
  0
SPLINE
  5
397
330
1F
100
AcDbEntity
  8
0
  6
Continuous
 62
     8
370
    25
100
AcDbSpline
210
0.0
220
0.0
230
1.0
 70
     8
 71
     3
 72
    10
 73
     6
 74
     0
 42
0.00000001
 43
0.00000001
 40
0.0
 40
0.0
 40
0.0
 40
0.0
 40
0.0000402927394354
 40
0.9351402059343028
 40
1.0
 40
1.0
 40
1.0
 40
1.0
 10
57.79357095333148
 20
260.9744002549372
 30
0.0
 10
57.79355743234937
 20
260.9744023636981
 30
0.0
 10
57.47975365199659
 20
261.0233438646018
 30
0.0
 10
57.13914540932502
 20
261.0694518701703
 30
0.0
 10
56.76378116089742
 20
261.0836214145812
 30
0.0
 10
56.73943413203636
 20
261.0845404853457
 30
0.0
  0
LINE
  5
398
330
1F
100
AcDbEntity
  8
0
  6
Continuous
 62
     8
370
    25
100
AcDbLine
 10
33.72492072
 20
260.1828316192
 30
0.0
 11
35.2667907903
 21
260.3703734226
 31
0.0
  0
LINE
  5
399
330
1F
100
AcDbEntity
  8
0
  6
Continuous
 62
     8
370
    25
100
AcDbLine
 10
33.72492072
 20
260.1828316192
 30
0.0
 11
35.3577792125
 21
260.672189946
 31
0.0
  0
LWPOLYLINE
  5
39A
330
1F
100
AcDbEntity
  8
0
  6
Continuous
 62
     8
370
    25
100
AcDbPolyline
 90
        4
 70
   128
 43
0.0
 10
37.6050006027
 20
239.6826943494
 10
36.5805269471
 20
239.7613093595
 10
36.5804863841
 20
239.7613156857
 10
36.5804863841
 20
239.7613156857
  0
SPLINE
  5
39B
330
1F
100
AcDbEntity
  8
0
  6
Continuous
 62
     8
370
    25
100
AcDbSpline
210
0.0
220
0.0
230
1.0
 70
     8
 71
     3
 72
    10
 73
     6
 74
     0
 42
0.00000001
 43
0.00000001
 40
0.0
 40
0.0
 40
0.0
 40
0.0
 40
0.4789890081591638
 40
0.7639882280662843
 40
1.0
 40
1.0
 40
1.0
 40
1.0
 10
33.72492071997652
 20
240.5528843214549
 30
0.0
 10
34.37841494678695
 20
240.4730790275109
 30
0.0
 10
35.42073927550427
 20
240.3457894570363
 30
0.0
 10
36.48155912426887
 20
240.2192801118693
 30
0.0
 10
37.00317507845385
 20
240.1176646733554
 30
0.0
 10
37.23946089112184
 20
240.0716340903639
 30
0.0
  0
LINE
  5
39C
330
1F
100
AcDbEntity
  8
0
  6
Continuous
 62
     8
370
    25
100
AcDbLine
 10
61.7323940446
 20
240.3657880729
 30
0.0
 11
58.9430800484
 21
239.8207215975
 31
0.0
  0
SPLINE
  5
39D
330
1F
100
AcDbEntity
  8
0
  6
Continuous
 62
     8
370
    25
100
AcDbSpline
210
0.0
220
0.0
230
1.0
 70
     8
 71
     3
 72
    10
 73
     6
 74
     0
 42
0.00000001
 43
0.00000001
 40
0.0
 40
0.0
 40
0.0
 40
0.0
 40
0.111483639192198
 40
0.4169374919354381
 40
0.9999999999999999
 40
0.9999999999999999
 40
0.9999999999999999
 40
0.9999999999999999
 10
56.73174946375931
 20
261.0927170877629
 30
0.0
 10
56.925781877113
 20
261.0876650367625
 30
0.0
 10
57.65144340345074
 20
261.0687708789428
 30
0.0
 10
59.31237363449704
 20
260.9119397780195
 30
0.0
 10
60.77354419990799
 20
260.584681443317
 30
0.0
 10
61.73239404461328
 20
260.3699278677688
 30
0.0
  0
LINE
  5
39E
330
1F
100
AcDbEntity
  8
0
  6
Continuous
 62
     8
370
    25
100
AcDbLine
 10
35.4309772891
 20
260.9149943432
 30
0.0
 11
32.6416632929
 21
260.3699278678
 31
0.0
  0
SPLINE
  5
39F
330
1F
100
AcDbEntity
  8
0
  6
Continuous
 62
     8
370
    25
100
AcDbSpline
210
0.0
220
0.0
230
1.0
 70
     8
 71
     3
 72
    10
 73
     6
 74
     0
 42
0.00000001
 43
0.00000001
 40
0.0
 40
0.0
 40
0.0
 40
0.0
 40
0.5830625080645806
 40
0.8885163608078313
 40
1.0
 40
1.0
 40
1.0
 40
1.0
 10
32.64166329285556
 20
240.3657880729108
 30
0.0
 10
33.60051313756085
 20
240.1510344973624
 30
0.0
 10
35.06168370297181
 20
239.8237761626599
 30
0.0
 10
36.72261393401794
 20
239.6669450617365
 30
0.0
 10
37.44827546035573
 20
239.6480509039171
 30
0.0
 10
37.64230787370943
 20
239.6429988529167
 30
0.0
  0
SPLINE
  5
3A0
330
1F
100
AcDbEntity
  8
0
  6
Continuous
 62
     8
370
    25
100
AcDbSpline
210
0.0
220
0.0
230
1.0
 70
     8
 71
     3
 72
     9
 73
     5
 74
     0
 42
0.00000001
 43
0.00000001
 40
0.0
 40
0.0
 40
0.0
 40
0.0
 40
0.4341123552591188
 40
1.0
 40
1.0
 40
1.0
 40
1.0
 10
140.8385994770153
 20
236.7380866191674
 30
0.0
 10
140.5255856120076
 20
236.8030019453778
 30
0.0
 10
139.8045421742532
 20
236.9525377174515
 30
0.0
 10
139.7087609917946
 20
236.9695100571574
 30
0.0
 10
139.6545596040427
 20
236.9791144944995
 30
0.0
  0
ENDSEC
  0
SECTION
  2
OBJECTS
  0
DICTIONARY
  5
C
330
0
100
AcDbDictionary
281
     1
  3
ACAD_GROUP
350
D
  3
ACAD_LAYOUT
350
1A
  3
ACAD_MLINESTYLE
350
17
  3
ACAD_PLOTSETTINGS
350
19
  3
ACAD_PLOTSTYLENAME
350
E
  3
ACAD_SCALELIST
350
47
  3
DWGPROPS
350
3A1
  0
DICTIONARY
  5
D
102
{ACAD_REACTORS
330
C
102
}
330
C
100
AcDbDictionary
281
     1
  0
DICTIONARY
  5
1A
102
{ACAD_REACTORS
330
C
102
}
330
C
100
AcDbDictionary
281
     1
  3
Layout1
350
1E
  3
Layout2
350
26
  3
Model
350
22
  0
DICTIONARY
  5
17
102
{ACAD_REACTORS
330
C
102
}
330
C
100
AcDbDictionary
281
     1
  3
Standard
350
18
  0
DICTIONARY
  5
19
102
{ACAD_REACTORS
330
C
102
}
330
C
100
AcDbDictionary
281
     1
  0
ACDBDICTIONARYWDFLT
  5
E
102
{ACAD_REACTORS
330
C
102
}
330
C
100
AcDbDictionary
281
     1
  3
Normal
350
F
100
AcDbDictionaryWithDefault
340
F
  0
DICTIONARY
  5
47
102
{ACAD_REACTORS
330
C
102
}
330
C
100
AcDbDictionary
281
     1
  3
A0
350
48
  3
A1
350
49
  3
A2
350
4A
  3
A3
350
4B
  3
A4
350
4C
  3
A5
350
4D
  3
A6
350
4E
  3
A7
350
4F
  3
A8
350
50
  3
A9
350
51
  3
B0
350
52
  3
B1
350
53
  3
B2
350
54
  3
B3
350
55
  3
B4
350
56
  3
B5
350
57
  3
B6
350
58
  3
B7
350
59
  3
B8
350
5A
  3
B9
350
5B
  3
C0
350
5C
  3
C1
350
5D
  3
C2
350
5E
  3
C3
350
5F
  3
C4
350
60
  3
C5
350
61
  3
C6
350
62
  3
C7
350
63
  3
C8
350
64
  3
C9
350
65
  3
D0
350
66
  3
D1
350
67
  3
D2
350
68
  0
XRECORD
  5
3A1
102
{ACAD_REACTORS
330
C
102
}
330
C
100
AcDbXrecord
280
     1
  1
DWGPROPS COOKIE
  2

  3

  4

  6

  7

  8
vishesh
  9

300
=
301
=
302
=
303
=
304
=
305
=
306
=
307
=
308
=
309
=
 40
0.0
 41
2460383.446114653
 42
2460383.446115023
  1

 90
        0
  0
LAYOUT
  5
1E
102
{ACAD_REACTORS
330
1A
102
}
330
1A
100
AcDbPlotSettings
  1

  2
none_device
  4

  6

 40
0.0
 41
0.0
 42
0.0
 43
0.0
 44
0.0
 45
0.0
 46
0.0
 47
0.0
 48
0.0
 49
0.0
140
0.0
141
0.0
142
1.0
143
1.0
 70
   688
 72
     1
 73
     0
 74
     5
  7

 75
    16
147
1.0
148
0.0
149
0.0
100
AcDbLayout
  1
Layout1
 70
     1
 71
     1
 10
0.0
 20
0.0
 11
420.0
 21
297.0
 12
0.0
 22
0.0
 32
0.0
 14
1.0000000000E+20
 24
1.0000000000E+20
 34
1.0000000000E+20
 15
-1.0000000000E+20
 25
-1.0000000000E+20
 35
-1.0000000000E+20
146
0.0
 13
0.0
 23
0.0
 33
0.0
 16
1.0
 26
0.0
 36
0.0
 17
0.0
 27
1.0
 37
0.0
 76
     0
330
1B
  0
LAYOUT
  5
26
102
{ACAD_REACTORS
330
1A
102
}
330
1A
100
AcDbPlotSettings
  1

  2
none_device
  4

  6

 40
0.0
 41
0.0
 42
0.0
 43
0.0
 44
0.0
 45
0.0
 46
0.0
 47
0.0
 48
0.0
 49
0.0
140
0.0
141
0.0
142
1.0
143
1.0
 70
   688
 72
     1
 73
     0
 74
     5
  7

 75
    16
147
1.0
148
0.0
149
0.0
100
AcDbLayout
  1
Layout2
 70
     1
 71
     2
 10
0.0
 20
0.0
 11
0.0
 21
0.0
 12
0.0
 22
0.0
 32
0.0
 14
0.0
 24
0.0
 34
0.0
 15
0.0
 25
0.0
 35
0.0
146
0.0
 13
0.0
 23
0.0
 33
0.0
 16
1.0
 26
0.0
 36
0.0
 17
0.0
 27
1.0
 37
0.0
 76
     0
330
23
  0
LAYOUT
  5
22
102
{ACAD_REACTORS
330
1A
102
}
330
1A
100
AcDbPlotSettings
  1

  2
none_device
  4
Letter_(8.50_x_11.00_Inches)
  6

 40
6.35
 41
6.35
 42
6.35000508
 43
6.35000508
 44
215.9
 45
279.4
 46
0.0
 47
0.0
 48
0.0
 49
0.0
140
0.0
141
0.0
142
1.0
143
1.0
 70
  1712
 72
     1
 73
     0
 74
     0
  7

 75
     0
147
1.0
148
0.0
149
0.0
100
AcDbLayout
  1
Model
 70
     1
 71
     0
 10
0.0
 20
0.0
 11
279.4
 21
215.9
 12
0.0
 22
0.0
 32
0.0
 14
0.0
 24
0.0
 34
0.0
 15
279.4
 25
215.9
 35
0.0
146
0.0
 13
0.0
 23
0.0
 33
0.0
 16
1.0
 26
0.0
 36
0.0
 17
0.0
 27
1.0
 37
0.0
 76
     0
330
1F
331
29
  0
MLINESTYLE
  5
18
102
{ACAD_REACTORS
330
17
102
}
330
17
100
AcDbMlineStyle
  2
Standard
 70
     0
  3

 62
   256
 51
90.0
 52
90.0
 71
     2
 49
0.5
 62
   256
  6
BYLAYER
 49
-0.5
 62
   256
  6
BYLAYER
  0
ACDBPLACEHOLDER
  5
F
102
{ACAD_REACTORS
330
E
102
}
330
E
  0
SCALE
  5
48
102
{ACAD_REACTORS
330
47
102
}
330
47
100
AcDbScale
 70
     0
300
1:1
140
1.0
141
1.0
290
     1
  0
SCALE
  5
49
102
{ACAD_REACTORS
330
47
102
}
330
47
100
AcDbScale
 70
     0
300
1:2
140
1.0
141
2.0
290
     0
  0
SCALE
  5
4A
102
{ACAD_REACTORS
330
47
102
}
330
47
100
AcDbScale
 70
     0
300
1:4
140
1.0
141
4.0
290
     0
  0
SCALE
  5
4B
102
{ACAD_REACTORS
330
47
102
}
330
47
100
AcDbScale
 70
     0
300
1:5
140
1.0
141
5.0
290
     0
  0
SCALE
  5
4C
102
{ACAD_REACTORS
330
47
102
}
330
47
100
AcDbScale
 70
     0
300
1:8
140
1.0
141
8.0
290
     0
  0
SCALE
  5
4D
102
{ACAD_REACTORS
330
47
102
}
330
47
100
AcDbScale
 70
     0
300
1:10
140
1.0
141
10.0
290
     0
  0
SCALE
  5
4E
102
{ACAD_REACTORS
330
47
102
}
330
47
100
AcDbScale
 70
     0
300
1:16
140
1.0
141
16.0
290
     0
  0
SCALE
  5
4F
102
{ACAD_REACTORS
330
47
102
}
330
47
100
AcDbScale
 70
     0
300
1:20
140
1.0
141
20.0
290
     0
  0
SCALE
  5
50
102
{ACAD_REACTORS
330
47
102
}
330
47
100
AcDbScale
 70
     0
300
1:30
140
1.0
141
30.0
290
     0
  0
SCALE
  5
51
102
{ACAD_REACTORS
330
47
102
}
330
47
100
AcDbScale
 70
     0
300
1:40
140
1.0
141
40.0
290
     0
  0
SCALE
  5
52
102
{ACAD_REACTORS
330
47
102
}
330
47
100
AcDbScale
 70
     0
300
1:50
140
1.0
141
50.0
290
     0
  0
SCALE
  5
53
102
{ACAD_REACTORS
330
47
102
}
330
47
100
AcDbScale
 70
     0
300
1:100
140
1.0
141
100.0
290
     0
  0
SCALE
  5
54
102
{ACAD_REACTORS
330
47
102
}
330
47
100
AcDbScale
 70
     0
300
2:1
140
2.0
141
1.0
290
     0
  0
SCALE
  5
55
102
{ACAD_REACTORS
330
47
102
}
330
47
100
AcDbScale
 70
     0
300
4:1
140
4.0
141
1.0
290
     0
  0
SCALE
  5
56
102
{ACAD_REACTORS
330
47
102
}
330
47
100
AcDbScale
 70
     0
300
8:1
140
8.0
141
1.0
290
     0
  0
SCALE
  5
57
102
{ACAD_REACTORS
330
47
102
}
330
47
100
AcDbScale
 70
     0
300
10:1
140
10.0
141
1.0
290
     0
  0
SCALE
  5
58
102
{ACAD_REACTORS
330
47
102
}
330
47
100
AcDbScale
 70
     0
300
100:1
140
100.0
141
1.0
290
     0
  0
SCALE
  5
59
102
{ACAD_REACTORS
330
47
102
}
330
47
100
AcDbScale
 70
     0
300
1/128" = 1'-0"
140
0.0078125
141
12.0
290
     0
  0
SCALE
  5
5A
102
{ACAD_REACTORS
330
47
102
}
330
47
100
AcDbScale
 70
     0
300
1/64" = 1'-0"
140
0.015625
141
12.0
290
     0
  0
SCALE
  5
5B
102
{ACAD_REACTORS
330
47
102
}
330
47
100
AcDbScale
 70
     0
300
1/32" = 1'-0"
140
0.03125
141
12.0
290
     0
  0
SCALE
  5
5C
102
{ACAD_REACTORS
330
47
102
}
330
47
100
AcDbScale
 70
     0
300
1/16" = 1'-0"
140
0.0625
141
12.0
290
     0
  0
SCALE
  5
5D
102
{ACAD_REACTORS
330
47
102
}
330
47
100
AcDbScale
 70
     0
300
3/32" = 1'-0"
140
0.09375
141
12.0
290
     0
  0
SCALE
  5
5E
102
{ACAD_REACTORS
330
47
102
}
330
47
100
AcDbScale
 70
     0
300
1/8" = 1'-0"
140
0.125
141
12.0
290
     0
  0
SCALE
  5
5F
102
{ACAD_REACTORS
330
47
102
}
330
47
100
AcDbScale
 70
     0
300
3/16" = 1'-0"
140
0.1875
141
12.0
290
     0
  0
SCALE
  5
60
102
{ACAD_REACTORS
330
47
102
}
330
47
100
AcDbScale
 70
     0
300
1/4" = 1'-0"
140
0.25
141
12.0
290
     0
  0
SCALE
  5
61
102
{ACAD_REACTORS
330
47
102
}
330
47
100
AcDbScale
 70
     0
300
3/8" = 1'-0"
140
0.375
141
12.0
290
     0
  0
SCALE
  5
62
102
{ACAD_REACTORS
330
47
102
}
330
47
100
AcDbScale
 70
     0
300
1/2" = 1'-0"
140
0.5
141
12.0
290
     0
  0
SCALE
  5
63
102
{ACAD_REACTORS
330
47
102
}
330
47
100
AcDbScale
 70
     0
300
3/4" = 1'-0"
140
0.75
141
12.0
290
     0
  0
SCALE
  5
64
102
{ACAD_REACTORS
330
47
102
}
330
47
100
AcDbScale
 70
     0
300
1" = 1'-0"
140
1.0
141
12.0
290
     0
  0
SCALE
  5
65
102
{ACAD_REACTORS
330
47
102
}
330
47
100
AcDbScale
 70
     0
300
1-1/2" = 1'-0"
140
1.5
141
12.0
290
     0
  0
SCALE
  5
66
102
{ACAD_REACTORS
330
47
102
}
330
47
100
AcDbScale
 70
     0
300
3" = 1'-0"
140
3.0
141
12.0
290
     0
  0
SCALE
  5
67
102
{ACAD_REACTORS
330
47
102
}
330
47
100
AcDbScale
 70
     0
300
6" = 1'-0"
140
6.0
141
12.0
290
     0
  0
SCALE
  5
68
102
{ACAD_REACTORS
330
47
102
}
330
47
100
AcDbScale
 70
     0
300
1'-0" = 1'-0"
140
12.0
141
12.0
290
     0
  0
ENDSEC
  0
EOF
