  0
SECTION
  2
HEADER
  9
$ACADVER
  1
AC1015
  9
$ACADMAINTVER
 70
     6
  9
$DWGCODEPAGE
  3
ANSI_1252
  9
$INSBASE
 10
0.0
 20
0.0
 30
0.0
  9
$EXTMIN
 10
0.0
 20
0.0
 30
0.0
  9
$EXTMAX
 10
279.4
 20
215.9
 30
0.0
  9
$LIMMIN
 10
0.0
 20
0.0
  9
$LIMMAX
 10
279.4
 20
215.9
  9
$ORTHOMODE
 70
     0
  9
$REGENMODE
 70
     1
  9
$FILLMODE
 70
     1
  9
$QTEXTMODE
 70
     0
  9
$MIRRTEXT
 70
     1
  9
$LTSCALE
 40
1.0
  9
$ATTMODE
 70
     1
  9
$TEXTSIZE
 40
3.5277777778
  9
$TRACEWID
 40
1.0
  9
$TEXTSTYLE
  7
Standard
  9
$CLAYER
  8
0
  9
$CELTYPE
  6
ByLayer
  9
$CECOLOR
 62
   256
  9
$CELTSCALE
 40
1.0
  9
$DISPSILH
 70
     0
  9
$DIMSCALE
 40
1.0
  9
$DIMASZ
 40
3.556
  9
$DIMEXO
 40
1.0
  9
$DIMDLI
 40
3.75
  9
$DIMRND
 40
0.0
  9
$DIMDLE
 40
0.0
  9
$DIMEXE
 40
1.0
  9
$DIMTP
 40
0.0
  9
$DIMTM
 40
0.0
  9
$DIMTXT
 40
3.5277777778
  9
$DIMCEN
 40
2.5
  9
$DIMTSZ
 40
0.0
  9
$DIMTOL
 70
     0
  9
$DIMLIM
 70
     0
  9
$DIMTIH
 70
     1
  9
$DIMTOH
 70
     1
  9
$DIMSE1
 70
     0
  9
$DIMSE2
 70
     0
  9
$DIMTAD
 70
     1
  9
$DIMZIN
 70
     0
  9
$DIMBLK
  1

  9
$DIMASO
 70
     1
  9
$DIMSHO
 70
     1
  9
$DIMPOST
  1

  9
$DIMAPOST
  1

  9
$DIMALT
 70
     0
  9
$DIMALTD
 70
     3
  9
$DIMALTF
 40
0.0393700787
  9
$DIMLFAC
 40
2.0
  9
$DIMTOFL
 70
     1
  9
$DIMTVP
 40
0.0
  9
$DIMTIX
 70
     0
  9
$DIMSOXD
 70
     0
  9
$DIMSAH
 70
     0
  9
$DIMBLK1
  1

  9
$DIMBLK2
  1

  9
$DIMSTYLE
  2
ISO-25
  9
$DIMCLRD
 70
     0
  9
$DIMCLRE
 70
     0
  9
$DIMCLRT
 70
     0
  9
$DIMTFAC
 40
1.0
  9
$DIMGAP
 40
1.524
  9
$DIMJUST
 70
     0
  9
$DIMSD1
 70
     0
  9
$DIMSD2
 70
     0
  9
$DIMTOLJ
 70
     0
  9
$DIMTZIN
 70
     0
  9
$DIMALTZ
 70
     0
  9
$DIMALTTZ
 70
     0
  9
$DIMUPT
 70
     0
  9
$DIMDEC
 70
     2
  9
$DIMTDEC
 70
     2
  9
$DIMALTU
 70
     2
  9
$DIMALTTD
 70
     3
  9
$DIMTXSTY
  7
Standard
  9
$DIMAUNIT
 70
     0
  9
$DIMADEC
 70
     2
  9
$DIMALTRND
 40
0.0
  9
$DIMAZIN
 70
     0
  9
$DIMDSEP
 70
    44
  9
$DIMATFIT
 70
     3
  9
$DIMFRAC
 70
     0
  9
$DIMLDRBLK
  1

  9
$DIMLUNIT
 70
     2
  9
$DIMLWD
 70
    -2
  9
$DIMLWE
 70
    -2
  9
$DIMTMOVE
 70
     0
  9
$LUNITS
 70
     2
  9
$LUPREC
 70
     2
  9
$SKETCHINC
 40
1.0
  9
$FILLETRAD
 40
10.0
  9
$AUNITS
 70
     0
  9
$AUPREC
 70
     2
  9
$MENU
  1
.
  9
$ELEVATION
 40
0.0
  9
$PELEVATION
 40
0.0
  9
$THICKNESS
 40
0.0
  9
$LIMCHECK
 70
     0
  9
$CHAMFERA
 40
0.0
  9
$CHAMFERB
 40
0.0
  9
$CHAMFERC
 40
0.0
  9
$CHAMFERD
 40
0.0
  9
$SKPOLY
 70
     0
  9
$TDCREATE
 40
2460383.739805903
  9
$TDUCREATE
 40
2460383.510639236
  9
$TDUPDATE
 40
2460383.739806493
  9
$TDUUPDATE
 40
2460383.510639826
  9
$TDINDWG
 40
0.0000000116
  9
$TDUSRTIMER
 40
0.0000000116
  9
$USRTIMER
 70
     1
  9
$ANGBASE
 50
0.0
  9
$ANGDIR
 70
     0
  9
$PDMODE
 70
     0
  9
$PDSIZE
 40
-1.0
  9
$PLINEWID
 40
0.0
  9
$SPLFRAME
 70
     0
  9
$SPLINETYPE
 70
     6
  9
$SPLINESEGS
 70
     8
  9
$HANDSEED
  5
237
  9
$SURFTAB1
 70
     6
  9
$SURFTAB2
 70
     6
  9
$SURFTYPE
 70
     6
  9
$SURFU
 70
     6
  9
$SURFV
 70
     6
  9
$UCSBASE
  2

  9
$UCSNAME
  2

  9
$UCSORG
 10
0.0
 20
0.0
 30
0.0
  9
$UCSXDIR
 10
1.0
 20
0.0
 30
0.0
  9
$UCSYDIR
 10
0.0
 20
1.0
 30
0.0
  9
$UCSORTHOREF
  2

  9
$UCSORTHOVIEW
 70
     0
  9
$UCSORGTOP
 10
0.0
 20
0.0
 30
0.0
  9
$UCSORGBOTTOM
 10
0.0
 20
0.0
 30
0.0
  9
$UCSORGLEFT
 10
0.0
 20
0.0
 30
0.0
  9
$UCSORGRIGHT
 10
0.0
 20
0.0
 30
0.0
  9
$UCSORGFRONT
 10
0.0
 20
0.0
 30
0.0
  9
$UCSORGBACK
 10
0.0
 20
0.0
 30
0.0
  9
$PUCSBASE
  2

  9
$PUCSNAME
  2

  9
$PUCSORG
 10
0.0
 20
0.0
 30
0.0
  9
$PUCSXDIR
 10
1.0
 20
0.0
 30
0.0
  9
$PUCSYDIR
 10
0.0
 20
1.0
 30
0.0
  9
$PUCSORTHOREF
  2

  9
$PUCSORTHOVIEW
 70
     0
  9
$PUCSORGTOP
 10
0.0
 20
0.0
 30
0.0
  9
$PUCSORGBOTTOM
 10
0.0
 20
0.0
 30
0.0
  9
$PUCSORGLEFT
 10
0.0
 20
0.0
 30
0.0
  9
$PUCSORGRIGHT
 10
0.0
 20
0.0
 30
0.0
  9
$PUCSORGFRONT
 10
0.0
 20
0.0
 30
0.0
  9
$PUCSORGBACK
 10
0.0
 20
0.0
 30
0.0
  9
$USERI1
 70
     0
  9
$USERI2
 70
     0
  9
$USERI3
 70
     0
  9
$USERI4
 70
     0
  9
$USERI5
 70
     0
  9
$USERR1
 40
0.0
  9
$USERR2
 40
0.0
  9
$USERR3
 40
0.0
  9
$USERR4
 40
0.0
  9
$USERR5
 40
0.0
  9
$WORLDVIEW
 70
     1
  9
$SHADEDGE
 70
     3
  9
$SHADEDIF
 70
    70
  9
$TILEMODE
 70
     1
  9
$MAXACTVP
 70
    64
  9
$PINSBASE
 10
0.0
 20
0.0
 30
0.0
  9
$PLIMCHECK
 70
     0
  9
$PEXTMIN
 10
1.0000000000E+20
 20
1.0000000000E+20
 30
1.0000000000E+20
  9
$PEXTMAX
 10
-1.0000000000E+20
 20
-1.0000000000E+20
 30
-1.0000000000E+20
  9
$PLIMMIN
 10
0.0
 20
0.0
  9
$PLIMMAX
 10
420.0
 20
297.0
  9
$UNITMODE
 70
     0
  9
$VISRETAIN
 70
     1
  9
$PLINEGEN
 70
     0
  9
$PSLTSCALE
 70
     1
  9
$TREEDEPTH
 70
  3020
  9
$CMLSTYLE
  2
Standard
  9
$CMLJUST
 70
     0
  9
$CMLSCALE
 40
20.0
  9
$PROXYGRAPHICS
 70
     1
  9
$MEASUREMENT
 70
     1
  9
$CELWEIGHT
370
    -1
  9
$ENDCAPS
280
     0
  9
$JOINSTYLE
280
     0
  9
$LWDISPLAY
290
     1
  9
$INSUNITS
 70
     4
  9
$HYPERLINKBASE
  1

  9
$STYLESHEET
  1

  9
$XEDIT
290
     1
  9
$CEPSNTYPE
380
     0
  9
$PSTYLEMODE
290
     1
  9
$FINGERPRINTGUID
  2
{8b29a03b-5dae-4a88-bbcc-06e5f7c8ff54}
  9
$VERSIONGUID
  2
{FAEB1C32-E019-11D5-929B-00C0DF256EC4}
  9
$EXTNAMES
290
     1
  9
$PSVPSCALE
 40
0.0
  9
$OLESTARTUP
290
     0
  0
ENDSEC
  0
SECTION
  2
CLASSES
  0
CLASS
  1
ACDBDICTIONARYWDFLT
  2
AcDbDictionaryWithDefault
  3
ObjectDBX Classes
 90
        0
280
     0
281
     0
  0
CLASS
  1
VISUALSTYLE
  2
AcDbVisualStyle
  3
ObjectDBX Classes
 90
     4095
280
     0
281
     0
  0
CLASS
  1
MATERIAL
  2
AcDbMaterial
  3
ObjectDBX Classes
 90
     1153
280
     0
281
     0
  0
CLASS
  1
SCALE
  2
AcDbScale
  3
ObjectDBX Classes
 90
     1153
280
     0
281
     0
  0
CLASS
  1
TABLESTYLE
  2
AcDbTableStyle
  3
ObjectDBX Classes
 90
     4095
280
     0
281
     0
  0
CLASS
  1
MLEADERSTYLE
  2
AcDbMLeaderStyle
  3
ACDB_MLEADERSTYLE_CLASS
 90
     4095
280
     0
281
     0
  0
CLASS
  1
SUN
  2
AcDbSun
  3
SCENEOE
 90
     1153
280
     0
281
     0
  0
CLASS
  1
ACDBPLACEHOLDER
  2
AcDbPlaceHolder
  3
ObjectDBX Classes
 90
        0
280
     0
281
     0
  0
CLASS
  1
LAYOUT
  2
AcDbLayout
  3
ObjectDBX Classes
 90
        0
280
     0
281
     0
  0
ENDSEC
  0
SECTION
  2
TABLES
  0
TABLE
  2
VPORT
  5
8
330
0
100
AcDbSymbolTable
 70
     1
  0
VPORT
  5
29
330
8
100
AcDbSymbolTableRecord
100
AcDbViewportTableRecord
  2
*Active
 70
     0
 10
0.0
 20
0.0
 11
1.0
 21
1.0
 12
139.7
 22
107.95
 13
0.0
 23
0.0
 14
10.0
 24
10.0
 15
10.0
 25
10.0
 16
0.0
 26
0.0
 36
1.0
 17
0.0
 27
0.0
 37
0.0
 40
215.9
 41
1.2941176471
 42
50.0
 43
0.0
 44
0.0
 50
0.0
 51
0.0
 71
     0
 72
  2000
 73
     1
 74
     3
 75
     0
 76
     0
 77
     0
 78
     0
281
     0
 65
     1
110
0.0
120
0.0
130
0.0
111
1.0
121
0.0
131
0.0
112
0.0
122
1.0
132
0.0
 79
     0
146
0.0
  0
ENDTAB
  0
TABLE
  2
LTYPE
  5
5
330
0
100
AcDbSymbolTable
 70
     6
  0
LTYPE
  5
14
330
5
100
AcDbSymbolTableRecord
100
AcDbLinetypeTableRecord
  2
ByBlock
 70
     0
  3

 72
    65
 73
     0
 40
0.0
  0
LTYPE
  5
15
330
5
100
AcDbSymbolTableRecord
100
AcDbLinetypeTableRecord
  2
ByLayer
 70
     0
  3

 72
    65
 73
     0
 40
0.0
  0
LTYPE
  5
16
330
5
100
AcDbSymbolTableRecord
100
AcDbLinetypeTableRecord
  2
Continuous
 70
     0
  3
Solid line
 72
    65
 73
     0
 40
0.0
  0
LTYPE
  5
6E
330
5
100
AcDbSymbolTableRecord
100
AcDbLinetypeTableRecord
  2
HIDDEN
 70
     0
  3
Hidden __ __ __ __ __ __ __ __ __ __ __ __ __ __
 72
    65
 73
     2
 40
1.905
 49
1.27
 74
     0
 49
-0.635
 74
     0
  0
LTYPE
  5
6F
330
5
100
AcDbSymbolTableRecord
100
AcDbLinetypeTableRecord
  2
PHANTOM
 70
     0
  3
Phantom ______  __  __  ______  __  __  ______
 72
    65
 73
     6
 40
12.7
 49
6.35
 74
     0
 49
-1.27
 74
     0
 49
1.27
 74
     0
 49
-1.27
 74
     0
 49
1.27
 74
     0
 49
-1.27
 74
     0
  0
LTYPE
  5
70
330
5
100
AcDbSymbolTableRecord
100
AcDbLinetypeTableRecord
  2
CENTER
 70
     0
  3
Center ____ _ ____ _ ____ _ ____ _ ____ _ ____
 72
    65
 73
     4
 40
10.16
 49
6.35
 74
     0
 49
-1.27
 74
     0
 49
1.27
 74
     0
 49
-1.27
 74
     0
  0
LTYPE
  5
71
330
5
100
AcDbSymbolTableRecord
100
AcDbLinetypeTableRecord
  2
CENTERX2
 70
     0
  3
Center (2x) ________  __  ________  __  _____
 72
    65
 73
     4
 40
20.32
 49
12.7
 74
     0
 49
-2.54
 74
     0
 49
2.54
 74
     0
 49
-2.54
 74
     0
  0
LTYPE
  5
72
330
5
100
AcDbSymbolTableRecord
100
AcDbLinetypeTableRecord
  2
DOT2
 70
     0
  3
Dot (.5x) ........................................
 72
    65
 73
     2
 40
0.635
 49
0.0
 74
     0
 49
-0.635
 74
     0
  0
ENDTAB
  0
TABLE
  2
LAYER
  5
2
330
0
100
AcDbSymbolTable
 70
     4
  0
LAYER
  5
10
330
2
100
AcDbSymbolTableRecord
100
AcDbLayerTableRecord
  2
0
 70
     0
 62
     7
  6
Continuous
370
    -3
390
F
  0
LAYER
  5
73
330
2
100
AcDbSymbolTableRecord
100
AcDbLayerTableRecord
  2
FORMAT
 70
     0
 62
     7
  6
Continuous
370
    -3
390
F
  0
LAYER
  5
74
330
2
100
AcDbSymbolTableRecord
100
AcDbLayerTableRecord
  2
OUT_LINE
 70
     0
 62
     7
  6
Continuous
370
    50
390
F
  0
LAYER
  5
75
330
2
100
AcDbSymbolTableRecord
100
AcDbLayerTableRecord
  2
WATERMARK
 70
     0
 62
   254
  6
Continuous
370
    -3
390
F
  0
ENDTAB
  0
TABLE
  2
STYLE
  5
3
330
0
100
AcDbSymbolTable
 70
     1
  0
STYLE
  5
11
330
3
100
AcDbSymbolTableRecord
100
AcDbTextStyleTableRecord
  2
Standard
 70
     0
 40
0.0
 41
1.0
 50
0.0
 71
     0
 42
3.5277777778
  3
txt
  4

  0
ENDTAB
  0
TABLE
  2
VIEW
  5
6
330
0
100
AcDbSymbolTable
 70
     0
  0
ENDTAB
  0
TABLE
  2
UCS
  5
7
330
0
100
AcDbSymbolTable
 70
     0
  0
ENDTAB
  0
TABLE
  2
APPID
  5
9
330
0
100
AcDbSymbolTable
 70
     1
  0
APPID
  5
12
330
9
100
AcDbSymbolTableRecord
100
AcDbRegAppTableRecord
  2
ACAD
 70
     0
  0
ENDTAB
  0
TABLE
  2
DIMSTYLE
  5
A
330
0
100
AcDbSymbolTable
 70
     1
100
AcDbDimStyleTable
  0
DIMSTYLE
105
27
330
A
100
AcDbSymbolTableRecord
100
AcDbDimStyleTableRecord
  2
ISO-25
 70
     0
 41
2.5
 42
0.625
 43
3.75
 44
1.25
 73
     0
 74
     0
 77
     1
 78
     8
140
2.5
141
2.5
143
0.0393700787
147
0.625
171
     3
172
     1
178
     0
271
     2
272
     2
274
     3
278
    44
283
     0
284
     8
340
11
  0
ENDTAB
  0
TABLE
  2
BLOCK_RECORD
  5
1
330
0
100
AcDbSymbolTable
 70
     7
  0
BLOCK_RECORD
  5
1F
330
1
100
AcDbSymbolTableRecord
100
AcDbBlockTableRecord
  2
*Model_Space
340
22
  0
BLOCK_RECORD
  5
1B
330
1
100
AcDbSymbolTableRecord
100
AcDbBlockTableRecord
  2
*Paper_Space
340
1E
  0
BLOCK_RECORD
  5
23
330
1
100
AcDbSymbolTableRecord
100
AcDbBlockTableRecord
  2
*Paper_Space0
340
26
  0
BLOCK_RECORD
  5
76
330
1
100
AcDbSymbolTableRecord
100
AcDbBlockTableRecord
  2
Block6
340
0
  0
BLOCK_RECORD
  5
7B
330
1
100
AcDbSymbolTableRecord
100
AcDbBlockTableRecord
  2
Block4
340
0
  0
BLOCK_RECORD
  5
7F
330
1
100
AcDbSymbolTableRecord
100
AcDbBlockTableRecord
  2
Block5
340
0
  0
BLOCK_RECORD
  5
8D
330
1
100
AcDbSymbolTableRecord
100
AcDbBlockTableRecord
  2
Block2
340
0
  0
BLOCK_RECORD
  5
98
330
1
100
AcDbSymbolTableRecord
100
AcDbBlockTableRecord
  2
Block3
340
0
  0
BLOCK_RECORD
  5
A5
330
1
100
AcDbSymbolTableRecord
100
AcDbBlockTableRecord
  2
Block7
340
0
  0
ENDTAB
  0
ENDSEC
  0
SECTION
  2
BLOCKS
  0
BLOCK
  5
20
330
1F
100
AcDbEntity
  8
0
100
AcDbBlockBegin
  2
*Model_Space
 70
     0
 10
0.0
 20
0.0
 30
0.0
  3
*Model_Space
  1

  0
ENDBLK
  5
21
330
1F
100
AcDbEntity
  8
0
100
AcDbBlockEnd
  0
BLOCK
  5
1C
330
1B
100
AcDbEntity
 67
     1
  8
0
100
AcDbBlockBegin
  2
*Paper_Space
 70
     0
 10
0.0
 20
0.0
 30
0.0
  3
*Paper_Space
  1

  0
ENDBLK
  5
1D
330
1B
100
AcDbEntity
 67
     1
  8
0
100
AcDbBlockEnd
  0
BLOCK
  5
24
330
23
100
AcDbEntity
  8
0
100
AcDbBlockBegin
  2
*Paper_Space0
 70
     0
 10
0.0
 20
0.0
 30
0.0
  3
*Paper_Space0
  1

  0
ENDBLK
  5
25
330
23
100
AcDbEntity
  8
0
100
AcDbBlockEnd
  0
BLOCK
  5
77
330
76
100
AcDbEntity
  8
0
100
AcDbBlockBegin
  2
Block6
 70
     0
 10
0.0
 20
0.0
 30
0.0
  3
Block6
  1

  0
LINE
  5
79
330
76
100
AcDbEntity
  8
FORMAT
100
AcDbLine
 10
253.5616893058
 20
55.3714964458
 30
0.0
 11
250.6928867464
 21
53.8486167051
 31
0.0
  0
LINE
  5
7A
330
76
100
AcDbEntity
  8
FORMAT
100
AcDbLine
 10
250.6928867464
 20
53.8486167051
 30
0.0
 11
253.5616893058
 21
53.8486167051
 31
0.0
  0
ENDBLK
  5
78
330
76
100
AcDbEntity
  8
0
100
AcDbBlockEnd
  0
BLOCK
  5
7C
330
7B
100
AcDbEntity
  8
0
100
AcDbBlockBegin
  2
Block4
 70
     0
 10
0.0
 20
0.0
 30
0.0
  3
Block4
  1

  0
LINE
  5
7E
330
7B
100
AcDbEntity
  8
FORMAT
100
AcDbLine
 10
250.0093082872
 20
64.7263291389
 30
0.0
 11
290.0093082872
 21
64.7263291389
 31
0.0
  0
ENDBLK
  5
7D
330
7B
100
AcDbEntity
  8
0
100
AcDbBlockEnd
  0
BLOCK
  5
80
330
7F
100
AcDbEntity
  8
0
100
AcDbBlockBegin
  2
Block5
 70
     0
 10
0.0
 20
0.0
 30
0.0
  3
Block5
  1

  0
LINE
  5
82
330
7F
100
AcDbEntity
  8
FORMAT
100
AcDbLine
 10
251.0883122991
 20
64.4632252413
 30
0.0
 11
250.3611798328
 21
64.9733337839
 31
0.0
  0
LINE
  5
83
330
7F
100
AcDbEntity
  8
FORMAT
100
AcDbLine
 10
250.3611798328
 20
64.9733337839
 30
0.0
 11
251.0883122991
 21
65.4834423266
 31
0.0
  0
LINE
  5
84
330
7F
100
AcDbEntity
  8
FORMAT
100
AcDbLine
 10
250.3611798328
 20
65.6106440044
 30
0.0
 11
250.3611798328
 21
64.3360235634
 31
0.0
  0
LINE
  5
85
330
7F
100
AcDbEntity
  8
FORMAT
100
AcDbLine
 10
251.0883122991
 20
65.4834423266
 30
0.0
 11
251.0883122991
 21
64.4632252413
 31
0.0
  0
LINE
  5
86
330
7F
100
AcDbEntity
  8
FORMAT
  6
Continuous
 62
     7
370
    18
100
AcDbLine
 10
254.0738326611
 20
65.4834423266
 30
0.0
 11
254.0738326611
 21
64.4632252413
 31
0.0
  0
LINE
  5
87
330
7F
100
AcDbEntity
  8
FORMAT
100
AcDbLine
 10
251.0883122991
 20
64.9733337839
 30
0.0
 11
254.0738326611
 21
64.9733337839
 31
0.0
  0
LINE
  5
88
330
7F
100
AcDbEntity
  8
FORMAT
100
AcDbLine
 10
254.0738326611
 20
64.9733337839
 30
0.0
 11
254.0738326611
 21
64.4632252413
 31
0.0
  0
LINE
  5
89
330
7F
100
AcDbEntity
  8
FORMAT
  6
Continuous
 62
     7
370
    18
100
AcDbLine
 10
254.0738326611
 20
64.4632252413
 30
0.0
 11
254.8009651274
 21
64.9733337839
 31
0.0
  0
LINE
  5
8A
330
7F
100
AcDbEntity
  8
FORMAT
  6
Continuous
 62
     7
370
    18
100
AcDbLine
 10
254.8009651274
 20
64.9733337839
 30
0.0
 11
254.0738326611
 21
65.4834423266
 31
0.0
  0
LINE
  5
8B
330
7F
100
AcDbEntity
  8
FORMAT
100
AcDbLine
 10
254.0738326611
 20
65.4834423266
 30
0.0
 11
254.0738326611
 21
64.9733337839
 31
0.0
  0
LINE
  5
8C
330
7F
100
AcDbEntity
  8
FORMAT
100
AcDbLine
 10
254.8009651274
 20
65.6106440044
 30
0.0
 11
254.8009651274
 21
64.3360235634
 31
0.0
  0
ENDBLK
  5
81
330
7F
100
AcDbEntity
  8
0
100
AcDbBlockEnd
  0
BLOCK
  5
8E
330
8D
100
AcDbEntity
  8
0
100
AcDbBlockBegin
  2
Block2
 70
     0
 10
0.0
 20
0.0
 30
0.0
  3
Block2
  1

  0
CIRCLE
  5
90
330
8D
100
AcDbEntity
  8
FORMAT
100
AcDbCircle
 10
48.741006851
 20
68.2700462855
 30
0.0
 40
7.000000000000013
  0
CIRCLE
  5
91
330
8D
100
AcDbEntity
  8
FORMAT
100
AcDbCircle
 10
48.741006851
 20
68.2700462855
 30
0.0
 40
3.32888862482043
  0
LINE
  5
92
330
8D
100
AcDbEntity
  8
FORMAT
100
AcDbLine
 10
60.4734604481
 20
71.6747664277
 30
0.0
 11
76.4734604481
 21
75.1747664277
 31
0.0
  0
LINE
  5
93
330
8D
100
AcDbEntity
  8
FORMAT
100
AcDbLine
 10
76.4734604481
 20
75.1747664277
 30
0.0
 11
76.4734604481
 21
61.3653261433
 31
0.0
  0
LINE
  5
94
330
8D
100
AcDbEntity
  8
FORMAT
100
AcDbLine
 10
76.4734604481
 20
61.3653261433
 30
0.0
 11
60.4734604481
 21
64.8653261433
 31
0.0
  0
LINE
  5
95
330
8D
100
AcDbEntity
  8
FORMAT
100
AcDbLine
 10
60.4734604481
 20
64.8653261433
 30
0.0
 11
60.4734604481
 21
71.6747664277
 31
0.0
  0
LINE
  5
96
330
8D
100
AcDbEntity
  8
FORMAT
  6
CENTERX2
100
AcDbLine
 10
76.4734604481
 20
68.2700462855
 30
0.0
 11
39.8388877958
 21
68.2700462855
 31
0.0
  0
LINE
  5
97
330
8D
100
AcDbEntity
  8
FORMAT
100
AcDbLine
 10
48.741006851
 20
76.8424572275
 30
0.0
 11
48.741006851
 21
59.6976353435
 31
0.0
  0
ENDBLK
  5
8F
330
8D
100
AcDbEntity
  8
0
100
AcDbBlockEnd
  0
BLOCK
  5
99
330
98
100
AcDbEntity
  8
0
100
AcDbBlockBegin
  2
Block3
 70
     0
 10
0.0
 20
0.0
 30
0.0
  3
Block3
  1

  0
ARC
  5
9B
330
98
100
AcDbEntity
  8
FORMAT
100
AcDbCircle
 10
253.5616893058
 20
61.9516976285
 30
0.0
 40
0.5251511718353873
100
AcDbArc
 50
349.3356822367
 51
90.0
  0
LINE
  5
9C
330
98
100
AcDbEntity
  8
FORMAT
100
AcDbLine
 10
250.6928867464
 20
62.4768488003
 30
0.0
 11
250.6928867464
 21
61.2321831396
 31
0.0
  0
LINE
  5
9D
330
98
100
AcDbEntity
  8
FORMAT
100
AcDbLine
 10
250.6928867464
 20
61.2321831396
 30
0.0
 11
251.7250485138
 21
61.2321831396
 31
0.0
  0
LINE
  5
9E
330
98
100
AcDbEntity
  8
FORMAT
100
AcDbLine
 10
251.7250485138
 20
61.2321831396
 30
0.0
 11
251.7250485138
 21
61.85451597
 31
0.0
  0
LINE
  5
9F
330
98
100
AcDbEntity
  8
FORMAT
100
AcDbLine
 10
251.7250485138
 20
61.85451597
 30
0.0
 11
251.2089676301
 21
62.4768488003
 31
0.0
  0
LINE
  5
A0
330
98
100
AcDbEntity
  8
FORMAT
100
AcDbLine
 10
251.2089676301
 20
62.4768488003
 30
0.0
 11
250.6928867464
 21
62.4768488003
 31
0.0
  0
LINE
  5
A1
330
98
100
AcDbEntity
  8
0
  6
Continuous
 62
     7
370
    18
100
AcDbLine
 10
253.0456084221
 20
61.2321831396
 30
0.0
 11
254.0777701895
 21
61.2321831396
 31
0.0
  0
LINE
  5
A2
330
98
100
AcDbEntity
  8
0
  6
Continuous
 62
     7
370
    18
100
AcDbLine
 10
254.0777701895
 20
61.2321831396
 30
0.0
 11
254.0777701895
 21
61.85451597
 31
0.0
  0
LINE
  5
A3
330
98
100
AcDbEntity
  8
0
  6
Continuous
 62
     7
370
    18
100
AcDbLine
 10
253.0456084221
 20
62.4768488003
 30
0.0
 11
253.0456084221
 21
61.2321831396
 31
0.0
  0
LINE
  5
A4
330
98
100
AcDbEntity
  8
0
  6
Continuous
 62
     7
370
    18
100
AcDbLine
 10
253.5616893058
 20
62.4768488003
 30
0.0
 11
253.0456084221
 21
62.4768488003
 31
0.0
  0
ENDBLK
  5
9A
330
98
100
AcDbEntity
  8
0
100
AcDbBlockEnd
  0
BLOCK
  5
A6
330
A5
100
AcDbEntity
  8
0
100
AcDbBlockBegin
  2
Block7
 70
     0
 10
0.0
 20
0.0
 30
0.0
  3
Block7
  1

  0
LINE
  5
A8
330
A5
100
AcDbEntity
  8
FORMAT
100
AcDbLine
 10
221.8284763776
 20
80.2705155621
 30
0.0
 11
222.3963943455
 21
79.286852787
 31
0.0
  0
LINE
  5
A9
330
A5
100
AcDbEntity
  8
FORMAT
100
AcDbLine
 10
222.3963943455
 20
79.286852787
 30
0.0
 11
222.9643123135
 21
80.2705155621
 31
0.0
  0
LINE
  5
AA
330
A5
100
AcDbEntity
  8
FORMAT
100
AcDbLine
 10
221.8284763776
 20
80.2705155621
 30
0.0
 11
222.9643123135
 21
80.2705155621
 31
0.0
  0
LINE
  5
AB
330
A5
100
AcDbEntity
  8
FORMAT
100
AcDbLine
 10
222.9643123135
 20
80.2705155621
 30
0.0
 11
223.3725273771
 21
80.9775647926
 31
0.0
  0
LINE
  5
AC
330
A5
100
AcDbEntity
  8
FORMAT
100
AcDbLine
 10
223.3725273771
 20
80.9775647926
 30
0.0
 11
224.1023154201
 21
80.9775647926
 31
0.0
  0
ENDBLK
  5
A7
330
A5
100
AcDbEntity
  8
0
100
AcDbBlockEnd
  0
ENDSEC
  0
SECTION
  2
ENTITIES
  0
LINE
  5
AD
330
1F
100
AcDbEntity
  8
0
  6
Continuous
 62
     7
370
    25
100
AcDbLine
 10
138.7436627893
 20
-80.9016128179
 30
0.0
 11
138.7436627893
 21
-78.9841717021
 31
0.0
  0
LINE
  5
AE
330
1F
100
AcDbEntity
  8
0
  6
Continuous
 62
     7
370
    25
100
AcDbLine
 10
115.6436627893
 20
-78.9841717021
 30
0.0
 11
115.6436627893
 21
-80.9016128179
 31
0.0
  0
LINE
  5
AF
330
1F
100
AcDbEntity
  8
0
  6
Continuous
 62
     7
370
    25
100
AcDbLine
 10
123.4704062971
 20
-91.7164987933
 30
0.0
 11
123.6477042253
 21
-91.7762209956
 31
0.0
  0
LINE
  5
B0
330
1F
100
AcDbEntity
  8
0
  6
Continuous
 62
     7
370
    25
100
AcDbLine
 10
130.7396213532
 20
-91.7762209956
 30
0.0
 11
130.9169192814
 21
-91.7164987933
 31
0.0
  0
LINE
  5
B1
330
1F
100
AcDbEntity
  8
0
  6
Continuous
 62
     7
370
    25
100
AcDbLine
 10
135.7936627893
 20
-78.3967449753
 30
0.0
 11
135.7936627893
 21
134.4246882077
 31
0.0
  0
LINE
  5
B2
330
1F
100
AcDbEntity
  8
0
  6
Continuous
 62
     7
370
    25
100
AcDbLine
 10
118.5936627893
 20
134.4246882077
 30
0.0
 11
118.5936627893
 21
-78.3967449753
 31
0.0
  0
LINE
  5
B3
330
1F
100
AcDbEntity
  8
0
  6
Continuous
 62
     7
370
    25
100
AcDbLine
 10
118.5936627893
 20
-78.3967449753
 30
0.0
 11
118.5936627893
 21
-78.543601657
 31
0.0
  0
LINE
  5
B4
330
1F
100
AcDbEntity
  8
0
  6
Continuous
 62
     7
370
    25
100
AcDbLine
 10
135.7936627893
 20
-78.543601657
 30
0.0
 11
135.7936627893
 21
-78.3967449753
 31
0.0
  0
LINE
  5
B5
330
1F
100
AcDbEntity
  8
0
  6
Continuous
 62
     7
370
    25
100
AcDbLine
 10
137.9936627893
 20
-78.9841717021
 30
0.0
 11
137.9936627893
 21
-78.9682181408
 31
0.0
  0
ARC
  5
B6
330
1F
100
AcDbEntity
  8
0
  6
Continuous
 62
     7
370
    25
100
AcDbCircle
 10
201.1864282015
 20
134.4246882077
 30
0.0
 40
10.62999999999999
100
AcDbArc
 50
14.157651444
 51
20.4937008693
  0
ARC
  5
B7
330
1F
100
AcDbEntity
  8
0
  6
Continuous
 62
     7
370
    25
100
AcDbCircle
 10
201.1864282015
 20
134.4246882077
 30
0.0
 40
10.63
100
AcDbArc
 50
339.5062991307
 51
345.842348556
  0
SPLINE
  5
B8
330
1F
100
AcDbEntity
  8
0
  6
Continuous
 62
     7
370
    25
100
AcDbSpline
210
0.0
220
0.0
230
1.0
 70
     8
 71
     3
 72
    18
 73
    14
 74
     0
 42
0.00000001
 43
0.00000001
 40
0.0
 40
0.0
 40
0.0
 40
0.0
 40
0.1558562140192015
 40
0.3054591627168399
 40
0.4079826683847915
 40
0.4452203793828851
 40
0.4617350401234739
 40
0.4776738128964806
 40
0.5106853744392675
 40
0.5498893620094786
 40
0.6589115341801004
 40
0.8178126288519569
 40
1.0
 40
1.0
 40
1.0
 40
1.0
 10
209.1125416361195
 20
129.2221865453795
 30
0.0
 10
209.1970645375339
 20
129.5249062930968
 30
0.0
 10
209.3627191112633
 20
130.1182000623409
 30
0.0
 10
209.7374963519059
 20
131.1686458369501
 30
0.0
 10
210.0483371689528
 20
132.2021545600645
 30
0.0
 10
210.2048507453503
 20
133.0451102992226
 30
0.0
 10
210.2579148542909
 20
133.4800510477804
 30
0.0
 10
210.2934207755519
 20
133.9095145188886
 30
0.0
 10
210.3039122713879
 20
134.4910841899266
 30
0.0
 10
210.2336186672784
 20
135.4977883909362
 30
0.0
 10
209.974558909435
 20
136.7503725667522
 30
0.0
 10
209.5190659064488
 20
138.2012760024621
 30
0.0
 10
209.2498973569608
 20
139.1425373374881
 30
0.0
 10
209.10612494792
 20
139.6452981909795
 30
0.0
  0
SPLINE
  5
B9
330
1F
100
AcDbEntity
  8
0
  6
Continuous
 62
     7
370
    25
100
AcDbSpline
210
0.0
220
0.0
230
1.0
 70
     8
 71
     3
 72
     9
 73
     5
 74
     0
 42
0.00000001
 43
0.00000001
 40
0.0
 40
0.0
 40
0.0
 40
0.0
 40
0.2217253967957298
 40
0.9999999999999999
 40
0.9999999999999999
 40
0.9999999999999999
 40
0.9999999999999999
 10
198.8052490307709
 20
130.7975545583802
 30
0.0
 10
198.7992237422129
 20
130.7805649424648
 30
0.0
 10
198.7720491891623
 20
130.7039403601624
 30
0.0
 10
198.8118534480975
 20
130.6203290074471
 30
0.0
 10
198.8428320919263
 20
130.5552564150892
 30
0.0
  0
LINE
  5
BA
330
1F
100
AcDbEntity
  8
0
  6
Continuous
 62
     7
370
    25
100
AcDbLine
 10
198.8428320919
 20
138.2941200004
 30
0.0
 11
198.8188616816
 21
138.0538704424
 31
0.0
  0
LINE
  5
BB
330
1F
100
AcDbEntity
  8
0
  6
Continuous
 62
     7
370
    25
100
AcDbLine
 10
198.7884688666
 20
138.0565523527
 30
0.0
 11
198.7884688666
 21
130.7928240627
 31
0.0
  0
ARC
  5
BC
330
1F
100
AcDbEntity
  8
0
  6
Continuous
 62
     7
370
    25
100
AcDbCircle
 10
194.8936627893
 20
122.952798593
 30
0.0
 40
0.5
100
AcDbArc
 50
180.0
 51
271.0
  0
ARC
  5
BD
330
1F
100
AcDbEntity
  8
0
  6
Continuous
 62
     7
370
    25
100
AcDbCircle
 10
194.8936627893
 20
145.8965778225
 30
0.0
 40
0.5000000000000063
100
AcDbArc
 50
89.0
 51
180.0
  0
LINE
  5
BE
330
1F
100
AcDbEntity
  8
0
  6
Continuous
 62
     7
370
    25
100
AcDbLine
 10
198.9285676021
 20
146.326224461
 30
0.0
 11
194.9023889925
 21
146.39650167
 31
0.0
  0
LINE
  5
BF
330
1F
100
AcDbEntity
  8
0
  6
Continuous
 62
     7
370
    25
100
AcDbLine
 10
194.9023889925
 20
122.4528747454
 30
0.0
 11
198.9285676021
 21
122.5231519545
 31
0.0
  0
ARC
  5
C0
330
1F
100
AcDbEntity
  8
0
  6
Continuous
 62
     7
370
    25
100
AcDbCircle
 10
198.8936627893
 20
124.5228473448
 30
0.0
 40
2.000000000000028
100
AcDbArc
 50
271.0
 51
0.0
  0
ARC
  5
C1
330
1F
100
AcDbEntity
  8
0
  6
Continuous
 62
     7
370
    25
100
AcDbCircle
 10
198.8936627893
 20
144.3265290707
 30
0.0
 40
2.0
100
AcDbArc
 50
0.0
 51
89.0
  0
ARC
  5
C2
330
1F
100
AcDbEntity
  8
0
  6
Continuous
 62
     7
370
    25
100
AcDbCircle
 10
208.7436627893
 20
126.0252445535
 30
0.0
 40
0.5
100
AcDbArc
 50
271.0
 51
0.0
  0
ARC
  5
C3
330
1F
100
AcDbEntity
  8
0
  6
Continuous
 62
     7
370
    25
100
AcDbCircle
 10
208.7436627893
 20
142.824131862
 30
0.0
 40
0.5
100
AcDbArc
 50
0.0
 51
89.0
  0
ARC
  5
C4
330
1F
100
AcDbEntity
  8
0
  6
Continuous
 62
     7
370
    25
100
AcDbCircle
 10
204.4436627893
 20
146.9498055698
 30
0.0
 40
3.550000000000013
100
AcDbArc
 50
241.8464790807
 51
269.0
  0
ARC
  5
C5
330
1F
100
AcDbEntity
  8
0
  6
Continuous
 62
     7
370
    25
100
AcDbCircle
 10
203.4936627893
 20
122.8331332457
 30
0.0
 40
2.600000000000008
100
AcDbArc
 50
91.0
 51
120.5908421204
  0
SPLINE
  5
C6
330
1F
100
AcDbEntity
  8
0
  6
Continuous
 62
     7
370
    25
100
AcDbSpline
210
0.0
220
0.0
230
1.0
 70
     8
 71
     3
 72
    12
 73
     8
 74
     0
 42
0.00000001
 43
0.00000001
 40
0.0
 40
0.0
 40
0.0
 40
0.0
 40
0.0993572612460881
 40
0.4018116387846741
 40
0.6605402722315347
 40
0.8699317636848758
 40
1.0
 40
1.0
 40
1.0
 40
1.0
 10
202.739964217672
 20
143.8412210212411
 30
0.0
 10
202.6243803945287
 20
143.9030419103817
 30
0.0
 10
202.1569467634909
 20
144.1530523521468
 30
0.0
 10
201.530355933475
 20
144.5249437115523
 30
0.0
 10
200.9696217839537
 20
144.8970353330221
 30
0.0
 10
200.688616195448
 20
145.1388758371296
 30
0.0
 10
200.6756638423205
 20
145.1543733930422
 30
0.0
 10
200.6707009863774
 20
145.1603114752352
 30
0.0
  0
SPLINE
  5
C7
330
1F
100
AcDbEntity
  8
0
  6
Continuous
 62
     7
370
    25
100
AcDbSpline
210
0.0
220
0.0
230
1.0
 70
     8
 71
     3
 72
    10
 73
     6
 74
     0
 42
0.00000001
 43
0.00000001
 40
0.0
 40
0.0
 40
0.0
 40
0.0
 40
0.2438104372696867
 40
0.6657444047975208
 40
1.0
 40
1.0
 40
1.0
 40
1.0
 10
200.8728494253255
 20
124.1823308135813
 30
0.0
 10
200.9356123162611
 20
124.235413096299
 30
0.0
 10
201.1069915399612
 20
124.3803586249193
 30
0.0
 10
201.5573819205131
 20
124.6936468395534
 30
0.0
 10
201.9856439351196
 20
124.9536574449036
 30
0.0
 10
202.1749469639502
 20
125.0685889434772
 30
0.0
  0
LINE
  5
C8
330
1F
100
AcDbEntity
  8
0
  6
Continuous
 62
     7
370
    25
100
AcDbLine
 10
203.4482865325
 20
125.4327372531
 30
0.0
 11
208.7523889925
 21
125.5253207059
 31
0.0
  0
LINE
  5
C9
330
1F
100
AcDbEntity
  8
0
  6
Continuous
 62
     7
370
    25
100
AcDbLine
 10
208.7523889925
 20
143.3240557096
 30
0.0
 11
204.3817067464
 21
143.4003462519
 31
0.0
  0
LINE
  5
CA
330
1F
100
AcDbEntity
  8
0
  6
Continuous
 62
     7
370
    25
100
AcDbLine
 10
209.2436627893
 20
127.2746882077
 30
0.0
 11
210.8486677788
 21
128.4995604366
 31
0.0
  0
LINE
  5
CB
330
1F
100
AcDbEntity
  8
0
  6
Continuous
 62
     7
370
    25
100
AcDbLine
 10
210.8486677788
 20
140.3498159789
 30
0.0
 11
209.2436627893
 21
141.5746882077
 31
0.0
  0
ARC
  5
CC
330
1F
100
AcDbEntity
  8
0
  6
Continuous
 62
     7
370
    25
100
AcDbCircle
 10
210.3936627893
 20
129.0957738711
 30
0.0
 40
0.7500000000000014
100
AcDbArc
 50
307.3493490446
 51
0.0
  0
ARC
  5
CD
330
1F
100
AcDbEntity
  8
0
  6
Continuous
 62
     7
370
    25
100
AcDbCircle
 10
210.3936627893
 20
139.7536025444
 30
0.0
 40
0.7500000000000014
100
AcDbArc
 50
0.0
 51
52.6506509554
  0
LINE
  5
CE
330
1F
100
AcDbEntity
  8
0
  6
Continuous
 62
     7
370
    25
100
AcDbLine
 10
185.2741505941
 20
124.9246882077
 30
0.0
 11
186.4936627893
 21
126.1746882077
 31
0.0
  0
LINE
  5
CF
330
1F
100
AcDbEntity
  8
0
  6
Continuous
 62
     7
370
    25
100
AcDbLine
 10
186.4936627893
 20
142.6746882077
 30
0.0
 11
185.2741505941
 21
143.9246882077
 31
0.0
  0
LINE
  5
D0
330
1F
100
AcDbEntity
  8
0
  6
Continuous
 62
     7
370
    25
100
AcDbLine
 10
179.232547337
 20
125.0246882077
 30
0.0
 11
179.6987227151
 21
125.0246882077
 31
0.0
  0
SPLINE
  5
D1
330
1F
100
AcDbEntity
  8
0
  6
Continuous
 62
     7
370
    25
100
AcDbSpline
210
0.0
220
0.0
230
1.0
 70
     8
 71
     3
 72
     9
 73
     5
 74
     0
 42
0.00000001
 43
0.00000001
 40
0.0
 40
0.0
 40
0.0
 40
0.0
 40
0.5017550341705622
 40
1.0
 40
1.0
 40
1.0
 40
1.0
 10
179.5939682524088
 20
125.0323008451902
 30
0.0
 10
179.6678352226866
 20
125.1601726484922
 30
0.0
 10
179.8150524208158
 20
125.4150217174473
 30
0.0
 10
179.9623290584772
 20
125.6698098193048
 30
0.0
 10
180.0357089017762
 20
125.7967567084085
 30
0.0
  0
SPLINE
  5
D2
330
1F
100
AcDbEntity
  8
0
  6
Continuous
 62
     7
370
    25
100
AcDbSpline
210
0.0
220
0.0
230
1.0
 70
     8
 71
     3
 72
     9
 73
     5
 74
     0
 42
0.00000001
 43
0.00000001
 40
0.0
 40
0.0
 40
0.0
 40
0.0
 40
0.4988337438989723
 40
1.0
 40
1.0
 40
1.0
 40
1.0
 10
179.3301544626209
 20
143.0526177577475
 30
0.0
 10
179.2566935552047
 20
143.1797219071735
 30
0.0
 10
179.1094282422326
 20
143.4345245362669
 30
0.0
 10
178.9621996569643
 20
143.6893593032005
 30
0.0
 10
178.8884136580943
 20
143.817073889269
 30
0.0
  0
SPLINE
  5
D3
330
1F
100
AcDbEntity
  8
0
  6
Continuous
 62
     7
370
    25
100
AcDbSpline
210
0.0
220
0.0
230
1.0
 70
     8
 71
     3
 72
     9
 73
     5
 74
     0
 42
0.00000001
 43
0.00000001
 40
0.0
 40
0.0
 40
0.0
 40
0.0
 40
0.5011016814587623
 40
1.0
 40
1.0
 40
1.0
 40
1.0
 10
178.7821603234627
 20
125.7967775210033
 30
0.0
 10
178.8559524834652
 20
125.6690898913028
 30
0.0
 10
179.0032123365707
 20
125.4142760792061
 30
0.0
 10
179.1504523579086
 20
125.1594419410694
 30
0.0
 10
179.223910156976
 20
125.032305618046
 30
0.0
  0
SPLINE
  5
D4
330
1F
100
AcDbEntity
  8
0
  6
Continuous
 62
     7
370
    25
100
AcDbSpline
210
0.0
220
0.0
230
1.0
 70
     8
 71
     3
 72
     9
 73
     5
 74
     0
 42
0.00000001
 43
0.00000001
 40
0.0
 40
0.0
 40
0.0
 40
0.0
 40
0.3558179474155745
 40
1.0
 40
1.0
 40
1.0
 40
1.0
 10
179.8313514187088
 20
143.6472665763758
 30
0.0
 10
179.7905971089894
 20
143.5767322189666
 30
0.0
 10
179.6760601385654
 20
143.3785006291281
 30
0.0
 10
179.5615076918233
 20
143.1802846449257
 30
0.0
 10
179.4877150615524
 20
143.0525974653671
 30
0.0
  0
LINE
  5
D5
330
1F
100
AcDbEntity
  8
0
  6
Continuous
 62
     7
370
    25
100
AcDbLine
 10
180.1936627893
 20
143.3246882077
 30
0.0
 11
179.864515685
 21
143.653835312
 31
0.0
  0
SPLINE
  5
D6
330
1F
100
AcDbEntity
  8
0
  6
Continuous
 62
     7
370
    25
100
AcDbSpline
210
0.0
220
0.0
230
1.0
 70
     8
 71
     3
 72
     9
 73
     5
 74
     0
 42
0.00000001
 43
0.00000001
 40
0.0
 40
0.0
 40
0.0
 40
0.0
 40
0.5112090479899531
 40
1.0
 40
1.0
 40
1.0
 40
1.0
 10
179.4969846889319
 20
143.0608997586334
 30
0.0
 10
179.4677520916439
 20
143.0608954803835
 30
0.0
 10
179.410568836764
 20
143.0608871114981
 30
0.0
 10
179.3533408812329
 20
143.0608952988447
 30
0.0
 10
179.3253683743672
 20
143.0608993007457
 30
0.0
  0
LINE
  5
D7
330
1F
100
AcDbEntity
  8
0
  6
Continuous
 62
     7
370
    25
100
AcDbLine
 10
180.1936627893
 20
126.2996882077
 30
0.0
 11
181.6936627893
 21
126.2996882077
 31
0.0
  0
LINE
  5
D8
330
1F
100
AcDbEntity
  8
0
  6
Continuous
 62
     7
370
    25
100
AcDbLine
 10
181.6936627893
 20
142.5496882077
 30
0.0
 11
180.1936627893
 21
142.5496882077
 31
0.0
  0
ARC
  5
D9
330
1F
100
AcDbEntity
  8
0
  6
Continuous
 62
     7
370
    25
100
AcDbCircle
 10
171.2936627893
 20
128.6836998356
 30
0.0
 40
9.134011627906986
100
AcDbArc
 50
270.0
 51
328.0464183091
  0
ARC
  5
DA
330
1F
100
AcDbEntity
  8
0
  6
Continuous
 62
     7
370
    25
100
AcDbCircle
 10
171.2936627893
 20
140.1656765798
 30
0.0
 40
9.134011627906968
100
AcDbArc
 50
31.9535816909
 51
90.0
  0
SPLINE
  5
DB
330
1F
100
AcDbEntity
  8
0
  6
Continuous
 62
     7
370
    25
100
AcDbSpline
210
0.0
220
0.0
230
1.0
 70
     8
 71
     3
 72
     9
 73
     5
 74
     0
 42
0.00000001
 43
0.00000001
 40
0.0
 40
0.0
 40
0.0
 40
0.0
 40
0.6222983036771451
 40
1.0
 40
1.0
 40
1.0
 40
1.0
 10
163.2841870593633
 20
149.1079085637296
 30
0.0
 10
163.2174713353087
 20
148.9923875856084
 30
0.0
 10
163.1102627447333
 20
148.8067515691858
 30
0.0
 10
163.0030523909751
 20
148.6211165124209
 30
0.0
 10
162.9625588584973
 20
148.5510018365838
 30
0.0
  0
LINE
  5
DC
330
1F
100
AcDbEntity
  8
0
  6
Continuous
 62
     7
370
    25
100
AcDbLine
 10
162.5396929483
 20
119.9310613803
 30
0.0
 11
162.6490397291
 21
119.7417237735
 31
0.0
  0
LINE
  5
DD
330
1F
100
AcDbEntity
  8
0
  6
Continuous
 62
     7
370
    25
100
AcDbLine
 10
162.6537913841
 20
119.737295972
 30
0.0
 11
162.8125413841
 21
119.737295972
 31
0.0
  0
LINE
  5
DE
330
1F
100
AcDbEntity
  8
0
  6
Continuous
 62
     7
370
    25
100
AcDbLine
 10
194.3936627893
 20
140.0746882077
 30
0.0
 11
186.4936627893
 21
140.0746882077
 31
0.0
  0
LINE
  5
DF
330
1F
100
AcDbEntity
  8
0
  6
Continuous
 62
     7
370
    25
100
AcDbLine
 10
186.4936627893
 20
128.7746882077
 30
0.0
 11
194.3936627893
 21
128.7746882077
 31
0.0
  0
LINE
  5
E0
330
1F
100
AcDbEntity
  8
0
  6
Continuous
 62
     7
370
    25
100
AcDbLine
 10
141.1906139382
 20
118.2246882077
 30
0.0
 11
158.3936627893
 21
118.2246882077
 31
0.0
  0
LINE
  5
E1
330
1F
100
AcDbEntity
  8
0
  6
Continuous
 62
     7
370
    25
100
AcDbLine
 10
158.3936627893
 20
150.6246882077
 30
0.0
 11
141.1727337997
 21
150.6246882077
 31
0.0
  0
SPLINE
  5
E2
330
1F
100
AcDbEntity
  8
0
  6
Continuous
 62
     7
370
    25
100
AcDbSpline
210
0.0
220
0.0
230
1.0
 70
     8
 71
     3
 72
     9
 73
     5
 74
     0
 42
0.00000001
 43
0.00000001
 40
0.0
 40
0.0
 40
0.0
 40
0.0
 40
0.5022789970715524
 40
0.9999999999999999
 40
0.9999999999999999
 40
0.9999999999999999
 40
0.9999999999999999
 10
161.9998727192368
 20
119.9300858397882
 30
0.0
 10
162.0778478322154
 20
120.0651176278642
 30
0.0
 10
162.2330904631698
 20
120.3339558410152
 30
0.0
 10
162.3883938201416
 20
120.602786601357
 30
0.0
 10
162.4656915627318
 20
120.7365893170124
 30
0.0
  0
SPLINE
  5
E3
330
1F
100
AcDbEntity
  8
0
  6
Continuous
 62
     7
370
    25
100
AcDbSpline
210
0.0
220
0.0
230
1.0
 70
     8
 71
     3
 72
     9
 73
     5
 74
     0
 42
0.00000001
 43
0.00000001
 40
0.0
 40
0.0
 40
0.0
 40
0.0
 40
0.5018878356540979
 40
1.0
 40
1.0
 40
1.0
 40
1.0
 10
160.4998727192368
 20
119.9300858397882
 30
0.0
 10
160.5777753084914
 20
120.0650120412295
 30
0.0
 10
160.7329944306146
 20
120.3338494026002
 30
0.0
 10
160.8883202957335
 20
120.6026795852221
 30
0.0
 10
160.9656899985868
 20
120.7365871693295
 30
0.0
  0
SPLINE
  5
E4
330
1F
100
AcDbEntity
  8
0
  6
Continuous
 62
     7
370
    25
100
AcDbSpline
210
0.0
220
0.0
230
1.0
 70
     8
 71
     3
 72
     9
 73
     5
 74
     0
 42
0.00000001
 43
0.00000001
 40
0.0
 40
0.0
 40
0.0
 40
0.0
 40
0.501510996466117
 40
1.0
 40
1.0
 40
1.0
 40
1.0
 10
158.9998727192368
 20
119.9300858397882
 30
0.0
 10
159.077701497602
 20
120.0649098591313
 30
0.0
 10
159.2328900755467
 20
120.3337454784757
 30
0.0
 10
159.3882473234008
 20
120.6025792784544
 30
0.0
 10
159.4656912030754
 20
120.7365899715221
 30
0.0
  0
LINE
  5
E5
330
1F
100
AcDbEntity
  8
0
  6
Continuous
 62
     7
370
    25
100
AcDbLine
 10
162.9810557575
 20
148.5189724823
 30
0.0
 11
162.7498743539
 21
148.919287749
 31
0.0
  0
SPLINE
  5
E6
330
1F
100
AcDbEntity
  8
0
  6
Continuous
 62
     7
370
    25
100
AcDbSpline
210
0.0
220
0.0
230
1.0
 70
     8
 71
     3
 72
     9
 73
     5
 74
     0
 42
0.00000001
 43
0.00000001
 40
0.0
 40
0.0
 40
0.0
 40
0.0
 40
0.5016435549345866
 40
1.0
 40
1.0
 40
1.0
 40
1.0
 10
161.7189930971396
 20
148.1070717373368
 30
0.0
 10
161.6405227370302
 20
148.2428843501884
 30
0.0
 10
161.4840962079986
 20
148.513619639251
 30
0.0
 10
161.3277770258193
 20
148.784361698708
 30
0.0
 10
161.2498743538929
 20
148.9192877489887
 30
0.0
  0
SPLINE
  5
E7
330
1F
100
AcDbEntity
  8
0
  6
Continuous
 62
     7
370
    25
100
AcDbSpline
210
0.0
220
0.0
230
1.0
 70
     8
 71
     3
 72
     9
 73
     5
 74
     0
 42
0.00000001
 43
0.00000001
 40
0.0
 40
0.0
 40
0.0
 40
0.0
 40
0.502016030313312
 40
1.0
 40
1.0
 40
1.0
 40
1.0
 10
160.2189930971396
 20
148.1070717373368
 30
0.0
 10
160.1404488548594
 20
148.2429865753121
 30
0.0
 10
159.9839912169805
 20
148.5137246190563
 30
0.0
 10
159.8277032540749
 20
148.7844639181005
 30
0.0
 10
159.7498743538929
 20
148.9192877489887
 30
0.0
  0
LINE
  5
E8
330
1F
100
AcDbEntity
  8
0
  6
Continuous
 62
     7
370
    25
100
AcDbLine
 10
162.8309087697
 20
120.7421736051
 30
0.0
 11
163.0108549337
 21
120.4306533481
 31
0.0
  0
SPLINE
  5
E9
330
1F
100
AcDbEntity
  8
0
  6
Continuous
 62
     7
370
    25
100
AcDbSpline
210
0.0
220
0.0
230
1.0
 70
     8
 71
     3
 72
     9
 73
     5
 74
     0
 42
0.00000001
 43
0.00000001
 40
0.0
 40
0.0
 40
0.0
 40
0.0
 40
0.4981726380348059
 40
1.0
 40
1.0
 40
1.0
 40
1.0
 10
161.3309087696932
 20
120.7421736050899
 30
0.0
 10
161.408825330775
 20
120.6073100686518
 30
0.0
 10
161.5652300690786
 20
120.336593601826
 30
0.0
 10
161.7215725769155
 20
120.0658304444235
 30
0.0
 10
161.8000295251864
 20
119.9299540834267
 30
0.0
  0
SPLINE
  5
EA
330
1F
100
AcDbEntity
  8
0
  6
Continuous
 62
     7
370
    25
100
AcDbSpline
210
0.0
220
0.0
230
1.0
 70
     8
 71
     3
 72
     9
 73
     5
 74
     0
 42
0.00000001
 43
0.00000001
 40
0.0
 40
0.0
 40
0.0
 40
0.0
 40
0.4977054804244463
 40
0.9999999999999999
 40
0.9999999999999999
 40
0.9999999999999999
 40
0.9999999999999999
 10
159.8309087696932
 20
120.7421736050898
 30
0.0
 10
159.908758424303
 20
120.6074490787278
 30
0.0
 10
160.0651755377802
 20
120.3367578131882
 30
0.0
 10
160.2215057275971
 20
120.0659695460004
 30
0.0
 10
160.3000295251864
 20
119.9299540834267
 30
0.0
  0
SPLINE
  5
EB
330
1F
100
AcDbEntity
  8
0
  6
Continuous
 62
     7
370
    25
100
AcDbSpline
210
0.0
220
0.0
230
1.0
 70
     8
 71
     3
 72
     9
 73
     5
 74
     0
 42
0.00000001
 43
0.00000001
 40
0.0
 40
0.0
 40
0.0
 40
0.0
 40
0.5048333721705174
 40
0.9999999999999999
 40
0.9999999999999999
 40
0.9999999999999999
 40
0.9999999999999999
 10
162.5500303391437
 20
148.9194237221547
 30
0.0
 10
162.4716404092126
 20
148.7836810631566
 30
0.0
 10
162.3163615899974
 20
148.5147949980092
 30
0.0
 10
162.1610436543843
 20
148.2459244188785
 30
0.0
 10
162.0841353959654
 20
148.1127886808877
 30
0.0
  0
SPLINE
  5
EC
330
1F
100
AcDbEntity
  8
0
  6
Continuous
 62
     7
370
    25
100
AcDbSpline
210
0.0
220
0.0
230
1.0
 70
     8
 71
     3
 72
     9
 73
     5
 74
     0
 42
0.00000001
 43
0.00000001
 40
0.0
 40
0.0
 40
0.0
 40
0.0
 40
0.5018269838139369
 40
1.0
 40
1.0
 40
1.0
 40
1.0
 10
161.0500303391437
 20
148.9194237221547
 30
0.0
 10
160.9715733797612
 20
148.7835474377578
 30
0.0
 10
160.8152307319701
 20
148.5127842289637
 30
0.0
 10
160.6588262054229
 20
148.2420679357827
 30
0.0
 10
160.5809096906877
 20
148.1072043834781
 30
0.0
  0
LINE
  5
ED
330
1F
100
AcDbEntity
  8
0
  6
Continuous
 62
     7
370
    25
100
AcDbLine
 10
161.8060266959
 20
119.9246882077
 30
0.0
 11
161.8436627893
 21
119.9246882077
 31
0.0
  0
LINE
  5
EE
330
1F
100
AcDbEntity
  8
0
  6
Continuous
 62
     7
370
    25
100
AcDbLine
 10
160.3060266959
 20
119.9246882077
 30
0.0
 11
160.4937965463
 21
119.9246882077
 31
0.0
  0
LINE
  5
EF
330
1F
100
AcDbEntity
  8
0
  6
Continuous
 62
     7
370
    25
100
AcDbLine
 10
158.3936627893
 20
119.9246882077
 30
0.0
 11
158.9937965463
 21
119.9246882077
 31
0.0
  0
LINE
  5
F0
330
1F
100
AcDbEntity
  8
0
  6
Continuous
 62
     7
370
    25
100
AcDbLine
 10
159.7436662442
 20
148.9246882077
 30
0.0
 11
158.3936627893
 21
148.9246882077
 31
0.0
  0
LINE
  5
F1
330
1F
100
AcDbEntity
  8
0
  6
Continuous
 62
     7
370
    25
100
AcDbLine
 10
161.2436662442
 20
148.9246882077
 30
0.0
 11
161.055973253
 21
148.9246882077
 31
0.0
  0
LINE
  5
F2
330
1F
100
AcDbEntity
  8
0
  6
Continuous
 62
     7
370
    25
100
AcDbLine
 10
160.5875365925
 20
148.1127873478
 30
0.0
 11
160.2156906874
 21
148.1127873478
 31
0.0
  0
LINE
  5
F3
330
1F
100
AcDbEntity
  8
0
  6
Continuous
 62
     7
370
    25
100
AcDbLine
 10
162.0873396614
 20
148.1127886809
 30
0.0
 11
161.7156903312
 21
148.1127886809
 31
0.0
  0
LINE
  5
F4
330
1F
100
AcDbEntity
  8
0
  6
Continuous
 62
     7
370
    25
100
AcDbLine
 10
162.4625439175
 20
120.736589317
 30
0.0
 11
162.8341344707
 21
120.736589317
 31
0.0
  0
LINE
  5
F5
330
1F
100
AcDbEntity
  8
0
  6
Continuous
 62
     7
370
    25
100
AcDbLine
 10
160.9623793792
 20
120.7365871693
 30
0.0
 11
161.3341359922
 21
120.7365871693
 31
0.0
  0
LINE
  5
F6
330
1F
100
AcDbEntity
  8
0
  6
Continuous
 62
     7
370
    25
100
AcDbLine
 10
159.4622641403
 20
120.7365899715
 30
0.0
 11
159.8341347453
 21
120.7365899715
 31
0.0
  0
ARC
  5
F7
330
1F
100
AcDbEntity
  8
0
  6
Continuous
 62
     7
370
    25
100
AcDbCircle
 10
127.0084922103
 20
-78.996594702
 30
0.0
 40
11.36483621089073
100
AcDbArc
 50
137.7677859272
 51
179.9373694799
  0
ARC
  5
F8
330
1F
100
AcDbEntity
  8
0
  6
Continuous
 62
     7
370
    25
100
AcDbCircle
 10
127.1553421256
 20
-78.9669724669
 30
0.0
 40
11.51169218472654
100
AcDbArc
 50
180.0856037443
 51
41.3753612174
  0
ARC
  5
F9
330
1F
100
AcDbEntity
  8
0
  6
Continuous
 62
     7
370
    25
100
AcDbCircle
 10
127.005214493
 20
-78.9912360685
 30
0.0
 40
10.61155405516402
100
AcDbArc
 50
142.4365392071
 51
179.9618568208
  0
ARC
  5
FA
330
1F
100
AcDbEntity
  8
0
  6
Continuous
 62
     7
370
    25
100
AcDbCircle
 10
127.1820029042
 20
-78.9141346597
 30
0.0
 40
10.78856745002174
100
AcDbArc
 50
180.3719543995
 51
13.2028304009
  0
LWPOLYLINE
  5
FB
330
1F
100
AcDbEntity
  8
0
  6
Continuous
 62
     7
370
    25
100
AcDbPolyline
 90
       20
 70
   128
 43
0.0
 10
115.6436627893
 20
-80.9016128179
 10
115.819133242
 20
-82.8855037196
 10
116.3402130192
 20
-84.8091151002
 10
117.1910693756
 20
-86.6139990012
 10
118.3458494712
 20
-88.2453149387
 10
119.7694658974
 20
-89.6534962033
 10
121.4186627893
 20
-90.7957559199
 10
123.2433301339
 20
-91.637387105
 10
125.1880263372
 20
-92.152817221
 10
127.1936627893
 20
-92.3263851845
 10
129.1992992413
 20
-92.152817221
 10
131.1439954447
 20
-91.637387105
 10
132.9686627893
 20
-90.7957559199
 10
134.6178596811
 20
-89.6534962033
 10
136.0414761073
 20
-88.2453149387
 10
137.196256203
 20
-86.6139990012
 10
138.0471125593
 20
-84.8091151002
 10
138.5681923366
 20
-82.8855037196
 10
138.7436627893
 20
-80.9016128179
 10
138.7436627893
 20
-80.9016128179
  0
ARC
  5
FC
330
1F
100
AcDbEntity
  8
0
  6
Continuous
 62
     7
370
    25
100
AcDbCircle
 10
127.1936627893
 20
-81.2462154252
 30
0.0
 40
11.1110233305144
100
AcDbArc
 50
251.3891493208
 51
288.6108506792
  0
ARC
  5
FD
330
1F
100
AcDbEntity
  8
0
  6
Continuous
 62
     7
370
    25
100
AcDbCircle
 10
127.1936627893
 20
134.4246882077
 30
0.0
 40
8.600000000000009
100
AcDbArc
 50
0.0
 51
90.0
  0
ARC
  5
FE
330
1F
100
AcDbEntity
  8
0
  6
Continuous
 62
     7
370
    25
100
AcDbCircle
 10
127.1936627893
 20
134.4246882077
 30
0.0
 40
8.599999999999994
100
AcDbArc
 50
90.0
 51
180.0
  0
ARC
  5
FF
330
1F
100
AcDbEntity
  8
0
  6
Continuous
 62
     7
370
    25
100
AcDbCircle
 10
127.2416030429
 20
-78.4983132788
 30
0.0
 40
8.55217966035993
100
AcDbArc
 50
269.6788200558
 51
359.6965866989
  0
ARC
  5
100
330
1F
100
AcDbEntity
  8
0
  6
Continuous
 62
     7
370
    25
100
AcDbCircle
 10
127.1457225357
 20
-78.4983132788
 30
0.0
 40
8.552179660359885
100
AcDbArc
 50
180.3034133011
 51
270.3211799442
  0
SPLINE
  5
101
330
1F
100
AcDbEntity
  8
0
  6
Continuous
 62
     7
370
    25
100
AcDbSpline
210
0.0
220
0.0
230
1.0
 70
     8
 71
     3
 72
    10
 73
     6
 74
     0
 42
0.00000001
 43
0.00000001
 40
0.0
 40
0.0
 40
0.0
 40
0.0
 40
0.2157678280198594
 40
0.9149182642890074
 40
1.0
 40
1.0
 40
1.0
 40
1.0
 10
137.9366142800282
 20
-78.00705667473284
 30
0.0
 10
137.9337836788845
 20
-78.0172488043042
 30
0.0
 10
137.9217811078381
 20
-78.06046639416634
 30
0.0
 10
137.9029110143765
 20
-78.13757569834254
 30
0.0
 10
137.8874910415948
 20
-78.20218239441915
 30
0.0
 10
137.885818121131
 20
-78.20919160678912
 30
0.0
  0
SPLINE
  5
102
330
1F
100
AcDbEntity
  8
0
  6
Continuous
 62
     7
370
    25
100
AcDbSpline
210
0.0
220
0.0
230
1.0
 70
     8
 71
     3
 72
     9
 73
     5
 74
     0
 42
0.00000001
 43
0.00000001
 40
0.0
 40
0.0
 40
0.0
 40
0.0
 40
0.6744029794901452
 40
1.0
 40
1.0
 40
1.0
 40
1.0
 10
137.8858181211365
 20
-78.20919160678979
 30
0.0
 10
137.8627076743785
 20
-78.85388592892926
 30
0.0
 10
137.8284396662872
 20
-79.80983414052655
 30
0.0
 10
137.6373833317252
 20
-80.76408419909968
 30
0.0
 10
137.5751759584423
 20
-81.07478517499233
 30
0.0
  0
SPLINE
  5
103
330
1F
100
AcDbEntity
  8
0
  6
Continuous
 62
     7
370
    25
100
AcDbSpline
210
0.0
220
0.0
230
1.0
 70
     8
 71
     3
 72
    19
 73
    15
 74
     0
 42
0.00000001
 43
0.00000001
 40
0.0
 40
0.0
 40
0.0
 40
0.0
 40
0.0317355442705363
 40
0.1254801971740203
 40
0.2192216577941349
 40
0.3132585416738025
 40
0.4074542458100787
 40
0.5017654244255262
 40
0.5963399832143333
 40
0.685728034221983
 40
0.7751158982253032
 40
0.8699800726109996
 40
0.9649669391901936
 40
1.0
 40
1.0
 40
1.0
 40
1.0
 10
137.5751775242986
 20
-81.07477791721993
 30
0.0
 10
137.480166690339
 20
-81.46217130558679
 30
0.0
 10
137.1045002742446
 20
-82.99389858090305
 30
0.0
 10
135.7542058758069
 20
-85.4753038791876
 30
0.0
 10
133.0980579320409
 20
-87.92538307363883
 30
0.0
 10
129.7581496339869
 20
-89.37280593043232
 30
0.0
 10
126.1197142807953
 20
-89.64612386328834
 30
0.0
 10
122.588779691808
 20
-88.71609696269005
 30
0.0
 10
119.6190470802671
 20
-86.71624201473303
 30
0.0
 10
117.5070153578084
 20
-83.93825223211437
 30
0.0
 10
116.3623972830234
 20
-80.63162014565881
 30
0.0
 10
116.414830114894
 20
-77.10703222754654
 30
0.0
 10
117.2291861210061
 20
-74.2895548282824
 30
0.0
 10
118.3138130242109
 20
-73.05537932680294
 30
0.0
 10
118.6060589977242
 20
-72.72283841356324
 30
0.0
  0
ARC
  5
104
330
1F
100
AcDbEntity
  8
0
  6
Continuous
 62
     7
370
    25
100
AcDbCircle
 10
127.3871836571
 20
-78.9733355412
 30
0.0
 40
10.60634630153678
100
AcDbArc
 50
358.6536831118
 51
37.5718291997
  0
LINE
  5
105
330
1F
100
AcDbEntity
  8
0
  6
Continuous
 62
     7
370
    25
100
AcDbLine
 10
137.9906019986
 20
-79.2225369528
 30
0.0
 11
137.93661428
 21
-78.0070566747
 31
0.0
  0
ELLIPSE
  5
106
330
1F
100
AcDbEntity
  8
0
  6
Continuous
 62
     7
370
    25
100
AcDbEllipse
 10
127.1936627893
 20
-78.0683851215
 30
0.0
 11
-7.477835200843516
 21
8.465917295168497
 31
0.0
210
0.0
220
0.0
230
1.0
 40
0.9204473321
 41
3.737325233268411
 42
3.923781357698696
  0
LINE
  5
107
330
1F
100
AcDbEntity
  8
0
  6
Continuous
 62
     7
370
    25
100
AcDbLine
 10
137.93661428
 20
-78.0070566747
 30
0.0
 11
137.882162794
 21
-78.2594390249
 31
0.0
  0
LINE
  5
108
330
1F
100
AcDbEntity
  8
0
  6
Continuous
 62
     7
370
    25
100
AcDbLine
 10
211.4935568026
 20
131.8246882077
 30
0.0
 11
211.4760783413
 21
131.8246882077
 31
0.0
  0
LINE
  5
109
330
1F
100
AcDbEntity
  8
0
  6
Continuous
 62
     7
370
    25
100
AcDbLine
 10
211.4760783413
 20
137.0246882077
 30
0.0
 11
211.4935568026
 21
137.0246882077
 31
0.0
  0
ARC
  5
10A
330
1F
100
AcDbEntity
  8
0
  6
Continuous
 62
     7
370
    25
100
AcDbCircle
 10
201.1864282015
 20
134.4246882077
 30
0.0
 40
10.6130532835749
100
AcDbArc
 50
7.3079276166
 51
14.1807309007
  0
SPLINE
  5
10B
330
1F
100
AcDbEntity
  8
0
  6
Continuous
 62
     7
370
    25
100
AcDbSpline
210
0.0
220
0.0
230
1.0
 70
     8
 71
     3
 72
    12
 73
     8
 74
     0
 42
0.00000001
 43
0.00000001
 40
0.0
 40
0.0
 40
0.0
 40
0.0
 40
0.2133534395476195
 40
0.4267919313634604
 40
0.6383539739091532
 40
0.8490950351927729
 40
0.9999999999999999
 40
0.9999999999999999
 40
0.9999999999999999
 40
0.9999999999999999
 10
211.7132700830637
 20
135.0246882077243
 30
0.0
 10
211.7229292267911
 20
135.0327897678403
 30
0.0
 10
211.7422513648146
 20
135.0489961177182
 30
0.0
 10
211.7545644348227
 20
135.1763972427341
 30
0.0
 10
211.752226994526
 20
135.3637912586399
 30
0.0
 10
211.7371094755122
 20
135.5747672839311
 30
0.0
 10
211.7202888631311
 20
135.7158276055501
 30
0.0
 10
211.7132700830637
 20
135.7746882077243
 30
0.0
  0
LINE
  5
10C
330
1F
100
AcDbEntity
  8
0
  6
Continuous
 62
     7
370
    25
100
AcDbLine
 10
211.4760783413
 20
135.0246882077
 30
0.0
 11
211.7132700831
 21
135.0246882077
 31
0.0
  0
ARC
  5
10D
330
1F
100
AcDbEntity
  8
0
  6
Continuous
 62
     7
370
    25
100
AcDbCircle
 10
201.1864282015
 20
134.4246882077
 30
0.0
 40
10.30712860111874
100
AcDbArc
 50
356.6628035549
 51
3.3371964451
  0
LINE
  5
10E
330
1F
100
AcDbEntity
  8
0
  6
Continuous
 62
     7
370
    25
100
AcDbLine
 10
211.7132700831
 20
133.8246882077
 30
0.0
 11
211.4760783413
 21
133.8246882077
 31
0.0
  0
SPLINE
  5
10F
330
1F
100
AcDbEntity
  8
0
  6
Continuous
 62
     7
370
    25
100
AcDbSpline
210
0.0
220
0.0
230
1.0
 70
     8
 71
     3
 72
    12
 73
     8
 74
     0
 42
0.00000001
 43
0.00000001
 40
0.0
 40
0.0
 40
0.0
 40
0.0
 40
0.2133534395476153
 40
0.4267919313634484
 40
0.6383539739091478
 40
0.8490950351927498
 40
1.0
 40
1.0
 40
1.0
 40
1.0
 10
211.7132700830637
 20
133.0746882077243
 30
0.0
 10
211.7229292267911
 20
133.1581819958814
 30
0.0
 10
211.7422513648146
 20
133.3252028565716
 30
0.0
 10
211.7545644348227
 20
133.549039618169
 30
0.0
 10
211.752226994526
 20
133.7181253390463
 30
0.0
 10
211.7371094755121
 20
133.8107869252563
 30
0.0
 10
211.7202888631312
 20
133.8205954002206
 30
0.0
 10
211.7132700830637
 20
133.8246882077243
 30
0.0
  0
ARC
  5
110
330
1F
100
AcDbEntity
  8
0
  6
Continuous
 62
     7
370
    25
100
AcDbCircle
 10
201.1864282015
 20
134.4246882077
 30
0.0
 40
10.6130532835749
100
AcDbArc
 50
345.8192690993
 51
352.6920723834
  0
LINE
  5
111
330
1F
100
AcDbEntity
  8
0
  6
Continuous
 62
     7
370
    25
100
AcDbLine
 10
206.8134816557
 20
131.6679079508
 30
0.0
 11
207.0821922383
 21
131.6723464039
 31
0.0
  0
LINE
  5
112
330
1F
100
AcDbEntity
  8
0
  6
Continuous
 62
     7
370
    25
100
AcDbLine
 10
206.8134816557
 20
137.1814684646
 30
0.0
 11
206.8134816557
 21
131.6679079508
 31
0.0
  0
LINE
  5
113
330
1F
100
AcDbEntity
  8
0
  6
Continuous
 62
     7
370
    25
100
AcDbLine
 10
207.0821922383
 20
137.1770300116
 30
0.0
 11
206.8134816557
 21
137.1814684646
 31
0.0
  0
SPLINE
  5
114
330
1F
100
AcDbEntity
  8
0
  6
Continuous
 62
     7
370
    25
100
AcDbSpline
210
0.0
220
0.0
230
1.0
 70
     8
 71
     3
 72
    11
 73
     7
 74
     0
 42
0.00000001
 43
0.00000001
 40
0.0
 40
0.0
 40
0.0
 40
0.0
 40
0.0800485240044427
 40
0.5000005853538806
 40
0.9209248322279652
 40
1.0
 40
1.0
 40
1.0
 40
1.0
 10
207.0821922382731
 20
131.6723464038805
 30
0.0
 10
207.0985911697772
 20
131.8185908289811
 30
0.0
 10
207.2010224819492
 20
132.7320654878141
 30
0.0
 10
207.2718155059186
 20
134.4264750755728
 30
0.0
 10
207.2009078295592
 20
136.1191019274275
 30
0.0
 10
207.0984033716632
 20
137.0325653030713
 30
0.0
 10
207.0821922382737
 20
137.1770300115626
 30
0.0
  0
SPLINE
  5
115
330
1F
100
AcDbEntity
  8
0
  6
Continuous
 62
     7
370
    25
100
AcDbSpline
210
0.0
220
0.0
230
1.0
 70
     8
 71
     3
 72
    12
 73
     8
 74
     0
 42
0.00000001
 43
0.00000001
 40
0.0
 40
0.0
 40
0.0
 40
0.0
 40
0.1224290494151363
 40
0.342352244977049
 40
0.5614228816909438
 40
0.7807229538533524
 40
1.0
 40
1.0
 40
1.0
 40
1.0
 10
207.0821922382731
 20
131.6723464038805
 30
0.0
 10
207.2059557616656
 20
131.6699877194396
 30
0.0
 10
207.5520396386713
 20
131.6633920551148
 30
0.0
 10
208.0930898727688
 20
131.6463840873755
 30
0.0
 10
208.606710031978
 20
131.6208731132212
 30
0.0
 10
208.9631904963381
 20
131.5913209306618
 30
0.0
 10
209.0189647400936
 20
131.5715546537828
 30
0.0
 10
209.0468503978519
 20
131.5616720342242
 30
0.0
  0
SPLINE
  5
116
330
1F
100
AcDbEntity
  8
0
  6
Continuous
 62
     7
370
    25
100
AcDbSpline
210
0.0
220
0.0
230
1.0
 70
     8
 71
     3
 72
    12
 73
     8
 74
     0
 42
0.00000001
 43
0.00000001
 40
0.0
 40
0.0
 40
0.0
 40
0.0
 40
0.113036747616928
 40
0.3328594693547964
 40
0.5544127937944966
 40
0.7774207483513222
 40
1.0
 40
1.0
 40
1.0
 40
1.0
 10
209.0468503978516
 20
137.2877043812262
 30
0.0
 10
209.0377818858006
 20
137.2826891355248
 30
0.0
 10
209.0110778256363
 20
137.267920734469
 30
0.0
 10
208.7979352779722
 20
137.2423285303596
 30
0.0
 10
208.3554759616773
 20
137.2144532674887
 30
0.0
 10
207.7596728728762
 20
137.1910113938982
 30
0.0
 10
207.3078742234793
 20
137.1816874821385
 30
0.0
 10
207.0821922382737
 20
137.1770300115626
 30
0.0
  0
SPLINE
  5
117
330
1F
100
AcDbEntity
  8
0
  6
Continuous
 62
     7
370
    25
100
AcDbSpline
210
0.0
220
0.0
230
1.0
 70
     8
 71
     3
 72
    11
 73
     7
 74
     0
 42
0.00000001
 43
0.00000001
 40
0.0
 40
0.0
 40
0.0
 40
0.0
 40
0.0614641195413895
 40
0.4999988937835385
 40
0.9375097801832812
 40
0.9999999999999999
 40
0.9999999999999999
 40
0.9999999999999999
 40
0.9999999999999999
 10
209.0468503978516
 20
137.2877043812262
 30
0.0
 10
209.0590092949066
 20
137.1712474087741
 30
0.0
 10
209.1579196042458
 20
136.223892141443
 30
0.0
 10
209.2230011288572
 20
134.4266479429946
 30
0.0
 10
209.1580288208667
 20
132.6274499187539
 30
0.0
 10
209.0592018133698
 20
131.6800750943207
 30
0.0
 10
209.0468503978519
 20
131.5616720342242
 30
0.0
  0
SPLINE
  5
118
330
1F
100
AcDbEntity
  8
0
  6
Continuous
 62
     7
370
    25
100
AcDbSpline
210
0.0
220
0.0
230
1.0
 70
     8
 71
     3
 72
    12
 73
     8
 74
     0
 42
0.00000001
 43
0.00000001
 40
0.0
 40
0.0
 40
0.0
 40
0.0
 40
0.2230315344150378
 40
0.4461337558340359
 40
0.6675099896777024
 40
0.8870667292265013
 40
1.0
 40
1.0
 40
1.0
 40
1.0
 10
207.0821922382737
 20
137.676193082611
 30
0.0
 10
207.2520347156467
 20
137.6743028353162
 30
0.0
 10
207.5917734998026
 20
137.6705217416368
 30
0.0
 10
208.0400457273076
 20
137.6774645779075
 30
0.0
 10
208.3726818652044
 20
137.6930534003974
 30
0.0
 10
208.5325778931864
 20
137.7123906804616
 30
0.0
 10
208.5523129337961
 20
137.725956281638
 30
0.0
 10
208.5590161207061
 20
137.7305639620594
 30
0.0
  0
ARC
  5
119
330
1F
100
AcDbEntity
  8
0
  6
Continuous
 62
     7
370
    25
100
AcDbCircle
 10
208.5496922194
 20
137.2301751856
 30
0.0
 40
0.5004756365191134
100
AcDbArc
 50
6.6006859565
 51
88.9325132694
  0
ARC
  5
11A
330
1F
100
AcDbEntity
  8
0
  6
Continuous
 62
     7
370
    25
100
AcDbCircle
 10
198.976784831
 20
137.4266115471
 30
0.0
 40
8.1092490515611
100
AcDbArc
 50
358.2363068264
 51
1.7636931736
  0
SPLINE
  5
11B
330
1F
100
AcDbEntity
  8
0
  6
Continuous
 62
     7
370
    25
100
AcDbSpline
210
0.0
220
0.0
230
1.0
 70
     8
 71
     3
 72
    12
 73
     8
 74
     0
 42
0.00000001
 43
0.00000001
 40
0.0
 40
0.0
 40
0.0
 40
0.0
 40
0.2190444340109338
 40
0.4380981679380299
 40
0.6571027493691834
 40
0.8772791087290026
 40
1.0
 40
1.0
 40
1.0
 40
1.0
 10
208.5590161207062
 20
131.118812453389
 30
0.0
 10
208.5382682373084
 20
131.1276412663387
 30
0.0
 10
208.4967715896252
 20
131.145299267081
 30
0.0
 10
208.2289648292783
 20
131.1648177564901
 30
0.0
 10
207.8426706334537
 20
131.1761235401224
 30
0.0
 10
207.4356711126836
 20
131.177947408199
 30
0.0
 10
207.1753570843349
 20
131.1744389788742
 30
0.0
 10
207.0821922382752
 20
131.1731833328376
 30
0.0
  0
ARC
  5
11C
330
1F
100
AcDbEntity
  8
0
  6
Continuous
 62
     7
370
    25
100
AcDbCircle
 10
198.9767848342
 20
131.4227648683
 30
0.0
 40
8.10924904839358
100
AcDbArc
 50
358.236306826
 51
1.7636931745
  0
ARC
  5
11D
330
1F
100
AcDbEntity
  8
0
  6
Continuous
 62
     7
370
    25
100
AcDbCircle
 10
208.5496922194
 20
131.6192012299
 30
0.0
 40
0.5004756365188981
100
AcDbArc
 50
271.0674867306
 51
353.3993140438
  0
ELLIPSE
  5
11E
330
1F
100
AcDbEntity
  8
0
  6
Continuous
 62
     7
370
    25
100
AcDbEllipse
 10
206.7785768428
 20
131.5846155008
 30
0.0
 11
1.999999704111531
 21
0.02626756389827279
 31
0.0
210
0.0
220
0.0
230
1.0
 40
0.0414165792
 41
1.552799077927838
 42
2.455756810842662
  0
LINE
  5
11F
330
1F
100
AcDbEntity
  8
0
  6
Continuous
 62
     7
370
    25
100
AcDbLine
 10
205.2301081519
 20
131.6167471918
 30
0.0
 11
205.2301081519
 21
137.2326292237
 31
0.0
  0
ELLIPSE
  5
120
330
1F
100
AcDbEntity
  8
0
  6
Continuous
 62
     7
370
    25
100
AcDbEllipse
 10
206.7785768428
 20
137.2647609146
 30
0.0
 11
1.999999704111531
 21
-0.02626756389832963
 31
0.0
210
0.0
220
0.0
230
1.0
 40
0.0414165792
 41
3.827428496337709
 42
4.730386229251726
  0
ELLIPSE
  5
121
330
1F
100
AcDbEntity
  8
0
  6
Continuous
 62
     7
370
    25
100
AcDbEllipse
 10
206.787303046
 20
131.0854524298
 30
0.0
 11
1.499999296945674
 21
0.0263027027370697
 31
0.0
210
0.0
220
0.0
230
1.0
 40
0.0552146892
 41
1.552374837086655
 42
2.455332570000202
  0
ARC
  5
122
330
1F
100
AcDbEntity
  8
0
  6
Continuous
 62
     7
370
    25
100
AcDbCircle
 10
205.7049184876
 20
131.5867422704
 30
0.0
 40
0.4757574488748086
100
AcDbArc
 50
176.3840879997
 51
260.4457404449
  0
ARC
  5
123
330
1F
100
AcDbEntity
  8
0
  6
Continuous
 62
     7
370
    25
100
AcDbCircle
 10
198.7080742484
 20
131.4183264153
 30
0.0
 40
8.109249051623003
100
AcDbArc
 50
358.2363068264
 51
1.7636931736
  0
ELLIPSE
  5
124
330
1F
100
AcDbEntity
  8
0
  6
Continuous
 62
     7
370
    25
100
AcDbEllipse
 10
206.787303046
 20
137.7639239857
 30
0.0
 11
1.499999296945674
 21
-0.02630270273701285
 31
0.0
210
0.0
220
0.0
230
1.0
 40
0.0552146892
 41
3.82785273717833
 42
4.730810470092948
  0
ARC
  5
125
330
1F
100
AcDbEntity
  8
0
  6
Continuous
 62
     7
370
    25
100
AcDbCircle
 10
198.7080742484
 20
137.4310500002
 30
0.0
 40
8.10924905162613
100
AcDbArc
 50
358.2363068264
 51
1.7636931736
  0
ARC
  5
126
330
1F
100
AcDbEntity
  8
0
  6
Continuous
 62
     7
370
    25
100
AcDbCircle
 10
205.7049184876
 20
137.262634145
 30
0.0
 40
0.4757574488748333
100
AcDbArc
 50
99.5542595551
 51
183.6159120003
  0
LINE
  5
127
330
1F
100
AcDbEntity
  8
0
  6
Continuous
 62
     7
370
    25
100
AcDbLine
 10
206.8134816557
 20
137.6806315357
 30
0.0
 11
207.0821922383
 21
137.6761930826
 31
0.0
  0
LINE
  5
128
330
1F
100
AcDbEntity
  8
0
  6
Continuous
 62
     7
370
    25
100
AcDbLine
 10
207.0821922383
 20
131.1731833328
 30
0.0
 11
206.8134816557
 21
131.1687448798
 31
0.0
  0
LINE
  5
129
330
1F
100
AcDbEntity
  8
0
  6
Continuous
 62
     7
370
    25
100
AcDbLine
 10
208.5449687788
 20
140.3351765276
 30
0.0
 11
204.3817067464
 21
140.406466803
 31
0.0
  0
SPLINE
  5
12A
330
1F
100
AcDbEntity
  8
0
  6
Continuous
 62
     7
370
    25
100
AcDbSpline
210
0.0
220
0.0
230
1.0
 70
     8
 71
     3
 72
    10
 73
     6
 74
     0
 42
0.00000001
 43
0.00000001
 40
0.0
 40
0.0
 40
0.0
 40
0.0
 40
0.3702896688583041
 40
0.7405318123903298
 40
1.0
 40
1.0
 40
1.0
 40
1.0
 10
208.5590161207061
 20
137.7305639620594
 30
0.0
 10
208.6311208125262
 20
138.0507549765858
 30
0.0
 10
208.7753209417928
 20
138.6910959102913
 30
0.0
 10
208.7149236198119
 20
139.5603302421545
 30
0.0
 10
208.5945627283479
 20
140.1090712437637
 30
0.0
 10
208.5449687788401
 20
140.3351765275955
 30
0.0
  0
LINE
  5
12B
330
1F
100
AcDbEntity
  8
0
  6
Continuous
 62
     7
370
    25
100
AcDbLine
 10
202.7935121553
 20
137.9726835737
 30
0.0
 11
205.6259515278
 21
137.7317922947
 31
0.0
  0
LINE
  5
12C
330
1F
100
AcDbEntity
  8
0
  6
Continuous
 62
     7
370
    25
100
AcDbLine
 10
202.7991404064
 20
137.9725851825
 30
0.0
 11
202.7935121553
 21
137.9726835737
 31
0.0
  0
ELLIPSE
  5
12D
330
1F
100
AcDbEntity
  8
0
  6
Continuous
 62
     7
370
    25
100
AcDbEllipse
 10
213.7971950699
 20
138.3022312339
 30
0.0
 11
14.49999320380851
 21
-0.2542594597912853
 31
0.0
210
0.0
220
0.0
230
1.0
 40
0.0552146892
 41
3.116244259334434
 42
3.852369595890164
  0
ELLIPSE
  5
12E
330
1F
100
AcDbEntity
  8
0
  6
Continuous
 62
     7
370
    25
100
AcDbEllipse
 10
163.611936715
 20
139.2525147832
 30
0.0
 11
35.70262486333175
 21
-0.6260506459064459
 31
0.0
210
0.0
220
0.0
230
1.0
 40
0.0552146892
 41
0.0609777977008797
 42
0.4568521056102899
  0
ELLIPSE
  5
12F
330
1F
100
AcDbEntity
  8
0
  6
Continuous
 62
     7
370
    25
100
AcDbEllipse
 10
202.4023889925
 20
139.6249108429
 30
0.0
 11
7.499996484728541
 21
-0.1315135136851779
 31
0.0
210
0.0
220
0.0
230
1.0
 40
0.0552146892
 41
3.407554101490292
 42
3.598444759200364
  0
LINE
  5
130
330
1F
100
AcDbEntity
  8
0
  6
Continuous
 62
     7
370
    25
100
AcDbLine
 10
203.8289209663
 20
139.4925663918
 30
0.0
 11
195.1641819783
 21
139.6429569363
 31
0.0
  0
SPLINE
  5
131
330
1F
100
AcDbEntity
  8
0
  6
Continuous
 62
     7
370
    25
100
AcDbSpline
210
0.0
220
0.0
230
1.0
 70
     8
 71
     3
 72
    10
 73
     6
 74
     0
 42
0.00000001
 43
0.00000001
 40
0.0
 40
0.0
 40
0.0
 40
0.0
 40
0.0186368637457412
 40
0.3939469944633169
 40
1.0
 40
1.0
 40
1.0
 40
1.0
 10
204.3817067464117
 20
139.4930527589994
 30
0.0
 10
204.3789661719591
 20
139.4929650085201
 30
0.0
 10
204.3210357667446
 20
139.4911101343271
 30
0.0
 10
204.1457639951672
 20
139.488430152949
 30
0.0
 10
203.9498871483285
 20
139.4909872343466
 30
0.0
 10
203.8289209663353
 20
139.4925663917545
 30
0.0
  0
LINE
  5
132
330
1F
100
AcDbEntity
  8
0
  6
Continuous
 62
     7
370
    25
100
AcDbLine
 10
204.3817067464
 20
140.406466803
 30
0.0
 11
204.3817067464
 21
139.493052759
 31
0.0
  0
LINE
  5
133
330
1F
100
AcDbEntity
  8
0
  6
Continuous
 62
     7
370
    25
100
AcDbLine
 10
203.4482865325
 20
129.3401200076
 30
0.0
 11
203.4482865325
 21
128.4269255454
 31
0.0
  0
SPLINE
  5
134
330
1F
100
AcDbEntity
  8
0
  6
Continuous
 62
     7
370
    25
100
AcDbSpline
210
0.0
220
0.0
230
1.0
 70
     8
 71
     3
 72
    11
 73
     7
 74
     0
 42
0.00000001
 43
0.00000001
 40
0.0
 40
0.0
 40
0.0
 40
0.0
 40
0.4177469294495267
 40
0.8392770662410766
 40
0.9817832068819585
 40
1.0
 40
1.0
 40
1.0
 40
1.0
 10
202.9450792452225
 20
129.3414694529075
 30
0.0
 10
203.0216910256132
 20
129.3425526440913
 30
0.0
 10
203.1756083993937
 20
129.3447288360743
 30
0.0
 10
203.3453642134993
 20
129.3435266591829
 30
0.0
 10
203.4260233918275
 20
129.3410561318428
 30
0.0
 10
203.4460200541136
 20
129.3402153088859
 30
0.0
 10
203.4482865325272
 20
129.3401200076275
 30
0.0
  0
LINE
  5
135
330
1F
100
AcDbEntity
  8
0
  6
Continuous
 62
     7
370
    25
100
AcDbLine
 10
195.1641819783
 20
129.2064194791
 30
0.0
 11
202.9450792452
 21
129.3414694529
 31
0.0
  0
ELLIPSE
  5
136
330
1F
100
AcDbEntity
  8
0
  6
Continuous
 62
     7
370
    25
100
AcDbEllipse
 10
202.4023889925
 20
129.2244655725
 30
0.0
 11
7.499996484728541
 21
0.1315135136851779
 31
0.0
210
0.0
220
0.0
230
1.0
 40
0.0552146892
 41
2.684740547979427
 42
2.87563120568959
  0
ELLIPSE
  5
137
330
1F
100
AcDbEntity
  8
0
  6
Continuous
 62
     7
370
    25
100
AcDbEllipse
 10
163.611936715
 20
129.5968616322
 30
0.0
 11
35.70262486333175
 21
0.6260506459064175
 31
0.0
210
0.0
220
0.0
230
1.0
 40
0.0552146892
 41
5.826333201569517
 42
6.308533701434874
  0
ELLIPSE
  5
138
330
1F
100
AcDbEntity
  8
0
  6
Continuous
 62
     7
370
    25
100
AcDbEllipse
 10
213.7971950699
 20
130.5471451815
 30
0.0
 11
14.49999320380851
 21
0.2542594597913705
 31
0.0
210
0.0
220
0.0
230
1.0
 40
0.0552146892
 41
2.430815711289479
 42
3.166941047845301
  0
LINE
  5
139
330
1F
100
AcDbEntity
  8
0
  6
Continuous
 62
     7
370
    25
100
AcDbLine
 10
202.7935121553
 20
130.8766928418
 30
0.0
 11
202.7991404064
 21
130.876791233
 31
0.0
  0
LINE
  5
13A
330
1F
100
AcDbEntity
  8
0
  6
Continuous
 62
     7
370
    25
100
AcDbLine
 10
205.6259515278
 20
131.1175841207
 30
0.0
 11
202.7935121553
 21
130.8766928418
 31
0.0
  0
SPLINE
  5
13B
330
1F
100
AcDbEntity
  8
0
  6
Continuous
 62
     7
370
    25
100
AcDbSpline
210
0.0
220
0.0
230
1.0
 70
     8
 71
     3
 72
    10
 73
     6
 74
     0
 42
0.00000001
 43
0.00000001
 40
0.0
 40
0.0
 40
0.0
 40
0.0
 40
0.3702717503651155
 40
0.7405122151371749
 40
1.0
 40
1.0
 40
1.0
 40
1.0
 10
208.5449687788423
 20
128.5141998878531
 30
0.0
 10
208.6078117361294
 20
128.8367283735209
 30
0.0
 10
208.7334923408758
 20
129.4817580932641
 30
0.0
 10
208.7690166398008
 20
130.3505725807429
 30
0.0
 10
208.6202977074138
 20
130.8946274915098
 30
0.0
 10
208.5590161207062
 20
131.118812453389
 30
0.0
  0
LINE
  5
13C
330
1F
100
AcDbEntity
  8
0
  6
Continuous
 62
     7
370
    25
100
AcDbLine
 10
203.4482865325
 20
128.4269255454
 30
0.0
 11
208.5449687788
 21
128.5141998879
 31
0.0
  0
ELLIPSE
  5
13D
330
1F
100
AcDbEntity
  8
0
  6
Continuous
 62
     7
370
    25
100
AcDbEllipse
 10
202.784785952
 20
131.3758559128
 30
0.0
 11
1.053482645954574
 21
0.05394483169985165
 31
0.0
210
0.0
220
0.0
230
1.0
 40
0.4730658061
 41
4.355668081128872
 42
4.696450681123548
  0
ELLIPSE
  5
13E
330
1F
100
AcDbEntity
  8
0
  6
Continuous
 62
     7
370
    25
100
AcDbEllipse
 10
202.784785952
 20
131.3758559128
 30
0.0
 11
1.053482645954574
 21
0.05394483169985165
 31
0.0
210
0.0
220
0.0
230
1.0
 40
0.4730658061
 41
3.147041256077391
 42
4.355668081128872
  0
LINE
  5
13F
330
1F
100
AcDbEntity
  8
0
  6
Continuous
 62
     7
370
    25
100
AcDbLine
 10
201.7314579882
 20
131.3191964937
 30
0.0
 11
205.2301081519
 21
131.6167471918
 31
0.0
  0
ELLIPSE
  5
140
330
1F
100
AcDbEntity
  8
0
  6
Continuous
 62
     7
370
    25
100
AcDbEllipse
 10
202.784785952
 20
137.4735205027
 30
0.0
 11
1.053482645954574
 21
-0.05394483169985165
 31
0.0
210
0.0
220
0.0
230
1.0
 40
0.4730658061
 41
1.586734626056021
 42
1.927517226050945
  0
LINE
  5
141
330
1F
100
AcDbEntity
  8
0
  6
Continuous
 62
     7
370
    25
100
AcDbLine
 10
205.2301081519
 20
137.2326292237
 30
0.0
 11
201.7314579882
 21
137.5301799218
 31
0.0
  0
ELLIPSE
  5
142
330
1F
100
AcDbEntity
  8
0
  6
Continuous
 62
     7
370
    25
100
AcDbEllipse
 10
202.784785952
 20
137.4735205027
 30
0.0
 11
1.053482645954574
 21
-0.05394483169985165
 31
0.0
210
0.0
220
0.0
230
1.0
 40
0.4730658061
 41
1.927517226050945
 42
3.136144051102169
  0
ELLIPSE
  5
143
330
1F
100
AcDbEntity
  8
0
  6
Continuous
 62
     7
370
    25
100
AcDbEllipse
 10
202.1389866499
 20
131.3645662636
 30
0.0
 11
0.01755356269839581
 21
0.4999218664536613
 31
0.0
210
0.0
220
0.0
230
1.0
 40
0.8168249212
 41
1.613756583866992
 42
1.690310629085515
  0
LINE
  5
144
330
1F
100
AcDbEntity
  8
0
  6
Continuous
 62
     7
370
    25
100
AcDbLine
 10
201.7302608999
 20
131.3574210557
 30
0.0
 11
201.7302608999
 21
137.4919553598
 31
0.0
  0
ELLIPSE
  5
145
330
1F
100
AcDbEntity
  8
0
  6
Continuous
 62
     7
370
    25
100
AcDbEllipse
 10
202.1389866499
 20
137.4848101518
 30
0.0
 11
-0.01755356269833896
 21
0.4999218664536045
 31
0.0
210
0.0
220
0.0
230
1.0
 40
0.8168249212
 41
1.451282024504354
 42
1.527836069722829
  0
SPLINE
  5
146
330
1F
100
AcDbEntity
  8
0
  6
Continuous
 62
     7
370
    25
100
AcDbSpline
210
0.0
220
0.0
230
1.0
 70
     8
 71
     3
 72
     9
 73
     5
 74
     0
 42
0.00000001
 43
0.00000001
 40
0.0
 40
0.0
 40
0.0
 40
0.0
 40
0.9209630919903067
 40
1.0
 40
1.0
 40
1.0
 40
1.0
 10
209.034337648461
 20
128.9701144652352
 30
0.0
 10
209.0232587898362
 20
128.9132874063166
 30
0.0
 10
209.0112291453032
 20
128.8515834581206
 30
0.0
 10
209.0014296819156
 20
128.6645719972326
 30
0.0
 10
209.0006551626293
 20
128.6497911896017
 30
0.0
  0
SPLINE
  5
147
330
1F
100
AcDbEntity
  8
0
  6
Continuous
 62
     7
370
    25
100
AcDbSpline
210
0.0
220
0.0
230
1.0
 70
     8
 71
     3
 72
    10
 73
     6
 74
     0
 42
0.00000001
 43
0.00000001
 40
0.0
 40
0.0
 40
0.0
 40
0.0
 40
0.2977219707220505
 40
0.7221983723418893
 40
1.0
 40
1.0
 40
1.0
 40
1.0
 10
209.0468503978519
 20
131.5616720342242
 30
0.0
 10
209.0831495667269
 20
131.2622464287311
 30
0.0
 10
209.1712021905066
 20
130.535915468338
 30
0.0
 10
209.1596168494089
 20
129.8088459673266
 30
0.0
 10
209.0953840549256
 20
129.3982540765564
 30
0.0
 10
209.0699753505201
 20
129.2358353608855
 30
0.0
  0
SPLINE
  5
148
330
1F
100
AcDbEntity
  8
0
  6
Continuous
 62
     7
370
    25
100
AcDbSpline
210
0.0
220
0.0
230
1.0
 70
     8
 71
     3
 72
    10
 73
     6
 74
     0
 42
0.00000001
 43
0.00000001
 40
0.0
 40
0.0
 40
0.0
 40
0.0
 40
0.1569313940387108
 40
0.57832506224034
 40
1.0
 40
1.0
 40
1.0
 40
1.0
 10
209.0779821053065
 20
139.6367913813675
 30
0.0
 10
209.0961573956628
 20
139.5469820178348
 30
0.0
 10
209.163137148127
 20
139.2160156992537
 30
0.0
 10
209.1602046349711
 20
138.5168898581337
 30
0.0
 10
209.0846435466046
 20
137.6975239940981
 30
0.0
 10
209.0468503978517
 20
137.2877043812262
 30
0.0
  0
SPLINE
  5
149
330
1F
100
AcDbEntity
  8
0
  6
Continuous
 62
     7
370
    25
100
AcDbSpline
210
0.0
220
0.0
230
1.0
 70
     8
 71
     3
 72
     9
 73
     5
 74
     0
 42
0.00000001
 43
0.00000001
 40
0.0
 40
0.0
 40
0.0
 40
0.0
 40
0.0790369080192132
 40
1.0
 40
1.0
 40
1.0
 40
1.0
 10
209.0006551626292
 20
140.1995852258467
 30
0.0
 10
209.0014296819157
 20
140.184804418214
 30
0.0
 10
209.0112291453038
 20
139.9977929573261
 30
0.0
 10
209.0232587898366
 20
139.9360890091307
 30
0.0
 10
209.034337648461
 20
139.8792619502133
 30
0.0
  0
ARC
  5
14A
330
1F
100
AcDbEntity
  8
0
  6
Continuous
 62
     7
370
    25
100
AcDbCircle
 10
208.5370949837
 20
139.8361286846
 30
0.0
 40
0.4991099540955922
100
AcDbArc
 50
4.9577065176
 51
89.0960830536
  0
ARC
  5
14B
330
1F
100
AcDbEntity
  8
0
  6
Continuous
 62
     7
370
    25
100
AcDbCircle
 10
208.5370949837
 20
129.0132477309
 30
0.0
 40
0.4991099540952249
100
AcDbArc
 50
270.9039169467
 51
355.0422934825
  0
SPLINE
  5
14C
330
1F
100
AcDbEntity
  8
0
  6
Continuous
 62
     7
370
    25
100
AcDbSpline
210
0.0
220
0.0
230
1.0
 70
     8
 71
     3
 72
     9
 73
     5
 74
     0
 42
0.00000001
 43
0.00000001
 40
0.0
 40
0.0
 40
0.0
 40
0.0
 40
0.0129608462966867
 40
1.0
 40
1.0
 40
1.0
 40
1.0
 10
202.7991404063994
 20
130.8767912329695
 30
0.0
 10
202.7975859505028
 20
130.8767253834953
 30
0.0
 10
202.6776511977145
 20
130.8716447373156
 30
0.0
 10
202.5584627624837
 20
130.8808949548834
 30
0.0
 10
202.4408191102423
 20
130.8900252818033
 30
0.0
  0
ELLIPSE
  5
14D
330
1F
100
AcDbEntity
  8
0
  6
Continuous
 62
     7
370
    25
100
AcDbEllipse
 10
213.7884688666
 20
131.0463082526
 30
0.0
 11
14.99999386323825
 21
0.2542085132690772
 31
0.0
210
0.0
220
0.0
230
1.0
 40
0.0533752749
 41
2.501275951618367
 42
3.139211616205889
  0
ARC
  5
14E
330
1F
100
AcDbEntity
  8
0
  6
Continuous
 62
     7
370
    25
100
AcDbCircle
 10
199.2925195977
 20
138.0777707894
 30
0.0
 40
0.4990245038596039
100
AcDbArc
 50
88.8866479152
 51
154.4102041241
  0
SPLINE
  5
14F
330
1F
100
AcDbEntity
  8
0
  6
Continuous
 62
     7
370
    25
100
AcDbSpline
210
0.0
220
0.0
230
1.0
 70
     8
 71
     3
 72
     9
 73
     5
 74
     0
 42
0.00000001
 43
0.00000001
 40
0.0
 40
0.0
 40
0.0
 40
0.0
 40
0.0129608462966765
 40
1.0
 40
1.0
 40
1.0
 40
1.0
 10
202.7991404063994
 20
137.9725851824791
 30
0.0
 10
202.7975859505028
 20
137.9726510319533
 30
0.0
 10
202.6776511977141
 20
137.9777316781326
 30
0.0
 10
202.5584627624834
 20
137.9684814605649
 30
0.0
 10
202.4408191102421
 20
137.9593511336453
 30
0.0
  0
ARC
  5
150
330
1F
100
AcDbEntity
  8
0
  6
Continuous
 62
     7
370
    25
100
AcDbCircle
 10
195.7015621631
 20
139.0704217758
 30
0.0
 40
0.490965746324076
100
AcDbArc
 50
93.8791489177
 51
181.0879611003
  0
ARC
  5
151
330
1F
100
AcDbEntity
  8
0
  6
Continuous
 62
     7
370
    25
100
AcDbCircle
 10
195.7015621631
 20
129.7789546397
 30
0.0
 40
0.4909657463240754
100
AcDbArc
 50
178.9120388997
 51
266.1208510823
  0
LINE
  5
152
330
1F
100
AcDbEntity
  8
0
  6
Continuous
 62
     7
370
    25
100
AcDbLine
 10
195.2106849262
 20
139.0610996313
 30
0.0
 11
195.2106849262
 21
129.7882767841
 31
0.0
  0
ARC
  5
153
330
1F
100
AcDbEntity
  8
0
  6
Continuous
 62
     7
370
    25
100
AcDbCircle
 10
195.172745308
 20
129.7061831472
 30
0.0
 40
0.4998370280062364
100
AcDbArc
 50
180.0688458087
 51
269.0183467286
  0
ELLIPSE
  5
154
330
1F
100
AcDbEntity
  8
0
  6
Continuous
 62
     7
370
    25
100
AcDbEllipse
 10
202.3936627893
 20
129.7236286435
 30
0.0
 11
7.999997105433749
 21
0.1314648441208135
 31
0.0
210
0.0
220
0.0
230
1.0
 40
0.0517656972
 41
2.684858073900574
 42
2.875748731610679
  0
ELLIPSE
  5
155
330
1F
100
AcDbEntity
  8
0
  6
Continuous
 62
     7
370
    25
100
AcDbEllipse
 10
202.3936627893
 20
139.1257477719
 30
0.0
 11
7.999997105433749
 21
-0.1314648441207851
 31
0.0
210
0.0
220
0.0
230
1.0
 40
0.0517656972
 41
3.407436575569013
 42
3.598327233279023
  0
ARC
  5
156
330
1F
100
AcDbEntity
  8
0
  6
Continuous
 62
     7
370
    25
100
AcDbCircle
 10
195.172745308
 20
139.1431932682
 30
0.0
 40
0.4998370280061927
100
AcDbArc
 50
90.9816532714
 51
179.9311541913
  0
SPLINE
  5
157
330
1F
100
AcDbEntity
  8
0
  6
Continuous
 62
     7
370
    25
100
AcDbSpline
210
0.0
220
0.0
230
1.0
 70
     8
 71
     3
 72
     9
 73
     5
 74
     0
 42
0.00000001
 43
0.00000001
 40
0.0
 40
0.0
 40
0.0
 40
0.0
 40
0.1533602411230256
 40
1.0
 40
1.0
 40
1.0
 40
1.0
 10
194.6729086407804
 20
129.7055825501789
 30
0.0
 10
194.6707209037011
 20
129.7050848355259
 30
0.0
 10
194.6564555565464
 20
129.7018394399171
 30
0.0
 10
194.6431333989498
 20
129.6930529632978
 30
0.0
 10
194.6318543306544
 20
129.6856139828513
 30
0.0
  0
LINE
  5
158
330
1F
100
AcDbEntity
  8
0
  6
Continuous
 62
     7
370
    25
100
AcDbLine
 10
194.3936627893
 20
129.2493318138
 30
0.0
 11
194.6318543307
 21
129.6856139829
 31
0.0
  0
LINE
  5
159
330
1F
100
AcDbEntity
  8
0
  6
Continuous
 62
     7
370
    25
100
AcDbLine
 10
194.3936627893
 20
129.2493318138
 30
0.0
 11
194.3936627893
 21
139.6000446016
 31
0.0
  0
LINE
  5
15A
330
1F
100
AcDbEntity
  8
0
  6
Continuous
 62
     7
370
    25
100
AcDbLine
 10
194.6318543307
 20
139.1637624326
 30
0.0
 11
194.3936627893
 21
139.6000446016
 31
0.0
  0
LINE
  5
15B
330
1F
100
AcDbEntity
  8
0
  6
Continuous
 62
     7
370
    25
100
AcDbLine
 10
194.6318543307
 20
139.1637624326
 30
0.0
 11
194.6729086408
 21
139.1437938653
 31
0.0
  0
ARC
  5
15C
330
1F
100
AcDbEntity
  8
0
  6
Continuous
 62
     7
370
    25
100
AcDbCircle
 10
203.4916047025
 20
125.8293440819
 30
0.0
 40
2.59794263277439
100
AcDbArc
 50
90.9553957458
 51
179.9573581589
  0
SPLINE
  5
15D
330
1F
100
AcDbEntity
  8
0
  6
Continuous
 62
     7
370
    25
100
AcDbSpline
210
0.0
220
0.0
230
1.0
 70
     8
 71
     3
 72
    17
 73
    13
 74
     0
 42
0.00000001
 43
0.00000001
 40
0.0
 40
0.0
 40
0.0
 40
0.0
 40
0.006826427756052
 40
0.0088450004853821
 40
0.0223994102884414
 40
0.030959827023921
 40
0.0563228448230676
 40
0.1198844474831655
 40
0.1957493698893794
 40
0.5558716060100611
 40
0.7769840750939091
 40
1.0
 40
1.0
 40
1.0
 40
1.0
 10
203.4482865325272
 20
129.3401200076275
 30
0.0
 10
203.4177818168656
 20
129.3390818245828
 30
0.0
 10
203.3782568655331
 20
129.3377366511095
 30
0.0
 10
203.2885273471365
 20
129.3301466630311
 30
0.0
 10
203.2082901099895
 20
129.3183951563001
 30
0.0
 10
203.082045923057
 20
129.2926762607192
 30
0.0
 10
202.8795884636449
 20
129.2341616880981
 30
0.0
 10
202.6345712188109
 20
129.1249646321377
 30
0.0
 10
202.0287009019545
 20
128.7577932165011
 30
0.0
 10
201.4832979825314
 20
128.1246263141452
 30
0.0
 10
200.9926745133978
 20
127.1121804376697
 30
0.0
 10
200.926760862063
 20
126.4047021413024
 30
0.0
 10
200.8936627892641
 20
126.0494469296328
 30
0.0
  0
ARC
  5
15E
330
1F
100
AcDbEntity
  8
0
  6
Continuous
 62
     7
370
    25
100
AcDbCircle
 10
199.0597336829
 20
126.2382225756
 30
0.0
 40
1.843619323976471
100
AcDbArc
 50
265.9201895471
 51
354.1229528255
  0
SPLINE
  5
15F
330
1F
100
AcDbEntity
  8
0
  6
Continuous
 62
     7
370
    25
100
AcDbSpline
210
0.0
220
0.0
230
1.0
 70
     8
 71
     3
 72
    14
 73
    10
 74
     0
 42
0.00000001
 43
0.00000001
 40
0.0
 40
0.0
 40
0.0
 40
0.0
 40
0.222585370202701
 40
0.4518071037420552
 40
0.815772842264197
 40
0.894612168116161
 40
0.9637839688025586
 40
0.9940798081854059
 40
1.0
 40
1.0
 40
1.0
 40
1.0
 10
198.9285676021387
 20
124.3992751399941
 30
0.0
 10
198.9837501440081
 20
124.9376635448584
 30
0.0
 10
199.0957604904044
 20
126.0304923577696
 30
0.0
 10
199.959534049479
 20
127.5961238345207
 30
0.0
 10
200.9564535594911
 20
128.554471060226
 30
0.0
 10
202.0174599886597
 20
129.0758795748823
 30
0.0
 10
202.4615126037409
 20
129.2312639992458
 30
0.0
 10
202.7934304957107
 20
129.3068136872861
 30
0.0
 10
202.9237724070414
 20
129.3283344688144
 30
0.0
 10
202.94507924523
 20
129.3318524455345
 30
0.0
  0
SPLINE
  5
160
330
1F
100
AcDbEntity
  8
0
  6
Continuous
 62
     7
370
    25
100
AcDbSpline
210
0.0
220
0.0
230
1.0
 70
     8
 71
     3
 72
    11
 73
     7
 74
     0
 42
0.00000001
 43
0.00000001
 40
0.0
 40
0.0
 40
0.0
 40
0.0
 40
0.0195561212296081
 40
0.1681891996744554
 40
0.5898876540792817
 40
1.0
 40
1.0
 40
1.0
 40
1.0
 10
203.4482865325272
 20
129.3401200076275
 30
0.0
 10
203.4454809857539
 20
129.3401781213432
 30
0.0
 10
203.4213523428142
 20
129.3406779187839
 30
0.0
 10
203.3318672476512
 20
129.3415243361974
 30
0.0
 10
203.1629050715707
 20
129.3394350376754
 30
0.0
 10
203.0170104761703
 20
129.3343563964919
 30
0.0
 10
202.94507924523
 20
129.3318524455345
 30
0.0
  0
ARC
  5
161
330
1F
100
AcDbEntity
  8
0
  6
Continuous
 62
     7
370
    25
100
AcDbCircle
 10
199.1670775133
 20
142.9052634066
 30
0.0
 40
1.800614607762395
100
AcDbArc
 50
13.0024955286
 51
96.2155465251
  0
SPLINE
  5
162
330
1F
100
AcDbEntity
  8
0
  6
Continuous
 62
     7
370
    25
100
AcDbSpline
210
0.0
220
0.0
230
1.0
 70
     8
 71
     3
 72
    16
 73
    12
 74
     0
 42
0.00000001
 43
0.00000001
 40
0.0
 40
0.0
 40
0.0
 40
0.0
 40
0.2861254310575668
 40
0.7591203623085427
 40
0.8520758313858448
 40
0.9266344548631265
 40
0.960486230143373
 40
0.983533543656924
 40
0.9930756629548356
 40
0.9972242292023621
 40
1.0
 40
1.0
 40
1.0
 40
1.0
 10
200.9215248416034
 20
143.3103899767095
 30
0.0
 10
201.0434525763503
 20
142.7803226673574
 30
0.0
 10
201.3669394675171
 20
141.3739992712302
 30
0.0
 10
202.2945066049897
 20
140.3561872683458
 30
0.0
 10
203.2252715013841
 20
139.7942670505742
 30
0.0
 10
203.5812328205001
 20
139.6397645346813
 30
0.0
 10
203.8914470993856
 20
139.5512438688509
 30
0.0
 10
204.1040969904529
 20
139.5121344852023
 30
0.0
 10
204.2602404987433
 20
139.4978145162326
 30
0.0
 10
204.3362012061723
 20
139.4940807776098
 30
0.0
 10
204.3686849376057
 20
139.4933469355266
 30
0.0
 10
204.3817067464117
 20
139.4930527589994
 30
0.0
  0
SPLINE
  5
163
330
1F
100
AcDbEntity
  8
0
  6
Continuous
 62
     7
370
    25
100
AcDbSpline
210
0.0
220
0.0
230
1.0
 70
     8
 71
     3
 72
    10
 73
     6
 74
     0
 42
0.00000001
 43
0.00000001
 40
0.0
 40
0.0
 40
0.0
 40
0.0
 40
0.5975855365574466
 40
0.9790563563182109
 40
1.0
 40
1.0
 40
1.0
 40
1.0
 10
203.8289209663353
 20
139.5021796563388
 30
0.0
 10
203.9439780299569
 20
139.4984403586125
 30
0.0
 10
204.132482173024
 20
139.4923140670892
 30
0.0
 10
204.3130526427235
 20
139.491937508232
 30
0.0
 10
204.3783104087469
 20
139.4929975872328
 30
0.0
 10
204.3817067464117
 20
139.4930527589994
 30
0.0
  0
SPLINE
  5
164
330
1F
100
AcDbEntity
  8
0
  6
Continuous
 62
     7
370
    25
100
AcDbSpline
210
0.0
220
0.0
230
1.0
 70
     8
 71
     3
 72
    14
 73
    10
 74
     0
 42
0.00000001
 43
0.00000001
 40
0.0
 40
0.0
 40
0.0
 40
0.0
 40
0.0129036569231463
 40
0.0519665716781148
 40
0.1318891824261212
 40
0.2280032005552164
 40
0.4679440229400841
 40
0.7079115564493628
 40
1.0
 40
1.0
 40
1.0
 40
1.0
 10
203.8289209663353
 20
139.5021796563388
 30
0.0
 10
203.779169178142
 20
139.5100246304001
 30
0.0
 10
203.5788050579037
 20
139.5416184963327
 30
0.0
 10
203.1490007067717
 20
139.6440005436264
 30
0.0
 10
202.583365697911
 20
139.8464020524435
 30
0.0
 10
201.6611986362961
 20
140.3134527332095
 30
0.0
 10
200.6078071809883
 20
141.1509097926
 30
0.0
 10
199.4922827424789
 20
142.5958500329503
 30
0.0
 10
199.1564772871832
 20
143.951220915745
 30
0.0
 10
198.9721265853734
 20
144.6952933228947
 30
0.0
  0
ARC
  5
165
330
1F
100
AcDbEntity
  8
0
  6
Continuous
 62
     7
370
    25
100
AcDbCircle
 10
204.4408527093
 20
143.9531645704
 30
0.0
 40
3.54719090244201
100
AcDbArc
 50
180.0426418411
 51
269.0446042542
  0
LINE
  5
166
330
1F
100
AcDbEntity
  8
0
  6
Continuous
 62
     7
370
    25
100
AcDbLine
 10
200.8936627893
 20
143.8345336587
 30
0.0
 11
200.9215248416
 21
143.3103899767
 31
0.0
  0
SPLINE
  5
167
330
1F
100
AcDbEntity
  8
0
  6
Continuous
 62
     7
370
    25
100
AcDbSpline
210
0.0
220
0.0
230
1.0
 70
     8
 71
     3
 72
     9
 73
     5
 74
     0
 42
0.00000001
 43
0.00000001
 40
0.0
 40
0.0
 40
0.0
 40
0.0
 40
0.8458911907784121
 40
1.0
 40
1.0
 40
1.0
 40
1.0
 10
195.1256935625362
 20
129.1961011828482
 30
0.0
 10
195.1363109923628
 20
129.1999159898405
 30
0.0
 10
195.1488627601818
 20
129.2044257979978
 30
0.0
 10
195.1621363943271
 20
129.2061532617488
 30
0.0
 10
195.1641819782793
 20
129.2064194791305
 30
0.0
  0
ARC
  5
168
330
1F
100
AcDbEntity
  8
0
  6
Continuous
 62
     7
370
    25
100
AcDbCircle
 10
195.1486439671
 20
129.7131127795
 30
0.0
 40
0.5175207359150384
100
AcDbArc
 50
183.0458824723
 51
267.4582801867
  0
LINE
  5
169
330
1F
100
AcDbEntity
  8
0
  6
Continuous
 62
     7
370
    25
100
AcDbLine
 10
195.1641819783
 20
139.6429569363
 30
0.0
 11
195.1256935625
 21
139.6532752326
 31
0.0
  0
ARC
  5
16A
330
1F
100
AcDbEntity
  8
0
  6
Continuous
 62
     7
370
    25
100
AcDbCircle
 10
195.1486439671
 20
139.136263636
 30
0.0
 40
0.5175207359149787
100
AcDbArc
 50
92.5417198133
 51
176.9541175277
  0
ARC
  5
16B
330
1F
100
AcDbEntity
  8
0
  6
Continuous
 62
     7
370
    25
100
AcDbCircle
 10
204.2731095905
 20
139.497373024
 30
0.0
 40
0.4442146300353076
100
AcDbArc
 50
179.3800179017
 51
180.6199820983
  0
ARC
  5
16C
330
1F
100
AcDbEntity
  8
0
  6
Continuous
 62
     7
370
    25
100
AcDbCircle
 10
203.3893861085
 20
129.3366609496
 30
0.0
 40
0.4443328824892321
100
AcDbArc
 50
179.3799416249
 51
180.6200584639
  0
LWPOLYLINE
  5
16D
330
1F
100
AcDbEntity
  8
0
  6
Continuous
 62
     7
370
    25
100
AcDbPolyline
 90
        4
 70
   128
 43
0.0
 10
202.9450792452
 20
129.3318524455
 10
201.9452324253
 20
129.3144941905
 10
197.9458451507
 20
129.2450613289
 10
195.1256935625
 20
129.1961011828
  0
LWPOLYLINE
  5
16E
330
1F
100
AcDbEntity
  8
0
  6
Continuous
 62
     7
370
    25
100
AcDbPolyline
 90
        4
 70
   128
 43
0.0
 10
195.1256935625
 20
139.6532752326
 10
196.125540379
 20
139.6359170857
 10
200.1249276499
 20
139.5664843396
 10
203.8289209663
 20
139.5021796563
  0
LINE
  5
16F
330
1F
100
AcDbEntity
  8
0
  6
Continuous
 62
     7
370
    25
100
AcDbLine
 10
194.9023889925
 20
140.0828027359
 30
0.0
 11
195.1256935625
 21
139.6532752326
 31
0.0
  0
ARC
  5
170
330
1F
100
AcDbEntity
  8
0
  6
Continuous
 62
     7
370
    25
100
AcDbCircle
 10
194.8855689446
 20
139.5911029237
 30
0.0
 40
0.4919874178077173
100
AcDbArc
 50
88.040792198
 51
178.9586143968
  0
LINE
  5
171
330
1F
100
AcDbEntity
  8
0
  6
Continuous
 62
     7
370
    25
100
AcDbLine
 10
195.1256935625
 20
129.1961011828
 30
0.0
 11
194.9023889925
 21
128.7665736796
 31
0.0
  0
ARC
  5
172
330
1F
100
AcDbEntity
  8
0
  6
Continuous
 62
     7
370
    25
100
AcDbCircle
 10
194.8855689446
 20
129.2582734917
 30
0.0
 40
0.4919874178077168
100
AcDbArc
 50
181.0413856032
 51
271.959207802
  0
LINE
  5
173
330
1F
100
AcDbEntity
  8
0
  6
Continuous
 62
     7
370
    25
100
AcDbLine
 10
198.9285676021
 20
124.1534615823
 30
0.0
 11
198.9285676021
 21
124.39927514
 31
0.0
  0
LINE
  5
174
330
1F
100
AcDbEntity
  8
0
  6
Continuous
 62
     7
370
    25
100
AcDbLine
 10
198.9285676021
 20
124.1534615823
 30
0.0
 11
194.9023889925
 21
124.0960150795
 31
0.0
  0
LINE
  5
175
330
1F
100
AcDbEntity
  8
0
  6
Continuous
 62
     7
370
    25
100
AcDbLine
 10
194.9023889925
 20
128.7665736796
 30
0.0
 11
194.9023889925
 21
124.0960150795
 31
0.0
  0
LINE
  5
176
330
1F
100
AcDbEntity
  8
0
  6
Continuous
 62
     7
370
    25
100
AcDbLine
 10
194.9023889925
 20
144.7533613359
 30
0.0
 11
194.9023889925
 21
140.0828027359
 31
0.0
  0
LINE
  5
177
330
1F
100
AcDbEntity
  8
0
  6
Continuous
 62
     7
370
    25
100
AcDbLine
 10
198.9721265854
 20
144.6952933229
 30
0.0
 11
194.9023889925
 21
144.7533613359
 31
0.0
  0
ARC
  5
178
330
1F
100
AcDbEntity
  8
0
  6
Continuous
 62
     7
370
    25
100
AcDbCircle
 10
194.8538721601
 20
124.5565968289
 30
0.0
 40
0.4631300366781003
100
AcDbArc
 50
186.4380684431
 51
276.013255932
  0
LINE
  5
179
330
1F
100
AcDbEntity
  8
0
  6
Continuous
 62
     7
370
    25
100
AcDbLine
 10
194.3936627893
 20
124.5046664346
 30
0.0
 11
194.3936627893
 21
129.2493318138
 31
0.0
  0
LINE
  5
17A
330
1F
100
AcDbEntity
  8
0
  6
Continuous
 62
     7
370
    25
100
AcDbLine
 10
194.3936627893
 20
139.6000446016
 30
0.0
 11
194.3936627893
 21
144.3447099808
 31
0.0
  0
ARC
  5
17B
330
1F
100
AcDbEntity
  8
0
  6
Continuous
 62
     7
370
    25
100
AcDbCircle
 10
194.8538721601
 20
144.2927795866
 30
0.0
 40
0.463130036678097
100
AcDbArc
 50
83.986744068
 51
173.5619315569
  0
LINE
  5
17C
330
1F
100
AcDbEntity
  8
0
  6
Continuous
 62
     7
370
    25
100
AcDbLine
 10
200.8936627893
 20
126.0494469296
 30
0.0
 11
200.8936627893
 21
125.7880670027
 31
0.0
  0
ARC
  5
17D
330
1F
100
AcDbEntity
  8
0
  6
Continuous
 62
     7
370
    25
100
AcDbCircle
 10
199.0663899877
 20
125.9862787524
 30
0.0
 40
1.837991781540035
100
AcDbArc
 50
265.6996216829
 51
353.8090988865
  0
LINE
  5
17E
330
1F
100
AcDbEntity
  8
0
  6
Continuous
 62
     7
370
    25
100
AcDbLine
 10
194.3936627893
 20
122.952798593
 30
0.0
 11
194.3936627893
 21
124.5046664346
 31
0.0
  0
LINE
  5
17F
330
1F
100
AcDbEntity
  8
0
  6
Continuous
 62
     7
370
    25
100
AcDbLine
 10
194.3936627893
 20
144.3447099808
 30
0.0
 11
194.3936627893
 21
145.8965778225
 31
0.0
  0
LINE
  5
180
330
1F
100
AcDbEntity
  8
0
  6
Continuous
 62
     7
370
    25
100
AcDbLine
 10
198.9721265854
 20
144.6952933229
 30
0.0
 11
198.9285676021
 21
145.6922595586
 31
0.0
  0
LINE
  5
181
330
1F
100
AcDbEntity
  8
0
  6
Continuous
 62
     7
370
    25
100
AcDbLine
 10
200.8936627893
 20
125.7880670027
 30
0.0
 11
200.8936627893
 21
124.5228473448
 31
0.0
  0
ARC
  5
182
330
1F
100
AcDbEntity
  8
0
  6
Continuous
 62
     7
370
    25
100
AcDbCircle
 10
198.9649533537
 20
143.7625503147
 30
0.0
 40
1.930052250266554
100
AcDbArc
 50
2.1374025298
 51
91.0802160954
  0
LINE
  5
183
330
1F
100
AcDbEntity
  8
0
  6
Continuous
 62
     7
370
    25
100
AcDbLine
 10
200.8936627893
 20
144.3265290707
 30
0.0
 11
200.8936627893
 21
143.8345336587
 31
0.0
  0
LINE
  5
184
330
1F
100
AcDbEntity
  8
0
  6
Continuous
 62
     7
370
    25
100
AcDbLine
 10
209.2436627893
 20
129.6526630587
 30
0.0
 11
209.2436627893
 21
126.0252445535
 31
0.0
  0
LINE
  5
185
330
1F
100
AcDbEntity
  8
0
  6
Continuous
 62
     7
370
    25
100
AcDbLine
 10
209.2436627893
 20
142.824131862
 30
0.0
 11
209.2436627893
 21
139.2646185094
 31
0.0
  0
SPLINE
  5
186
330
1F
100
AcDbEntity
  8
0
  6
Continuous
 62
     7
370
    25
100
AcDbSpline
210
0.0
220
0.0
230
1.0
 70
     8
 71
     3
 72
     9
 73
     5
 74
     0
 42
0.00000001
 43
0.00000001
 40
0.0
 40
0.0
 40
0.0
 40
0.0
 40
0.6817923421274201
 40
1.0
 40
1.0
 40
1.0
 40
1.0
 10
209.0006551626292
 20
140.1995852258467
 30
0.0
 10
208.9669464927168
 20
140.3894955809519
 30
0.0
 10
208.9175052364434
 20
140.6680413248254
 30
0.0
 10
208.7922470929525
 20
140.9009456977684
 30
0.0
 10
208.7523889924827
 20
140.9750576527909
 30
0.0
  0
LINE
  5
187
330
1F
100
AcDbEntity
  8
0
  6
Continuous
 62
     7
370
    25
100
AcDbLine
 10
208.7523889925
 20
127.8743187627
 30
0.0
 11
209.0006551626
 21
128.6497911896
 31
0.0
  0
ARC
  5
188
330
1F
100
AcDbEntity
  8
0
  6
Continuous
 62
     7
370
    25
100
AcDbCircle
 10
204.0893830144
 20
144.6829224918
 30
0.0
 40
3.223623274024288
100
AcDbArc
 50
187.544059084
 51
275.2028276603
  0
SPLINE
  5
189
330
1F
100
AcDbEntity
  8
0
  6
Continuous
 62
     7
370
    25
100
AcDbSpline
210
0.0
220
0.0
230
1.0
 70
     8
 71
     3
 72
     9
 73
     5
 74
     0
 42
0.00000001
 43
0.00000001
 40
0.0
 40
0.0
 40
0.0
 40
0.0
 40
0.5001021276704695
 40
1.0
 40
1.0
 40
1.0
 40
1.0
 10
204.3817067464117
 20
141.4725807889973
 30
0.0
 10
204.3801949802311
 20
141.1860551549088
 30
0.0
 10
204.3771720653164
 20
140.613120911611
 30
0.0
 10
204.3801953918902
 20
140.4753421251568
 30
0.0
 10
204.3817067464118
 20
140.4064668029563
 30
0.0
  0
SPLINE
  5
18A
330
1F
100
AcDbEntity
  8
0
  6
Continuous
 62
     7
370
    25
100
AcDbSpline
210
0.0
220
0.0
230
1.0
 70
     8
 71
     3
 72
     9
 73
     5
 74
     0
 42
0.00000001
 43
0.00000001
 40
0.0
 40
0.0
 40
0.0
 40
0.0
 40
0.400722737156526
 40
1.0
 40
1.0
 40
1.0
 40
1.0
 10
203.4482865325272
 20
128.4269255454129
 30
0.0
 10
203.4473426315899
 20
128.3785182833472
 30
0.0
 10
203.4449871352583
 20
128.2577183946034
 30
0.0
 10
203.4470501904733
 20
127.6976111212498
 30
0.0
 10
203.4482865325556
 20
127.3619515675757
 30
0.0
  0
ARC
  5
18B
330
1F
100
AcDbEntity
  8
0
  6
Continuous
 62
     7
370
    25
100
AcDbCircle
 10
203.2344326606
 20
125.0105020455
 30
0.0
 40
2.36115402575953
100
AcDbArc
 50
84.8034992243
 51
172.4658413595
  0
SPLINE
  5
18C
330
1F
100
AcDbEntity
  8
0
  6
Continuous
 62
     7
370
    25
100
AcDbSpline
210
0.0
220
0.0
230
1.0
 70
     8
 71
     3
 72
     9
 73
     5
 74
     0
 42
0.00000001
 43
0.00000001
 40
0.0
 40
0.0
 40
0.0
 40
0.0
 40
0.5000106123815432
 40
1.0
 40
1.0
 40
1.0
 40
1.0
 10
208.5146063699277
 20
127.4424870734114
 30
0.0
 10
208.5097775324998
 20
127.7303276115047
 30
0.0
 10
208.5001200626212
 20
128.3059964692561
 30
0.0
 10
208.5300194183042
 20
128.4447997303429
 30
0.0
 10
208.5449687788423
 20
128.5141998878531
 30
0.0
  0
LINE
  5
18D
330
1F
100
AcDbEntity
  8
0
  6
Continuous
 62
     7
370
    25
100
AcDbLine
 10
208.5146063699
 20
127.4424870734
 30
0.0
 11
203.4482865326
 21
127.3619515676
 31
0.0
  0
LINE
  5
18E
330
1F
100
AcDbEntity
  8
0
  6
Continuous
 62
     7
370
    25
100
AcDbLine
 10
204.3817067464
 20
141.472580789
 30
0.0
 11
208.5146063699
 21
141.406889342
 31
0.0
  0
SPLINE
  5
18F
330
1F
100
AcDbEntity
  8
0
  6
Continuous
 62
     7
370
    25
100
AcDbSpline
210
0.0
220
0.0
230
1.0
 70
     8
 71
     3
 72
     9
 73
     5
 74
     0
 42
0.00000001
 43
0.00000001
 40
0.0
 40
0.0
 40
0.0
 40
0.0
 40
0.5055561057107295
 40
1.0
 40
1.0
 40
1.0
 40
1.0
 10
208.5449687788401
 20
140.3351765275955
 30
0.0
 10
208.5298119445595
 20
140.4058325618655
 30
0.0
 10
208.4998314258607
 20
140.5455915984429
 30
0.0
 10
208.5097180091734
 20
141.1219248732387
 30
0.0
 10
208.5146063699277
 20
141.4068893420372
 30
0.0
  0
SPLINE
  5
190
330
1F
100
AcDbEntity
  8
0
  6
Continuous
 62
     7
370
    25
100
AcDbSpline
210
0.0
220
0.0
230
1.0
 70
     8
 71
     3
 72
     9
 73
     5
 74
     0
 42
0.00000001
 43
0.00000001
 40
0.0
 40
0.0
 40
0.0
 40
0.0
 40
0.0161297673533279
 40
1.0
 40
1.0
 40
1.0
 40
1.0
 10
208.5146063699277
 20
141.4068893420372
 30
0.0
 10
208.5158961695437
 20
141.4046703147133
 30
0.0
 10
208.5958601013077
 20
141.2670968906631
 30
0.0
 10
208.6747608724364
 20
141.1198900658081
 30
0.0
 10
208.7523889924827
 20
140.9750576527908
 30
0.0
  0
SPLINE
  5
191
330
1F
100
AcDbEntity
  8
0
  6
Continuous
 62
     7
370
    25
100
AcDbSpline
210
0.0
220
0.0
230
1.0
 70
     8
 71
     3
 72
     9
 73
     5
 74
     0
 42
0.00000001
 43
0.00000001
 40
0.0
 40
0.0
 40
0.0
 40
0.0
 40
0.9838702326459478
 40
1.0
 40
1.0
 40
1.0
 40
1.0
 10
208.7523889924827
 20
127.8743187626577
 30
0.0
 10
208.6747608724438
 20
127.7294863496383
 30
0.0
 10
208.5958601013225
 20
127.582279524781
 30
0.0
 10
208.515896169544
 20
127.4447061007354
 30
0.0
 10
208.5146063699277
 20
127.4424870734114
 30
0.0
  0
LINE
  5
192
330
1F
100
AcDbEntity
  8
0
  6
Continuous
 62
     7
370
    25
100
AcDbLine
 10
200.9296931894
 20
144.3873613994
 30
0.0
 11
200.8936627893
 21
144.3136551457
 31
0.0
  0
LINE
  5
193
330
1F
100
AcDbEntity
  8
0
  6
Continuous
 62
     7
370
    25
100
AcDbLine
 10
199.0713257502
 20
138.5250811151
 30
0.0
 11
199.3076805145
 21
138.5250811151
 31
0.0
  0
LINE
  5
194
330
1F
100
AcDbEntity
  8
0
  6
Continuous
 62
     7
370
    25
100
AcDbLine
 10
211.1436627893
 20
139.7536025444
 30
0.0
 11
211.1436627893
 21
129.0957738711
 31
0.0
  0
SPLINE
  5
195
330
1F
100
AcDbEntity
  8
0
  6
Continuous
 62
     7
370
    25
100
AcDbSpline
210
0.0
220
0.0
230
1.0
 70
    24
 71
     3
 72
    10
 73
     6
 74
     0
 42
0.00000001
 43
0.00000001
 40
0.0
 40
0.0
 40
0.0
 40
0.0
 40
0.45487205282706
 40
0.941911340686806
 40
1.0
 40
1.0
 40
1.0
 40
1.0
 10
185.2680184933444
 20
124.9246882077243
 30
0.0
 10
185.2360165292077
 20
124.9246882077243
 30
0.0
 10
185.1697495146545
 20
124.9246882077243
 30
0.0
 10
184.7786088657644
 20
124.9246882077242
 30
0.0
 10
184.5211025768669
 20
124.9246882077242
 30
0.0
 10
184.4936627892641
 20
124.9246882077243
 30
0.0
  0
LINE
  5
196
330
1F
100
AcDbEntity
  8
0
  6
Continuous
 62
     7
370
    25
100
AcDbLine
 10
184.4936627893
 20
126.2279506198
 30
0.0
 11
184.4936627893
 21
124.9246882077
 31
0.0
  0
SPLINE
  5
197
330
1F
100
AcDbEntity
  8
0
  6
Continuous
 62
     7
370
    25
100
AcDbSpline
210
0.0
220
0.0
230
1.0
 70
     8
 71
     3
 72
    11
 73
     7
 74
     0
 42
0.00000001
 43
0.00000001
 40
0.0
 40
0.0
 40
0.0
 40
0.0
 40
0.2431641197380917
 40
0.4936284730588931
 40
0.7421706076863265
 40
1.0
 40
1.0
 40
1.0
 40
1.0
 10
184.4936627892641
 20
126.2279506198015
 30
0.0
 10
184.7038031124729
 20
126.7713971520723
 30
0.0
 10
185.1303925574345
 20
127.8746054798591
 30
0.0
 10
185.3407769875774
 20
129.6246505095855
 30
0.0
 10
185.1500902939105
 20
131.4116196735286
 30
0.0
 10
184.7151311235158
 20
132.5445640537509
 30
0.0
 10
184.4936627892641
 20
133.1214257956471
 30
0.0
  0
LINE
  5
198
330
1F
100
AcDbEntity
  8
0
  6
Continuous
 62
     7
370
    25
100
AcDbLine
 10
184.4936627893
 20
135.7279506198
 30
0.0
 11
184.4936627893
 21
133.1214257956
 31
0.0
  0
SPLINE
  5
199
330
1F
100
AcDbEntity
  8
0
  6
Continuous
 62
     7
370
    25
100
AcDbSpline
210
0.0
220
0.0
230
1.0
 70
     8
 71
     3
 72
    11
 73
     7
 74
     0
 42
0.00000001
 43
0.00000001
 40
0.0
 40
0.0
 40
0.0
 40
0.0
 40
0.2431641197380924
 40
0.4936284730588936
 40
0.7421706076863285
 40
1.0
 40
1.0
 40
1.0
 40
1.0
 10
184.4936627892641
 20
135.7279506198015
 30
0.0
 10
184.7038031124729
 20
136.2713971520723
 30
0.0
 10
185.1303925574345
 20
137.374605479859
 30
0.0
 10
185.3407769875774
 20
139.1246505095857
 30
0.0
 10
185.1500902939105
 20
140.9116196735284
 30
0.0
 10
184.7151311235158
 20
142.0445640537508
 30
0.0
 10
184.4936627892641
 20
142.6214257956471
 30
0.0
  0
LINE
  5
19A
330
1F
100
AcDbEntity
  8
0
  6
Continuous
 62
     7
370
    25
100
AcDbLine
 10
184.4936627893
 20
143.9246882077
 30
0.0
 11
184.4936627893
 21
142.6214257956
 31
0.0
  0
SPLINE
  5
19B
330
1F
100
AcDbEntity
  8
0
  6
Continuous
 62
     7
370
    25
100
AcDbSpline
210
0.0
220
0.0
230
1.0
 70
    24
 71
     3
 72
    10
 73
     6
 74
     0
 42
0.00000001
 43
0.00000001
 40
0.0
 40
0.0
 40
0.0
 40
0.0
 40
0.0580868486472913
 40
0.5300316269435382
 40
1.0
 40
1.0
 40
1.0
 40
1.0
 10
184.4936627892641
 20
143.9246882077243
 30
0.0
 10
184.5211017247218
 20
143.9246882077242
 30
0.0
 10
184.7714768774614
 20
143.9246882077244
 30
0.0
 10
185.1652639563005
 20
143.9246882077242
 30
0.0
 10
185.2336963555325
 20
143.9246882077243
 30
0.0
 10
185.2678407597011
 20
143.9246882077243
 30
0.0
  0
LINE
  5
19C
330
1F
100
AcDbEntity
  8
0
  6
Continuous
 62
     7
370
    25
100
AcDbLine
 10
186.4936627893
 20
142.6746882077
 30
0.0
 11
186.4936627893
 21
126.1746882077
 31
0.0
  0
LINE
  5
19D
330
1F
100
AcDbEntity
  8
0
  6
Continuous
 62
     7
370
    25
100
AcDbLine
 10
181.9436627893
 20
126.2279506198
 30
0.0
 11
181.6936627893
 21
126.8349038849
 31
0.0
  0
LINE
  5
19E
330
1F
100
AcDbEntity
  8
0
  6
Continuous
 62
     7
370
    25
100
AcDbLine
 10
181.6936627893
 20
132.5144725305
 30
0.0
 11
181.6936627893
 21
126.8349038849
 31
0.0
  0
LINE
  5
19F
330
1F
100
AcDbEntity
  8
0
  6
Continuous
 62
     7
370
    25
100
AcDbLine
 10
181.6936627893
 20
132.5144725305
 30
0.0
 11
181.9436627893
 21
133.1214257956
 31
0.0
  0
LINE
  5
1A0
330
1F
100
AcDbEntity
  8
0
  6
Continuous
 62
     7
370
    25
100
AcDbLine
 10
184.4936627893
 20
133.1214257956
 30
0.0
 11
181.9436627893
 21
133.1214257956
 31
0.0
  0
LINE
  5
1A1
330
1F
100
AcDbEntity
  8
0
  6
Continuous
 62
     7
370
    25
100
AcDbLine
 10
181.9436627893
 20
126.2279506198
 30
0.0
 11
184.4936627893
 21
126.2279506198
 31
0.0
  0
LINE
  5
1A2
330
1F
100
AcDbEntity
  8
0
  6
Continuous
 62
     7
370
    25
100
AcDbLine
 10
181.9436627893
 20
135.7279506198
 30
0.0
 11
181.6936627893
 21
136.3349038849
 31
0.0
  0
LINE
  5
1A3
330
1F
100
AcDbEntity
  8
0
  6
Continuous
 62
     7
370
    25
100
AcDbLine
 10
181.6936627893
 20
142.0144725305
 30
0.0
 11
181.6936627893
 21
136.3349038849
 31
0.0
  0
LINE
  5
1A4
330
1F
100
AcDbEntity
  8
0
  6
Continuous
 62
     7
370
    25
100
AcDbLine
 10
181.6936627893
 20
142.0144725305
 30
0.0
 11
181.9436627893
 21
142.6214257956
 31
0.0
  0
LINE
  5
1A5
330
1F
100
AcDbEntity
  8
0
  6
Continuous
 62
     7
370
    25
100
AcDbLine
 10
184.4936627893
 20
142.6214257956
 30
0.0
 11
181.9436627893
 21
142.6214257956
 31
0.0
  0
LINE
  5
1A6
330
1F
100
AcDbEntity
  8
0
  6
Continuous
 62
     7
370
    25
100
AcDbLine
 10
181.9436627893
 20
135.7279506198
 30
0.0
 11
184.4936627893
 21
135.7279506198
 31
0.0
  0
LINE
  5
1A7
330
1F
100
AcDbEntity
  8
0
  6
Continuous
 62
     7
370
    25
100
AcDbLine
 10
181.9436627893
 20
135.7279506198
 30
0.0
 11
181.9436627893
 21
133.1214257956
 31
0.0
  0
LINE
  5
1A8
330
1F
100
AcDbEntity
  8
0
  6
Continuous
 62
     7
370
    25
100
AcDbLine
 10
181.6936627893
 20
132.5144725305
 30
0.0
 11
181.6936627893
 21
136.3349038849
 31
0.0
  0
SPLINE
  5
1A9
330
1F
100
AcDbEntity
  8
0
  6
Continuous
 62
     7
370
    25
100
AcDbSpline
210
0.0
220
0.0
230
1.0
 70
     8
 71
     3
 72
    35
 73
    31
 74
     0
 42
0.00000001
 43
0.00000001
 40
0.0
 40
0.0
 40
0.0
 40
0.0
 40
0.0090244057590596
 40
0.0333720401352694
 40
0.0601759811223379
 40
0.0745399081436057
 40
0.1008045740791161
 40
0.1376609863156994
 40
0.1653685613570518
 40
0.1996204422150976
 40
0.2366544341576811
 40
0.2697116072887939
 40
0.3039654845597429
 40
0.3582540442022722
 40
0.4066904388091909
 40
0.4424693069460136
 40
0.4655764792670231
 40
0.4876873785268994
 40
0.5124095952568491
 40
0.5352758037637345
 40
0.565360791386394
 40
0.617024283386808
 40
0.7002840938089808
 40
0.755642298667969
 40
0.8299093553557934
 40
0.8778165427001835
 40
0.9216707740240978
 40
0.9585666222541054
 40
0.9880575042488776
 40
1.0
 40
1.0
 40
1.0
 40
1.0
 10
178.8884608845062
 20
143.8042120512865
 30
0.0
 10
178.8905019501028
 20
143.8047677561169
 30
0.0
 10
178.8980497626487
 20
143.8068227395032
 30
0.0
 10
178.9120349570034
 20
143.7277056370639
 30
0.0
 10
178.9274729450453
 20
143.6128929646824
 30
0.0
 10
178.9436411480654
 20
143.4467174322329
 30
0.0
 10
178.9622817843752
 20
143.2102965758421
 30
0.0
 10
178.9841883289778
 20
142.849331654879
 30
0.0
 10
179.0078576473372
 20
142.3692264308132
 30
0.0
 10
179.031168170501
 20
141.8076922677247
 30
0.0
 10
179.0552028694576
 20
141.1253665008705
 30
0.0
 10
179.0781931140368
 20
140.3629529686771
 30
0.0
 10
179.1070307850876
 20
139.394789228153
 30
0.0
 10
179.1400061000623
 20
138.2003532582037
 30
0.0
 10
179.1731576905299
 20
136.9063619774888
 30
0.0
 10
179.1986846263626
 20
135.8690538073793
 30
0.0
 10
179.2176841001799
 20
135.0761404220112
 30
0.0
 10
179.2335150806611
 20
134.3881046227606
 30
0.0
 10
179.2494732371456
 20
133.7024326922651
 30
0.0
 10
179.2669522966523
 20
132.9428943029066
 30
0.0
 10
179.2919489638545
 20
131.9325907264567
 30
0.0
 10
179.3317032757764
 20
130.3889746166114
 30
0.0
 10
179.3777095710206
 20
128.7614017999549
 30
0.0
 10
179.4254564237106
 20
127.232688470645
 30
0.0
 10
179.4675634097928
 20
126.2206870168184
 30
0.0
 10
179.5076115548012
 20
125.5566987293897
 30
0.0
 10
179.5383701096297
 20
125.208664509779
 30
0.0
 10
179.5644025488953
 20
125.060931928452
 30
0.0
 10
179.5818472776701
 20
124.9993366222537
 30
0.0
 10
179.5915138110618
 20
125.0441208260328
 30
0.0
 10
179.5943000317427
 20
125.0570291427679
 30
0.0
  0
SPLINE
  5
1AA
330
1F
100
AcDbEntity
  8
0
  6
Continuous
 62
     7
370
    25
100
AcDbSpline
210
0.0
220
0.0
230
1.0
 70
     8
 71
     3
 72
    15
 73
    11
 74
     0
 42
0.00000001
 43
0.00000001
 40
0.0
 40
0.0
 40
0.0
 40
0.0
 40
0.0478890380034085
 40
0.1935590801527027
 40
0.3355480626132341
 40
0.4612063989062982
 40
0.6074579278047259
 40
0.7139272803830491
 40
0.8169654676042853
 40
1.0
 40
1.0
 40
1.0
 40
1.0
 10
179.0436627892641
 20
128.1769219892858
 30
0.0
 10
179.0466085939417
 20
128.0797089522782
 30
0.0
 10
179.0585150190337
 20
127.6867909316508
 30
0.0
 10
179.0787991621888
 20
127.1032588336443
 30
0.0
 10
179.1049569847042
 20
126.4637990268742
 30
0.0
 10
179.1315811273763
 20
125.9344105960295
 30
0.0
 10
179.155942329883
 20
125.5510136248783
 30
0.0
 10
179.1787843103942
 20
125.2877721583176
 30
0.0
 10
179.2040979971598
 20
125.0777600201548
 30
0.0
 10
179.2214470788078
 20
125.0457468699926
 30
0.0
 10
179.232547336991
 20
125.0252642738951
 30
0.0
  0
SPLINE
  5
1AB
330
1F
100
AcDbEntity
  8
0
  6
Continuous
 62
     7
370
    25
100
AcDbSpline
210
0.0
220
0.0
230
1.0
 70
     8
 71
     3
 72
    19
 73
    15
 74
     0
 42
0.00000001
 43
0.00000001
 40
0.0
 40
0.0
 40
0.0
 40
0.0
 40
0.0770505353374608
 40
0.1776836545754067
 40
0.2760982013951022
 40
0.3764958487821196
 40
0.4761449113035559
 40
0.5441919610790388
 40
0.6133582359614277
 40
0.6829756792425107
 40
0.7813646647090063
 40
0.8818435591124951
 40
0.9813245879876362
 40
1.0
 40
1.0
 40
1.0
 40
1.0
 10
179.3305039777043
 20
142.9812240369368
 30
0.0
 10
179.3482048270048
 20
142.9309010025922
 30
0.0
 10
179.3890241617312
 20
142.8148527413763
 30
0.0
 10
179.4575455999414
 20
141.6569069170488
 30
0.0
 10
179.5237936582449
 20
139.7963489684292
 30
0.0
 10
179.5966559286068
 20
137.3944234423063
 30
0.0
 10
179.6601050728519
 20
134.9810603428935
 30
0.0
 10
179.7132081642666
 20
132.8378238209774
 30
0.0
 10
179.7633525702951
 20
131.0371312135345
 30
0.0
 10
179.8206235761155
 20
129.1589176261928
 30
0.0
 10
179.8800574647675
 20
127.3810468698315
 30
0.0
 10
179.9534012934436
 20
126.1637904556797
 30
0.0
 10
180.004150808132
 20
125.66066484942
 30
0.0
 10
180.0316765973921
 20
125.8328584565154
 30
0.0
 10
180.0360272316151
 20
125.8600748023553
 30
0.0
  0
SPLINE
  5
1AC
330
1F
100
AcDbEntity
  8
0
  6
Continuous
 62
     7
370
    25
100
AcDbSpline
210
0.0
220
0.0
230
1.0
 70
     8
 71
     3
 72
    22
 73
    18
 74
     0
 42
0.00000001
 43
0.00000001
 40
0.0
 40
0.0
 40
0.0
 40
0.0
 40
0.0322559774995884
 40
0.1016689078701324
 40
0.1710818376161172
 40
0.2404947673629131
 40
0.3099076971058066
 40
0.3786936808213667
 40
0.4472621115885804
 40
0.5158305418595421
 40
0.5843989721299286
 40
0.6529534196205115
 40
0.7206773543488654
 40
0.788401288220002
 40
0.8561252217588262
 40
0.9269330641999515
 40
1.0
 40
1.0
 40
1.0
 40
1.0
 10
179.8486353369271
 20
143.6379549639898
 30
0.0
 10
179.8521273103687
 20
143.6413594279269
 30
0.0
 10
179.8631338013711
 20
143.6520900942157
 30
0.0
 10
179.8825892610505
 20
143.3982842303366
 30
0.0
 10
179.9068619006291
 20
142.896282459421
 30
0.0
 10
179.9311804439198
 20
142.1479715519692
 30
0.0
 10
179.9546476795178
 20
141.1949479239394
 30
0.0
 10
179.977067939421
 20
140.0614953231085
 30
0.0
 10
180.0010906516949
 20
138.7804258798001
 30
0.0
 10
180.0253942616963
 20
137.3843269356554
 30
0.0
 10
180.0496695034989
 20
135.9104355121457
 30
0.0
 10
180.0725405429869
 20
134.405416196331
 30
0.0
 10
180.0954430763288
 20
132.9112924316747
 30
0.0
 10
180.119600130262
 20
131.4677027728566
 30
0.0
 10
180.1443176072847
 20
130.0926713070688
 30
0.0
 10
180.1693438904163
 20
128.7973917595343
 30
0.0
 10
180.1854720757875
 20
128.0748213394431
 30
0.0
 10
180.1936627892641
 20
127.7078633003675
 30
0.0
  0
SPLINE
  5
1AD
330
1F
100
AcDbEntity
  8
0
  6
Continuous
 62
     7
370
    25
100
AcDbSpline
210
0.0
220
0.0
230
1.0
 70
    24
 71
     3
 72
    10
 73
     6
 74
     0
 42
0.00000001
 43
0.00000001
 40
0.0
 40
0.0
 40
0.0
 40
0.0
 40
0.3294562546722005
 40
0.8318642056942908
 40
1.0
 40
1.0
 40
1.0
 40
1.0
 10
180.1936627892641
 20
127.7078633003674
 30
0.0
 10
180.1936627892641
 20
127.3381103549668
 30
0.0
 10
180.1936627892641
 20
126.4044985753549
 30
0.0
 10
180.1936627892641
 20
125.853122476445
 30
0.0
 10
180.1936627892641
 20
125.8075374891906
 30
0.0
 10
180.1936627892641
 20
125.7961072609707
 30
0.0
  0
SPLINE
  5
1AE
330
1F
100
AcDbEntity
  8
0
  6
Continuous
 62
     7
370
    25
100
AcDbSpline
210
0.0
220
0.0
230
1.0
 70
     8
 71
     3
 72
    18
 73
    14
 74
     0
 42
0.00000001
 43
0.00000001
 40
0.0
 40
0.0
 40
0.0
 40
0.0
 40
0.092027071924573
 40
0.1940458328883521
 40
0.2874258845647118
 40
0.3821940119862819
 40
0.4027152769102296
 40
0.5035065921056981
 40
0.604053356250226
 40
0.7060243116249101
 40
0.8057680385526277
 40
0.9076304505758258
 40
0.9999999999999999
 40
0.9999999999999999
 40
0.9999999999999999
 40
0.9999999999999999
 10
179.4973227834567
 20
143.0291957832485
 30
0.0
 10
179.5181532537866
 20
142.9740419614975
 30
0.0
 10
179.5620758287429
 20
142.8577460818739
 30
0.0
 10
179.6323875877512
 20
141.6858735732396
 30
0.0
 10
179.6958166729967
 20
139.9265146047728
 30
0.0
 10
179.7455867158512
 20
138.2986081682393
 30
0.0
 10
179.7968869496353
 20
136.4978733353915
 30
0.0
 10
179.8477782862798
 20
134.5163113448252
 30
0.0
 10
179.9165470788744
 20
131.8079255460982
 30
0.0
 10
179.9902875490723
 20
129.3554061666042
 30
0.0
 10
180.0564218509392
 20
127.4037159881462
 30
0.0
 10
180.12769837849
 20
126.1171100312055
 30
0.0
 10
180.1724029470438
 20
125.8995640821171
 30
0.0
 10
180.1936627892641
 20
125.7961072609707
 30
0.0
  0
LINE
  5
1AF
330
1F
100
AcDbEntity
  8
0
  6
Continuous
 62
     7
370
    25
100
AcDbLine
 10
180.1936627893
 20
143.3246882077
 30
0.0
 11
180.1936627893
 21
127.7078633004
 31
0.0
  0
LINE
  5
1B0
330
1F
100
AcDbEntity
  8
0
  6
Continuous
 62
     7
370
    25
100
AcDbLine
 10
180.1936627893
 20
125.796107261
 30
0.0
 11
180.1936627893
 21
125.7884805799
 31
0.0
  0
LINE
  5
1B1
330
1F
100
AcDbEntity
  8
0
  6
Continuous
 62
     7
370
    25
100
AcDbLine
 10
181.9436627893
 20
143.9246882077
 30
0.0
 11
181.6936627893
 21
143.9246882077
 31
0.0
  0
LINE
  5
1B2
330
1F
100
AcDbEntity
  8
0
  6
Continuous
 62
     7
370
    25
100
AcDbLine
 10
181.9436627893
 20
143.9246882077
 30
0.0
 11
181.9436627893
 21
142.6214257956
 31
0.0
  0
LINE
  5
1B3
330
1F
100
AcDbEntity
  8
0
  6
Continuous
 62
     7
370
    25
100
AcDbLine
 10
181.6936627893
 20
142.0144725305
 30
0.0
 11
181.6936627893
 21
143.9246882077
 31
0.0
  0
LINE
  5
1B4
330
1F
100
AcDbEntity
  8
0
  6
Continuous
 62
     7
370
    25
100
AcDbLine
 10
181.9436627893
 20
126.2279506198
 30
0.0
 11
181.9436627893
 21
124.9246882077
 31
0.0
  0
LINE
  5
1B5
330
1F
100
AcDbEntity
  8
0
  6
Continuous
 62
     7
370
    25
100
AcDbLine
 10
181.6936627893
 20
124.9246882077
 30
0.0
 11
181.9436627893
 21
124.9246882077
 31
0.0
  0
LINE
  5
1B6
330
1F
100
AcDbEntity
  8
0
  6
Continuous
 62
     7
370
    25
100
AcDbLine
 10
181.6936627893
 20
124.9246882077
 30
0.0
 11
181.6936627893
 21
126.8349038849
 31
0.0
  0
LINE
  5
1B7
330
1F
100
AcDbEntity
  8
0
  6
Continuous
 62
     7
370
    25
100
AcDbLine
 10
181.9436627893
 20
143.9246882077
 30
0.0
 11
184.4936627893
 21
143.9246882077
 31
0.0
  0
LINE
  5
1B8
330
1F
100
AcDbEntity
  8
0
  6
Continuous
 62
     7
370
    25
100
AcDbLine
 10
184.4936627893
 20
124.9246882077
 30
0.0
 11
181.9436627893
 21
124.9246882077
 31
0.0
  0
LINE
  5
1B9
330
1F
100
AcDbEntity
  8
0
  6
Continuous
 62
     7
370
    25
100
AcDbLine
 10
170.0436627893
 20
131.9133263088
 30
0.0
 11
170.0436627893
 21
136.8684252342
 31
0.0
  0
SPLINE
  5
1BA
330
1F
100
AcDbEntity
  8
0
  6
Continuous
 62
     7
370
    25
100
AcDbSpline
210
0.0
220
0.0
230
1.0
 70
     8
 71
     3
 72
     9
 73
     5
 74
     0
 42
0.00000001
 43
0.00000001
 40
0.0
 40
0.0
 40
0.0
 40
0.0
 40
0.5841917497409244
 40
1.0
 40
1.0
 40
1.0
 40
1.0
 10
163.3436627892641
 20
118.7455543494566
 30
0.0
 10
163.3174948254434
 20
118.55447212739
 30
0.0
 10
163.2727013756348
 20
118.2273839373372
 30
0.0
 10
163.0300869581208
 20
118.190164398884
 30
0.0
 10
162.9292058816868
 20
118.1746882077243
 30
0.0
  0
LINE
  5
1BB
330
1F
100
AcDbEntity
  8
0
  6
Continuous
 62
     7
370
    25
100
AcDbLine
 10
163.3436627893
 20
118.7455543495
 30
0.0
 11
163.3436627893
 21
119.4723812235
 31
0.0
  0
LINE
  5
1BC
330
1F
100
AcDbEntity
  8
0
  6
Continuous
 62
     7
370
    25
100
AcDbLine
 10
163.2798964575
 20
120.0129507766
 30
0.0
 11
163.3436627893
 21
119.4723812235
 31
0.0
  0
LINE
  5
1BD
330
1F
100
AcDbEntity
  8
0
  6
Continuous
 62
     7
370
    25
100
AcDbLine
 10
163.3436627893
 20
149.3769951919
 30
0.0
 11
163.2691064897
 21
148.904550186
 31
0.0
  0
LINE
  5
1BE
330
1F
100
AcDbEntity
  8
0
  6
Continuous
 62
     7
370
    25
100
AcDbLine
 10
163.3436627893
 20
149.3769951919
 30
0.0
 11
163.3436627893
 21
150.103822066
 31
0.0
  0
SPLINE
  5
1BF
330
1F
100
AcDbEntity
  8
0
  6
Continuous
 62
     7
370
    25
100
AcDbSpline
210
0.0
220
0.0
230
1.0
 70
     8
 71
     3
 72
     9
 73
     5
 74
     0
 42
0.00000001
 43
0.00000001
 40
0.0
 40
0.0
 40
0.0
 40
0.0
 40
0.5850553834536167
 40
1.0
 40
1.0
 40
1.0
 40
1.0
 10
162.9292058816868
 20
150.6746882077243
 30
0.0
 10
163.065760015711
 20
150.6429897906856
 30
0.0
 10
163.299163788903
 20
150.5888095917931
 30
0.0
 10
163.3306130766283
 20
150.246048807993
 30
0.0
 10
163.3436627892641
 20
150.103822065992
 30
0.0
  0
SPLINE
  5
1C0
330
1F
100
AcDbEntity
  8
0
  6
Continuous
 62
     7
370
    25
100
AcDbSpline
210
0.0
220
0.0
230
1.0
 70
    27
 71
     3
 72
    11
 73
     7
 74
     0
 42
0.00000001
 43
0.00000001
 40
0.0
 40
0.0
 40
0.0
 40
0.0
 40
0.2328716322111443
 40
0.4710265024313165
 40
0.731142121256025
 40
0.9999999999999999
 40
0.9999999999999999
 40
0.9999999999999999
 40
0.9999999999999999
 10
162.9292058816868
 20
150.6746882077243
 30
0.0
 10
162.658809147014
 20
150.6746882077243
 30
0.0
 10
162.1118810948831
 20
150.6746882077243
 30
0.0
 10
161.8106567768995
 20
150.6746882077242
 30
0.0
 10
162.0183085423092
 20
150.6746882077243
 30
0.0
 10
162.6222463740895
 20
150.6746882077243
 30
0.0
 10
162.9292058816868
 20
150.6746882077243
 30
0.0
  0
SPLINE
  5
1C1
330
1F
100
AcDbEntity
  8
0
  6
Continuous
 62
     7
370
    25
100
AcDbSpline
210
0.0
220
0.0
230
1.0
 70
     8
 71
     3
 72
     9
 73
     5
 74
     0
 42
0.00000001
 43
0.00000001
 40
0.0
 40
0.0
 40
0.0
 40
0.0
 40
0.5841917497409198
 40
1.0
 40
1.0
 40
1.0
 40
1.0
 10
163.3436627892641
 20
150.103822065992
 30
0.0
 10
163.3174948254434
 20
150.2949042880585
 30
0.0
 10
163.2727013756348
 20
150.6219924781113
 30
0.0
 10
163.0300869581208
 20
150.6592120165646
 30
0.0
 10
162.9292058816868
 20
150.6746882077243
 30
0.0
  0
LINE
  5
1C2
330
1F
100
AcDbEntity
  8
0
  6
Continuous
 62
     7
370
    25
100
AcDbLine
 10
163.3436627893
 20
150.103822066
 30
0.0
 11
163.3436627893
 21
149.3769951919
 31
0.0
  0
SPLINE
  5
1C3
330
1F
100
AcDbEntity
  8
0
  6
Continuous
 62
     7
370
    25
100
AcDbSpline
210
0.0
220
0.0
230
1.0
 70
     8
 71
     3
 72
     9
 73
     5
 74
     0
 42
0.00000001
 43
0.00000001
 40
0.0
 40
0.0
 40
0.0
 40
0.0
 40
0.5850553834536177
 40
1.0
 40
1.0
 40
1.0
 40
1.0
 10
162.9292058816868
 20
147.6531796596618
 30
0.0
 10
163.065760015711
 20
148.0397261852256
 30
0.0
 10
163.299163788903
 20
148.7004269265504
 30
0.0
 10
163.3306130766283
 20
149.1785857586761
 30
0.0
 10
163.3436627892641
 20
149.3769951919208
 30
0.0
  0
SPLINE
  5
1C4
330
1F
100
AcDbEntity
  8
0
  6
Continuous
 62
     7
370
    25
100
AcDbSpline
210
0.0
220
0.0
230
1.0
 70
     8
 71
     3
 72
    11
 73
     7
 74
     0
 42
0.00000001
 43
0.00000001
 40
0.0
 40
0.0
 40
0.0
 40
0.0
 40
0.2328716322111458
 40
0.4710265024313195
 40
0.7311421212560275
 40
1.0
 40
1.0
 40
1.0
 40
1.0
 10
162.9292058816868
 20
137.4461967557867
 30
0.0
 10
162.658809147014
 20
138.2202991317803
 30
0.0
 10
162.1118810948831
 20
139.786066207941
 30
0.0
 10
161.8106567768995
 20
142.3215051752357
 30
0.0
 10
162.0183085423092
 20
144.9950112557049
 30
0.0
 10
162.6222463740895
 20
146.7574145398002
 30
0.0
 10
162.9292058816868
 20
147.6531796596618
 30
0.0
  0
SPLINE
  5
1C5
330
1F
100
AcDbEntity
  8
0
  6
Continuous
 62
     7
370
    25
100
AcDbSpline
210
0.0
220
0.0
230
1.0
 70
     8
 71
     3
 72
     9
 73
     5
 74
     0
 42
0.00000001
 43
0.00000001
 40
0.0
 40
0.0
 40
0.0
 40
0.0
 40
0.5841917497409279
 40
1.0
 40
1.0
 40
1.0
 40
1.0
 10
163.3436627892641
 20
135.1515150817955
 30
0.0
 10
163.3174948254434
 20
135.6318732073618
 30
0.0
 10
163.2727013756348
 20
136.4541342642481
 30
0.0
 10
163.0300869581208
 20
137.1548382553126
 30
0.0
 10
162.9292058816868
 20
137.4461967557867
 30
0.0
  0
LINE
  5
1C6
330
1F
100
AcDbEntity
  8
0
  6
Continuous
 62
     7
370
    25
100
AcDbLine
 10
163.3436627893
 20
135.1515150818
 30
0.0
 11
163.3436627893
 21
133.6978613337
 31
0.0
  0
SPLINE
  5
1C7
330
1F
100
AcDbEntity
  8
0
  6
Continuous
 62
     7
370
    25
100
AcDbSpline
210
0.0
220
0.0
230
1.0
 70
     8
 71
     3
 72
     9
 73
     5
 74
     0
 42
0.00000001
 43
0.00000001
 40
0.0
 40
0.0
 40
0.0
 40
0.0
 40
0.5850553834536233
 40
1.0
 40
1.0
 40
1.0
 40
1.0
 10
162.9292058816868
 20
131.4031796596619
 30
0.0
 10
163.065760015711
 20
131.8214246022644
 30
0.0
 10
163.299163788903
 20
132.5363055424815
 30
0.0
 10
163.3306130766283
 20
133.3572251584074
 30
0.0
 10
163.3436627892641
 20
133.697861333653
 30
0.0
  0
SPLINE
  5
1C8
330
1F
100
AcDbEntity
  8
0
  6
Continuous
 62
     7
370
    25
100
AcDbSpline
210
0.0
220
0.0
230
1.0
 70
     8
 71
     3
 72
    11
 73
     7
 74
     0
 42
0.00000001
 43
0.00000001
 40
0.0
 40
0.0
 40
0.0
 40
0.0
 40
0.2556279644381
 40
0.5185037642963928
 40
0.7560467972580126
 40
1.0
 40
1.0
 40
1.0
 40
1.0
 10
162.9292058816868
 20
121.1961967557867
 30
0.0
 10
162.6355799215848
 20
122.0471413287542
 30
0.0
 10
162.0400028064492
 20
123.7731573585773
 30
0.0
 10
161.8081138448225
 20
126.4062398867746
 30
0.0
 10
162.0910843032833
 20
128.9899673069452
 30
0.0
 10
162.6473634368476
 20
130.5916677180396
 30
0.0
 10
162.9292058816868
 20
131.4031796596619
 30
0.0
  0
SPLINE
  5
1C9
330
1F
100
AcDbEntity
  8
0
  6
Continuous
 62
     7
370
    25
100
AcDbSpline
210
0.0
220
0.0
230
1.0
 70
     8
 71
     3
 72
     9
 73
     5
 74
     0
 42
0.00000001
 43
0.00000001
 40
0.0
 40
0.0
 40
0.0
 40
0.0
 40
0.5841917497409169
 40
1.0
 40
1.0
 40
1.0
 40
1.0
 10
163.3436627892641
 20
119.4723812235278
 30
0.0
 10
163.3174948254434
 20
119.7616571270275
 30
0.0
 10
163.2727013756348
 20
120.2568299938611
 30
0.0
 10
163.0300869581208
 20
120.9203144464723
 30
0.0
 10
162.9292058816868
 20
121.1961967557867
 30
0.0
  0
LINE
  5
1CA
330
1F
100
AcDbEntity
  8
0
  6
Continuous
 62
     7
370
    25
100
AcDbLine
 10
163.3436627893
 20
119.4723812235
 30
0.0
 11
163.3436627893
 21
118.7455543495
 31
0.0
  0
SPLINE
  5
1CB
330
1F
100
AcDbEntity
  8
0
  6
Continuous
 62
     7
370
    25
100
AcDbSpline
210
0.0
220
0.0
230
1.0
 70
     8
 71
     3
 72
     9
 73
     5
 74
     0
 42
0.00000001
 43
0.00000001
 40
0.0
 40
0.0
 40
0.0
 40
0.0
 40
0.5850553834536151
 40
1.0
 40
1.0
 40
1.0
 40
1.0
 10
162.9292058816868
 20
118.1746882077243
 30
0.0
 10
163.065760015711
 20
118.2063866247629
 30
0.0
 10
163.299163788903
 20
118.2605668236554
 30
0.0
 10
163.3306130766283
 20
118.6033276074556
 30
0.0
 10
163.3436627892641
 20
118.7455543494566
 30
0.0
  0
SPLINE
  5
1CC
330
1F
100
AcDbEntity
  8
0
  6
Continuous
 62
     7
370
    25
100
AcDbSpline
210
0.0
220
0.0
230
1.0
 70
    27
 71
     3
 72
    11
 73
     7
 74
     0
 42
0.00000001
 43
0.00000001
 40
0.0
 40
0.0
 40
0.0
 40
0.0
 40
0.2328716322111445
 40
0.4710265024313164
 40
0.7311421212560258
 40
0.9999999999999999
 40
0.9999999999999999
 40
0.9999999999999999
 40
0.9999999999999999
 10
162.9292058816868
 20
118.1746882077243
 30
0.0
 10
162.658809147014
 20
118.1746882077243
 30
0.0
 10
162.1118810948831
 20
118.1746882077242
 30
0.0
 10
161.8106567768995
 20
118.1746882077243
 30
0.0
 10
162.0183085423092
 20
118.1746882077242
 30
0.0
 10
162.6222463740895
 20
118.1746882077243
 30
0.0
 10
162.9292058816868
 20
118.1746882077243
 30
0.0
  0
LINE
  5
1CD
330
1F
100
AcDbEntity
  8
0
  6
Continuous
 62
     7
370
    25
100
AcDbLine
 10
161.8436627893
 20
150.6246882077
 30
0.0
 11
161.8436627893
 21
118.2246882077
 31
0.0
  0
LINE
  5
1CE
330
1F
100
AcDbEntity
  8
0
  6
Continuous
 62
     7
370
    25
100
AcDbLine
 10
162.9292058817
 20
137.4461967558
 30
0.0
 11
170.2081196968
 21
137.4461967558
 31
0.0
  0
LINE
  5
1CF
330
1F
100
AcDbEntity
  8
0
  6
Continuous
 62
     7
370
    25
100
AcDbLine
 10
170.2081196968
 20
147.6531796597
 30
0.0
 11
162.9292058817
 21
147.6531796597
 31
0.0
  0
SPLINE
  5
1D0
330
1F
100
AcDbEntity
  8
0
  6
Continuous
 62
     7
370
    25
100
AcDbSpline
210
0.0
220
0.0
230
1.0
 70
     8
 71
     3
 72
    11
 73
     7
 74
     0
 42
0.00000001
 43
0.00000001
 40
0.0
 40
0.0
 40
0.0
 40
0.0
 40
0.2328716322111457
 40
0.4710265024313227
 40
0.7311421212560276
 40
0.9999999999999999
 40
0.9999999999999999
 40
0.9999999999999999
 40
0.9999999999999999
 10
170.2081196968414
 20
147.6531796596618
 30
0.0
 10
170.4785164315142
 20
146.8790772836683
 30
0.0
 10
171.025444483645
 20
145.3133102075076
 30
0.0
 10
171.3266688016287
 20
142.7778712402127
 30
0.0
 10
171.1190170362189
 20
140.1043651597437
 30
0.0
 10
170.5150792044387
 20
138.3419618756484
 30
0.0
 10
170.2081196968414
 20
137.4461967557867
 30
0.0
  0
LINE
  5
1D1
330
1F
100
AcDbEntity
  8
0
  6
Continuous
 62
     7
370
    25
100
AcDbLine
 10
179.0436627893
 20
123.8496882077
 30
0.0
 11
179.0436627893
 21
144.9996882077
 31
0.0
  0
LINE
  5
1D2
330
1F
100
AcDbEntity
  8
0
  6
Continuous
 62
     7
370
    25
100
AcDbLine
 10
169.7936627893
 20
135.1515150818
 30
0.0
 11
163.3436627893
 21
135.1515150818
 31
0.0
  0
SPLINE
  5
1D3
330
1F
100
AcDbEntity
  8
0
  6
Continuous
 62
     7
370
    25
100
AcDbSpline
210
0.0
220
0.0
230
1.0
 70
     8
 71
     3
 72
     9
 73
     5
 74
     0
 42
0.00000001
 43
0.00000001
 40
0.0
 40
0.0
 40
0.0
 40
0.0
 40
0.5850553834536166
 40
1.0
 40
1.0
 40
1.0
 40
1.0
 10
170.2081196968414
 20
137.4461967557867
 30
0.0
 10
170.0715655628171
 20
137.0279518131842
 30
0.0
 10
169.8381617896252
 20
136.313070872967
 30
0.0
 10
169.8067125018999
 20
135.4921512570412
 30
0.0
 10
169.7936627892641
 20
135.1515150817955
 30
0.0
  0
LINE
  5
1D4
330
1F
100
AcDbEntity
  8
0
  6
Continuous
 62
     7
370
    25
100
AcDbLine
 10
163.3436627893
 20
133.6978613337
 30
0.0
 11
169.7936627893
 21
133.6978613337
 31
0.0
  0
LINE
  5
1D5
330
1F
100
AcDbEntity
  8
0
  6
Continuous
 62
     7
370
    25
100
AcDbLine
 10
169.7936627893
 20
133.6978613337
 30
0.0
 11
169.7936627893
 21
135.1515150818
 31
0.0
  0
LINE
  5
1D6
330
1F
100
AcDbEntity
  8
0
  6
Continuous
 62
     7
370
    25
100
AcDbLine
 10
170.2081196968
 20
131.4031796597
 30
0.0
 11
162.9292058817
 21
131.4031796597
 31
0.0
  0
SPLINE
  5
1D7
330
1F
100
AcDbEntity
  8
0
  6
Continuous
 62
     7
370
    25
100
AcDbSpline
210
0.0
220
0.0
230
1.0
 70
     8
 71
     3
 72
     9
 73
     5
 74
     0
 42
0.00000001
 43
0.00000001
 40
0.0
 40
0.0
 40
0.0
 40
0.0
 40
0.5841917497409954
 40
1.0
 40
1.0
 40
1.0
 40
1.0
 10
169.7936627892641
 20
133.697861333653
 30
0.0
 10
169.8198307530847
 20
133.2175032080868
 30
0.0
 10
169.8646242028934
 20
132.3952421512006
 30
0.0
 10
170.1072386204073
 20
131.6945381601361
 30
0.0
 10
170.2081196968414
 20
131.4031796596621
 30
0.0
  0
LINE
  5
1D8
330
1F
100
AcDbEntity
  8
0
  6
Continuous
 62
     7
370
    25
100
AcDbLine
 10
162.9292058817
 20
121.1961967558
 30
0.0
 11
170.2081196968
 21
121.1961967558
 31
0.0
  0
SPLINE
  5
1D9
330
1F
100
AcDbEntity
  8
0
  6
Continuous
 62
     7
370
    25
100
AcDbSpline
210
0.0
220
0.0
230
1.0
 70
     8
 71
     3
 72
    11
 73
     7
 74
     0
 42
0.00000001
 43
0.00000001
 40
0.0
 40
0.0
 40
0.0
 40
0.0
 40
0.2379053903768484
 40
0.4814905141303192
 40
0.7366519444348066
 40
1.0
 40
1.0
 40
1.0
 40
1.0
 10
170.2081196968414
 20
131.4031796596621
 30
0.0
 10
170.4837051318144
 20
130.6120964383512
 30
0.0
 10
171.0414553053679
 20
129.0110437411194
 30
0.0
 10
171.3280185300242
 20
126.4539719403356
 30
0.0
 10
171.1031381238262
 20
123.8002390744725
 30
0.0
 10
170.5095830069083
 20
122.0732996100709
 30
0.0
 10
170.208119696842
 20
121.1961967557881
 30
0.0
  0
LINE
  5
1DA
330
1F
100
AcDbEntity
  8
0
  6
Continuous
 62
     7
370
    25
100
AcDbLine
 10
163.3436627893
 20
149.3769951919
 30
0.0
 11
169.7936627893
 21
149.3769951919
 31
0.0
  0
SPLINE
  5
1DB
330
1F
100
AcDbEntity
  8
0
  6
Continuous
 62
     7
370
    25
100
AcDbSpline
210
0.0
220
0.0
230
1.0
 70
     8
 71
     3
 72
     9
 73
     5
 74
     0
 42
0.00000001
 43
0.00000001
 40
0.0
 40
0.0
 40
0.0
 40
0.0
 40
0.5841917497409204
 40
1.0
 40
1.0
 40
1.0
 40
1.0
 10
169.7936627892641
 20
149.3769951919208
 30
0.0
 10
169.8198307530847
 20
149.0877192884211
 30
0.0
 10
169.8646242028934
 20
148.5925464215875
 30
0.0
 10
170.1072386204073
 20
147.9290619689763
 30
0.0
 10
170.2081196968414
 20
147.6531796596618
 30
0.0
  0
LINE
  5
1DC
330
1F
100
AcDbEntity
  8
0
  6
Continuous
 62
     7
370
    25
100
AcDbLine
 10
169.7936627893
 20
119.4723812235
 30
0.0
 11
163.3436627893
 21
119.4723812235
 31
0.0
  0
SPLINE
  5
1DD
330
1F
100
AcDbEntity
  8
0
  6
Continuous
 62
     7
370
    25
100
AcDbSpline
210
0.0
220
0.0
230
1.0
 70
     8
 71
     3
 72
     9
 73
     5
 74
     0
 42
0.00000001
 43
0.00000001
 40
0.0
 40
0.0
 40
0.0
 40
0.0
 40
0.585055383453416
 40
1.0
 40
1.0
 40
1.0
 40
1.0
 10
170.208119696842
 20
121.1961967557881
 30
0.0
 10
170.0715655628175
 20
120.8096502302241
 30
0.0
 10
169.8381617896253
 20
120.1489494888988
 30
0.0
 10
169.8067125018999
 20
119.6707906567728
 30
0.0
 10
169.7936627892641
 20
119.4723812235278
 30
0.0
  0
LINE
  5
1DE
330
1F
100
AcDbEntity
  8
0
  6
Continuous
 62
     7
370
    25
100
AcDbLine
 10
169.7936627893
 20
150.103822066
 30
0.0
 11
163.3436627893
 21
150.103822066
 31
0.0
  0
LINE
  5
1DF
330
1F
100
AcDbEntity
  8
0
  6
Continuous
 62
     7
370
    25
100
AcDbLine
 10
169.7936627893
 20
149.3769951919
 30
0.0
 11
169.7936627893
 21
150.103822066
 31
0.0
  0
LINE
  5
1E0
330
1F
100
AcDbEntity
  8
0
  6
Continuous
 62
     7
370
    25
100
AcDbLine
 10
163.3436627893
 20
118.7455543495
 30
0.0
 11
169.7936627893
 21
118.7455543495
 31
0.0
  0
LINE
  5
1E1
330
1F
100
AcDbEntity
  8
0
  6
Continuous
 62
     7
370
    25
100
AcDbLine
 10
169.7936627893
 20
118.7455543495
 30
0.0
 11
169.7936627893
 21
119.4723812235
 31
0.0
  0
LINE
  5
1E2
330
1F
100
AcDbEntity
  8
0
  6
Continuous
 62
     7
370
    25
100
AcDbLine
 10
162.9292058817
 20
150.6746882077
 30
0.0
 11
170.2081196968
 21
150.6746882077
 31
0.0
  0
SPLINE
  5
1E3
330
1F
100
AcDbEntity
  8
0
  6
Continuous
 62
     7
370
    25
100
AcDbSpline
210
0.0
220
0.0
230
1.0
 70
     8
 71
     3
 72
     9
 73
     5
 74
     0
 42
0.00000001
 43
0.00000001
 40
0.0
 40
0.0
 40
0.0
 40
0.0
 40
0.585055383453618
 40
1.0
 40
1.0
 40
1.0
 40
1.0
 10
170.2081196968414
 20
150.6746882077243
 30
0.0
 10
170.0715655628171
 20
150.6429897906856
 30
0.0
 10
169.8381617896252
 20
150.5888095917931
 30
0.0
 10
169.8067125018999
 20
150.246048807993
 30
0.0
 10
169.7936627892641
 20
150.103822065992
 30
0.0
  0
LINE
  5
1E4
330
1F
100
AcDbEntity
  8
0
  6
Continuous
 62
     7
370
    25
100
AcDbLine
 10
170.2081196968
 20
118.1746882077
 30
0.0
 11
162.9292058817
 21
118.1746882077
 31
0.0
  0
SPLINE
  5
1E5
330
1F
100
AcDbEntity
  8
0
  6
Continuous
 62
     7
370
    25
100
AcDbSpline
210
0.0
220
0.0
230
1.0
 70
     8
 71
     3
 72
     9
 73
     5
 74
     0
 42
0.00000001
 43
0.00000001
 40
0.0
 40
0.0
 40
0.0
 40
0.0
 40
0.5841917497409275
 40
1.0
 40
1.0
 40
1.0
 40
1.0
 10
169.7936627892641
 20
118.7455543494566
 30
0.0
 10
169.8198307530847
 20
118.55447212739
 30
0.0
 10
169.8646242028934
 20
118.2273839373372
 30
0.0
 10
170.1072386204073
 20
118.190164398884
 30
0.0
 10
170.2081196968414
 20
118.1746882077243
 30
0.0
  0
LINE
  5
1E6
330
1F
100
AcDbEntity
  8
0
  6
Continuous
 62
     7
370
    25
100
AcDbLine
 10
137.1436627893
 20
144.7083247773
 30
0.0
 11
137.1436627893
 21
144.6256685528
 31
0.0
  0
LINE
  5
1E7
330
1F
100
AcDbEntity
  8
0
  6
Continuous
 62
     7
370
    25
100
AcDbLine
 10
136.9936627893
 20
144.7698561619
 30
0.0
 11
136.9936627893
 21
144.8807398656
 31
0.0
  0
LINE
  5
1E8
330
1F
100
AcDbEntity
  8
0
  6
Continuous
 62
     7
370
    25
100
AcDbLine
 10
198.8276747666
 20
138.1422018378
 30
0.0
 11
201.0598799562
 21
138.1422018378
 31
0.0
  0
LINE
  5
1E9
330
1F
100
AcDbEntity
  8
0
  6
Continuous
 62
     7
370
    25
100
AcDbLine
 10
198.9945623647
 20
138.4780932468
 30
0.0
 11
199.3634373724
 21
138.4780932468
 31
0.0
  0
ARC
  5
1EA
330
1F
100
AcDbEntity
  8
0
  6
Continuous
 62
     7
370
    25
100
AcDbCircle
 10
127.1936627893
 20
134.4246882077
 30
0.0
 40
9.599999999999975
100
AcDbArc
 50
333.6156702506
 51
90.0
  0
ARC
  5
1EB
330
1F
100
AcDbEntity
  8
0
  6
Continuous
 62
     7
370
    25
100
AcDbCircle
 10
127.1936627893
 20
134.4246882077
 30
0.0
 40
9.599999999999964
100
AcDbArc
 50
90.0
 51
207.1808037905
  0
LINE
  5
1EC
330
1F
100
AcDbEntity
  8
0
  6
Continuous
 62
     7
370
    25
100
AcDbLine
 10
135.4984743885
 20
136.6585423437
 30
0.0
 11
135.248078969
 21
137.3329540476
 31
0.0
  0
SPLINE
  5
1ED
330
1F
100
AcDbEntity
  8
0
  6
Continuous
 62
     7
370
    25
100
AcDbSpline
210
0.0
220
0.0
230
1.0
 70
     8
 71
     3
 72
    17
 73
    13
 74
     0
 42
0.00000001
 43
0.00000001
 40
0.0
 40
0.0
 40
0.0
 40
0.0
 40
0.0315745786373295
 40
0.1396983941247984
 40
0.2479157802996042
 40
0.3574424434008153
 40
0.4669454678949869
 40
0.5775126283427056
 40
0.6884345876604181
 40
0.79990632211484
 40
0.9122376873042581
 40
1.0
 40
1.0
 40
1.0
 40
1.0
 10
135.1365326108248
 20
137.6333915301489
 30
0.0
 10
135.0452722693989
 20
137.9004668296632
 30
0.0
 10
134.6415005107662
 20
139.0821133333617
 30
0.0
 10
133.2173000885523
 20
140.8677619087256
 30
0.0
 10
130.8069912881204
 20
142.5548560157121
 30
0.0
 10
127.9280608223096
 20
143.3360486317931
 30
0.0
 10
124.941494935173
 20
143.1264536054336
 30
0.0
 10
122.175505203745
 20
141.9437070272363
 30
0.0
 10
119.9372940397238
 20
139.8975197158911
 30
0.0
 10
118.514468013319
 20
137.2267410107515
 30
0.0
 10
117.9833969669999
 20
134.4088574744583
 30
0.0
 10
118.4076032953728
 20
132.6600650695514
 30
0.0
 10
118.5936627892641
 20
131.8930340093923
 30
0.0
  0
SPLINE
  5
1EE
330
1F
100
AcDbEntity
  8
0
  6
Continuous
 62
     7
370
    25
100
AcDbSpline
210
0.0
220
0.0
230
1.0
 70
     8
 71
     3
 72
     9
 73
     5
 74
     0
 42
0.00000001
 43
0.00000001
 40
0.0
 40
0.0
 40
0.0
 40
0.0
 40
0.435497244078861
 40
1.0
 40
1.0
 40
1.0
 40
1.0
 10
135.7936627892641
 20
130.9433327679299
 30
0.0
 10
136.0527618891242
 20
131.5986078650568
 30
0.0
 10
136.6477119224091
 20
133.1032674376171
 30
0.0
 10
136.5394316489968
 20
134.7244061108517
 30
0.0
 10
136.4783071362436
 20
135.639543359623
 30
0.0
  0
SPLINE
  5
1EF
330
1F
100
AcDbEntity
  8
0
  6
Continuous
 62
     7
370
    25
100
AcDbSpline
210
0.0
220
0.0
230
1.0
 70
     8
 71
     3
 72
     9
 73
     5
 74
     0
 42
0.00000001
 43
0.00000001
 40
0.0
 40
0.0
 40
0.0
 40
0.0
 40
0.4635163892605574
 40
1.0
 40
1.0
 40
1.0
 40
1.0
 10
136.4783071362438
 20
135.6395433596214
 30
0.0
 10
136.5008061231852
 20
135.0066240377818
 30
0.0
 10
136.5493459104779
 20
133.6411505906632
 30
0.0
 10
136.0575195636611
 20
132.3639655192438
 30
0.0
 10
135.7936627892641
 20
131.6787766605462
 30
0.0
  0
ARC
  5
1F0
330
1F
100
AcDbEntity
  8
0
  6
Continuous
 62
     7
370
    25
100
AcDbCircle
 10
127.1936627893
 20
134.4246882077
 30
0.0
 40
14.25000000000003
100
AcDbArc
 50
307.1216104192
 51
90.0
  0
ARC
  5
1F1
330
1F
100
AcDbEntity
  8
0
  6
Continuous
 62
     7
370
    25
100
AcDbCircle
 10
127.1936627893
 20
134.4246882077
 30
0.0
 40
14.25
100
AcDbArc
 50
90.0
 51
232.8783895808
  0
LINE
  5
1F2
330
1F
100
AcDbEntity
  8
0
  6
Continuous
 62
     7
370
    25
100
AcDbLine
 10
118.7415578175
 20
134.0740542598
 30
0.0
 11
118.7613821849
 21
135.6671052245
 31
0.0
  0
LINE
  5
1F3
330
1F
100
AcDbEntity
  8
0
  6
Continuous
 62
     7
370
    25
100
AcDbLine
 10
125.7806261496
 20
142.8305009776
 30
0.0
 11
127.8250716048
 21
142.8964751793
 31
0.0
  0
SPLINE
  5
1F4
330
1F
100
AcDbEntity
  8
0
  6
Continuous
 62
     7
370
    25
100
AcDbSpline
210
0.0
220
0.0
230
1.0
 70
     8
 71
     3
 72
    23
 73
    19
 74
     0
 42
0.00000001
 43
0.00000001
 40
0.0
 40
0.0
 40
0.0
 40
0.0
 40
0.139857068623884
 40
0.2211081927176876
 40
0.3037640389347351
 40
0.3494719552904375
 40
0.3961493386098296
 40
0.4500910497350846
 40
0.4734091100585245
 40
0.5255771268257814
 40
0.5554722718599405
 40
0.5911810186469326
 40
0.6281365214732901
 40
0.6459855791692686
 40
0.7099403157304784
 40
0.7755420113157603
 40
0.8866419887065693
 40
1.0
 40
1.0
 40
1.0
 40
1.0
 10
138.4243051579334
 20
148.4481026987159
 30
0.0
 10
140.6062716305768
 20
147.8872973357725
 30
0.0
 10
144.0558696243272
 20
147.0006874454974
 30
0.0
 10
148.4529720733548
 20
144.9561002855359
 30
0.0
 10
151.2974316189368
 20
143.1369522993757
 30
0.0
 10
153.4191530770801
 20
141.2315748380445
 30
0.0
 10
154.9624014803503
 20
139.3659411296838
 30
0.0
 10
155.9298019489865
 20
137.4778988932532
 30
0.0
 10
156.4758491902196
 20
135.3240335574831
 30
0.0
 10
156.4816327967788
 20
133.455193712817
 30
0.0
 10
155.9517747026178
 20
131.5004576478893
 30
0.0
 10
155.1945690074249
 20
129.9315346497127
 30
0.0
 10
154.3186958284
 20
128.702675066576
 30
0.0
 10
153.0307181408149
 20
127.2352225724171
 30
0.0
 10
151.2137261887442
 20
125.6581923087709
 30
0.0
 10
147.9436290602244
 20
123.5993295969725
 30
0.0
 10
143.701601085094
 20
121.7248821871893
 30
0.0
 10
140.1951619893132
 20
120.8454256336105
 30
0.0
 10
138.4243051579334
 20
120.4012737167326
 30
0.0
  0
ARC
  5
1F5
330
1F
100
AcDbEntity
  8
0
  6
Continuous
 62
     7
370
    25
100
AcDbCircle
 10
134.694069569
 20
153.6743932208
 30
0.0
 40
6.420963336612858
100
AcDbArc
 50
251.5783948517
 51
305.5171355296
  0
LINE
  5
1F6
330
1F
100
AcDbEntity
  8
0
  6
Continuous
 62
     7
370
    25
100
AcDbLine
 10
141.2065106033
 20
150.6233575921
 30
0.0
 11
141.1727337997
 21
150.6013106113
 31
0.0
  0
LINE
  5
1F7
330
1F
100
AcDbEntity
  8
0
  6
Continuous
 62
     7
370
    25
100
AcDbLine
 10
141.1906139382
 20
118.2284407321
 30
0.0
 11
141.2065106033
 21
118.2260188233
 31
0.0
  0
LINE
  5
1F8
330
1F
100
AcDbEntity
  8
0
  6
Continuous
 62
     7
370
    25
100
AcDbLine
 10
158.3936627893
 20
118.2246882077
 30
0.0
 11
158.3936627893
 21
150.6246882077
 31
0.0
  0
LINE
  5
1F9
330
1F
100
AcDbEntity
  8
0
  6
Continuous
 62
     7
370
    25
100
AcDbLine
 10
132.6650013791
 20
147.5824598289
 30
0.0
 11
133.6688236927
 21
149.9965061419
 31
0.0
  0
ARC
  5
1FA
330
1F
100
AcDbEntity
  8
0
  6
Continuous
 62
     7
370
    25
100
AcDbCircle
 10
141.3433708152
 20
165.4899410772
 30
0.0
 40
17.29003179958584
100
AcDbArc
 50
243.6488590876
 51
260.280235246
  0
SPLINE
  5
1FB
330
1F
100
AcDbEntity
  8
0
  6
Continuous
 62
     7
370
    25
100
AcDbSpline
210
0.0
220
0.0
230
1.0
 70
     8
 71
     3
 72
    18
 73
    14
 74
     0
 42
0.00000001
 43
0.00000001
 40
0.0
 40
0.0
 40
0.0
 40
0.0
 40
0.06351783138304
 40
0.1565090173640055
 40
0.2512441947415194
 40
0.3450932751290165
 40
0.4374124556468258
 40
0.5318533641539448
 40
0.6262897571762182
 40
0.7186055133308135
 40
0.8124620255992662
 40
0.9071956869623996
 40
1.0
 40
1.0
 40
1.0
 40
1.0
 10
161.8436627892641
 20
122.7418202464288
 30
0.0
 10
161.8311084909442
 20
123.196311342228
 30
0.0
 10
161.8001744862566
 20
124.3161851360176
 30
0.0
 10
161.7513650380452
 20
126.7940241815135
 30
0.0
 10
161.6927569153144
 20
129.9062720334155
 30
0.0
 10
161.6359928585479
 20
133.2858581467634
 30
0.0
 10
161.5828483943294
 20
136.7164010665853
 30
0.0
 10
161.5248131176648
 20
140.0317654710995
 30
0.0
 10
161.4667852201134
 20
143.0327904705888
 30
0.0
 10
161.4136538017631
 20
145.5566284671057
 30
0.0
 10
161.3568556188892
 20
147.4574964708429
 30
0.0
 10
161.2983524399866
 20
148.6938512936577
 30
0.0
 10
161.2617695238439
 20
148.8477711899685
 30
0.0
 10
161.2436662441621
 20
148.9239393915586
 30
0.0
  0
SPLINE
  5
1FC
330
1F
100
AcDbEntity
  8
0
  6
Continuous
 62
     7
370
    25
100
AcDbSpline
210
0.0
220
0.0
230
1.0
 70
     8
 71
     3
 72
    21
 73
    17
 74
     0
 42
0.00000001
 43
0.00000001
 40
0.0
 40
0.0
 40
0.0
 40
0.0
 40
0.0246117580046765
 40
0.0997689425453789
 40
0.1756295506349549
 40
0.2500876465066033
 40
0.3245527473596352
 40
0.4004143944967137
 40
0.4755664765171512
 40
0.549493451589123
 40
0.6251194553060138
 40
0.7007418431314534
 40
0.774666076055883
 40
0.849824109347498
 40
0.9256845424967933
 40
1.0
 40
1.0
 40
1.0
 40
1.0
 10
160.493796546255
 20
120.0113879369351
 30
0.0
 10
160.4878473726812
 20
119.9875136386478
 30
0.0
 10
160.4637311451298
 20
119.8907341443229
 30
0.0
 10
160.4193833528303
 20
120.5397185201707
 30
0.0
 10
160.3608434969539
 20
121.9413555592455
 30
0.0
 10
160.3060887165099
 20
124.0837166440108
 30
0.0
 10
160.2513130128058
 20
126.7781195318484
 30
0.0
 10
160.1927708255508
 20
129.9105245354507
 30
0.0
 10
160.1359892162372
 20
133.2847446549803
 30
0.0
 10
160.0828493883897
 20
136.716704961008
 30
0.0
 10
160.0248128485756
 20
140.0316832077914
 30
0.0
 10
159.9667852903715
 20
143.032811949196
 30
0.0
 10
159.9136537827828
 20
145.5566226646406
 30
0.0
 10
159.8568556240427
 20
147.4574980463005
 30
0.0
 10
159.798352438724
 20
148.6938509076456
 30
0.0
 10
159.7617695234259
 20
148.8477710621833
 30
0.0
 10
159.7436662441621
 20
148.9239393915586
 30
0.0
  0
SPLINE
  5
1FD
330
1F
100
AcDbEntity
  8
0
  6
Continuous
 62
     7
370
    25
100
AcDbSpline
210
0.0
220
0.0
230
1.0
 70
     8
 71
     3
 72
    19
 73
    15
 74
     0
 42
0.00000001
 43
0.00000001
 40
0.0
 40
0.0
 40
0.0
 40
0.0
 40
0.0307628319011562
 40
0.1247036155603486
 40
0.2195236253351725
 40
0.3125906011499183
 40
0.4056663326604064
 40
0.5004876411658472
 40
0.5944220470614865
 40
0.6868251621363146
 40
0.7813519342286122
 40
0.8758741867306852
 40
0.9682738743289441
 40
1.0
 40
1.0
 40
1.0
 40
1.0
 10
158.993796546255
 20
120.0113879369352
 30
0.0
 10
158.9878473726818
 20
119.987513640062
 30
0.0
 10
158.963731145133
 20
119.8907341514696
 30
0.0
 10
158.9193833527829
 20
120.5397184146856
 30
0.0
 10
158.8608434971261
 20
121.9413559423273
 30
0.0
 10
158.806088715882
 20
124.0837152470709
 30
0.0
 10
158.7513130151691
 20
126.778124789508
 30
0.0
 10
158.692770816582
 20
129.9105045822328
 30
0.0
 10
158.6359892491124
 20
133.2848177942824
 30
0.0
 10
158.5828492667216
 20
136.7164342793562
 30
0.0
 10
158.524813314539
 20
140.0327198624721
 30
0.0
 10
158.4667835692041
 20
143.0289827724552
 30
0.0
 10
158.4254277708361
 20
145.0076340572265
 30
0.0
 10
158.4008771930987
 20
145.9217877573236
 30
0.0
 10
158.3946021509131
 20
146.1554422600257
 30
0.0
  0
LINE
  5
1FE
330
1F
100
AcDbEntity
  8
0
  6
Continuous
 62
     7
370
    25
100
AcDbLine
 10
158.3941912685
 20
146.1553599501
 30
0.0
 11
158.8633522555
 21
145.4986018955
 31
0.0
  0
SPLINE
  5
1FF
330
1F
100
AcDbEntity
  8
0
  6
Continuous
 62
     7
370
    25
100
AcDbSpline
210
0.0
220
0.0
230
1.0
 70
     8
 71
     3
 72
    37
 73
    33
 74
     0
 42
0.00000001
 43
0.00000001
 40
0.0
 40
0.0
 40
0.0
 40
0.0
 40
0.0352090858901807
 40
0.0688883651579085
 40
0.1018480641694617
 40
0.1355298818787715
 40
0.1687936032200383
 40
0.2020650354006282
 40
0.2357442118557606
 40
0.2687039127684461
 40
0.302385830740281
 40
0.3356492566594151
 40
0.3689209849350375
 40
0.4026000584795181
 40
0.4355597614395773
 40
0.4692417795758341
 40
0.5025049102138056
 40
0.5357769344933353
 40
0.569455905029111
 40
0.6024156101827833
 40
0.6360977283853573
 40
0.6693605638831424
 40
0.7026328840754495
 40
0.7363117515044671
 40
0.7692714589979941
 40
0.8029536771687783
 40
0.8362162176673583
 40
0.8694888336813068
 40
0.903167597905516
 40
0.9361273078851384
 40
0.9698096259260246
 40
1.0
 40
1.0
 40
1.0
 40
1.0
 10
162.4625595869099
 20
120.7402995612475
 30
0.0
 10
163.0751468983061
 20
120.8588889499303
 30
0.0
 10
164.2737050923524
 20
121.0909151132028
 30
0.0
 10
163.7115205418843
 20
123.1900707407411
 30
0.0
 10
163.7662092515885
 20
126.255172801083
 30
0.0
 10
163.6538049739816
 20
130.1345968966355
 30
0.0
 10
163.5891053523063
 20
134.4381473390015
 30
0.0
 10
163.5128587392043
 20
138.7422311163104
 30
0.0
 10
163.4350671702136
 20
142.6120335405143
 30
0.0
 10
163.3643719853855
 20
145.6922837278791
 30
0.0
 10
163.285937252198
 20
147.6634734640471
 30
0.0
 10
163.2121831804576
 20
148.3383155816762
 30
0.0
 10
163.1383574636372
 20
147.6543552574786
 30
0.0
 10
163.0599130840869
 20
145.6747383349255
 30
0.0
 10
162.989391035983
 20
142.5879391607742
 30
0.0
 10
162.910908044684
 20
138.7139777107497
 30
0.0
 10
162.8371695926865
 20
134.4087860368583
 30
0.0
 10
162.7633374074056
 20
130.105221908713
 30
0.0
 10
162.6848953069681
 20
126.2355985834569
 30
0.0
 10
162.614372996315
 20
123.1558481061571
 30
0.0
 10
162.5358887277053
 20
121.1852522669915
 30
0.0
 10
162.4621533683939
 20
120.5110631595348
 30
0.0
 10
162.3883180664294
 20
121.1956767720341
 30
0.0
 10
162.3098773461132
 20
123.1758854040176
 30
0.0
 10
162.2393549931725
 20
126.2631888483042
 30
0.0
 10
162.1608694503516
 20
130.1373067035612
 30
0.0
 10
162.0871369525607
 20
134.4430959401118
 30
0.0
 10
162.0132994533569
 20
138.7447195577876
 30
0.0
 10
161.9348566531548
 20
142.6209193413584
 30
0.0
 10
161.8643470351648
 20
145.6748549837639
 30
0.0
 10
161.7882267498744
 20
147.6770801071269
 30
0.0
 10
161.7411968665323
 20
147.9315468865906
 30
0.0
 10
161.7189674955172
 20
148.0518243793192
 30
0.0
  0
SPLINE
  5
200
330
1F
100
AcDbEntity
  8
0
  6
Continuous
 62
     7
370
    25
100
AcDbSpline
210
0.0
220
0.0
230
1.0
 70
     8
 71
     3
 72
    18
 73
    14
 74
     0
 42
0.00000001
 43
0.00000001
 40
0.0
 40
0.0
 40
0.0
 40
0.0
 40
0.0004268679557563
 40
0.1010233730816048
 40
0.2028441756441406
 40
0.3024920089134989
 40
0.4043253976885043
 40
0.5048851966034649
 40
0.6054825949910452
 40
0.7073030843465398
 40
0.806950926900693
 40
0.9087846164286439
 40
1.0
 40
1.0
 40
1.0
 40
1.0
 10
160.9623911729432
 20
120.7394010098848
 30
0.0
 10
160.9622861060298
 20
120.7384644198877
 30
0.0
 10
160.9374207727438
 20
120.5168092700343
 30
0.0
 10
160.8883631340467
 20
121.3005887598489
 30
0.0
 10
160.8097733272438
 20
123.1511744682367
 30
0.0
 10
160.7392917811922
 20
126.2740447794278
 30
0.0
 10
160.6607897999384
 20
130.1393573827469
 30
0.0
 10
160.5870726813584
 20
134.4478636374102
 30
0.0
 10
160.5132219031906
 20
138.7485964035482
 30
0.0
 10
160.4347849053473
 20
142.6244050589265
 30
0.0
 10
160.3642748524201
 20
145.6773205499804
 30
0.0
 10
160.2881649919132
 20
147.6781202500488
 30
0.0
 10
160.2411538468966
 20
147.9317351678768
 30
0.0
 10
160.2189411547765
 20
148.0515678178746
 30
0.0
  0
SPLINE
  5
201
330
1F
100
AcDbEntity
  8
0
  6
Continuous
 62
     7
370
    25
100
AcDbSpline
210
0.0
220
0.0
230
1.0
 70
     8
 71
     3
 72
    16
 73
    12
 74
     0
 42
0.00000001
 43
0.00000001
 40
0.0
 40
0.0
 40
0.0
 40
0.0
 40
0.0004455311838612
 40
0.1251224841077741
 40
0.2513107677203485
 40
0.3748076238711413
 40
0.5010145495876629
 40
0.6256371775690428
 40
0.7503152361749484
 40
0.8765031301504658
 40
1.0
 40
1.0
 40
1.0
 40
1.0
 10
159.4622740067551
 20
120.7389613466299
 30
0.0
 10
159.4621855299427
 20
120.7381745900501
 30
0.0
 10
159.4373377999811
 20
120.5172227437634
 30
0.0
 10
159.3882851634204
 20
121.3020407122107
 30
0.0
 10
159.3097011680894
 20
123.1535925169561
 30
0.0
 10
159.2392216437395
 20
126.2777253097272
 30
0.0
 10
159.160705298136
 20
130.142536785226
 30
0.0
 10
159.0870342784276
 20
134.4552116112917
 30
0.0
 10
159.013044992587
 20
138.7409547870752
 30
0.0
 10
158.9350861849741
 20
142.6715615792832
 30
0.0
 10
158.8870912115503
 20
144.5630455931369
 30
0.0
 10
158.8633523622287
 20
145.4985946891364
 30
0.0
  0
SPLINE
  5
202
330
1F
100
AcDbEntity
  8
0
  6
Continuous
 62
     7
370
    25
100
AcDbSpline
210
0.0
220
0.0
230
1.0
 70
     8
 71
     3
 72
    17
 73
    13
 74
     0
 42
0.00000001
 43
0.00000001
 40
0.0
 40
0.0
 40
0.0
 40
0.0
 40
0.0919508287866222
 40
0.1937743752999922
 40
0.2934236401496276
 40
0.3952573213245363
 40
0.4958221549963374
 40
0.5964174630565224
 40
0.6982406974143212
 40
0.7978899697864807
 40
0.8997239530266743
 40
0.9999999999999999
 40
0.9999999999999999
 40
0.9999999999999999
 40
0.9999999999999999
 10
162.8307568787037
 20
120.7942582271365
 30
0.0
 10
162.808345275473
 20
120.9184844287615
 30
0.0
 10
162.7611157455948
 20
121.180274941511
 30
0.0
 10
162.6848656717079
 20
123.1955361561585
 30
0.0
 10
162.6143580290739
 20
126.2578440576293
 30
0.0
 10
162.5358684214497
 20
130.1387584395554
 30
0.0
 10
162.4621372766931
 20
134.4426518283612
 30
0.0
 10
162.3882984548968
 20
138.7450986405671
 30
0.0
 10
162.3098595467005
 20
142.6198908822037
 30
0.0
 10
162.239335854191
 20
145.6785699747987
 30
0.0
 10
162.1609286488317
 20
147.724553300242
 30
0.0
 10
162.1117312273879
 20
147.9827730381433
 30
0.0
 10
162.08732213231
 20
148.1108876821313
 30
0.0
  0
SPLINE
  5
203
330
1F
100
AcDbEntity
  8
0
  6
Continuous
 62
     7
370
    25
100
AcDbSpline
210
0.0
220
0.0
230
1.0
 70
     8
 71
     3
 72
    17
 73
    13
 74
     0
 42
0.00000001
 43
0.00000001
 40
0.0
 40
0.0
 40
0.0
 40
0.0
 40
0.0920389609113999
 40
0.1938935066147276
 40
0.2935743655603988
 40
0.3954415067955753
 40
0.4960346259179892
 40
0.5966653722925188
 40
0.6985196045543463
 40
0.7982004727954874
 40
0.9000679150037507
 40
1.0
 40
1.0
 40
1.0
 40
1.0
 10
161.3307299473778
 20
120.7940032153434
 30
0.0
 10
161.3083018157976
 20
120.9186782362286
 30
0.0
 10
161.261053682661
 20
121.1813243672511
 30
0.0
 10
161.1847935851622
 20
123.1980235553767
 30
0.0
 10
161.114286090199
 20
126.261300813947
 30
0.0
 10
161.0357910601427
 20
130.1427833386646
 30
0.0
 10
160.9620723543214
 20
134.446897648492
 30
0.0
 10
160.8882210655254
 20
138.7491112819337
 30
0.0
 10
160.8097876336054
 20
142.6233734934279
 30
0.0
 10
160.7392639911649
 20
145.6809253809672
 30
0.0
 10
160.6609474711238
 20
147.7238840632683
 30
0.0
 10
160.6118451130711
 20
147.9810824671862
 30
0.0
 10
160.5875293919869
 20
148.1084483392339
 30
0.0
  0
SPLINE
  5
204
330
1F
100
AcDbEntity
  8
0
  6
Continuous
 62
     7
370
    25
100
AcDbSpline
210
0.0
220
0.0
230
1.0
 70
     8
 71
     3
 72
    15
 73
    11
 74
     0
 42
0.00000001
 43
0.00000001
 40
0.0
 40
0.0
 40
0.0
 40
0.0
 40
0.1153735800446503
 40
0.2429679970767419
 40
0.3678409997054941
 40
0.4954542742810516
 40
0.6214655818976192
 40
0.7475329606201702
 40
0.8751269835085224
 40
1.0
 40
1.0
 40
1.0
 40
1.0
 10
159.8307029668693
 20
120.7937484000203
 30
0.0
 10
159.8082583574113
 20
120.9188771234394
 30
0.0
 10
159.7609917145365
 20
121.1823887115702
 30
0.0
 10
159.684721000048
 20
123.2004505043052
 30
0.0
 10
159.6142160174101
 20
126.2649849685918
 30
0.0
 10
159.5357065538689
 20
130.1459460390211
 30
0.0
 10
159.4620337256846
 20
134.4543167271621
 30
0.0
 10
159.3880448977377
 20
138.7412101574087
 30
0.0
 10
159.3100859734157
 20
142.6715105155037
 30
0.0
 10
159.262091014581
 20
144.5630329811572
 30
0.0
 10
159.2383521720739
 20
145.4986011116655
 30
0.0
  0
LINE
  5
205
330
1F
100
AcDbEntity
  8
0
  6
Continuous
 62
     7
370
    25
100
AcDbLine
 10
159.2383522671
 20
145.4986024429
 30
0.0
 11
159.7071021067
 21
146.1554441758
 31
0.0
  0
SPLINE
  5
206
330
1F
100
AcDbEntity
  8
0
  6
Continuous
 62
     7
370
    25
100
AcDbSpline
210
0.0
220
0.0
230
1.0
 70
     8
 71
     3
 72
    21
 73
    17
 74
     0
 42
0.00000001
 43
0.00000001
 40
0.0
 40
0.0
 40
0.0
 40
0.0
 40
0.0407370019080147
 40
0.1163784515492284
 40
0.1920142175021194
 40
0.2659517693122273
 40
0.3411258270392999
 40
0.417000370159832
 40
0.4914691680621305
 40
0.5659519656591075
 40
0.6418285874497864
 40
0.716992437311386
 40
0.7909346980969427
 40
0.8866316053687001
 40
0.9814257525928665
 40
1.0
 40
1.0
 40
1.0
 40
1.0
 10
161.7995663943443
 20
120.0268576333109
 30
0.0
 10
161.78976687789
 20
120.0295271772521
 30
0.0
 10
161.7617713824566
 20
120.0371535948987
 30
0.0
 10
161.7122445652308
 20
120.9294234684074
 30
0.0
 10
161.654233674017
 20
122.5864898567158
 30
0.0
 10
161.601100730754
 20
124.9281600900902
 30
0.0
 10
161.5442991740649
 20
127.7847113435404
 30
0.0
 10
161.4857584601124
 20
131.0216572742969
 30
0.0
 10
161.4310150734938
 20
134.4347321610913
 30
0.0
 10
161.3762270669522
 20
137.8471139399829
 30
0.0
 10
161.3176902588503
 20
141.0830783257962
 30
0.0
 10
161.2608936978483
 20
143.9348183863822
 30
0.0
 10
161.2030965091783
 20
146.490259709402
 30
0.0
 10
161.133773595196
 20
148.2813648654923
 30
0.0
 10
161.0818570549669
 20
149.0962123703696
 30
0.0
 10
161.0539172845478
 20
148.8582871709702
 30
0.0
 10
161.0493396400469
 20
148.8193055700362
 30
0.0
  0
SPLINE
  5
207
330
1F
100
AcDbEntity
  8
0
  6
Continuous
 62
     7
370
    25
100
AcDbSpline
210
0.0
220
0.0
230
1.0
 70
     8
 71
     3
 72
    18
 73
    14
 74
     0
 42
0.00000001
 43
0.00000001
 40
0.0
 40
0.0
 40
0.0
 40
0.0
 40
0.0514197086447507
 40
0.1470145204108676
 40
0.2426021491957234
 40
0.336043594081567
 40
0.4310477212129334
 40
0.5269371138918308
 40
0.6210499416031665
 40
0.7151804619708954
 40
0.8110724816497029
 40
0.9060637081957016
 40
1.0
 40
1.0
 40
1.0
 40
1.0
 10
160.2995299688934
 20
120.0269477397059
 30
0.0
 10
160.2897424300474
 20
120.029630459307
 30
0.0
 10
160.261758795613
 20
120.0373006454272
 30
0.0
 10
160.2122444636497
 20
120.9294528216401
 30
0.0
 10
160.154233678948
 20
122.5864791939101
 30
0.0
 10
160.1011008082811
 20
124.9281739238114
 30
0.0
 10
160.0442988509533
 20
127.7846656330551
 30
0.0
 10
159.9857596755581
 20
131.0218262964115
 30
0.0
 10
159.9310106301505
 20
134.4341150087383
 30
0.0
 10
159.8762437948937
 20
137.8494371410948
 30
0.0
 10
159.8176267783232
 20
141.0742621134162
 30
0.0
 10
159.7610292327228
 20
143.9721080054926
 30
0.0
 10
159.7250107753112
 20
145.4303793682032
 30
0.0
 10
159.7071021066572
 20
146.1554436968599
 30
0.0
  0
ELLIPSE
  5
208
330
1F
100
AcDbEntity
  8
0
  6
Continuous
 62
     7
370
    25
100
AcDbEllipse
 10
166.7741014811
 20
134.4246882077
 30
0.0
 11
-7.401257687792878
 21
14.35777723298276
 31
0.0
210
0.0
220
0.0
230
1.0
 40
0.2737224856
 41
0.1519163654195826
 42
0.4881424368787619
  0
ELLIPSE
  5
209
330
1F
100
AcDbEntity
  8
0
  6
Continuous
 62
     7
370
    25
100
AcDbEllipse
 10
151.3355260329
 20
134.4246882077
 30
0.0
 11
7.392868934794819
 21
14.35826292490981
 31
0.0
210
0.0
220
0.0
230
1.0
 40
0.2735670702
 41
5.794804357670536
 42
6.13102899531941
  0
LINE
  5
20A
330
1F
100
AcDbEntity
  8
0
  6
Continuous
 62
     7
370
    25
100
AcDbLine
 10
158.8633403756
 20
148.3105217517
 30
0.0
 11
159.2383403872
 21
148.3105217515
 31
0.0
  0
LINE
  5
20B
330
1F
100
AcDbEntity
  8
0
  6
Continuous
 62
     7
370
    25
100
AcDbLine
 10
158.8633522555
 20
145.4986018955
 30
0.0
 11
159.2383522671
 21
145.4986024429
 31
0.0
  0
LINE
  5
20C
330
1F
100
AcDbEntity
  8
0
  6
Continuous
 62
     7
370
    25
100
AcDbLine
 10
158.8633403756
 20
148.3105217517
 30
0.0
 11
158.8633522555
 21
145.4986018955
 31
0.0
  0
LINE
  5
20D
330
1F
100
AcDbEntity
  8
0
  6
Continuous
 62
     7
370
    25
100
AcDbLine
 10
159.2383403872
 20
148.3105217514
 30
0.0
 11
159.2383522672
 21
145.4985979004
 31
0.0
  0
ARC
  5
20E
330
1F
100
AcDbEntity
  8
0
  6
Continuous
 62
     7
370
    25
100
AcDbCircle
 10
141.2008848192
 20
103.2394158421
 30
0.0
 40
14.98660403711768
100
AcDbArc
 50
89.9784918789
 51
111.1495615478
  0
SPLINE
  5
20F
330
1F
100
AcDbEntity
  8
0
  6
Continuous
 62
     7
370
    25
100
AcDbSpline
210
0.0
220
0.0
230
1.0
 70
     8
 71
     3
 72
    10
 73
     6
 74
     0
 42
0.00000001
 43
0.00000001
 40
0.0
 40
0.0
 40
0.0
 40
0.0
 40
0.275785417752133
 40
0.560018797457451
 40
1.0
 40
1.0
 40
1.0
 40
1.0
 10
133.6688236926879
 20
149.9965061419049
 30
0.0
 10
133.8945129389554
 20
150.3179936708219
 30
0.0
 10
134.3528048288022
 20
150.9708166547534
 30
0.0
 10
134.8541675659856
 20
151.7693346170212
 30
0.0
 10
134.9825367475405
 20
151.8749030995633
 30
0.0
 10
135.0605247199652
 20
151.9390389911043
 30
0.0
  0
ARC
  5
210
330
1F
100
AcDbEntity
  8
0
  6
Continuous
 62
     7
370
    25
100
AcDbCircle
 10
141.2008717796
 20
165.6098306815
 30
0.0
 40
14.98647415023395
100
AcDbArc
 50
245.8123806786
 51
270.02155816
  0
ARC
  5
211
330
1F
100
AcDbEntity
  8
0
  6
Continuous
 62
     7
370
    25
100
AcDbCircle
 10
127.1936627893
 20
134.4246882077
 30
0.0
 40
19.20000000000002
100
AcDbArc
 50
65.8119747904
 51
243.3899021893
  0
LINE
  5
212
330
1F
100
AcDbEntity
  8
0
  6
Continuous
 62
     7
370
    25
100
AcDbLine
 10
135.06052472
 20
151.9390389911
 30
0.0
 11
135.0605454542
 21
151.939029678
 31
0.0
  0
ARC
  5
213
330
1F
100
AcDbEntity
  8
0
  6
Continuous
 62
     7
370
    25
100
AcDbCircle
 10
127.1936627893
 20
134.4246882077
 30
0.0
 40
25.375
100
AcDbArc
 50
39.6743748818
 51
250.1891397038
  0
ARC
  5
214
330
1F
100
AcDbEntity
  8
0
  6
Continuous
 62
     7
370
    25
100
AcDbCircle
 10
127.1936627893
 20
134.4246882077
 30
0.0
 40
25.37500000000003
100
AcDbArc
 50
289.8108602962
 51
320.3256251182
  0
ARC
  5
215
330
1F
100
AcDbEntity
  8
0
  6
Continuous
 62
     8
370
    25
100
AcDbCircle
 10
127.2416030429
 20
-78.3514565971
 30
0.0
 40
8.552179660359903
100
AcDbArc
 50
269.6788200558
 51
359.6965866989
  0
ARC
  5
216
330
1F
100
AcDbEntity
  8
0
  6
Continuous
 62
     8
370
    25
100
AcDbCircle
 10
127.1457225357
 20
-78.3514565971
 30
0.0
 40
8.552179660359885
100
AcDbArc
 50
180.3034133011
 51
270.3211799442
  0
ARC
  5
217
330
1F
100
AcDbEntity
  8
0
  6
Continuous
 62
     8
370
    25
100
AcDbCircle
 10
127.2899008235
 20
-78.828668565
 30
0.0
 40
9.9559975520533
100
AcDbArc
 50
269.4461510226
 51
31.3357400043
  0
ARC
  5
218
330
1F
100
AcDbEntity
  8
0
  6
Continuous
 62
     8
370
    25
100
AcDbCircle
 10
127.097424755
 20
-78.828668565
 30
0.0
 40
9.955997552053294
100
AcDbArc
 50
148.6642599957
 51
270.5538489774
  0
LINE
  5
219
330
1F
100
AcDbEntity
  8
0
  6
Continuous
 62
     8
370
    25
100
AcDbLine
 10
137.4307945389
 20
-81.1170308975
 30
0.0
 11
137.7558007598
 21
-81.2138132686
 31
0.0
  0
ELLIPSE
  5
21A
330
1F
100
AcDbEntity
  8
0
  6
Continuous
 62
     8
370
    25
100
AcDbEllipse
 10
163.611936715
 20
139.2525147832
 30
0.0
 11
35.70262486333175
 21
-0.6260506459064459
 31
0.0
210
0.0
220
0.0
230
1.0
 40
0.0552146892
 41
6.257836912924514
 42
6.344163104880463
  0
ARC
  5
21B
330
1F
100
AcDbEntity
  8
0
  6
Continuous
 62
     8
370
    25
100
AcDbCircle
 10
199.2925196569
 20
130.7716058531
 30
0.0
 40
0.4990247297584368
100
AcDbArc
 50
205.6099242454
 51
271.1133447788
  0
ELLIPSE
  5
21C
330
1F
100
AcDbEntity
  8
0
  6
Continuous
 62
     8
370
    25
100
AcDbEllipse
 10
213.7884688666
 20
137.8030681629
 30
0.0
 11
14.99999386323825
 21
-0.2542085132690772
 31
0.0
210
0.0
220
0.0
230
1.0
 40
0.0533752749
 41
3.142300805938025
 42
3.781909355561447
  0
ELLIPSE
  5
21D
330
1F
100
AcDbEntity
  8
0
  6
Continuous
 62
     8
370
    25
100
AcDbEllipse
 10
163.6032105118
 20
138.7533517122
 30
0.0
 11
35.20262413736901
 21
-0.6261054031506035
 31
0.0
210
0.0
220
0.0
230
1.0
 40
0.0559984374
 41
6.279995344131931
 42
6.740065190006129
  0
ELLIPSE
  5
21E
330
1F
100
AcDbEntity
  8
0
  6
Continuous
 62
     8
370
    25
100
AcDbEllipse
 10
163.6032105118
 20
130.0960247033
 30
0.0
 11
35.20262413736901
 21
0.6261054031506319
 31
0.0
210
0.0
220
0.0
230
1.0
 40
0.0559984374
 41
5.826305424353228
 42
6.282671429672336
  0
LINE
  5
21F
330
1F
100
AcDbEntity
  8
0
  6
Continuous
 62
     8
370
    25
100
AcDbLine
 10
194.9023889925
 20
124.0960150795
 30
0.0
 11
194.9023889925
 21
122.4528747454
 31
0.0
  0
LINE
  5
220
330
1F
100
AcDbEntity
  8
0
  6
Continuous
 62
     8
370
    25
100
AcDbLine
 10
194.9023889925
 20
146.39650167
 30
0.0
 11
194.9023889925
 21
144.7533613359
 31
0.0
  0
LINE
  5
221
330
1F
100
AcDbEntity
  8
0
  6
Continuous
 62
     8
370
    25
100
AcDbLine
 10
198.9285676021
 20
145.6922595586
 30
0.0
 11
198.9285676021
 21
146.326224461
 31
0.0
  0
LINE
  5
222
330
1F
100
AcDbEntity
  8
0
  6
Continuous
 62
     8
370
    25
100
AcDbLine
 10
198.9285676021
 20
122.5231519545
 30
0.0
 11
198.9285676021
 21
124.1534615823
 31
0.0
  0
LINE
  5
223
330
1F
100
AcDbEntity
  8
0
  6
Continuous
 62
     8
370
    25
100
AcDbLine
 10
208.7523889925
 20
140.9750576528
 30
0.0
 11
208.7523889925
 21
143.3240557096
 31
0.0
  0
LINE
  5
224
330
1F
100
AcDbEntity
  8
0
  6
Continuous
 62
     8
370
    25
100
AcDbLine
 10
208.7523889925
 20
125.5253207059
 30
0.0
 11
208.7523889925
 21
127.8743187627
 31
0.0
  0
LINE
  5
225
330
1F
100
AcDbEntity
  8
0
  6
Continuous
 62
     8
370
    25
100
AcDbLine
 10
204.3817067464
 20
143.4003462519
 30
0.0
 11
204.3817067464
 21
141.472580789
 31
0.0
  0
SPLINE
  5
226
330
1F
100
AcDbEntity
  8
0
  6
Continuous
 62
     8
370
    25
100
AcDbSpline
210
0.0
220
0.0
230
1.0
 70
     8
 71
     3
 72
    10
 73
     6
 74
     0
 42
0.00000001
 43
0.00000001
 40
0.0
 40
0.0
 40
0.0
 40
0.0
 40
0.0551125353459253
 40
0.5124302691102054
 40
1.0
 40
1.0
 40
1.0
 40
1.0
 10
202.7557505473482
 20
143.8050766088345
 30
0.0
 10
202.7084318482379
 20
143.8379602908323
 30
0.0
 10
202.2684678079909
 20
144.1437091356225
 30
0.0
 10
201.468047973532
 20
144.3174463016041
 30
0.0
 10
201.1129346140039
 20
144.3635641889161
 30
0.0
 10
200.9296931893715
 20
144.3873613994274
 30
0.0
  0
LWPOLYLINE
  5
227
330
1F
100
AcDbEntity
  8
0
  6
Continuous
 62
     8
370
    25
100
AcDbPolyline
 90
        3
 70
   128
 43
0.0
 10
200.9296931894
 20
144.3873613994
 10
200.862084504
 20
144.733790977
 10
200.8245984289
 20
144.8475737406
  0
LINE
  5
228
330
1F
100
AcDbEntity
  8
0
  6
Continuous
 62
     8
370
    25
100
AcDbLine
 10
203.4482865326
 20
127.3619515676
 30
0.0
 11
203.4482865325
 21
125.4327372531
 31
0.0
  0
SPLINE
  5
229
330
1F
100
AcDbEntity
  8
0
  6
Continuous
 62
     8
370
    25
100
AcDbSpline
210
0.0
220
0.0
230
1.0
 70
     8
 71
     3
 72
    10
 73
     6
 74
     0
 42
0.00000001
 43
0.00000001
 40
0.0
 40
0.0
 40
0.0
 40
0.0
 40
0.421724640328784
 40
0.7981219975484394
 40
0.9999999999999999
 40
0.9999999999999999
 40
0.9999999999999999
 40
0.9999999999999999
 10
200.8936627892641
 20
124.7415625221508
 30
0.0
 10
200.9650806406516
 20
124.7171119182716
 30
0.0
 10
201.1002402987775
 20
124.6708386798995
 30
0.0
 10
201.6588413612682
 20
124.7694555747416
 30
0.0
 10
202.0263760584575
 20
125.0106993480035
 30
0.0
 10
202.1546837396675
 20
125.0949184146392
 30
0.0
  0
LINE
  5
22A
330
1F
100
AcDbEntity
  8
0
  6
Continuous
 62
     8
370
    25
100
AcDbLine
 10
210.8486677788
 20
128.4995604366
 30
0.0
 11
210.8486677788
 21
140.3498159789
 31
0.0
  0
LINE
  5
22B
330
1F
100
AcDbEntity
  8
0
  6
Continuous
 62
     8
370
    25
100
AcDbLine
 10
170.7936627893
 20
139.5184507912
 30
0.0
 11
170.7936627893
 21
129.4144982515
 31
0.0
  0
LINE
  5
22C
330
1F
100
AcDbEntity
  8
0
  6
Continuous
 62
     8
370
    25
100
AcDbLine
 10
171.1290846905
 20
127.2496882077
 30
0.0
 11
171.1290846905
 21
141.5996882077
 31
0.0
  0
ARC
  5
22D
330
1F
100
AcDbEntity
  8
0
  6
Continuous
 62
     8
370
    25
100
AcDbCircle
 10
127.1936627893
 20
134.4246882077
 30
0.0
 40
13.25000000000002
100
AcDbArc
 50
90.0
 51
229.5294884505
  0
ARC
  5
22E
330
1F
100
AcDbEntity
  8
0
  6
Continuous
 62
     8
370
    25
100
AcDbCircle
 10
127.1936627893
 20
134.4246882077
 30
0.0
 40
13.25000000000003
100
AcDbArc
 50
310.4705115495
 51
90.0
  0
ARC
  5
22F
330
1F
100
AcDbEntity
  8
0
  6
Continuous
 62
     8
370
    25
100
AcDbCircle
 10
133.8726006429
 20
113.112687747
 30
0.0
 40
8.593107670123246
100
AcDbArc
 50
58.0153206858
 51
77.0818735329
  0
SPLINE
  5
230
330
1F
100
AcDbEntity
  8
0
  6
Continuous
 62
     8
370
    25
100
AcDbSpline
210
0.0
220
0.0
230
1.0
 70
     8
 71
     3
 72
    10
 73
     6
 74
     0
 42
0.00000001
 43
0.00000001
 40
0.0
 40
0.0
 40
0.0
 40
0.0
 40
0.4132973569192814
 40
0.868298422884954
 40
1.0
 40
1.0
 40
1.0
 40
1.0
 10
141.1727337996551
 20
150.6013106112662
 30
0.0
 10
141.0255560251417
 20
150.5267484197942
 30
0.0
 10
140.7163495244122
 20
150.3701003498801
 30
0.0
 10
139.5511827465071
 20
149.3336579353366
 30
0.0
 10
138.6308901854967
 20
148.6104472646396
 30
0.0
 10
138.4243051579334
 20
148.4481026987159
 30
0.0
  0
SPLINE
  5
231
330
1F
100
AcDbEntity
  8
0
  6
Continuous
 62
     8
370
    25
100
AcDbSpline
210
0.0
220
0.0
230
1.0
 70
     8
 71
     3
 72
    12
 73
     8
 74
     0
 42
0.00000001
 43
0.00000001
 40
0.0
 40
0.0
 40
0.0
 40
0.0
 40
0.2298983238880666
 40
0.4658043110208699
 40
0.696965569363813
 40
0.934894851466782
 40
0.9999999999999999
 40
0.9999999999999999
 40
0.9999999999999999
 40
0.9999999999999999
 10
138.4243051579334
 20
120.4012737167327
 30
0.0
 10
138.7789292106847
 20
120.1193173568378
 30
0.0
 10
139.4974442906106
 20
119.5480366022085
 30
0.0
 10
140.2831468719897
 20
118.8751460270998
 30
0.0
 10
140.8538641778667
 20
118.4075439282104
 30
0.0
 10
141.1133728178144
 20
118.2330334620819
 30
0.0
 10
141.1769539166008
 20
118.2292529522172
 30
0.0
 10
141.1906139382416
 20
118.2284407321149
 30
0.0
  0
ARC
  5
232
330
1F
100
AcDbEntity
  8
0
  6
Continuous
 62
     8
370
    25
100
AcDbCircle
 10
127.1936627893
 20
134.4246882077
 30
0.0
 40
16.86443661971832
100
AcDbArc
 50
67.4212070912
 51
239.3395775105
  0
ARC
  5
233
330
1F
100
AcDbEntity
  8
0
  6
Continuous
 62
     8
370
    25
100
AcDbCircle
 10
141.2502232674
 20
103.7358460969
 30
0.0
 40
16.90332188985115
100
AcDbArc
 50
99.6239699431
 51
108.8329440928
  0
ARC
  5
234
330
1F
100
AcDbEntity
  8
0
  6
Continuous
 62
     8
370
    25
100
AcDbCircle
 10
127.1936627893
 20
134.4246882077
 30
0.0
 40
24.76305823079826
100
AcDbArc
 50
290.3217412557
 51
319.140960131
  0
ARC
  5
235
330
1F
100
AcDbEntity
  8
0
  6
Continuous
 62
     8
370
    25
100
AcDbCircle
 10
127.1936627893
 20
134.4246882077
 30
0.0
 40
24.76305823079826
100
AcDbArc
 50
40.859039869
 51
249.6782587443
  0
ENDSEC
  0
SECTION
  2
OBJECTS
  0
DICTIONARY
  5
C
330
0
100
AcDbDictionary
281
     1
  3
ACAD_GROUP
350
D
  3
ACAD_LAYOUT
350
1A
  3
ACAD_MLINESTYLE
350
17
  3
ACAD_PLOTSETTINGS
350
19
  3
ACAD_PLOTSTYLENAME
350
E
  3
ACAD_SCALELIST
350
47
  3
DWGPROPS
350
236
  0
DICTIONARY
  5
D
102
{ACAD_REACTORS
330
C
102
}
330
C
100
AcDbDictionary
281
     1
  0
DICTIONARY
  5
1A
102
{ACAD_REACTORS
330
C
102
}
330
C
100
AcDbDictionary
281
     1
  3
Layout1
350
1E
  3
Layout2
350
26
  3
Model
350
22
  0
DICTIONARY
  5
17
102
{ACAD_REACTORS
330
C
102
}
330
C
100
AcDbDictionary
281
     1
  3
Standard
350
18
  0
DICTIONARY
  5
19
102
{ACAD_REACTORS
330
C
102
}
330
C
100
AcDbDictionary
281
     1
  0
ACDBDICTIONARYWDFLT
  5
E
102
{ACAD_REACTORS
330
C
102
}
330
C
100
AcDbDictionary
281
     1
  3
Normal
350
F
100
AcDbDictionaryWithDefault
340
F
  0
DICTIONARY
  5
47
102
{ACAD_REACTORS
330
C
102
}
330
C
100
AcDbDictionary
281
     1
  3
A0
350
48
  3
A1
350
49
  3
A2
350
4A
  3
A3
350
4B
  3
A4
350
4C
  3
A5
350
4D
  3
A6
350
4E
  3
A7
350
4F
  3
A8
350
50
  3
A9
350
51
  3
B0
350
52
  3
B1
350
53
  3
B2
350
54
  3
B3
350
55
  3
B4
350
56
  3
B5
350
57
  3
B6
350
58
  3
B7
350
59
  3
B8
350
5A
  3
B9
350
5B
  3
C0
350
5C
  3
C1
350
5D
  3
C2
350
5E
  3
C3
350
5F
  3
C4
350
60
  3
C5
350
61
  3
C6
350
62
  3
C7
350
63
  3
C8
350
64
  3
C9
350
65
  3
D0
350
66
  3
D1
350
67
  3
D2
350
68
  0
XRECORD
  5
236
102
{ACAD_REACTORS
330
C
102
}
330
C
100
AcDbXrecord
280
     1
  1
DWGPROPS COOKIE
  2

  3

  4

  6

  7

  8
DS-1
  9

300
=
301
=
302
=
303
=
304
=
305
=
306
=
307
=
308
=
309
=
 40
0.0
 41
2460383.510639236
 42
2460383.510639826
  1

 90
        0
  0
LAYOUT
  5
1E
102
{ACAD_REACTORS
330
1A
102
}
330
1A
100
AcDbPlotSettings
  1

  2
none_device
  4

  6

 40
0.0
 41
0.0
 42
0.0
 43
0.0
 44
0.0
 45
0.0
 46
0.0
 47
0.0
 48
0.0
 49
0.0
140
0.0
141
0.0
142
1.0
143
1.0
 70
   688
 72
     1
 73
     0
 74
     5
  7

 75
    16
147
1.0
148
0.0
149
0.0
100
AcDbLayout
  1
Layout1
 70
     1
 71
     1
 10
0.0
 20
0.0
 11
420.0
 21
297.0
 12
0.0
 22
0.0
 32
0.0
 14
1.0000000000E+20
 24
1.0000000000E+20
 34
1.0000000000E+20
 15
-1.0000000000E+20
 25
-1.0000000000E+20
 35
-1.0000000000E+20
146
0.0
 13
0.0
 23
0.0
 33
0.0
 16
1.0
 26
0.0
 36
0.0
 17
0.0
 27
1.0
 37
0.0
 76
     0
330
1B
  0
LAYOUT
  5
26
102
{ACAD_REACTORS
330
1A
102
}
330
1A
100
AcDbPlotSettings
  1

  2
none_device
  4

  6

 40
0.0
 41
0.0
 42
0.0
 43
0.0
 44
0.0
 45
0.0
 46
0.0
 47
0.0
 48
0.0
 49
0.0
140
0.0
141
0.0
142
1.0
143
1.0
 70
   688
 72
     1
 73
     0
 74
     5
  7

 75
    16
147
1.0
148
0.0
149
0.0
100
AcDbLayout
  1
Layout2
 70
     1
 71
     2
 10
0.0
 20
0.0
 11
0.0
 21
0.0
 12
0.0
 22
0.0
 32
0.0
 14
0.0
 24
0.0
 34
0.0
 15
0.0
 25
0.0
 35
0.0
146
0.0
 13
0.0
 23
0.0
 33
0.0
 16
1.0
 26
0.0
 36
0.0
 17
0.0
 27
1.0
 37
0.0
 76
     0
330
23
  0
LAYOUT
  5
22
102
{ACAD_REACTORS
330
1A
102
}
330
1A
100
AcDbPlotSettings
  1

  2
none_device
  4
Letter_(8.50_x_11.00_Inches)
  6

 40
6.35
 41
6.35
 42
6.35000508
 43
6.35000508
 44
215.9
 45
279.4
 46
0.0
 47
0.0
 48
0.0
 49
0.0
140
0.0
141
0.0
142
1.0
143
1.0
 70
  1712
 72
     1
 73
     0
 74
     0
  7

 75
     0
147
1.0
148
0.0
149
0.0
100
AcDbLayout
  1
Model
 70
     1
 71
     0
 10
0.0
 20
0.0
 11
279.4
 21
215.9
 12
0.0
 22
0.0
 32
0.0
 14
0.0
 24
0.0
 34
0.0
 15
279.4
 25
215.9
 35
0.0
146
0.0
 13
0.0
 23
0.0
 33
0.0
 16
1.0
 26
0.0
 36
0.0
 17
0.0
 27
1.0
 37
0.0
 76
     0
330
1F
331
29
  0
MLINESTYLE
  5
18
102
{ACAD_REACTORS
330
17
102
}
330
17
100
AcDbMlineStyle
  2
Standard
 70
     0
  3

 62
   256
 51
90.0
 52
90.0
 71
     2
 49
0.5
 62
   256
  6
BYLAYER
 49
-0.5
 62
   256
  6
BYLAYER
  0
ACDBPLACEHOLDER
  5
F
102
{ACAD_REACTORS
330
E
102
}
330
E
  0
SCALE
  5
48
102
{ACAD_REACTORS
330
47
102
}
330
47
100
AcDbScale
 70
     0
300
1:1
140
1.0
141
1.0
290
     1
  0
SCALE
  5
49
102
{ACAD_REACTORS
330
47
102
}
330
47
100
AcDbScale
 70
     0
300
1:2
140
1.0
141
2.0
290
     0
  0
SCALE
  5
4A
102
{ACAD_REACTORS
330
47
102
}
330
47
100
AcDbScale
 70
     0
300
1:4
140
1.0
141
4.0
290
     0
  0
SCALE
  5
4B
102
{ACAD_REACTORS
330
47
102
}
330
47
100
AcDbScale
 70
     0
300
1:5
140
1.0
141
5.0
290
     0
  0
SCALE
  5
4C
102
{ACAD_REACTORS
330
47
102
}
330
47
100
AcDbScale
 70
     0
300
1:8
140
1.0
141
8.0
290
     0
  0
SCALE
  5
4D
102
{ACAD_REACTORS
330
47
102
}
330
47
100
AcDbScale
 70
     0
300
1:10
140
1.0
141
10.0
290
     0
  0
SCALE
  5
4E
102
{ACAD_REACTORS
330
47
102
}
330
47
100
AcDbScale
 70
     0
300
1:16
140
1.0
141
16.0
290
     0
  0
SCALE
  5
4F
102
{ACAD_REACTORS
330
47
102
}
330
47
100
AcDbScale
 70
     0
300
1:20
140
1.0
141
20.0
290
     0
  0
SCALE
  5
50
102
{ACAD_REACTORS
330
47
102
}
330
47
100
AcDbScale
 70
     0
300
1:30
140
1.0
141
30.0
290
     0
  0
SCALE
  5
51
102
{ACAD_REACTORS
330
47
102
}
330
47
100
AcDbScale
 70
     0
300
1:40
140
1.0
141
40.0
290
     0
  0
SCALE
  5
52
102
{ACAD_REACTORS
330
47
102
}
330
47
100
AcDbScale
 70
     0
300
1:50
140
1.0
141
50.0
290
     0
  0
SCALE
  5
53
102
{ACAD_REACTORS
330
47
102
}
330
47
100
AcDbScale
 70
     0
300
1:100
140
1.0
141
100.0
290
     0
  0
SCALE
  5
54
102
{ACAD_REACTORS
330
47
102
}
330
47
100
AcDbScale
 70
     0
300
2:1
140
2.0
141
1.0
290
     0
  0
SCALE
  5
55
102
{ACAD_REACTORS
330
47
102
}
330
47
100
AcDbScale
 70
     0
300
4:1
140
4.0
141
1.0
290
     0
  0
SCALE
  5
56
102
{ACAD_REACTORS
330
47
102
}
330
47
100
AcDbScale
 70
     0
300
8:1
140
8.0
141
1.0
290
     0
  0
SCALE
  5
57
102
{ACAD_REACTORS
330
47
102
}
330
47
100
AcDbScale
 70
     0
300
10:1
140
10.0
141
1.0
290
     0
  0
SCALE
  5
58
102
{ACAD_REACTORS
330
47
102
}
330
47
100
AcDbScale
 70
     0
300
100:1
140
100.0
141
1.0
290
     0
  0
SCALE
  5
59
102
{ACAD_REACTORS
330
47
102
}
330
47
100
AcDbScale
 70
     0
300
1/128" = 1'-0"
140
0.0078125
141
12.0
290
     0
  0
SCALE
  5
5A
102
{ACAD_REACTORS
330
47
102
}
330
47
100
AcDbScale
 70
     0
300
1/64" = 1'-0"
140
0.015625
141
12.0
290
     0
  0
SCALE
  5
5B
102
{ACAD_REACTORS
330
47
102
}
330
47
100
AcDbScale
 70
     0
300
1/32" = 1'-0"
140
0.03125
141
12.0
290
     0
  0
SCALE
  5
5C
102
{ACAD_REACTORS
330
47
102
}
330
47
100
AcDbScale
 70
     0
300
1/16" = 1'-0"
140
0.0625
141
12.0
290
     0
  0
SCALE
  5
5D
102
{ACAD_REACTORS
330
47
102
}
330
47
100
AcDbScale
 70
     0
300
3/32" = 1'-0"
140
0.09375
141
12.0
290
     0
  0
SCALE
  5
5E
102
{ACAD_REACTORS
330
47
102
}
330
47
100
AcDbScale
 70
     0
300
1/8" = 1'-0"
140
0.125
141
12.0
290
     0
  0
SCALE
  5
5F
102
{ACAD_REACTORS
330
47
102
}
330
47
100
AcDbScale
 70
     0
300
3/16" = 1'-0"
140
0.1875
141
12.0
290
     0
  0
SCALE
  5
60
102
{ACAD_REACTORS
330
47
102
}
330
47
100
AcDbScale
 70
     0
300
1/4" = 1'-0"
140
0.25
141
12.0
290
     0
  0
SCALE
  5
61
102
{ACAD_REACTORS
330
47
102
}
330
47
100
AcDbScale
 70
     0
300
3/8" = 1'-0"
140
0.375
141
12.0
290
     0
  0
SCALE
  5
62
102
{ACAD_REACTORS
330
47
102
}
330
47
100
AcDbScale
 70
     0
300
1/2" = 1'-0"
140
0.5
141
12.0
290
     0
  0
SCALE
  5
63
102
{ACAD_REACTORS
330
47
102
}
330
47
100
AcDbScale
 70
     0
300
3/4" = 1'-0"
140
0.75
141
12.0
290
     0
  0
SCALE
  5
64
102
{ACAD_REACTORS
330
47
102
}
330
47
100
AcDbScale
 70
     0
300
1" = 1'-0"
140
1.0
141
12.0
290
     0
  0
SCALE
  5
65
102
{ACAD_REACTORS
330
47
102
}
330
47
100
AcDbScale
 70
     0
300
1-1/2" = 1'-0"
140
1.5
141
12.0
290
     0
  0
SCALE
  5
66
102
{ACAD_REACTORS
330
47
102
}
330
47
100
AcDbScale
 70
     0
300
3" = 1'-0"
140
3.0
141
12.0
290
     0
  0
SCALE
  5
67
102
{ACAD_REACTORS
330
47
102
}
330
47
100
AcDbScale
 70
     0
300
6" = 1'-0"
140
6.0
141
12.0
290
     0
  0
SCALE
  5
68
102
{ACAD_REACTORS
330
47
102
}
330
47
100
AcDbScale
 70
     0
300
1'-0" = 1'-0"
140
12.0
141
12.0
290
     0
  0
ENDSEC
  0
EOF
