  0
SECTION
  2
HEADER
  9
$ACADVER
  1
AC1015
  9
$ACADMAINTVER
 70
     6
  9
$DWGCODEPAGE
  3
ANSI_1252
  9
$INSBASE
 10
0.0
 20
0.0
 30
0.0
  9
$EXTMIN
 10
0.0
 20
0.0
 30
0.0
  9
$EXTMAX
 10
279.4
 20
215.9
 30
0.0
  9
$LIMMIN
 10
0.0
 20
0.0
  9
$LIMMAX
 10
279.4
 20
215.9
  9
$ORTHOMODE
 70
     0
  9
$REGENMODE
 70
     1
  9
$FILLMODE
 70
     1
  9
$QTEXTMODE
 70
     0
  9
$MIRRTEXT
 70
     1
  9
$LTSCALE
 40
1.0
  9
$ATTMODE
 70
     1
  9
$TEXTSIZE
 40
3.5277777778
  9
$TRACEWID
 40
1.0
  9
$TEXTSTYLE
  7
Standard
  9
$CLAYER
  8
0
  9
$CELTYPE
  6
ByLayer
  9
$CECOLOR
 62
   256
  9
$CELTSCALE
 40
1.0
  9
$DISPSILH
 70
     0
  9
$DIMSCALE
 40
1.0
  9
$DIMASZ
 40
3.556
  9
$DIMEXO
 40
1.0
  9
$DIMDLI
 40
3.75
  9
$DIMRND
 40
0.0
  9
$DIMDLE
 40
0.0
  9
$DIMEXE
 40
1.0
  9
$DIMTP
 40
0.0
  9
$DIMTM
 40
0.0
  9
$DIMTXT
 40
3.5277777778
  9
$DIMCEN
 40
2.5
  9
$DIMTSZ
 40
0.0
  9
$DIMTOL
 70
     0
  9
$DIMLIM
 70
     0
  9
$DIMTIH
 70
     1
  9
$DIMTOH
 70
     1
  9
$DIMSE1
 70
     0
  9
$DIMSE2
 70
     0
  9
$DIMTAD
 70
     1
  9
$DIMZIN
 70
     0
  9
$DIMBLK
  1

  9
$DIMASO
 70
     1
  9
$DIMSHO
 70
     1
  9
$DIMPOST
  1

  9
$DIMAPOST
  1

  9
$DIMALT
 70
     0
  9
$DIMALTD
 70
     3
  9
$DIMALTF
 40
0.0393700787
  9
$DIMLFAC
 40
2.0
  9
$DIMTOFL
 70
     1
  9
$DIMTVP
 40
0.0
  9
$DIMTIX
 70
     0
  9
$DIMSOXD
 70
     0
  9
$DIMSAH
 70
     0
  9
$DIMBLK1
  1

  9
$DIMBLK2
  1

  9
$DIMSTYLE
  2
ISO-25
  9
$DIMCLRD
 70
     0
  9
$DIMCLRE
 70
     0
  9
$DIMCLRT
 70
     0
  9
$DIMTFAC
 40
1.0
  9
$DIMGAP
 40
1.524
  9
$DIMJUST
 70
     0
  9
$DIMSD1
 70
     0
  9
$DIMSD2
 70
     0
  9
$DIMTOLJ
 70
     0
  9
$DIMTZIN
 70
     0
  9
$DIMALTZ
 70
     0
  9
$DIMALTTZ
 70
     0
  9
$DIMUPT
 70
     0
  9
$DIMDEC
 70
     2
  9
$DIMTDEC
 70
     2
  9
$DIMALTU
 70
     2
  9
$DIMALTTD
 70
     3
  9
$DIMTXSTY
  7
Standard
  9
$DIMAUNIT
 70
     0
  9
$DIMADEC
 70
     2
  9
$DIMALTRND
 40
0.0
  9
$DIMAZIN
 70
     0
  9
$DIMDSEP
 70
    44
  9
$DIMATFIT
 70
     3
  9
$DIMFRAC
 70
     0
  9
$DIMLDRBLK
  1

  9
$DIMLUNIT
 70
     2
  9
$DIMLWD
 70
    -2
  9
$DIMLWE
 70
    -2
  9
$DIMTMOVE
 70
     0
  9
$LUNITS
 70
     2
  9
$LUPREC
 70
     2
  9
$SKETCHINC
 40
1.0
  9
$FILLETRAD
 40
10.0
  9
$AUNITS
 70
     0
  9
$AUPREC
 70
     2
  9
$MENU
  1
.
  9
$ELEVATION
 40
0.0
  9
$PELEVATION
 40
0.0
  9
$THICKNESS
 40
0.0
  9
$LIMCHECK
 70
     0
  9
$CHAMFERA
 40
0.0
  9
$CHAMFERB
 40
0.0
  9
$CHAMFERC
 40
0.0
  9
$CHAMFERD
 40
0.0
  9
$SKPOLY
 70
     0
  9
$TDCREATE
 40
2460383.743532882
  9
$TDUCREATE
 40
2460383.514366215
  9
$TDUPDATE
 40
2460383.743533414
  9
$TDUUPDATE
 40
2460383.514366748
  9
$TDINDWG
 40
0.0000000116
  9
$TDUSRTIMER
 40
0.0000000116
  9
$USRTIMER
 70
     1
  9
$ANGBASE
 50
0.0
  9
$ANGDIR
 70
     0
  9
$PDMODE
 70
     0
  9
$PDSIZE
 40
-1.0
  9
$PLINEWID
 40
0.0
  9
$SPLFRAME
 70
     0
  9
$SPLINETYPE
 70
     6
  9
$SPLINESEGS
 70
     8
  9
$HANDSEED
  5
230
  9
$SURFTAB1
 70
     6
  9
$SURFTAB2
 70
     6
  9
$SURFTYPE
 70
     6
  9
$SURFU
 70
     6
  9
$SURFV
 70
     6
  9
$UCSBASE
  2

  9
$UCSNAME
  2

  9
$UCSORG
 10
0.0
 20
0.0
 30
0.0
  9
$UCSXDIR
 10
1.0
 20
0.0
 30
0.0
  9
$UCSYDIR
 10
0.0
 20
1.0
 30
0.0
  9
$UCSORTHOREF
  2

  9
$UCSORTHOVIEW
 70
     0
  9
$UCSORGTOP
 10
0.0
 20
0.0
 30
0.0
  9
$UCSORGBOTTOM
 10
0.0
 20
0.0
 30
0.0
  9
$UCSORGLEFT
 10
0.0
 20
0.0
 30
0.0
  9
$UCSORGRIGHT
 10
0.0
 20
0.0
 30
0.0
  9
$UCSORGFRONT
 10
0.0
 20
0.0
 30
0.0
  9
$UCSORGBACK
 10
0.0
 20
0.0
 30
0.0
  9
$PUCSBASE
  2

  9
$PUCSNAME
  2

  9
$PUCSORG
 10
0.0
 20
0.0
 30
0.0
  9
$PUCSXDIR
 10
1.0
 20
0.0
 30
0.0
  9
$PUCSYDIR
 10
0.0
 20
1.0
 30
0.0
  9
$PUCSORTHOREF
  2

  9
$PUCSORTHOVIEW
 70
     0
  9
$PUCSORGTOP
 10
0.0
 20
0.0
 30
0.0
  9
$PUCSORGBOTTOM
 10
0.0
 20
0.0
 30
0.0
  9
$PUCSORGLEFT
 10
0.0
 20
0.0
 30
0.0
  9
$PUCSORGRIGHT
 10
0.0
 20
0.0
 30
0.0
  9
$PUCSORGFRONT
 10
0.0
 20
0.0
 30
0.0
  9
$PUCSORGBACK
 10
0.0
 20
0.0
 30
0.0
  9
$USERI1
 70
     0
  9
$USERI2
 70
     0
  9
$USERI3
 70
     0
  9
$USERI4
 70
     0
  9
$USERI5
 70
     0
  9
$USERR1
 40
0.0
  9
$USERR2
 40
0.0
  9
$USERR3
 40
0.0
  9
$USERR4
 40
0.0
  9
$USERR5
 40
0.0
  9
$WORLDVIEW
 70
     1
  9
$SHADEDGE
 70
     3
  9
$SHADEDIF
 70
    70
  9
$TILEMODE
 70
     1
  9
$MAXACTVP
 70
    64
  9
$PINSBASE
 10
0.0
 20
0.0
 30
0.0
  9
$PLIMCHECK
 70
     0
  9
$PEXTMIN
 10
1.0000000000E+20
 20
1.0000000000E+20
 30
1.0000000000E+20
  9
$PEXTMAX
 10
-1.0000000000E+20
 20
-1.0000000000E+20
 30
-1.0000000000E+20
  9
$PLIMMIN
 10
0.0
 20
0.0
  9
$PLIMMAX
 10
420.0
 20
297.0
  9
$UNITMODE
 70
     0
  9
$VISRETAIN
 70
     1
  9
$PLINEGEN
 70
     0
  9
$PSLTSCALE
 70
     1
  9
$TREEDEPTH
 70
  3020
  9
$CMLSTYLE
  2
Standard
  9
$CMLJUST
 70
     0
  9
$CMLSCALE
 40
20.0
  9
$PROXYGRAPHICS
 70
     1
  9
$MEASUREMENT
 70
     1
  9
$CELWEIGHT
370
    -1
  9
$ENDCAPS
280
     0
  9
$JOINSTYLE
280
     0
  9
$LWDISPLAY
290
     1
  9
$INSUNITS
 70
     4
  9
$HYPERLINKBASE
  1

  9
$STYLESHEET
  1

  9
$XEDIT
290
     1
  9
$CEPSNTYPE
380
     0
  9
$PSTYLEMODE
290
     1
  9
$FINGERPRINTGUID
  2
{2f2524e5-5bee-4abb-9484-fc005337458e}
  9
$VERSIONGUID
  2
{FAEB1C32-E019-11D5-929B-00C0DF256EC4}
  9
$EXTNAMES
290
     1
  9
$PSVPSCALE
 40
0.0
  9
$OLESTARTUP
290
     0
  0
ENDSEC
  0
SECTION
  2
CLASSES
  0
CLASS
  1
ACDBDICTIONARYWDFLT
  2
AcDbDictionaryWithDefault
  3
ObjectDBX Classes
 90
        0
280
     0
281
     0
  0
CLASS
  1
VISUALSTYLE
  2
AcDbVisualStyle
  3
ObjectDBX Classes
 90
     4095
280
     0
281
     0
  0
CLASS
  1
MATERIAL
  2
AcDbMaterial
  3
ObjectDBX Classes
 90
     1153
280
     0
281
     0
  0
CLASS
  1
SCALE
  2
AcDbScale
  3
ObjectDBX Classes
 90
     1153
280
     0
281
     0
  0
CLASS
  1
TABLESTYLE
  2
AcDbTableStyle
  3
ObjectDBX Classes
 90
     4095
280
     0
281
     0
  0
CLASS
  1
MLEADERSTYLE
  2
AcDbMLeaderStyle
  3
ACDB_MLEADERSTYLE_CLASS
 90
     4095
280
     0
281
     0
  0
CLASS
  1
SUN
  2
AcDbSun
  3
SCENEOE
 90
     1153
280
     0
281
     0
  0
CLASS
  1
ACDBPLACEHOLDER
  2
AcDbPlaceHolder
  3
ObjectDBX Classes
 90
        0
280
     0
281
     0
  0
CLASS
  1
LAYOUT
  2
AcDbLayout
  3
ObjectDBX Classes
 90
        0
280
     0
281
     0
  0
ENDSEC
  0
SECTION
  2
TABLES
  0
TABLE
  2
VPORT
  5
8
330
0
100
AcDbSymbolTable
 70
     1
  0
VPORT
  5
29
330
8
100
AcDbSymbolTableRecord
100
AcDbViewportTableRecord
  2
*Active
 70
     0
 10
0.0
 20
0.0
 11
1.0
 21
1.0
 12
139.7
 22
107.95
 13
0.0
 23
0.0
 14
10.0
 24
10.0
 15
10.0
 25
10.0
 16
0.0
 26
0.0
 36
1.0
 17
0.0
 27
0.0
 37
0.0
 40
215.9
 41
1.2941176471
 42
50.0
 43
0.0
 44
0.0
 50
0.0
 51
0.0
 71
     0
 72
  2000
 73
     1
 74
     3
 75
     0
 76
     0
 77
     0
 78
     0
281
     0
 65
     1
110
0.0
120
0.0
130
0.0
111
1.0
121
0.0
131
0.0
112
0.0
122
1.0
132
0.0
 79
     0
146
0.0
  0
ENDTAB
  0
TABLE
  2
LTYPE
  5
5
330
0
100
AcDbSymbolTable
 70
     6
  0
LTYPE
  5
14
330
5
100
AcDbSymbolTableRecord
100
AcDbLinetypeTableRecord
  2
ByBlock
 70
     0
  3

 72
    65
 73
     0
 40
0.0
  0
LTYPE
  5
15
330
5
100
AcDbSymbolTableRecord
100
AcDbLinetypeTableRecord
  2
ByLayer
 70
     0
  3

 72
    65
 73
     0
 40
0.0
  0
LTYPE
  5
16
330
5
100
AcDbSymbolTableRecord
100
AcDbLinetypeTableRecord
  2
Continuous
 70
     0
  3
Solid line
 72
    65
 73
     0
 40
0.0
  0
LTYPE
  5
6E
330
5
100
AcDbSymbolTableRecord
100
AcDbLinetypeTableRecord
  2
HIDDEN
 70
     0
  3
Hidden __ __ __ __ __ __ __ __ __ __ __ __ __ __
 72
    65
 73
     2
 40
1.905
 49
1.27
 74
     0
 49
-0.635
 74
     0
  0
LTYPE
  5
6F
330
5
100
AcDbSymbolTableRecord
100
AcDbLinetypeTableRecord
  2
PHANTOM
 70
     0
  3
Phantom ______  __  __  ______  __  __  ______
 72
    65
 73
     6
 40
12.7
 49
6.35
 74
     0
 49
-1.27
 74
     0
 49
1.27
 74
     0
 49
-1.27
 74
     0
 49
1.27
 74
     0
 49
-1.27
 74
     0
  0
LTYPE
  5
70
330
5
100
AcDbSymbolTableRecord
100
AcDbLinetypeTableRecord
  2
CENTER
 70
     0
  3
Center ____ _ ____ _ ____ _ ____ _ ____ _ ____
 72
    65
 73
     4
 40
10.16
 49
6.35
 74
     0
 49
-1.27
 74
     0
 49
1.27
 74
     0
 49
-1.27
 74
     0
  0
LTYPE
  5
71
330
5
100
AcDbSymbolTableRecord
100
AcDbLinetypeTableRecord
  2
CENTERX2
 70
     0
  3
Center (2x) ________  __  ________  __  _____
 72
    65
 73
     4
 40
20.32
 49
12.7
 74
     0
 49
-2.54
 74
     0
 49
2.54
 74
     0
 49
-2.54
 74
     0
  0
LTYPE
  5
72
330
5
100
AcDbSymbolTableRecord
100
AcDbLinetypeTableRecord
  2
DOT2
 70
     0
  3
Dot (.5x) ........................................
 72
    65
 73
     2
 40
0.635
 49
0.0
 74
     0
 49
-0.635
 74
     0
  0
ENDTAB
  0
TABLE
  2
LAYER
  5
2
330
0
100
AcDbSymbolTable
 70
     4
  0
LAYER
  5
10
330
2
100
AcDbSymbolTableRecord
100
AcDbLayerTableRecord
  2
0
 70
     0
 62
     7
  6
Continuous
370
    -3
390
F
  0
LAYER
  5
73
330
2
100
AcDbSymbolTableRecord
100
AcDbLayerTableRecord
  2
FORMAT
 70
     0
 62
     7
  6
Continuous
370
    -3
390
F
  0
LAYER
  5
74
330
2
100
AcDbSymbolTableRecord
100
AcDbLayerTableRecord
  2
OUT_LINE
 70
     0
 62
     7
  6
Continuous
370
    50
390
F
  0
LAYER
  5
75
330
2
100
AcDbSymbolTableRecord
100
AcDbLayerTableRecord
  2
WATERMARK
 70
     0
 62
   254
  6
Continuous
370
    -3
390
F
  0
ENDTAB
  0
TABLE
  2
STYLE
  5
3
330
0
100
AcDbSymbolTable
 70
     1
  0
STYLE
  5
11
330
3
100
AcDbSymbolTableRecord
100
AcDbTextStyleTableRecord
  2
Standard
 70
     0
 40
0.0
 41
1.0
 50
0.0
 71
     0
 42
3.5277777778
  3
txt
  4

  0
ENDTAB
  0
TABLE
  2
VIEW
  5
6
330
0
100
AcDbSymbolTable
 70
     0
  0
ENDTAB
  0
TABLE
  2
UCS
  5
7
330
0
100
AcDbSymbolTable
 70
     0
  0
ENDTAB
  0
TABLE
  2
APPID
  5
9
330
0
100
AcDbSymbolTable
 70
     1
  0
APPID
  5
12
330
9
100
AcDbSymbolTableRecord
100
AcDbRegAppTableRecord
  2
ACAD
 70
     0
  0
ENDTAB
  0
TABLE
  2
DIMSTYLE
  5
A
330
0
100
AcDbSymbolTable
 70
     1
100
AcDbDimStyleTable
  0
DIMSTYLE
105
27
330
A
100
AcDbSymbolTableRecord
100
AcDbDimStyleTableRecord
  2
ISO-25
 70
     0
 41
2.5
 42
0.625
 43
3.75
 44
1.25
 73
     0
 74
     0
 77
     1
 78
     8
140
2.5
141
2.5
143
0.0393700787
147
0.625
171
     3
172
     1
178
     0
271
     2
272
     2
274
     3
278
    44
283
     0
284
     8
340
11
  0
ENDTAB
  0
TABLE
  2
BLOCK_RECORD
  5
1
330
0
100
AcDbSymbolTable
 70
     7
  0
BLOCK_RECORD
  5
1F
330
1
100
AcDbSymbolTableRecord
100
AcDbBlockTableRecord
  2
*Model_Space
340
22
  0
BLOCK_RECORD
  5
1B
330
1
100
AcDbSymbolTableRecord
100
AcDbBlockTableRecord
  2
*Paper_Space
340
1E
  0
BLOCK_RECORD
  5
23
330
1
100
AcDbSymbolTableRecord
100
AcDbBlockTableRecord
  2
*Paper_Space0
340
26
  0
BLOCK_RECORD
  5
76
330
1
100
AcDbSymbolTableRecord
100
AcDbBlockTableRecord
  2
Block6
340
0
  0
BLOCK_RECORD
  5
7B
330
1
100
AcDbSymbolTableRecord
100
AcDbBlockTableRecord
  2
Block4
340
0
  0
BLOCK_RECORD
  5
7F
330
1
100
AcDbSymbolTableRecord
100
AcDbBlockTableRecord
  2
Block5
340
0
  0
BLOCK_RECORD
  5
8D
330
1
100
AcDbSymbolTableRecord
100
AcDbBlockTableRecord
  2
Block2
340
0
  0
BLOCK_RECORD
  5
98
330
1
100
AcDbSymbolTableRecord
100
AcDbBlockTableRecord
  2
Block3
340
0
  0
BLOCK_RECORD
  5
A5
330
1
100
AcDbSymbolTableRecord
100
AcDbBlockTableRecord
  2
Block7
340
0
  0
ENDTAB
  0
ENDSEC
  0
SECTION
  2
BLOCKS
  0
BLOCK
  5
20
330
1F
100
AcDbEntity
  8
0
100
AcDbBlockBegin
  2
*Model_Space
 70
     0
 10
0.0
 20
0.0
 30
0.0
  3
*Model_Space
  1

  0
ENDBLK
  5
21
330
1F
100
AcDbEntity
  8
0
100
AcDbBlockEnd
  0
BLOCK
  5
1C
330
1B
100
AcDbEntity
 67
     1
  8
0
100
AcDbBlockBegin
  2
*Paper_Space
 70
     0
 10
0.0
 20
0.0
 30
0.0
  3
*Paper_Space
  1

  0
ENDBLK
  5
1D
330
1B
100
AcDbEntity
 67
     1
  8
0
100
AcDbBlockEnd
  0
BLOCK
  5
24
330
23
100
AcDbEntity
  8
0
100
AcDbBlockBegin
  2
*Paper_Space0
 70
     0
 10
0.0
 20
0.0
 30
0.0
  3
*Paper_Space0
  1

  0
ENDBLK
  5
25
330
23
100
AcDbEntity
  8
0
100
AcDbBlockEnd
  0
BLOCK
  5
77
330
76
100
AcDbEntity
  8
0
100
AcDbBlockBegin
  2
Block6
 70
     0
 10
0.0
 20
0.0
 30
0.0
  3
Block6
  1

  0
LINE
  5
79
330
76
100
AcDbEntity
  8
FORMAT
100
AcDbLine
 10
253.5616893058
 20
55.3714964458
 30
0.0
 11
250.6928867464
 21
53.8486167051
 31
0.0
  0
LINE
  5
7A
330
76
100
AcDbEntity
  8
FORMAT
100
AcDbLine
 10
250.6928867464
 20
53.8486167051
 30
0.0
 11
253.5616893058
 21
53.8486167051
 31
0.0
  0
ENDBLK
  5
78
330
76
100
AcDbEntity
  8
0
100
AcDbBlockEnd
  0
BLOCK
  5
7C
330
7B
100
AcDbEntity
  8
0
100
AcDbBlockBegin
  2
Block4
 70
     0
 10
0.0
 20
0.0
 30
0.0
  3
Block4
  1

  0
LINE
  5
7E
330
7B
100
AcDbEntity
  8
FORMAT
100
AcDbLine
 10
250.0093082872
 20
64.7263291389
 30
0.0
 11
290.0093082872
 21
64.7263291389
 31
0.0
  0
ENDBLK
  5
7D
330
7B
100
AcDbEntity
  8
0
100
AcDbBlockEnd
  0
BLOCK
  5
80
330
7F
100
AcDbEntity
  8
0
100
AcDbBlockBegin
  2
Block5
 70
     0
 10
0.0
 20
0.0
 30
0.0
  3
Block5
  1

  0
LINE
  5
82
330
7F
100
AcDbEntity
  8
FORMAT
100
AcDbLine
 10
251.0883122991
 20
64.4632252413
 30
0.0
 11
250.3611798328
 21
64.9733337839
 31
0.0
  0
LINE
  5
83
330
7F
100
AcDbEntity
  8
FORMAT
100
AcDbLine
 10
250.3611798328
 20
64.9733337839
 30
0.0
 11
251.0883122991
 21
65.4834423266
 31
0.0
  0
LINE
  5
84
330
7F
100
AcDbEntity
  8
FORMAT
100
AcDbLine
 10
250.3611798328
 20
65.6106440044
 30
0.0
 11
250.3611798328
 21
64.3360235634
 31
0.0
  0
LINE
  5
85
330
7F
100
AcDbEntity
  8
FORMAT
100
AcDbLine
 10
251.0883122991
 20
65.4834423266
 30
0.0
 11
251.0883122991
 21
64.4632252413
 31
0.0
  0
LINE
  5
86
330
7F
100
AcDbEntity
  8
FORMAT
  6
Continuous
 62
     7
370
    18
100
AcDbLine
 10
254.0738326611
 20
65.4834423266
 30
0.0
 11
254.0738326611
 21
64.4632252413
 31
0.0
  0
LINE
  5
87
330
7F
100
AcDbEntity
  8
FORMAT
100
AcDbLine
 10
251.0883122991
 20
64.9733337839
 30
0.0
 11
254.0738326611
 21
64.9733337839
 31
0.0
  0
LINE
  5
88
330
7F
100
AcDbEntity
  8
FORMAT
100
AcDbLine
 10
254.0738326611
 20
64.9733337839
 30
0.0
 11
254.0738326611
 21
64.4632252413
 31
0.0
  0
LINE
  5
89
330
7F
100
AcDbEntity
  8
FORMAT
  6
Continuous
 62
     7
370
    18
100
AcDbLine
 10
254.0738326611
 20
64.4632252413
 30
0.0
 11
254.8009651274
 21
64.9733337839
 31
0.0
  0
LINE
  5
8A
330
7F
100
AcDbEntity
  8
FORMAT
  6
Continuous
 62
     7
370
    18
100
AcDbLine
 10
254.8009651274
 20
64.9733337839
 30
0.0
 11
254.0738326611
 21
65.4834423266
 31
0.0
  0
LINE
  5
8B
330
7F
100
AcDbEntity
  8
FORMAT
100
AcDbLine
 10
254.0738326611
 20
65.4834423266
 30
0.0
 11
254.0738326611
 21
64.9733337839
 31
0.0
  0
LINE
  5
8C
330
7F
100
AcDbEntity
  8
FORMAT
100
AcDbLine
 10
254.8009651274
 20
65.6106440044
 30
0.0
 11
254.8009651274
 21
64.3360235634
 31
0.0
  0
ENDBLK
  5
81
330
7F
100
AcDbEntity
  8
0
100
AcDbBlockEnd
  0
BLOCK
  5
8E
330
8D
100
AcDbEntity
  8
0
100
AcDbBlockBegin
  2
Block2
 70
     0
 10
0.0
 20
0.0
 30
0.0
  3
Block2
  1

  0
CIRCLE
  5
90
330
8D
100
AcDbEntity
  8
FORMAT
100
AcDbCircle
 10
48.741006851
 20
68.2700462855
 30
0.0
 40
7.000000000000013
  0
CIRCLE
  5
91
330
8D
100
AcDbEntity
  8
FORMAT
100
AcDbCircle
 10
48.741006851
 20
68.2700462855
 30
0.0
 40
3.32888862482043
  0
LINE
  5
92
330
8D
100
AcDbEntity
  8
FORMAT
100
AcDbLine
 10
60.4734604481
 20
71.6747664277
 30
0.0
 11
76.4734604481
 21
75.1747664277
 31
0.0
  0
LINE
  5
93
330
8D
100
AcDbEntity
  8
FORMAT
100
AcDbLine
 10
76.4734604481
 20
75.1747664277
 30
0.0
 11
76.4734604481
 21
61.3653261433
 31
0.0
  0
LINE
  5
94
330
8D
100
AcDbEntity
  8
FORMAT
100
AcDbLine
 10
76.4734604481
 20
61.3653261433
 30
0.0
 11
60.4734604481
 21
64.8653261433
 31
0.0
  0
LINE
  5
95
330
8D
100
AcDbEntity
  8
FORMAT
100
AcDbLine
 10
60.4734604481
 20
64.8653261433
 30
0.0
 11
60.4734604481
 21
71.6747664277
 31
0.0
  0
LINE
  5
96
330
8D
100
AcDbEntity
  8
FORMAT
  6
CENTERX2
100
AcDbLine
 10
76.4734604481
 20
68.2700462855
 30
0.0
 11
39.8388877958
 21
68.2700462855
 31
0.0
  0
LINE
  5
97
330
8D
100
AcDbEntity
  8
FORMAT
100
AcDbLine
 10
48.741006851
 20
76.8424572275
 30
0.0
 11
48.741006851
 21
59.6976353435
 31
0.0
  0
ENDBLK
  5
8F
330
8D
100
AcDbEntity
  8
0
100
AcDbBlockEnd
  0
BLOCK
  5
99
330
98
100
AcDbEntity
  8
0
100
AcDbBlockBegin
  2
Block3
 70
     0
 10
0.0
 20
0.0
 30
0.0
  3
Block3
  1

  0
ARC
  5
9B
330
98
100
AcDbEntity
  8
FORMAT
100
AcDbCircle
 10
253.5616893058
 20
61.9516976285
 30
0.0
 40
0.5251511718353873
100
AcDbArc
 50
349.3356822367
 51
90.0
  0
LINE
  5
9C
330
98
100
AcDbEntity
  8
FORMAT
100
AcDbLine
 10
250.6928867464
 20
62.4768488003
 30
0.0
 11
250.6928867464
 21
61.2321831396
 31
0.0
  0
LINE
  5
9D
330
98
100
AcDbEntity
  8
FORMAT
100
AcDbLine
 10
250.6928867464
 20
61.2321831396
 30
0.0
 11
251.7250485138
 21
61.2321831396
 31
0.0
  0
LINE
  5
9E
330
98
100
AcDbEntity
  8
FORMAT
100
AcDbLine
 10
251.7250485138
 20
61.2321831396
 30
0.0
 11
251.7250485138
 21
61.85451597
 31
0.0
  0
LINE
  5
9F
330
98
100
AcDbEntity
  8
FORMAT
100
AcDbLine
 10
251.7250485138
 20
61.85451597
 30
0.0
 11
251.2089676301
 21
62.4768488003
 31
0.0
  0
LINE
  5
A0
330
98
100
AcDbEntity
  8
FORMAT
100
AcDbLine
 10
251.2089676301
 20
62.4768488003
 30
0.0
 11
250.6928867464
 21
62.4768488003
 31
0.0
  0
LINE
  5
A1
330
98
100
AcDbEntity
  8
0
  6
Continuous
 62
     7
370
    18
100
AcDbLine
 10
253.0456084221
 20
61.2321831396
 30
0.0
 11
254.0777701895
 21
61.2321831396
 31
0.0
  0
LINE
  5
A2
330
98
100
AcDbEntity
  8
0
  6
Continuous
 62
     7
370
    18
100
AcDbLine
 10
254.0777701895
 20
61.2321831396
 30
0.0
 11
254.0777701895
 21
61.85451597
 31
0.0
  0
LINE
  5
A3
330
98
100
AcDbEntity
  8
0
  6
Continuous
 62
     7
370
    18
100
AcDbLine
 10
253.0456084221
 20
62.4768488003
 30
0.0
 11
253.0456084221
 21
61.2321831396
 31
0.0
  0
LINE
  5
A4
330
98
100
AcDbEntity
  8
0
  6
Continuous
 62
     7
370
    18
100
AcDbLine
 10
253.5616893058
 20
62.4768488003
 30
0.0
 11
253.0456084221
 21
62.4768488003
 31
0.0
  0
ENDBLK
  5
9A
330
98
100
AcDbEntity
  8
0
100
AcDbBlockEnd
  0
BLOCK
  5
A6
330
A5
100
AcDbEntity
  8
0
100
AcDbBlockBegin
  2
Block7
 70
     0
 10
0.0
 20
0.0
 30
0.0
  3
Block7
  1

  0
LINE
  5
A8
330
A5
100
AcDbEntity
  8
FORMAT
100
AcDbLine
 10
221.8284763776
 20
80.2705155621
 30
0.0
 11
222.3963943455
 21
79.286852787
 31
0.0
  0
LINE
  5
A9
330
A5
100
AcDbEntity
  8
FORMAT
100
AcDbLine
 10
222.3963943455
 20
79.286852787
 30
0.0
 11
222.9643123135
 21
80.2705155621
 31
0.0
  0
LINE
  5
AA
330
A5
100
AcDbEntity
  8
FORMAT
100
AcDbLine
 10
221.8284763776
 20
80.2705155621
 30
0.0
 11
222.9643123135
 21
80.2705155621
 31
0.0
  0
LINE
  5
AB
330
A5
100
AcDbEntity
  8
FORMAT
100
AcDbLine
 10
222.9643123135
 20
80.2705155621
 30
0.0
 11
223.3725273771
 21
80.9775647926
 31
0.0
  0
LINE
  5
AC
330
A5
100
AcDbEntity
  8
FORMAT
100
AcDbLine
 10
223.3725273771
 20
80.9775647926
 30
0.0
 11
224.1023154201
 21
80.9775647926
 31
0.0
  0
ENDBLK
  5
A7
330
A5
100
AcDbEntity
  8
0
100
AcDbBlockEnd
  0
ENDSEC
  0
SECTION
  2
ENTITIES
  0
LINE
  5
AD
330
1F
100
AcDbEntity
  8
0
  6
Continuous
 62
     7
370
    25
100
AcDbLine
 10
98.9112399869
 20
67.2717349485
 30
0.0
 11
98.9112399869
 21
19.9447230369
 31
0.0
  0
LINE
  5
AE
330
1F
100
AcDbEntity
  8
0
  6
Continuous
 62
     7
370
    25
100
AcDbLine
 10
114.7112399869
 20
19.9447230369
 30
0.0
 11
114.7112399869
 21
67.2717349485
 31
0.0
  0
LINE
  5
AF
330
1F
100
AcDbEntity
  8
0
  6
Continuous
 62
     7
370
    25
100
AcDbLine
 10
114.7112399869
 20
67.2717349485
 30
0.0
 11
114.7112399869
 21
149.6717349485
 31
0.0
  0
LINE
  5
B0
330
1F
100
AcDbEntity
  8
0
  6
Continuous
 62
     7
370
    25
100
AcDbLine
 10
98.9112399869
 20
149.6717349485
 30
0.0
 11
98.9112399869
 21
67.2717349485
 31
0.0
  0
LINE
  5
B1
330
1F
100
AcDbEntity
  8
0
  6
Continuous
 62
     7
370
    25
100
AcDbLine
 10
98.9112399869
 20
172.3447230369
 30
0.0
 11
98.9112399869
 21
149.6717349485
 31
0.0
  0
LINE
  5
B2
330
1F
100
AcDbEntity
  8
0
  6
Continuous
 62
     7
370
    25
100
AcDbLine
 10
114.7112399869
 20
149.6717349485
 30
0.0
 11
114.7112399869
 21
172.3447230369
 31
0.0
  0
LINE
  5
B3
330
1F
100
AcDbEntity
  8
0
  6
Continuous
 62
     7
370
    25
100
AcDbLine
 10
120.8081911358
 20
156.1447230369
 30
0.0
 11
138.0112399869
 21
156.1447230369
 31
0.0
  0
LINE
  5
B4
330
1F
100
AcDbEntity
  8
0
  6
Continuous
 62
     7
370
    25
100
AcDbLine
 10
138.0112399869
 20
188.5447230369
 30
0.0
 11
120.8016817744
 21
188.5447230369
 31
0.0
  0
SPLINE
  5
B5
330
1F
100
AcDbEntity
  8
0
  6
Continuous
 62
     7
370
    25
100
AcDbSpline
210
0.0
220
0.0
230
1.0
 70
     8
 71
     3
 72
     9
 73
     5
 74
     0
 42
0.00000001
 43
0.00000001
 40
0.0
 40
0.0
 40
0.0
 40
0.0
 40
0.5015109964661149
 40
1.0
 40
1.0
 40
1.0
 40
1.0
 10
138.6174499168405
 20
157.8501206689518
 30
0.0
 10
138.6952786952058
 20
157.9849446882949
 30
0.0
 10
138.8504672731504
 20
158.2537803076393
 30
0.0
 10
139.0058245210045
 20
158.522614107618
 30
0.0
 10
139.0832684006791
 20
158.6566248006857
 30
0.0
  0
LINE
  5
B6
330
1F
100
AcDbEntity
  8
0
  6
Continuous
 62
     7
370
    25
100
AcDbLine
 10
147.3365702947
 20
186.0271065665
 30
0.0
 11
147.2249002606
 21
186.2204459908
 31
0.0
  0
SPLINE
  5
B7
330
1F
100
AcDbEntity
  8
0
  6
Continuous
 62
     7
370
    25
100
AcDbSpline
210
0.0
220
0.0
230
1.0
 70
     8
 71
     3
 72
     9
 73
     5
 74
     0
 42
0.00000001
 43
0.00000001
 40
0.0
 40
0.0
 40
0.0
 40
0.0
 40
0.4576940011969439
 40
1.0
 40
1.0
 40
1.0
 40
1.0
 10
146.1568343327332
 20
157.9183102714292
 30
0.0
 10
146.2218923752167
 20
158.0309514080179
 30
0.0
 10
146.3640354715067
 20
158.277057182387
 30
0.0
 10
146.5061822048404
 20
158.5231607760583
 30
0.0
 10
146.5832692310376
 20
158.6566242312332
 30
0.0
  0
SPLINE
  5
B8
330
1F
100
AcDbEntity
  8
0
  6
Continuous
 62
     7
370
    25
100
AcDbSpline
210
0.0
220
0.0
230
1.0
 70
     8
 71
     3
 72
     9
 73
     5
 74
     0
 42
0.00000001
 43
0.00000001
 40
0.0
 40
0.0
 40
0.0
 40
0.0
 40
0.5034644913918217
 40
1.0
 40
1.0
 40
1.0
 40
1.0
 10
146.6676075367474
 20
186.8394585513183
 30
0.0
 10
146.5894211155614
 20
186.7040869912924
 30
0.0
 10
146.4341243219982
 20
186.435206936511
 30
0.0
 10
146.2788235116794
 20
186.1663289731209
 30
0.0
 10
146.2017111448405
 20
186.0328215168155
 30
0.0
  0
LINE
  5
B9
330
1F
100
AcDbEntity
  8
0
  6
Continuous
 62
     7
370
    25
100
AcDbLine
 10
146.9484859673
 20
158.6622084343
 30
0.0
 11
147.1068752708
 21
158.3879817245
 31
0.0
  0
LINE
  5
BA
330
1F
100
AcDbEntity
  8
0
  6
Continuous
 62
     7
370
    25
100
AcDbLine
 10
138.0112399869
 20
157.8447230369
 30
0.0
 11
138.6113737439
 21
157.8447230369
 31
0.0
  0
LINE
  5
BB
330
1F
100
AcDbEntity
  8
0
  6
Continuous
 62
     7
370
    25
100
AcDbLine
 10
139.3612434418
 20
186.8447230369
 30
0.0
 11
138.0112399869
 21
186.8447230369
 31
0.0
  0
LINE
  5
BC
330
1F
100
AcDbEntity
  8
0
  6
Continuous
 62
     7
370
    25
100
AcDbLine
 10
146.5798564483
 20
158.6566242312
 30
0.0
 11
146.9517113206
 21
158.6566242312
 31
0.0
  0
LINE
  5
BD
330
1F
100
AcDbEntity
  8
0
  6
Continuous
 62
     7
370
    25
100
AcDbLine
 10
139.0798413379
 20
158.6566248007
 30
0.0
 11
139.2512852462
 21
158.6566248007
 31
0.0
  0
LINE
  5
BE
330
1F
100
AcDbEntity
  8
0
  6
Continuous
 62
     7
370
    25
100
AcDbLine
 10
185.8428937948
 20
176.7201138106
 30
0.0
 11
185.4112399869
 21
176.3403373311
 31
0.0
  0
LINE
  5
BF
330
1F
100
AcDbEntity
  8
0
  6
Continuous
 62
     7
370
    25
100
AcDbLine
 10
185.4112399869
 20
168.3491087426
 30
0.0
 11
185.8428937948
 21
167.9693322632
 31
0.0
  0
ARC
  5
C0
330
1F
100
AcDbEntity
  8
0
  6
Continuous
 62
     7
370
    25
100
AcDbCircle
 10
177.3540053991
 20
172.3447230369
 30
0.0
 40
10.63000000000003
100
AcDbArc
 50
339.5062991307
 51
345.842348556
  0
ARC
  5
C1
330
1F
100
AcDbEntity
  8
0
  6
Continuous
 62
     7
370
    25
100
AcDbCircle
 10
177.3540053991
 20
172.3447230369
 30
0.0
 40
10.63000000000003
100
AcDbArc
 50
14.157651444
 51
20.4937008693
  0
LINE
  5
C2
330
1F
100
AcDbEntity
  8
0
  6
Continuous
 62
     7
370
    25
100
AcDbLine
 10
180.549283944
 20
163.3690649927
 30
0.0
 11
184.9199661901
 21
163.4453555351
 31
0.0
  0
LINE
  5
C3
330
1F
100
AcDbEntity
  8
0
  6
Continuous
 62
     7
370
    25
100
AcDbLine
 10
184.9199661901
 20
181.2440905387
 30
0.0
 11
179.6158637301
 21
181.3366739915
 31
0.0
  0
ARC
  5
C4
330
1F
100
AcDbEntity
  8
0
  6
Continuous
 62
     7
370
    25
100
AcDbCircle
 10
184.9112399869
 20
163.9452793826
 30
0.0
 40
0.5000000000000043
100
AcDbArc
 50
271.0
 51
0.0
  0
ARC
  5
C5
330
1F
100
AcDbEntity
  8
0
  6
Continuous
 62
     7
370
    25
100
AcDbCircle
 10
184.9112399869
 20
180.7441666911
 30
0.0
 40
0.5000000000000328
100
AcDbArc
 50
0.0
 51
89.0
  0
SPLINE
  5
C6
330
1F
100
AcDbEntity
  8
0
  6
Continuous
 62
     7
370
    25
100
AcDbSpline
210
0.0
220
0.0
230
1.0
 70
     8
 71
     3
 72
    12
 73
     8
 74
     0
 42
0.00000001
 43
0.00000001
 40
0.0
 40
0.0
 40
0.0
 40
0.0
 40
0.0167971611867514
 40
0.3359590551301674
 40
0.599257116873262
 40
0.819486212565655
 40
1.0
 40
1.0
 40
1.0
 40
1.0
 10
178.3543096851977
 20
181.6892515874072
 30
0.0
 10
178.3396261014804
 20
181.6979038975517
 30
0.0
 10
178.0459405877957
 20
181.8709582552812
 30
0.0
 10
177.6214094090151
 20
182.1484578768798
 30
0.0
 10
177.151691377497
 20
182.4818369419147
 30
0.0
 10
176.9007925337804
 20
182.7035557617443
 30
0.0
 10
176.8728620896278
 20
182.7366659974451
 30
0.0
 10
176.8602808799021
 20
182.7515804333611
 30
0.0
  0
ARC
  5
C7
330
1F
100
AcDbEntity
  8
0
  6
Continuous
 62
     7
370
    25
100
AcDbCircle
 10
179.6612399869
 20
183.936277999
 30
0.0
 40
2.599999999999994
100
AcDbArc
 50
239.4420525213
 51
269.0
  0
SPLINE
  5
C8
330
1F
100
AcDbEntity
  8
0
  6
Continuous
 62
     7
370
    25
100
AcDbSpline
210
0.0
220
0.0
230
1.0
 70
     8
 71
     3
 72
    13
 73
     9
 74
     0
 42
0.00000001
 43
0.00000001
 40
0.0
 40
0.0
 40
0.0
 40
0.0
 40
0.0970921028208095
 40
0.254384765752386
 40
0.4441311141281598
 40
0.6700687869320415
 40
0.9267606364361518
 40
1.0
 40
1.0
 40
1.0
 40
1.0
 10
176.8344255765087
 20
161.6053997556831
 30
0.0
 10
176.8361896621907
 20
161.6076541152996
 30
0.0
 10
176.8408116294768
 20
161.6135606177473
 30
0.0
 10
177.0069440354311
 20
161.7655681737656
 30
0.0
 10
177.3405599731879
 20
162.0111525984393
 30
0.0
 10
177.9022215032276
 20
162.3673363039343
 30
0.0
 10
178.4506093479497
 20
162.6850461147995
 30
0.0
 10
178.8357518583824
 20
162.8913601088143
 30
0.0
 10
178.9212472320488
 20
162.9371584601598
 30
0.0
  0
ARC
  5
C9
330
1F
100
AcDbEntity
  8
0
  6
Continuous
 62
     7
370
    25
100
AcDbCircle
 10
180.6112399869
 20
159.8196056749
 30
0.0
 40
3.550000000000013
100
AcDbArc
 50
91.0
 51
118.1920130769
  0
ARC
  5
CA
330
1F
100
AcDbEntity
  8
0
  6
Continuous
 62
     7
370
    25
100
AcDbCircle
 10
171.0612399869
 20
183.8166126516
 30
0.0
 40
0.5000000000000063
100
AcDbArc
 50
89.0
 51
180.0
  0
ARC
  5
CB
330
1F
100
AcDbEntity
  8
0
  6
Continuous
 62
     7
370
    25
100
AcDbCircle
 10
171.0612399869
 20
160.8728334222
 30
0.0
 40
0.5000000000000063
100
AcDbArc
 50
180.0
 51
271.0
  0
LINE
  5
CC
330
1F
100
AcDbEntity
  8
0
  6
Continuous
 62
     7
370
    25
100
AcDbLine
 10
175.0961447997
 20
184.2462592902
 30
0.0
 11
171.0699661901
 21
184.3165364992
 31
0.0
  0
LINE
  5
CD
330
1F
100
AcDbEntity
  8
0
  6
Continuous
 62
     7
370
    25
100
AcDbLine
 10
171.0699661901
 20
160.3729095746
 30
0.0
 11
175.0961447997
 21
160.4431867836
 31
0.0
  0
ARC
  5
CE
330
1F
100
AcDbEntity
  8
0
  6
Continuous
 62
     7
370
    25
100
AcDbCircle
 10
175.0612399869
 20
182.2465638998
 30
0.0
 40
2.000000000000027
100
AcDbArc
 50
14.6254779684
 51
89.0
  0
SPLINE
  5
CF
330
1F
100
AcDbEntity
  8
0
  6
Continuous
 62
     7
370
    25
100
AcDbSpline
210
0.0
220
0.0
230
1.0
 70
     8
 71
     3
 72
     9
 73
     5
 74
     0
 42
0.00000001
 43
0.00000001
 40
0.0
 40
0.0
 40
0.0
 40
0.0
 40
0.1428792602068137
 40
1.0
 40
1.0
 40
1.0
 40
1.0
 10
185.4112399868678
 20
167.625083687014
 30
0.0
 10
185.417622928209
 20
167.6482224547547
 30
0.0
 10
185.4622966011543
 20
167.8101687561785
 30
0.0
 10
185.5336372867824
 20
168.0134156534606
 30
0.0
 10
185.5947848680253
 20
168.1876227844197
 30
0.0
  0
SPLINE
  5
D0
330
1F
100
AcDbEntity
  8
0
  6
Continuous
 62
     7
370
    25
100
AcDbSpline
210
0.0
220
0.0
230
1.0
 70
     8
 71
     3
 72
     9
 73
     5
 74
     0
 42
0.00000001
 43
0.00000001
 40
0.0
 40
0.0
 40
0.0
 40
0.0
 40
0.1580914975462187
 40
1.0
 40
1.0
 40
1.0
 40
1.0
 10
185.5787125274008
 20
176.4876825663339
 30
0.0
 10
185.5684254076764
 20
176.5208601278439
 30
0.0
 10
185.5033547373108
 20
176.730723163017
 30
0.0
 10
185.4533442453019
 20
176.9154723359735
 30
0.0
 10
185.4112399868678
 20
177.0710142355069
 30
0.0
  0
ARC
  5
D1
330
1F
100
AcDbEntity
  8
0
  6
Continuous
 62
     7
370
    25
100
AcDbCircle
 10
175.0612399869
 20
162.4428821739
 30
0.0
 40
2.000000000000015
100
AcDbArc
 50
271.0
 51
334.9885921771
  0
LINE
  5
D2
330
1F
100
AcDbEntity
  8
0
  6
Continuous
 62
     7
370
    25
100
AcDbLine
 10
185.4112399869
 20
165.1947230369
 30
0.0
 11
187.0162449764
 21
166.4195952657
 31
0.0
  0
LINE
  5
D3
330
1F
100
AcDbEntity
  8
0
  6
Continuous
 62
     7
370
    25
100
AcDbLine
 10
187.0162449764
 20
178.269850808
 30
0.0
 11
185.4112399869
 21
179.4947230369
 31
0.0
  0
ARC
  5
D4
330
1F
100
AcDbEntity
  8
0
  6
Continuous
 62
     7
370
    25
100
AcDbCircle
 10
186.5612399869
 20
167.0158087003
 30
0.0
 40
0.7500000000000014
100
AcDbArc
 50
307.3493490446
 51
0.0
  0
ARC
  5
D5
330
1F
100
AcDbEntity
  8
0
  6
Continuous
 62
     7
370
    25
100
AcDbCircle
 10
186.5612399869
 20
177.6736373735
 30
0.0
 40
0.7500000000000014
100
AcDbArc
 50
0.0
 51
52.6506509554
  0
LINE
  5
D6
330
1F
100
AcDbEntity
  8
0
  6
Continuous
 62
     7
370
    25
100
AcDbLine
 10
161.4417277917
 20
162.8447230369
 30
0.0
 11
162.6612399869
 21
164.0947230369
 31
0.0
  0
LINE
  5
D7
330
1F
100
AcDbEntity
  8
0
  6
Continuous
 62
     7
370
    25
100
AcDbLine
 10
162.6612399869
 20
180.5947230369
 30
0.0
 11
161.4417277917
 21
181.8447230369
 31
0.0
  0
LINE
  5
D8
330
1F
100
AcDbEntity
  8
0
  6
Continuous
 62
     7
370
    25
100
AcDbLine
 10
155.8662999127
 20
181.7447230369
 30
0.0
 11
155.4000946307
 21
181.7447230369
 31
0.0
  0
SPLINE
  5
D9
330
1F
100
AcDbEntity
  8
0
  6
Continuous
 62
     7
370
    25
100
AcDbSpline
210
0.0
220
0.0
230
1.0
 70
     8
 71
     3
 72
     9
 73
     5
 74
     0
 42
0.00000001
 43
0.00000001
 40
0.0
 40
0.0
 40
0.0
 40
0.0
 40
0.2308149029361558
 40
1.0
 40
1.0
 40
1.0
 40
1.0
 10
155.2112399868678
 20
163.2210378523022
 30
0.0
 10
155.2332789272993
 20
163.2591832855142
 30
0.0
 10
155.3287621051664
 20
163.4244474548842
 30
0.0
 10
155.424269101771
 20
163.5896907821457
 30
0.0
 10
155.4977316602247
 20
163.7167934868646
 30
0.0
  0
SPLINE
  5
DA
330
1F
100
AcDbEntity
  8
0
  6
Continuous
 62
     7
370
    25
100
AcDbSpline
210
0.0
220
0.0
230
1.0
 70
     8
 71
     3
 72
     9
 73
     5
 74
     0
 42
0.00000001
 43
0.00000001
 40
0.0
 40
0.0
 40
0.0
 40
0.0
 40
0.4982449658294387
 40
1.0
 40
1.0
 40
1.0
 40
1.0
 10
156.20328609938
 20
180.9726545362036
 30
0.0
 10
156.1299062560809
 20
181.0996014253074
 30
0.0
 10
155.9826296184195
 20
181.3543895271649
 30
0.0
 10
155.8354124202903
 20
181.60923859612
 30
0.0
 10
155.7615454500125
 20
181.7371103994219
 30
0.0
  0
SPLINE
  5
DB
330
1F
100
AcDbEntity
  8
0
  6
Continuous
 62
     7
370
    25
100
AcDbSpline
210
0.0
220
0.0
230
1.0
 70
     8
 71
     3
 72
     9
 73
     5
 74
     0
 42
0.00000001
 43
0.00000001
 40
0.0
 40
0.0
 40
0.0
 40
0.0
 40
0.6441820525844191
 40
0.9999999999999999
 40
0.9999999999999999
 40
0.9999999999999999
 40
0.9999999999999999
 10
155.6552922591561
 20
163.716813779245
 30
0.0
 10
155.729084889427
 20
163.5891265996865
 30
0.0
 10
155.8436373361691
 20
163.3909106154841
 30
0.0
 10
155.9581743065931
 20
163.1926790256456
 30
0.0
 10
155.9989286163125
 20
163.1221446682363
 30
0.0
  0
LINE
  5
DC
330
1F
100
AcDbEntity
  8
0
  6
Continuous
 62
     7
370
    25
100
AcDbLine
 10
155.3914873546
 20
181.7371056266
 30
0.0
 11
155.2112399869
 21
181.4251554917
 31
0.0
  0
LINE
  5
DD
330
1F
100
AcDbEntity
  8
0
  6
Continuous
 62
     7
370
    25
100
AcDbLine
 10
156.0320928826
 20
163.1155759326
 30
0.0
 11
156.3612399869
 21
163.4447230369
 31
0.0
  0
SPLINE
  5
DE
330
1F
100
AcDbEntity
  8
0
  6
Continuous
 62
     7
370
    25
100
AcDbSpline
210
0.0
220
0.0
230
1.0
 70
     8
 71
     3
 72
     9
 73
     5
 74
     0
 42
0.00000001
 43
0.00000001
 40
0.0
 40
0.0
 40
0.0
 40
0.0
 40
0.5156973194565428
 40
1.0
 40
1.0
 40
1.0
 40
1.0
 10
155.4881729976468
 20
163.7085114859787
 30
0.0
 10
155.5177367722139
 20
163.7085157922142
 30
0.0
 10
155.5750645368767
 20
163.7085241425299
 30
0.0
 10
155.6323475232412
 20
163.7085159078547
 30
0.0
 10
155.6600898270871
 20
163.7085119197794
 30
0.0
  0
SPLINE
  5
DF
330
1F
100
AcDbEntity
  8
0
  6
Continuous
 62
     7
370
    25
100
AcDbSpline
210
0.0
220
0.0
230
1.0
 70
     8
 71
     3
 72
     9
 73
     5
 74
     0
 42
0.00000001
 43
0.00000001
 40
0.0
 40
0.0
 40
0.0
 40
0.0
 40
0.5100779247870971
 40
1.0
 40
1.0
 40
1.0
 40
1.0
 10
156.3701182535146
 20
180.9809346109605
 30
0.0
 10
156.3409750241215
 20
180.9809197109765
 30
0.0
 10
156.2838401669225
 20
180.9808904997848
 30
0.0
 10
156.2265627985552
 20
180.9809190373023
 30
0.0
 10
156.198501351382
 20
180.9809330184621
 30
0.0
  0
LINE
  5
E0
330
1F
100
AcDbEntity
  8
0
  6
Continuous
 62
     7
370
    25
100
AcDbLine
 10
156.3612399869
 20
164.2197230369
 30
0.0
 11
157.8612399869
 21
164.2197230369
 31
0.0
  0
LINE
  5
E1
330
1F
100
AcDbEntity
  8
0
  6
Continuous
 62
     7
370
    25
100
AcDbLine
 10
157.8612399869
 20
180.4697230369
 30
0.0
 11
156.3612399869
 21
180.4697230369
 31
0.0
  0
ARC
  5
E2
330
1F
100
AcDbEntity
  8
0
  6
Continuous
 62
     7
370
    25
100
AcDbCircle
 10
147.4612399869
 20
166.6037346648
 30
0.0
 40
9.134011627906972
100
AcDbArc
 50
270.0
 51
328.0464183091
  0
ARC
  5
E3
330
1F
100
AcDbEntity
  8
0
  6
Continuous
 62
     7
370
    25
100
AcDbCircle
 10
147.4612399869
 20
178.085711409
 30
0.0
 40
9.134011627907
100
AcDbArc
 50
31.9535816909
 51
90.0
  0
LINE
  5
E4
330
1F
100
AcDbEntity
  8
0
  6
Continuous
 62
     7
370
    25
100
AcDbLine
 10
138.8166169267
 20
187.0276874711
 30
0.0
 11
138.7109507983
 21
186.8447230369
 31
0.0
  0
SPLINE
  5
E5
330
1F
100
AcDbEntity
  8
0
  6
Continuous
 62
     7
370
    25
100
AcDbSpline
210
0.0
220
0.0
230
1.0
 70
     8
 71
     3
 72
     9
 73
     5
 74
     0
 42
0.00000001
 43
0.00000001
 40
0.0
 40
0.0
 40
0.0
 40
0.0
 40
0.4999972376865703
 40
1.0
 40
1.0
 40
1.0
 40
1.0
 10
139.0514685640808
 20
158.3546227827348
 30
0.0
 10
139.1181846929223
 20
158.2391037025583
 30
0.0
 10
139.2516176877726
 20
158.0080642657987
 30
0.0
 10
139.3850484881838
 20
157.777023634659
 30
0.0
 10
139.4517642569671
 20
157.6615026808825
 30
0.0
  0
LINE
  5
E6
330
1F
100
AcDbEntity
  8
0
  6
Continuous
 62
     7
370
    25
100
AcDbLine
 10
138.9801185817
 20
187.0321152727
 30
0.0
 11
138.8213685817
 21
187.0321152727
 31
0.0
  0
LINE
  5
E7
330
1F
100
AcDbEntity
  8
0
  6
Continuous
 62
     7
370
    25
100
AcDbLine
 10
170.5612399869
 20
177.9947230369
 30
0.0
 11
162.6612399869
 21
177.9947230369
 31
0.0
  0
LINE
  5
E8
330
1F
100
AcDbEntity
  8
0
  6
Continuous
 62
     7
370
    25
100
AcDbLine
 10
162.6612399869
 20
166.6947230369
 30
0.0
 11
170.5612399869
 21
166.6947230369
 31
0.0
  0
ARC
  5
E9
330
1F
100
AcDbEntity
  8
0
  6
Continuous
 62
     7
370
    25
100
AcDbCircle
 10
98.7882609298
 20
166.8044787237
 30
0.0
 40
0.1000000000000177
100
AcDbArc
 50
34.6269032223
 51
109.8647129028
  0
ARC
  5
EA
330
1F
100
AcDbEntity
  8
0
  6
Continuous
 62
     7
370
    25
100
AcDbCircle
 10
106.8112399869
 20
172.3447230369
 30
0.0
 40
9.650000000000027
100
AcDbArc
 50
324.9501653321
 51
211.6883360596
  0
ARC
  5
EB
330
1F
100
AcDbEntity
  8
0
  6
Continuous
 62
     7
370
    25
100
AcDbCircle
 10
98.5147888605
 20
167.2230632759
 30
0.0
 40
0.1000000000000152
100
AcDbArc
 50
316.450526379
 51
31.6883360596
  0
ARC
  5
EC
330
1F
100
AcDbEntity
  8
0
  6
Continuous
 62
     7
370
    25
100
AcDbCircle
 10
106.8112399869
 20
19.9447230369
 30
0.0
 40
7.899999999999991
100
AcDbArc
 50
180.0
 51
0.0
  0
ARC
  5
ED
330
1F
100
AcDbEntity
  8
0
  6
Continuous
 62
     7
370
    25
100
AcDbCircle
 10
106.8112399869
 20
172.3447230369
 30
0.0
 40
7.899999999999991
100
AcDbArc
 50
0.0
 51
180.0
  0
ARC
  5
EE
330
1F
100
AcDbEntity
  8
0
  6
Continuous
 62
     7
370
    25
100
AcDbCircle
 10
106.8112399869
 20
19.9447230369
 30
0.0
 40
10.82499999999998
100
AcDbArc
 50
136.8689719021
 51
180.0
  0
ARC
  5
EF
330
1F
100
AcDbEntity
  8
0
  6
Continuous
 62
     7
370
    25
100
AcDbCircle
 10
106.8112399869
 20
19.9447230369
 30
0.0
 40
10.82499999999998
100
AcDbArc
 50
180.0
 51
43.1310280979
  0
LINE
  5
F0
330
1F
100
AcDbEntity
  8
0
  6
Continuous
 62
     7
370
    25
100
AcDbLine
 10
114.5606282509
 20
173.5880647243
 30
0.0
 11
114.6044030108
 21
172.3259482547
 31
0.0
  0
LINE
  5
F1
330
1F
100
AcDbEntity
  8
0
  6
Continuous
 62
     7
370
    25
100
AcDbLine
 10
98.9173209549
 20
172.5893905891
 30
0.0
 11
98.9906657673
 21
172.95499556
 31
0.0
  0
SPLINE
  5
F2
330
1F
100
AcDbEntity
  8
0
  6
Continuous
 62
     7
370
    25
100
AcDbSpline
210
0.0
220
0.0
230
1.0
 70
     8
 71
     3
 72
     9
 73
     5
 74
     0
 42
0.00000001
 43
0.00000001
 40
0.0
 40
0.0
 40
0.0
 40
0.0
 40
0.4231156651055217
 40
1.0
 40
1.0
 40
1.0
 40
1.0
 10
112.278531675824
 20
177.9690898183076
 30
0.0
 10
112.3860727658998
 20
177.8940242746625
 30
0.0
 10
112.6402375225958
 20
177.716612871976
 30
0.0
 10
112.8304677879608
 20
177.4709769807495
 30
0.0
 10
112.9402086480727
 20
177.3292734830132
 30
0.0
  0
ARC
  5
F3
330
1F
100
AcDbEntity
  8
0
  6
Continuous
 62
     7
370
    25
100
AcDbCircle
 10
106.8112399869
 20
172.3447230369
 30
0.0
 40
9.925000000000018
100
AcDbArc
 50
322.7469493593
 51
217.2530506407
  0
ARC
  5
F4
330
1F
100
AcDbEntity
  8
0
  6
Continuous
 62
     7
370
    25
100
AcDbCircle
 10
106.8112399869
 20
172.3447230369
 30
0.0
 40
9.725000000000035
100
AcDbArc
 50
324.3251241983
 51
215.6748758017
  0
ARC
  5
F5
330
1F
100
AcDbEntity
  8
0
  6
Continuous
 62
     7
370
    25
100
AcDbCircle
 10
106.8112399869
 20
172.3447230369
 30
0.0
 40
14.22500000000002
100
AcDbArc
 50
303.7355336397
 51
223.2235523034
  0
LWPOLYLINE
  5
F6
330
1F
100
AcDbEntity
  8
0
  6
Continuous
 62
     7
370
    25
100
AcDbPolyline
 90
        3
 70
   128
 43
0.0
 10
98.9112399869
 20
160.5150727885
 10
97.8687384012
 20
161.2820700824
 10
96.4456649606
 20
162.6027787045
  0
LINE
  5
F7
330
1F
100
AcDbEntity
  8
0
  6
Continuous
 62
     7
370
    25
100
AcDbLine
 10
114.6860199009
 20
184.4813791244
 30
0.0
 11
114.5539877198
 21
184.2778903677
 31
0.0
  0
SPLINE
  5
F8
330
1F
100
AcDbEntity
  8
0
  6
Continuous
 62
     7
370
    25
100
AcDbSpline
210
0.0
220
0.0
230
1.0
 70
     8
 71
     3
 72
    11
 73
     7
 74
     0
 42
0.00000001
 43
0.00000001
 40
0.0
 40
0.0
 40
0.0
 40
0.0
 40
0.1446702591042557
 40
0.3907520209323692
 40
0.5962314811354859
 40
0.9999999999999999
 40
0.9999999999999999
 40
0.9999999999999999
 40
0.9999999999999999
 10
119.4125696150382
 20
179.452259268498
 30
0.0
 10
119.2134517185231
 20
179.7197572284934
 30
0.0
 10
118.6756375129715
 20
180.4422648752669
 30
0.0
 10
117.7860595590195
 20
181.492058987332
 30
0.0
 10
116.4432522729345
 20
182.9387048382206
 30
0.0
 10
115.3864182790011
 20
183.8664993935461
 30
0.0
 10
114.6860199008741
 20
184.481379124436
 30
0.0
  0
LINE
  5
F9
330
1F
100
AcDbEntity
  8
0
  6
Continuous
 62
     7
370
    25
100
AcDbLine
 10
119.201289928
 20
179.3330910478
 30
0.0
 11
119.412569615
 21
179.4522592685
 31
0.0
  0
LINE
  5
FA
330
1F
100
AcDbEntity
  8
0
  6
Continuous
 62
     7
370
    25
100
AcDbLine
 10
100.2379774551
 20
185.2328105354
 30
0.0
 11
100.3481877973
 21
185.0167229341
 31
0.0
  0
SPLINE
  5
FB
330
1F
100
AcDbEntity
  8
0
  6
Continuous
 62
     7
370
    25
100
AcDbSpline
210
0.0
220
0.0
230
1.0
 70
     8
 71
     3
 72
    11
 73
     7
 74
     0
 42
0.00000001
 43
0.00000001
 40
0.0
 40
0.0
 40
0.0
 40
0.0
 40
0.1446702591042559
 40
0.3907520209323661
 40
0.5962314811354594
 40
1.0
 40
1.0
 40
1.0
 40
1.0
 10
106.9565978660601
 20
186.8115627321499
 30
0.0
 10
106.6253788889859
 20
186.7728705554174
 30
0.0
 10
105.7307618096758
 20
186.6683636142803
 30
0.0
 10
104.3768244629081
 20
186.4228635635438
 30
0.0
 10
102.4525887627168
 20
185.9832812668517
 30
0.0
 10
101.1206781113453
 20
185.5319334581852
 30
0.0
 10
100.2379774550589
 20
185.2328105354027
 30
0.0
  0
LINE
  5
FC
330
1F
100
AcDbEntity
  8
0
  6
Continuous
 62
     7
370
    25
100
AcDbLine
 10
106.9565978661
 20
186.8115627321
 30
0.0
 11
106.954160729
 21
186.5690050455
 31
0.0
  0
LINE
  5
FD
330
1F
100
AcDbEntity
  8
0
  6
Continuous
 62
     7
370
    25
100
AcDbLine
 10
92.3631975411
 20
173.0961544479
 30
0.0
 11
92.6054400643
 21
173.0835556033
 31
0.0
  0
SPLINE
  5
FE
330
1F
100
AcDbEntity
  8
0
  6
Continuous
 62
     7
370
    25
100
AcDbSpline
210
0.0
220
0.0
230
1.0
 70
     8
 71
     3
 72
    11
 73
     7
 74
     0
 42
0.00000001
 43
0.00000001
 40
0.0
 40
0.0
 40
0.0
 40
0.0
 40
0.1446702591042558
 40
0.3907520209323621
 40
0.5962314811354645
 40
1.0
 40
1.0
 40
1.0
 40
1.0
 10
94.35526823788966
 20
179.7040265005395
 30
0.0
 10
94.22316715733062
 20
179.3978363638115
 30
0.0
 10
93.86636428357208
 20
178.570821775901
 30
0.0
 10
93.4020048907564
 20
177.2755276130995
 30
0.0
 10
92.82057647665
 20
175.3892994655187
 30
0.0
 10
92.54549981921194
 20
174.0101571015267
 30
0.0
 10
92.36319754105266
 20
173.0961544478542
 30
0.0
  0
LINE
  5
FF
330
1F
100
AcDbEntity
  8
0
  6
Continuous
 62
     7
370
    25
100
AcDbLine
 10
94.3552682379
 20
179.7040265005
 30
0.0
 11
94.5641107879
 21
179.5806370346
 31
0.0
  0
SPLINE
  5
100
330
1F
100
AcDbEntity
  8
0
  6
Continuous
 62
     7
370
    25
100
AcDbSpline
210
0.0
220
0.0
230
1.0
 70
     8
 71
     3
 72
    11
 73
     7
 74
     0
 42
0.00000001
 43
0.00000001
 40
0.0
 40
0.0
 40
0.0
 40
0.0
 40
0.1446702591042542
 40
0.3907520209323654
 40
0.5962314811354789
 40
1.0
 40
1.0
 40
1.0
 40
1.0
 10
94.20991035869736
 20
165.2371868052772
 30
0.0
 10
94.4090282552125
 20
164.9696888452817
 30
0.0
 10
94.9468424607641
 20
164.2471811985082
 30
0.0
 10
95.8364204147161
 20
163.1973870864431
 30
0.0
 10
97.1792277008011
 20
161.7507412355545
 30
0.0
 10
98.2360616947345
 20
160.822946680229
 30
0.0
 10
98.93646007286156
 20
160.2080669493391
 30
0.0
  0
LINE
  5
101
330
1F
100
AcDbEntity
  8
0
  6
Continuous
 62
     7
370
    25
100
AcDbLine
 10
94.2099103587
 20
165.2371868053
 30
0.0
 11
94.4211900457
 21
165.356355026
 31
0.0
  0
LINE
  5
102
330
1F
100
AcDbEntity
  8
0
  6
Continuous
 62
     7
370
    25
100
AcDbLine
 10
121.0170399094
 20
171.6058904705
 30
0.0
 11
121.2592824327
 21
171.5932916259
 31
0.0
  0
SPLINE
  5
103
330
1F
100
AcDbEntity
  8
0
  6
Continuous
 62
     7
370
    25
100
AcDbSpline
210
0.0
220
0.0
230
1.0
 70
     8
 71
     3
 72
    11
 73
     7
 74
     0
 42
0.00000001
 43
0.00000001
 40
0.0
 40
0.0
 40
0.0
 40
0.0
 40
0.1446702591042547
 40
0.3907520209323575
 40
0.596231481135475
 40
1.0
 40
1.0
 40
1.0
 40
1.0
 10
119.2672117358459
 20
164.9854195732357
 30
0.0
 10
119.399312816405
 20
165.2916097099636
 30
0.0
 10
119.7561156901635
 20
166.1186242978742
 30
0.0
 10
120.2204750829792
 20
167.4139184606757
 30
0.0
 10
120.8019034970856
 20
169.3001466082565
 30
0.0
 10
121.0769801545237
 20
170.6792889722485
 30
0.0
 10
121.259282432683
 20
171.593291625921
 30
0.0
  0
LINE
  5
104
330
1F
100
AcDbEntity
  8
0
  6
Continuous
 62
     7
370
    25
100
AcDbLine
 10
119.0583691859
 20
165.1088090391
 30
0.0
 11
119.2672117358
 21
164.9854195732
 31
0.0
  0
SPLINE
  5
105
330
1F
100
AcDbEntity
  8
0
  6
Continuous
 62
     7
370
    25
100
AcDbSpline
210
0.0
220
0.0
230
1.0
 70
     8
 71
     3
 72
     9
 73
     5
 74
     0
 42
0.00000001
 43
0.00000001
 40
0.0
 40
0.0
 40
0.0
 40
0.0
 40
0.5863847898283578
 40
1.0
 40
1.0
 40
1.0
 40
1.0
 10
118.5412411583692
 20
163.4434479868413
 30
0.0
 10
118.6888177048017
 20
163.7425860285299
 30
0.0
 10
118.9404895574698
 20
164.2527255254568
 30
0.0
 10
119.1716148142053
 20
164.771037752509
 30
0.0
 10
119.2672117358459
 20
164.9854195732357
 30
0.0
  0
ARC
  5
106
330
1F
100
AcDbEntity
  8
0
  6
Continuous
 62
     7
370
    25
100
AcDbCircle
 10
106.8112399869
 20
172.3447230369
 30
0.0
 40
14.72500000000002
100
AcDbArc
 50
303.6400367407
 51
322.8070678661
  0
SPLINE
  5
107
330
1F
100
AcDbEntity
  8
0
  6
Continuous
 62
     7
370
    25
100
AcDbSpline
210
0.0
220
0.0
230
1.0
 70
     8
 71
     3
 72
     9
 73
     5
 74
     0
 42
0.00000001
 43
0.00000001
 40
0.0
 40
0.0
 40
0.0
 40
0.0
 40
0.5862283062032674
 40
1.0
 40
1.0
 40
1.0
 40
1.0
 10
92.36319754105266
 20
173.0961544478542
 30
0.0
 10
92.30894490379669
 20
172.7678285928384
 30
0.0
 10
92.21639966727044
 20
172.2077637656344
 30
0.0
 10
92.14534605207284
 20
171.6433869051
 30
0.0
 10
92.11594607736215
 20
171.409863735577
 30
0.0
  0
SPLINE
  5
108
330
1F
100
AcDbEntity
  8
0
  6
Continuous
 62
     7
370
    25
100
AcDbSpline
210
0.0
220
0.0
230
1.0
 70
     8
 71
     3
 72
     9
 73
     5
 74
     0
 42
0.00000001
 43
0.00000001
 40
0.0
 40
0.0
 40
0.0
 40
0.0
 40
0.5863847898283638
 40
1.0
 40
1.0
 40
1.0
 40
1.0
 10
93.23750908170443
 20
166.6368815609692
 30
0.0
 10
93.42278195182887
 20
166.3595075019117
 30
0.0
 10
93.7387397893073
 20
165.8864835356202
 30
0.0
 10
94.0720487166588
 20
165.4271670783049
 30
0.0
 10
94.20991035869736
 20
165.2371868052772
 30
0.0
  0
ARC
  5
109
330
1F
100
AcDbEntity
  8
0
  6
Continuous
 62
     7
370
    25
100
AcDbCircle
 10
106.8112399869
 20
172.3447230369
 30
0.0
 40
14.72500000000002
100
AcDbArc
 50
183.6400367407
 51
202.8070678661
  0
SPLINE
  5
10A
330
1F
100
AcDbEntity
  8
0
  6
Continuous
 62
     7
370
    25
100
AcDbSpline
210
0.0
220
0.0
230
1.0
 70
     8
 71
     3
 72
     9
 73
     5
 74
     0
 42
0.00000001
 43
0.00000001
 40
0.0
 40
0.0
 40
0.0
 40
0.0
 40
0.5862283062032875
 40
1.0
 40
1.0
 40
1.0
 40
1.0
 10
121.259282432683
 20
171.593291625921
 30
0.0
 10
121.3135350699389
 20
171.9216174809368
 30
0.0
 10
121.4060803064651
 20
172.4816823081408
 30
0.0
 10
121.4771339216627
 20
173.0460591686751
 30
0.0
 10
121.5065338963734
 20
173.2795823381981
 30
0.0
  0
SPLINE
  5
10B
330
1F
100
AcDbEntity
  8
0
  6
Continuous
 62
     7
370
    25
100
AcDbSpline
210
0.0
220
0.0
230
1.0
 70
     8
 71
     3
 72
     9
 73
     5
 74
     0
 42
0.00000001
 43
0.00000001
 40
0.0
 40
0.0
 40
0.0
 40
0.0
 40
0.5863847898283613
 40
1.0
 40
1.0
 40
1.0
 40
1.0
 10
120.3849708920311
 20
178.0525645128059
 30
0.0
 10
120.1996980219067
 20
178.3299385718635
 30
0.0
 10
119.8837401844283
 20
178.802962538155
 30
0.0
 10
119.5504312570768
 20
179.2622789954702
 30
0.0
 10
119.4125696150382
 20
179.452259268498
 30
0.0
  0
ARC
  5
10C
330
1F
100
AcDbEntity
  8
0
  6
Continuous
 62
     7
370
    25
100
AcDbCircle
 10
106.8112399869
 20
172.3447230369
 30
0.0
 40
14.72500000000002
100
AcDbArc
 50
3.6400367407
 51
22.8070678661
  0
SPLINE
  5
10D
330
1F
100
AcDbEntity
  8
0
  6
Continuous
 62
     7
370
    25
100
AcDbSpline
210
0.0
220
0.0
230
1.0
 70
     8
 71
     3
 72
     9
 73
     5
 74
     0
 42
0.00000001
 43
0.00000001
 40
0.0
 40
0.0
 40
0.0
 40
0.0
 40
0.5862283062032709
 40
0.9999999999999999
 40
0.9999999999999999
 40
0.9999999999999999
 40
0.9999999999999999
 10
114.6860199008741
 20
184.481379124436
 30
0.0
 10
114.4288076883391
 20
184.6925262140299
 30
0.0
 10
113.9900499384774
 20
185.0527051534628
 30
0.0
 10
113.5368120475453
 20
185.3964278195219
 30
0.0
 10
113.3492750377215
 20
185.5386505292535
 30
0.0
  0
SPLINE
  5
10E
330
1F
100
AcDbEntity
  8
0
  6
Continuous
 62
     7
370
    25
100
AcDbSpline
210
0.0
220
0.0
230
1.0
 70
     8
 71
     3
 72
     9
 73
     5
 74
     0
 42
0.00000001
 43
0.00000001
 40
0.0
 40
0.0
 40
0.0
 40
0.0
 40
0.5863847898283634
 40
1.0
 40
1.0
 40
1.0
 40
1.0
 10
108.6549697205297
 20
186.9538395628521
 30
0.0
 10
108.3221203039728
 20
186.9320755802211
 30
0.0
 10
107.7544906138263
 20
186.8949600495857
 30
0.0
 10
107.1900564297393
 20
186.8359642798488
 30
0.0
 10
106.9565978660601
 20
186.8115627321499
 30
0.0
  0
ARC
  5
10F
330
1F
100
AcDbEntity
  8
0
  6
Continuous
 62
     7
370
    25
100
AcDbCircle
 10
106.8112399869
 20
172.3447230369
 30
0.0
 40
14.725
100
AcDbArc
 50
63.6400367407
 51
82.8070678661
  0
SPLINE
  5
110
330
1F
100
AcDbEntity
  8
0
  6
Continuous
 62
     7
370
    25
100
AcDbSpline
210
0.0
220
0.0
230
1.0
 70
     8
 71
     3
 72
     9
 73
     5
 74
     0
 42
0.00000001
 43
0.00000001
 40
0.0
 40
0.0
 40
0.0
 40
0.0
 40
0.5862283062032693
 40
1.0
 40
1.0
 40
1.0
 40
1.0
 10
100.2379774550589
 20
185.2328105354027
 30
0.0
 10
99.926512605268
 20
185.1156317699807
 30
0.0
 10
99.3952096188801
 20
184.9157458822097
 30
0.0
 10
98.8709181127504
 20
184.6950916877344
 30
0.0
 10
98.65398112821589
 20
184.6037912279429
 30
0.0
  0
SPLINE
  5
111
330
1F
100
AcDbEntity
  8
0
  6
Continuous
 62
     7
370
    25
100
AcDbSpline
210
0.0
220
0.0
230
1.0
 70
     8
 71
     3
 72
     9
 73
     5
 74
     0
 42
0.00000001
 43
0.00000001
 40
0.0
 40
0.0
 40
0.0
 40
0.0
 40
0.5863847898283643
 40
0.9999999999999999
 40
0.9999999999999999
 40
0.9999999999999999
 40
0.9999999999999999
 10
95.08123881536639
 20
181.2459980869338
 30
0.0
 10
94.9336622689339
 20
180.9468600452452
 30
0.0
 10
94.68199041626585
 20
180.4367205483183
 30
0.0
 10
94.4508651595303
 20
179.9184083212662
 30
0.0
 10
94.35526823788966
 20
179.7040265005395
 30
0.0
  0
ARC
  5
112
330
1F
100
AcDbEntity
  8
0
  6
Continuous
 62
     7
370
    25
100
AcDbCircle
 10
106.8112399869
 20
172.3447230369
 30
0.0
 40
14.725
100
AcDbArc
 50
123.6400367407
 51
142.8070678661
  0
SPLINE
  5
113
330
1F
100
AcDbEntity
  8
0
  6
Continuous
 62
     7
370
    25
100
AcDbSpline
210
0.0
220
0.0
230
1.0
 70
    24
 71
     3
 72
    12
 73
     8
 74
     0
 42
0.00000001
 43
0.00000001
 40
0.0
 40
0.0
 40
0.0
 40
0.0
 40
0.3013828945620944
 40
0.4108442493795586
 40
0.6247185195336503
 40
0.6986171054378635
 40
0.9999999999999999
 40
0.9999999999999999
 40
0.9999999999999999
 40
0.9999999999999999
 10
98.71223712574111
 20
160.0815983331182
 30
0.0
 10
98.24713367389975
 20
160.5764753885126
 30
0.0
 10
97.61310605652866
 20
161.2510902921025
 30
0.0
 10
96.6443901079939
 20
162.2818186047532
 30
0.0
 10
96.02726530304508
 20
162.9384486621626
 30
0.0
 10
95.11401507652405
 20
163.9101606138793
 30
0.0
 10
94.53488241884764
 20
164.5263664562117
 30
0.0
 10
94.06978971965799
 20
165.0212320706233
 30
0.0
  0
ARC
  5
114
330
1F
100
AcDbEntity
  8
0
  6
Continuous
 62
     7
370
    25
100
AcDbCircle
 10
94.4479555287
 20
164.9292974603
 30
0.0
 40
0.389180358796523
100
AcDbArc
 50
127.7094634934
 51
166.3360839426
  0
SPLINE
  5
115
330
1F
100
AcDbEntity
  8
0
  6
Continuous
 62
     7
370
    25
100
AcDbSpline
210
0.0
220
0.0
230
1.0
 70
    24
 71
     3
 72
    12
 73
     8
 74
     0
 42
0.00000001
 43
0.00000001
 40
0.0
 40
0.0
 40
0.0
 40
0.0
 40
0.3013828945620992
 40
0.4108442493795573
 40
0.6247185195336495
 40
0.6986171054378605
 40
1.0
 40
1.0
 40
1.0
 40
1.0
 10
121.4809189406719
 20
171.4623431657137
 30
0.0
 10
121.284894564871
 20
170.8121132333341
 30
0.0
 10
121.0176747292761
 20
169.9257217581948
 30
0.0
 10
120.6093958003882
 20
168.5714249813873
 30
0.0
 10
120.3492998922576
 20
167.7086641942914
 30
0.0
 10
119.9643977701705
 20
166.4319103222539
 30
0.0
 10
119.7203141855884
 20
165.6222638073787
 30
0.0
 10
119.5242943416435
 20
164.97204890756
 30
0.0
  0
ARC
  5
116
330
1F
100
AcDbEntity
  8
0
  6
Continuous
 62
     7
370
    25
100
AcDbCircle
 10
119.4148291451
 20
165.3455174101
 30
0.0
 40
0.3891803587962824
100
AcDbArc
 50
247.7094634934
 51
286.3360839426
  0
ARC
  5
117
330
1F
100
AcDbEntity
  8
0
  6
Continuous
 62
     7
370
    25
100
AcDbCircle
 10
121.1832747785
 20
171.2116056448
 30
0.0
 40
0.3891803587986934
100
AcDbArc
 50
40.1110206644
 51
78.7376411134
  0
ARC
  5
118
330
1F
100
AcDbEntity
  8
0
  6
Continuous
 62
     7
370
    25
100
AcDbCircle
 10
92.4392051953
 20
173.477840429
 30
0.0
 40
0.3891803588381089
100
AcDbArc
 50
220.1110206664
 51
258.7376411113
  0
SPLINE
  5
119
330
1F
100
AcDbEntity
  8
0
  6
Continuous
 62
     7
370
    25
100
AcDbSpline
210
0.0
220
0.0
230
1.0
 70
    24
 71
     3
 72
    12
 73
     8
 74
     0
 42
0.00000001
 43
0.00000001
 40
0.0
 40
0.0
 40
0.0
 40
0.0
 40
0.3013828945621506
 40
0.4108442493795785
 40
0.6247185195336595
 40
0.6986171054378615
 40
1.0
 40
1.0
 40
1.0
 40
1.0
 10
92.14156103306368
 20
173.2271029080615
 30
0.0
 10
92.3375854088646
 20
173.8773328404413
 30
0.0
 10
92.60480524445954
 20
174.7637243155806
 30
0.0
 10
93.01308417334751
 20
176.1180210923881
 30
0.0
 10
93.27318008147802
 20
176.9807818794839
 30
0.0
 10
93.65808220356514
 20
178.2575357515213
 30
0.0
 10
93.9021657881472
 20
179.0671822663965
 30
0.0
 10
94.09818563209213
 20
179.7173971662151
 30
0.0
  0
ARC
  5
11A
330
1F
100
AcDbEntity
  8
0
  6
Continuous
 62
     7
370
    25
100
AcDbCircle
 10
94.2076508286
 20
179.3439286636
 30
0.0
 40
0.3891803587965299
100
AcDbArc
 50
67.7094634934
 51
106.3360839426
  0
ARC
  5
11B
330
1F
100
AcDbEntity
  8
0
  6
Continuous
 62
     7
370
    25
100
AcDbCircle
 10
100.6065310381
 20
185.3578289665
 30
0.0
 40
0.389180358838365
100
AcDbArc
 50
160.1110206665
 51
198.7376411113
  0
SPLINE
  5
11C
330
1F
100
AcDbEntity
  8
0
  6
Continuous
 62
     7
370
    25
100
AcDbSpline
210
0.0
220
0.0
230
1.0
 70
    24
 71
     3
 72
    12
 73
     8
 74
     0
 42
0.00000001
 43
0.00000001
 40
0.0
 40
0.0
 40
0.0
 40
0.0
 40
0.3013828945621499
 40
0.4108442493795587
 40
0.6247185195336379
 40
0.6986171054378638
 40
0.9999999999999999
 40
0.9999999999999999
 40
0.9999999999999999
 40
0.9999999999999999
 10
100.2405638941904
 20
185.4902276118308
 30
0.0
 10
100.9016917218328
 20
185.6455804888161
 30
0.0
 10
101.8029391747988
 20
185.8573570603654
 30
0.0
 10
103.1799340522215
 20
186.1809255245223
 30
0.0
 10
104.0571547653007
 20
186.3870562542088
 30
0.0
 10
105.3553071139089
 20
186.6920981745295
 30
0.0
 10
106.1785233561674
 20
186.8855388470723
 30
0.0
 10
106.839635899302
 20
187.0408881324794
 30
0.0
  0
ARC
  5
11D
330
1F
100
AcDbEntity
  8
0
  6
Continuous
 62
     7
370
    25
100
AcDbCircle
 10
106.5709352868
 20
186.7593542402
 30
0.0
 40
0.3891803587964736
100
AcDbArc
 50
7.7094634934
 51
46.3360839426
  0
SPLINE
  5
11E
330
1F
100
AcDbEntity
  8
0
  6
Continuous
 62
     7
370
    25
100
AcDbSpline
210
0.0
220
0.0
230
1.0
 70
    24
 71
     3
 72
    12
 73
     8
 74
     0
 42
0.00000001
 43
0.00000001
 40
0.0
 40
0.0
 40
0.0
 40
0.0
 40
0.3013828945621527
 40
0.410844249379554
 40
0.624718519533646
 40
0.6986171054378584
 40
0.9999999999999999
 40
0.9999999999999999
 40
0.9999999999999999
 40
0.9999999999999999
 10
114.9102428479945
 20
184.6078477406569
 30
0.0
 10
115.375346299836
 20
184.1129706852624
 30
0.0
 10
116.009373917207
 20
183.4383557816725
 30
0.0
 10
116.9780898657418
 20
182.4076274690218
 30
0.0
 10
117.5952146706905
 20
181.7509974116126
 30
0.0
 10
118.5084648972115
 20
180.7792854598958
 30
0.0
 10
119.0875975548879
 20
180.1630796175634
 30
0.0
 10
119.5526902540776
 20
179.6682140031519
 30
0.0
  0
ARC
  5
11F
330
1F
100
AcDbEntity
  8
0
  6
Continuous
 62
     7
370
    25
100
AcDbCircle
 10
119.1745244451
 20
179.7601486134
 30
0.0
 40
0.3891803587960692
100
AcDbArc
 50
307.7094634933
 51
346.3360839426
  0
ARC
  5
120
330
1F
100
AcDbEntity
  8
0
  6
Continuous
 62
     7
370
    25
100
AcDbCircle
 10
114.9785658297
 20
184.2247115745
 30
0.0
 40
0.389180358798093
100
AcDbArc
 50
100.1110206644
 51
138.7376411134
  0
LINE
  5
121
330
1F
100
AcDbEntity
  8
0
  6
Continuous
 62
     7
370
    25
100
AcDbLine
 10
119.5242943416
 20
164.9720489076
 30
0.0
 11
119.0199602722
 21
163.299128861
 31
0.0
  0
LINE
  5
122
330
1F
100
AcDbEntity
  8
0
  6
Continuous
 62
     7
370
    25
100
AcDbLine
 10
119.0199602722
 20
163.299128861
 30
0.0
 11
118.5412411584
 21
163.4434479868
 31
0.0
  0
LINE
  5
123
330
1F
100
AcDbEntity
  8
0
  6
Continuous
 62
     7
370
    25
100
AcDbLine
 10
94.0697897197
 20
165.0212320706
 30
0.0
 11
92.8731654955
 21
166.2944582101
 31
0.0
  0
LINE
  5
124
330
1F
100
AcDbEntity
  8
0
  6
Continuous
 62
     7
370
    25
100
AcDbLine
 10
93.2375090817
 20
166.636881561
 30
0.0
 11
92.8731654955
 21
166.2944582101
 31
0.0
  0
LINE
  5
125
330
1F
100
AcDbEntity
  8
0
  6
Continuous
 62
     7
370
    25
100
AcDbLine
 10
119.5526902541
 20
179.6682140032
 30
0.0
 11
120.7493144782
 21
178.3949878637
 31
0.0
  0
LINE
  5
126
330
1F
100
AcDbEntity
  8
0
  6
Continuous
 62
     7
370
    25
100
AcDbLine
 10
120.7493144782
 20
178.3949878637
 30
0.0
 11
120.384970892
 21
178.0525645128
 31
0.0
  0
LINE
  5
127
330
1F
100
AcDbEntity
  8
0
  6
Continuous
 62
     7
370
    25
100
AcDbLine
 10
94.0981856321
 20
179.7173971662
 30
0.0
 11
94.6025197016
 21
181.3903172128
 31
0.0
  0
LINE
  5
128
330
1F
100
AcDbEntity
  8
0
  6
Continuous
 62
     7
370
    25
100
AcDbLine
 10
94.6025197016
 20
181.3903172128
 30
0.0
 11
95.0812388154
 21
181.2459980869
 31
0.0
  0
LINE
  5
129
330
1F
100
AcDbEntity
  8
0
  6
Continuous
 62
     7
370
    25
100
AcDbLine
 10
106.8396358993
 20
187.0408881325
 30
0.0
 11
108.5405941929
 21
187.4405820396
 31
0.0
  0
LINE
  5
12A
330
1F
100
AcDbEntity
  8
0
  6
Continuous
 62
     7
370
    25
100
AcDbLine
 10
108.5405941929
 20
187.4405820396
 30
0.0
 11
108.6549697205
 21
186.9538395629
 31
0.0
  0
LINE
  5
12B
330
1F
100
AcDbEntity
  8
0
  6
Continuous
 62
     7
370
    25
100
AcDbLine
 10
98.9112399869
 20
159.8698563012
 30
0.0
 11
98.7122371257
 21
160.0815983331
 31
0.0
  0
LINE
  5
12C
330
1F
100
AcDbEntity
  8
0
  6
Continuous
 62
     7
370
    25
100
AcDbLine
 10
115.0828743731
 20
159.5989123691
 30
0.0
 11
114.7112399869
 21
159.5115851251
 31
0.0
  0
LINE
  5
12D
330
1F
100
AcDbEntity
  8
0
  6
Continuous
 62
     7
370
    25
100
AcDbLine
 10
115.0828743731
 20
159.5989123691
 30
0.0
 11
114.9684988455
 21
160.0856548458
 31
0.0
  0
LINE
  5
12E
330
1F
100
AcDbEntity
  8
0
  6
Continuous
 62
     7
370
    25
100
AcDbLine
 10
92.1159460774
 20
171.4098637356
 30
0.0
 11
91.6372269636
 21
171.5541828615
 31
0.0
  0
LINE
  5
12F
330
1F
100
AcDbEntity
  8
0
  6
Continuous
 62
     7
370
    25
100
AcDbLine
 10
91.6372269636
 20
171.5541828615
 30
0.0
 11
92.1415610331
 21
173.2271029081
 31
0.0
  0
LINE
  5
130
330
1F
100
AcDbEntity
  8
0
  6
Continuous
 62
     7
370
    25
100
AcDbLine
 10
121.9852530102
 20
173.1352632123
 30
0.0
 11
121.4809189407
 21
171.4623431657
 31
0.0
  0
LINE
  5
131
330
1F
100
AcDbEntity
  8
0
  6
Continuous
 62
     7
370
    25
100
AcDbLine
 10
121.5065338964
 20
173.2795823382
 30
0.0
 11
121.9852530102
 21
173.1352632123
 31
0.0
  0
LINE
  5
132
330
1F
100
AcDbEntity
  8
0
  6
Continuous
 62
     7
370
    25
100
AcDbLine
 10
113.7136186239
 20
185.8810738801
 30
0.0
 11
114.910242848
 21
184.6078477407
 31
0.0
  0
LINE
  5
133
330
1F
100
AcDbEntity
  8
0
  6
Continuous
 62
     7
370
    25
100
AcDbLine
 10
113.3492750377
 20
185.5386505293
 30
0.0
 11
113.7136186239
 21
185.8810738801
 31
0.0
  0
LINE
  5
134
330
1F
100
AcDbEntity
  8
0
  6
Continuous
 62
     7
370
    25
100
AcDbLine
 10
98.6539811282
 20
184.6037912279
 30
0.0
 11
98.5396056006
 21
185.0905337047
 31
0.0
  0
LINE
  5
135
330
1F
100
AcDbEntity
  8
0
  6
Continuous
 62
     7
370
    25
100
AcDbLine
 10
98.5396056006
 20
185.0905337047
 30
0.0
 11
100.2405638942
 21
185.4902276118
 31
0.0
  0
LINE
  5
136
330
1F
100
AcDbEntity
  8
0
  6
Continuous
 62
     7
370
    25
100
AcDbLine
 10
114.9684988455
 20
160.0856548458
 30
0.0
 11
116.8384914225
 21
160.5250686999
 31
0.0
  0
LINE
  5
137
330
1F
100
AcDbEntity
  8
0
  6
Continuous
 62
     7
370
    25
100
AcDbLine
 10
117.9867884303
 20
161.6042799832
 30
0.0
 11
118.5412411584
 21
163.4434479868
 31
0.0
  0
ARC
  5
138
330
1F
100
AcDbEntity
  8
0
  6
Continuous
 62
     7
370
    25
100
AcDbCircle
 10
106.8112399869
 20
172.3447230369
 30
0.0
 40
15.50000000000002
100
AcDbArc
 50
310.309742062
 51
316.1373625449
  0
LINE
  5
139
330
1F
100
AcDbEntity
  8
0
  6
Continuous
 62
     7
370
    25
100
AcDbLine
 10
116.9528669502
 20
160.0383262232
 30
0.0
 11
115.0828743731
 21
159.5989123691
 31
0.0
  0
LINE
  5
13A
330
1F
100
AcDbEntity
  8
0
  6
Continuous
 62
     7
370
    25
100
AcDbLine
 10
116.9528669502
 20
160.0383262232
 30
0.0
 11
116.8384914225
 21
160.5250686999
 31
0.0
  0
ARC
  5
13B
330
1F
100
AcDbEntity
  8
0
  6
Continuous
 62
     7
370
    25
100
AcDbCircle
 10
106.8112399869
 20
172.3447230369
 30
0.0
 40
16.00000000000004
100
AcDbArc
 50
310.309742062
 51
316.1373625449
  0
LINE
  5
13C
330
1F
100
AcDbEntity
  8
0
  6
Continuous
 62
     7
370
    25
100
AcDbLine
 10
117.1619511463
 20
160.1437895277
 30
0.0
 11
116.8384914225
 21
160.5250686999
 31
0.0
  0
LINE
  5
13D
330
1F
100
AcDbEntity
  8
0
  6
Continuous
 62
     7
370
    25
100
AcDbLine
 10
118.347289993
 20
161.2578140782
 30
0.0
 11
117.9867884303
 21
161.6042799832
 31
0.0
  0
LINE
  5
13E
330
1F
100
AcDbEntity
  8
0
  6
Continuous
 62
     7
370
    25
100
AcDbLine
 10
118.465507544
 20
161.4599608573
 30
0.0
 11
117.9867884303
 21
161.6042799832
 31
0.0
  0
ARC
  5
13F
330
1F
100
AcDbEntity
  8
0
  6
Continuous
 62
     7
370
    25
100
AcDbCircle
 10
117.9867884303
 20
161.6042799832
 30
0.0
 40
0.4999999999999949
100
AcDbArc
 50
316.1373625449
 51
343.2235523034
  0
ARC
  5
140
330
1F
100
AcDbEntity
  8
0
  6
Continuous
 62
     7
370
    25
100
AcDbCircle
 10
116.8384914225
 20
160.5250686999
 30
0.0
 40
0.5000000000000254
100
AcDbArc
 50
283.2235523034
 51
310.309742062
  0
LINE
  5
141
330
1F
100
AcDbEntity
  8
0
  6
Continuous
 62
     7
370
    25
100
AcDbLine
 10
119.0199602722
 20
163.299128861
 30
0.0
 11
118.465507544
 21
161.4599608573
 31
0.0
  0
LINE
  5
142
330
1F
100
AcDbEntity
  8
0
  6
Continuous
 62
     7
370
    25
100
AcDbLine
 10
91.9219692328
 20
168.0366357105
 30
0.0
 11
93.2375090817
 21
166.636881561
 31
0.0
  0
LINE
  5
143
330
1F
100
AcDbEntity
  8
0
  6
Continuous
 62
     7
370
    25
100
AcDbLine
 10
92.8731654955
 20
166.2944582101
 30
0.0
 11
91.5576256466
 21
167.6942123597
 31
0.0
  0
LINE
  5
144
330
1F
100
AcDbEntity
  8
0
  6
Continuous
 62
     7
370
    25
100
AcDbLine
 10
91.9219692328
 20
168.0366357105
 30
0.0
 11
91.5576256466
 21
167.6942123597
 31
0.0
  0
ARC
  5
145
330
1F
100
AcDbEntity
  8
0
  6
Continuous
 62
     7
370
    25
100
AcDbCircle
 10
91.9219692328
 20
168.0366357105
 30
0.0
 40
0.5000000000000167
100
AcDbArc
 50
196.1373625449
 51
223.2235523034
  0
LINE
  5
146
330
1F
100
AcDbEntity
  8
0
  6
Continuous
 62
     7
370
    25
100
AcDbLine
 10
91.9219692328
 20
168.0366357105
 30
0.0
 11
91.4416701762
 21
167.8976651516
 31
0.0
  0
LINE
  5
147
330
1F
100
AcDbEntity
  8
0
  6
Continuous
 62
     7
370
    25
100
AcDbLine
 10
92.1159460774
 20
171.4098637356
 30
0.0
 11
91.5614933493
 21
169.5706957319
 31
0.0
  0
ARC
  5
148
330
1F
100
AcDbEntity
  8
0
  6
Continuous
 62
     7
370
    25
100
AcDbCircle
 10
106.8112399869
 20
172.3447230369
 30
0.0
 40
15.50000000000002
100
AcDbArc
 50
190.309742062
 51
196.1373625449
  0
LINE
  5
149
330
1F
100
AcDbEntity
  8
0
  6
Continuous
 62
     7
370
    25
100
AcDbLine
 10
91.5614933493
 20
169.5706957319
 30
0.0
 11
91.0827742355
 21
169.7150148578
 31
0.0
  0
LINE
  5
14A
330
1F
100
AcDbEntity
  8
0
  6
Continuous
 62
     7
370
    25
100
AcDbLine
 10
91.0827742355
 20
169.7150148578
 30
0.0
 11
91.6372269636
 21
171.5541828615
 31
0.0
  0
LINE
  5
14B
330
1F
100
AcDbEntity
  8
0
  6
Continuous
 62
     7
370
    25
100
AcDbLine
 10
121.5065338964
 20
173.2795823382
 30
0.0
 11
122.0609866245
 21
175.1187503418
 31
0.0
  0
LINE
  5
14C
330
1F
100
AcDbEntity
  8
0
  6
Continuous
 62
     7
370
    25
100
AcDbLine
 10
121.700510741
 20
176.6528103632
 30
0.0
 11
120.384970892
 21
178.0525645128
 31
0.0
  0
ARC
  5
14D
330
1F
100
AcDbEntity
  8
0
  6
Continuous
 62
     7
370
    25
100
AcDbCircle
 10
106.8112399869
 20
172.3447230369
 30
0.0
 40
15.50000000000001
100
AcDbArc
 50
10.309742062
 51
16.1373625449
  0
ARC
  5
14E
330
1F
100
AcDbEntity
  8
0
  6
Continuous
 62
     7
370
    25
100
AcDbCircle
 10
91.5614933493
 20
169.5706957319
 30
0.0
 40
0.4999999999999922
100
AcDbArc
 50
163.2235523034
 51
190.309742062
  0
LINE
  5
14F
330
1F
100
AcDbEntity
  8
0
  6
Continuous
 62
     7
370
    25
100
AcDbLine
 10
91.5614933493
 20
169.5706957319
 30
0.0
 11
91.0695660384
 21
169.4812109802
 31
0.0
  0
ARC
  5
150
330
1F
100
AcDbEntity
  8
0
  6
Continuous
 62
     7
370
    25
100
AcDbCircle
 10
106.8112399869
 20
172.3447230369
 30
0.0
 40
16.00000000000002
100
AcDbArc
 50
190.309742062
 51
196.1373625449
  0
LINE
  5
151
330
1F
100
AcDbEntity
  8
0
  6
Continuous
 62
     7
370
    25
100
AcDbLine
 10
122.0609866245
 20
175.1187503418
 30
0.0
 11
122.5397057383
 21
174.974431216
 31
0.0
  0
LINE
  5
152
330
1F
100
AcDbEntity
  8
0
  6
Continuous
 62
     7
370
    25
100
AcDbLine
 10
122.5397057383
 20
174.974431216
 30
0.0
 11
121.9852530102
 21
173.1352632123
 31
0.0
  0
ARC
  5
153
330
1F
100
AcDbEntity
  8
0
  6
Continuous
 62
     7
370
    25
100
AcDbCircle
 10
106.8112399869
 20
172.3447230369
 30
0.0
 40
16.00000000000001
100
AcDbArc
 50
10.309742062
 51
16.1373625449
  0
LINE
  5
154
330
1F
100
AcDbEntity
  8
0
  6
Continuous
 62
     7
370
    25
100
AcDbLine
 10
122.5529139354
 20
175.2082350936
 30
0.0
 11
122.0609866245
 21
175.1187503418
 31
0.0
  0
LINE
  5
155
330
1F
100
AcDbEntity
  8
0
  6
Continuous
 62
     7
370
    25
100
AcDbLine
 10
122.1808097975
 20
176.7917809222
 30
0.0
 11
121.700510741
 21
176.6528103632
 31
0.0
  0
LINE
  5
156
330
1F
100
AcDbEntity
  8
0
  6
Continuous
 62
     7
370
    25
100
AcDbLine
 10
122.0648543271
 20
176.9952337141
 30
0.0
 11
121.700510741
 21
176.6528103632
 31
0.0
  0
ARC
  5
157
330
1F
100
AcDbEntity
  8
0
  6
Continuous
 62
     7
370
    25
100
AcDbCircle
 10
121.700510741
 20
176.6528103632
 30
0.0
 40
0.4999999999999815
100
AcDbArc
 50
16.1373625448
 51
43.2235523034
  0
LINE
  5
158
330
1F
100
AcDbEntity
  8
0
  6
Continuous
 62
     7
370
    25
100
AcDbLine
 10
120.7493144782
 20
178.3949878637
 30
0.0
 11
122.0648543271
 21
176.9952337141
 31
0.0
  0
ARC
  5
159
330
1F
100
AcDbEntity
  8
0
  6
Continuous
 62
     7
370
    25
100
AcDbCircle
 10
122.0609866245
 20
175.1187503418
 30
0.0
 40
0.5000000000000061
100
AcDbArc
 50
343.2235523034
 51
10.309742062
  0
LINE
  5
15A
330
1F
100
AcDbEntity
  8
0
  6
Continuous
 62
     7
370
    25
100
AcDbLine
 10
98.6539811282
 20
184.6037912279
 30
0.0
 11
96.7839885512
 21
184.1643773739
 31
0.0
  0
LINE
  5
15B
330
1F
100
AcDbEntity
  8
0
  6
Continuous
 62
     7
370
    25
100
AcDbLine
 10
95.6356915435
 20
183.0851660906
 30
0.0
 11
95.0812388154
 21
181.2459980869
 31
0.0
  0
ARC
  5
15C
330
1F
100
AcDbEntity
  8
0
  6
Continuous
 62
     7
370
    25
100
AcDbCircle
 10
106.8112399869
 20
172.3447230369
 30
0.0
 40
15.5
100
AcDbArc
 50
130.309742062
 51
136.1373625449
  0
LINE
  5
15D
330
1F
100
AcDbEntity
  8
0
  6
Continuous
 62
     7
370
    25
100
AcDbLine
 10
94.6025197016
 20
181.3903172128
 30
0.0
 11
95.1569724297
 21
183.2294852165
 31
0.0
  0
LINE
  5
15E
330
1F
100
AcDbEntity
  8
0
  6
Continuous
 62
     7
370
    25
100
AcDbLine
 10
95.1569724297
 20
183.2294852165
 30
0.0
 11
95.6356915435
 21
183.0851660906
 31
0.0
  0
ARC
  5
15F
330
1F
100
AcDbEntity
  8
0
  6
Continuous
 62
     7
370
    25
100
AcDbCircle
 10
95.6356915435
 20
183.0851660906
 30
0.0
 40
0.4999999999999949
100
AcDbArc
 50
136.1373625449
 51
163.2235523034
  0
LINE
  5
160
330
1F
100
AcDbEntity
  8
0
  6
Continuous
 62
     7
370
    25
100
AcDbLine
 10
95.6356915435
 20
183.0851660906
 30
0.0
 11
95.2751899808
 21
183.4316319955
 31
0.0
  0
ARC
  5
161
330
1F
100
AcDbEntity
  8
0
  6
Continuous
 62
     7
370
    25
100
AcDbCircle
 10
106.8112399869
 20
172.3447230369
 30
0.0
 40
15.99999999999999
100
AcDbArc
 50
130.309742062
 51
136.1373625449
  0
LINE
  5
162
330
1F
100
AcDbEntity
  8
0
  6
Continuous
 62
     7
370
    25
100
AcDbLine
 10
96.7839885512
 20
184.1643773739
 30
0.0
 11
96.4605288275
 21
184.545656546
 31
0.0
  0
LINE
  5
163
330
1F
100
AcDbEntity
  8
0
  6
Continuous
 62
     7
370
    25
100
AcDbLine
 10
96.7839885512
 20
184.1643773739
 30
0.0
 11
96.6696130236
 21
184.6511198506
 31
0.0
  0
LINE
  5
164
330
1F
100
AcDbEntity
  8
0
  6
Continuous
 62
     7
370
    25
100
AcDbLine
 10
96.6696130236
 20
184.6511198506
 30
0.0
 11
98.5396056006
 21
185.0905337047
 31
0.0
  0
LINE
  5
165
330
1F
100
AcDbEntity
  8
0
  6
Continuous
 62
     7
370
    25
100
AcDbLine
 10
108.5405941929
 20
187.4405820396
 30
0.0
 11
110.4105867699
 21
187.8799958937
 31
0.0
  0
LINE
  5
166
330
1F
100
AcDbEntity
  8
0
  6
Continuous
 62
     7
370
    25
100
AcDbLine
 10
110.4105867699
 20
187.8799958937
 30
0.0
 11
110.5249622976
 21
187.3932534169
 31
0.0
  0
LINE
  5
167
330
1F
100
AcDbEntity
  8
0
  6
Continuous
 62
     7
370
    25
100
AcDbLine
 10
110.5249622976
 20
187.3932534169
 30
0.0
 11
108.6549697205
 21
186.9538395629
 31
0.0
  0
ARC
  5
168
330
1F
100
AcDbEntity
  8
0
  6
Continuous
 62
     7
370
    25
100
AcDbCircle
 10
112.0337351888
 20
186.9384046788
 30
0.0
 40
0.5000000000000001
100
AcDbArc
 50
43.2235523034
 51
70.309742062
  0
LINE
  5
169
330
1F
100
AcDbEntity
  8
0
  6
Continuous
 62
     7
370
    25
100
AcDbLine
 10
112.0337351888
 20
186.9384046788
 30
0.0
 11
112.398078775
 21
187.2808280297
 31
0.0
  0
LINE
  5
16A
330
1F
100
AcDbEntity
  8
0
  6
Continuous
 62
     7
370
    25
100
AcDbLine
 10
112.202202776
 20
187.4091686027
 30
0.0
 11
112.0337351888
 21
186.9384046788
 31
0.0
  0
LINE
  5
16B
330
1F
100
AcDbEntity
  8
0
  6
Continuous
 62
     7
370
    25
100
AcDbLine
 10
113.3492750377
 20
185.5386505293
 30
0.0
 11
112.0337351888
 21
186.9384046788
 31
0.0
  0
LINE
  5
16C
330
1F
100
AcDbEntity
  8
0
  6
Continuous
 62
     7
370
    25
100
AcDbLine
 10
112.398078775
 20
187.2808280297
 30
0.0
 11
113.7136186239
 21
185.8810738801
 31
0.0
  0
ARC
  5
16D
330
1F
100
AcDbEntity
  8
0
  6
Continuous
 62
     7
370
    25
100
AcDbCircle
 10
110.5249622976
 20
187.3932534169
 30
0.0
 40
0.5000000000000165
100
AcDbArc
 50
76.1373625449
 51
103.2235523034
  0
LINE
  5
16E
330
1F
100
AcDbEntity
  8
0
  6
Continuous
 62
     7
370
    25
100
AcDbLine
 10
110.5249622976
 20
187.3932534169
 30
0.0
 11
110.6447597915
 21
187.8786898808
 31
0.0
  0
ARC
  5
16F
330
1F
100
AcDbEntity
  8
0
  6
Continuous
 62
     7
370
    25
100
AcDbCircle
 10
106.8112399869
 20
172.3447230369
 30
0.0
 40
15.49999999999998
100
AcDbArc
 50
70.309742062
 51
76.1373625449
  0
ARC
  5
170
330
1F
100
AcDbEntity
  8
0
  6
Continuous
 62
     7
370
    25
100
AcDbCircle
 10
96.7839885512
 20
184.1643773739
 30
0.0
 40
0.5000000000000199
100
AcDbArc
 50
103.2235523034
 51
130.309742062
  0
ARC
  5
171
330
1F
100
AcDbEntity
  8
0
  6
Continuous
 62
     7
370
    25
100
AcDbCircle
 10
106.8112399869
 20
172.3447230369
 30
0.0
 40
15.99999999999998
100
AcDbArc
 50
70.309742062
 51
76.1373625449
  0
ARC
  5
172
330
1F
100
AcDbEntity
  8
0
  6
Continuous
 62
     7
370
    25
100
AcDbCircle
 10
106.8112399869
 20
172.3447230369
 30
0.0
 40
9.574999999999978
100
AcDbArc
 50
325.5951096848
 51
214.4048903152
  0
ARC
  5
173
330
1F
100
AcDbEntity
  8
0
  6
Continuous
 62
     7
370
    25
100
AcDbCircle
 10
106.8112399869
 20
172.3447230369
 30
0.0
 40
8.049999999999997
100
AcDbArc
 50
348.9219835539
 51
191.0780164461
  0
ARC
  5
174
330
1F
100
AcDbEntity
  8
0
  6
Continuous
 62
     7
370
    25
100
AcDbCircle
 10
106.8112399869
 20
172.3447230369
 30
0.0
 40
8.25
100
AcDbArc
 50
343.2508741362
 51
196.7491258638
  0
SPLINE
  5
175
330
1F
100
AcDbEntity
  8
0
  6
Continuous
 62
     7
370
    25
100
AcDbSpline
210
0.0
220
0.0
230
1.0
 70
     8
 71
     3
 72
    57
 73
    53
 74
     0
 42
0.00000001
 43
0.00000001
 40
0.0
 40
0.0
 40
0.0
 40
0.0
 40
0.0625000000000005
 40
0.0625000000000005
 40
0.125000000000001
 40
0.125000000000001
 40
0.1875000000000016
 40
0.1875000000000016
 40
0.2500000000000021
 40
0.2500000000000021
 40
0.2812500000000022
 40
0.2812500000000022
 40
0.3125000000000023
 40
0.3125000000000023
 40
0.3750000000000023
 40
0.3750000000000023
 40
0.3906250000000024
 40
0.3906250000000024
 40
0.4062500000000024
 40
0.4062500000000024
 40
0.4375000000000024
 40
0.4375000000000024
 40
0.4687500000000023
 40
0.4687500000000023
 40
0.4843750000000023
 40
0.4843750000000023
 40
0.5000000000000022
 40
0.5156250000000022
 40
0.5156250000000022
 40
0.5312500000000022
 40
0.5312500000000022
 40
0.5468750000000022
 40
0.5468750000000022
 40
0.5625000000000023
 40
0.5625000000000023
 40
0.6250000000000019
 40
0.6250000000000019
 40
0.6562500000000017
 40
0.6562500000000017
 40
0.6875000000000013
 40
0.6875000000000013
 40
0.7500000000000008
 40
0.7500000000000008
 40
0.7812500000000007
 40
0.7812500000000007
 40
0.8125000000000004
 40
0.8125000000000004
 40
0.8750000000000003
 40
0.8750000000000003
 40
0.9375000000000001
 40
0.9375000000000001
 40
1.0
 40
1.0
 40
1.0
 40
1.0
 10
118.0418823555371
 20
186.3681375278795
 30
0.0
 10
119.0351670861884
 20
186.1536779596281
 30
0.0
 10
120.0124345637644
 20
185.9095147260376
 30
0.0
 10
121.939937588766
 20
185.3555560757197
 30
0.0
 10
122.8901336452682
 20
185.0458256114637
 30
0.0
 10
124.7644665167691
 20
184.3497575247333
 30
0.0
 10
125.6870253695477
 20
183.9638144814763
 30
0.0
 10
127.4833625786162
 20
183.1081095059002
 30
0.0
 10
128.3595019577423
 20
182.6377964541545
 30
0.0
 10
129.63356481607
 20
181.8501921542402
 30
0.0
 10
130.0515096921644
 20
181.5738684619512
 30
0.0
 10
130.8717784208199
 20
180.9886105392757
 30
0.0
 10
131.2755961964306
 20
180.6784356027198
 30
0.0
 10
132.4468076187727
 20
179.6982772166463
 30
0.0
 10
133.1730811236056
 20
178.9829762401947
 30
0.0
 10
133.9811248877983
 20
177.9739373560605
 30
0.0
 10
134.1376292411261
 20
177.7662517338583
 30
0.0
 10
134.4390256914508
 20
177.3374758474874
 30
0.0
 10
134.5839265401663
 20
177.1162103961664
 30
0.0
 10
134.99258398026
 20
176.4398299750287
 30
0.0
 10
135.232722254043
 20
175.969291196352
 30
0.0
 10
135.6339601905111
 20
174.9800903429755
 30
0.0
 10
135.7947257981921
 20
174.4593551611504
 30
0.0
 10
135.9560020316745
 20
173.659505268786
 30
0.0
 10
135.996552413703
 20
173.3894919092057
 30
0.0
 10
136.0495214572128
 20
172.8518962939143
 30
0.0
 10
136.0749246238601
 20
172.3142034871707
 30
0.0
 10
136.0453522046605
 20
171.7763168304995
 30
0.0
 10
135.9881364062186
 20
171.2383327105667
 30
0.0
 10
135.9453488528878
 20
170.9679137843852
 30
0.0
 10
135.8340123285793
 20
170.4365135331747
 30
0.0
 10
135.7655721892822
 20
170.1749985767616
 30
0.0
 10
135.6049098225478
 20
169.6597575185739
 30
0.0
 10
135.5122680558313
 20
169.4052371596334
 30
0.0
 10
135.0026307982973
 20
168.1719371617175
 30
0.0
 10
134.4468372706787
 20
167.2919192958006
 30
0.0
 10
133.4671086090572
 20
166.0763628827078
 30
0.0
 10
133.1169506674784
 20
165.6914759757823
 30
0.0
 10
132.3908159422184
 20
164.9675223670996
 30
0.0
 10
132.0141203332831
 20
164.627306237604
 30
0.0
 10
130.8507487740094
 20
163.659265048996
 30
0.0
 10
130.0312092638952
 20
163.0833885809527
 30
0.0
 10
128.7524147980818
 20
162.2954285317321
 30
0.0
 10
128.3168306477304
 20
162.0451434578226
 30
0.0
 10
127.4350178666175
 20
161.5698884848292
 30
0.0
 10
126.9897066459096
 20
161.3453317872551
 30
0.0
 10
125.6417287714909
 20
160.7058801553477
 30
0.0
 10
124.7271332130231
 20
160.3249400618352
 30
0.0
 10
122.86877997227
 20
159.636602837957
 30
0.0
 10
121.9250112206864
 20
159.3293467581447
 30
0.0
 10
120.0073047244483
 20
158.7787131580249
 30
0.0
 10
119.0334105256249
 20
158.5353888561077
 30
0.0
 10
118.0418823555371
 20
158.3213085458963
 30
0.0
  0
LINE
  5
176
330
1F
100
AcDbEntity
  8
0
  6
Continuous
 62
     7
370
    25
100
AcDbLine
 10
138.0112399869
 20
156.1447230369
 30
0.0
 11
138.0112399869
 21
188.5447230369
 31
0.0
  0
LINE
  5
177
330
1F
100
AcDbEntity
  8
0
  6
Continuous
 62
     7
370
    25
100
AcDbLine
 10
120.8240878009
 20
188.5433924213
 30
0.0
 11
120.8016817744
 21
188.5336756857
 31
0.0
  0
LINE
  5
178
330
1F
100
AcDbEntity
  8
0
  6
Continuous
 62
     7
370
    25
100
AcDbLine
 10
120.8081911358
 20
156.1484755613
 30
0.0
 11
120.8240878009
 21
156.1460536525
 31
0.0
  0
ARC
  5
179
330
1F
100
AcDbEntity
  8
0
  6
Continuous
 62
     7
370
    25
100
AcDbCircle
 10
120.9609480128
 20
203.4099759064
 30
0.0
 40
17.29003179958809
100
AcDbArc
 50
243.6488590876
 51
260.280235246
  0
SPLINE
  5
17A
330
1F
100
AcDbEntity
  8
0
  6
Continuous
 62
     7
370
    25
100
AcDbSpline
210
0.0
220
0.0
230
1.0
 70
     8
 71
     3
 72
    11
 73
     7
 74
     0
 42
0.00000001
 43
0.00000001
 40
0.0
 40
0.0
 40
0.0
 40
0.0
 40
0.1122272272845325
 40
0.4549366928136498
 40
0.8008537014399209
 40
1.0
 40
1.0
 40
1.0
 40
1.0
 10
138.6113737438588
 20
157.9314227660987
 30
0.0
 10
138.605423939686
 20
157.9072985521178
 30
0.0
 10
138.581305155869
 20
157.8095059719146
 30
0.0
 10
138.5370075881625
 20
158.4783950970131
 30
0.0
 10
138.4862721951965
 20
159.6141103881958
 30
0.0
 10
138.4570744275872
 20
160.7958714592281
 30
0.0
 10
138.4464066257577
 20
161.2276439523965
 30
0.0
  0
SPLINE
  5
17B
330
1F
100
AcDbEntity
  8
0
  6
Continuous
 62
     7
370
    25
100
AcDbSpline
210
0.0
220
0.0
230
1.0
 70
     8
 71
     3
 72
    12
 73
     8
 74
     0
 42
0.00000001
 43
0.00000001
 40
0.0
 40
0.0
 40
0.0
 40
0.0
 40
0.0905984773349927
 40
0.3401453438333809
 40
0.585624171338092
 40
0.8367447224389002
 40
1.0
 40
1.0
 40
1.0
 40
1.0
 10
138.3313716901468
 20
166.7565879919003
 30
0.0
 10
138.3243869943429
 20
167.127824489842
 30
0.0
 10
138.2981634658062
 20
168.5216047160699
 30
0.0
 10
138.2535194158544
 20
171.2210652942823
 30
0.0
 10
138.2005044411167
 20
174.6229170723671
 30
0.0
 10
138.1489791910725
 20
177.5956973603602
 30
0.0
 10
138.1173638806148
 20
179.2107465762382
 30
0.0
 10
138.1049081196197
 20
179.8470416730454
 30
0.0
  0
SPLINE
  5
17C
330
1F
100
AcDbEntity
  8
0
  6
Continuous
 62
     7
370
    25
100
AcDbSpline
210
0.0
220
0.0
230
1.0
 70
     8
 71
     3
 72
    10
 73
     6
 74
     0
 42
0.00000001
 43
0.00000001
 40
0.0
 40
0.0
 40
0.0
 40
0.0
 40
0.0933023780258963
 40
0.7682512449043578
 40
1.0
 40
1.0
 40
1.0
 40
1.0
 10
138.0925283211423
 20
180.4904230345699
 30
0.0
 10
138.0899218347987
 20
180.6264573353057
 30
0.0
 10
138.0684600412126
 20
181.7465629864289
 30
0.0
 10
138.0430569646747
 20
182.9208187339291
 30
0.0
 10
138.0184649753579
 20
183.8404281296757
 30
0.0
 10
138.0121793485168
 20
184.0754770891893
 30
0.0
  0
LINE
  5
17D
330
1F
100
AcDbEntity
  8
0
  6
Continuous
 62
     7
370
    25
100
AcDbLine
 10
138.0117684661
 20
184.0753947792
 30
0.0
 11
138.4809294531
 21
183.4186367247
 31
0.0
  0
SPLINE
  5
17E
330
1F
100
AcDbEntity
  8
0
  6
Continuous
 62
     7
370
    25
100
AcDbSpline
210
0.0
220
0.0
230
1.0
 70
     8
 71
     3
 72
    27
 73
    23
 74
     0
 42
0.00000001
 43
0.00000001
 40
0.0
 40
0.0
 40
0.0
 40
0.0
 40
0.0515285379309237
 40
0.1040960246778745
 40
0.1569935992290401
 40
0.2095583656097145
 40
0.2611519373513786
 40
0.3127510520403477
 40
0.3653186984677251
 40
0.4182162726646301
 40
0.4707808786826798
 40
0.522374143486538
 40
0.5739735662071672
 40
0.6265413722770644
 40
0.6794389460803467
 40
0.7320033916978774
 40
0.7835963497128633
 40
0.8351960804313621
 40
0.8877640461058721
 40
0.9406616194761687
 40
0.9932259046552894
 40
1.0
 40
1.0
 40
1.0
 40
1.0
 10
146.5798734822265
 20
158.656847198845
 30
0.0
 10
146.5679665875289
 20
158.6888369172498
 30
0.0
 10
146.5439127242902
 20
158.7534613496559
 30
0.0
 10
146.5055869295244
 20
159.2746100054528
 30
0.0
 10
146.4667329177605
 20
160.1023715259282
 30
0.0
 10
146.4283952172774
 20
161.2364166598757
 30
0.0
 10
146.3924154652798
 20
162.6301043768794
 30
0.0
 10
146.3564198569934
 20
164.2590639932125
 30
0.0
 10
146.3180777543715
 20
166.1007891997498
 30
0.0
 10
146.2792234467524
 20
168.110465270227
 30
0.0
 10
146.2408860747089
 20
170.2130814319592
 30
0.0
 10
146.2049071813459
 20
172.3499176501542
 30
0.0
 10
146.1689106894255
 20
174.486677488527
 30
0.0
 10
146.1305683743352
 20
176.5890272576299
 30
0.0
 10
146.0917139275544
 20
178.5980897886537
 30
0.0
 10
146.0533773231881
 20
180.4387291815712
 30
0.0
 10
146.0173974125229
 20
182.0669953114657
 30
0.0
 10
145.9814071260295
 20
183.4580241500464
 30
0.0
 10
145.9430375796233
 20
184.5962958522133
 30
0.0
 10
145.9042846239299
 20
185.4015520069117
 30
0.0
 10
145.8766206123877
 20
185.8282389460467
 30
0.0
 10
145.8628159348619
 20
185.8844444803928
 30
0.0
 10
145.8612399868678
 20
185.8908609286544
 30
0.0
  0
SPLINE
  5
17F
330
1F
100
AcDbEntity
  8
0
  6
Continuous
 62
     7
370
    25
100
AcDbSpline
210
0.0
220
0.0
230
1.0
 70
     8
 71
     3
 72
    50
 73
    46
 74
     0
 42
0.00000001
 43
0.00000001
 40
0.0
 40
0.0
 40
0.0
 40
0.0
 40
0.0284475187430945
 40
0.0522203319930536
 40
0.0761400917270586
 40
0.099907043807384
 40
0.1232327519742958
 40
0.1465698242851818
 40
0.1703427091924241
 40
0.1942624681966602
 40
0.2180293472143891
 40
0.2413549187423394
 40
0.2646921298529429
 40
0.2884650864003172
 40
0.3123848446569858
 40
0.3361516505949936
 40
0.3594770855513481
 40
0.3828144354463704
 40
0.4065874636167252
 40
0.4305072211080275
 40
0.4542739539491897
 40
0.4775992524013126
 40
0.5009367410654557
 40
0.524709840841639
 40
0.5486295975497764
 40
0.5723962572769681
 40
0.5957214192922247
 40
0.6190590467101896
 40
0.6428322180750499
 40
0.6667519739822224
 40
0.6905185605783206
 40
0.7138435862240774
 40
0.7371813523805644
 40
0.7609545953169489
 40
0.7848743504053571
 40
0.8086408638532381
 40
0.8319657531968614
 40
0.8553036580765708
 40
0.8790769725673265
 40
0.9029967268191721
 40
0.9267631671017127
 40
0.9500879202105702
 40
0.9734259637982005
 40
0.997199349826175
 40
1.0
 40
1.0
 40
1.0
 40
1.0
 10
139.0798477083432
 20
158.6578094155625
 30
0.0
 10
139.7136461716162
 20
158.6790157158036
 30
0.0
 10
140.8770926734959
 20
158.7179435410713
 30
0.0
 10
140.4228874155685
 20
159.2798775522603
 30
0.0
 10
140.4884242685566
 20
160.1100642585187
 30
0.0
 10
140.4223470827447
 20
161.2462736318612
 30
0.0
 10
140.3936800585121
 20
162.6418701967265
 30
0.0
 10
140.3557082257048
 20
164.2725650420851
 30
0.0
 10
140.3178904364133
 20
166.1158535320559
 30
0.0
 10
140.2788920059788
 20
168.1265540397557
 30
0.0
 10
140.2406010498296
 20
170.2295815505265
 30
0.0
 10
140.2046399262481
 20
172.3665431457709
 30
0.0
 10
140.1686180681618
 20
174.5031724729737
 30
0.0
 10
140.1302670693057
 20
176.6051143974248
 30
0.0
 10
140.0914130131874
 20
178.6131090560173
 30
0.0
 10
140.0530839380678
 20
180.4523140079538
 30
0.0
 10
140.0171337522267
 20
182.0783558049189
 30
0.0
 10
139.9811083250763
 20
183.4692954048833
 30
0.0
 10
139.9427578160428
 20
184.5984586692234
 30
0.0
 10
139.9039035631634
 20
185.4273891487451
 30
0.0
 10
139.8655747967476
 20
185.9252933266575
 30
0.0
 10
139.829625459434
 20
186.087818106733
 30
0.0
 10
139.7935991613738
 20
185.9181976759684
 30
0.0
 10
139.7552484051371
 20
185.4130647803632
 30
0.0
 10
139.7163941552226
 20
184.5773096820907
 30
0.0
 10
139.6780656445982
 20
183.4422294450069
 30
0.0
 10
139.6421171693253
 20
182.0460269334496
 30
0.0
 10
139.6060899967691
 20
180.4152135277682
 30
0.0
 10
139.567738994407
 20
178.5717030422475
 30
0.0
 10
139.5288847472436
 20
176.5608820791322
 30
0.0
 10
139.4905564926418
 20
174.457801364521
 30
0.0
 10
139.454608878973
 20
172.3208248143358
 30
0.0
 10
139.4185808320554
 20
170.1842115443032
 30
0.0
 10
139.3802295836662
 20
168.082321999818
 30
0.0
 10
139.3413753391658
 20
166.0744573026258
 30
0.0
 10
139.3030473412992
 20
164.2354459162161
 30
0.0
 10
139.2671005867861
 20
162.6096304637675
 30
0.0
 10
139.2310716732385
 20
161.2188959295572
 30
0.0
 10
139.1927201499706
 20
160.0901333873654
 30
0.0
 10
139.1538660169201
 20
159.2610198457614
 30
0.0
 10
139.1155378747365
 20
158.7652657210974
 30
0.0
 10
139.0795934476153
 20
158.5963957931225
 30
0.0
 10
139.043558170843
 20
158.7912938698809
 30
0.0
 10
139.0166238997375
 20
159.0796878229397
 30
0.0
 10
139.0022068179404
 20
159.3949730280377
 30
0.0
 10
139.000687394909
 20
159.4282010840905
 30
0.0
  0
SPLINE
  5
180
330
1F
100
AcDbEntity
  8
0
  6
Continuous
 62
     7
370
    25
100
AcDbSpline
210
0.0
220
0.0
230
1.0
 70
     8
 71
     3
 72
    12
 73
     8
 74
     0
 42
0.00000001
 43
0.00000001
 40
0.0
 40
0.0
 40
0.0
 40
0.0
 40
0.2342640849254553
 40
0.4754567751216083
 40
0.7167925825372544
 40
0.962628769256193
 40
1.0
 40
1.0
 40
1.0
 40
1.0
 10
138.7770254362697
 20
168.2509826788314
 30
0.0
 10
138.7647813524551
 20
168.9148268035026
 30
0.0
 10
138.739931053244
 20
170.2621489369828
 30
0.0
 10
138.7045824704263
 20
172.3739428536904
 30
0.0
 10
138.6685387531696
 20
174.4996313263574
 30
0.0
 10
138.6411649371284
 20
176.0260967718162
 30
0.0
 10
138.626305807495
 20
176.7896762423942
 30
0.0
 10
138.6243450397751
 20
176.8904359782862
 30
0.0
  0
SPLINE
  5
181
330
1F
100
AcDbEntity
  8
0
  6
Continuous
 62
     7
370
    25
100
AcDbSpline
210
0.0
220
0.0
230
1.0
 70
     8
 71
     3
 72
    27
 73
    23
 74
     0
 42
0.00000001
 43
0.00000001
 40
0.0
 40
0.0
 40
0.0
 40
0.0
 40
0.0408633052577798
 40
0.0916401885335679
 40
0.1427359153223731
 40
0.1935101698209109
 40
0.2433463109127252
 40
0.2931878083293831
 40
0.3439648459093578
 40
0.3950605723556901
 40
0.4458346718905409
 40
0.4956705163790678
 40
0.5455123114564725
 40
0.5962895033039882
 40
0.6473852293697941
 40
0.6981591739043257
 40
0.7479947219335426
 40
0.7978368146390278
 40
0.8486141607174387
 40
0.8997098863646661
 40
0.9504836758622465
 40
1.0
 40
1.0
 40
1.0
 40
1.0
 10
146.9484194401839
 20
158.6863495252952
 30
0.0
 10
146.9386355672419
 20
158.7143610711281
 30
0.0
 10
146.9166942202233
 20
158.7771798598936
 30
0.0
 10
146.8805770800517
 20
159.2766408110901
 30
0.0
 10
146.8417355052914
 20
160.1018304095031
 30
0.0
 10
146.803394498414
 20
161.236559611777
 30
0.0
 10
146.7674156170406
 20
162.6300680389446
 30
0.0
 10
146.7314197726814
 20
164.259075889425
 30
0.0
 10
146.6930777317921
 20
166.1007881956658
 30
0.0
 10
146.6542234060482
 20
168.1104680228652
 30
0.0
 10
146.6158860394995
 20
170.2130831859834
 30
0.0
 10
146.5799071451757
 20
172.3499202494986
 30
0.0
 10
146.5439106590046
 20
174.4866780345436
 30
0.0
 10
146.5055683048217
 20
176.5890354788329
 30
0.0
 10
146.4667139971611
 20
178.5980690574527
 30
0.0
 10
146.4283768769568
 20
180.4388147485161
 30
0.0
 10
146.3923988588541
 20
182.0666909211392
 30
0.0
 10
146.3564014989813
 20
183.459177688294
 30
0.0
 10
146.3180588728961
 20
184.5918954162855
 30
0.0
 10
146.2792046551169
 20
185.418040030604
 30
0.0
 10
146.2409480522095
 20
185.9369251855914
 30
0.0
 10
146.2169623667396
 20
186.000425149923
 30
0.0
 10
146.205119893605
 20
186.031777041975
 30
0.0
  0
SPLINE
  5
182
330
1F
100
AcDbEntity
  8
0
  6
Continuous
 62
     7
370
    25
100
AcDbSpline
210
0.0
220
0.0
230
1.0
 70
     8
 71
     3
 72
    11
 73
     7
 74
     0
 42
0.00000001
 43
0.00000001
 40
0.0
 40
0.0
 40
0.0
 40
0.0
 40
0.1830351157051622
 40
0.504292703048097
 40
0.8257409933541541
 40
1.0
 40
1.0
 40
1.0
 40
1.0
 10
139.1369808285841
 20
169.0796643546761
 30
0.0
 10
139.1298163060068
 20
169.4698573516972
 30
0.0
 10
139.1100768344708
 20
170.5449050572707
 30
0.0
 10
139.0795744478247
 20
172.3705854460516
 30
0.0
 10
139.049331446719
 20
174.1769866005704
 30
0.0
 10
139.0299245692086
 20
175.2327908977838
 30
0.0
 10
139.0231023513033
 20
175.6039442158329
 30
0.0
  0
ELLIPSE
  5
183
330
1F
100
AcDbEntity
  8
0
  6
Continuous
 62
     7
370
    25
100
AcDbEllipse
 10
146.3916786787
 20
172.3447230369
 30
0.0
 11
-7.401257687792878
 21
14.35777723298281
 31
0.0
210
0.0
220
0.0
230
1.0
 40
0.2737224856
 41
0.1519163654195919
 42
0.4881424368787668
  0
ELLIPSE
  5
184
330
1F
100
AcDbEntity
  8
0
  6
Continuous
 62
     7
370
    25
100
AcDbEllipse
 10
130.9531032305
 20
172.3447230369
 30
0.0
 11
7.392868934794848
 21
14.35826292490981
 31
0.0
210
0.0
220
0.0
230
1.0
 40
0.2735670702
 41
6.029360005064561
 42
6.131028995319418
  0
LINE
  5
185
330
1F
100
AcDbEntity
  8
0
  6
Continuous
 62
     7
370
    25
100
AcDbLine
 10
138.4809175732
 20
186.2305565808
 30
0.0
 11
138.8559175848
 21
186.2305565806
 31
0.0
  0
LINE
  5
186
330
1F
100
AcDbEntity
  8
0
  6
Continuous
 62
     7
370
    25
100
AcDbLine
 10
138.4809175732
 20
186.2305565808
 30
0.0
 11
138.4809294531
 21
183.4186367247
 31
0.0
  0
LINE
  5
187
330
1F
100
AcDbEntity
  8
0
  6
Continuous
 62
     7
370
    25
100
AcDbLine
 10
138.8559175848
 20
186.2305565806
 30
0.0
 11
138.8559237989
 21
184.7597137564
 31
0.0
  0
SPLINE
  5
188
330
1F
100
AcDbEntity
  8
0
  6
Continuous
 62
     7
370
    25
100
AcDbSpline
210
0.0
220
0.0
230
1.0
 70
     8
 71
     3
 72
    16
 73
    12
 74
     0
 42
0.00000001
 43
0.00000001
 40
0.0
 40
0.0
 40
0.0
 40
0.0
 40
0.2500000000000024
 40
0.2500000000000024
 40
0.5000000000000049
 40
0.5000000000000049
 40
0.6250000000000037
 40
0.6250000000000037
 40
0.7500000000000024
 40
0.7500000000000024
 40
1.0
 40
1.0
 40
1.0
 40
1.0
 10
113.2864008902916
 20
187.9165409710684
 30
0.0
 10
113.5169235662746
 20
188.2302688842773
 30
0.0
 10
113.7075739578502
 20
188.5113343643688
 30
0.0
 10
114.0334043650715
 20
189.0006031410597
 30
0.0
 10
114.1682454411061
 20
189.2089504169177
 30
0.0
 10
114.3362012496502
 20
189.4612496013623
 30
0.0
 10
114.3864773825942
 20
189.5354013293997
 30
0.0
 10
114.474812315133
 20
189.6607489355069
 30
0.0
 10
114.5130728315873
 20
189.7122626844134
 30
0.0
 10
114.611389816581
 20
189.8332682322112
 30
0.0
 10
114.6551572773795
 20
189.869379786995
 30
0.0
 10
114.6781019175689
 20
189.8590738202679
 30
0.0
  0
ARC
  5
189
330
1F
100
AcDbEntity
  8
0
  6
Continuous
 62
     7
370
    25
100
AcDbCircle
 10
120.8184489772
 20
203.5298655107
 30
0.0
 40
14.98647415023331
100
AcDbArc
 50
245.8123806786
 51
270.02155816
  0
ARC
  5
18A
330
1F
100
AcDbEntity
  8
0
  6
Continuous
 62
     7
370
    25
100
AcDbCircle
 10
120.8184489772
 20
141.1595805631
 30
0.0
 40
14.98647415023343
100
AcDbArc
 50
89.97844184
 51
114.1876193214
  0
ARC
  5
18B
330
1F
100
AcDbEntity
  8
0
  6
Continuous
 62
     7
370
    25
100
AcDbCircle
 10
106.8112399869
 20
172.3447230369
 30
0.0
 40
19.2
100
AcDbArc
 50
65.8119747904
 51
245.7035220052
  0
LINE
  5
18C
330
1F
100
AcDbEntity
  8
0
  6
Continuous
 62
     7
370
    25
100
AcDbLine
 10
114.6781019176
 20
189.8590738203
 30
0.0
 11
114.6781226518
 21
189.8590645071
 31
0.0
  0
ARC
  5
18D
330
1F
100
AcDbEntity
  8
0
  6
Continuous
 62
     7
370
    25
100
AcDbCircle
 10
106.8112399869
 20
172.3447230369
 30
0.0
 40
25.375
100
AcDbArc
 50
39.6743748818
 51
251.8605962769
  0
ARC
  5
18E
330
1F
100
AcDbEntity
  8
0
  6
Continuous
 62
     7
370
    25
100
AcDbCircle
 10
106.8112399869
 20
172.3447230369
 30
0.0
 40
25.37500000000001
100
AcDbArc
 50
288.1394037231
 51
320.3256251182
  0
ARC
  5
18F
330
1F
100
AcDbEntity
  8
0
  6
Continuous
 62
     7
370
    25
100
AcDbCircle
 10
106.8112399869
 20
19.9447230369
 30
0.0
 40
11.55000000000001
100
AcDbArc
 50
133.1556534408
 51
274.9657006069
  0
ARC
  5
190
330
1F
100
AcDbEntity
  8
0
  6
Continuous
 62
     7
370
    25
100
AcDbCircle
 10
106.8112399869
 20
19.9447230369
 30
0.0
 40
11.55
100
AcDbArc
 50
274.9657006069
 51
46.8443465592
  0
LINE
  5
191
330
1F
100
AcDbEntity
  8
0
  6
Continuous
 62
     7
370
    25
100
AcDbLine
 10
187.6436555389
 20
174.9447230369
 30
0.0
 11
187.6611340002
 21
174.9447230369
 31
0.0
  0
ARC
  5
192
330
1F
100
AcDbEntity
  8
0
  6
Continuous
 62
     7
370
    25
100
AcDbCircle
 10
177.3540053991
 20
172.3447230369
 30
0.0
 40
10.61305328357492
100
AcDbArc
 50
7.3079276166
 51
14.1807309007
  0
SPLINE
  5
193
330
1F
100
AcDbEntity
  8
0
  6
Continuous
 62
     7
370
    25
100
AcDbSpline
210
0.0
220
0.0
230
1.0
 70
     8
 71
     3
 72
    12
 73
     8
 74
     0
 42
0.00000001
 43
0.00000001
 40
0.0
 40
0.0
 40
0.0
 40
0.0
 40
0.2133534395476153
 40
0.4267919313634476
 40
0.6383539739091488
 40
0.8490950351927585
 40
1.0
 40
1.0
 40
1.0
 40
1.0
 10
187.8808472806675
 20
172.9447230368879
 30
0.0
 10
187.8905064243949
 20
172.9528245970039
 30
0.0
 10
187.9098285624183
 20
172.9690309468818
 30
0.0
 10
187.9221416324265
 20
173.0964320718977
 30
0.0
 10
187.9198041921297
 20
173.2838260878034
 30
0.0
 10
187.9046866731159
 20
173.4948021130947
 30
0.0
 10
187.8878660607349
 20
173.6358624347137
 30
0.0
 10
187.8808472806675
 20
173.6947230368879
 30
0.0
  0
LINE
  5
194
330
1F
100
AcDbEntity
  8
0
  6
Continuous
 62
     7
370
    25
100
AcDbLine
 10
187.6436555389
 20
172.9447230369
 30
0.0
 11
187.8808472807
 21
172.9447230369
 31
0.0
  0
ARC
  5
195
330
1F
100
AcDbEntity
  8
0
  6
Continuous
 62
     7
370
    25
100
AcDbCircle
 10
177.3540053991
 20
172.3447230369
 30
0.0
 40
10.30712860111874
100
AcDbArc
 50
356.6628035549
 51
3.3371964451
  0
LINE
  5
196
330
1F
100
AcDbEntity
  8
0
  6
Continuous
 62
     7
370
    25
100
AcDbLine
 10
187.8808472807
 20
171.7447230369
 30
0.0
 11
187.6436555389
 21
171.7447230369
 31
0.0
  0
SPLINE
  5
197
330
1F
100
AcDbEntity
  8
0
  6
Continuous
 62
     7
370
    25
100
AcDbSpline
210
0.0
220
0.0
230
1.0
 70
     8
 71
     3
 72
    12
 73
     8
 74
     0
 42
0.00000001
 43
0.00000001
 40
0.0
 40
0.0
 40
0.0
 40
0.0
 40
0.2133534395476116
 40
0.4267919313634445
 40
0.6383539739091463
 40
0.8490950351927521
 40
1.0
 40
1.0
 40
1.0
 40
1.0
 10
187.8808472806675
 20
170.9947230368879
 30
0.0
 10
187.8905064243949
 20
171.078216825045
 30
0.0
 10
187.9098285624183
 20
171.2452376857351
 30
0.0
 10
187.9221416324265
 20
171.4690744473327
 30
0.0
 10
187.9198041921297
 20
171.6381601682099
 30
0.0
 10
187.9046866731159
 20
171.7308217544199
 30
0.0
 10
187.8878660607349
 20
171.7406302293841
 30
0.0
 10
187.8808472806675
 20
171.7447230368879
 30
0.0
  0
ARC
  5
198
330
1F
100
AcDbEntity
  8
0
  6
Continuous
 62
     7
370
    25
100
AcDbCircle
 10
177.3540053991
 20
172.3447230369
 30
0.0
 40
10.61305328357492
100
AcDbArc
 50
345.8192690993
 51
352.6920723834
  0
LINE
  5
199
330
1F
100
AcDbEntity
  8
0
  6
Continuous
 62
     7
370
    25
100
AcDbLine
 10
187.6611340002
 20
169.7447230369
 30
0.0
 11
187.6436555389
 21
169.7447230369
 31
0.0
  0
LINE
  5
19A
330
1F
100
AcDbEntity
  8
0
  6
Continuous
 62
     7
370
    25
100
AcDbLine
 10
171.0699661901
 20
180.5953830455
 30
0.0
 11
171.0699661901
 21
164.0940633136
 31
0.0
  0
SPLINE
  5
19B
330
1F
100
AcDbEntity
  8
0
  6
Continuous
 62
     7
370
    25
100
AcDbSpline
210
0.0
220
0.0
230
1.0
 70
     8
 71
     3
 72
    11
 73
     7
 74
     0
 42
0.00000001
 43
0.00000001
 40
0.0
 40
0.0
 40
0.0
 40
0.0
 40
0.2499999999999913
 40
0.4999999999999988
 40
0.7499999999999947
 40
1.0
 40
1.0
 40
1.0
 40
1.0
 10
171.0699661900865
 20
164.0940617743479
 30
0.0
 10
171.0035951373491
 20
164.0999542517509
 30
0.0
 10
170.8708530318743
 20
164.1117392065568
 30
0.0
 10
170.7023892910936
 20
164.2156608889887
 30
0.0
 10
170.5843019320585
 20
164.3658412934447
 30
0.0
 10
170.5689273019314
 20
164.4854003524767
 30
0.0
 10
170.5612399868678
 20
164.5451798819926
 30
0.0
  0
LINE
  5
19C
330
1F
100
AcDbEntity
  8
0
  6
Continuous
 62
     7
370
    25
100
AcDbLine
 10
170.5612399869
 20
164.5452347322
 30
0.0
 11
170.5612399869
 21
180.1441578024
 31
0.0
  0
SPLINE
  5
19D
330
1F
100
AcDbEntity
  8
0
  6
Continuous
 62
     7
370
    25
100
AcDbSpline
210
0.0
220
0.0
230
1.0
 70
     8
 71
     3
 72
    11
 73
     7
 74
     0
 42
0.00000001
 43
0.00000001
 40
0.0
 40
0.0
 40
0.0
 40
0.0
 40
0.2499999999999901
 40
0.5000000000000007
 40
0.7500000000000012
 40
1.0
 40
1.0
 40
1.0
 40
1.0
 10
171.0699661900865
 20
180.5953827601829
 30
0.0
 10
171.0035951373491
 20
180.5894888871105
 30
0.0
 10
170.8708530318744
 20
180.5777011409654
 30
0.0
 10
170.7023892910936
 20
180.4737548440433
 30
0.0
 10
170.5843019320585
 20
180.3235388684338
 30
0.0
 10
170.5689273019314
 20
180.2039514911025
 30
0.0
 10
170.5612399868678
 20
180.1441578024369
 30
0.0
  0
LWPOLYLINE
  5
19E
330
1F
100
AcDbEntity
  8
0
  6
Continuous
 62
     7
370
    25
100
AcDbPolyline
 90
        3
 70
   128
 43
0.0
 10
171.0699661901
 20
164.0940633136
 10
177.0614399869
 20
164.1603157248
 10
180.549283944
 20
164.1991316912
  0
LWPOLYLINE
  5
19F
330
1F
100
AcDbEntity
  8
0
  6
Continuous
 62
     7
370
    25
100
AcDbPolyline
 90
        3
 70
   128
 43
0.0
 10
179.6158637301
 20
180.5007204533
 10
177.0614399869
 20
180.5291303489
 10
171.0699661731
 20
180.5953827604
  0
LINE
  5
1A0
330
1F
100
AcDbEntity
  8
0
  6
Continuous
 62
     7
370
    25
100
AcDbLine
 10
185.4112399869
 20
180.7441666911
 30
0.0
 11
185.4112399869
 21
163.9452793826
 31
0.0
  0
LINE
  5
1A1
330
1F
100
AcDbEntity
  8
0
  6
Continuous
 62
     7
370
    25
100
AcDbLine
 10
171.0699661901
 20
164.0940620602
 30
0.0
 11
171.0699661901
 21
160.5985891236
 31
0.0
  0
ARC
  5
1A2
330
1F
100
AcDbEntity
  8
0
  6
Continuous
 62
     7
370
    25
100
AcDbCircle
 10
171.0553012815
 20
161.0924754804
 30
0.0
 40
0.494104030492924
100
AcDbArc
 50
180.7535768612
 51
271.7007770082
  0
LINE
  5
1A3
330
1F
100
AcDbEntity
  8
0
  6
Continuous
 62
     7
370
    25
100
AcDbLine
 10
170.5612399869
 20
161.0859770152
 30
0.0
 11
170.5612399869
 21
164.5452334779
 31
0.0
  0
LINE
  5
1A4
330
1F
100
AcDbEntity
  8
0
  6
Continuous
 62
     7
370
    25
100
AcDbLine
 10
171.0699661901
 20
184.0908569501
 30
0.0
 11
171.0699661901
 21
180.5953842994
 31
0.0
  0
ARC
  5
1A5
330
1F
100
AcDbEntity
  8
0
  6
Continuous
 62
     7
370
    25
100
AcDbCircle
 10
171.0553012815
 20
183.5969705934
 30
0.0
 40
0.49410403049294
100
AcDbArc
 50
88.2992229918
 51
179.2464231388
  0
LINE
  5
1A6
330
1F
100
AcDbEntity
  8
0
  6
Continuous
 62
     7
370
    25
100
AcDbLine
 10
170.5612399869
 20
180.1442125959
 30
0.0
 11
170.5612399869
 21
183.6034690586
 31
0.0
  0
LINE
  5
1A7
330
1F
100
AcDbEntity
  8
0
  6
Continuous
 62
     7
370
    25
100
AcDbLine
 10
180.549283944
 20
164.1991316912
 30
0.0
 11
180.5046776108
 21
164.1983250741
 31
0.0
  0
LINE
  5
1A8
330
1F
100
AcDbEntity
  8
0
  6
Continuous
 62
     7
370
    25
100
AcDbLine
 10
180.4635676545
 20
164.197583508
 30
0.0
 11
180.5046776108
 21
164.1983250741
 31
0.0
  0
LWPOLYLINE
  5
1A9
330
1F
100
AcDbEntity
  8
0
  6
Continuous
 62
     7
370
    25
100
AcDbPolyline
 90
        3
 70
   128
 43
0.0
 10
180.4635676545
 20
164.197583508
 10
177.0612399869
 20
164.1600598044
 10
171.069966207
 20
164.0940617745
  0
SPLINE
  5
1AA
330
1F
100
AcDbEntity
  8
0
  6
Continuous
 62
     7
370
    25
100
AcDbSpline
210
0.0
220
0.0
230
1.0
 70
     8
 71
     3
 72
    12
 73
     8
 74
     0
 42
0.00000001
 43
0.00000001
 40
0.0
 40
0.0
 40
0.0
 40
0.0
 40
0.1662426524176545
 40
0.3368059756191297
 40
0.6054181071254586
 40
0.8801435087136193
 40
1.0
 40
1.0
 40
1.0
 40
1.0
 10
175.1524740168117
 20
160.6680626552169
 30
0.0
 10
175.2519307240869
 20
160.8235478306999
 30
0.0
 10
175.4534290329658
 20
161.1385592640551
 30
0.0
 10
176.2756767889883
 20
161.8015243690537
 30
0.0
 10
177.6375059559749
 20
162.6537192858591
 30
0.0
 10
179.1986121446338
 20
163.4963479644712
 30
0.0
 10
180.1688518367954
 20
164.0342060571663
 30
0.0
 10
180.4635676544983
 20
164.1975835079936
 30
0.0
  0
LINE
  5
1AB
330
1F
100
AcDbEntity
  8
0
  6
Continuous
 62
     7
370
    25
100
AcDbLine
 10
175.1524740168
 20
160.6680626552
 30
0.0
 11
171.0699661901
 21
160.5985891236
 31
0.0
  0
LINE
  5
1AC
330
1F
100
AcDbEntity
  8
0
  6
Continuous
 62
     7
370
    25
100
AcDbLine
 10
175.0961447997
 20
183.9754512517
 30
0.0
 11
175.0961447997
 21
184.0223419935
 31
0.0
  0
SPLINE
  5
1AD
330
1F
100
AcDbEntity
  8
0
  6
Continuous
 62
     7
370
    25
100
AcDbSpline
210
0.0
220
0.0
230
1.0
 70
     8
 71
     3
 72
    13
 73
     9
 74
     0
 42
0.00000001
 43
0.00000001
 40
0.0
 40
0.0
 40
0.0
 40
0.0
 40
0.0460329529079877
 40
0.249242584819372
 40
0.4775225570272876
 40
0.7051721168687834
 40
0.8526808263814666
 40
1.0
 40
1.0
 40
1.0
 40
1.0
 10
179.5451537868849
 20
180.5019947969904
 30
0.0
 10
179.4431632525763
 20
180.564503765427
 30
0.0
 10
178.8909417939839
 20
180.9029547203043
 30
0.0
 10
177.8498228695222
 20
181.5209321443333
 30
0.0
 10
176.5646224261415
 20
182.3314044710464
 30
0.0
 10
175.6720515260187
 20
183.0240292723111
 30
0.0
 10
175.1835090686272
 20
183.5742630740092
 30
0.0
 10
175.1252537391765
 20
183.8417791851151
 30
0.0
 10
175.0961447997424
 20
183.9754512516754
 30
0.0
  0
LWPOLYLINE
  5
1AE
330
1F
100
AcDbEntity
  8
0
  6
Continuous
 62
     7
370
    25
100
AcDbPolyline
 90
        3
 70
   128
 43
0.0
 10
179.5451537869
 20
180.501994797
 10
177.0612399869
 20
180.5293862694
 10
171.0699661901
 20
180.5953842994
  0
LINE
  5
1AF
330
1F
100
AcDbEntity
  8
0
  6
Continuous
 62
     7
370
    25
100
AcDbLine
 10
175.0961447997
 20
184.0223419935
 30
0.0
 11
171.0699661901
 21
184.0908569501
 31
0.0
  0
LINE
  5
1B0
330
1F
100
AcDbEntity
  8
0
  6
Continuous
 62
     7
370
    25
100
AcDbLine
 10
179.5833295909
 20
180.5013074942
 30
0.0
 11
179.5451537869
 21
180.501994797
 31
0.0
  0
LINE
  5
1B1
330
1F
100
AcDbEntity
  8
0
  6
Continuous
 62
     7
370
    25
100
AcDbLine
 10
179.5833295909
 20
180.5013074942
 30
0.0
 11
179.6158637301
 21
180.5007204533
 31
0.0
  0
LINE
  5
1B2
330
1F
100
AcDbEntity
  8
0
  6
Continuous
 62
     7
370
    25
100
AcDbLine
 10
170.5612399869
 20
183.6034690586
 30
0.0
 11
170.5612399869
 21
183.8166126516
 31
0.0
  0
LINE
  5
1B3
330
1F
100
AcDbEntity
  8
0
  6
Continuous
 62
     7
370
    25
100
AcDbLine
 10
170.5612399869
 20
160.8728334222
 30
0.0
 11
170.5612399869
 21
161.0859770152
 31
0.0
  0
LINE
  5
1B4
330
1F
100
AcDbEntity
  8
0
  6
Continuous
 62
     7
370
    25
100
AcDbLine
 10
175.0961447997
 20
160.45977559
 30
0.0
 11
175.1524740168
 21
160.6680626552
 31
0.0
  0
LINE
  5
1B5
330
1F
100
AcDbEntity
  8
0
  6
Continuous
 62
     7
370
    25
100
AcDbLine
 10
187.3112399869
 20
177.6736367316
 30
0.0
 11
187.3112399869
 21
167.0158087003
 31
0.0
  0
LINE
  5
1B6
330
1F
100
AcDbEntity
  8
0
  6
Continuous
 62
     7
370
    25
100
AcDbLine
 10
160.6612399869
 20
181.8447230369
 30
0.0
 11
160.6612399869
 21
180.5414606248
 31
0.0
  0
SPLINE
  5
1B7
330
1F
100
AcDbEntity
  8
0
  6
Continuous
 62
     7
370
    25
100
AcDbSpline
210
0.0
220
0.0
230
1.0
 70
    24
 71
     3
 72
    11
 73
     7
 74
     0
 42
0.00000001
 43
0.00000001
 40
0.0
 40
0.0
 40
0.0
 40
0.0
 40
0.059139560364233
 40
0.5151546697584025
 40
0.9835658517333951
 40
1.0
 40
1.0
 40
1.0
 40
1.0
 10
160.6612399868678
 20
181.8447230368879
 30
0.0
 10
160.6892195795465
 20
181.8447230368879
 30
0.0
 10
160.9329450610611
 20
181.8447230368879
 30
0.0
 10
161.2734681547332
 20
181.8447230368879
 30
0.0
 10
161.4985472620918
 20
181.8447230368878
 30
0.0
 10
161.4375354667702
 20
181.8447230368879
 30
0.0
 10
161.4354674322285
 20
181.8447230368879
 30
0.0
  0
SPLINE
  5
1B8
330
1F
100
AcDbEntity
  8
0
  6
Continuous
 62
     7
370
    25
100
AcDbSpline
210
0.0
220
0.0
230
1.0
 70
    24
 71
     3
 72
    11
 73
     7
 74
     0
 42
0.00000001
 43
0.00000001
 40
0.0
 40
0.0
 40
0.0
 40
0.0
 40
0.0163985483736859
 40
0.4715081509151195
 40
0.9408590955702612
 40
1.0
 40
1.0
 40
1.0
 40
1.0
 10
161.4352809828332
 20
162.8447230368879
 30
0.0
 10
161.4374131689865
 20
162.8447230368879
 30
0.0
 10
161.4987200071043
 20
162.8447230368879
 30
0.0
 10
161.27566825829
 20
162.8447230368878
 30
0.0
 10
160.9392702084355
 20
162.8447230368879
 30
0.0
 10
160.6892216789433
 20
162.8447230368879
 30
0.0
 10
160.6612399868678
 20
162.8447230368879
 30
0.0
  0
LINE
  5
1B9
330
1F
100
AcDbEntity
  8
0
  6
Continuous
 62
     7
370
    25
100
AcDbLine
 10
160.6612399869
 20
164.147985449
 30
0.0
 11
160.6612399869
 21
162.8447230369
 31
0.0
  0
SPLINE
  5
1BA
330
1F
100
AcDbEntity
  8
0
  6
Continuous
 62
     7
370
    25
100
AcDbSpline
210
0.0
220
0.0
230
1.0
 70
     8
 71
     3
 72
    11
 73
     7
 74
     0
 42
0.00000001
 43
0.00000001
 40
0.0
 40
0.0
 40
0.0
 40
0.0
 40
0.2431641197380915
 40
0.4936284730588929
 40
0.7421706076863281
 40
1.0
 40
1.0
 40
1.0
 40
1.0
 10
160.6612399868678
 20
164.147985448965
 30
0.0
 10
160.8713803100766
 20
164.6914319812359
 30
0.0
 10
161.2979697550382
 20
165.7946403090227
 30
0.0
 10
161.5083541851812
 20
167.5446853387492
 30
0.0
 10
161.3176674915142
 20
169.3316545026921
 30
0.0
 10
160.8827083211195
 20
170.4645988829144
 30
0.0
 10
160.6612399868678
 20
171.0414606248107
 30
0.0
  0
LINE
  5
1BB
330
1F
100
AcDbEntity
  8
0
  6
Continuous
 62
     7
370
    25
100
AcDbLine
 10
160.6612399869
 20
173.647985449
 30
0.0
 11
160.6612399869
 21
171.0414606248
 31
0.0
  0
SPLINE
  5
1BC
330
1F
100
AcDbEntity
  8
0
  6
Continuous
 62
     7
370
    25
100
AcDbSpline
210
0.0
220
0.0
230
1.0
 70
     8
 71
     3
 72
    11
 73
     7
 74
     0
 42
0.00000001
 43
0.00000001
 40
0.0
 40
0.0
 40
0.0
 40
0.0
 40
0.2431641197380915
 40
0.4936284730588937
 40
0.7421706076863286
 40
1.0
 40
1.0
 40
1.0
 40
1.0
 10
160.6612399868678
 20
173.647985448965
 30
0.0
 10
160.8713803100766
 20
174.1914319812359
 30
0.0
 10
161.2979697550382
 20
175.2946403090227
 30
0.0
 10
161.5083541851812
 20
177.0446853387492
 30
0.0
 10
161.3176674915142
 20
178.8316545026921
 30
0.0
 10
160.8827083211195
 20
179.9645988829144
 30
0.0
 10
160.6612399868678
 20
180.5414606248107
 30
0.0
  0
LINE
  5
1BD
330
1F
100
AcDbEntity
  8
0
  6
Continuous
 62
     7
370
    25
100
AcDbLine
 10
162.6612399869
 20
180.5947230369
 30
0.0
 11
162.6612399869
 21
164.0947230369
 31
0.0
  0
LINE
  5
1BE
330
1F
100
AcDbEntity
  8
0
  6
Continuous
 62
     7
370
    25
100
AcDbLine
 10
158.1112399869
 20
164.147985449
 30
0.0
 11
157.8612399869
 21
164.7549387141
 31
0.0
  0
LINE
  5
1BF
330
1F
100
AcDbEntity
  8
0
  6
Continuous
 62
     7
370
    25
100
AcDbLine
 10
157.8612399869
 20
170.4345073597
 30
0.0
 11
157.8612399869
 21
164.7549387141
 31
0.0
  0
LINE
  5
1C0
330
1F
100
AcDbEntity
  8
0
  6
Continuous
 62
     7
370
    25
100
AcDbLine
 10
157.8612399869
 20
170.4345073597
 30
0.0
 11
158.1112399869
 21
171.0414606248
 31
0.0
  0
LINE
  5
1C1
330
1F
100
AcDbEntity
  8
0
  6
Continuous
 62
     7
370
    25
100
AcDbLine
 10
160.6612399869
 20
171.0414606248
 30
0.0
 11
158.1112399869
 21
171.0414606248
 31
0.0
  0
LINE
  5
1C2
330
1F
100
AcDbEntity
  8
0
  6
Continuous
 62
     7
370
    25
100
AcDbLine
 10
158.1112399869
 20
164.147985449
 30
0.0
 11
160.6612399869
 21
164.147985449
 31
0.0
  0
LINE
  5
1C3
330
1F
100
AcDbEntity
  8
0
  6
Continuous
 62
     7
370
    25
100
AcDbLine
 10
158.1112399869
 20
173.647985449
 30
0.0
 11
157.8612399869
 21
174.2549387141
 31
0.0
  0
LINE
  5
1C4
330
1F
100
AcDbEntity
  8
0
  6
Continuous
 62
     7
370
    25
100
AcDbLine
 10
157.8612399869
 20
179.9345073597
 30
0.0
 11
157.8612399869
 21
174.2549387141
 31
0.0
  0
LINE
  5
1C5
330
1F
100
AcDbEntity
  8
0
  6
Continuous
 62
     7
370
    25
100
AcDbLine
 10
157.8612399869
 20
179.9345073597
 30
0.0
 11
158.1112399869
 21
180.5414606248
 31
0.0
  0
LINE
  5
1C6
330
1F
100
AcDbEntity
  8
0
  6
Continuous
 62
     7
370
    25
100
AcDbLine
 10
160.6612399869
 20
180.5414606248
 30
0.0
 11
158.1112399869
 21
180.5414606248
 31
0.0
  0
LINE
  5
1C7
330
1F
100
AcDbEntity
  8
0
  6
Continuous
 62
     7
370
    25
100
AcDbLine
 10
158.1112399869
 20
173.647985449
 30
0.0
 11
160.6612399869
 21
173.647985449
 31
0.0
  0
LINE
  5
1C8
330
1F
100
AcDbEntity
  8
0
  6
Continuous
 62
     7
370
    25
100
AcDbLine
 10
158.1112399869
 20
173.647985449
 30
0.0
 11
158.1112399869
 21
171.0414606248
 31
0.0
  0
LINE
  5
1C9
330
1F
100
AcDbEntity
  8
0
  6
Continuous
 62
     7
370
    25
100
AcDbLine
 10
157.8612399869
 20
170.4345073597
 30
0.0
 11
157.8612399869
 21
174.2549387141
 31
0.0
  0
SPLINE
  5
1CA
330
1F
100
AcDbEntity
  8
0
  6
Continuous
 62
     7
370
    25
100
AcDbSpline
210
0.0
220
0.0
230
1.0
 70
     8
 71
     3
 72
    11
 73
     7
 74
     0
 42
0.00000001
 43
0.00000001
 40
0.0
 40
0.0
 40
0.0
 40
0.0
 40
0.0823376510038091
 40
0.3188851439110015
 40
0.6247963511836877
 40
1.0
 40
1.0
 40
1.0
 40
1.0
 10
155.7617002124571
 20
181.7307476109048
 30
0.0
 10
155.7643283134831
 20
181.7273365956787
 30
0.0
 10
155.7745066749458
 20
181.7141260890882
 30
0.0
 10
155.7951899390652
 20
181.5913836677703
 30
0.0
 10
155.8257021421886
 20
181.294938146197
 30
0.0
 10
155.8486169674539
 20
180.8994755925874
 30
0.0
 10
155.8612399868678
 20
180.6816283502933
 30
0.0
  0
LINE
  5
1CB
330
1F
100
AcDbEntity
  8
0
  6
Continuous
 62
     7
370
    25
100
AcDbLine
 10
155.8612399869
 20
168.0023724705
 30
0.0
 11
155.8612399869
 21
180.6816283502
 31
0.0
  0
SPLINE
  5
1CC
330
1F
100
AcDbEntity
  8
0
  6
Continuous
 62
     7
370
    25
100
AcDbSpline
210
0.0
220
0.0
230
1.0
 70
     8
 71
     3
 72
    30
 73
    26
 74
     0
 42
0.00000001
 43
0.00000001
 40
0.0
 40
0.0
 40
0.0
 40
0.0
 40
0.0182355448544065
 40
0.0763245661743252
 40
0.1063427875899049
 40
0.1451052306444134
 40
0.1926087823348561
 40
0.2376127113006339
 40
0.2719933646366511
 40
0.2957466639727327
 40
0.3088697938344322
 40
0.3375269424463682
 40
0.3661842311463162
 40
0.3948416612334269
 40
0.4234992340068308
 40
0.5378839981506605
 40
0.5908692721160762
 40
0.6380628073955174
 40
0.6794629392041788
 40
0.7306843854292003
 40
0.7688710157324232
 40
0.8038595024706399
 40
0.8540525738533307
 40
0.9194380368698538
 40
1.0
 40
1.0
 40
1.0
 40
1.0
 10
155.4000946306753
 20
181.731794579307
 30
0.0
 10
155.4027757828669
 20
181.7353360629109
 30
0.0
 10
155.4139977002544
 20
181.7501588829491
 30
0.0
 10
155.430023026067
 20
181.6665597435192
 30
0.0
 10
155.4496340576185
 20
181.5181053889848
 30
0.0
 10
155.4677963159397
 20
181.3265657110134
 30
0.0
 10
155.4884443304635
 20
181.0403259832271
 30
0.0
 10
155.5084272513067
 20
180.6918316909766
 30
0.0
 10
155.5245662273209
 20
180.3610361859728
 30
0.0
 10
155.5356780865332
 20
180.1093520531225
 30
0.0
 10
155.5456285661595
 20
179.8648402121409
 30
0.0
 10
155.5557936600637
 20
179.5863422016
 30
0.0
 10
155.5685865009349
 20
179.2214888015683
 30
0.0
 10
155.5814284276515
 20
178.8328266071144
 30
0.0
 10
155.6073220380257
 20
178.0124646174885
 30
0.0
 10
155.6378119250041
 20
176.9506521399624
 30
0.0
 10
155.6715223798244
 20
175.6868326207339
 30
0.0
 10
155.6935856589548
 20
174.8195648389328
 30
0.0
 10
155.7152078988514
 20
173.942271209336
 30
0.0
 10
155.735308781169
 20
173.1070245481063
 30
0.0
 10
155.753721656107
 20
172.3078032781625
 30
0.0
 10
155.7720705103832
 20
171.5153841064133
 30
0.0
 10
155.7952637269327
 20
170.5556657585934
 30
0.0
 10
155.8257079941729
 20
169.3257981050381
 30
0.0
 10
155.848602422065
 20
168.4730715771268
 30
0.0
 10
155.8612399868678
 20
168.0023724705002
 30
0.0
  0
SPLINE
  5
1CD
330
1F
100
AcDbEntity
  8
0
  6
Continuous
 62
     7
370
    25
100
AcDbSpline
210
0.0
220
0.0
230
1.0
 70
     8
 71
     3
 72
    12
 73
     8
 74
     0
 42
0.00000001
 43
0.00000001
 40
0.0
 40
0.0
 40
0.0
 40
0.0
 40
0.2176683106405472
 40
0.4685852168999713
 40
0.7246585792764159
 40
0.9786110903297413
 40
1.0
 40
1.0
 40
1.0
 40
1.0
 10
155.2112399868678
 20
169.4985946023094
 30
0.0
 10
155.2320229105977
 20
168.7819159198139
 30
0.0
 10
155.2767633268537
 20
167.2390866724308
 30
0.0
 10
155.3397599109042
 20
165.3609719494679
 30
0.0
 10
155.4128635266087
 20
164.121856195445
 30
0.0
 10
155.4615746058814
 20
163.593727936746
 30
0.0
 10
155.486665612095
 20
163.7301382455983
 30
0.0
 10
155.4886147168248
 20
163.7407347906676
 30
0.0
  0
SPLINE
  5
1CE
330
1F
100
AcDbEntity
  8
0
  6
Continuous
 62
     7
370
    25
100
AcDbSpline
210
0.0
220
0.0
230
1.0
 70
     8
 71
     3
 72
    10
 73
     6
 74
     0
 42
0.00000001
 43
0.00000001
 40
0.0
 40
0.0
 40
0.0
 40
0.0
 40
0.3607337961396723
 40
0.8121409875158757
 40
1.0
 40
1.0
 40
1.0
 40
1.0
 10
156.2036419686825
 20
180.909133476583
 30
0.0
 10
156.22216221802
 20
180.8493426683529
 30
0.0
 10
156.2638579331068
 20
180.7147321423641
 30
0.0
 10
156.3190382108438
 20
179.7728727867112
 30
0.0
 10
156.3516550004446
 20
178.9457912898596
 30
0.0
 10
156.3612399868678
 20
178.7027396279632
 30
0.0
  0
SPLINE
  5
1CF
330
1F
100
AcDbEntity
  8
0
  6
Continuous
 62
     7
370
    25
100
AcDbSpline
210
0.0
220
0.0
230
1.0
 70
    24
 71
     3
 72
    10
 73
     6
 74
     0
 42
0.00000001
 43
0.00000001
 40
0.0
 40
0.0
 40
0.0
 40
0.0
 40
0.3187287177375321
 40
0.8180873955881237
 40
1.0
 40
1.0
 40
1.0
 40
1.0
 10
156.3612399868678
 20
178.7027396279632
 30
0.0
 10
156.3612399868678
 20
178.2661867996158
 30
0.0
 10
156.3612399868678
 20
177.1456778950072
 30
0.0
 10
156.3612399868678
 20
175.3418767370458
 30
0.0
 10
156.3612399868678
 20
174.0357168946154
 30
0.0
 10
156.3612399868678
 20
173.6869469627234
 30
0.0
  0
SPLINE
  5
1D0
330
1F
100
AcDbEntity
  8
0
  6
Continuous
 62
     7
370
    25
100
AcDbSpline
210
0.0
220
0.0
230
1.0
 70
     8
 71
     3
 72
    13
 73
     9
 74
     0
 42
0.00000001
 43
0.00000001
 40
0.0
 40
0.0
 40
0.0
 40
0.0
 40
0.2187316754180421
 40
0.3931473777464117
 40
0.5714254113794042
 40
0.7494200729435004
 40
0.8738925945231126
 40
1.0
 40
1.0
 40
1.0
 40
1.0
 10
156.3612399868678
 20
173.6869469627234
 30
0.0
 10
156.3235121799613
 20
174.3090537726936
 30
0.0
 10
156.2557003812125
 20
175.4272258918004
 30
0.0
 10
156.1568869525996
 20
176.9504450585278
 30
0.0
 10
156.0678754163485
 20
178.2528761130478
 30
0.0
 10
155.9931624894113
 20
179.2884583735757
 30
0.0
 10
155.9234944105058
 20
180.0971772322846
 30
0.0
 10
155.8820815261779
 20
180.485965773425
 30
0.0
 10
155.8612399868844
 20
180.6816283501457
 30
0.0
  0
SPLINE
  5
1D1
330
1F
100
AcDbEntity
  8
0
  6
Continuous
 62
     7
370
    25
100
AcDbSpline
210
0.0
220
0.0
230
1.0
 70
     8
 71
     3
 72
    15
 73
    11
 74
     0
 42
0.00000001
 43
0.00000001
 40
0.0
 40
0.0
 40
0.0
 40
0.0
 40
0.1853848730991207
 40
0.2777270836008036
 40
0.3700718582436233
 40
0.462416855210521
 40
0.6144793794637545
 40
0.7665419034043038
 40
0.9186044273391785
 40
1.0
 40
1.0
 40
1.0
 40
1.0
 10
155.8612399868678
 20
168.0023724704999
 30
0.0
 10
155.8709574918436
 20
167.4656414160501
 30
0.0
 10
155.885515391157
 20
166.6615588178403
 30
0.0
 10
155.9038476334213
 20
165.744394887075
 30
0.0
 10
155.9175230647235
 20
165.1204196147669
 30
0.0
 10
155.9348923360758
 20
164.4541529516582
 30
0.0
 10
155.9558966031404
 20
163.8164516057502
 30
0.0
 10
155.9802425069974
 20
163.3328680176861
 30
0.0
 10
156.0004704010915
 20
163.0956962040999
 30
0.0
 10
156.0121428980891
 20
163.1222116308337
 30
0.0
 10
156.0162125345308
 20
163.1314562806224
 30
0.0
  0
SPLINE
  5
1D2
330
1F
100
AcDbEntity
  8
0
  6
Continuous
 62
     7
370
    25
100
AcDbSpline
210
0.0
220
0.0
230
1.0
 70
     8
 71
     3
 72
    14
 73
    10
 74
     0
 42
0.00000001
 43
0.00000001
 40
0.0
 40
0.0
 40
0.0
 40
0.0
 40
0.0578403592793417
 40
0.2161361478924428
 40
0.3736862591713957
 40
0.5337002824213858
 40
0.6901919037604665
 40
0.8498994977822804
 40
1.0
 40
1.0
 40
1.0
 40
1.0
 10
155.2112399868678
 20
176.0395428411427
 30
0.0
 10
155.2199593526526
 20
175.755320890306
 30
0.0
 10
155.2525416214401
 20
174.6932486907951
 30
0.0
 10
155.3077057015831
 20
172.515041697996
 30
0.0
 10
155.3760332518975
 20
169.8210030118623
 30
0.0
 10
155.4499384062758
 20
167.3505588822402
 30
0.0
 10
155.5160909475757
 20
165.3822801096181
 30
0.0
 10
155.5880367587504
 20
164.0473641484899
 30
0.0
 10
155.6334686015948
 20
163.8382763926841
 30
0.0
 10
155.6554801064922
 20
163.7369744011127
 30
0.0
  0
LINE
  5
1D3
330
1F
100
AcDbEntity
  8
0
  6
Continuous
 62
     7
370
    25
100
AcDbLine
 10
156.3612399869
 20
173.6869469627
 30
0.0
 11
156.3612399869
 21
163.4447230369
 31
0.0
  0
SPLINE
  5
1D4
330
1F
100
AcDbEntity
  8
0
  6
Continuous
 62
     7
370
    25
100
AcDbSpline
210
0.0
220
0.0
230
1.0
 70
    24
 71
     3
 72
    10
 73
     6
 74
     0
 42
0.00000001
 43
0.00000001
 40
0.0
 40
0.0
 40
0.0
 40
0.0
 40
0.2200266609304047
 40
0.6670013252276435
 40
1.0
 40
1.0
 40
1.0
 40
1.0
 10
156.3612399868678
 20
180.9803533650855
 30
0.0
 10
156.3612399868678
 20
180.9568928245108
 30
0.0
 10
156.3612399868678
 20
180.8857732084255
 30
0.0
 10
156.3612399868678
 20
180.1807662592341
 30
0.0
 10
156.3612399868678
 20
179.1449618072905
 30
0.0
 10
156.3612399868678
 20
178.7027396279632
 30
0.0
  0
LINE
  5
1D5
330
1F
100
AcDbEntity
  8
0
  6
Continuous
 62
     7
370
    25
100
AcDbLine
 10
158.1112399869
 20
164.147985449
 30
0.0
 11
158.1112399869
 21
162.8447230369
 31
0.0
  0
LINE
  5
1D6
330
1F
100
AcDbEntity
  8
0
  6
Continuous
 62
     7
370
    25
100
AcDbLine
 10
157.8612399869
 20
162.8447230369
 30
0.0
 11
158.1112399869
 21
162.8447230369
 31
0.0
  0
LINE
  5
1D7
330
1F
100
AcDbEntity
  8
0
  6
Continuous
 62
     7
370
    25
100
AcDbLine
 10
157.8612399869
 20
162.8447230369
 30
0.0
 11
157.8612399869
 21
164.7549387141
 31
0.0
  0
LINE
  5
1D8
330
1F
100
AcDbEntity
  8
0
  6
Continuous
 62
     7
370
    25
100
AcDbLine
 10
158.1112399869
 20
181.8447230369
 30
0.0
 11
157.8612399869
 21
181.8447230369
 31
0.0
  0
LINE
  5
1D9
330
1F
100
AcDbEntity
  8
0
  6
Continuous
 62
     7
370
    25
100
AcDbLine
 10
158.1112399869
 20
181.8447230369
 30
0.0
 11
158.1112399869
 21
180.5414606248
 31
0.0
  0
LINE
  5
1DA
330
1F
100
AcDbEntity
  8
0
  6
Continuous
 62
     7
370
    25
100
AcDbLine
 10
157.8612399869
 20
179.9345073597
 30
0.0
 11
157.8612399869
 21
181.8447230369
 31
0.0
  0
LINE
  5
1DB
330
1F
100
AcDbEntity
  8
0
  6
Continuous
 62
     7
370
    25
100
AcDbLine
 10
160.6612399869
 20
162.8447230369
 30
0.0
 11
158.1112399869
 21
162.8447230369
 31
0.0
  0
LINE
  5
1DC
330
1F
100
AcDbEntity
  8
0
  6
Continuous
 62
     7
370
    25
100
AcDbLine
 10
158.1112399869
 20
181.8447230369
 30
0.0
 11
160.6612399869
 21
181.8447230369
 31
0.0
  0
SPLINE
  5
1DD
330
1F
100
AcDbEntity
  8
0
  6
Continuous
 62
     7
370
    25
100
AcDbSpline
210
0.0
220
0.0
230
1.0
 70
     8
 71
     3
 72
     9
 73
     5
 74
     0
 42
0.00000001
 43
0.00000001
 40
0.0
 40
0.0
 40
0.0
 40
0.0
 40
0.4182581660991578
 40
1.0
 40
1.0
 40
1.0
 40
1.0
 10
146.2088093811887
 20
186.1109026069731
 30
0.0
 10
146.1425267064186
 20
186.3049849399495
 30
0.0
 10
145.9840535906673
 20
186.7690101490362
 30
0.0
 10
145.969630501317
 20
187.1028319274904
 30
0.0
 10
145.9612399868678
 20
187.2970300210844
 30
0.0
  0
LINE
  5
1DE
330
1F
100
AcDbEntity
  8
0
  6
Continuous
 62
     7
370
    25
100
AcDbLine
 10
145.9612399869
 20
157.3924160527
 30
0.0
 11
146.0326183157
 21
157.8447230369
 31
0.0
  0
LINE
  5
1DF
330
1F
100
AcDbEntity
  8
0
  6
Continuous
 62
     7
370
    25
100
AcDbLine
 10
145.9612399869
 20
157.3924160527
 30
0.0
 11
145.9612399869
 21
156.6655891786
 31
0.0
  0
SPLINE
  5
1E0
330
1F
100
AcDbEntity
  8
0
  6
Continuous
 62
     7
370
    25
100
AcDbSpline
210
0.0
220
0.0
230
1.0
 70
     8
 71
     3
 72
     9
 73
     5
 74
     0
 42
0.00000001
 43
0.00000001
 40
0.0
 40
0.0
 40
0.0
 40
0.0
 40
0.5850553834536188
 40
1.0
 40
1.0
 40
1.0
 40
1.0
 10
146.3756968944452
 20
156.0947230368879
 30
0.0
 10
146.2391427604209
 20
156.1264214539265
 30
0.0
 10
146.0057389872289
 20
156.1806016528191
 30
0.0
 10
145.9742896995037
 20
156.5233624366191
 30
0.0
 10
145.9612399868678
 20
156.6655891786202
 30
0.0
  0
SPLINE
  5
1E1
330
1F
100
AcDbEntity
  8
0
  6
Continuous
 62
     7
370
    25
100
AcDbSpline
210
0.0
220
0.0
230
1.0
 70
    27
 71
     3
 72
    11
 73
     7
 74
     0
 42
0.00000001
 43
0.00000001
 40
0.0
 40
0.0
 40
0.0
 40
0.0
 40
0.2328716322111479
 40
0.4710265024313248
 40
0.7311421212560302
 40
0.9999999999999999
 40
0.9999999999999999
 40
0.9999999999999999
 40
0.9999999999999999
 10
146.3756968944452
 20
156.0947230368879
 30
0.0
 10
146.646093629118
 20
156.0947230368879
 30
0.0
 10
147.1930216812488
 20
156.0947230368879
 30
0.0
 10
147.4942459992324
 20
156.0947230368879
 30
0.0
 10
147.2865942338227
 20
156.0947230368879
 30
0.0
 10
146.6826564020424
 20
156.0947230368879
 30
0.0
 10
146.3756968944452
 20
156.0947230368879
 30
0.0
  0
SPLINE
  5
1E2
330
1F
100
AcDbEntity
  8
0
  6
Continuous
 62
     7
370
    25
100
AcDbSpline
210
0.0
220
0.0
230
1.0
 70
     8
 71
     3
 72
     9
 73
     5
 74
     0
 42
0.00000001
 43
0.00000001
 40
0.0
 40
0.0
 40
0.0
 40
0.0
 40
0.5841917497409234
 40
1.0
 40
1.0
 40
1.0
 40
1.0
 10
145.9612399868678
 20
156.6655891786202
 30
0.0
 10
145.9874079506885
 20
156.4745069565536
 30
0.0
 10
146.0322014004971
 20
156.1474187665008
 30
0.0
 10
146.2748158180111
 20
156.1101992280476
 30
0.0
 10
146.3756968944452
 20
156.0947230368879
 30
0.0
  0
LINE
  5
1E3
330
1F
100
AcDbEntity
  8
0
  6
Continuous
 62
     7
370
    25
100
AcDbLine
 10
145.9612399869
 20
156.6655891786
 30
0.0
 11
145.9612399869
 21
157.3924160527
 31
0.0
  0
SPLINE
  5
1E4
330
1F
100
AcDbEntity
  8
0
  6
Continuous
 62
     7
370
    25
100
AcDbSpline
210
0.0
220
0.0
230
1.0
 70
     8
 71
     3
 72
     9
 73
     5
 74
     0
 42
0.00000001
 43
0.00000001
 40
0.0
 40
0.0
 40
0.0
 40
0.0
 40
0.5850553834536188
 40
1.0
 40
1.0
 40
1.0
 40
1.0
 10
146.3756968944452
 20
159.1162315849503
 30
0.0
 10
146.2391427604209
 20
158.7296850593865
 30
0.0
 10
146.0057389872289
 20
158.0689843180618
 30
0.0
 10
145.9742896995037
 20
157.5908254859361
 30
0.0
 10
145.9612399868678
 20
157.3924160526914
 30
0.0
  0
SPLINE
  5
1E5
330
1F
100
AcDbEntity
  8
0
  6
Continuous
 62
     7
370
    25
100
AcDbSpline
210
0.0
220
0.0
230
1.0
 70
     8
 71
     3
 72
    11
 73
     7
 74
     0
 42
0.00000001
 43
0.00000001
 40
0.0
 40
0.0
 40
0.0
 40
0.0
 40
0.2556279644380972
 40
0.5185037642963866
 40
0.7560467972580102
 40
0.9999999999999999
 40
0.9999999999999999
 40
0.9999999999999999
 40
0.9999999999999999
 10
146.3756968944452
 20
169.3232144888255
 30
0.0
 10
146.6693228545471
 20
168.472269915858
 30
0.0
 10
147.2648999696827
 20
166.7462538860349
 30
0.0
 10
147.4967889313093
 20
164.1131713578376
 30
0.0
 10
147.2138184728486
 20
161.5294439376669
 30
0.0
 10
146.6575393392843
 20
159.9277435265726
 30
0.0
 10
146.3756968944452
 20
159.1162315849503
 30
0.0
  0
SPLINE
  5
1E6
330
1F
100
AcDbEntity
  8
0
  6
Continuous
 62
     7
370
    25
100
AcDbSpline
210
0.0
220
0.0
230
1.0
 70
     8
 71
     3
 72
     9
 73
     5
 74
     0
 42
0.00000001
 43
0.00000001
 40
0.0
 40
0.0
 40
0.0
 40
0.0
 40
0.5841917497409257
 40
1.0
 40
1.0
 40
1.0
 40
1.0
 10
145.9612399868678
 20
171.6178961628166
 30
0.0
 10
145.9874079506885
 20
171.1375380372504
 30
0.0
 10
146.0322014004971
 20
170.315276980364
 30
0.0
 10
146.2748158180111
 20
169.6145729892995
 30
0.0
 10
146.3756968944452
 20
169.3232144888255
 30
0.0
  0
LINE
  5
1E7
330
1F
100
AcDbEntity
  8
0
  6
Continuous
 62
     7
370
    25
100
AcDbLine
 10
145.9612399869
 20
171.6178961628
 30
0.0
 11
145.9612399869
 21
173.071549911
 31
0.0
  0
SPLINE
  5
1E8
330
1F
100
AcDbEntity
  8
0
  6
Continuous
 62
     7
370
    25
100
AcDbSpline
210
0.0
220
0.0
230
1.0
 70
     8
 71
     3
 72
     9
 73
     5
 74
     0
 42
0.00000001
 43
0.00000001
 40
0.0
 40
0.0
 40
0.0
 40
0.0
 40
0.5850553834536182
 40
0.9999999999999999
 40
0.9999999999999999
 40
0.9999999999999999
 40
0.9999999999999999
 10
146.3756968944452
 20
175.3662315849503
 30
0.0
 10
146.2391427604209
 20
174.9479866423478
 30
0.0
 10
146.0057389872289
 20
174.2331057021306
 30
0.0
 10
145.9742896995037
 20
173.4121860862049
 30
0.0
 10
145.9612399868678
 20
173.0715499109591
 30
0.0
  0
SPLINE
  5
1E9
330
1F
100
AcDbEntity
  8
0
  6
Continuous
 62
     7
370
    25
100
AcDbSpline
210
0.0
220
0.0
230
1.0
 70
     8
 71
     3
 72
    11
 73
     7
 74
     0
 42
0.00000001
 43
0.00000001
 40
0.0
 40
0.0
 40
0.0
 40
0.0
 40
0.2328716322111471
 40
0.471026502431323
 40
0.7311421212560291
 40
1.0
 40
1.0
 40
1.0
 40
1.0
 10
146.3756968944452
 20
185.5732144888255
 30
0.0
 10
146.646093629118
 20
184.7991121128319
 30
0.0
 10
147.1930216812488
 20
183.2333450366712
 30
0.0
 10
147.4942459992324
 20
180.6979060693764
 30
0.0
 10
147.2865942338227
 20
178.0243999889072
 30
0.0
 10
146.6826564020424
 20
176.261996704812
 30
0.0
 10
146.3756968944452
 20
175.3662315849503
 30
0.0
  0
SPLINE
  5
1EA
330
1F
100
AcDbEntity
  8
0
  6
Continuous
 62
     7
370
    25
100
AcDbSpline
210
0.0
220
0.0
230
1.0
 70
     8
 71
     3
 72
     9
 73
     5
 74
     0
 42
0.00000001
 43
0.00000001
 40
0.0
 40
0.0
 40
0.0
 40
0.0
 40
0.5841917497409239
 40
1.0
 40
1.0
 40
1.0
 40
1.0
 10
145.9612399868678
 20
187.2970300210844
 30
0.0
 10
145.9874079506885
 20
187.0077541175846
 30
0.0
 10
146.0322014004971
 20
186.5125812507511
 30
0.0
 10
146.2748158180111
 20
185.8490967981398
 30
0.0
 10
146.3756968944452
 20
185.5732144888255
 30
0.0
  0
LINE
  5
1EB
330
1F
100
AcDbEntity
  8
0
  6
Continuous
 62
     7
370
    25
100
AcDbLine
 10
145.9612399869
 20
187.2970300211
 30
0.0
 11
145.9612399869
 21
188.0238568952
 31
0.0
  0
SPLINE
  5
1EC
330
1F
100
AcDbEntity
  8
0
  6
Continuous
 62
     7
370
    25
100
AcDbSpline
210
0.0
220
0.0
230
1.0
 70
     8
 71
     3
 72
     9
 73
     5
 74
     0
 42
0.00000001
 43
0.00000001
 40
0.0
 40
0.0
 40
0.0
 40
0.0
 40
0.5850553834536166
 40
1.0
 40
1.0
 40
1.0
 40
1.0
 10
146.3756968944452
 20
188.5947230368879
 30
0.0
 10
146.2391427604209
 20
188.5630246198492
 30
0.0
 10
146.0057389872289
 20
188.5088444209567
 30
0.0
 10
145.9742896995037
 20
188.1660836371566
 30
0.0
 10
145.9612399868678
 20
188.0238568951556
 30
0.0
  0
SPLINE
  5
1ED
330
1F
100
AcDbEntity
  8
0
  6
Continuous
 62
     7
370
    25
100
AcDbSpline
210
0.0
220
0.0
230
1.0
 70
    27
 71
     3
 72
    11
 73
     7
 74
     0
 42
0.00000001
 43
0.00000001
 40
0.0
 40
0.0
 40
0.0
 40
0.0
 40
0.2328716322111485
 40
0.471026502431326
 40
0.7311421212560308
 40
1.0
 40
1.0
 40
1.0
 40
1.0
 10
146.3756968944452
 20
188.5947230368879
 30
0.0
 10
146.646093629118
 20
188.5947230368879
 30
0.0
 10
147.1930216812488
 20
188.5947230368879
 30
0.0
 10
147.4942459992324
 20
188.5947230368879
 30
0.0
 10
147.2865942338227
 20
188.5947230368879
 30
0.0
 10
146.6826564020424
 20
188.5947230368879
 30
0.0
 10
146.3756968944452
 20
188.5947230368879
 30
0.0
  0
SPLINE
  5
1EE
330
1F
100
AcDbEntity
  8
0
  6
Continuous
 62
     7
370
    25
100
AcDbSpline
210
0.0
220
0.0
230
1.0
 70
     8
 71
     3
 72
     9
 73
     5
 74
     0
 42
0.00000001
 43
0.00000001
 40
0.0
 40
0.0
 40
0.0
 40
0.0
 40
0.5841917497409264
 40
1.0
 40
1.0
 40
1.0
 40
1.0
 10
145.9612399868678
 20
188.0238568951556
 30
0.0
 10
145.9874079506885
 20
188.2149391172221
 30
0.0
 10
146.0322014004971
 20
188.5420273072749
 30
0.0
 10
146.2748158180111
 20
188.5792468457282
 30
0.0
 10
146.3756968944452
 20
188.5947230368879
 30
0.0
  0
LINE
  5
1EF
330
1F
100
AcDbEntity
  8
0
  6
Continuous
 62
     7
370
    25
100
AcDbLine
 10
145.9612399869
 20
188.0238568952
 30
0.0
 11
145.9612399869
 21
187.2970300211
 31
0.0
  0
LINE
  5
1F0
330
1F
100
AcDbEntity
  8
0
  6
Continuous
 62
     7
370
    25
100
AcDbLine
 10
147.4612399869
 20
156.1595190247
 30
0.0
 11
147.4612399869
 21
188.5410236175
 31
0.0
  0
SPLINE
  5
1F1
330
1F
100
AcDbEntity
  8
0
  6
Continuous
 62
     7
370
    25
100
AcDbSpline
210
0.0
220
0.0
230
1.0
 70
     8
 71
     3
 72
     9
 73
     5
 74
     0
 42
0.00000001
 43
0.00000001
 40
0.0
 40
0.0
 40
0.0
 40
0.0
 40
0.4167058089676245
 40
1.0
 40
1.0
 40
1.0
 40
1.0
 10
139.1643858447027
 20
158.6566248006857
 30
0.0
 10
139.1606464651332
 20
158.559329863873
 30
0.0
 10
139.1516727971666
 20
158.3258439495447
 30
0.0
 10
139.1426836691153
 20
158.2635808379013
 30
0.0
 10
139.1374403629406
 20
158.2272631265641
 30
0.0
  0
LINE
  5
1F2
330
1F
100
AcDbEntity
  8
0
  6
Continuous
 62
     7
370
    25
100
AcDbLine
 10
139.1335736622
 20
158.2458218601
 30
0.0
 11
139.1303574326
 21
158.2612585726
 31
0.0
  0
LINE
  5
1F3
330
1F
100
AcDbEntity
  8
0
  6
Continuous
 62
     7
370
    25
100
AcDbLine
 10
138.7310162903
 20
186.8308286325
 30
0.0
 11
138.7277803913
 21
186.8265047361
 31
0.0
  0
LINE
  5
1F4
330
1F
100
AcDbEntity
  8
0
  6
Continuous
 62
     7
370
    25
100
AcDbLine
 10
139.0967830793
 20
175.366231585
 30
0.0
 11
146.3756968944
 21
175.366231585
 31
0.0
  0
LINE
  5
1F5
330
1F
100
AcDbEntity
  8
0
  6
Continuous
 62
     7
370
    25
100
AcDbLine
 10
146.3756968944
 20
185.5732144888
 30
0.0
 11
139.0967830793
 21
185.5732144888
 31
0.0
  0
SPLINE
  5
1F6
330
1F
100
AcDbEntity
  8
0
  6
Continuous
 62
     7
370
    25
100
AcDbSpline
210
0.0
220
0.0
230
1.0
 70
     8
 71
     3
 72
    11
 73
     7
 74
     0
 42
0.00000001
 43
0.00000001
 40
0.0
 40
0.0
 40
0.0
 40
0.0
 40
0.2328716322111453
 40
0.4710265024313188
 40
0.731142121256027
 40
1.0
 40
1.0
 40
1.0
 40
1.0
 10
139.0967830792905
 20
175.3662315849503
 30
0.0
 10
138.8263863446177
 20
176.1403339609438
 30
0.0
 10
138.2794582924869
 20
177.7061010371046
 30
0.0
 10
137.9782339745032
 20
180.2415400043993
 30
0.0
 10
138.185885739913
 20
182.9150460848685
 30
0.0
 10
138.7898235716932
 20
184.6774493689638
 30
0.0
 10
139.0967830792905
 20
185.5732144888255
 30
0.0
  0
LINE
  5
1F7
330
1F
100
AcDbEntity
  8
0
  6
Continuous
 62
     7
370
    25
100
AcDbLine
 10
155.2112399869
 20
167.0572230369
 30
0.0
 11
155.2112399869
 21
182.9197230369
 31
0.0
  0
LINE
  5
1F8
330
1F
100
AcDbEntity
  8
0
  6
Continuous
 62
     7
370
    25
100
AcDbLine
 10
155.2112399869
 20
161.7697230369
 30
0.0
 11
155.2112399869
 21
167.0572230369
 31
0.0
  0
LINE
  5
1F9
330
1F
100
AcDbEntity
  8
0
  6
Continuous
 62
     7
370
    25
100
AcDbLine
 10
138.9675062937
 20
186.9451031954
 30
0.0
 11
138.9802716501
 21
186.9441062087
 31
0.0
  0
LINE
  5
1FA
330
1F
100
AcDbEntity
  8
0
  6
Continuous
 62
     7
370
    25
100
AcDbLine
 10
145.9612399869
 20
173.071549911
 30
0.0
 11
139.5112399869
 21
173.071549911
 31
0.0
  0
SPLINE
  5
1FB
330
1F
100
AcDbEntity
  8
0
  6
Continuous
 62
     7
370
    25
100
AcDbSpline
210
0.0
220
0.0
230
1.0
 70
     8
 71
     3
 72
     9
 73
     5
 74
     0
 42
0.00000001
 43
0.00000001
 40
0.0
 40
0.0
 40
0.0
 40
0.0
 40
0.5841917497409203
 40
1.0
 40
1.0
 40
1.0
 40
1.0
 10
139.5112399868678
 20
173.0715499109591
 30
0.0
 10
139.4850720230472
 20
173.5519080365254
 30
0.0
 10
139.4402785732385
 20
174.3741690934117
 30
0.0
 10
139.1976641557246
 20
175.0748730844762
 30
0.0
 10
139.0967830792905
 20
175.3662315849503
 30
0.0
  0
LINE
  5
1FC
330
1F
100
AcDbEntity
  8
0
  6
Continuous
 62
     7
370
    25
100
AcDbLine
 10
139.5112399869
 20
171.6178961628
 30
0.0
 11
145.9612399869
 21
171.6178961628
 31
0.0
  0
LINE
  5
1FD
330
1F
100
AcDbEntity
  8
0
  6
Continuous
 62
     7
370
    25
100
AcDbLine
 10
139.5112399869
 20
173.071549911
 30
0.0
 11
139.5112399869
 21
171.6178961628
 31
0.0
  0
LINE
  5
1FE
330
1F
100
AcDbEntity
  8
0
  6
Continuous
 62
     7
370
    25
100
AcDbLine
 10
146.3756968944
 20
169.3232144888
 30
0.0
 11
139.0967830793
 21
169.3232144888
 31
0.0
  0
SPLINE
  5
1FF
330
1F
100
AcDbEntity
  8
0
  6
Continuous
 62
     7
370
    25
100
AcDbSpline
210
0.0
220
0.0
230
1.0
 70
     8
 71
     3
 72
     9
 73
     5
 74
     0
 42
0.00000001
 43
0.00000001
 40
0.0
 40
0.0
 40
0.0
 40
0.0
 40
0.5850553834536154
 40
1.0
 40
1.0
 40
1.0
 40
1.0
 10
139.0967830792905
 20
169.3232144888255
 30
0.0
 10
139.2333372133148
 20
169.7414594314279
 30
0.0
 10
139.4667409865067
 20
170.4563403716452
 30
0.0
 10
139.498190274232
 20
171.2772599875709
 30
0.0
 10
139.5112399868678
 20
171.6178961628166
 30
0.0
  0
LINE
  5
200
330
1F
100
AcDbEntity
  8
0
  6
Continuous
 62
     7
370
    25
100
AcDbLine
 10
139.0967830793
 20
159.116231585
 30
0.0
 11
146.3756968944
 21
159.116231585
 31
0.0
  0
SPLINE
  5
201
330
1F
100
AcDbEntity
  8
0
  6
Continuous
 62
     7
370
    25
100
AcDbSpline
210
0.0
220
0.0
230
1.0
 70
     8
 71
     3
 72
    11
 73
     7
 74
     0
 42
0.00000001
 43
0.00000001
 40
0.0
 40
0.0
 40
0.0
 40
0.0
 40
0.2379053903768115
 40
0.4814905141302429
 40
0.7366519444347656
 40
1.0
 40
1.0
 40
1.0
 40
1.0
 10
139.0967830792906
 20
159.11623158495
 30
0.0
 10
138.8211976443175
 20
159.9073148062609
 30
0.0
 10
138.263447470764
 20
161.5083675034927
 30
0.0
 10
137.9768842461077
 20
164.0654393042767
 30
0.0
 10
138.2017646523057
 20
166.7191721701404
 30
0.0
 10
138.7953197692239
 20
168.4461116345425
 30
0.0
 10
139.0967830792905
 20
169.3232144888255
 30
0.0
  0
LINE
  5
202
330
1F
100
AcDbEntity
  8
0
  6
Continuous
 62
     7
370
    25
100
AcDbLine
 10
139.5112399869
 20
187.2970300211
 30
0.0
 11
145.9612399869
 21
187.2970300211
 31
0.0
  0
SPLINE
  5
203
330
1F
100
AcDbEntity
  8
0
  6
Continuous
 62
     7
370
    25
100
AcDbSpline
210
0.0
220
0.0
230
1.0
 70
     8
 71
     3
 72
     9
 73
     5
 74
     0
 42
0.00000001
 43
0.00000001
 40
0.0
 40
0.0
 40
0.0
 40
0.0
 40
0.5850553834536188
 40
1.0
 40
1.0
 40
1.0
 40
1.0
 10
139.0967830792905
 20
185.5732144888255
 30
0.0
 10
139.2333372133148
 20
185.9597610143893
 30
0.0
 10
139.4667409865067
 20
186.620461755714
 30
0.0
 10
139.498190274232
 20
187.0986205878397
 30
0.0
 10
139.5112399868678
 20
187.2970300210844
 30
0.0
  0
LINE
  5
204
330
1F
100
AcDbEntity
  8
0
  6
Continuous
 62
     7
370
    25
100
AcDbLine
 10
145.9612399869
 20
157.3924160527
 30
0.0
 11
139.5112399869
 21
157.3924160527
 31
0.0
  0
SPLINE
  5
205
330
1F
100
AcDbEntity
  8
0
  6
Continuous
 62
     7
370
    25
100
AcDbSpline
210
0.0
220
0.0
230
1.0
 70
     8
 71
     3
 72
     9
 73
     5
 74
     0
 42
0.00000001
 43
0.00000001
 40
0.0
 40
0.0
 40
0.0
 40
0.0
 40
0.5841917497409932
 40
1.0
 40
1.0
 40
1.0
 40
1.0
 10
139.5112399868678
 20
157.3924160526914
 30
0.0
 10
139.4850720230472
 20
157.6816919561911
 30
0.0
 10
139.4402785732385
 20
158.1768648230246
 30
0.0
 10
139.1976641557246
 20
158.8403492756358
 30
0.0
 10
139.0967830792906
 20
159.11623158495
 30
0.0
  0
LINE
  5
206
330
1F
100
AcDbEntity
  8
0
  6
Continuous
 62
     7
370
    25
100
AcDbLine
 10
145.9612399869
 20
188.0238568952
 30
0.0
 11
139.5112399869
 21
188.0238568952
 31
0.0
  0
LINE
  5
207
330
1F
100
AcDbEntity
  8
0
  6
Continuous
 62
     7
370
    25
100
AcDbLine
 10
139.5112399869
 20
188.0238568952
 30
0.0
 11
139.5112399869
 21
187.2970300211
 31
0.0
  0
LINE
  5
208
330
1F
100
AcDbEntity
  8
0
  6
Continuous
 62
     7
370
    25
100
AcDbLine
 10
139.5112399869
 20
156.6655891786
 30
0.0
 11
145.9612399869
 21
156.6655891786
 31
0.0
  0
LINE
  5
209
330
1F
100
AcDbEntity
  8
0
  6
Continuous
 62
     7
370
    25
100
AcDbLine
 10
139.5112399869
 20
157.3924160527
 30
0.0
 11
139.5112399869
 21
156.6655891786
 31
0.0
  0
LINE
  5
20A
330
1F
100
AcDbEntity
  8
0
  6
Continuous
 62
     7
370
    25
100
AcDbLine
 10
139.0967830793
 20
188.5947230369
 30
0.0
 11
146.3756968944
 21
188.5947230369
 31
0.0
  0
SPLINE
  5
20B
330
1F
100
AcDbEntity
  8
0
  6
Continuous
 62
     7
370
    25
100
AcDbSpline
210
0.0
220
0.0
230
1.0
 70
     8
 71
     3
 72
     9
 73
     5
 74
     0
 42
0.00000001
 43
0.00000001
 40
0.0
 40
0.0
 40
0.0
 40
0.0
 40
0.5841917497409259
 40
1.0
 40
1.0
 40
1.0
 40
1.0
 10
139.5112399868678
 20
188.0238568951556
 30
0.0
 10
139.4850720230472
 20
188.2149391172221
 30
0.0
 10
139.4402785732385
 20
188.5420273072749
 30
0.0
 10
139.1976641557246
 20
188.5792468457282
 30
0.0
 10
139.0967830792905
 20
188.5947230368879
 30
0.0
  0
LINE
  5
20C
330
1F
100
AcDbEntity
  8
0
  6
Continuous
 62
     7
370
    25
100
AcDbLine
 10
146.3756968944
 20
156.0947230369
 30
0.0
 11
139.0967830793
 21
156.0947230369
 31
0.0
  0
SPLINE
  5
20D
330
1F
100
AcDbEntity
  8
0
  6
Continuous
 62
     7
370
    25
100
AcDbSpline
210
0.0
220
0.0
230
1.0
 70
     8
 71
     3
 72
     9
 73
     5
 74
     0
 42
0.00000001
 43
0.00000001
 40
0.0
 40
0.0
 40
0.0
 40
0.0
 40
0.5850553834536137
 40
1.0
 40
1.0
 40
1.0
 40
1.0
 10
139.0967830792905
 20
156.0947230368879
 30
0.0
 10
139.2333372133148
 20
156.1264214539265
 30
0.0
 10
139.4667409865067
 20
156.1806016528191
 30
0.0
 10
139.498190274232
 20
156.5233624366191
 30
0.0
 10
139.5112399868678
 20
156.6655891786202
 30
0.0
  0
LWPOLYLINE
  5
20E
330
1F
100
AcDbEntity
  8
0
  6
Continuous
 62
     8
370
    25
100
AcDbPolyline
 90
       18
 70
   128
 43
0.0
 10
98.9112399869
 20
67.2717349485
 10
99.0457524994
 20
67.7829964259
 10
99.4447093746
 20
68.2768475069
 10
100.0945246146
 20
68.7364706852
 10
100.9730695408
 20
69.1462140447
 10
102.0504263595
 20
69.4921242669
 10
103.2899069762
 20
69.7624217938
 10
104.6493023653
 20
69.9479019675
 10
106.0823199471
 20
70.0422484831
 10
107.5401600266
 20
70.0422484831
 10
108.9731776084
 20
69.9479019675
 10
110.3325729975
 20
69.7624217938
 10
111.5720536143
 20
69.4921242669
 10
112.6494104329
 20
69.1462140447
 10
113.5279553591
 20
68.7364706852
 10
114.1777705992
 20
68.2768475069
 10
114.5767274744
 20
67.7829964259
 10
114.7112399869
 20
67.2717349485
  0
LWPOLYLINE
  5
20F
330
1F
100
AcDbEntity
  8
0
  6
Continuous
 62
     8
370
    25
100
AcDbPolyline
 90
       18
 70
   128
 43
0.0
 10
98.9112399869
 20
149.6717349485
 10
99.0457524994
 20
150.1829964259
 10
99.4447093746
 20
150.6768475069
 10
100.0945246146
 20
151.1364706852
 10
100.9730695408
 20
151.5462140447
 10
102.0504263595
 20
151.8921242669
 10
103.2899069762
 20
152.1624217938
 10
104.6493023653
 20
152.3479019675
 10
106.0823199471
 20
152.4422484831
 10
107.5401600266
 20
152.4422484831
 10
108.9731776084
 20
152.3479019675
 10
110.3325729975
 20
152.1624217938
 10
111.5720536143
 20
151.8921242669
 10
112.6494104329
 20
151.5462140447
 10
113.5279553591
 20
151.1364706852
 10
114.1777705992
 20
150.6768475069
 10
114.5767274744
 20
150.1829964259
 10
114.7112399869
 20
149.6717349485
  0
ARC
  5
210
330
1F
100
AcDbEntity
  8
0
  6
Continuous
 62
     8
370
    25
100
AcDbCircle
 10
106.8112399869
 20
19.9447230369
 30
0.0
 40
8.410472292019533
100
AcDbArc
 50
159.9351921799
 51
270.0
  0
ARC
  5
211
330
1F
100
AcDbEntity
  8
0
  6
Continuous
 62
     8
370
    25
100
AcDbCircle
 10
106.8112399869
 20
19.9447230369
 30
0.0
 40
8.410472292019533
100
AcDbArc
 50
270.0
 51
20.0648078201
  0
LINE
  5
212
330
1F
100
AcDbEntity
  8
0
  6
Continuous
 62
     8
370
    25
100
AcDbLine
 10
98.7520061395
 20
164.7703620098
 30
0.0
 11
98.9112399869
 21
164.6044261967
 31
0.0
  0
ARC
  5
213
330
1F
100
AcDbEntity
  8
0
  6
Continuous
 62
     8
370
    25
100
AcDbCircle
 10
106.8112399869
 20
172.3447230369
 30
0.0
 40
11.05993649053893
100
AcDbArc
 50
315.5850271977
 51
223.2235523034
  0
ARC
  5
214
330
1F
100
AcDbEntity
  8
0
  6
Continuous
 62
     8
370
    25
100
AcDbCircle
 10
106.8112399869
 20
172.3447230369
 30
0.0
 40
11.30993649053893
100
AcDbArc
 50
314.3068486059
 51
225.6931513941
  0
LINE
  5
215
330
1F
100
AcDbEntity
  8
0
  6
Continuous
 62
     8
370
    25
100
AcDbLine
 10
114.7112399869
 20
159.978986727
 30
0.0
 11
114.9684988455
 21
160.0856548458
 31
0.0
  0
ARC
  5
216
330
1F
100
AcDbEntity
  8
0
  6
Continuous
 62
     8
370
    25
100
AcDbCircle
 10
98.65374948
 20
160.4296688115
 30
0.0
 40
0.352950226846096
100
AcDbArc
 50
279.5385256861
 51
316.8476542185
  0
ARC
  5
217
330
1F
100
AcDbEntity
  8
0
  6
Continuous
 62
     8
370
    25
100
AcDbCircle
 10
106.8112399869
 20
172.3447230369
 30
0.0
 40
9.374999999999972
100
AcDbArc
 50
327.4227936768
 51
212.5772063232
  0
ARC
  5
218
330
1F
100
AcDbEntity
  8
0
  6
Continuous
 62
     8
370
    25
100
AcDbCircle
 10
113.7547542381
 20
151.6338433223
 30
0.0
 40
7.943655242545369
100
AcDbArc
 50
57.337317599
 51
83.0843056245
  0
ARC
  5
219
330
1F
100
AcDbEntity
  8
0
  6
Continuous
 62
     8
370
    25
100
AcDbCircle
 10
113.8883212798
 20
192.7343239372
 30
0.0
 40
7.601341921577934
100
AcDbArc
 50
272.8159102746
 51
303.1220773789
  0
SPLINE
  5
21A
330
1F
100
AcDbEntity
  8
0
  6
Continuous
 62
     8
370
    25
100
AcDbSpline
210
0.0
220
0.0
230
1.0
 70
     8
 71
     3
 72
    12
 73
     8
 74
     0
 42
0.00000001
 43
0.00000001
 40
0.0
 40
0.0
 40
0.0
 40
0.0
 40
0.1924082105681739
 40
0.4135492548068708
 40
0.6381901448204661
 40
0.8686791278218468
 40
1.0
 40
1.0
 40
1.0
 40
1.0
 10
120.80168177444
 20
188.5336756857116
 30
0.0
 10
120.7515747908256
 20
188.5201420464005
 30
0.0
 10
120.6438782134647
 20
188.4910537531546
 30
0.0
 10
120.2198296564522
 20
188.1590535625509
 30
0.0
 10
119.5698903367732
 20
187.612334153504
 30
0.0
 10
118.8207269791771
 20
186.9802605134618
 30
0.0
 10
118.2492889306976
 20
186.531146076906
 30
0.0
 10
118.0418823555371
 20
186.3681375278795
 30
0.0
  0
SPLINE
  5
21B
330
1F
100
AcDbEntity
  8
0
  6
Continuous
 62
     8
370
    25
100
AcDbSpline
210
0.0
220
0.0
230
1.0
 70
     8
 71
     3
 72
    12
 73
     8
 74
     0
 42
0.00000001
 43
0.00000001
 40
0.0
 40
0.0
 40
0.0
 40
0.0
 40
0.2298983238880673
 40
0.46580431102087
 40
0.6969655693638132
 40
0.9348948514667818
 40
0.9999999999999999
 40
0.9999999999999999
 40
0.9999999999999999
 40
0.9999999999999999
 10
118.0418823555371
 20
158.3213085458963
 30
0.0
 10
118.3965064082885
 20
158.0393521860014
 30
0.0
 10
119.1150214882144
 20
157.468071431372
 30
0.0
 10
119.9007240695934
 20
156.7951808562634
 30
0.0
 10
120.4714413754705
 20
156.3275787573739
 30
0.0
 10
120.7309500154181
 20
156.1530682912455
 30
0.0
 10
120.7945311142045
 20
156.1492877813808
 30
0.0
 10
120.8081911358453
 20
156.1484755612784
 30
0.0
  0
ARC
  5
21C
330
1F
100
AcDbEntity
  8
0
  6
Continuous
 62
     8
370
    25
100
AcDbCircle
 10
106.8112399869
 20
172.3447230369
 30
0.0
 40
16.8644366197183
100
AcDbArc
 50
67.4212070912
 51
242.0668292396
  0
LINE
  5
21D
330
1F
100
AcDbEntity
  8
0
  6
Continuous
 62
     8
370
    25
100
AcDbLine
 10
112.8306613081
 20
186.82055372
 30
0.0
 11
113.2864008903
 21
187.9165409711
 31
0.0
  0
ARC
  5
21E
330
1F
100
AcDbEntity
  8
0
  6
Continuous
 62
     8
370
    25
100
AcDbCircle
 10
120.8959439248
 20
141.5344088748
 30
0.0
 40
17.0277910490246
100
AcDbArc
 50
99.6490027568
 51
111.2976087729
  0
ARC
  5
21F
330
1F
100
AcDbEntity
  8
0
  6
Continuous
 62
     8
370
    25
100
AcDbCircle
 10
106.8112399869
 20
172.3447230369
 30
0.0
 40
24.76305823079825
100
AcDbArc
 50
288.6038866725
 51
319.140960131
  0
ARC
  5
220
330
1F
100
AcDbEntity
  8
0
  6
Continuous
 62
     8
370
    25
100
AcDbCircle
 10
106.8112399869
 20
172.3447230369
 30
0.0
 40
24.76305823079824
100
AcDbArc
 50
40.859039869
 51
251.3961133275
  0
LINE
  5
221
330
1F
100
AcDbEntity
  8
0
  6
Continuous
 62
     8
370
    25
100
AcDbLine
 10
180.549283944
 20
164.1991316912
 30
0.0
 11
180.549283944
 21
163.3690649927
 31
0.0
  0
LINE
  5
222
330
1F
100
AcDbEntity
  8
0
  6
Continuous
 62
     8
370
    25
100
AcDbLine
 10
179.6158637301
 20
181.3366739915
 30
0.0
 11
179.6158637301
 21
180.5007204533
 31
0.0
  0
LINE
  5
223
330
1F
100
AcDbEntity
  8
0
  6
Continuous
 62
     8
370
    25
100
AcDbLine
 10
184.9199661901
 20
163.4453555351
 30
0.0
 11
184.9199661901
 21
181.2440905387
 31
0.0
  0
ARC
  5
224
330
1F
100
AcDbEntity
  8
0
  6
Continuous
 62
     8
370
    25
100
AcDbCircle
 10
175.0752964213
 20
181.97584577
 30
0.0
 40
1.999714163834105
100
AcDbArc
 50
23.9496695016
 51
89.4026417578
  0
SPLINE
  5
225
330
1F
100
AcDbEntity
  8
0
  6
Continuous
 62
     8
370
    25
100
AcDbSpline
210
0.0
220
0.0
230
1.0
 70
     8
 71
     3
 72
    11
 73
     7
 74
     0
 42
0.00000001
 43
0.00000001
 40
0.0
 40
0.0
 40
0.0
 40
0.0
 40
0.2712378730599509
 40
0.8558922174280369
 40
0.8591593821139398
 40
1.0
 40
1.0
 40
1.0
 40
1.0
 10
178.3392315677231
 20
181.6632296379584
 30
0.0
 10
178.4453225035487
 20
181.6054313447761
 30
0.0
 10
178.7800928853115
 20
181.423048594324
 30
0.0
 10
179.151340211891
 20
181.0316802359862
 30
0.0
 10
179.4617188868637
 20
180.6574871076236
 30
0.0
 10
179.5232214215696
 20
180.5785019379176
 30
0.0
 10
179.5833295908505
 20
180.5013074942403
 30
0.0
  0
SPLINE
  5
226
330
1F
100
AcDbEntity
  8
0
  6
Continuous
 62
     8
370
    25
100
AcDbSpline
210
0.0
220
0.0
230
1.0
 70
     8
 71
     3
 72
     9
 73
     5
 74
     0
 42
0.00000001
 43
0.00000001
 40
0.0
 40
0.0
 40
0.0
 40
0.0
 40
0.353471304687639
 40
1.0
 40
1.0
 40
1.0
 40
1.0
 10
180.504677610834
 20
164.1983250740675
 30
0.0
 10
180.3125788327933
 20
164.0050011884642
 30
0.0
 10
179.7691152602399
 20
163.4580716837506
 30
0.0
 10
179.2495363930809
 20
163.1542007739105
 30
0.0
 10
178.9136137459848
 20
162.9577395110281
 30
0.0
  0
ARC
  5
227
330
1F
100
AcDbEntity
  8
0
  6
Continuous
 62
     8
370
    25
100
AcDbCircle
 10
175.1816887377
 20
162.6037880628
 30
0.0
 40
1.935945854965875
100
AcDbArc
 50
269.1353354526
 51
335.1540321835
  0
ARC
  5
228
330
1F
100
AcDbEntity
  8
0
  6
Continuous
 62
     8
370
    25
100
AcDbCircle
 10
175.0759701994
 20
182.026578456
 30
0.0
 40
1.995865504505792
100
AcDbArc
 50
19.2726755478
 51
89.4208331484
  0
LINE
  5
229
330
1F
100
AcDbEntity
  8
0
  6
Continuous
 62
     8
370
    25
100
AcDbLine
 10
171.0699661901
 20
184.3165364992
 30
0.0
 11
171.0699661901
 21
184.0908569501
 31
0.0
  0
LINE
  5
22A
330
1F
100
AcDbEntity
  8
0
  6
Continuous
 62
     8
370
    25
100
AcDbLine
 10
171.0699661901
 20
160.5985891236
 30
0.0
 11
171.0699661901
 21
160.3729095746
 31
0.0
  0
LINE
  5
22B
330
1F
100
AcDbEntity
  8
0
  6
Continuous
 62
     8
370
    25
100
AcDbLine
 10
175.0961447997
 20
184.0223419935
 30
0.0
 11
175.0961447997
 21
184.2462592902
 31
0.0
  0
LINE
  5
22C
330
1F
100
AcDbEntity
  8
0
  6
Continuous
 62
     8
370
    25
100
AcDbLine
 10
175.0961447997
 20
160.4431867836
 30
0.0
 11
175.0961447997
 21
160.45977559
 31
0.0
  0
ARC
  5
22D
330
1F
100
AcDbEntity
  8
0
  6
Continuous
 62
     8
370
    25
100
AcDbCircle
 10
175.0621800365
 20
162.4596509338
 30
0.0
 40
2.000163742341182
100
AcDbArc
 50
270.972985901
 51
333.0935829295
  0
LINE
  5
22E
330
1F
100
AcDbEntity
  8
0
  6
Continuous
 62
     8
370
    25
100
AcDbLine
 10
187.0162449764
 20
166.4195952657
 30
0.0
 11
187.0162449764
 21
178.269850808
 31
0.0
  0
ENDSEC
  0
SECTION
  2
OBJECTS
  0
DICTIONARY
  5
C
330
0
100
AcDbDictionary
281
     1
  3
ACAD_GROUP
350
D
  3
ACAD_LAYOUT
350
1A
  3
ACAD_MLINESTYLE
350
17
  3
ACAD_PLOTSETTINGS
350
19
  3
ACAD_PLOTSTYLENAME
350
E
  3
ACAD_SCALELIST
350
47
  3
DWGPROPS
350
22F
  0
DICTIONARY
  5
D
102
{ACAD_REACTORS
330
C
102
}
330
C
100
AcDbDictionary
281
     1
  0
DICTIONARY
  5
1A
102
{ACAD_REACTORS
330
C
102
}
330
C
100
AcDbDictionary
281
     1
  3
Layout1
350
1E
  3
Layout2
350
26
  3
Model
350
22
  0
DICTIONARY
  5
17
102
{ACAD_REACTORS
330
C
102
}
330
C
100
AcDbDictionary
281
     1
  3
Standard
350
18
  0
DICTIONARY
  5
19
102
{ACAD_REACTORS
330
C
102
}
330
C
100
AcDbDictionary
281
     1
  0
ACDBDICTIONARYWDFLT
  5
E
102
{ACAD_REACTORS
330
C
102
}
330
C
100
AcDbDictionary
281
     1
  3
Normal
350
F
100
AcDbDictionaryWithDefault
340
F
  0
DICTIONARY
  5
47
102
{ACAD_REACTORS
330
C
102
}
330
C
100
AcDbDictionary
281
     1
  3
A0
350
48
  3
A1
350
49
  3
A2
350
4A
  3
A3
350
4B
  3
A4
350
4C
  3
A5
350
4D
  3
A6
350
4E
  3
A7
350
4F
  3
A8
350
50
  3
A9
350
51
  3
B0
350
52
  3
B1
350
53
  3
B2
350
54
  3
B3
350
55
  3
B4
350
56
  3
B5
350
57
  3
B6
350
58
  3
B7
350
59
  3
B8
350
5A
  3
B9
350
5B
  3
C0
350
5C
  3
C1
350
5D
  3
C2
350
5E
  3
C3
350
5F
  3
C4
350
60
  3
C5
350
61
  3
C6
350
62
  3
C7
350
63
  3
C8
350
64
  3
C9
350
65
  3
D0
350
66
  3
D1
350
67
  3
D2
350
68
  0
XRECORD
  5
22F
102
{ACAD_REACTORS
330
C
102
}
330
C
100
AcDbXrecord
280
     1
  1
DWGPROPS COOKIE
  2

  3

  4

  6

  7

  8
DS-1
  9

300
=
301
=
302
=
303
=
304
=
305
=
306
=
307
=
308
=
309
=
 40
0.0
 41
2460383.514366215
 42
2460383.514366748
  1

 90
        0
  0
LAYOUT
  5
1E
102
{ACAD_REACTORS
330
1A
102
}
330
1A
100
AcDbPlotSettings
  1

  2
none_device
  4

  6

 40
0.0
 41
0.0
 42
0.0
 43
0.0
 44
0.0
 45
0.0
 46
0.0
 47
0.0
 48
0.0
 49
0.0
140
0.0
141
0.0
142
1.0
143
1.0
 70
   688
 72
     1
 73
     0
 74
     5
  7

 75
    16
147
1.0
148
0.0
149
0.0
100
AcDbLayout
  1
Layout1
 70
     1
 71
     1
 10
0.0
 20
0.0
 11
420.0
 21
297.0
 12
0.0
 22
0.0
 32
0.0
 14
1.0000000000E+20
 24
1.0000000000E+20
 34
1.0000000000E+20
 15
-1.0000000000E+20
 25
-1.0000000000E+20
 35
-1.0000000000E+20
146
0.0
 13
0.0
 23
0.0
 33
0.0
 16
1.0
 26
0.0
 36
0.0
 17
0.0
 27
1.0
 37
0.0
 76
     0
330
1B
  0
LAYOUT
  5
26
102
{ACAD_REACTORS
330
1A
102
}
330
1A
100
AcDbPlotSettings
  1

  2
none_device
  4

  6

 40
0.0
 41
0.0
 42
0.0
 43
0.0
 44
0.0
 45
0.0
 46
0.0
 47
0.0
 48
0.0
 49
0.0
140
0.0
141
0.0
142
1.0
143
1.0
 70
   688
 72
     1
 73
     0
 74
     5
  7

 75
    16
147
1.0
148
0.0
149
0.0
100
AcDbLayout
  1
Layout2
 70
     1
 71
     2
 10
0.0
 20
0.0
 11
0.0
 21
0.0
 12
0.0
 22
0.0
 32
0.0
 14
0.0
 24
0.0
 34
0.0
 15
0.0
 25
0.0
 35
0.0
146
0.0
 13
0.0
 23
0.0
 33
0.0
 16
1.0
 26
0.0
 36
0.0
 17
0.0
 27
1.0
 37
0.0
 76
     0
330
23
  0
LAYOUT
  5
22
102
{ACAD_REACTORS
330
1A
102
}
330
1A
100
AcDbPlotSettings
  1

  2
none_device
  4
Letter_(8.50_x_11.00_Inches)
  6

 40
6.35
 41
6.35
 42
6.35000508
 43
6.35000508
 44
215.9
 45
279.4
 46
0.0
 47
0.0
 48
0.0
 49
0.0
140
0.0
141
0.0
142
1.0
143
1.0
 70
  1712
 72
     1
 73
     0
 74
     0
  7

 75
     0
147
1.0
148
0.0
149
0.0
100
AcDbLayout
  1
Model
 70
     1
 71
     0
 10
0.0
 20
0.0
 11
279.4
 21
215.9
 12
0.0
 22
0.0
 32
0.0
 14
0.0
 24
0.0
 34
0.0
 15
279.4
 25
215.9
 35
0.0
146
0.0
 13
0.0
 23
0.0
 33
0.0
 16
1.0
 26
0.0
 36
0.0
 17
0.0
 27
1.0
 37
0.0
 76
     0
330
1F
331
29
  0
MLINESTYLE
  5
18
102
{ACAD_REACTORS
330
17
102
}
330
17
100
AcDbMlineStyle
  2
Standard
 70
     0
  3

 62
   256
 51
90.0
 52
90.0
 71
     2
 49
0.5
 62
   256
  6
BYLAYER
 49
-0.5
 62
   256
  6
BYLAYER
  0
ACDBPLACEHOLDER
  5
F
102
{ACAD_REACTORS
330
E
102
}
330
E
  0
SCALE
  5
48
102
{ACAD_REACTORS
330
47
102
}
330
47
100
AcDbScale
 70
     0
300
1:1
140
1.0
141
1.0
290
     1
  0
SCALE
  5
49
102
{ACAD_REACTORS
330
47
102
}
330
47
100
AcDbScale
 70
     0
300
1:2
140
1.0
141
2.0
290
     0
  0
SCALE
  5
4A
102
{ACAD_REACTORS
330
47
102
}
330
47
100
AcDbScale
 70
     0
300
1:4
140
1.0
141
4.0
290
     0
  0
SCALE
  5
4B
102
{ACAD_REACTORS
330
47
102
}
330
47
100
AcDbScale
 70
     0
300
1:5
140
1.0
141
5.0
290
     0
  0
SCALE
  5
4C
102
{ACAD_REACTORS
330
47
102
}
330
47
100
AcDbScale
 70
     0
300
1:8
140
1.0
141
8.0
290
     0
  0
SCALE
  5
4D
102
{ACAD_REACTORS
330
47
102
}
330
47
100
AcDbScale
 70
     0
300
1:10
140
1.0
141
10.0
290
     0
  0
SCALE
  5
4E
102
{ACAD_REACTORS
330
47
102
}
330
47
100
AcDbScale
 70
     0
300
1:16
140
1.0
141
16.0
290
     0
  0
SCALE
  5
4F
102
{ACAD_REACTORS
330
47
102
}
330
47
100
AcDbScale
 70
     0
300
1:20
140
1.0
141
20.0
290
     0
  0
SCALE
  5
50
102
{ACAD_REACTORS
330
47
102
}
330
47
100
AcDbScale
 70
     0
300
1:30
140
1.0
141
30.0
290
     0
  0
SCALE
  5
51
102
{ACAD_REACTORS
330
47
102
}
330
47
100
AcDbScale
 70
     0
300
1:40
140
1.0
141
40.0
290
     0
  0
SCALE
  5
52
102
{ACAD_REACTORS
330
47
102
}
330
47
100
AcDbScale
 70
     0
300
1:50
140
1.0
141
50.0
290
     0
  0
SCALE
  5
53
102
{ACAD_REACTORS
330
47
102
}
330
47
100
AcDbScale
 70
     0
300
1:100
140
1.0
141
100.0
290
     0
  0
SCALE
  5
54
102
{ACAD_REACTORS
330
47
102
}
330
47
100
AcDbScale
 70
     0
300
2:1
140
2.0
141
1.0
290
     0
  0
SCALE
  5
55
102
{ACAD_REACTORS
330
47
102
}
330
47
100
AcDbScale
 70
     0
300
4:1
140
4.0
141
1.0
290
     0
  0
SCALE
  5
56
102
{ACAD_REACTORS
330
47
102
}
330
47
100
AcDbScale
 70
     0
300
8:1
140
8.0
141
1.0
290
     0
  0
SCALE
  5
57
102
{ACAD_REACTORS
330
47
102
}
330
47
100
AcDbScale
 70
     0
300
10:1
140
10.0
141
1.0
290
     0
  0
SCALE
  5
58
102
{ACAD_REACTORS
330
47
102
}
330
47
100
AcDbScale
 70
     0
300
100:1
140
100.0
141
1.0
290
     0
  0
SCALE
  5
59
102
{ACAD_REACTORS
330
47
102
}
330
47
100
AcDbScale
 70
     0
300
1/128" = 1'-0"
140
0.0078125
141
12.0
290
     0
  0
SCALE
  5
5A
102
{ACAD_REACTORS
330
47
102
}
330
47
100
AcDbScale
 70
     0
300
1/64" = 1'-0"
140
0.015625
141
12.0
290
     0
  0
SCALE
  5
5B
102
{ACAD_REACTORS
330
47
102
}
330
47
100
AcDbScale
 70
     0
300
1/32" = 1'-0"
140
0.03125
141
12.0
290
     0
  0
SCALE
  5
5C
102
{ACAD_REACTORS
330
47
102
}
330
47
100
AcDbScale
 70
     0
300
1/16" = 1'-0"
140
0.0625
141
12.0
290
     0
  0
SCALE
  5
5D
102
{ACAD_REACTORS
330
47
102
}
330
47
100
AcDbScale
 70
     0
300
3/32" = 1'-0"
140
0.09375
141
12.0
290
     0
  0
SCALE
  5
5E
102
{ACAD_REACTORS
330
47
102
}
330
47
100
AcDbScale
 70
     0
300
1/8" = 1'-0"
140
0.125
141
12.0
290
     0
  0
SCALE
  5
5F
102
{ACAD_REACTORS
330
47
102
}
330
47
100
AcDbScale
 70
     0
300
3/16" = 1'-0"
140
0.1875
141
12.0
290
     0
  0
SCALE
  5
60
102
{ACAD_REACTORS
330
47
102
}
330
47
100
AcDbScale
 70
     0
300
1/4" = 1'-0"
140
0.25
141
12.0
290
     0
  0
SCALE
  5
61
102
{ACAD_REACTORS
330
47
102
}
330
47
100
AcDbScale
 70
     0
300
3/8" = 1'-0"
140
0.375
141
12.0
290
     0
  0
SCALE
  5
62
102
{ACAD_REACTORS
330
47
102
}
330
47
100
AcDbScale
 70
     0
300
1/2" = 1'-0"
140
0.5
141
12.0
290
     0
  0
SCALE
  5
63
102
{ACAD_REACTORS
330
47
102
}
330
47
100
AcDbScale
 70
     0
300
3/4" = 1'-0"
140
0.75
141
12.0
290
     0
  0
SCALE
  5
64
102
{ACAD_REACTORS
330
47
102
}
330
47
100
AcDbScale
 70
     0
300
1" = 1'-0"
140
1.0
141
12.0
290
     0
  0
SCALE
  5
65
102
{ACAD_REACTORS
330
47
102
}
330
47
100
AcDbScale
 70
     0
300
1-1/2" = 1'-0"
140
1.5
141
12.0
290
     0
  0
SCALE
  5
66
102
{ACAD_REACTORS
330
47
102
}
330
47
100
AcDbScale
 70
     0
300
3" = 1'-0"
140
3.0
141
12.0
290
     0
  0
SCALE
  5
67
102
{ACAD_REACTORS
330
47
102
}
330
47
100
AcDbScale
 70
     0
300
6" = 1'-0"
140
6.0
141
12.0
290
     0
  0
SCALE
  5
68
102
{ACAD_REACTORS
330
47
102
}
330
47
100
AcDbScale
 70
     0
300
1'-0" = 1'-0"
140
12.0
141
12.0
290
     0
  0
ENDSEC
  0
EOF
