  0
SECTION
  2
HEADER
  9
$ACADVER
  1
AC1015
  9
$ACADMAINTVER
 70
     6
  9
$DWGCODEPAGE
  3
ANSI_1252
  9
$INSBASE
 10
0.0
 20
0.0
 30
0.0
  9
$EXTMIN
 10
0.0
 20
0.0
 30
0.0
  9
$EXTMAX
 10
279.4
 20
215.9
 30
0.0
  9
$LIMMIN
 10
0.0
 20
0.0
  9
$LIMMAX
 10
279.4
 20
215.9
  9
$ORTHOMODE
 70
     0
  9
$REGENMODE
 70
     1
  9
$FILLMODE
 70
     1
  9
$QTEXTMODE
 70
     0
  9
$MIRRTEXT
 70
     1
  9
$LTSCALE
 40
1.0
  9
$ATTMODE
 70
     1
  9
$TEXTSIZE
 40
3.5
  9
$TRACEWID
 40
1.0
  9
$TEXTSTYLE
  7
Standard
  9
$CLAYER
  8
0
  9
$CELTYPE
  6
ByLayer
  9
$CECOLOR
 62
   256
  9
$CELTSCALE
 40
1.0
  9
$DISPSILH
 70
     0
  9
$DIMSCALE
 40
1.0
  9
$DIMASZ
 40
3.556
  9
$DIMEXO
 40
1.0
  9
$DIMDLI
 40
3.75
  9
$DIMRND
 40
0.0
  9
$DIMDLE
 40
0.0
  9
$DIMEXE
 40
1.0
  9
$DIMTP
 40
0.0
  9
$DIMTM
 40
0.0
  9
$DIMTXT
 40
3.5
  9
$DIMCEN
 40
2.5
  9
$DIMTSZ
 40
0.0
  9
$DIMTOL
 70
     0
  9
$DIMLIM
 70
     0
  9
$DIMTIH
 70
     1
  9
$DIMTOH
 70
     1
  9
$DIMSE1
 70
     0
  9
$DIMSE2
 70
     0
  9
$DIMTAD
 70
     1
  9
$DIMZIN
 70
     1
  9
$DIMBLK
  1

  9
$DIMASO
 70
     1
  9
$DIMSHO
 70
     1
  9
$DIMPOST
  1

  9
$DIMAPOST
  1

  9
$DIMALT
 70
     0
  9
$DIMALTD
 70
     3
  9
$DIMALTF
 40
0.0393700787
  9
$DIMLFAC
 40
2.0
  9
$DIMTOFL
 70
     1
  9
$DIMTVP
 40
0.0
  9
$DIMTIX
 70
     0
  9
$DIMSOXD
 70
     0
  9
$DIMSAH
 70
     0
  9
$DIMBLK1
  1

  9
$DIMBLK2
  1

  9
$DIMSTYLE
  2
ISO-25
  9
$DIMCLRD
 70
     0
  9
$DIMCLRE
 70
     0
  9
$DIMCLRT
 70
     0
  9
$DIMTFAC
 40
1.0
  9
$DIMGAP
 40
1.524
  9
$DIMJUST
 70
     0
  9
$DIMSD1
 70
     0
  9
$DIMSD2
 70
     0
  9
$DIMTOLJ
 70
     0
  9
$DIMTZIN
 70
     1
  9
$DIMALTZ
 70
     0
  9
$DIMALTTZ
 70
     0
  9
$DIMUPT
 70
     0
  9
$DIMDEC
 70
     2
  9
$DIMTDEC
 70
     2
  9
$DIMALTU
 70
     2
  9
$DIMALTTD
 70
     3
  9
$DIMTXSTY
  7
Standard
  9
$DIMAUNIT
 70
     0
  9
$DIMADEC
 70
     2
  9
$DIMALTRND
 40
0.0
  9
$DIMAZIN
 70
     0
  9
$DIMDSEP
 70
    44
  9
$DIMATFIT
 70
     3
  9
$DIMFRAC
 70
     0
  9
$DIMLDRBLK
  1

  9
$DIMLUNIT
 70
     2
  9
$DIMLWD
 70
    -2
  9
$DIMLWE
 70
    -2
  9
$DIMTMOVE
 70
     0
  9
$LUNITS
 70
     2
  9
$LUPREC
 70
     2
  9
$SKETCHINC
 40
1.0
  9
$FILLETRAD
 40
10.0
  9
$AUNITS
 70
     0
  9
$AUPREC
 70
     2
  9
$MENU
  1
.
  9
$ELEVATION
 40
0.0
  9
$PELEVATION
 40
0.0
  9
$THICKNESS
 40
0.0
  9
$LIMCHECK
 70
     0
  9
$CHAMFERA
 40
0.0
  9
$CHAMFERB
 40
0.0
  9
$CHAMFERC
 40
0.0
  9
$CHAMFERD
 40
0.0
  9
$SKPOLY
 70
     0
  9
$TDCREATE
 40
2460383.737605058
  9
$TDUCREATE
 40
2460383.508438391
  9
$TDUPDATE
 40
2460383.737605683
  9
$TDUUPDATE
 40
2460383.508439016
  9
$TDINDWG
 40
0.0000000116
  9
$TDUSRTIMER
 40
0.0000000116
  9
$USRTIMER
 70
     1
  9
$ANGBASE
 50
0.0
  9
$ANGDIR
 70
     0
  9
$PDMODE
 70
     0
  9
$PDSIZE
 40
-1.0
  9
$PLINEWID
 40
0.0
  9
$SPLFRAME
 70
     0
  9
$SPLINETYPE
 70
     6
  9
$SPLINESEGS
 70
     8
  9
$HANDSEED
  5
2C5
  9
$SURFTAB1
 70
     6
  9
$SURFTAB2
 70
     6
  9
$SURFTYPE
 70
     6
  9
$SURFU
 70
     6
  9
$SURFV
 70
     6
  9
$UCSBASE
  2

  9
$UCSNAME
  2

  9
$UCSORG
 10
0.0
 20
0.0
 30
0.0
  9
$UCSXDIR
 10
1.0
 20
0.0
 30
0.0
  9
$UCSYDIR
 10
0.0
 20
1.0
 30
0.0
  9
$UCSORTHOREF
  2

  9
$UCSORTHOVIEW
 70
     0
  9
$UCSORGTOP
 10
0.0
 20
0.0
 30
0.0
  9
$UCSORGBOTTOM
 10
0.0
 20
0.0
 30
0.0
  9
$UCSORGLEFT
 10
0.0
 20
0.0
 30
0.0
  9
$UCSORGRIGHT
 10
0.0
 20
0.0
 30
0.0
  9
$UCSORGFRONT
 10
0.0
 20
0.0
 30
0.0
  9
$UCSORGBACK
 10
0.0
 20
0.0
 30
0.0
  9
$PUCSBASE
  2

  9
$PUCSNAME
  2

  9
$PUCSORG
 10
0.0
 20
0.0
 30
0.0
  9
$PUCSXDIR
 10
1.0
 20
0.0
 30
0.0
  9
$PUCSYDIR
 10
0.0
 20
1.0
 30
0.0
  9
$PUCSORTHOREF
  2

  9
$PUCSORTHOVIEW
 70
     0
  9
$PUCSORGTOP
 10
0.0
 20
0.0
 30
0.0
  9
$PUCSORGBOTTOM
 10
0.0
 20
0.0
 30
0.0
  9
$PUCSORGLEFT
 10
0.0
 20
0.0
 30
0.0
  9
$PUCSORGRIGHT
 10
0.0
 20
0.0
 30
0.0
  9
$PUCSORGFRONT
 10
0.0
 20
0.0
 30
0.0
  9
$PUCSORGBACK
 10
0.0
 20
0.0
 30
0.0
  9
$USERI1
 70
     0
  9
$USERI2
 70
     0
  9
$USERI3
 70
     0
  9
$USERI4
 70
     0
  9
$USERI5
 70
     0
  9
$USERR1
 40
0.0
  9
$USERR2
 40
0.0
  9
$USERR3
 40
0.0
  9
$USERR4
 40
0.0
  9
$USERR5
 40
0.0
  9
$WORLDVIEW
 70
     1
  9
$SHADEDGE
 70
     3
  9
$SHADEDIF
 70
    70
  9
$TILEMODE
 70
     1
  9
$MAXACTVP
 70
    64
  9
$PINSBASE
 10
0.0
 20
0.0
 30
0.0
  9
$PLIMCHECK
 70
     0
  9
$PEXTMIN
 10
1.0000000000E+20
 20
1.0000000000E+20
 30
1.0000000000E+20
  9
$PEXTMAX
 10
-1.0000000000E+20
 20
-1.0000000000E+20
 30
-1.0000000000E+20
  9
$PLIMMIN
 10
0.0
 20
0.0
  9
$PLIMMAX
 10
420.0
 20
297.0
  9
$UNITMODE
 70
     0
  9
$VISRETAIN
 70
     1
  9
$PLINEGEN
 70
     0
  9
$PSLTSCALE
 70
     1
  9
$TREEDEPTH
 70
  3020
  9
$CMLSTYLE
  2
Standard
  9
$CMLJUST
 70
     0
  9
$CMLSCALE
 40
20.0
  9
$PROXYGRAPHICS
 70
     1
  9
$MEASUREMENT
 70
     1
  9
$CELWEIGHT
370
    -1
  9
$ENDCAPS
280
     0
  9
$JOINSTYLE
280
     0
  9
$LWDISPLAY
290
     1
  9
$INSUNITS
 70
     4
  9
$HYPERLINKBASE
  1

  9
$STYLESHEET
  1

  9
$XEDIT
290
     1
  9
$CEPSNTYPE
380
     0
  9
$PSTYLEMODE
290
     1
  9
$FINGERPRINTGUID
  2
{6fc389d9-2e70-4635-b15d-61e54251ca31}
  9
$VERSIONGUID
  2
{FAEB1C32-E019-11D5-929B-00C0DF256EC4}
  9
$EXTNAMES
290
     1
  9
$PSVPSCALE
 40
0.0
  9
$OLESTARTUP
290
     0
  0
ENDSEC
  0
SECTION
  2
CLASSES
  0
CLASS
  1
ACDBDICTIONARYWDFLT
  2
AcDbDictionaryWithDefault
  3
ObjectDBX Classes
 90
        0
280
     0
281
     0
  0
CLASS
  1
VISUALSTYLE
  2
AcDbVisualStyle
  3
ObjectDBX Classes
 90
     4095
280
     0
281
     0
  0
CLASS
  1
MATERIAL
  2
AcDbMaterial
  3
ObjectDBX Classes
 90
     1153
280
     0
281
     0
  0
CLASS
  1
SCALE
  2
AcDbScale
  3
ObjectDBX Classes
 90
     1153
280
     0
281
     0
  0
CLASS
  1
TABLESTYLE
  2
AcDbTableStyle
  3
ObjectDBX Classes
 90
     4095
280
     0
281
     0
  0
CLASS
  1
MLEADERSTYLE
  2
AcDbMLeaderStyle
  3
ACDB_MLEADERSTYLE_CLASS
 90
     4095
280
     0
281
     0
  0
CLASS
  1
SUN
  2
AcDbSun
  3
SCENEOE
 90
     1153
280
     0
281
     0
  0
CLASS
  1
ACDBPLACEHOLDER
  2
AcDbPlaceHolder
  3
ObjectDBX Classes
 90
        0
280
     0
281
     0
  0
CLASS
  1
LAYOUT
  2
AcDbLayout
  3
ObjectDBX Classes
 90
        0
280
     0
281
     0
  0
ENDSEC
  0
SECTION
  2
TABLES
  0
TABLE
  2
VPORT
  5
8
330
0
100
AcDbSymbolTable
 70
     1
  0
VPORT
  5
29
330
8
100
AcDbSymbolTableRecord
100
AcDbViewportTableRecord
  2
*Active
 70
     0
 10
0.0
 20
0.0
 11
1.0
 21
1.0
 12
139.7
 22
107.95
 13
0.0
 23
0.0
 14
10.0
 24
10.0
 15
10.0
 25
10.0
 16
0.0
 26
0.0
 36
1.0
 17
0.0
 27
0.0
 37
0.0
 40
215.9
 41
1.2941176471
 42
50.0
 43
0.0
 44
0.0
 50
0.0
 51
0.0
 71
     0
 72
  2000
 73
     1
 74
     3
 75
     0
 76
     0
 77
     0
 78
     0
281
     0
 65
     1
110
0.0
120
0.0
130
0.0
111
1.0
121
0.0
131
0.0
112
0.0
122
1.0
132
0.0
 79
     0
146
0.0
  0
ENDTAB
  0
TABLE
  2
LTYPE
  5
5
330
0
100
AcDbSymbolTable
 70
     6
  0
LTYPE
  5
14
330
5
100
AcDbSymbolTableRecord
100
AcDbLinetypeTableRecord
  2
ByBlock
 70
     0
  3

 72
    65
 73
     0
 40
0.0
  0
LTYPE
  5
15
330
5
100
AcDbSymbolTableRecord
100
AcDbLinetypeTableRecord
  2
ByLayer
 70
     0
  3

 72
    65
 73
     0
 40
0.0
  0
LTYPE
  5
16
330
5
100
AcDbSymbolTableRecord
100
AcDbLinetypeTableRecord
  2
Continuous
 70
     0
  3
Solid line
 72
    65
 73
     0
 40
0.0
  0
LTYPE
  5
6E
330
5
100
AcDbSymbolTableRecord
100
AcDbLinetypeTableRecord
  2
HIDDEN
 70
     0
  3
Hidden __ __ __ __ __ __ __ __ __ __ __ __ __ __
 72
    65
 73
     2
 40
1.905
 49
1.27
 74
     0
 49
-0.635
 74
     0
  0
LTYPE
  5
6F
330
5
100
AcDbSymbolTableRecord
100
AcDbLinetypeTableRecord
  2
PHANTOM
 70
     0
  3
Phantom ______  __  __  ______  __  __  ______
 72
    65
 73
     6
 40
12.7
 49
6.35
 74
     0
 49
-1.27
 74
     0
 49
1.27
 74
     0
 49
-1.27
 74
     0
 49
1.27
 74
     0
 49
-1.27
 74
     0
  0
LTYPE
  5
70
330
5
100
AcDbSymbolTableRecord
100
AcDbLinetypeTableRecord
  2
CENTER
 70
     0
  3
Center ____ _ ____ _ ____ _ ____ _ ____ _ ____
 72
    65
 73
     4
 40
10.16
 49
6.35
 74
     0
 49
-1.27
 74
     0
 49
1.27
 74
     0
 49
-1.27
 74
     0
  0
LTYPE
  5
71
330
5
100
AcDbSymbolTableRecord
100
AcDbLinetypeTableRecord
  2
CENTERX2
 70
     0
  3
Center (2x) ________  __  ________  __  _____
 72
    65
 73
     4
 40
20.32
 49
12.7
 74
     0
 49
-2.54
 74
     0
 49
2.54
 74
     0
 49
-2.54
 74
     0
  0
LTYPE
  5
72
330
5
100
AcDbSymbolTableRecord
100
AcDbLinetypeTableRecord
  2
DOT2
 70
     0
  3
Dot (.5x) ........................................
 72
    65
 73
     2
 40
0.635
 49
0.0
 74
     0
 49
-0.635
 74
     0
  0
ENDTAB
  0
TABLE
  2
LAYER
  5
2
330
0
100
AcDbSymbolTable
 70
     4
  0
LAYER
  5
10
330
2
100
AcDbSymbolTableRecord
100
AcDbLayerTableRecord
  2
0
 70
     0
 62
     7
  6
Continuous
370
    -3
390
F
  0
LAYER
  5
73
330
2
100
AcDbSymbolTableRecord
100
AcDbLayerTableRecord
  2
FORMAT
 70
     0
 62
     7
  6
Continuous
370
    -3
390
F
  0
LAYER
  5
74
330
2
100
AcDbSymbolTableRecord
100
AcDbLayerTableRecord
  2
OUT_LINE
 70
     0
 62
     7
  6
Continuous
370
    50
390
F
  0
LAYER
  5
75
330
2
100
AcDbSymbolTableRecord
100
AcDbLayerTableRecord
  2
WATERMARK
 70
     0
 62
   254
  6
Continuous
370
    -3
390
F
  0
ENDTAB
  0
TABLE
  2
STYLE
  5
3
330
0
100
AcDbSymbolTable
 70
     1
  0
STYLE
  5
11
330
3
100
AcDbSymbolTableRecord
100
AcDbTextStyleTableRecord
  2
Standard
 70
     0
 40
0.0
 41
1.0
 50
0.0
 71
     0
 42
3.5
  3
txt
  4

  0
ENDTAB
  0
TABLE
  2
VIEW
  5
6
330
0
100
AcDbSymbolTable
 70
     0
  0
ENDTAB
  0
TABLE
  2
UCS
  5
7
330
0
100
AcDbSymbolTable
 70
     0
  0
ENDTAB
  0
TABLE
  2
APPID
  5
9
330
0
100
AcDbSymbolTable
 70
     1
  0
APPID
  5
12
330
9
100
AcDbSymbolTableRecord
100
AcDbRegAppTableRecord
  2
ACAD
 70
     0
  0
ENDTAB
  0
TABLE
  2
DIMSTYLE
  5
A
330
0
100
AcDbSymbolTable
 70
     1
100
AcDbDimStyleTable
  0
DIMSTYLE
105
27
330
A
100
AcDbSymbolTableRecord
100
AcDbDimStyleTableRecord
  2
ISO-25
 70
     0
 41
2.5
 42
0.625
 43
3.75
 44
1.25
 73
     0
 74
     0
 77
     1
 78
     8
140
2.5
141
2.5
143
0.0393700787
147
0.625
171
     3
172
     1
178
     0
271
     2
272
     2
274
     3
278
    44
283
     0
284
     8
340
11
  0
ENDTAB
  0
TABLE
  2
BLOCK_RECORD
  5
1
330
0
100
AcDbSymbolTable
 70
     7
  0
BLOCK_RECORD
  5
1F
330
1
100
AcDbSymbolTableRecord
100
AcDbBlockTableRecord
  2
*Model_Space
340
22
  0
BLOCK_RECORD
  5
1B
330
1
100
AcDbSymbolTableRecord
100
AcDbBlockTableRecord
  2
*Paper_Space
340
1E
  0
BLOCK_RECORD
  5
23
330
1
100
AcDbSymbolTableRecord
100
AcDbBlockTableRecord
  2
*Paper_Space0
340
26
  0
BLOCK_RECORD
  5
76
330
1
100
AcDbSymbolTableRecord
100
AcDbBlockTableRecord
  2
Block6
340
0
  0
BLOCK_RECORD
  5
7B
330
1
100
AcDbSymbolTableRecord
100
AcDbBlockTableRecord
  2
Block4
340
0
  0
BLOCK_RECORD
  5
7F
330
1
100
AcDbSymbolTableRecord
100
AcDbBlockTableRecord
  2
Block5
340
0
  0
BLOCK_RECORD
  5
8D
330
1
100
AcDbSymbolTableRecord
100
AcDbBlockTableRecord
  2
Block2
340
0
  0
BLOCK_RECORD
  5
98
330
1
100
AcDbSymbolTableRecord
100
AcDbBlockTableRecord
  2
Block3
340
0
  0
BLOCK_RECORD
  5
A5
330
1
100
AcDbSymbolTableRecord
100
AcDbBlockTableRecord
  2
Block7
340
0
  0
ENDTAB
  0
ENDSEC
  0
SECTION
  2
BLOCKS
  0
BLOCK
  5
20
330
1F
100
AcDbEntity
  8
0
100
AcDbBlockBegin
  2
*Model_Space
 70
     0
 10
0.0
 20
0.0
 30
0.0
  3
*Model_Space
  1

  0
ENDBLK
  5
21
330
1F
100
AcDbEntity
  8
0
100
AcDbBlockEnd
  0
BLOCK
  5
1C
330
1B
100
AcDbEntity
 67
     1
  8
0
100
AcDbBlockBegin
  2
*Paper_Space
 70
     0
 10
0.0
 20
0.0
 30
0.0
  3
*Paper_Space
  1

  0
ENDBLK
  5
1D
330
1B
100
AcDbEntity
 67
     1
  8
0
100
AcDbBlockEnd
  0
BLOCK
  5
24
330
23
100
AcDbEntity
  8
0
100
AcDbBlockBegin
  2
*Paper_Space0
 70
     0
 10
0.0
 20
0.0
 30
0.0
  3
*Paper_Space0
  1

  0
ENDBLK
  5
25
330
23
100
AcDbEntity
  8
0
100
AcDbBlockEnd
  0
BLOCK
  5
77
330
76
100
AcDbEntity
  8
0
100
AcDbBlockBegin
  2
Block6
 70
     0
 10
0.0
 20
0.0
 30
0.0
  3
Block6
  1

  0
LINE
  5
79
330
76
100
AcDbEntity
  8
FORMAT
100
AcDbLine
 10
253.5616893058
 20
55.3714964458
 30
0.0
 11
250.6928867464
 21
53.8486167051
 31
0.0
  0
LINE
  5
7A
330
76
100
AcDbEntity
  8
FORMAT
100
AcDbLine
 10
250.6928867464
 20
53.8486167051
 30
0.0
 11
253.5616893058
 21
53.8486167051
 31
0.0
  0
ENDBLK
  5
78
330
76
100
AcDbEntity
  8
0
100
AcDbBlockEnd
  0
BLOCK
  5
7C
330
7B
100
AcDbEntity
  8
0
100
AcDbBlockBegin
  2
Block4
 70
     0
 10
0.0
 20
0.0
 30
0.0
  3
Block4
  1

  0
LINE
  5
7E
330
7B
100
AcDbEntity
  8
FORMAT
100
AcDbLine
 10
250.0093082872
 20
64.7263291389
 30
0.0
 11
290.0093082872
 21
64.7263291389
 31
0.0
  0
ENDBLK
  5
7D
330
7B
100
AcDbEntity
  8
0
100
AcDbBlockEnd
  0
BLOCK
  5
80
330
7F
100
AcDbEntity
  8
0
100
AcDbBlockBegin
  2
Block5
 70
     0
 10
0.0
 20
0.0
 30
0.0
  3
Block5
  1

  0
LINE
  5
82
330
7F
100
AcDbEntity
  8
FORMAT
100
AcDbLine
 10
251.0883122991
 20
64.4632252413
 30
0.0
 11
250.3611798328
 21
64.9733337839
 31
0.0
  0
LINE
  5
83
330
7F
100
AcDbEntity
  8
FORMAT
100
AcDbLine
 10
250.3611798328
 20
64.9733337839
 30
0.0
 11
251.0883122991
 21
65.4834423266
 31
0.0
  0
LINE
  5
84
330
7F
100
AcDbEntity
  8
FORMAT
100
AcDbLine
 10
250.3611798328
 20
65.6106440044
 30
0.0
 11
250.3611798328
 21
64.3360235634
 31
0.0
  0
LINE
  5
85
330
7F
100
AcDbEntity
  8
FORMAT
100
AcDbLine
 10
251.0883122991
 20
65.4834423266
 30
0.0
 11
251.0883122991
 21
64.4632252413
 31
0.0
  0
LINE
  5
86
330
7F
100
AcDbEntity
  8
FORMAT
  6
Continuous
 62
     7
370
    18
100
AcDbLine
 10
254.0738326611
 20
65.4834423266
 30
0.0
 11
254.0738326611
 21
64.4632252413
 31
0.0
  0
LINE
  5
87
330
7F
100
AcDbEntity
  8
FORMAT
100
AcDbLine
 10
251.0883122991
 20
64.9733337839
 30
0.0
 11
254.0738326611
 21
64.9733337839
 31
0.0
  0
LINE
  5
88
330
7F
100
AcDbEntity
  8
FORMAT
100
AcDbLine
 10
254.0738326611
 20
64.9733337839
 30
0.0
 11
254.0738326611
 21
64.4632252413
 31
0.0
  0
LINE
  5
89
330
7F
100
AcDbEntity
  8
FORMAT
  6
Continuous
 62
     7
370
    18
100
AcDbLine
 10
254.0738326611
 20
64.4632252413
 30
0.0
 11
254.8009651274
 21
64.9733337839
 31
0.0
  0
LINE
  5
8A
330
7F
100
AcDbEntity
  8
FORMAT
  6
Continuous
 62
     7
370
    18
100
AcDbLine
 10
254.8009651274
 20
64.9733337839
 30
0.0
 11
254.0738326611
 21
65.4834423266
 31
0.0
  0
LINE
  5
8B
330
7F
100
AcDbEntity
  8
FORMAT
100
AcDbLine
 10
254.0738326611
 20
65.4834423266
 30
0.0
 11
254.0738326611
 21
64.9733337839
 31
0.0
  0
LINE
  5
8C
330
7F
100
AcDbEntity
  8
FORMAT
100
AcDbLine
 10
254.8009651274
 20
65.6106440044
 30
0.0
 11
254.8009651274
 21
64.3360235634
 31
0.0
  0
ENDBLK
  5
81
330
7F
100
AcDbEntity
  8
0
100
AcDbBlockEnd
  0
BLOCK
  5
8E
330
8D
100
AcDbEntity
  8
0
100
AcDbBlockBegin
  2
Block2
 70
     0
 10
0.0
 20
0.0
 30
0.0
  3
Block2
  1

  0
CIRCLE
  5
90
330
8D
100
AcDbEntity
  8
FORMAT
100
AcDbCircle
 10
48.741006851
 20
68.2700462855
 30
0.0
 40
7.000000000000013
  0
CIRCLE
  5
91
330
8D
100
AcDbEntity
  8
FORMAT
100
AcDbCircle
 10
48.741006851
 20
68.2700462855
 30
0.0
 40
3.32888862482043
  0
LINE
  5
92
330
8D
100
AcDbEntity
  8
FORMAT
100
AcDbLine
 10
60.4734604481
 20
71.6747664277
 30
0.0
 11
76.4734604481
 21
75.1747664277
 31
0.0
  0
LINE
  5
93
330
8D
100
AcDbEntity
  8
FORMAT
100
AcDbLine
 10
76.4734604481
 20
75.1747664277
 30
0.0
 11
76.4734604481
 21
61.3653261433
 31
0.0
  0
LINE
  5
94
330
8D
100
AcDbEntity
  8
FORMAT
100
AcDbLine
 10
76.4734604481
 20
61.3653261433
 30
0.0
 11
60.4734604481
 21
64.8653261433
 31
0.0
  0
LINE
  5
95
330
8D
100
AcDbEntity
  8
FORMAT
100
AcDbLine
 10
60.4734604481
 20
64.8653261433
 30
0.0
 11
60.4734604481
 21
71.6747664277
 31
0.0
  0
LINE
  5
96
330
8D
100
AcDbEntity
  8
FORMAT
  6
CENTERX2
100
AcDbLine
 10
76.4734604481
 20
68.2700462855
 30
0.0
 11
39.8388877958
 21
68.2700462855
 31
0.0
  0
LINE
  5
97
330
8D
100
AcDbEntity
  8
FORMAT
100
AcDbLine
 10
48.741006851
 20
76.8424572275
 30
0.0
 11
48.741006851
 21
59.6976353435
 31
0.0
  0
ENDBLK
  5
8F
330
8D
100
AcDbEntity
  8
0
100
AcDbBlockEnd
  0
BLOCK
  5
99
330
98
100
AcDbEntity
  8
0
100
AcDbBlockBegin
  2
Block3
 70
     0
 10
0.0
 20
0.0
 30
0.0
  3
Block3
  1

  0
ARC
  5
9B
330
98
100
AcDbEntity
  8
FORMAT
100
AcDbCircle
 10
253.5616893058
 20
61.9516976285
 30
0.0
 40
0.5251511718353873
100
AcDbArc
 50
349.3356822367
 51
90.0
  0
LINE
  5
9C
330
98
100
AcDbEntity
  8
FORMAT
100
AcDbLine
 10
250.6928867464
 20
62.4768488003
 30
0.0
 11
250.6928867464
 21
61.2321831396
 31
0.0
  0
LINE
  5
9D
330
98
100
AcDbEntity
  8
FORMAT
100
AcDbLine
 10
250.6928867464
 20
61.2321831396
 30
0.0
 11
251.7250485138
 21
61.2321831396
 31
0.0
  0
LINE
  5
9E
330
98
100
AcDbEntity
  8
FORMAT
100
AcDbLine
 10
251.7250485138
 20
61.2321831396
 30
0.0
 11
251.7250485138
 21
61.85451597
 31
0.0
  0
LINE
  5
9F
330
98
100
AcDbEntity
  8
FORMAT
100
AcDbLine
 10
251.7250485138
 20
61.85451597
 30
0.0
 11
251.2089676301
 21
62.4768488003
 31
0.0
  0
LINE
  5
A0
330
98
100
AcDbEntity
  8
FORMAT
100
AcDbLine
 10
251.2089676301
 20
62.4768488003
 30
0.0
 11
250.6928867464
 21
62.4768488003
 31
0.0
  0
LINE
  5
A1
330
98
100
AcDbEntity
  8
0
  6
Continuous
 62
     7
370
    18
100
AcDbLine
 10
253.0456084221
 20
61.2321831396
 30
0.0
 11
254.0777701895
 21
61.2321831396
 31
0.0
  0
LINE
  5
A2
330
98
100
AcDbEntity
  8
0
  6
Continuous
 62
     7
370
    18
100
AcDbLine
 10
254.0777701895
 20
61.2321831396
 30
0.0
 11
254.0777701895
 21
61.85451597
 31
0.0
  0
LINE
  5
A3
330
98
100
AcDbEntity
  8
0
  6
Continuous
 62
     7
370
    18
100
AcDbLine
 10
253.0456084221
 20
62.4768488003
 30
0.0
 11
253.0456084221
 21
61.2321831396
 31
0.0
  0
LINE
  5
A4
330
98
100
AcDbEntity
  8
0
  6
Continuous
 62
     7
370
    18
100
AcDbLine
 10
253.5616893058
 20
62.4768488003
 30
0.0
 11
253.0456084221
 21
62.4768488003
 31
0.0
  0
ENDBLK
  5
9A
330
98
100
AcDbEntity
  8
0
100
AcDbBlockEnd
  0
BLOCK
  5
A6
330
A5
100
AcDbEntity
  8
0
100
AcDbBlockBegin
  2
Block7
 70
     0
 10
0.0
 20
0.0
 30
0.0
  3
Block7
  1

  0
LINE
  5
A8
330
A5
100
AcDbEntity
  8
FORMAT
100
AcDbLine
 10
221.8284763776
 20
80.2705155621
 30
0.0
 11
222.3963943455
 21
79.286852787
 31
0.0
  0
LINE
  5
A9
330
A5
100
AcDbEntity
  8
FORMAT
100
AcDbLine
 10
222.3963943455
 20
79.286852787
 30
0.0
 11
222.9643123135
 21
80.2705155621
 31
0.0
  0
LINE
  5
AA
330
A5
100
AcDbEntity
  8
FORMAT
100
AcDbLine
 10
221.8284763776
 20
80.2705155621
 30
0.0
 11
222.9643123135
 21
80.2705155621
 31
0.0
  0
LINE
  5
AB
330
A5
100
AcDbEntity
  8
FORMAT
100
AcDbLine
 10
222.9643123135
 20
80.2705155621
 30
0.0
 11
223.3725273771
 21
80.9775647926
 31
0.0
  0
LINE
  5
AC
330
A5
100
AcDbEntity
  8
FORMAT
100
AcDbLine
 10
223.3725273771
 20
80.9775647926
 30
0.0
 11
224.1023154201
 21
80.9775647926
 31
0.0
  0
ENDBLK
  5
A7
330
A5
100
AcDbEntity
  8
0
100
AcDbBlockEnd
  0
ENDSEC
  0
SECTION
  2
ENTITIES
  0
LINE
  5
AD
330
1F
100
AcDbEntity
  8
0
  6
Continuous
 62
     7
370
    25
100
AcDbLine
 10
125.8409551323
 20
23.3694929966
 30
0.0
 11
126.1284551364
 21
23.3694929966
 31
0.0
  0
LINE
  5
AE
330
1F
100
AcDbEntity
  8
0
  6
Continuous
 62
     7
370
    25
100
AcDbLine
 10
124.4284551364
 20
23.3694929966
 30
0.0
 11
124.5284551364
 21
23.3694929966
 31
0.0
  0
LINE
  5
AF
330
1F
100
AcDbEntity
  8
0
  6
Continuous
 62
     7
370
    25
100
AcDbLine
 10
126.1284551364
 20
52.3694929966
 30
0.0
 11
125.0909551323
 21
52.3694929966
 31
0.0
  0
SPLINE
  5
B0
330
1F
100
AcDbEntity
  8
0
  6
Continuous
 62
     7
370
    25
100
AcDbSpline
210
0.0
220
0.0
230
1.0
 70
     8
 71
     3
 72
     9
 73
     5
 74
     0
 42
0.00000001
 43
0.00000001
 40
0.0
 40
0.0
 40
0.0
 40
0.0
 40
0.5036319833776003
 40
0.9999999999999999
 40
0.9999999999999999
 40
0.9999999999999999
 40
0.9999999999999999
 10
210.8721701898643
 20
52.36396489079541
 30
0.0
 10
210.7939835717743
 20
52.22859290208353
 30
0.0
 10
210.6387380340194
 20
51.95980141707098
 30
0.0
 10
210.4834884571252
 20
51.69101241814873
 30
0.0
 10
210.4064275325608
 20
51.55759415586377
 30
0.0
  0
SPLINE
  5
B1
330
1F
100
AcDbEntity
  8
0
  6
Continuous
 62
     7
370
    25
100
AcDbSpline
210
0.0
220
0.0
230
1.0
 70
     8
 71
     3
 72
     9
 73
     5
 74
     0
 42
0.00000001
 43
0.00000001
 40
0.0
 40
0.0
 40
0.0
 40
0.0
 40
0.4999957547772924
 40
1.0
 40
1.0
 40
1.0
 40
1.0
 10
211.1530483469163
 20
24.18724237325385
 30
0.0
 10
211.2312356740042
 20
24.05187393682678
 30
0.0
 10
211.3876116558818
 20
23.78113476527648
 30
0.0
 10
211.5439835693144
 20
23.51039308959827
 30
0.0
 10
211.6221701898643
 20
23.37502110240046
 30
0.0
  0
SPLINE
  5
B2
330
1F
100
AcDbEntity
  8
0
  6
Continuous
 62
     7
370
    25
100
AcDbSpline
210
0.0
220
0.0
230
1.0
 70
     8
 71
     3
 72
     9
 73
     5
 74
     0
 42
0.00000001
 43
0.00000001
 40
0.0
 40
0.0
 40
0.0
 40
0.0
 40
0.5000043425884739
 40
1.0
 40
1.0
 40
1.0
 40
1.0
 10
125.0847634347332
 20
52.36412684267187
 30
0.0
 10
125.0065761223539
 20
52.22875370994237
 30
0.0
 10
124.8502028557247
 20
51.95800979594217
 30
0.0
 10
124.6938254272061
 20
51.68726796230011
 30
0.0
 10
124.6156373920296
 20
51.55189822119945
 30
0.0
  0
SPLINE
  5
B3
330
1F
100
AcDbEntity
  8
0
  6
Continuous
 62
     7
370
    25
100
AcDbSpline
210
0.0
220
0.0
230
1.0
 70
     8
 71
     3
 72
     9
 73
     5
 74
     0
 42
0.00000001
 43
0.00000001
 40
0.0
 40
0.0
 40
0.0
 40
0.0
 40
0.4964644755053939
 40
0.9999999999999999
 40
0.9999999999999999
 40
0.9999999999999999
 40
0.9999999999999999
 10
125.3689272971299
 20
24.18139180909791
 30
0.0
 10
125.4460186899936
 20
24.04792071865808
 30
0.0
 10
125.60129947375
 20
23.7790775344525
 30
0.0
 10
125.7565761248033
 20
23.51023228447787
 30
0.0
 10
125.8347634347333
 20
23.374859150524
 30
0.0
  0
SPLINE
  5
B4
330
1F
100
AcDbEntity
  8
0
  6
Continuous
 62
     7
370
    25
100
AcDbSpline
210
0.0
220
0.0
230
1.0
 70
     8
 71
     3
 72
     9
 73
     5
 74
     0
 42
0.00000001
 43
0.00000001
 40
0.0
 40
0.0
 40
0.0
 40
0.0
 40
0.4999956574115319
 40
1.0
 40
1.0
 40
1.0
 40
1.0
 10
211.5412728807493
 20
51.55189822119945
 30
0.0
 10
211.4630848455728
 20
51.68726796230012
 30
0.0
 10
211.3067074170542
 20
51.95800979594217
 30
0.0
 10
211.150334150425
 20
52.22875370994237
 30
0.0
 10
211.0721468380457
 20
52.36412684267187
 30
0.0
  0
SPLINE
  5
B5
330
1F
100
AcDbEntity
  8
0
  6
Continuous
 62
     7
370
    25
100
AcDbSpline
210
0.0
220
0.0
230
1.0
 70
     8
 71
     3
 72
     9
 73
     5
 74
     0
 42
0.00000001
 43
0.00000001
 40
0.0
 40
0.0
 40
0.0
 40
0.0
 40
0.4999956574115262
 40
1.0
 40
1.0
 40
1.0
 40
1.0
 10
210.0412728807493
 20
51.55189822119945
 30
0.0
 10
209.9630848455728
 20
51.68726796230011
 30
0.0
 10
209.8067074170542
 20
51.95800979594217
 30
0.0
 10
209.650334150425
 20
52.22875370994237
 30
0.0
 10
209.5721468380457
 20
52.36412684267187
 30
0.0
  0
SPLINE
  5
B6
330
1F
100
AcDbEntity
  8
0
  6
Continuous
 62
     7
370
    25
100
AcDbSpline
210
0.0
220
0.0
230
1.0
 70
     8
 71
     3
 72
     9
 73
     5
 74
     0
 42
0.00000001
 43
0.00000001
 40
0.0
 40
0.0
 40
0.0
 40
0.0
 40
0.5035355068673505
 40
0.9999999999999999
 40
0.9999999999999999
 40
0.9999999999999999
 40
0.9999999999999999
 10
210.3221468380456
 20
23.374859150524
 30
0.0
 10
210.4003341479756
 20
23.51023228447787
 30
0.0
 10
210.5556108044647
 20
23.77907754386396
 30
0.0
 10
210.710891593657
 20
24.0479207374809
 30
0.0
 10
210.7879829919567
 20
24.1813918373321
 30
0.0
  0
SPLINE
  5
B7
330
1F
100
AcDbEntity
  8
0
  6
Continuous
 62
     7
370
    25
100
AcDbSpline
210
0.0
220
0.0
230
1.0
 70
     8
 71
     3
 72
     9
 73
     5
 74
     0
 42
0.00000001
 43
0.00000001
 40
0.0
 40
0.0
 40
0.0
 40
0.0
 40
0.5035355244946061
 40
0.9999999999999999
 40
0.9999999999999999
 40
0.9999999999999999
 40
0.9999999999999999
 10
208.8221468380456
 20
23.374859150524
 30
0.0
 10
208.9003341479755
 20
23.51023228447787
 30
0.0
 10
209.0556107990289
 20
23.77907753445251
 30
0.0
 10
209.2108915827853
 20
24.04792071865809
 30
0.0
 10
209.287982975649
 20
24.18139180909791
 30
0.0
  0
LINE
  5
B8
330
1F
100
AcDbEntity
  8
0
  6
Continuous
 62
     7
370
    25
100
AcDbLine
 10
209.5659551405
 20
52.3694929966
 30
0.0
 11
208.5284551364
 21
52.3694929966
 31
0.0
  0
LINE
  5
B9
330
1F
100
AcDbEntity
  8
0
  6
Continuous
 62
     7
370
    25
100
AcDbLine
 10
211.0659551405
 20
52.3694929966
 30
0.0
 11
210.8784551364
 21
52.3694929966
 31
0.0
  0
LINE
  5
BA
330
1F
100
AcDbEntity
  8
0
  6
Continuous
 62
     7
370
    25
100
AcDbLine
 10
210.1284551364
 20
23.3694929966
 30
0.0
 11
210.3159551405
 21
23.3694929966
 31
0.0
  0
LINE
  5
BB
330
1F
100
AcDbEntity
  8
0
  6
Continuous
 62
     7
370
    25
100
AcDbLine
 10
208.5284551364
 20
23.3694929966
 30
0.0
 11
208.8159551405
 21
23.3694929966
 31
0.0
  0
LINE
  5
BC
330
1F
100
AcDbEntity
  8
0
  6
Continuous
 62
     7
370
    25
100
AcDbLine
 10
210.4096906011
 20
51.5575941559
 30
0.0
 11
210.037982992
 21
51.5575941559
 31
0.0
  0
LINE
  5
BD
330
1F
100
AcDbEntity
  8
0
  6
Continuous
 62
     7
370
    25
100
AcDbLine
 10
210.7846906011
 20
24.1813918373
 30
0.0
 11
211.1564275326
 21
24.1813918373
 31
0.0
  0
LINE
  5
BE
330
1F
100
AcDbEntity
  8
0
  6
Continuous
 62
     7
370
    25
100
AcDbLine
 10
124.6189272808
 20
51.5575941559
 30
0.0
 11
124.2472196716
 21
51.5575941559
 31
0.0
  0
LINE
  5
BF
330
1F
100
AcDbEntity
  8
0
  6
Continuous
 62
     7
370
    25
100
AcDbLine
 10
257.6284551364
 20
30.7194929966
 30
0.0
 11
259.2334601259
 21
31.9443652254
 31
0.0
  0
LINE
  5
C0
330
1F
100
AcDbEntity
  8
0
  6
Continuous
 62
     7
370
    25
100
AcDbLine
 10
259.2334601259
 20
43.7946207678
 30
0.0
 11
257.6284551364
 21
45.0194929966
 31
0.0
  0
ARC
  5
C1
330
1F
100
AcDbEntity
  8
0
  6
Continuous
 62
     7
370
    25
100
AcDbCircle
 10
258.7784551364
 20
32.54057866
 30
0.0
 40
0.75
100
AcDbArc
 50
307.3493490446
 51
0.0
  0
ARC
  5
C2
330
1F
100
AcDbEntity
  8
0
  6
Continuous
 62
     7
370
    25
100
AcDbCircle
 10
258.7784551364
 20
43.1984073332
 30
0.0
 40
0.7500000000000014
100
AcDbArc
 50
0.0
 51
52.6506509554
  0
ARC
  5
C3
330
1F
100
AcDbEntity
  8
0
  6
Continuous
 62
     7
370
    25
100
AcDbCircle
 10
259.5284551364
 20
33.8694929966
 30
0.0
 40
0.5000000000000381
100
AcDbArc
 50
270.0
 51
336.742337232
  0
ARC
  5
C4
330
1F
100
AcDbEntity
  8
0
  6
Continuous
 62
     7
370
    25
100
AcDbCircle
 10
259.5284551364
 20
41.8694929966
 30
0.0
 40
0.500000000000041
100
AcDbArc
 50
23.257662768
 51
90.0
  0
LINE
  5
C5
330
1F
100
AcDbEntity
  8
0
  6
Continuous
 62
     7
370
    25
100
AcDbLine
 10
257.6284551364
 20
34.446124626
 30
0.0
 11
258.7105234522
 21
33.4941022229
 31
0.0
  0
ARC
  5
C6
330
1F
100
AcDbEntity
  8
0
  6
Continuous
 62
     7
370
    25
100
AcDbCircle
 10
250.2216350565
 20
37.8694929966
 30
0.0
 40
10.63000000000003
100
AcDbArc
 50
6.602759732
 51
23.257662768
  0
ARC
  5
C7
330
1F
100
AcDbEntity
  8
0
  6
Continuous
 62
     7
370
    25
100
AcDbCircle
 10
250.2216350565
 20
37.8694929966
 30
0.0
 40
10.63000000000003
100
AcDbArc
 50
336.742337232
 51
353.3596102406
  0
LINE
  5
C8
330
1F
100
AcDbEntity
  8
0
  6
Continuous
 62
     7
370
    25
100
AcDbLine
 10
260.5203861043
 20
38.9961909003
 30
0.0
 11
260.7847307992
 21
38.9961909003
 31
0.0
  0
LINE
  5
C9
330
1F
100
AcDbEntity
  8
0
  6
Continuous
 62
     7
370
    25
100
AcDbLine
 10
260.7847307992
 20
36.7427950929
 30
0.0
 11
260.6848989976
 21
36.7427950929
 31
0.0
  0
ARC
  5
CA
330
1F
100
AcDbEntity
  8
0
  6
Continuous
 62
     7
370
    25
100
AcDbCircle
 10
75.1284551364
 20
41.8694929966
 30
0.0
 40
0.5000000000000071
100
AcDbArc
 50
90.0
 51
156.742337232
  0
ARC
  5
CB
330
1F
100
AcDbEntity
  8
0
  6
Continuous
 62
     7
370
    25
100
AcDbCircle
 10
75.1284551364
 20
33.8694929966
 30
0.0
 40
0.5000000000000018
100
AcDbArc
 50
203.257662768
 51
270.0
  0
ARC
  5
CC
330
1F
100
AcDbEntity
  8
0
  6
Continuous
 62
     7
370
    25
100
AcDbCircle
 10
84.4352752163
 20
37.8694929966
 30
0.0
 40
10.63000000000001
100
AcDbArc
 50
186.6170497178
 51
203.257662768
  0
ARC
  5
CD
330
1F
100
AcDbEntity
  8
0
  6
Continuous
 62
     7
370
    25
100
AcDbCircle
 10
84.4352752163
 20
37.8694929966
 30
0.0
 40
10.63
100
AcDbArc
 50
156.742337232
 51
173.3560573839
  0
LINE
  5
CE
330
1F
100
AcDbEntity
  8
0
  6
Continuous
 62
     7
370
    25
100
AcDbLine
 10
73.8716529917
 20
38.9961909003
 30
0.0
 11
74.1365241685
 21
38.9961909003
 31
0.0
  0
LINE
  5
CF
330
1F
100
AcDbEntity
  8
0
  6
Continuous
 62
     7
370
    25
100
AcDbLine
 10
73.9720112752
 20
36.7427950929
 30
0.0
 11
73.8716529917
 21
36.7427950929
 31
0.0
  0
LINE
  5
D0
330
1F
100
AcDbEntity
  8
0
  6
Continuous
 62
     7
370
    25
100
AcDbLine
 10
77.0284551364
 20
45.0194929966
 30
0.0
 11
75.4234501469
 21
43.7946207678
 31
0.0
  0
LINE
  5
D1
330
1F
100
AcDbEntity
  8
0
  6
Continuous
 62
     7
370
    25
100
AcDbLine
 10
75.4234501469
 20
31.9443652254
 30
0.0
 11
77.0284551364
 21
30.7194929966
 31
0.0
  0
ARC
  5
D2
330
1F
100
AcDbEntity
  8
0
  6
Continuous
 62
     7
370
    25
100
AcDbCircle
 10
75.8784551364
 20
43.1984073332
 30
0.0
 40
0.7500000000000014
100
AcDbArc
 50
127.3493490446
 51
180.0
  0
ARC
  5
D3
330
1F
100
AcDbEntity
  8
0
  6
Continuous
 62
     7
370
    25
100
AcDbCircle
 10
75.8784551364
 20
32.54057866
 30
0.0
 40
0.75
100
AcDbArc
 50
180.0
 51
232.6506509554
  0
LINE
  5
D4
330
1F
100
AcDbEntity
  8
0
  6
Continuous
 62
     7
370
    25
100
AcDbLine
 10
81.8904111792
 20
46.8451510408
 30
0.0
 11
77.5197289332
 21
46.7688604984
 31
0.0
  0
LINE
  5
D5
330
1F
100
AcDbEntity
  8
0
  6
Continuous
 62
     7
370
    25
100
AcDbLine
 10
77.5197289332
 20
28.9701254948
 30
0.0
 11
82.8238313931
 21
28.8775420419
 31
0.0
  0
ARC
  5
D6
330
1F
100
AcDbEntity
  8
0
  6
Continuous
 62
     7
370
    25
100
AcDbCircle
 10
77.5284551364
 20
46.2689366509
 30
0.0
 40
0.5
100
AcDbArc
 50
91.0
 51
180.0
  0
ARC
  5
D7
330
1F
100
AcDbEntity
  8
0
  6
Continuous
 62
     7
370
    25
100
AcDbCircle
 10
77.5284551364
 20
29.4700493423
 30
0.0
 40
0.5
100
AcDbArc
 50
180.0
 51
269.0
  0
SPLINE
  5
D8
330
1F
100
AcDbEntity
  8
0
  6
Continuous
 62
     7
370
    25
100
AcDbSpline
210
0.0
220
0.0
230
1.0
 70
     8
 71
     3
 72
    12
 73
     8
 74
     0
 42
0.00000001
 43
0.00000001
 40
0.0
 40
0.0
 40
0.0
 40
0.0
 40
0.0611978019217561
 40
0.3922484636442549
 40
0.6618750363207838
 40
0.8862562686985637
 40
0.9999999999999999
 40
0.9999999999999999
 40
0.9999999999999999
 40
0.9999999999999999
 10
84.09393182591435
 20
28.51767408171431
 30
0.0
 10
84.14669298023722
 20
28.48650708367673
 30
0.0
 10
84.48486659225189
 20
28.28674162294539
 30
0.0
 10
84.93816496325825
 20
27.98464959827851
 30
0.0
 10
85.37507616891358
 20
27.66454692535514
 30
0.0
 10
85.56911523074375
 20
27.47559259160604
 30
0.0
 10
85.56574324091707
 20
27.47942735457316
 30
0.0
 10
85.56460891856297
 20
27.48071735174993
 30
0.0
  0
ARC
  5
D9
330
1F
100
AcDbEntity
  8
0
  6
Continuous
 62
     7
370
    25
100
AcDbCircle
 10
82.7784551364
 20
26.2779380345
 30
0.0
 40
2.599999999999998
100
AcDbArc
 50
59.4420525213
 51
89.0
  0
SPLINE
  5
DA
330
1F
100
AcDbEntity
  8
0
  6
Continuous
 62
     7
370
    25
100
AcDbSpline
210
0.0
220
0.0
230
1.0
 70
     8
 71
     3
 72
    12
 73
     8
 74
     0
 42
0.00000001
 43
0.00000001
 40
0.0
 40
0.0
 40
0.0
 40
0.0
 40
0.1393800936241119
 40
0.3174453493097694
 40
0.533846542225235
 40
0.7925376441911923
 40
1.0
 40
1.0
 40
1.0
 40
1.0
 10
85.6127684400509
 20
48.61721814000337
 30
0.0
 10
85.60180200260699
 20
48.60488154778769
 30
0.0
 10
85.57682537592696
 20
48.57678432297336
 30
0.0
 10
85.33779836287573
 20
48.37288368113634
 30
0.0
 10
84.89447477485929
 20
48.06715657889743
 30
0.0
 10
84.27713723844396
 20
47.69142659236423
 30
0.0
 10
83.75653159972865
 20
47.40778332658724
 30
0.0
 10
83.52483521208238
 20
47.2815474290605
 30
0.0
  0
ARC
  5
DB
330
1F
100
AcDbEntity
  8
0
  6
Continuous
 62
     7
370
    25
100
AcDbCircle
 10
81.8284551364
 20
50.3946103586
 30
0.0
 40
3.550000000000008
100
AcDbArc
 50
271.0
 51
298.1920130769
  0
ARC
  5
DC
330
1F
100
AcDbEntity
  8
0
  6
Continuous
 62
     7
370
    25
100
AcDbCircle
 10
91.3784551364
 20
49.3413826113
 30
0.0
 40
0.5
100
AcDbArc
 50
0.0
 51
91.0
  0
ARC
  5
DD
330
1F
100
AcDbEntity
  8
0
  6
Continuous
 62
     7
370
    25
100
AcDbCircle
 10
91.3784551364
 20
26.3976033819
 30
0.0
 40
0.5
100
AcDbArc
 50
269.0
 51
0.0
  0
LINE
  5
DE
330
1F
100
AcDbEntity
  8
0
  6
Continuous
 62
     7
370
    25
100
AcDbLine
 10
91.3697289332
 20
49.8413064589
 30
0.0
 11
87.3435503235
 21
49.7710292499
 31
0.0
  0
LINE
  5
DF
330
1F
100
AcDbEntity
  8
0
  6
Continuous
 62
     7
370
    25
100
AcDbLine
 10
87.3435503235
 20
25.9679567433
 30
0.0
 11
91.3697289332
 21
25.8976795343
 31
0.0
  0
ARC
  5
E0
330
1F
100
AcDbEntity
  8
0
  6
Continuous
 62
     7
370
    25
100
AcDbCircle
 10
87.3784551364
 20
27.9676521336
 30
0.0
 40
2.000000000000005
100
AcDbArc
 50
195.0031787067
 51
269.0
  0
LINE
  5
E1
330
1F
100
AcDbEntity
  8
0
  6
Continuous
 62
     7
370
    25
100
AcDbLine
 10
77.0284551364
 20
42.628691679
 30
0.0
 11
76.9532359427
 21
42.3743857037
 31
0.0
  0
LINE
  5
E2
330
1F
100
AcDbEntity
  8
0
  6
Continuous
 62
     7
370
    25
100
AcDbLine
 10
76.9570875491
 20
33.3652592937
 30
0.0
 11
77.0284551364
 21
33.1205263202
 31
0.0
  0
ARC
  5
E3
330
1F
100
AcDbEntity
  8
0
  6
Continuous
 62
     7
370
    25
100
AcDbCircle
 10
87.3784551364
 20
47.7713338596
 30
0.0
 40
1.999999999999996
100
AcDbArc
 50
91.0
 51
155.4543501783
  0
LINE
  5
E4
330
1F
100
AcDbEntity
  8
0
  6
Continuous
 62
     7
370
    25
100
AcDbLine
 10
252.7664990935
 20
29.1392562412
 30
0.0
 11
257.1371813396
 21
29.2155467836
 31
0.0
  0
LINE
  5
E5
330
1F
100
AcDbEntity
  8
0
  6
Continuous
 62
     7
370
    25
100
AcDbLine
 10
257.1371813396
 20
47.0142817873
 30
0.0
 11
251.8330788797
 21
47.1068652401
 31
0.0
  0
ARC
  5
E6
330
1F
100
AcDbEntity
  8
0
  6
Continuous
 62
     7
370
    25
100
AcDbCircle
 10
257.1284551364
 20
29.7154706312
 30
0.0
 40
0.5000000000000048
100
AcDbArc
 50
271.0
 51
0.0
  0
ARC
  5
E7
330
1F
100
AcDbEntity
  8
0
  6
Continuous
 62
     7
370
    25
100
AcDbCircle
 10
257.1284551364
 20
46.5143579397
 30
0.0
 40
0.5000000000000048
100
AcDbArc
 50
0.0
 51
89.0
  0
SPLINE
  5
E8
330
1F
100
AcDbEntity
  8
0
  6
Continuous
 62
     7
370
    25
100
AcDbSpline
210
0.0
220
0.0
230
1.0
 70
     8
 71
     3
 72
    12
 73
     8
 74
     0
 42
0.00000001
 43
0.00000001
 40
0.0
 40
0.0
 40
0.0
 40
0.0
 40
0.0611978019217653
 40
0.3922484636442602
 40
0.6618750363207947
 40
0.8862562686985791
 40
1.0
 40
1.0
 40
1.0
 40
1.0
 10
250.5629784468645
 20
47.46673320030992
 30
0.0
 10
250.5102172925416
 20
47.4979001983475
 30
0.0
 10
250.172043680527
 20
47.69766565907884
 30
0.0
 10
249.7187453095207
 20
47.99975768374572
 30
0.0
 10
249.2818341038653
 20
48.31986035666906
 30
0.0
 10
249.0877950420352
 20
48.50881469041816
 30
0.0
 10
249.0911670318618
 20
48.50497992745102
 30
0.0
 10
249.0923013542159
 20
48.50368993027426
 30
0.0
  0
ARC
  5
E9
330
1F
100
AcDbEntity
  8
0
  6
Continuous
 62
     7
370
    25
100
AcDbCircle
 10
251.8784551364
 20
49.7064692475
 30
0.0
 40
2.600000000000002
100
AcDbArc
 50
239.4420525213
 51
269.0
  0
SPLINE
  5
EA
330
1F
100
AcDbEntity
  8
0
  6
Continuous
 62
     7
370
    25
100
AcDbSpline
210
0.0
220
0.0
230
1.0
 70
     8
 71
     3
 72
    12
 73
     8
 74
     0
 42
0.00000001
 43
0.00000001
 40
0.0
 40
0.0
 40
0.0
 40
0.0
 40
0.1393800936241108
 40
0.3174453493097529
 40
0.5338465422252333
 40
0.7925376441911786
 40
1.0
 40
1.0
 40
1.0
 40
1.0
 10
249.044141832728
 20
27.36718914202081
 30
0.0
 10
249.0551082701719
 20
27.3795257342365
 30
0.0
 10
249.0800848968519
 20
27.40762295905084
 30
0.0
 10
249.3191119099031
 20
27.61152360088786
 30
0.0
 10
249.7624354979196
 20
27.91725070312677
 30
0.0
 10
250.379773034335
 20
28.29298068965997
 30
0.0
 10
250.9003786730503
 20
28.57662395543697
 30
0.0
 10
251.1320750606965
 20
28.70285985296373
 30
0.0
  0
ARC
  5
EB
330
1F
100
AcDbEntity
  8
0
  6
Continuous
 62
     7
370
    25
100
AcDbCircle
 10
252.8284551364
 20
25.5897969234
 30
0.0
 40
3.55000000000002
100
AcDbArc
 50
91.0
 51
118.1920130769
  0
ARC
  5
EC
330
1F
100
AcDbEntity
  8
0
  6
Continuous
 62
     7
370
    25
100
AcDbCircle
 10
243.2784551364
 20
49.5868039002
 30
0.0
 40
0.5
100
AcDbArc
 50
89.0
 51
180.0
  0
ARC
  5
ED
330
1F
100
AcDbEntity
  8
0
  6
Continuous
 62
     7
370
    25
100
AcDbCircle
 10
243.2784551364
 20
26.6430246707
 30
0.0
 40
0.5
100
AcDbArc
 50
180.0
 51
271.0
  0
LINE
  5
EE
330
1F
100
AcDbEntity
  8
0
  6
Continuous
 62
     7
370
    25
100
AcDbLine
 10
247.3133599493
 20
50.0164505387
 30
0.0
 11
243.2871813396
 21
50.0867277477
 31
0.0
  0
LINE
  5
EF
330
1F
100
AcDbEntity
  8
0
  6
Continuous
 62
     7
370
    25
100
AcDbLine
 10
243.2871813396
 20
26.1431008231
 30
0.0
 11
247.3133599493
 21
26.2133780322
 31
0.0
  0
ARC
  5
F0
330
1F
100
AcDbEntity
  8
0
  6
Continuous
 62
     7
370
    25
100
AcDbCircle
 10
247.2784551364
 20
48.0167551484
 30
0.0
 40
2.000000000000002
100
AcDbArc
 50
15.0031787067
 51
89.0
  0
SPLINE
  5
F1
330
1F
100
AcDbEntity
  8
0
  6
Continuous
 62
     7
370
    25
100
AcDbSpline
210
0.0
220
0.0
230
1.0
 70
     8
 71
     3
 72
     9
 73
     5
 74
     0
 42
0.00000001
 43
0.00000001
 40
0.0
 40
0.0
 40
0.0
 40
0.0
 40
0.6627403955522554
 40
1.0
 40
1.0
 40
1.0
 40
1.0
 10
257.6284551363894
 20
33.35571560306931
 30
0.0
 10
257.671427753231
 20
33.51025490970477
 30
0.0
 10
257.7362685523281
 20
33.74343717484599
 30
0.0
 10
257.8545083286137
 20
34.09394281408905
 30
0.0
 10
257.8943858287937
 20
34.21215420733687
 30
0.0
  0
LINE
  5
F2
330
1F
100
AcDbEntity
  8
0
  6
Continuous
 62
     7
370
    25
100
AcDbLine
 10
257.7687023593
 20
42.3829466724
 30
0.0
 11
257.6284551364
 21
42.8638809618
 31
0.0
  0
ARC
  5
F3
330
1F
100
AcDbEntity
  8
0
  6
Continuous
 62
     7
370
    25
100
AcDbCircle
 10
247.2784551364
 20
28.2130734225
 30
0.0
 40
1.999999999999997
100
AcDbArc
 50
271.0
 51
335.4543501783
  0
LINE
  5
F4
330
1F
100
AcDbEntity
  8
0
  6
Continuous
 62
     7
370
    25
100
AcDbLine
 10
242.7784551364
 20
43.5194929966
 30
0.0
 11
236.1284551364
 21
43.5194929966
 31
0.0
  0
LINE
  5
F5
330
1F
100
AcDbEntity
  8
0
  6
Continuous
 62
     7
370
    25
100
AcDbLine
 10
236.1284551364
 20
32.2194929966
 30
0.0
 11
242.7784551364
 21
32.2194929966
 31
0.0
  0
LINE
  5
F6
330
1F
100
AcDbEntity
  8
0
  6
Continuous
 62
     7
370
    25
100
AcDbLine
 10
101.059126321
 20
47.4321809608
 30
0.0
 11
99.7784551364
 21
46.1194929966
 31
0.0
  0
LINE
  5
F7
330
1F
100
AcDbEntity
  8
0
  6
Continuous
 62
     7
370
    25
100
AcDbLine
 10
99.7784551364
 20
29.6194929966
 30
0.0
 11
101.059126321
 21
28.3068050324
 31
0.0
  0
LINE
  5
F8
330
1F
100
AcDbEntity
  8
0
  6
Continuous
 62
     7
370
    25
100
AcDbLine
 10
107.177916637
 20
28.4694929966
 30
0.0
 11
107.2284551364
 21
28.4694929966
 31
0.0
  0
LINE
  5
F9
330
1F
100
AcDbEntity
  8
0
  6
Continuous
 62
     7
370
    25
100
AcDbLine
 10
106.8248930046
 20
47.2694929966
 30
0.0
 11
106.5784551364
 21
47.2694929966
 31
0.0
  0
SPLINE
  5
FA
330
1F
100
AcDbEntity
  8
0
  6
Continuous
 62
     7
370
    25
100
AcDbSpline
210
0.0
220
0.0
230
1.0
 70
     8
 71
     3
 72
     9
 73
     5
 74
     0
 42
0.00000001
 43
0.00000001
 40
0.0
 40
0.0
 40
0.0
 40
0.0
 40
0.1888230383401726
 40
0.9999999999999999
 40
0.9999999999999999
 40
0.9999999999999999
 40
0.9999999999999999
 10
106.2925748775648
 20
46.96643275058583
 30
0.0
 10
106.2755019500271
 20
46.93688442060034
 30
0.0
 10
106.1850843416268
 20
46.78039753083716
 30
0.0
 10
106.0946230058711
 20
46.62390538761869
 30
0.0
 10
106.0212428543852
 20
46.4969625663591
 30
0.0
  0
SPLINE
  5
FB
330
1F
100
AcDbEntity
  8
0
  6
Continuous
 62
     7
370
    25
100
AcDbSpline
210
0.0
220
0.0
230
1.0
 70
     8
 71
     3
 72
     9
 73
     5
 74
     0
 42
0.00000001
 43
0.00000001
 40
0.0
 40
0.0
 40
0.0
 40
0.0
 40
0.4987433617574214
 40
1.0
 40
1.0
 40
1.0
 40
1.0
 10
106.7267995578016
 20
29.24202146196636
 30
0.0
 10
106.800262679481
 20
29.11491590652967
 30
0.0
 10
106.947559119519
 20
28.86006428306386
 30
0.0
 10
107.0948109634776
 20
28.60522815463186
 30
0.0
 10
107.1686219277553
 20
28.47748985359128
 30
0.0
  0
SPLINE
  5
FC
330
1F
100
AcDbEntity
  8
0
  6
Continuous
 62
     7
370
    25
100
AcDbSpline
210
0.0
220
0.0
230
1.0
 70
     8
 71
     3
 72
     9
 73
     5
 74
     0
 42
0.00000001
 43
0.00000001
 40
0.0
 40
0.0
 40
0.0
 40
0.0
 40
0.5011130755725078
 40
1.0
 40
1.0
 40
1.0
 40
1.0
 10
107.2760509459713
 20
46.49722775316992
 30
0.0
 10
107.2022471298621
 20
46.62492136327926
 30
0.0
 10
107.0549673646616
 20
46.8797413157689
 30
0.0
 10
106.9077401103557
 20
47.13455628864732
 30
0.0
 10
106.8342903582631
 20
47.26168014676471
 30
0.0
  0
SPLINE
  5
FD
330
1F
100
AcDbEntity
  8
0
  6
Continuous
 62
     7
370
    25
100
AcDbSpline
210
0.0
220
0.0
230
1.0
 70
     8
 71
     3
 72
     9
 73
     5
 74
     0
 42
0.00000001
 43
0.00000001
 40
0.0
 40
0.0
 40
0.0
 40
0.0
 40
0.1964851983543103
 40
1.0
 40
1.0
 40
1.0
 40
1.0
 10
106.2997903292044
 20
28.77506435706686
 30
0.0
 10
106.3177876353179
 20
28.80614950882047
 30
0.0
 10
106.4093838790258
 20
28.96435558242784
 30
0.0
 10
106.5012169674104
 20
29.12346935590591
 30
0.0
 10
106.5750062132083
 20
29.25131962804125
 30
0.0
  0
LINE
  5
FE
330
1F
100
AcDbEntity
  8
0
  6
Continuous
 62
     7
370
    25
100
AcDbLine
 10
106.5784551364
 20
47.2694929966
 30
0.0
 11
106.3108310445
 21
47.0018689047
 31
0.0
  0
LINE
  5
FF
330
1F
100
AcDbEntity
  8
0
  6
Continuous
 62
     7
370
    25
100
AcDbLine
 10
106.0784551364
 20
28.9694929966
 30
0.0
 11
106.274183822
 21
28.773764311
 31
0.0
  0
SPLINE
  5
100
330
1F
100
AcDbEntity
  8
0
  6
Continuous
 62
     7
370
    25
100
AcDbSpline
210
0.0
220
0.0
230
1.0
 70
     8
 71
     3
 72
     9
 73
     5
 74
     0
 42
0.00000001
 43
0.00000001
 40
0.0
 40
0.0
 40
0.0
 40
0.0
 40
0.5166266336148141
 40
1.0
 40
1.0
 40
1.0
 40
1.0
 10
107.4428361777024
 20
46.50569839066367
 30
0.0
 10
107.4132581683843
 20
46.50570061976468
 30
0.0
 10
107.3560059723234
 20
46.50570493448806
 30
0.0
 10
107.2988047897168
 20
46.50570068236003
 30
0.0
 10
107.2711552615191
 20
46.50569862699459
 30
0.0
  0
SPLINE
  5
101
330
1F
100
AcDbEntity
  8
0
  6
Continuous
 62
     7
370
    25
100
AcDbSpline
210
0.0
220
0.0
230
1.0
 70
     8
 71
     3
 72
     9
 73
     5
 74
     0
 42
0.00000001
 43
0.00000001
 40
0.0
 40
0.0
 40
0.0
 40
0.0
 40
0.4973303336687678
 40
1.0
 40
1.0
 40
1.0
 40
1.0
 10
106.5914690852865
 20
29.31773309695456
 30
0.0
 10
106.6206984512205
 20
29.31636861708283
 30
0.0
 10
106.6794709892202
 20
29.31362500829939
 30
0.0
 10
106.7382909593943
 20
29.31635886840664
 30
0.0
 10
106.7678579741754
 20
29.31773309695456
 30
0.0
  0
LINE
  5
102
330
1F
100
AcDbEntity
  8
0
  6
Continuous
 62
     7
370
    25
100
AcDbLine
 10
106.0784551364
 20
45.9944929966
 30
0.0
 11
104.5784551364
 21
45.9944929966
 31
0.0
  0
LINE
  5
103
330
1F
100
AcDbEntity
  8
0
  6
Continuous
 62
     7
370
    25
100
AcDbLine
 10
104.5784551364
 20
29.7444929966
 30
0.0
 11
106.0784551364
 21
29.7444929966
 31
0.0
  0
LINE
  5
104
330
1F
100
AcDbEntity
  8
0
  6
Continuous
 62
     7
370
    25
100
AcDbLine
 10
234.8484496052
 20
28.3074873271
 30
0.0
 11
236.1284551364
 21
29.6194929966
 31
0.0
  0
LINE
  5
105
330
1F
100
AcDbEntity
  8
0
  6
Continuous
 62
     7
370
    25
100
AcDbLine
 10
236.1284551364
 20
46.1194929966
 30
0.0
 11
234.8484496052
 21
47.4314986661
 31
0.0
  0
LINE
  5
106
330
1F
100
AcDbEntity
  8
0
  6
Continuous
 62
     7
370
    25
100
AcDbLine
 10
229.0054829058
 20
47.2694929966
 30
0.0
 11
228.6784551364
 21
47.2694929966
 31
0.0
  0
SPLINE
  5
107
330
1F
100
AcDbEntity
  8
0
  6
Continuous
 62
     7
370
    25
100
AcDbSpline
210
0.0
220
0.0
230
1.0
 70
     8
 71
     3
 72
     9
 73
     5
 74
     0
 42
0.00000001
 43
0.00000001
 40
0.0
 40
0.0
 40
0.0
 40
0.0
 40
0.4921597394042973
 40
1.0
 40
1.0
 40
1.0
 40
1.0
 10
228.3171812533537
 20
28.49096196055449
 30
0.0
 10
228.3883581938404
 20
28.61414973886113
 30
0.0
 10
228.5329798172445
 20
28.86445013615845
 30
0.0
 10
228.677629934661
 20
29.11472453465426
 30
0.0
 10
228.751089087985
 20
29.24182395040681
 30
0.0
  0
SPLINE
  5
108
330
1F
100
AcDbEntity
  8
0
  6
Continuous
 62
     7
370
    25
100
AcDbSpline
210
0.0
220
0.0
230
1.0
 70
     8
 71
     3
 72
     9
 73
     5
 74
     0
 42
0.00000001
 43
0.00000001
 40
0.0
 40
0.0
 40
0.0
 40
0.0
 40
0.4981873554341601
 40
0.9999999999999999
 40
0.9999999999999999
 40
0.9999999999999999
 40
0.9999999999999999
 10
229.4566460293095
 20
46.4971596503117
 30
0.0
 10
229.3832714612713
 20
46.62409758328441
 30
0.0
 10
229.2359883814462
 20
46.8788971714074
 30
0.0
 10
229.0887541543546
 20
47.13375000883686
 30
0.0
 10
229.0148701574873
 20
47.26163838516245
 30
0.0
  0
SPLINE
  5
109
330
1F
100
AcDbEntity
  8
0
  6
Continuous
 62
     7
370
    25
100
AcDbSpline
210
0.0
220
0.0
230
1.0
 70
     8
 71
     3
 72
     9
 73
     5
 74
     0
 42
0.00000001
 43
0.00000001
 40
0.0
 40
0.0
 40
0.0
 40
0.0
 40
0.5011659921197329
 40
1.0
 40
1.0
 40
1.0
 40
1.0
 10
228.9073938819566
 20
29.24195523504268
 30
0.0
 10
228.9812096611242
 20
29.11424993721368
 30
0.0
 10
229.1284977459669
 20
28.8594335693096
 30
0.0
 10
229.2757505907796
 20
28.60457465293199
 30
0.0
 10
229.3492053175293
 20
28.47744235823132
 30
0.0
  0
LINE
  5
10A
330
1F
100
AcDbEntity
  8
0
  6
Continuous
 62
     7
370
    25
100
AcDbLine
 10
229.7750414131
 20
46.7774508587
 30
0.0
 11
229.6129491308
 21
46.4970302351
 31
0.0
  0
LINE
  5
10B
330
1F
100
AcDbEntity
  8
0
  6
Continuous
 62
     7
370
    25
100
AcDbLine
 10
229.3687146472
 20
28.5097525074
 30
0.0
 11
229.8284551364
 21
28.9694929966
 31
0.0
  0
LINE
  5
10C
330
1F
100
AcDbEntity
  8
0
  6
Continuous
 62
     7
370
    25
100
AcDbLine
 10
229.8284551364
 20
46.7694929966
 30
0.0
 11
229.8103266683
 21
46.7876214647
 31
0.0
  0
SPLINE
  5
10D
330
1F
100
AcDbEntity
  8
0
  6
Continuous
 62
     7
370
    25
100
AcDbSpline
210
0.0
220
0.0
230
1.0
 70
     8
 71
     3
 72
     9
 73
     5
 74
     0
 42
0.00000001
 43
0.00000001
 40
0.0
 40
0.0
 40
0.0
 40
0.0
 40
0.517808183296613
 40
1.0
 40
1.0
 40
1.0
 40
1.0
 10
228.7411186065763
 20
29.23327931779678
 30
0.0
 10
228.7706965727112
 20
29.23329052418154
 30
0.0
 10
228.8278180456599
 20
29.23331216614301
 30
0.0
 10
228.8848886459286
 20
29.233290871771
 30
0.0
 10
228.9124076223526
 20
29.23328060379907
 30
0.0
  0
SPLINE
  5
10E
330
1F
100
AcDbEntity
  8
0
  6
Continuous
 62
     7
370
    25
100
AcDbSpline
210
0.0
220
0.0
230
1.0
 70
     8
 71
     3
 72
     9
 73
     5
 74
     0
 42
0.00000001
 43
0.00000001
 40
0.0
 40
0.0
 40
0.0
 40
0.0
 40
0.5105586537199021
 40
1.0
 40
1.0
 40
1.0
 40
1.0
 10
229.6230624459989
 20
46.50570667364093
 30
0.0
 10
229.5939411998527
 20
46.50568117445101
 30
0.0
 10
229.5369031966105
 20
46.50563123074774
 30
0.0
 10
229.479703534338
 20
46.50567995384096
 30
0.0
 10
229.4517076546286
 20
46.5057038009373
 30
0.0
  0
LINE
  5
10F
330
1F
100
AcDbEntity
  8
0
  6
Continuous
 62
     7
370
    25
100
AcDbLine
 10
229.8284551364
 20
29.7444929966
 30
0.0
 11
231.3284551364
 21
29.7444929966
 31
0.0
  0
LINE
  5
110
330
1F
100
AcDbEntity
  8
0
  6
Continuous
 62
     7
370
    25
100
AcDbLine
 10
231.3284551364
 20
45.9944929966
 30
0.0
 11
229.8284551364
 21
45.9944929966
 31
0.0
  0
LINE
  5
111
330
1F
100
AcDbEntity
  8
0
  6
Continuous
 62
     7
370
    25
100
AcDbLine
 10
124.2783819351
 20
21.5194197953
 30
0.0
 11
124.4284551364
 21
21.6694929966
 31
0.0
  0
LINE
  5
112
330
1F
100
AcDbEntity
  8
0
  6
Continuous
 62
     7
370
    25
100
AcDbLine
 10
124.4284551364
 20
54.0694929966
 30
0.0
 11
124.2783819351
 21
54.2195661978
 31
0.0
  0
LINE
  5
113
330
1F
100
AcDbEntity
  8
0
  6
Continuous
 62
     7
370
    25
100
AcDbLine
 10
115.1213170406
 20
54.2123549008
 30
0.0
 11
114.9784551364
 21
54.0694929966
 31
0.0
  0
LINE
  5
114
330
1F
100
AcDbEntity
  8
0
  6
Continuous
 62
     7
370
    25
100
AcDbLine
 10
114.9784551364
 20
21.6694929966
 30
0.0
 11
115.1213170406
 21
21.5266310924
 31
0.0
  0
ARC
  5
115
330
1F
100
AcDbEntity
  8
0
  6
Continuous
 62
     7
370
    25
100
AcDbCircle
 10
114.9784551364
 20
43.6104813687
 30
0.0
 40
9.134011627906979
100
AcDbArc
 50
90.0
 51
148.0464183091
  0
ARC
  5
116
330
1F
100
AcDbEntity
  8
0
  6
Continuous
 62
     7
370
    25
100
AcDbCircle
 10
114.9784551364
 20
32.1285046245
 30
0.0
 40
9.134011627906979
100
AcDbArc
 50
211.9535816909
 51
270.0
  0
LINE
  5
117
330
1F
100
AcDbEntity
  8
0
  6
Continuous
 62
     7
370
    25
100
AcDbLine
 10
123.2351017718
 20
54.596777728
 30
0.0
 11
116.18480222
 21
54.596777728
 31
0.0
  0
LINE
  5
118
330
1F
100
AcDbEntity
  8
0
  6
Continuous
 62
     7
370
    25
100
AcDbLine
 10
116.18480222
 20
21.1422082652
 30
0.0
 11
123.2351017718
 21
21.1422082652
 31
0.0
  0
LINE
  5
119
330
1F
100
AcDbEntity
  8
0
  6
Continuous
 62
     7
370
    25
100
AcDbLine
 10
211.5924377733
 20
54.1834756335
 30
0.0
 11
211.4784551364
 21
54.0694929966
 31
0.0
  0
LINE
  5
11A
330
1F
100
AcDbEntity
  8
0
  6
Continuous
 62
     7
370
    25
100
AcDbLine
 10
211.4784551364
 20
21.6694929966
 30
0.0
 11
211.5924377733
 21
21.5555103597
 31
0.0
  0
LINE
  5
11B
330
1F
100
AcDbEntity
  8
0
  6
Continuous
 62
     7
370
    25
100
AcDbLine
 10
220.8144724994
 20
21.5555103597
 30
0.0
 11
220.9284551364
 21
21.6694929966
 31
0.0
  0
LINE
  5
11C
330
1F
100
AcDbEntity
  8
0
  6
Continuous
 62
     7
370
    25
100
AcDbLine
 10
220.9284551364
 20
54.0694929966
 30
0.0
 11
220.8144724994
 21
54.1834756335
 31
0.0
  0
ARC
  5
11D
330
1F
100
AcDbEntity
  8
0
  6
Continuous
 62
     7
370
    25
100
AcDbCircle
 10
220.9284551364
 20
32.1285046245
 30
0.0
 40
9.134011627906986
100
AcDbArc
 50
270.0
 51
328.0464183091
  0
ARC
  5
11E
330
1F
100
AcDbEntity
  8
0
  6
Continuous
 62
     7
370
    25
100
AcDbCircle
 10
220.9284551364
 20
43.6104813687
 30
0.0
 40
9.134011627906979
100
AcDbArc
 50
31.9535816909
 51
90.0
  0
LINE
  5
11F
330
1F
100
AcDbEntity
  8
0
  6
Continuous
 62
     7
370
    25
100
AcDbLine
 10
219.7351017718
 20
54.596777728
 30
0.0
 11
212.68480222
 21
54.596777728
 31
0.0
  0
LINE
  5
120
330
1F
100
AcDbEntity
  8
0
  6
Continuous
 62
     7
370
    25
100
AcDbLine
 10
212.68480222
 20
21.1422082652
 30
0.0
 11
219.7351017718
 21
21.1422082652
 31
0.0
  0
LINE
  5
121
330
1F
100
AcDbEntity
  8
0
  6
Continuous
 62
     7
370
    25
100
AcDbLine
 10
91.8784551364
 20
32.2194929966
 30
0.0
 11
99.7784551364
 21
32.2194929966
 31
0.0
  0
LINE
  5
122
330
1F
100
AcDbEntity
  8
0
  6
Continuous
 62
     7
370
    25
100
AcDbLine
 10
99.7784551364
 20
43.5194929966
 30
0.0
 11
91.8784551364
 21
43.5194929966
 31
0.0
  0
SPLINE
  5
123
330
1F
100
AcDbEntity
  8
0
  6
Continuous
 62
     7
370
    25
100
AcDbSpline
210
0.0
220
0.0
230
1.0
 70
     8
 71
     3
 72
    60
 73
    56
 74
     0
 42
0.00000001
 43
0.00000001
 40
0.0
 40
0.0
 40
0.0
 40
0.0
 40
0.0095314130344217
 40
0.0264076025365895
 40
0.0401358746477541
 40
0.0506671350828363
 40
0.0591009912122429
 40
0.0727018293402192
 40
0.0902839667391158
 40
0.1114604490678712
 40
0.1341094879888192
 40
0.1579195001301056
 40
0.1829009885421325
 40
0.2090629799228368
 40
0.2364166065338124
 40
0.2625735095351262
 40
0.28518473176075
 40
0.3042335058727987
 40
0.319702472826124
 40
0.3296033938992476
 40
0.3405566342667771
 40
0.3540686585068756
 40
0.3701856322236007
 40
0.3881016969067283
 40
0.4026608746868486
 40
0.4168551914182134
 40
0.4303579527880193
 40
0.4420247867595009
 40
0.4517769241462598
 40
0.460707649090572
 40
0.4764259066984986
 40
0.4853267945682684
 40
0.4947673434659733
 40
0.5150922260860138
 40
0.5367830108173763
 40
0.5633344041256868
 40
0.5872410458639478
 40
0.6086357055388222
 40
0.6240486175337673
 40
0.6417337401547685
 40
0.6618393618833215
 40
0.6843548402691093
 40
0.7092708845390333
 40
0.735141228413103
 40
0.7590221609875866
 40
0.7808415467605222
 40
0.806743334583968
 40
0.8290321525321795
 40
0.8498984607074523
 40
0.8730949100690839
 40
0.8986828587124065
 40
0.9266588144215039
 40
0.9492754152781624
 40
0.9740830612029323
 40
1.0
 40
1.0
 40
1.0
 40
1.0
 10
180.9236840920862
 20
62.46352643484671
 30
0.0
 10
180.9236033283167
 20
63.09383680168512
 30
0.0
 10
180.9233795653223
 20
64.84016607962631
 30
0.0
 10
180.9078395855389
 20
67.64870409680896
 30
0.0
 10
180.8818176537472
 20
70.59298516803867
 30
0.0
 10
180.8523176048867
 20
72.98589574762022
 30
0.0
 10
180.8161781908506
 20
75.4004833904951
 30
0.0
 10
180.7621972261453
 20
78.37734640106176
 30
0.0
 10
180.6711645970934
 20
82.36892977389851
 30
0.0
 10
180.5338045228161
 20
87.1016448469053
 30
0.0
 10
180.3414874233774
 20
92.32860792626919
 30
0.0
 10
180.0893557906674
 20
97.80620040613525
 30
0.0
 10
179.7693264589665
 20
103.4386514598334
 30
0.0
 10
179.3711421042446
 20
109.1380224875834
 30
0.0
 10
178.8974188121761
 20
114.6244953523762
 30
0.0
 10
178.378421513515
 20
119.5074481721825
 30
0.0
 10
177.8618932812423
 20
123.5219266775684
 30
0.0
 10
177.3867530549757
 20
126.6364458858525
 30
0.0
 10
176.9895662802419
 20
128.877037921097
 30
0.0
 10
176.6458375997396
 20
130.6052420258748
 30
0.0
 10
176.2992406267186
 20
132.1828751322724
 30
0.0
 10
175.8620915117502
 20
133.9382691873113
 30
0.0
 10
175.3093369302813
 20
135.820288100125
 30
0.0
 10
174.6944203551346
 20
137.5316172647795
 30
0.0
 10
173.9805243917249
 20
139.1057747687678
 30
0.0
 10
173.1901628497101
 20
140.4665227456062
 30
0.0
 10
172.2613774591007
 20
141.6678208484296
 30
0.0
 10
171.2513369516997
 20
142.626549435749
 30
0.0
 10
170.1484117377252
 20
143.3841262332361
 30
0.0
 10
168.5898340851921
 20
144.0943414944743
 30
0.0
 10
166.9332771729424
 20
144.3946387224085
 30
0.0
 10
165.1834021679646
 20
144.2537365478743
 30
0.0
 10
163.369165079526
 20
143.7441043389171
 30
0.0
 10
161.4932790222209
 20
142.5786358425258
 30
0.0
 10
159.6943368475665
 20
140.6155767821329
 30
0.0
 10
158.286183807931
 20
138.2163675433734
 30
0.0
 10
157.1867122816975
 20
135.6885226941152
 30
0.0
 10
156.3012074813773
 20
133.2015614946461
 30
0.0
 10
155.5538496051803
 20
130.7843802015291
 30
0.0
 10
154.8351869117064
 20
128.1990151187179
 30
0.0
 10
154.0379087209778
 20
124.9977788687701
 30
0.0
 10
153.1643495096454
 20
121.083599905285
 30
0.0
 10
152.2428038308433
 20
116.4701710398253
 30
0.0
 10
151.3363935807649
 20
111.4303998980386
 30
0.0
 10
150.5019635835743
 20
106.3398165257526
 30
0.0
 10
149.703419011779
 20
101.063530564404
 30
0.0
 10
148.9631770428301
 20
95.76816151757033
 30
0.0
 10
148.2767686443632
 20
90.48086433464684
 30
0.0
 10
147.6565783537368
 20
85.391360563577
 30
0.0
 10
147.0501769128813
 20
80.08771305866432
 30
0.0
 10
146.4392359241508
 20
74.36208764506281
 30
0.0
 10
145.8959093557707
 20
68.88428642036799
 30
0.0
 10
145.4201064388822
 20
63.74823058374575
 30
0.0
 10
145.0096667492461
 20
59.03504082148158
 30
0.0
 10
144.7799525477353
 20
56.15383472195997
 30
0.0
 10
144.6625836439972
 20
54.68172721132142
 30
0.0
  0
SPLINE
  5
124
330
1F
100
AcDbEntity
  8
0
  6
Continuous
 62
     7
370
    25
100
AcDbSpline
210
0.0
220
0.0
230
1.0
 70
     8
 71
     3
 72
    27
 73
    23
 74
     0
 42
0.00000001
 43
0.00000001
 40
0.0
 40
0.0
 40
0.0
 40
0.0
 40
0.0317894706277521
 40
0.0993309832298103
 40
0.1608206448694147
 40
0.2162686892314639
 40
0.2656869554058502
 40
0.3115531187785567
 40
0.3646444712634228
 40
0.4261698656829283
 40
0.4960674325442373
 40
0.5539580262195152
 40
0.6139223014843668
 40
0.6688723157341553
 40
0.7184177878127133
 40
0.7760927831061948
 40
0.8244091669824761
 40
0.8729052783898958
 40
0.9130162566836579
 40
0.9562958266705749
 40
0.9870397539942686
 40
1.0
 40
1.0
 40
1.0
 40
1.0
 10
157.5236043838922
 20
64.24161108690774
 30
0.0
 10
157.5978241848547
 20
65.06463300970654
 30
0.0
 10
157.8297351182282
 20
67.63628881890791
 30
0.0
 10
158.2801257411629
 20
72.17611677123557
 30
0.0
 10
158.8403412905898
 20
77.5120214207479
 30
0.0
 10
159.3958141518869
 20
82.4548398539703
 30
0.0
 10
159.9351654395085
 20
86.97648464540755
 30
0.0
 10
160.4973549313088
 20
91.43507946766735
 30
0.0
 10
161.1384950797677
 20
96.227032118645
 30
0.0
 10
161.9164033843184
 20
101.6365544708544
 30
0.0
 10
162.7578811685452
 20
106.9891604813124
 30
0.0
 10
163.6263516417502
 20
112.0242758424739
 30
0.0
 10
164.4503537859789
 20
116.3759488375893
 30
0.0
 10
165.2505770748612
 20
120.1911108532694
 30
0.0
 10
166.0485258270483
 20
123.6197168875637
 30
0.0
 10
166.8137054728569
 20
126.5402695607678
 30
0.0
 10
167.5695553570968
 20
129.0508218198995
 30
0.0
 10
168.1937048257313
 20
130.8376091257568
 30
0.0
 10
168.7474754278207
 20
132.1814396760537
 30
0.0
 10
169.1198925527165
 20
132.9407026597883
 30
0.0
 10
169.2843652631226
 20
133.2166466862722
 30
0.0
 10
169.245088271244
 20
133.2036424348879
 30
0.0
 10
169.2334408829436
 20
133.1997860915635
 30
0.0
  0
SPLINE
  5
125
330
1F
100
AcDbEntity
  8
0
  6
Continuous
 62
     7
370
    25
100
AcDbSpline
210
0.0
220
0.0
230
1.0
 70
     8
 71
     3
 72
    25
 73
    21
 74
     0
 42
0.00000001
 43
0.00000001
 40
0.0
 40
0.0
 40
0.0
 40
0.0
 40
0.028727565857491
 40
0.1062447412365037
 40
0.1951087571382566
 40
0.287416732821113
 40
0.3762166756803781
 40
0.4614803778991255
 40
0.5431670280664032
 40
0.6212473076134556
 40
0.6956887392347355
 40
0.7593852152313859
 40
0.8062704992378775
 40
0.8363108995560286
 40
0.8469166918307015
 40
0.8640297971189146
 40
0.8887534470029196
 40
0.9210880671043101
 40
0.9760335544925589
 40
1.0
 40
1.0
 40
1.0
 40
1.0
 10
165.8398521033475
 20
122.6690898430002
 30
0.0
 10
165.9006039494044
 20
122.2666833108804
 30
0.0
 10
166.1252858523534
 20
120.7784410390141
 30
0.0
 10
166.502122775586
 20
117.7011798846011
 30
0.0
 10
166.9628628879456
 20
113.3493405207961
 30
0.0
 10
167.3858956755818
 20
108.4505437284574
 30
0.0
 10
167.7483047370556
 20
103.3586270085369
 30
0.0
 10
168.0462990891517
 20
98.28785209833151
 30
0.0
 10
168.2872260475729
 20
93.31844435511681
 30
0.0
 10
168.4775931721508
 20
88.51435485225603
 30
0.0
 10
168.619601006474
 20
84.07423495054739
 30
0.0
 10
168.7167167055949
 20
80.30190726437807
 30
0.0
 10
168.7765476877067
 20
77.46670182035759
 30
0.0
 10
168.8080211356165
 20
75.72045686899503
 30
0.0
 10
168.8268310460177
 20
74.57652437423847
 30
0.0
 10
168.8426940676639
 20
73.54405993416277
 30
0.0
 10
168.8627180187457
 20
72.09486656934696
 30
0.0
 10
168.88751247419
 20
69.93744016217238
 30
0.0
 10
168.9072400633671
 20
67.81835294909273
 30
0.0
 10
168.9125643698634
 20
66.38940779359646
 30
0.0
 10
168.9141814218962
 20
65.95542100673633
 30
0.0
  0
SPLINE
  5
126
330
1F
100
AcDbEntity
  8
0
  6
Continuous
 62
     7
370
    25
100
AcDbSpline
210
0.0
220
0.0
230
1.0
 70
     8
 71
     3
 72
    18
 73
    14
 74
     0
 42
0.00000001
 43
0.00000001
 40
0.0
 40
0.0
 40
0.0
 40
0.0
 40
0.0597661358498208
 40
0.1403385949296898
 40
0.202147506028927
 40
0.2516465633297712
 40
0.3314711009441658
 40
0.434662240705822
 40
0.5589489129157652
 40
0.6918781517070303
 40
0.8316212463521916
 40
0.9782398401951381
 40
1.0
 40
1.0
 40
1.0
 40
1.0
 10
165.264990455392
 20
66.01921692986451
 30
0.0
 10
165.2306231504966
 20
66.72130569256946
 30
0.0
 10
165.1499242862995
 20
68.36990065479895
 30
0.0
 10
165.0159319721446
 20
70.84645596481006
 30
0.0
 10
164.8802627162302
 20
73.23245386673089
 30
0.0
 10
164.736385128663
 20
75.64373144646355
 30
0.0
 10
164.5497561404289
 20
78.61490171546437
 30
0.0
 10
164.2808572821965
 20
82.59877232840105
 30
0.0
 10
163.9323871300579
 20
87.31965861428048
 30
0.0
 10
163.5081143004653
 20
92.53686117775514
 30
0.0
 10
163.0082590975226
 20
97.98163635091431
 30
0.0
 10
162.6188876892865
 20
101.9580965590394
 30
0.0
 10
162.3795505311822
 20
104.0227949696363
 30
0.0
 10
162.3486201750966
 20
104.2896229772685
 30
0.0
  0
SPLINE
  5
127
330
1F
100
AcDbEntity
  8
0
  6
Continuous
 62
     7
370
    25
100
AcDbSpline
210
0.0
220
0.0
230
1.0
 70
     8
 71
     3
 72
    41
 73
    37
 74
     0
 42
0.00000001
 43
0.00000001
 40
0.0
 40
0.0
 40
0.0
 40
0.0
 40
0.0122712911417347
 40
0.0402425145933421
 40
0.0629728419370997
 40
0.0851335347040669
 40
0.1062145456385865
 40
0.1244292387512123
 40
0.1396546366720343
 40
0.1535976150783057
 40
0.1781375407593784
 40
0.1920339364202794
 40
0.2067728708567136
 40
0.238504830047966
 40
0.2723692861822998
 40
0.3138223043709249
 40
0.3511462384973835
 40
0.3845483732307208
 40
0.4086115820366465
 40
0.4362222501911862
 40
0.4676118911614195
 40
0.5027638895599187
 40
0.5416637402877702
 40
0.5820534788866155
 40
0.6193372749148094
 40
0.6534025077561694
 40
0.6938413378128633
 40
0.728639465545052
 40
0.7612167183571785
 40
0.7974318738533036
 40
0.8373807265633894
 40
0.881057824310663
 40
0.9163676988543275
 40
0.9550983140727229
 40
0.9975999815351665
 40
1.0
 40
1.0
 40
1.0
 40
1.0
 10
156.8742813477329
 20
134.734160088048
 30
0.0
 10
156.7699192746787
 20
135.0452326528502
 30
0.0
 10
156.4276739315141
 20
136.065365097273
 30
0.0
 10
155.8491665912562
 20
137.4337568255635
 30
0.0
 10
155.0672130578645
 20
138.9821083651158
 30
0.0
 10
154.2166192783409
 20
140.3044344195856
 30
0.0
 10
153.2352761918447
 20
141.4635732554879
 30
0.0
 10
152.1834718989835
 20
142.376211053974
 30
0.0
 10
151.047867195434
 20
143.0838755876753
 30
0.0
 10
149.4591701798036
 20
143.723881836838
 30
0.0
 10
147.79087106753
 20
143.9500165913717
 30
0.0
 10
146.0490193023446
 20
143.7312271763133
 30
0.0
 10
144.2593112511625
 20
143.1412050691791
 30
0.0
 10
142.4372592836409
 20
141.8932498886056
 30
0.0
 10
140.7276392787774
 20
139.8519284637879
 30
0.0
 10
139.427867666899
 20
137.392315943682
 30
0.0
 10
138.4422064130949
 20
134.8179598878932
 30
0.0
 10
137.6684760633726
 20
132.2939876006378
 30
0.0
 10
137.0296437438541
 20
129.8458857917599
 30
0.0
 10
136.4269773879742
 20
127.2310469937596
 30
0.0
 10
135.7732354482977
 20
123.9974441221065
 30
0.0
 10
135.0750785047915
 20
120.0482062891639
 30
0.0
 10
134.360162400282
 20
115.3982742817215
 30
0.0
 10
133.679377304527
 20
110.3230991336028
 30
0.0
 10
133.072766535755
 20
105.2003712246501
 30
0.0
 10
132.5102861672525
 20
99.89372793232066
 30
0.0
 10
132.0069005999349
 20
94.57061076583852
 30
0.0
 10
131.5569376454272
 20
89.25799061266908
 30
0.0
 10
131.1642986510922
 20
84.14580681477375
 30
0.0
 10
130.7950187655098
 20
78.82076718383549
 30
0.0
 10
130.4398677126404
 20
73.07198380219256
 30
0.0
 10
130.1418156074444
 20
67.58164324729348
 30
0.0
 10
129.8939684553518
 20
62.40947960425623
 30
0.0
 10
129.6967121998238
 20
57.67896247124578
 30
0.0
 10
129.5736613915184
 20
54.41216526400274
 30
0.0
 10
129.5295610330032
 20
52.94776590398062
 30
0.0
 10
129.5272038459053
 20
52.86949299659724
 30
0.0
  0
SPLINE
  5
128
330
1F
100
AcDbEntity
  8
0
  6
Continuous
 62
     7
370
    25
100
AcDbSpline
210
0.0
220
0.0
230
1.0
 70
     8
 71
     3
 72
    29
 73
    25
 74
     0
 42
0.00000001
 43
0.00000001
 40
0.0
 40
0.0
 40
0.0
 40
0.0
 40
0.0397238448442071
 40
0.0909377945222358
 40
0.1551417755620381
 40
0.2140783401641879
 40
0.267734073889589
 40
0.3161179066275486
 40
0.3592401691399845
 40
0.3992628751251906
 40
0.4455902640892995
 40
0.4992771781541681
 40
0.5602696301462644
 40
0.6107848256542764
 40
0.6631095108266415
 40
0.7110587636632298
 40
0.7542920257476352
 40
0.804619090616173
 40
0.8467798532340354
 40
0.8890974456716871
 40
0.9240981907304189
 40
0.9618638414275793
 40
0.9886909199017065
 40
1.0
 40
1.0
 40
1.0
 40
1.0
 10
141.5349206155066
 20
52.86949299659724
 30
0.0
 10
141.5685026941529
 20
53.86191611558348
 30
0.0
 10
141.6453804530794
 20
56.1338203088315
 30
0.0
 10
141.8210688974905
 20
60.48963737162183
 30
0.0
 10
142.0623885407801
 20
65.73142491070783
 30
0.0
 10
142.3647647280957
 20
71.40510078058784
 30
0.0
 10
142.6886948058608
 20
76.77590733499684
 30
0.0
 10
143.0227102071751
 20
81.7350856676527
 30
0.0
 10
143.3600192851232
 20
86.27707590119161
 30
0.0
 10
143.7228124359358
 20
90.75610858427571
 30
0.0
 10
144.1496503066081
 20
95.57194427517915
 30
0.0
 10
144.6855711388663
 20
101.0107528988339
 30
0.0
 10
145.2875399340899
 20
106.3955627281197
 30
0.0
 10
145.9306303941243
 20
111.4643937028462
 30
0.0
 10
146.5597717387217
 20
115.8484810477729
 30
0.0
 10
147.1890808594082
 20
119.6955302861878
 30
0.0
 10
147.8333542686751
 20
123.1563067132846
 30
0.0
 10
148.4675452806069
 20
126.1080739008303
 30
0.0
 10
149.1106977468233
 20
128.6498324665464
 30
0.0
 10
149.6545534989893
 20
130.4626734289676
 30
0.0
 10
150.1478518453082
 20
131.8298600180641
 30
0.0
 10
150.4860429855814
 20
132.6049739103352
 30
0.0
 10
150.6380477510996
 20
132.8879773192942
 30
0.0
 10
150.5993896854107
 20
132.8732346396765
 30
0.0
 10
150.587925836463
 20
132.8688627744729
 30
0.0
  0
SPLINE
  5
129
330
1F
100
AcDbEntity
  8
0
  6
Continuous
 62
     7
370
    25
100
AcDbSpline
210
0.0
220
0.0
230
1.0
 70
     8
 71
     3
 72
    12
 73
     8
 74
     0
 42
0.00000001
 43
0.00000001
 40
0.0
 40
0.0
 40
0.0
 40
0.0
 40
0.0827943119120114
 40
0.3062027701401868
 40
0.5623134022356645
 40
0.8283497023025833
 40
1.0
 40
1.0
 40
1.0
 40
1.0
 10
147.6672765958985
 20
122.1973204164956
 30
0.0
 10
147.7459074138845
 20
121.7980033447521
 30
0.0
 10
148.0367121048069
 20
120.3211869945896
 30
0.0
 10
148.5506585901819
 20
117.2651413056479
 30
0.0
 10
149.2036622050712
 20
112.9315122441027
 30
0.0
 10
149.7798889411426
 20
108.607639241672
 30
0.0
 10
150.1113884818623
 20
105.6987155066004
 30
0.0
 10
150.2413947355189
 20
104.5579046440914
 30
0.0
  0
CIRCLE
  5
12A
330
1F
100
AcDbEntity
  8
0
  6
Continuous
 62
     7
370
    25
100
AcDbCircle
 10
167.3284551364
 20
37.8694929966
 30
0.0
 40
8.49999999999995
  0
SPLINE
  5
12B
330
1F
100
AcDbEntity
  8
0
  6
Continuous
 62
     7
370
    25
100
AcDbSpline
210
0.0
220
0.0
230
1.0
 70
     8
 71
     3
 72
    14
 73
    10
 74
     0
 42
0.00000001
 43
0.00000001
 40
0.0
 40
0.0
 40
0.0
 40
0.0
 40
0.2499999999999999
 40
0.2499999999999999
 40
0.4999999999999999
 40
0.4999999999999999
 40
0.7499999999999999
 40
0.7499999999999999
 40
1.0
 40
1.0
 40
1.0
 40
1.0
 10
159.8284551363894
 20
37.86949299659793
 30
0.0
 10
159.8284551363894
 20
36.72351792421581
 30
0.0
 10
160.0956099394722
 20
35.57837771709906
 30
0.0
 10
161.1098091403778
 20
33.52303457130386
 30
0.0
 10
161.8561146742362
 20
32.61432899032732
 30
0.0
 10
163.6751135567505
 20
31.21995510521013
 30
0.0
 10
164.7464817291251
 20
30.73530262973073
 30
0.0
 10
166.9947155212978
 20
30.28979137081874
 30
0.0
 10
168.1699432587836
 20
30.3292571510563
 30
0.0
 10
169.2765836211969
 20
30.62692470857456
 30
0.0
  0
SPLINE
  5
12C
330
1F
100
AcDbEntity
  8
0
  6
Continuous
 62
     7
370
    25
100
AcDbSpline
210
0.0
220
0.0
230
1.0
 70
     8
 71
     3
 72
    61
 73
    57
 74
     0
 42
0.00000001
 43
0.00000001
 40
0.0
 40
0.0
 40
0.0
 40
0.0
 40
0.03125
 40
0.03125
 40
0.0625
 40
0.0625
 40
0.1249999999999999
 40
0.1249999999999999
 40
0.1562499999999999
 40
0.1562499999999999
 40
0.1874999999999999
 40
0.1874999999999999
 40
0.2187499999999999
 40
0.2187499999999999
 40
0.2499999999999999
 40
0.2812499999999999
 40
0.2812499999999999
 40
0.3124999999999998
 40
0.3124999999999998
 40
0.3437499999999998
 40
0.3437499999999998
 40
0.3749999999999998
 40
0.3749999999999998
 40
0.4374999999999998
 40
0.4374999999999998
 40
0.4687499999999998
 40
0.4687499999999998
 40
0.4999999999999999
 40
0.4999999999999999
 40
0.5312499999999999
 40
0.5312499999999999
 40
0.5624999999999999
 40
0.5624999999999999
 40
0.5937499999999998
 40
0.5937499999999998
 40
0.6249999999999998
 40
0.6249999999999998
 40
0.6562499999999998
 40
0.6562499999999998
 40
0.6874999999999999
 40
0.6874999999999999
 40
0.71875
 40
0.71875
 40
0.75
 40
0.75
 40
0.8125000000000001
 40
0.8125000000000001
 40
0.8437500000000001
 40
0.8437500000000001
 40
0.8750000000000001
 40
0.8750000000000001
 40
0.9062500000000001
 40
0.9062500000000001
 40
0.9375
 40
0.9375
 40
1.0
 40
1.0
 40
1.0
 40
1.0
 10
159.1944805401739
 20
37.86949299659793
 30
0.0
 10
159.2005471593071
 20
38.23505476723133
 30
0.0
 10
159.2312711160541
 20
38.59729922689767
 30
0.0
 10
159.3410521665027
 20
39.31528550733378
 30
0.0
 10
159.4208208657509
 20
39.67320314241134
 30
0.0
 10
159.729601799889
 20
40.71937394302356
 30
0.0
 10
160.024323263875
 20
41.37719790265639
 30
0.0
 10
160.5999086554063
 20
42.30440893396847
 30
0.0
 10
160.8137339741502
 20
42.60169950625433
 30
0.0
 10
161.273871682697
 20
43.15859201566802
 30
0.0
 10
161.5214506558633
 20
43.42049554510525
 30
0.0
 10
162.0520389296942
 20
43.91081612052288
 30
0.0
 10
162.3374069391662
 20
44.1406355752481
 30
0.0
 10
162.9340678286995
 20
44.5568246754479
 30
0.0
 10
163.5535402959951
 20
44.928456635877
 30
0.0
 10
164.2173864523133
 20
45.21341467164945
 30
0.0
 10
164.9040496926834
 20
45.45380468878093
 30
0.0
 10
165.2573460171835
 20
45.55075497799029
 30
0.0
 10
165.9654840073541
 20
45.69417876302989
 30
0.0
 10
166.3228351600328
 20
45.74159422079119
 30
0.0
 10
167.0441080197675
 20
45.78778647826343
 30
0.0
 10
167.4108563065492
 20
45.78638844410253
 30
0.0
 10
168.4984393437142
 20
45.70599874216491
 30
0.0
 10
169.2030672100951
 20
45.55460159833822
 30
0.0
 10
170.2292125813653
 20
45.18005841689406
 30
0.0
 10
170.5631617098956
 20
45.03094371631988
 30
0.0
 10
171.2007529559081
 20
44.69185759535576
 30
0.0
 10
171.5066665186627
 20
44.50109382637821
 30
0.0
 10
172.0926004811303
 20
44.07691223374243
 30
0.0
 10
172.3746042322176
 20
43.84138002453345
 30
0.0
 10
172.8980084351866
 20
43.33833918470875
 30
0.0
 10
173.1401630020779
 20
43.07080096540339
 30
0.0
 10
173.5855134202873
 20
42.50382043879596
 30
0.0
 10
173.7888051233958
 20
42.20445395598612
 30
0.0
 10
174.1551054809005
 20
41.5727269110338
 30
0.0
 10
174.3147370576553
 20
41.24586336321519
 30
0.0
 10
174.5856049145346
 20
40.57707270105413
 30
0.0
 10
174.6974102170028
 20
40.23416080198566
 30
0.0
 10
174.8731424631481
 20
39.53107998736792
 30
0.0
 10
174.9369762528387
 20
39.16877391752287
 30
0.0
 10
175.0121259318025
 20
38.44826045047905
 30
0.0
 10
175.0243651217859
 20
38.08781245642405
 30
0.0
 10
174.9982305526123
 20
37.36654357480791
 30
0.0
 10
174.9593624524442
 20
37.00407687701126
 30
0.0
 10
174.7644809289787
 20
35.92697591409765
 30
0.0
 10
174.5364532394688
 20
35.24286951392263
 30
0.0
 10
174.0487570996448
 20
34.26713036874037
 30
0.0
 10
173.86156533868
 20
33.95158919712216
 30
0.0
 10
173.4495709801161
 20
33.35770135691111
 30
0.0
 10
173.2235374625958
 20
33.07669946685318
 30
0.0
 10
172.7313072404572
 20
32.54665166989247
 30
0.0
 10
172.4626670301184
 20
32.29577300682778
 30
0.0
 10
171.8970743548983
 20
31.84025246400338
 30
0.0
 10
171.6003157769092
 20
31.63484794076267
 30
0.0
 10
170.6690085920417
 20
31.08433240698205
 30
0.0
 10
169.9866956238561
 20
30.8032993066794
 30
0.0
 10
169.2765836212027
 20
30.62692470857612
 30
0.0
  0
LINE
  5
12D
330
1F
100
AcDbEntity
  8
0
  6
Continuous
 62
     7
370
    25
100
AcDbLine
 10
159.1944805402
 20
37.8694929966
 30
0.0
 11
159.8284551364
 21
37.8694929966
 31
0.0
  0
SPLINE
  5
12E
330
1F
100
AcDbEntity
  8
0
  6
Continuous
 62
     7
370
    25
100
AcDbSpline
210
0.0
220
0.0
230
1.0
 70
     8
 71
     3
 72
    10
 73
     6
 74
     0
 42
0.00000001
 43
0.00000001
 40
0.0
 40
0.0
 40
0.0
 40
0.0
 40
0.5
 40
0.5
 40
1.0
 40
1.0
 40
1.0
 40
1.0
 10
156.1120051875584
 20
28.63101416840592
 30
0.0
 10
155.6364559836764
 20
29.21996265648527
 30
0.0
 10
155.2141200965352
 20
29.83775982856264
 30
0.0
 10
154.4710980555473
 20
31.12693623910584
 30
0.0
 10
154.1506097020603
 20
31.79943333550815
 30
0.0
 10
153.8861526245429
 20
32.48569008268056
 30
0.0
  0
SPLINE
  5
12F
330
1F
100
AcDbEntity
  8
0
  6
Continuous
 62
     7
370
    25
100
AcDbSpline
210
0.0
220
0.0
230
1.0
 70
     8
 71
     3
 72
    18
 73
    14
 74
     0
 42
0.00000001
 43
0.00000001
 40
0.0
 40
0.0
 40
0.0
 40
0.0
 40
0.125
 40
0.125
 40
0.2500000000000001
 40
0.2500000000000001
 40
0.5000000000000001
 40
0.5000000000000001
 40
0.6250000000000001
 40
0.6250000000000001
 40
0.75
 40
0.75
 40
1.0
 40
1.0
 40
1.0
 40
1.0
 10
153.8861526245429
 20
32.48569008268055
 30
0.0
 10
153.7266455738307
 20
32.89960522838366
 30
0.0
 10
153.5841584853723
 20
33.32403391452518
 30
0.0
 10
153.3354384687074
 20
34.19532897683703
 30
0.0
 10
153.2287560643957
 20
34.64473399266764
 30
0.0
 10
152.971684362763
 20
36.01051270132211
 30
0.0
 10
152.8841641205154
 20
36.93622830514727
 30
0.0
 10
152.8849587822894
 20
38.34875997641551
 30
0.0
 10
152.9078652235499
 20
38.82581399662355
 30
0.0
 10
152.9973500964638
 20
39.76210400390584
 30
0.0
 10
153.0633084175713
 20
40.2200896257663
 30
0.0
 10
153.3194911544403
 20
41.56614833405407
 30
0.0
 10
153.567554257463
 20
42.42654443500465
 30
0.0
 10
153.8861526245429
 20
43.25329591051534
 30
0.0
  0
SPLINE
  5
130
330
1F
100
AcDbEntity
  8
0
  6
Continuous
 62
     7
370
    25
100
AcDbSpline
210
0.0
220
0.0
230
1.0
 70
     8
 71
     3
 72
    10
 73
     6
 74
     0
 42
0.00000001
 43
0.00000001
 40
0.0
 40
0.0
 40
0.0
 40
0.0
 40
0.5000000000000002
 40
0.5000000000000002
 40
1.0
 40
1.0
 40
1.0
 40
1.0
 10
153.8861526245429
 20
43.25329591051534
 30
0.0
 10
154.1513917546086
 20
43.94158205634474
 30
0.0
 10
154.4717791252849
 20
44.61320155771161
 30
0.0
 10
155.2131506262686
 20
45.89957396159703
 30
0.0
 10
155.6349647076382
 20
46.51717645154955
 30
0.0
 10
156.1120051875584
 20
47.10797182478995
 30
0.0
  0
SPLINE
  5
131
330
1F
100
AcDbEntity
  8
0
  6
Continuous
 62
     7
370
    25
100
AcDbSpline
210
0.0
220
0.0
230
1.0
 70
     8
 71
     3
 72
    20
 73
    16
 74
     0
 42
0.00000001
 43
0.00000001
 40
0.0
 40
0.0
 40
0.0
 40
0.0
 40
0.2499999999999991
 40
0.2499999999999991
 40
0.3749999999999992
 40
0.3749999999999992
 40
0.4999999999999993
 40
0.4999999999999993
 40
0.6249999999999994
 40
0.6249999999999994
 40
0.7499999999999996
 40
0.7499999999999996
 40
0.8749999999999998
 40
0.8749999999999998
 40
1.0
 40
1.0
 40
1.0
 40
1.0
 10
156.1120051875584
 20
47.10797182478995
 30
0.0
 10
156.7875826614022
 20
47.94464724881087
 30
0.0
 10
157.540847053926
 20
48.69034166656581
 30
0.0
 10
158.7780516321654
 20
49.67775786138477
 30
0.0
 10
159.2084979612303
 20
49.98486896641054
 30
0.0
 10
160.1055882642906
 20
50.55382022786571
 30
0.0
 10
160.5667109849091
 20
50.81207107634884
 30
0.0
 10
161.5089879955712
 20
51.27563984475572
 30
0.0
 10
161.9907103098328
 20
51.48129580651371
 30
0.0
 10
162.973613804026
 20
51.84045287291185
 30
0.0
 10
163.4763633868465
 20
51.99410703363576
 30
0.0
 10
164.4813859809652
 20
52.24462930721938
 30
0.0
 10
164.985614099417
 20
52.34225010709169
 30
0.0
 10
165.9889533466146
 20
52.4848943388613
 30
0.0
 10
166.4891936853203
 20
52.52961659423342
 30
0.0
 10
166.9731907860572
 20
52.55115751384068
 30
0.0
  0
SPLINE
  5
132
330
1F
100
AcDbEntity
  8
0
  6
Continuous
 62
     7
370
    25
100
AcDbSpline
210
0.0
220
0.0
230
1.0
 70
     8
 71
     3
 72
    10
 73
     6
 74
     0
 42
0.00000001
 43
0.00000001
 40
0.0
 40
0.0
 40
0.0
 40
0.0
 40
0.5
 40
0.5
 40
1.0
 40
1.0
 40
1.0
 40
1.0
 10
167.6837194867217
 20
52.55115751384067
 30
0.0
 10
167.5752071265277
 20
52.55598699737224
 30
0.0
 10
167.453956948037
 20
52.55911344937556
 30
0.0
 10
167.2020190464469
 20
52.55909854404579
 30
0.0
 10
167.0817302921814
 20
52.55598820553713
 30
0.0
 10
166.9731907860571
 20
52.55115751384068
 30
0.0
  0
SPLINE
  5
133
330
1F
100
AcDbEntity
  8
0
  6
Continuous
 62
     7
370
    25
100
AcDbSpline
210
0.0
220
0.0
230
1.0
 70
     8
 71
     3
 72
    20
 73
    16
 74
     0
 42
0.00000001
 43
0.00000001
 40
0.0
 40
0.0
 40
0.0
 40
0.0
 40
0.2499999999999991
 40
0.2499999999999991
 40
0.3749999999999992
 40
0.3749999999999992
 40
0.4999999999999993
 40
0.4999999999999993
 40
0.6249999999999994
 40
0.6249999999999994
 40
0.7499999999999996
 40
0.7499999999999996
 40
0.8749999999999998
 40
0.8749999999999998
 40
1.0
 40
1.0
 40
1.0
 40
1.0
 10
178.5449050852205
 20
47.10797182478995
 30
0.0
 10
177.8693276113767
 20
47.94464724881087
 30
0.0
 10
177.1160632188528
 20
48.69034166656581
 30
0.0
 10
175.8788586406135
 20
49.67775786138477
 30
0.0
 10
175.4484123115486
 20
49.98486896641054
 30
0.0
 10
174.5513220084883
 20
50.55382022786571
 30
0.0
 10
174.0901992878698
 20
50.81207107634884
 30
0.0
 10
173.1479222772077
 20
51.27563984475572
 30
0.0
 10
172.6661999629461
 20
51.48129580651371
 30
0.0
 10
171.6832964687529
 20
51.84045287291185
 30
0.0
 10
171.1805468859324
 20
51.99410703363576
 30
0.0
 10
170.1755242918137
 20
52.24462930721938
 30
0.0
 10
169.6712961733619
 20
52.34225010709169
 30
0.0
 10
168.6679569261643
 20
52.4848943388613
 30
0.0
 10
168.1677165874586
 20
52.52961659423342
 30
0.0
 10
167.6837194867217
 20
52.55115751384068
 30
0.0
  0
SPLINE
  5
134
330
1F
100
AcDbEntity
  8
0
  6
Continuous
 62
     7
370
    25
100
AcDbSpline
210
0.0
220
0.0
230
1.0
 70
     8
 71
     3
 72
    10
 73
     6
 74
     0
 42
0.00000001
 43
0.00000001
 40
0.0
 40
0.0
 40
0.0
 40
0.0
 40
0.5000000000000002
 40
0.5000000000000002
 40
1.0
 40
1.0
 40
1.0
 40
1.0
 10
180.770757648236
 20
43.25329591051534
 30
0.0
 10
180.5055185181702
 20
43.94158205634474
 30
0.0
 10
180.185131147494
 20
44.61320155771161
 30
0.0
 10
179.4437596465103
 20
45.89957396159703
 30
0.0
 10
179.0219455651407
 20
46.51717645154955
 30
0.0
 10
178.5449050852205
 20
47.10797182478995
 30
0.0
  0
SPLINE
  5
135
330
1F
100
AcDbEntity
  8
0
  6
Continuous
 62
     7
370
    25
100
AcDbSpline
210
0.0
220
0.0
230
1.0
 70
     8
 71
     3
 72
    18
 73
    14
 74
     0
 42
0.00000001
 43
0.00000001
 40
0.0
 40
0.0
 40
0.0
 40
0.0
 40
0.125
 40
0.125
 40
0.2500000000000001
 40
0.2500000000000001
 40
0.5000000000000001
 40
0.5000000000000001
 40
0.6250000000000001
 40
0.6250000000000001
 40
0.75
 40
0.75
 40
1.0
 40
1.0
 40
1.0
 40
1.0
 10
180.770757648236
 20
32.48569008268055
 30
0.0
 10
180.9302646989482
 20
32.89960522838366
 30
0.0
 10
181.0727517874066
 20
33.32403391452518
 30
0.0
 10
181.3214718040715
 20
34.19532897683703
 30
0.0
 10
181.4281542083832
 20
34.64473399266764
 30
0.0
 10
181.6852259100158
 20
36.01051270132211
 30
0.0
 10
181.7727461522635
 20
36.93622830514727
 30
0.0
 10
181.7719514904894
 20
38.34875997641551
 30
0.0
 10
181.749045049229
 20
38.82581399662355
 30
0.0
 10
181.6595601763151
 20
39.76210400390584
 30
0.0
 10
181.5936018552076
 20
40.2200896257663
 30
0.0
 10
181.3374191183386
 20
41.56614833405407
 30
0.0
 10
181.0893560153159
 20
42.42654443500465
 30
0.0
 10
180.770757648236
 20
43.25329591051534
 30
0.0
  0
SPLINE
  5
136
330
1F
100
AcDbEntity
  8
0
  6
Continuous
 62
     7
370
    25
100
AcDbSpline
210
0.0
220
0.0
230
1.0
 70
     8
 71
     3
 72
    10
 73
     6
 74
     0
 42
0.00000001
 43
0.00000001
 40
0.0
 40
0.0
 40
0.0
 40
0.0
 40
0.5
 40
0.5
 40
1.0
 40
1.0
 40
1.0
 40
1.0
 10
178.5449050852205
 20
28.63101416840592
 30
0.0
 10
179.0204542891025
 20
29.21996265648527
 30
0.0
 10
179.4427901762437
 20
29.83775982856264
 30
0.0
 10
180.1858122172316
 20
31.12693623910584
 30
0.0
 10
180.5063005707186
 20
31.79943333550815
 30
0.0
 10
180.770757648236
 20
32.48569008268056
 30
0.0
  0
SPLINE
  5
137
330
1F
100
AcDbEntity
  8
0
  6
Continuous
 62
     7
370
    25
100
AcDbSpline
210
0.0
220
0.0
230
1.0
 70
     8
 71
     3
 72
    20
 73
    16
 74
     0
 42
0.00000001
 43
0.00000001
 40
0.0
 40
0.0
 40
0.0
 40
0.0
 40
0.1249999999999999
 40
0.1249999999999999
 40
0.2499999999999999
 40
0.2499999999999999
 40
0.3749999999999998
 40
0.3749999999999998
 40
0.4999999999999998
 40
0.4999999999999998
 40
0.6249999999999998
 40
0.6249999999999998
 40
0.7499999999999996
 40
0.7499999999999996
 40
1.0
 40
1.0
 40
1.0
 40
1.0
 10
167.6837194867217
 20
23.18782847935519
 30
0.0
 10
168.1670441467541
 20
23.2093394711155
 30
0.0
 10
168.6665711892756
 20
23.25396646899246
 30
0.0
 10
169.6684999805993
 20
23.39626682779522
 30
0.0
 10
170.1720256240376
 20
23.49364046004763
 30
0.0
 10
171.1756675278534
 20
23.7435080884917
 30
0.0
 10
171.6779487193113
 20
23.89684668927062
 30
0.0
 10
172.6583047526018
 20
24.25454117624038
 30
0.0
 10
173.1380894509219
 20
24.45906037050898
 30
0.0
 10
174.0753680510531
 20
24.91908113183083
 30
0.0
 10
174.532884491496
 20
25.17457587281613
 30
0.0
 10
175.4240983714185
 20
25.73764487826646
 30
0.0
 10
175.8591767132824
 20
26.04650171850039
 30
0.0
 10
177.1068190464024
 20
27.03935927059686
 30
0.0
 10
177.870324314309
 20
27.79557312072341
 30
0.0
 10
178.5449050852205
 20
28.63101416840593
 30
0.0
  0
SPLINE
  5
138
330
1F
100
AcDbEntity
  8
0
  6
Continuous
 62
     7
370
    25
100
AcDbSpline
210
0.0
220
0.0
230
1.0
 70
     8
 71
     3
 72
    10
 73
     6
 74
     0
 42
0.00000001
 43
0.00000001
 40
0.0
 40
0.0
 40
0.0
 40
0.0
 40
0.5
 40
0.5
 40
1.0
 40
1.0
 40
1.0
 40
1.0
 10
166.9731907860571
 20
23.18782847935519
 30
0.0
 10
167.0817031462512
 20
23.18299899582362
 30
0.0
 10
167.2029533247419
 20
23.17987254382031
 30
0.0
 10
167.4548912263319
 20
23.17988744915008
 30
0.0
 10
167.5751799805976
 20
23.18299778765874
 30
0.0
 10
167.6837194867218
 20
23.18782847935519
 30
0.0
  0
SPLINE
  5
139
330
1F
100
AcDbEntity
  8
0
  6
Continuous
 62
     7
370
    25
100
AcDbSpline
210
0.0
220
0.0
230
1.0
 70
     8
 71
     3
 72
    20
 73
    16
 74
     0
 42
0.00000001
 43
0.00000001
 40
0.0
 40
0.0
 40
0.0
 40
0.0
 40
0.1249999999999999
 40
0.1249999999999999
 40
0.2499999999999999
 40
0.2499999999999999
 40
0.3749999999999998
 40
0.3749999999999998
 40
0.4999999999999998
 40
0.4999999999999998
 40
0.6249999999999998
 40
0.6249999999999998
 40
0.7499999999999996
 40
0.7499999999999996
 40
1.0
 40
1.0
 40
1.0
 40
1.0
 10
166.9731907860571
 20
23.18782847935519
 30
0.0
 10
166.4898661260249
 20
23.2093394711155
 30
0.0
 10
165.9903390835033
 20
23.25396646899246
 30
0.0
 10
164.9884102921797
 20
23.39626682779522
 30
0.0
 10
164.4848846487413
 20
23.49364046004763
 30
0.0
 10
163.4812427449255
 20
23.7435080884917
 30
0.0
 10
162.9789615534676
 20
23.89684668927062
 30
0.0
 10
161.9986055201771
 20
24.25454117624038
 30
0.0
 10
161.518820821857
 20
24.45906037050898
 30
0.0
 10
160.5815422217258
 20
24.91908113183083
 30
0.0
 10
160.1240257812829
 20
25.17457587281613
 30
0.0
 10
159.2328119013604
 20
25.73764487826646
 30
0.0
 10
158.7977335594965
 20
26.04650171850039
 30
0.0
 10
157.5500912263765
 20
27.03935927059686
 30
0.0
 10
156.7865859584699
 20
27.79557312072341
 30
0.0
 10
156.1120051875584
 20
28.63101416840593
 30
0.0
  0
CIRCLE
  5
13A
330
1F
100
AcDbEntity
  8
0
  6
Continuous
 62
     7
370
    25
100
AcDbCircle
 10
167.3284551364
 20
37.8694929966
 30
0.0
 40
14.0
  0
SPLINE
  5
13B
330
1F
100
AcDbEntity
  8
0
  6
Continuous
 62
     7
370
    25
100
AcDbSpline
210
0.0
220
0.0
230
1.0
 70
     8
 71
     3
 72
    46
 73
    42
 74
     0
 42
0.00000001
 43
0.00000001
 40
0.0
 40
0.0
 40
0.0
 40
0.0
 40
0.0458029287828358
 40
0.0786067049581617
 40
0.1179911219530893
 40
0.1508102205931114
 40
0.1771845171380174
 40
0.1965226266789642
 40
0.2158605438927488
 40
0.2351982710292723
 40
0.2559602895599729
 40
0.2944093884181209
 40
0.3335055307260676
 40
0.3424035264218009
 40
0.3492288855083053
 40
0.3539815012672813
 40
0.4121658209534332
 40
0.4254017814130233
 40
0.4395919714879406
 40
0.4547363475537174
 40
0.4708348622117539
 40
0.4773469067863764
 40
0.4894542080650185
 40
0.5071553855677848
 40
0.5304484209405724
 40
0.5631588805620321
 40
0.5896161032168484
 40
0.6089548022413735
 40
0.6282933258652937
 40
0.6476316759615282
 40
0.6682762963274861
 40
0.6853391016432073
 40
0.7068927369443012
 40
0.776399864384554
 40
0.8032144521127845
 40
0.8246814441440135
 40
0.869667056751664
 40
0.8909241977304202
 40
0.9153030189529858
 40
0.9428026546719188
 40
0.9999999999999999
 40
0.9999999999999999
 40
0.9999999999999999
 40
0.9999999999999999
 10
159.8284551363894
 20
37.86949299659793
 30
0.0
 10
159.850171638674
 20
38.30735715261714
 30
0.0
 10
159.8874413664657
 20
39.058816926885
 30
0.0
 10
160.1624203864676
 20
40.1559485809636
 30
0.0
 10
160.5291775085705
 20
41.09213646049083
 30
0.0
 10
160.9933136372948
 20
41.91373317350042
 30
0.0
 10
161.4336120117245
 20
42.52193350138339
 30
0.0
 10
161.8406270379264
 20
42.9916061974567
 30
0.0
 10
162.2335278339691
 20
43.38257856502474
 30
0.0
 10
162.6645594508717
 20
43.75235967352357
 30
0.0
 10
163.2698468305187
 20
44.19602567017216
 30
0.0
 10
164.0874707997549
 20
44.66359469640269
 30
0.0
 10
164.85963185841
 20
44.96408482808201
 30
0.0
 10
165.3626249120003
 20
45.10845057328474
 30
0.0
 10
165.5520579685784
 20
45.15671776142121
 30
0.0
 10
166.2007368091444
 20
45.30684884056617
 30
0.0
 10
166.9319513112843
 20
45.38538074821452
 30
0.0
 10
167.7488104064699
 20
45.36112856055436
 30
0.0
 10
168.1540570114649
 20
45.3278645747097
 30
0.0
 10
168.5838343474549
 20
45.26819542541936
 30
0.0
 10
168.9374604340699
 20
45.19739477443308
 30
0.0
 10
169.2593129874475
 20
45.11836818561405
 30
0.0
 10
169.592972269109
 20
45.02375378575752
 30
0.0
 10
170.0723260176261
 20
44.8578303415927
 30
0.0
 10
170.7179332055049
 20
44.57608869465964
 30
0.0
 10
171.4035130477626
 20
44.18494138861075
 30
0.0
 10
172.0093684487217
 20
43.74177966085554
 30
0.0
 10
172.4776362014067
 20
43.33193721017523
 30
0.0
 10
172.8666741014516
 20
42.93708713578476
 30
0.0
 10
173.2335892927688
 20
42.50509555485623
 30
0.0
 10
173.5537564150182
 20
42.06393293563357
 30
0.0
 10
173.8524043718575
 20
41.58300897142706
 30
0.0
 10
174.3313215168749
 20
40.66817220291074
 30
0.0
 10
174.6773122917026
 20
39.57988249531627
 30
0.0
 10
174.8156064154611
 20
38.46279297568873
 30
0.0
 10
174.8436275934091
 20
37.57208271429428
 30
0.0
 10
174.7629734015699
 20
36.73384536077804
 30
0.0
 10
174.572405259201
 20
35.88921926009645
 30
0.0
 10
174.3583105532184
 20
35.22413817339925
 30
0.0
 10
173.9511583711235
 20
34.26161592185544
 30
0.0
 10
173.4774343642502
 20
33.60200522995154
 30
0.0
 10
173.1575202979355
 20
33.15655865014984
 30
0.0
  0
ARC
  5
13C
330
1F
100
AcDbEntity
  8
0
  6
Continuous
 62
     7
370
    25
100
AcDbCircle
 10
162.4357125496
 20
40.8121342214
 30
0.0
 40
1.79165783485714
100
AcDbArc
 50
143.4915919607
 51
151.3529909562
  0
LWPOLYLINE
  5
13D
330
1F
100
AcDbEntity
  8
0
  6
Continuous
 62
     7
370
    25
100
AcDbPolyline
 90
        9
 70
   128
 43
0.0
 10
180.7707576482
 20
43.2532959105
 10
180.9774876193
 20
43.0503178445
 10
181.3200570531
 20
42.9060247625
 10
181.7933357798
 20
42.8225775344
 10
182.3902361845
 20
42.8012258294
 10
183.101819348
 20
42.8422894013
 10
183.9174289126
 20
42.9451533001
 10
184.8248506665
 20
43.1082770809
 10
185.810495459
 20
43.3292178736
  0
SPLINE
  5
13E
330
1F
100
AcDbEntity
  8
0
  6
Continuous
 62
     7
370
    25
100
AcDbSpline
210
0.0
220
0.0
230
1.0
 70
     8
 71
     3
 72
    22
 73
    18
 74
     0
 42
0.00000001
 43
0.00000001
 40
0.0
 40
0.0
 40
0.0
 40
0.0
 40
0.2500000000000001
 40
0.2500000000000001
 40
0.3750000000000001
 40
0.3750000000000001
 40
0.4375000000000001
 40
0.4375000000000001
 40
0.5000000000000001
 40
0.5000000000000001
 40
0.6250000000000001
 40
0.6250000000000001
 40
0.7500000000000002
 40
0.7500000000000002
 40
0.8750000000000002
 40
0.8750000000000002
 40
1.0
 40
1.0
 40
1.0
 40
1.0
 10
185.8104954590038
 20
43.32921787358547
 30
0.0
 10
186.257828750352
 20
42.49153729801824
 30
0.0
 10
186.605920892997
 20
41.61943365229596
 30
0.0
 10
186.9654277355954
 20
40.25485780742571
 30
0.0
 10
187.057992006708
 20
39.79053823773576
 30
0.0
 10
187.1522200492633
 20
39.07857932125594
 30
0.0
 10
187.1760594332675
 20
38.83890427957041
 30
0.0
 10
187.2078266907436
 20
38.36242686293181
 30
0.0
 10
187.2159043596008
 20
38.12462280699338
 30
0.0
 10
187.2170558412443
 20
37.41249587128971
 30
0.0
 10
187.1870993526865
 20
36.93945537384057
 30
0.0
 10
187.0662528283326
 20
35.99676726469828
 30
0.0
 10
186.9747162929153
 20
35.52499914110999
 30
0.0
 10
186.7332652968988
 20
34.59767288054415
 30
0.0
 10
186.5838092896232
 20
34.14311261786281
 30
0.0
 10
186.2346123206945
 20
33.25959954180642
 30
0.0
 10
186.034531209386
 20
32.82929959638061
 30
0.0
 10
185.8104954590038
 20
32.40976811961042
 30
0.0
  0
LWPOLYLINE
  5
13F
330
1F
100
AcDbEntity
  8
0
  6
Continuous
 62
     7
370
    25
100
AcDbPolyline
 90
        9
 70
   128
 43
0.0
 10
180.7707576482
 20
32.4856900827
 10
180.9774876193
 20
32.6886681487
 10
181.3200570531
 20
32.8329612307
 10
181.7933357798
 20
32.9164084588
 10
182.3902361845
 20
32.9377601638
 10
183.101819348
 20
32.8966965918
 10
183.9174289126
 20
32.7938326931
 10
184.8248506665
 20
32.6307089123
 10
185.810495459
 20
32.4097681196
  0
SPLINE
  5
140
330
1F
100
AcDbEntity
  8
0
  6
Continuous
 62
     7
370
    25
100
AcDbSpline
210
0.0
220
0.0
230
1.0
 70
     8
 71
     3
 72
    22
 73
    18
 74
     0
 42
0.00000001
 43
0.00000001
 40
0.0
 40
0.0
 40
0.0
 40
0.0
 40
0.2500000000000001
 40
0.2500000000000001
 40
0.3750000000000001
 40
0.3750000000000001
 40
0.4375000000000001
 40
0.4375000000000001
 40
0.5000000000000001
 40
0.5000000000000001
 40
0.6250000000000001
 40
0.6250000000000001
 40
0.7500000000000002
 40
0.7500000000000002
 40
0.8750000000000002
 40
0.8750000000000002
 40
1.0
 40
1.0
 40
1.0
 40
1.0
 10
148.8464148137751
 20
43.32921787358547
 30
0.0
 10
148.3990815224268
 20
42.49153729801824
 30
0.0
 10
148.0509893797819
 20
41.61943365229596
 30
0.0
 10
147.6914825371834
 20
40.25485780742571
 30
0.0
 10
147.5989182660709
 20
39.79053823773576
 30
0.0
 10
147.5046902235156
 20
39.07857932125594
 30
0.0
 10
147.4808508395113
 20
38.83890427957041
 30
0.0
 10
147.4490835820353
 20
38.36242686293181
 30
0.0
 10
147.4410059131781
 20
38.12462280699338
 30
0.0
 10
147.4398544315345
 20
37.41249587128971
 30
0.0
 10
147.4698109200923
 20
36.93945537384057
 30
0.0
 10
147.5906574444463
 20
35.99676726469828
 30
0.0
 10
147.6821939798636
 20
35.52499914110999
 30
0.0
 10
147.9236449758801
 20
34.59767288054415
 30
0.0
 10
148.0731009831557
 20
34.14311261786281
 30
0.0
 10
148.4222979520843
 20
33.25959954180642
 30
0.0
 10
148.6223790633929
 20
32.82929959638061
 30
0.0
 10
148.8464148137751
 20
32.40976811961042
 30
0.0
  0
LWPOLYLINE
  5
141
330
1F
100
AcDbEntity
  8
0
  6
Continuous
 62
     7
370
    25
100
AcDbPolyline
 90
        9
 70
   128
 43
0.0
 10
153.8861526245
 20
43.2532959105
 10
153.6794226535
 20
43.0503178445
 10
153.3368532197
 20
42.9060247625
 10
152.8635744929
 20
42.8225775344
 10
152.2666740883
 20
42.8012258294
 10
151.5550909248
 20
42.8422894013
 10
150.7394813602
 20
42.9451533001
 10
149.8320596062
 20
43.1082770809
 10
148.8464148138
 20
43.3292178736
  0
LWPOLYLINE
  5
142
330
1F
100
AcDbEntity
  8
0
  6
Continuous
 62
     7
370
    25
100
AcDbPolyline
 90
        9
 70
   128
 43
0.0
 10
153.8861526245
 20
32.4856900827
 10
153.6794226535
 20
32.6886681487
 10
153.3368532197
 20
32.8329612307
 10
152.8635744929
 20
32.9164084588
 10
152.2666740883
 20
32.9377601638
 10
151.5550909248
 20
32.8966965918
 10
150.7394813602
 20
32.7938326931
 10
149.8320596062
 20
32.6307089123
 10
148.8464148138
 20
32.4097681196
  0
ARC
  5
143
330
1F
100
AcDbEntity
  8
0
  6
Continuous
 62
     7
370
    25
100
AcDbCircle
 10
179.0022786203
 20
48.4455278977
 30
0.0
 40
1.413593576234195
100
AcDbArc
 50
251.1220212338
 51
300.2845402208
  0
SPLINE
  5
144
330
1F
100
AcDbEntity
  8
0
  6
Continuous
 62
     7
370
    25
100
AcDbSpline
210
0.0
220
0.0
230
1.0
 70
     8
 71
     3
 72
    14
 73
    10
 74
     0
 42
0.00000001
 43
0.00000001
 40
0.0
 40
0.0
 40
0.0
 40
0.0
 40
0.2500000000000001
 40
0.2500000000000001
 40
0.5000000000000002
 40
0.5000000000000002
 40
0.7500000000000001
 40
0.7500000000000001
 40
1.0
 40
1.0
 40
1.0
 40
1.0
 10
179.7151462846875
 20
47.22484510035761
 30
0.0
 10
180.1982307345895
 20
46.84144756761764
 30
0.0
 10
180.6757097451822
 20
46.45872087611912
 30
0.0
 10
181.6366050593132
 20
45.71983370824999
 30
0.0
 10
182.1202275788876
 20
45.36394102764358
 30
0.0
 10
183.113494151223
 20
44.6977513742088
 30
0.0
 10
183.6232974191011
 20
44.38751625374194
 30
0.0
 10
184.6855523262749
 20
43.81915269645737
 30
0.0
 10
185.2384677464567
 20
43.56092465794718
 30
0.0
 10
185.8104954590038
 20
43.32921787358547
 30
0.0
  0
SPLINE
  5
145
330
1F
100
AcDbEntity
  8
0
  6
Continuous
 62
     7
370
    25
100
AcDbSpline
210
0.0
220
0.0
230
1.0
 70
     8
 71
     3
 72
    14
 73
    10
 74
     0
 42
0.00000001
 43
0.00000001
 40
0.0
 40
0.0
 40
0.0
 40
0.0
 40
0.2500000000000001
 40
0.2500000000000001
 40
0.5000000000000002
 40
0.5000000000000002
 40
0.7500000000000001
 40
0.7500000000000001
 40
1.0
 40
1.0
 40
1.0
 40
1.0
 10
154.9417639880913
 20
47.22484510035761
 30
0.0
 10
154.4586795381894
 20
46.84144756761764
 30
0.0
 10
153.9812005275967
 20
46.45872087611912
 30
0.0
 10
153.0203052134657
 20
45.71983370824999
 30
0.0
 10
152.5366826938913
 20
45.36394102764358
 30
0.0
 10
151.5434161215559
 20
44.6977513742088
 30
0.0
 10
151.0336128536778
 20
44.38751625374194
 30
0.0
 10
149.971357946504
 20
43.81915269645737
 30
0.0
 10
149.4184425263222
 20
43.56092465794718
 30
0.0
 10
148.8464148137751
 20
43.32921787358547
 30
0.0
  0
ARC
  5
146
330
1F
100
AcDbEntity
  8
0
  6
Continuous
 62
     7
370
    25
100
AcDbCircle
 10
155.6546316525
 20
48.4455278977
 30
0.0
 40
1.413593576234302
100
AcDbArc
 50
239.7154597792
 51
288.8779787662
  0
SPLINE
  5
147
330
1F
100
AcDbEntity
  8
0
  6
Continuous
 62
     7
370
    25
100
AcDbSpline
210
0.0
220
0.0
230
1.0
 70
     8
 71
     3
 72
    14
 73
    10
 74
     0
 42
0.00000001
 43
0.00000001
 40
0.0
 40
0.0
 40
0.0
 40
0.0
 40
0.25
 40
0.25
 40
0.5
 40
0.5
 40
0.75
 40
0.75
 40
1.0
 40
1.0
 40
1.0
 40
1.0
 10
148.8464148137751
 20
32.40976811961042
 30
0.0
 10
149.4168328823382
 20
32.17871334112767
 30
0.0
 10
149.9647773108647
 20
31.92299241039657
 30
0.0
 10
151.0246133390471
 20
31.35664156328846
 30
0.0
 10
151.5375577843919
 20
31.04499548372122
 30
0.0
 10
152.5345214533004
 20
30.37666152947121
 30
0.0
 10
153.0191060514631
 20
30.02005973503483
 30
0.0
 10
153.9810468709844
 20
29.28039790572501
 30
0.0
 10
154.4586086523148
 20
28.89759468379442
 30
0.0
 10
154.9417639880913
 20
28.51414089283823
 30
0.0
  0
ARC
  5
148
330
1F
100
AcDbEntity
  8
0
  6
Continuous
 62
     7
370
    25
100
AcDbCircle
 10
155.6546316525
 20
27.2934580955
 30
0.0
 40
1.413593576234376
100
AcDbArc
 50
71.1220212338
 51
120.2845402208
  0
SPLINE
  5
149
330
1F
100
AcDbEntity
  8
0
  6
Continuous
 62
     7
370
    25
100
AcDbSpline
210
0.0
220
0.0
230
1.0
 70
     8
 71
     3
 72
    14
 73
    10
 74
     0
 42
0.00000001
 43
0.00000001
 40
0.0
 40
0.0
 40
0.0
 40
0.0
 40
0.25
 40
0.25
 40
0.5
 40
0.5
 40
0.75
 40
0.75
 40
1.0
 40
1.0
 40
1.0
 40
1.0
 10
185.8104954590038
 20
32.40976811961042
 30
0.0
 10
185.2400773904407
 20
32.17871334112767
 30
0.0
 10
184.6921329619142
 20
31.92299241039657
 30
0.0
 10
183.6322969337319
 20
31.35664156328846
 30
0.0
 10
183.1193524883871
 20
31.04499548372122
 30
0.0
 10
182.1223888194785
 20
30.37666152947121
 30
0.0
 10
181.6378042213157
 20
30.02005973503483
 30
0.0
 10
180.6758634017945
 20
29.28039790572501
 30
0.0
 10
180.1983016204641
 20
28.89759468379442
 30
0.0
 10
179.7151462846875
 20
28.51414089283823
 30
0.0
  0
ARC
  5
14A
330
1F
100
AcDbEntity
  8
0
  6
Continuous
 62
     7
370
    25
100
AcDbCircle
 10
179.0022786203
 20
27.2934580955
 30
0.0
 40
1.413593576234275
100
AcDbArc
 50
59.7154597792
 51
108.8779787662
  0
CIRCLE
  5
14B
330
1F
100
AcDbEntity
  8
0
  6
Continuous
 62
     7
370
    25
100
AcDbCircle
 10
167.3284551364
 20
37.8694929966
 30
0.0
 40
7.349999999999994
  0
ARC
  5
14C
330
1F
100
AcDbEntity
  8
0
  6
Continuous
 62
     7
370
    25
100
AcDbCircle
 10
167.5940081746
 20
53.6918471682
 30
0.0
 40
1.144211958952756
100
AcDbArc
 50
274.4968594967
 51
286.8396396658
  0
SPLINE
  5
14D
330
1F
100
AcDbEntity
  8
0
  6
Continuous
 62
     7
370
    25
100
AcDbSpline
210
0.0
220
0.0
230
1.0
 70
     8
 71
     3
 72
    22
 73
    18
 74
     0
 42
0.00000001
 43
0.00000001
 40
0.0
 40
0.0
 40
0.0
 40
0.0
 40
0.0625
 40
0.0625
 40
0.1249999999999999
 40
0.1249999999999999
 40
0.2499999999999999
 40
0.2499999999999999
 40
0.3749999999999999
 40
0.3749999999999999
 40
0.5
 40
0.5
 40
0.6249999999999999
 40
0.6249999999999999
 40
0.7499999999999999
 40
0.7499999999999999
 40
1.0
 40
1.0
 40
1.0
 40
1.0
 10
167.9254795621196
 20
52.59669981449289
 30
0.0
 10
168.1946981972612
 20
52.5879096014029
 30
0.0
 10
168.4652707420724
 20
52.57269904304992
 30
0.0
 10
169.0063887197515
 20
52.52875770749053
 30
0.0
 10
169.2770012285547
 20
52.50004973014581
 30
0.0
 10
170.0874048857218
 20
52.39341730907728
 30
0.0
 10
170.6257115310896
 20
52.29501277187045
 30
0.0
 10
171.6953140819249
 20
52.04275919460592
 30
0.0
 10
172.227327453891
 20
51.88872442189293
 30
0.0
 10
173.2807759485651
 20
51.52454296484857
 30
0.0
 10
173.7952450878667
 20
51.31689066798697
 30
0.0
 10
174.800580294501
 20
50.8525663902978
 30
0.0
 10
175.2914420704077
 20
50.59588008996954
 30
0.0
 10
176.2501866971495
 20
50.03459828981411
 30
0.0
 10
176.7196581837934
 20
49.7287913921574
 30
0.0
 10
178.0823317250021
 20
48.74944597571087
 30
0.0
 10
178.9243604349085
 20
48.01757059217383
 30
0.0
 10
179.7151462846894
 20
47.22484510035908
 30
0.0
  0
SPLINE
  5
14E
330
1F
100
AcDbEntity
  8
0
  6
Continuous
 62
     7
370
    25
100
AcDbSpline
210
0.0
220
0.0
230
1.0
 70
     8
 71
     3
 72
    22
 73
    18
 74
     0
 42
0.00000001
 43
0.00000001
 40
0.0
 40
0.0
 40
0.0
 40
0.0
 40
0.0625
 40
0.0625
 40
0.1249999999999999
 40
0.1249999999999999
 40
0.2499999999999999
 40
0.2499999999999999
 40
0.3749999999999999
 40
0.3749999999999999
 40
0.5
 40
0.5
 40
0.6249999999999999
 40
0.6249999999999999
 40
0.7499999999999999
 40
0.7499999999999999
 40
1.0
 40
1.0
 40
1.0
 40
1.0
 10
166.7314307106593
 20
52.59669981449289
 30
0.0
 10
166.4622120755176
 20
52.58790960140289
 30
0.0
 10
166.1916395307065
 20
52.57269904304992
 30
0.0
 10
165.6505215530274
 20
52.52875770749053
 30
0.0
 10
165.3799090442242
 20
52.50004973014581
 30
0.0
 10
164.5695053870571
 20
52.39341730907728
 30
0.0
 10
164.0311987416893
 20
52.29501277187045
 30
0.0
 10
162.9615961908539
 20
52.04275919460592
 30
0.0
 10
162.4295828188879
 20
51.88872442189293
 30
0.0
 10
161.3761343242138
 20
51.52454296484857
 30
0.0
 10
160.8616651849122
 20
51.31689066798697
 30
0.0
 10
159.8563299782779
 20
50.8525663902978
 30
0.0
 10
159.3654682023711
 20
50.59588008996954
 30
0.0
 10
158.4067235756293
 20
50.03459828981411
 30
0.0
 10
157.9372520889855
 20
49.7287913921574
 30
0.0
 10
156.5745785477768
 20
48.74944597571087
 30
0.0
 10
155.7325498378704
 20
48.01757059217383
 30
0.0
 10
154.9417639880895
 20
47.22484510035908
 30
0.0
  0
ARC
  5
14F
330
1F
100
AcDbEntity
  8
0
  6
Continuous
 62
     7
370
    25
100
AcDbCircle
 10
167.0629020982
 20
53.6918471682
 30
0.0
 40
1.144211958953579
100
AcDbArc
 50
253.1603603342
 51
265.5031405033
  0
SPLINE
  5
150
330
1F
100
AcDbEntity
  8
0
  6
Continuous
 62
     7
370
    25
100
AcDbSpline
210
0.0
220
0.0
230
1.0
 70
     8
 71
     3
 72
    20
 73
    16
 74
     0
 42
0.00000001
 43
0.00000001
 40
0.0
 40
0.0
 40
0.0
 40
0.0
 40
0.2500000000000004
 40
0.2500000000000004
 40
0.3750000000000004
 40
0.3750000000000004
 40
0.5000000000000004
 40
0.5000000000000004
 40
0.7500000000000007
 40
0.7500000000000007
 40
0.8750000000000007
 40
0.8750000000000007
 40
0.9375000000000003
 40
0.9375000000000003
 40
1.0
 40
1.0
 40
1.0
 40
1.0
 10
179.7151462846875
 20
28.51414089283826
 30
0.0
 10
178.9232568838698
 20
27.72030914319257
 30
0.0
 10
178.0824063616446
 20
26.99006622148287
 30
0.0
 10
176.7273479379138
 20
26.0154869154615
 30
0.0
 10
176.260230404185
 20
25.71051034568133
 30
0.0
 10
175.2925910547324
 20
25.14353863525052
 30
0.0
 10
174.7994673594173
 20
24.88591066982419
 30
0.0
 10
173.2951876590895
 20
24.19112854933976
 30
0.0
 10
172.2578509037731
 20
23.83076515017395
 30
0.0
 10
170.6507257363569
 20
23.44897083973336
 30
0.0
 10
170.1035326716672
 20
23.34802487228765
 30
0.0
 10
169.2833749831024
 20
23.23961223820282
 30
0.0
 10
169.0102457630185
 20
23.210578201149
 30
0.0
 10
168.4658024449092
 20
23.16629371630715
 30
0.0
 10
168.1944118172501
 20
23.15106704124663
 30
0.0
 10
167.9254795621196
 20
23.14228617870297
 30
0.0
  0
ARC
  5
151
330
1F
100
AcDbEntity
  8
0
  6
Continuous
 62
     7
370
    25
100
AcDbCircle
 10
167.5940081746
 20
22.047138825
 30
0.0
 40
1.144211958953035
100
AcDbArc
 50
73.1603603342
 51
85.5031405033
  0
ARC
  5
152
330
1F
100
AcDbEntity
  8
0
  6
Continuous
 62
     7
370
    25
100
AcDbCircle
 10
167.0629020982
 20
22.047138825
 30
0.0
 40
1.144211958953245
100
AcDbArc
 50
94.4968594967
 51
106.8396396658
  0
SPLINE
  5
153
330
1F
100
AcDbEntity
  8
0
  6
Continuous
 62
     7
370
    25
100
AcDbSpline
210
0.0
220
0.0
230
1.0
 70
     8
 71
     3
 72
    20
 73
    16
 74
     0
 42
0.00000001
 43
0.00000001
 40
0.0
 40
0.0
 40
0.0
 40
0.0
 40
0.2500000000000004
 40
0.2500000000000004
 40
0.3750000000000004
 40
0.3750000000000004
 40
0.5000000000000004
 40
0.5000000000000004
 40
0.7500000000000007
 40
0.7500000000000007
 40
0.8750000000000007
 40
0.8750000000000007
 40
0.9375000000000003
 40
0.9375000000000003
 40
1.0
 40
1.0
 40
1.0
 40
1.0
 10
154.9417639880913
 20
28.51414089283826
 30
0.0
 10
155.7336533889091
 20
27.72030914319257
 30
0.0
 10
156.5745039111343
 20
26.99006622148287
 30
0.0
 10
157.9295623348651
 20
26.0154869154615
 30
0.0
 10
158.3966798685938
 20
25.71051034568133
 30
0.0
 10
159.3643192180465
 20
25.14353863525052
 30
0.0
 10
159.8574429133616
 20
24.88591066982419
 30
0.0
 10
161.3617226136894
 20
24.19112854933976
 30
0.0
 10
162.3990593690058
 20
23.83076515017395
 30
0.0
 10
164.006184536422
 20
23.44897083973336
 30
0.0
 10
164.5533776011117
 20
23.34802487228765
 30
0.0
 10
165.3735352896764
 20
23.23961223820282
 30
0.0
 10
165.6466645097604
 20
23.210578201149
 30
0.0
 10
166.1911078278697
 20
23.16629371630715
 30
0.0
 10
166.4624984555288
 20
23.15106704124663
 30
0.0
 10
166.7314307106593
 20
23.14228617870297
 30
0.0
  0
SPLINE
  5
154
330
1F
100
AcDbEntity
  8
0
  6
Continuous
 62
     7
370
    25
100
AcDbSpline
210
0.0
220
0.0
230
1.0
 70
     8
 71
     3
 72
     8
 73
     4
 74
     0
 42
0.00000001
 43
0.00000001
 40
0.0
 40
0.0
 40
0.0
 40
0.0
 40
1.0
 40
1.0
 40
1.0
 40
1.0
 10
169.8993181204563
 20
22.86949299659793
 30
0.0
 10
169.1207362553569
 20
22.86949299659793
 30
0.0
 10
168.4684488136534
 20
22.95637066372298
 30
0.0
 10
167.9254795621196
 20
23.14228617870298
 30
0.0
  0
ARC
  5
155
330
1F
100
AcDbEntity
  8
0
  6
Continuous
 62
     7
370
    25
100
AcDbCircle
 10
169.5647976767
 20
34.8082113441
 30
0.0
 40
11.94340402517808
100
AcDbArc
 50
271.6049960667
 51
328.1976039516
  0
SPLINE
  5
156
330
1F
100
AcDbEntity
  8
0
  6
Continuous
 62
     7
370
    25
100
AcDbSpline
210
0.0
220
0.0
230
1.0
 70
     8
 71
     3
 72
     8
 73
     4
 74
     0
 42
0.00000001
 43
0.00000001
 40
0.0
 40
0.0
 40
0.0
 40
0.0
 40
1.0
 40
1.0
 40
1.0
 40
1.0
 10
164.7575921523226
 20
22.86949299659793
 30
0.0
 10
165.5361740174219
 20
22.86949299659793
 30
0.0
 10
166.1884614591255
 20
22.95637066372298
 30
0.0
 10
166.7314307106593
 20
23.14228617870298
 30
0.0
  0
ARC
  5
157
330
1F
100
AcDbEntity
  8
0
  6
Continuous
 62
     7
370
    25
100
AcDbCircle
 10
165.092112596
 20
34.8082113441
 30
0.0
 40
11.9434040251781
100
AcDbArc
 50
211.8023960484
 51
268.3950039333
  0
ARC
  5
158
330
1F
100
AcDbEntity
  8
0
  6
Continuous
 62
     7
370
    25
100
AcDbCircle
 10
165.092112596
 20
40.9307746491
 30
0.0
 40
11.94340402517817
100
AcDbArc
 50
91.6049960667
 51
148.1976039516
  0
SPLINE
  5
159
330
1F
100
AcDbEntity
  8
0
  6
Continuous
 62
     7
370
    25
100
AcDbSpline
210
0.0
220
0.0
230
1.0
 70
     8
 71
     3
 72
     8
 73
     4
 74
     0
 42
0.00000001
 43
0.00000001
 40
0.0
 40
0.0
 40
0.0
 40
0.0
 40
1.0
 40
1.0
 40
1.0
 40
1.0
 10
164.7575921523226
 20
52.86949299659794
 30
0.0
 10
165.5361740174219
 20
52.86949299659794
 30
0.0
 10
166.1884614591255
 20
52.78261532947288
 30
0.0
 10
166.7314307106593
 20
52.59669981449289
 30
0.0
  0
ARC
  5
15A
330
1F
100
AcDbEntity
  8
0
  6
Continuous
 62
     7
370
    25
100
AcDbCircle
 10
169.5647976767
 20
40.9307746491
 30
0.0
 40
11.9434040251781
100
AcDbArc
 50
31.8023960484
 51
88.3950039333
  0
SPLINE
  5
15B
330
1F
100
AcDbEntity
  8
0
  6
Continuous
 62
     7
370
    25
100
AcDbSpline
210
0.0
220
0.0
230
1.0
 70
     8
 71
     3
 72
     8
 73
     4
 74
     0
 42
0.00000001
 43
0.00000001
 40
0.0
 40
0.0
 40
0.0
 40
0.0
 40
1.0
 40
1.0
 40
1.0
 40
1.0
 10
169.8993181204563
 20
52.86949299659794
 30
0.0
 10
169.1207362553569
 20
52.86949299659794
 30
0.0
 10
168.4684488136534
 20
52.78261532947288
 30
0.0
 10
167.9254795621196
 20
52.59669981449289
 30
0.0
  0
LWPOLYLINE
  5
15C
330
1F
100
AcDbEntity
  8
0
  6
Continuous
 62
     7
370
    25
100
AcDbPolyline
 90
        9
 70
   128
 43
0.0
 10
155.2030163278
 20
52.8694929966
 10
154.184610605
 20
52.7015471694
 10
153.1890098144
 20
52.2014704613
 10
152.2385082224
 20
51.3804609784
 10
151.3543901993
 20
50.256903403
 10
150.5564536026
 20
48.8559573093
 10
149.8625664486
 20
47.2089937707
 10
149.2882667977
 20
45.3528928743
 10
148.8464148138
 20
43.3292178736
  0
LINE
  5
15D
330
1F
100
AcDbEntity
  8
0
  6
Continuous
 62
     7
370
    25
100
AcDbLine
 10
155.2030163278
 20
52.8694929966
 30
0.0
 11
164.7575921523
 21
52.8694929966
 31
0.0
  0
LINE
  5
15E
330
1F
100
AcDbEntity
  8
0
  6
Continuous
 62
     7
370
    25
100
AcDbLine
 10
179.453893945
 20
52.8694929966
 30
0.0
 11
169.8993181205
 21
52.8694929966
 31
0.0
  0
LWPOLYLINE
  5
15F
330
1F
100
AcDbEntity
  8
0
  6
Continuous
 62
     7
370
    25
100
AcDbPolyline
 90
        9
 70
   128
 43
0.0
 10
179.453893945
 20
52.8694929966
 10
180.4722996678
 20
52.7015471694
 10
181.4679004584
 20
52.2014704613
 10
182.4184020504
 20
51.3804609784
 10
183.3025200735
 20
50.256903403
 10
184.1004566702
 20
48.8559573093
 10
184.7943438241
 20
47.2089937707
 10
185.3686434751
 20
45.3528928743
 10
185.810495459
 20
43.3292178736
  0
LINE
  5
160
330
1F
100
AcDbEntity
  8
0
  6
Continuous
 62
     7
370
    25
100
AcDbLine
 10
155.2030163278
 20
22.8694929966
 30
0.0
 11
164.7575921523
 21
22.8694929966
 31
0.0
  0
LWPOLYLINE
  5
161
330
1F
100
AcDbEntity
  8
0
  6
Continuous
 62
     7
370
    25
100
AcDbPolyline
 90
        9
 70
   128
 43
0.0
 10
148.8464148138
 20
32.4097681196
 10
149.2882667977
 20
30.3860931189
 10
149.8625664486
 20
28.5299922225
 10
150.5564536026
 20
26.8830286839
 10
151.3543901993
 20
25.4820825902
 10
152.2385082224
 20
24.3585250148
 10
153.1890098144
 20
23.5375155319
 10
154.184610605
 20
23.0374388238
 10
155.2030163278
 20
22.8694929966
  0
LINE
  5
162
330
1F
100
AcDbEntity
  8
0
  6
Continuous
 62
     7
370
    25
100
AcDbLine
 10
179.453893945
 20
22.8694929966
 30
0.0
 11
169.8993181205
 21
22.8694929966
 31
0.0
  0
LWPOLYLINE
  5
163
330
1F
100
AcDbEntity
  8
0
  6
Continuous
 62
     7
370
    25
100
AcDbPolyline
 90
        9
 70
   128
 43
0.0
 10
185.810495459
 20
32.4097681196
 10
185.3686434751
 20
30.3860931189
 10
184.7943438241
 20
28.5299922225
 10
184.1004566702
 20
26.8830286839
 10
183.3025200735
 20
25.4820825902
 10
182.4184020504
 20
24.3585250148
 10
181.4679004584
 20
23.5375155319
 10
180.4722996678
 20
23.0374388238
 10
179.453893945
 20
22.8694929966
  0
SPLINE
  5
164
330
1F
100
AcDbEntity
  8
0
  6
Continuous
 62
     7
370
    25
100
AcDbSpline
210
0.0
220
0.0
230
1.0
 70
     8
 71
     3
 72
    10
 73
     6
 74
     0
 42
0.00000001
 43
0.00000001
 40
0.0
 40
0.0
 40
0.0
 40
0.0
 40
0.5
 40
0.5
 40
1.0
 40
1.0
 40
1.0
 40
1.0
 10
166.7314307106593
 20
52.59669981449289
 30
0.0
 10
166.9264279152332
 20
52.60259525409079
 30
0.0
 10
167.1251373679852
 20
52.60575993470719
 30
0.0
 10
167.5316189761917
 20
52.60576153172349
 30
0.0
 10
167.7304761935036
 20
52.60259544045109
 30
0.0
 10
167.9254795621196
 20
52.59669981449289
 30
0.0
  0
SPLINE
  5
165
330
1F
100
AcDbEntity
  8
0
  6
Continuous
 62
     7
370
    25
100
AcDbSpline
210
0.0
220
0.0
230
1.0
 70
     8
 71
     3
 72
    10
 73
     6
 74
     0
 42
0.00000001
 43
0.00000001
 40
0.0
 40
0.0
 40
0.0
 40
0.0
 40
0.5
 40
0.5
 40
1.0
 40
1.0
 40
1.0
 40
1.0
 10
167.9254795621195
 20
23.14228617870297
 30
0.0
 10
167.7304823575456
 20
23.13639073910508
 30
0.0
 10
167.5317729047936
 20
23.13322605848868
 30
0.0
 10
167.1252912965871
 20
23.13322446147239
 30
0.0
 10
166.9264340792753
 20
23.13639055274478
 30
0.0
 10
166.7314307106593
 20
23.14228617870297
 30
0.0
  0
LINE
  5
166
330
1F
100
AcDbEntity
  8
0
  6
Continuous
 62
     7
370
    25
100
AcDbLine
 10
169.8993181205
 20
52.8694929966
 30
0.0
 11
164.7575921523
 21
52.8694929966
 31
0.0
  0
LINE
  5
167
330
1F
100
AcDbEntity
  8
0
  6
Continuous
 62
     7
370
    25
100
AcDbLine
 10
169.8993181205
 20
22.8694929966
 30
0.0
 11
164.7575921523
 21
22.8694929966
 31
0.0
  0
LINE
  5
168
330
1F
100
AcDbEntity
  8
0
  6
Continuous
 62
     7
370
    25
100
AcDbLine
 10
146.6394861358
 20
22.8694929966
 30
0.0
 11
155.2030163278
 21
22.8694929966
 31
0.0
  0
LWPOLYLINE
  5
169
330
1F
100
AcDbEntity
  8
0
  6
Continuous
 62
     7
370
    25
100
AcDbPolyline
 90
       23
 70
   128
 43
0.0
 10
146.6394861358
 20
52.8694929966
 10
145.6682248339
 20
52.7168146248
 10
144.7167356113
 20
52.2618876008
 10
143.8043880446
 20
51.5139729269
 10
142.9497548993
 20
50.4882959891
 10
142.1702340417
 20
49.2057366119
 10
141.4816942684
 20
47.6924040058
 10
140.8981522638
 20
45.9791052584
 10
140.4314872601
 20
44.1007181916
 10
140.0911992111
 20
42.0954813492
 10
139.8842154002
 20
40.0042155707
 10
139.8147494209
 20
37.8694929966
 10
139.8842154002
 20
35.7347704225
 10
140.0911992111
 20
33.643504644
 10
140.4314872601
 20
31.6382678016
 10
140.8981522638
 20
29.7598807348
 10
141.4816942684
 20
28.0465819874
 10
142.1702340417
 20
26.5332493813
 10
142.9497548993
 20
25.2506900041
 10
143.8043880446
 20
24.2250130663
 10
144.7167356113
 20
23.4770983924
 10
145.6682248339
 20
23.0221713684
 10
146.6394861358
 20
22.8694929966
  0
LINE
  5
16A
330
1F
100
AcDbEntity
  8
0
  6
Continuous
 62
     7
370
    25
100
AcDbLine
 10
146.6394861358
 20
52.8694929966
 30
0.0
 11
155.2030163278
 21
52.8694929966
 31
0.0
  0
LINE
  5
16B
330
1F
100
AcDbEntity
  8
0
  6
Continuous
 62
     7
370
    25
100
AcDbLine
 10
188.017424137
 20
52.8694929966
 30
0.0
 11
179.453893945
 21
52.8694929966
 31
0.0
  0
LWPOLYLINE
  5
16C
330
1F
100
AcDbEntity
  8
0
  6
Continuous
 62
     7
370
    25
100
AcDbPolyline
 90
       23
 70
   128
 43
0.0
 10
188.017424137
 20
52.8694929966
 10
188.9886854388
 20
52.7168146248
 10
189.9401746615
 20
52.2618876008
 10
190.8525222281
 20
51.5139729269
 10
191.7071553734
 20
50.4882959891
 10
192.4866762311
 20
49.2057366119
 10
193.1752160043
 20
47.6924040058
 10
193.758758009
 20
45.9791052584
 10
194.2254230127
 20
44.1007181916
 10
194.5657110617
 20
42.0954813492
 10
194.7726948726
 20
40.0042155707
 10
194.8421608519
 20
37.8694929966
 10
194.7726948726
 20
35.7347704225
 10
194.5657110617
 20
33.643504644
 10
194.2254230127
 20
31.6382678016
 10
193.758758009
 20
29.7598807348
 10
193.1752160043
 20
28.0465819874
 10
192.4866762311
 20
26.5332493813
 10
191.7071553734
 20
25.2506900041
 10
190.8525222281
 20
24.2250130663
 10
189.9401746615
 20
23.4770983924
 10
188.9886854388
 20
23.0221713684
 10
188.017424137
 20
22.8694929966
  0
LINE
  5
16D
330
1F
100
AcDbEntity
  8
0
  6
Continuous
 62
     7
370
    25
100
AcDbLine
 10
188.017424137
 20
22.8694929966
 30
0.0
 11
179.453893945
 21
22.8694929966
 31
0.0
  0
ELLIPSE
  5
16E
330
1F
100
AcDbEntity
  8
0
  6
Continuous
 62
     7
370
    25
100
AcDbEllipse
 10
156.374382906
 20
37.8694929966
 30
0.0
 11
-7.453534986930349
 21
0.0
 31
0.0
210
0.0
220
0.0
230
1.0
 40
0.4226182617
 41
2.151937362825797
 42
4.131247944353803
  0
ELLIPSE
  5
16F
330
1F
100
AcDbEntity
  8
0
  6
Continuous
 62
     7
370
    25
100
AcDbEllipse
 10
178.2825273668
 20
37.8694929966
 30
0.0
 11
7.453534986930349
 21
0.0
 31
0.0
210
0.0
220
0.0
230
1.0
 40
0.4226182617
 41
2.151937362825797
 42
4.131247944353803
  0
LINE
  5
170
330
1F
100
AcDbEntity
  8
0
  6
Continuous
 62
     7
370
    25
100
AcDbLine
 10
203.941809805
 20
52.8694929966
 30
0.0
 11
188.017424137
 21
52.8694929966
 31
0.0
  0
LINE
  5
171
330
1F
100
AcDbEntity
  8
0
  6
Continuous
 62
     7
370
    25
100
AcDbLine
 10
203.941809805
 20
52.8694929966
 30
0.0
 11
203.941809805
 21
22.8694929966
 31
0.0
  0
LINE
  5
172
330
1F
100
AcDbEntity
  8
0
  6
Continuous
 62
     7
370
    25
100
AcDbLine
 10
203.941809805
 20
22.8694929966
 30
0.0
 11
188.017424137
 21
22.8694929966
 31
0.0
  0
LINE
  5
173
330
1F
100
AcDbEntity
  8
0
  6
Continuous
 62
     7
370
    25
100
AcDbLine
 10
130.7151004678
 20
22.8694929966
 30
0.0
 11
146.6394861358
 21
22.8694929966
 31
0.0
  0
LINE
  5
174
330
1F
100
AcDbEntity
  8
0
  6
Continuous
 62
     7
370
    25
100
AcDbLine
 10
130.7151004678
 20
52.8694929966
 30
0.0
 11
130.7151004678
 21
22.8694929966
 31
0.0
  0
LINE
  5
175
330
1F
100
AcDbEntity
  8
0
  6
Continuous
 62
     7
370
    25
100
AcDbLine
 10
130.7151004678
 20
52.8694929966
 30
0.0
 11
146.6394861358
 21
52.8694929966
 31
0.0
  0
LINE
  5
176
330
1F
100
AcDbEntity
  8
0
  6
Continuous
 62
     7
370
    25
100
AcDbLine
 10
126.1284551364
 20
22.8694929966
 30
0.0
 11
126.1284551364
 21
52.8694929966
 31
0.0
  0
LINE
  5
177
330
1F
100
AcDbEntity
  8
0
  6
Continuous
 62
     7
370
    25
100
AcDbLine
 10
126.1284551364
 20
52.8694929966
 30
0.0
 11
130.7151004678
 21
52.8694929966
 31
0.0
  0
LINE
  5
178
330
1F
100
AcDbEntity
  8
0
  6
Continuous
 62
     7
370
    25
100
AcDbLine
 10
126.1284551364
 20
22.8694929966
 30
0.0
 11
130.7151004678
 21
22.8694929966
 31
0.0
  0
LINE
  5
179
330
1F
100
AcDbEntity
  8
0
  6
Continuous
 62
     7
370
    25
100
AcDbLine
 10
208.5284551364
 20
52.8694929966
 30
0.0
 11
203.941809805
 21
52.8694929966
 31
0.0
  0
LINE
  5
17A
330
1F
100
AcDbEntity
  8
0
  6
Continuous
 62
     7
370
    25
100
AcDbLine
 10
208.5284551364
 20
22.8694929966
 30
0.0
 11
203.941809805
 21
22.8694929966
 31
0.0
  0
LINE
  5
17B
330
1F
100
AcDbEntity
  8
0
  6
Continuous
 62
     7
370
    25
100
AcDbLine
 10
208.5284551364
 20
22.8694929966
 30
0.0
 11
208.5284551364
 21
52.8694929966
 31
0.0
  0
LINE
  5
17C
330
1F
100
AcDbEntity
  8
0
  6
Continuous
 62
     7
370
    25
100
AcDbLine
 10
124.9972051343
 20
24.1813918091
 30
0.0
 11
125.3722051343
 21
24.1813918091
 31
0.0
  0
LINE
  5
17D
330
1F
100
AcDbEntity
  8
0
  6
Continuous
 62
     7
370
    25
100
AcDbLine
 10
124.5284551364
 20
23.3694929966
 30
0.0
 11
124.9972051343
 21
24.1813918091
 31
0.0
  0
SPLINE
  5
17E
330
1F
100
AcDbEntity
  8
0
  6
Continuous
 62
     7
370
    25
100
AcDbSpline
210
0.0
220
0.0
230
1.0
 70
     8
 71
     3
 72
    18
 73
    14
 74
     0
 42
0.00000001
 43
0.00000001
 40
0.0
 40
0.0
 40
0.0
 40
0.0
 40
0.0569447277585363
 40
0.1507614687560893
 40
0.2445782097536427
 40
0.3400242771492495
 40
0.4338410181468028
 40
0.5276577591443558
 40
0.6231038265399628
 40
0.7169205675375162
 40
0.8099301629352225
 40
0.9045689658892275
 40
1.0
 40
1.0
 40
1.0
 40
1.0
 10
124.4284551363894
 20
24.4489454615975
 30
0.0
 10
124.441402632413
 20
24.71121812641028
 30
0.0
 10
124.4756811968045
 20
25.40558639750662
 30
0.0
 10
124.5284680360929
 20
27.52539709323083
 30
0.0
 10
124.5894866736225
 20
30.52835490829911
 30
0.0
 10
124.6549210192505
 20
34.07556057910611
 30
0.0
 10
124.715954781248
 20
37.86894344428569
 30
0.0
 10
124.7769906617071
 20
41.66564271161824
 30
0.0
 10
124.8424185783671
 20
45.20278398327228
 30
0.0
 10
124.9032864350915
 20
48.23350137140554
 30
0.0
 10
124.9639482430035
 20
50.54084348208718
 30
0.0
 10
125.0293607309189
 20
52.07530150026201
 30
0.0
 10
125.0703666927747
 20
52.27115704894799
 30
0.0
 10
125.0909551322927
 20
52.36949299659793
 30
0.0
  0
LINE
  5
17F
330
1F
100
AcDbEntity
  8
0
  6
Continuous
 62
     7
370
    25
100
AcDbLine
 10
125.8344828269
 20
23.4209721981
 30
0.0
 11
125.8409551323
 21
23.3694929966
 31
0.0
  0
LINE
  5
180
330
1F
100
AcDbEntity
  8
0
  6
Continuous
 62
     7
370
    25
100
AcDbLine
 10
125.3722051343
 20
24.1813918091
 30
0.0
 11
125.8409551323
 21
23.3694929966
 31
0.0
  0
SPLINE
  5
181
330
1F
100
AcDbEntity
  8
0
  6
Continuous
 62
     7
370
    25
100
AcDbSpline
210
0.0
220
0.0
230
1.0
 70
     8
 71
     3
 72
    21
 73
    17
 74
     0
 42
0.00000001
 43
0.00000001
 40
0.0
 40
0.0
 40
0.0
 40
0.0
 40
0.0743921138866563
 40
0.1594352816271835
 40
0.2430266091136018
 40
0.3266179366000201
 40
0.4116611043405474
 40
0.4952524318269658
 40
0.5788437593133839
 40
0.6638869270539114
 40
0.7474782545403297
 40
0.8166783039108968
 40
0.8872193099499355
 40
0.9574386375698039
 40
0.9999794891447908
 40
0.9999999999999999
 40
0.9999999999999999
 40
0.9999999999999999
 40
0.9999999999999999
 10
211.1529474443028
 20
24.23213135074777
 30
0.0
 10
211.1349338736735
 20
24.31517707520982
 30
0.0
 10
211.0963276484119
 20
24.49315855437191
 30
0.0
 10
211.0332280584638
 20
25.89295972416637
 30
0.0
 10
210.9722083537065
 20
28.07681267117339
 30
0.0
 10
210.9111692456492
 20
30.94700317956816
 30
0.0
 10
210.8457400496872
 20
34.28597779320948
 30
0.0
 10
210.7847067141409
 20
37.8695220768761
 30
0.0
 10
210.7236638696413
 20
41.45289086872303
 30
0.0
 10
210.6582635308483
 20
44.79239805381675
 30
0.0
 10
210.6006086556384
 20
47.4970062288969
 30
0.0
 10
210.5468851983979
 20
49.48868166196652
 30
0.0
 10
210.4932140846118
 20
50.8460362892542
 30
0.0
 10
210.4464869321447
 20
51.39096711294891
 30
0.0
 10
210.4201169538919
 20
51.63579723083087
 30
0.0
 10
210.4096950936963
 20
51.55751877699448
 30
0.0
 10
210.409690071271
 20
51.55748105362424
 30
0.0
  0
SPLINE
  5
182
330
1F
100
AcDbEntity
  8
0
  6
Continuous
 62
     7
370
    25
100
AcDbSpline
210
0.0
220
0.0
230
1.0
 70
     8
 71
     3
 72
    18
 73
    14
 74
     0
 42
0.00000001
 43
0.00000001
 40
0.0
 40
0.0
 40
0.0
 40
0.0
 40
0.0625083500006682
 40
0.1648649420355359
 40
0.2689991730679214
 40
0.3713557651027889
 40
0.4728317362466123
 40
0.5760852167264459
 40
0.6802030526311135
 40
0.7825596446659812
 40
0.8866938756983663
 40
0.9890504677332339
 40
1.0
 40
1.0
 40
1.0
 40
1.0
 10
211.4784551363895
 20
26.21593022124366
 30
0.0
 10
211.4659247816238
 20
26.65849362012666
 30
0.0
 10
211.4328761375291
 20
27.8257487004978
 30
0.0
 10
211.3799864577631
 20
30.55685046808687
 30
0.0
 10
211.314473898828
 20
34.0679657982114
 30
0.0
 10
211.2536288337474
 20
37.86030149481212
 30
0.0
 10
211.1929594940149
 20
41.63191832361717
 30
0.0
 10
211.1275547199087
 20
45.17648307370803
 30
0.0
 10
211.0662852465232
 20
48.22118469391199
 30
0.0
 10
211.004949773294
 20
50.58854148566075
 30
0.0
 10
210.9393881164413
 20
51.97384193308147
 30
0.0
 10
210.8967501652951
 20
52.53207552033373
 30
0.0
 10
210.8740773236846
 20
52.33617696132785
 30
0.0
 10
210.8718862946267
 20
52.31724596703191
 30
0.0
  0
SPLINE
  5
183
330
1F
100
AcDbEntity
  8
0
  6
Continuous
 62
     7
370
    25
100
AcDbSpline
210
0.0
220
0.0
230
1.0
 70
     8
 71
     3
 72
    11
 73
     7
 74
     0
 42
0.00000001
 43
0.00000001
 40
0.0
 40
0.0
 40
0.0
 40
0.0
 40
0.033807760321333
 40
0.3659664173550982
 40
0.7038941095691075
 40
1.0
 40
1.0
 40
1.0
 40
1.0
 10
124.4284551363894
 20
47.2617274265793
 30
0.0
 10
124.4305397753036
 20
47.35819297040248
 30
0.0
 10
124.4531058319615
 20
48.40242509745366
 30
0.0
 10
124.4956258161591
 20
49.80643995797782
 30
0.0
 10
124.5588818569472
 20
51.2549368316282
 30
0.0
 10
124.5975031959876
 20
51.42713196464288
 30
0.0
 10
124.6155401049136
 20
51.50755040711162
 30
0.0
  0
SPLINE
  5
184
330
1F
100
AcDbEntity
  8
0
  6
Continuous
 62
     7
370
    25
100
AcDbSpline
210
0.0
220
0.0
230
1.0
 70
     8
 71
     3
 72
    14
 73
    10
 74
     0
 42
0.00000001
 43
0.00000001
 40
0.0
 40
0.0
 40
0.0
 40
0.0
 40
0.0918965940499276
 40
0.2423760614181666
 40
0.3954689234315532
 40
0.545948390799793
 40
0.6951332188673903
 40
0.8469312509612344
 40
0.9999999999999999
 40
0.9999999999999999
 40
0.9999999999999999
 40
0.9999999999999999
 10
211.4784551363895
 20
35.59060049771787
 30
0.0
 10
211.4659247839564
 20
36.34844387971641
 30
0.0
 10
211.4328761437721
 20
38.34724585926348
 30
0.0
 10
211.3799864367541
 20
41.66942205190638
 30
0.0
 10
211.3144739966604
 20
45.20178308328456
 30
0.0
 10
211.2536284957238
 20
48.23376480762035
 30
0.0
 10
211.1929607682738
 20
50.54077213760644
 30
0.0
 10
211.1275498626161
 20
52.07531964068993
 30
0.0
 10
211.0865436872196
 20
52.27116311253648
 30
0.0
 10
211.0659551404862
 20
52.36949299659793
 30
0.0
  0
SPLINE
  5
185
330
1F
100
AcDbEntity
  8
0
  6
Continuous
 62
     7
370
    25
100
AcDbSpline
210
0.0
220
0.0
230
1.0
 70
     8
 71
     3
 72
    20
 73
    16
 74
     0
 42
0.00000001
 43
0.00000001
 40
0.0
 40
0.0
 40
0.0
 40
0.0
 40
0.0086573631120517
 40
0.0907937671802639
 40
0.1743566438584452
 40
0.2564930479266574
 40
0.3386294519948698
 40
0.4221923286730508
 40
0.5043287327412632
 40
0.5864651368094753
 40
0.6700280134876565
 40
0.752164417555869
 40
0.8335941669649449
 40
0.9164502849382267
 40
1.0
 40
1.0
 40
1.0
 40
1.0
 10
210.322427445832
 20
23.42097219810412
 30
0.0
 10
210.3202686359871
 20
23.40233896101854
 30
0.0
 10
210.2976281996428
 20
23.206923594022
 30
0.0
 10
210.2550215175628
 20
23.76533067043532
 30
0.0
 10
210.1894633547859
 20
25.1503582290931
 30
0.0
 10
210.1284622796275
 20
27.50453516036944
 30
0.0
 10
210.0674181216487
 20
30.53405623705265
 30
0.0
 10
210.0019907037819
 20
34.07405106561073
 30
0.0
 10
209.9409551059729
 20
37.86934475688109
 30
0.0
 10
209.8799197164423
 20
41.66553303544573
 30
0.0
 10
209.814491666506
 20
45.20281302931507
 30
0.0
 10
209.7536238450321
 20
48.23349372650628
 30
0.0
 10
209.6929620277863
 20
50.54084555249867
 30
0.0
 10
209.6275495423658
 20
52.07530097382815
 30
0.0
 10
209.5865435801733
 20
52.2711568729831
 30
0.0
 10
209.5659551404862
 20
52.36949299659793
 30
0.0
  0
LINE
  5
186
330
1F
100
AcDbEntity
  8
0
  6
Continuous
 62
     7
370
    25
100
AcDbLine
 10
208.8224274458
 20
23.4209721981
 30
0.0
 11
208.8159551405
 21
23.3694929966
 31
0.0
  0
SPLINE
  5
187
330
1F
100
AcDbEntity
  8
0
  6
Continuous
 62
     7
370
    25
100
AcDbSpline
210
0.0
220
0.0
230
1.0
 70
     8
 71
     3
 72
    20
 73
    16
 74
     0
 42
0.00000001
 43
0.00000001
 40
0.0
 40
0.0
 40
0.0
 40
0.0
 40
0.0835731011475418
 40
0.1686081584309195
 40
0.2521915139203197
 40
0.3213849637714906
 40
0.3919192424058266
 40
0.4621318732990474
 40
0.5046686678079183
 40
0.5882520232973186
 40
0.6732870805806965
 40
0.7568704360700964
 40
0.8404537915594966
 40
0.9254888488428746
 40
1.0
 40
1.0
 40
1.0
 40
1.0
 10
210.7846976049335
 20
24.18144837374069
 30
0.0
 10
210.7644701291765
 20
24.27127356084283
 30
0.0
 10
210.7236613355542
 20
24.45249525981112
 30
0.0
 10
210.6582648370975
 20
25.88957605295822
 30
0.0
 10
210.6006037942014
 20
27.95333301697362
 30
0.0
 10
210.5469001085434
 20
30.43982816966895
 30
0.0
 10
210.4931569552791
 20
33.12492681070056
 30
0.0
 10
210.4466637074584
 20
35.66864650738868
 30
0.0
 10
210.4000516843507
 20
38.45019798738724
 30
0.0
 10
210.3485731994884
 20
41.45386845266134
 30
0.0
 10
210.2832667086255
 20
44.79175823666149
 30
0.0
 10
210.2221951409892
 20
47.66222139440701
 30
0.0
 10
210.161183905322
 20
49.84605688658529
 30
0.0
 10
210.0980501146879
 20
51.24638754329634
 30
0.0
 10
210.0594139845286
 20
51.42441033556752
 30
0.0
 10
210.0413701678653
 20
51.50755040711162
 30
0.0
  0
LINE
  5
188
330
1F
100
AcDbEntity
  8
0
  6
Continuous
 62
     7
370
    25
100
AcDbLine
 10
210.1284551364
 20
23.3694929966
 30
0.0
 11
209.6597051384
 21
24.1813918091
 31
0.0
  0
LINE
  5
189
330
1F
100
AcDbEntity
  8
0
  6
Continuous
 62
     7
370
    25
100
AcDbLine
 10
209.6597051384
 20
24.1813918091
 30
0.0
 11
209.2847051384
 21
24.1813918091
 31
0.0
  0
LINE
  5
18A
330
1F
100
AcDbEntity
  8
0
  6
Continuous
 62
     7
370
    25
100
AcDbLine
 10
209.2847051384
 20
24.1813918091
 30
0.0
 11
208.8159551405
 21
23.3694929966
 31
0.0
  0
ARC
  5
18B
330
1F
100
AcDbEntity
  8
0
  6
Continuous
 62
     7
370
    25
100
AcDbCircle
 10
167.42139736
 20
52.9601805886
 30
0.0
 40
0.0907001248962227
100
AcDbArc
 50
238.6525055213
 51
269.0475002897
  0
ARC
  5
18C
330
1F
100
AcDbEntity
  8
0
  6
Continuous
 62
     7
370
    25
100
AcDbCircle
 10
167.2355129128
 20
52.9601805886
 30
0.0
 40
0.0907001248962166
100
AcDbArc
 50
270.9524997103
 51
301.3474944787
  0
ARC
  5
18D
330
1F
100
AcDbEntity
  8
0
  6
Continuous
 62
     7
370
    25
100
AcDbCircle
 10
167.2355129128
 20
22.7788054046
 30
0.0
 40
0.0907001248962075
100
AcDbArc
 50
58.6525055213
 51
89.0475002897
  0
ARC
  5
18E
330
1F
100
AcDbEntity
  8
0
  6
Continuous
 62
     7
370
    25
100
AcDbCircle
 10
167.42139736
 20
22.7788054046
 30
0.0
 40
0.0907001248962196
100
AcDbArc
 50
90.9524997103
 51
121.3474944787
  0
SPLINE
  5
18F
330
1F
100
AcDbEntity
  8
0
  6
Continuous
 62
     7
370
    25
100
AcDbSpline
210
0.0
220
0.0
230
1.0
 70
     8
 71
     3
 72
     8
 73
     4
 74
     0
 42
0.00000001
 43
0.00000001
 40
0.0
 40
0.0
 40
0.0
 40
0.0
 40
1.0
 40
1.0
 40
1.0
 40
1.0
 10
167.2826975869683
 20
52.88272015237271
 30
0.0
 10
167.3132026199157
 20
52.88262734420302
 30
0.0
 10
167.3437076528632
 20
52.88262734420302
 30
0.0
 10
167.3742126858106
 20
52.88272015237271
 30
0.0
  0
SPLINE
  5
190
330
1F
100
AcDbEntity
  8
0
  6
Continuous
 62
     7
370
    25
100
AcDbSpline
210
0.0
220
0.0
230
1.0
 70
     8
 71
     3
 72
     8
 73
     4
 74
     0
 42
0.00000001
 43
0.00000001
 40
0.0
 40
0.0
 40
0.0
 40
0.0
 40
1.0
 40
1.0
 40
1.0
 40
1.0
 10
167.3742126858106
 20
22.85626584082316
 30
0.0
 10
167.3437076528632
 20
22.85635864899285
 30
0.0
 10
167.3132026199157
 20
22.85635864899285
 30
0.0
 10
167.2826975869683
 20
22.85626584082316
 30
0.0
  0
ARC
  5
191
330
1F
100
AcDbEntity
  8
0
  6
Continuous
 62
     7
370
    25
100
AcDbCircle
 10
167.3284551364
 20
37.8694929966
 30
0.0
 40
28.25
100
AcDbArc
 50
32.0712506327
 51
90.0
  0
ARC
  5
192
330
1F
100
AcDbEntity
  8
0
  6
Continuous
 62
     7
370
    25
100
AcDbCircle
 10
167.3284551364
 20
37.8694929966
 30
0.0
 40
28.25
100
AcDbArc
 50
212.0712506327
 51
327.9287493673
  0
ARC
  5
193
330
1F
100
AcDbEntity
  8
0
  6
Continuous
 62
     7
370
    25
100
AcDbCircle
 10
167.3284551364
 20
37.8694929966
 30
0.0
 40
28.24999999999999
100
AcDbArc
 50
90.0
 51
147.9287493673
  0
LINE
  5
194
330
1F
100
AcDbEntity
  8
0
  6
Continuous
 62
     7
370
    25
100
AcDbLine
 10
259.5284551364
 20
32.9134626124
 30
0.0
 11
259.5284551364
 21
32.54057866
 31
0.0
  0
LINE
  5
195
330
1F
100
AcDbEntity
  8
0
  6
Continuous
 62
     7
370
    25
100
AcDbLine
 10
259.5284551364
 20
43.1984073332
 30
0.0
 11
259.5284551364
 21
32.9134626124
 31
0.0
  0
SPLINE
  5
196
330
1F
100
AcDbEntity
  8
0
  6
Continuous
 62
     7
370
    25
100
AcDbSpline
210
0.0
220
0.0
230
1.0
 70
     8
 71
     3
 72
    11
 73
     7
 74
     0
 42
0.00000001
 43
0.00000001
 40
0.0
 40
0.0
 40
0.0
 40
0.0
 40
0.3070399872182406
 40
0.614202374372486
 40
0.9186643365364502
 40
1.0
 40
1.0
 40
1.0
 40
1.0
 10
260.7484769380597
 20
39.12746352272834
 30
0.0
 10
260.7581955168336
 20
39.0866600042668
 30
0.0
 10
260.7776365486433
 20
39.00503670122774
 30
0.0
 10
260.7890602570113
 20
38.98809527901697
 30
0.0
 10
260.789824823925
 20
39.02008276911656
 30
0.0
 10
260.7821487628502
 20
39.0794918240594
 30
0.0
 10
260.7805304596808
 20
39.09201671944118
 30
0.0
  0
ARC
  5
197
330
1F
100
AcDbEntity
  8
0
  6
Continuous
 62
     7
370
    25
100
AcDbCircle
 10
257.0639862503
 20
38.2834794867
 30
0.0
 40
3.779918078698982
100
AcDbArc
 50
12.9018176402
 51
24.2162786883
  0
ARC
  5
198
330
1F
100
AcDbEntity
  8
0
  6
Continuous
 62
     7
370
    25
100
AcDbCircle
 10
253.5107303432
 20
39.3389525689
 30
0.0
 40
7.018032155411602
100
AcDbArc
 50
355.9555700063
 51
4.0444299937
  0
ARC
  5
199
330
1F
100
AcDbEntity
  8
0
  6
Continuous
 62
     7
370
    25
100
AcDbCircle
 10
257.0639862502
 20
37.2935156825
 30
0.0
 40
3.779918078704236
100
AcDbArc
 50
12.9018176402
 51
24.2162786883
  0
SPLINE
  5
19A
330
1F
100
AcDbEntity
  8
0
  6
Continuous
 62
     7
370
    25
100
AcDbSpline
210
0.0
220
0.0
230
1.0
 70
     8
 71
     3
 72
    12
 73
     8
 74
     0
 42
0.00000001
 43
0.00000001
 40
0.0
 40
0.0
 40
0.0
 40
0.0
 40
0.2133534395476133
 40
0.4267919313634468
 40
0.6383539739091508
 40
0.8490950351927574
 40
1.0
 40
1.0
 40
1.0
 40
1.0
 10
260.7484769380597
 20
37.09488977210995
 30
0.0
 10
260.758136081787
 20
37.16834844238248
 30
0.0
 10
260.7774582198105
 20
37.31529506685444
 30
0.0
 10
260.7897712898186
 20
37.57195779840627
 30
0.0
 10
260.7874338495218
 20
37.81735916044281
 30
0.0
 10
260.7723163305081
 20
38.0130409202033
 30
0.0
 10
260.7554957181271
 20
38.10085663152911
 30
0.0
 10
260.7484769380597
 20
38.13749971861177
 30
0.0
  0
ARC
  5
19B
330
1F
100
AcDbEntity
  8
0
  6
Continuous
 62
     7
370
    25
100
AcDbCircle
 10
253.4330602512
 20
38.2346425364
 30
0.0
 40
7.403671904238999
100
AcDbArc
 50
342.9486797798
 51
351.1444282848
  0
ARC
  5
19C
330
1F
100
AcDbEntity
  8
0
  6
Continuous
 62
     7
370
    25
100
AcDbCircle
 10
257.2294722929
 20
35.724571421
 30
0.0
 40
3.299286112127886
100
AcDbArc
 50
354.1006273552
 51
5.8993726448
  0
ARC
  5
19D
330
1F
100
AcDbEntity
  8
0
  6
Continuous
 62
     7
370
    25
100
AcDbCircle
 10
253.4330602512
 20
37.5564304261
 30
0.0
 40
7.403671904248133
100
AcDbArc
 50
342.9486797798
 51
351.1444282848
  0
SPLINE
  5
19E
330
1F
100
AcDbEntity
  8
0
  6
Continuous
 62
     7
370
    25
100
AcDbSpline
210
0.0
220
0.0
230
1.0
 70
     8
 71
     3
 72
    11
 73
     7
 74
     0
 42
0.00000001
 43
0.00000001
 40
0.0
 40
0.0
 40
0.0
 40
0.0
 40
0.0714051685223787
 40
0.4141348508035189
 40
0.7555345466478963
 40
1.0
 40
1.0
 40
1.0
 40
1.0
 10
260.7847307991624
 20
36.73589299185085
 30
0.0
 10
260.7856820932577
 20
36.73803471729801
 30
0.0
 10
260.7911993974859
 20
36.75045627118378
 30
0.0
 10
260.7866056697754
 20
36.69069441606583
 30
0.0
 10
260.7724561775985
 20
36.57454909522598
 30
0.0
 10
260.7555368918262
 20
36.46315807747926
 30
0.0
 10
260.7484769380597
 20
36.41667766182362
 30
0.0
  0
SPLINE
  5
19F
330
1F
100
AcDbEntity
  8
0
  6
Continuous
 62
     7
370
    25
100
AcDbSpline
210
0.0
220
0.0
230
1.0
 70
     8
 71
     3
 72
    11
 73
     7
 74
     0
 42
0.00000001
 43
0.00000001
 40
0.0
 40
0.0
 40
0.0
 40
0.0
 40
0.3067489698104832
 40
0.6136202235443564
 40
0.9177936117939238
 40
1.0
 40
1.0
 40
1.0
 40
1.0
 10
260.7484769380597
 20
38.64409622108591
 30
0.0
 10
260.7581952056656
 20
38.57044936748356
 30
0.0
 10
260.7776356150157
 20
38.42312630133365
 30
0.0
 10
260.7890639795719
 20
38.16927946789004
 30
0.0
 10
260.7898163034015
 20
37.97511780709442
 30
0.0
 10
260.7821162905657
 20
37.88802327945879
 30
0.0
 10
260.7804780313116
 20
37.86949299659793
 30
0.0
  0
ARC
  5
1A0
330
1F
100
AcDbEntity
  8
0
  6
Continuous
 62
     7
370
    25
100
AcDbCircle
 10
253.5024259161
 20
37.5174381423
 30
0.0
 40
7.333117607075035
100
AcDbArc
 50
8.837912545
 51
11.3659567697
  0
ARC
  5
1A1
330
1F
100
AcDbEntity
  8
0
  6
Continuous
 62
     7
370
    25
100
AcDbCircle
 10
77.4274379799
 20
35.724571421
 30
0.0
 40
3.299286112126656
100
AcDbArc
 50
174.1006273552
 51
185.8993726448
  0
ARC
  5
1A2
330
1F
100
AcDbEntity
  8
0
  6
Continuous
 62
     7
370
    25
100
AcDbCircle
 10
81.2238500216
 20
38.2346425364
 30
0.0
 40
7.403671904244947
100
AcDbArc
 50
188.8555717152
 51
197.0513202202
  0
SPLINE
  5
1A3
330
1F
100
AcDbEntity
  8
0
  6
Continuous
 62
     7
370
    25
100
AcDbSpline
210
0.0
220
0.0
230
1.0
 70
     8
 71
     3
 72
    12
 73
     8
 74
     0
 42
0.00000001
 43
0.00000001
 40
0.0
 40
0.0
 40
0.0
 40
0.0
 40
0.2133534395476112
 40
0.4267919313634459
 40
0.638353973909151
 40
0.8490950351927568
 40
1.0
 40
1.0
 40
1.0
 40
1.0
 10
73.90843333471919
 20
38.13749971861177
 30
0.0
 10
73.89877419099182
 20
38.08362742733379
 30
0.0
 10
73.87945205296839
 20
37.97586136886173
 30
0.0
 10
73.86713898296026
 20
37.74425194818484
 30
0.0
 10
73.869476423257
 20
37.49409421782641
 30
0.0
 10
73.88459394227083
 20
37.26767518574243
 30
0.0
 10
73.90141455465178
 20
37.14576115315582
 30
0.0
 10
73.90843333471918
 20
37.09488977210996
 30
0.0
  0
ARC
  5
1A4
330
1F
100
AcDbEntity
  8
0
  6
Continuous
 62
     7
370
    25
100
AcDbCircle
 10
77.5929240225
 20
37.2935156825
 30
0.0
 40
3.779918078701253
100
AcDbArc
 50
155.7837213117
 51
167.0981823598
  0
ARC
  5
1A5
330
1F
100
AcDbEntity
  8
0
  6
Continuous
 62
     7
370
    25
100
AcDbCircle
 10
81.1461799296
 20
39.3389525689
 30
0.0
 40
7.018032155406583
100
AcDbArc
 50
175.9555700063
 51
184.0444299937
  0
ARC
  5
1A6
330
1F
100
AcDbEntity
  8
0
  6
Continuous
 62
     7
370
    25
100
AcDbCircle
 10
77.5929240225
 20
38.2834794867
 30
0.0
 40
3.779918078702371
100
AcDbArc
 50
155.7837213117
 51
167.0981823598
  0
SPLINE
  5
1A7
330
1F
100
AcDbEntity
  8
0
  6
Continuous
 62
     7
370
    25
100
AcDbSpline
210
0.0
220
0.0
230
1.0
 70
     8
 71
     3
 72
    11
 73
     7
 74
     0
 42
0.00000001
 43
0.00000001
 40
0.0
 40
0.0
 40
0.0
 40
0.0
 40
0.1809872363536928
 40
0.4832719085847749
 40
0.7843835440615641
 40
1.0
 40
1.0
 40
1.0
 40
1.0
 10
73.87707942183117
 20
39.09675709631011
 30
0.0
 10
73.87409223029991
 20
39.07185603830872
 30
0.0
 10
73.866115834938
 20
39.00536526211613
 30
0.0
 10
73.86991051898723
 20
38.98533703903745
 30
0.0
 10
73.8845206405207
 20
39.02557089779884
 30
0.0
 10
73.90139297319314
 20
39.09746435532422
 30
0.0
 10
73.90843333471919
 20
39.12746352272835
 30
0.0
  0
ARC
  5
1A8
330
1F
100
AcDbEntity
  8
0
  6
Continuous
 62
     7
370
    25
100
AcDbCircle
 10
81.1564451214
 20
37.5171060203
 30
0.0
 40
7.335106118656324
100
AcDbArc
 50
168.3668500212
 51
171.1618771205
  0
SPLINE
  5
1A9
330
1F
100
AcDbEntity
  8
0
  6
Continuous
 62
     7
370
    25
100
AcDbSpline
210
0.0
220
0.0
230
1.0
 70
     8
 71
     3
 72
    11
 73
     7
 74
     0
 42
0.00000001
 43
0.00000001
 40
0.0
 40
0.0
 40
0.0
 40
0.0
 40
0.1769183548232344
 40
0.4807047869466913
 40
0.7833123546318387
 40
1.0
 40
1.0
 40
1.0
 40
1.0
 10
73.87687415896491
 20
37.86949299659793
 30
0.0
 10
73.87397621556136
 20
37.91163408726998
 30
0.0
 10
73.86610221476717
 20
38.02613562688382
 30
0.0
 10
73.86992276113993
 20
38.24622989440707
 30
0.0
 10
73.88451857330105
 20
38.47108485160883
 30
0.0
 10
73.90139236456352
 20
38.59315831425162
 30
0.0
 10
73.90843333471919
 20
38.64409622108592
 30
0.0
  0
SPLINE
  5
1AA
330
1F
100
AcDbEntity
  8
0
  6
Continuous
 62
     7
370
    25
100
AcDbSpline
210
0.0
220
0.0
230
1.0
 70
     8
 71
     3
 72
    10
 73
     6
 74
     0
 42
0.00000001
 43
0.00000001
 40
0.0
 40
0.0
 40
0.0
 40
0.0
 40
0.3456786151971725
 40
0.6914950334237214
 40
1.0
 40
1.0
 40
1.0
 40
1.0
 10
73.90843333471919
 20
36.41667766182363
 30
0.0
 10
73.89884287935398
 20
36.48059557656471
 30
0.0
 10
73.87965814543705
 20
36.60845688659991
 30
0.0
 10
73.86675930954097
 20
36.7229214491319
 30
0.0
 10
73.87008497761262
 20
36.73389571404444
 30
0.0
 10
73.87165299165144
 20
36.7390699530479
 30
0.0
  0
ARC
  5
1AB
330
1F
100
AcDbEntity
  8
0
  6
Continuous
 62
     7
370
    25
100
AcDbCircle
 10
81.2238500216
 20
37.5564304261
 30
0.0
 40
7.403671904242285
100
AcDbArc
 50
188.8555717152
 51
197.0513202202
  0
LINE
  5
1AC
330
1F
100
AcDbEntity
  8
0
  6
Continuous
 62
     7
370
    25
100
AcDbLine
 10
75.1284551364
 20
32.54057866
 30
0.0
 11
75.1284551364
 21
43.1984073332
 31
0.0
  0
LINE
  5
1AD
330
1F
100
AcDbEntity
  8
0
  6
Continuous
 62
     7
370
    25
100
AcDbLine
 10
91.3697289332
 20
29.618832988
 30
0.0
 11
91.3697289332
 21
46.1201527199
 31
0.0
  0
SPLINE
  5
1AE
330
1F
100
AcDbEntity
  8
0
  6
Continuous
 62
     7
370
    25
100
AcDbSpline
210
0.0
220
0.0
230
1.0
 70
     8
 71
     3
 72
    11
 73
     7
 74
     0
 42
0.00000001
 43
0.00000001
 40
0.0
 40
0.0
 40
0.0
 40
0.0
 40
0.2499999999999918
 40
0.4999999999999998
 40
0.7499999999999961
 40
1.0
 40
1.0
 40
1.0
 40
1.0
 10
91.3697289331708
 20
46.12015425913788
 30
0.0
 10
91.43609998590817
 20
46.11426178173493
 30
0.0
 10
91.56884209138293
 20
46.10247682692903
 30
0.0
 10
91.73730583216366
 20
45.99855514449717
 30
0.0
 10
91.8553931911987
 20
45.84837474004114
 30
0.0
 10
91.87076782132586
 20
45.72881568100916
 30
0.0
 10
91.87845513638943
 20
45.66903615149317
 30
0.0
  0
LINE
  5
1AF
330
1F
100
AcDbEntity
  8
0
  6
Continuous
 62
     7
370
    25
100
AcDbLine
 10
91.8784551364
 20
45.6689813012
 30
0.0
 11
91.8784551364
 21
30.070058231
 31
0.0
  0
SPLINE
  5
1B0
330
1F
100
AcDbEntity
  8
0
  6
Continuous
 62
     7
370
    25
100
AcDbSpline
210
0.0
220
0.0
230
1.0
 70
     8
 71
     3
 72
    11
 73
     7
 74
     0
 42
0.00000001
 43
0.00000001
 40
0.0
 40
0.0
 40
0.0
 40
0.0
 40
0.2499999999999896
 40
0.4999999999999997
 40
0.7499999999999998
 40
1.0
 40
1.0
 40
1.0
 40
1.0
 10
91.3697289331708
 20
29.61883327330285
 30
0.0
 10
91.43609998590819
 20
29.62472714637536
 30
0.0
 10
91.56884209138293
 20
29.63651489252037
 30
0.0
 10
91.73730583216363
 20
29.74046118944256
 30
0.0
 10
91.85539319119874
 20
29.89067716505205
 30
0.0
 10
91.87076782132586
 20
30.01026454238329
 30
0.0
 10
91.87845513638943
 20
30.07005823104891
 30
0.0
  0
LWPOLYLINE
  5
1B1
330
1F
100
AcDbEntity
  8
0
  6
Continuous
 62
     7
370
    25
100
AcDbPolyline
 90
        3
 70
   128
 43
0.0
 10
91.3697289332
 20
46.1201527199
 10
85.3782551364
 20
46.0539003086
 10
81.8904111792
 20
46.0150843423
  0
LWPOLYLINE
  5
1B2
330
1F
100
AcDbEntity
  8
0
  6
Continuous
 62
     7
370
    25
100
AcDbPolyline
 90
        3
 70
   128
 43
0.0
 10
82.8238313931
 20
29.7134955801
 10
85.3782551364
 20
29.6850856846
 10
91.3697289501
 20
29.6188332731
  0
LINE
  5
1B3
330
1F
100
AcDbEntity
  8
0
  6
Continuous
 62
     7
370
    25
100
AcDbLine
 10
77.0284551364
 20
29.4700493423
 30
0.0
 11
77.0284551364
 21
46.2689366509
 31
0.0
  0
LINE
  5
1B4
330
1F
100
AcDbEntity
  8
0
  6
Continuous
 62
     7
370
    25
100
AcDbLine
 10
91.3697289332
 20
46.1201539733
 30
0.0
 11
91.3697289332
 21
49.6156269098
 31
0.0
  0
ARC
  5
1B5
330
1F
100
AcDbEntity
  8
0
  6
Continuous
 62
     7
370
    25
100
AcDbCircle
 10
91.3843938417
 20
49.1217405531
 30
0.0
 40
0.4941040304928636
100
AcDbArc
 50
0.7535768612
 51
91.7007770082
  0
LINE
  5
1B6
330
1F
100
AcDbEntity
  8
0
  6
Continuous
 62
     7
370
    25
100
AcDbLine
 10
91.8784551364
 20
49.1282390183
 30
0.0
 11
91.8784551364
 21
45.6689825556
 31
0.0
  0
LINE
  5
1B7
330
1F
100
AcDbEntity
  8
0
  6
Continuous
 62
     7
370
    25
100
AcDbLine
 10
91.3697289332
 20
26.1233590834
 30
0.0
 11
91.3697289332
 21
29.6188317341
 31
0.0
  0
ARC
  5
1B8
330
1F
100
AcDbEntity
  8
0
  6
Continuous
 62
     7
370
    25
100
AcDbCircle
 10
91.3843938417
 20
26.6172454401
 30
0.0
 40
0.4941040304928671
100
AcDbArc
 50
268.2992229918
 51
359.2464231388
  0
LINE
  5
1B9
330
1F
100
AcDbEntity
  8
0
  6
Continuous
 62
     7
370
    25
100
AcDbLine
 10
91.8784551364
 20
30.0700034376
 30
0.0
 11
91.8784551364
 21
26.6107469749
 31
0.0
  0
SPLINE
  5
1BA
330
1F
100
AcDbEntity
  8
0
  6
Continuous
 62
     7
370
    25
100
AcDbSpline
210
0.0
220
0.0
230
1.0
 70
     8
 71
     3
 72
    12
 73
     8
 74
     0
 42
0.00000001
 43
0.00000001
 40
0.0
 40
0.0
 40
0.0
 40
0.0
 40
0.1662426524176548
 40
0.3368059756191302
 40
0.6054181071254584
 40
0.8801435087136187
 40
1.0
 40
1.0
 40
1.0
 40
1.0
 10
87.28722110644559
 20
49.54615337826888
 30
0.0
 10
87.18776439917036
 20
49.39066820278589
 30
0.0
 10
86.98626609029144
 20
49.07565676943066
 30
0.0
 10
86.16401833426893
 20
48.41269166443215
 30
0.0
 10
84.80218916728235
 20
47.56049674762674
 30
0.0
 10
83.2410829786235
 20
46.71786806901465
 30
0.0
 10
82.27084328646187
 20
46.18000997631946
 30
0.0
 10
81.97612746875899
 20
46.01663252549222
 30
0.0
  0
LINE
  5
1BB
330
1F
100
AcDbEntity
  8
0
  6
Continuous
 62
     7
370
    25
100
AcDbLine
 10
87.2872211064
 20
49.5461533783
 30
0.0
 11
91.3697289332
 21
49.6156269098
 31
0.0
  0
LWPOLYLINE
  5
1BC
330
1F
100
AcDbEntity
  8
0
  6
Continuous
 62
     7
370
    25
100
AcDbPolyline
 90
        3
 70
   128
 43
0.0
 10
81.9761274688
 20
46.0166325255
 10
85.3784551364
 20
46.0541562291
 10
91.3697289162
 20
46.120154259
  0
LINE
  5
1BD
330
1F
100
AcDbEntity
  8
0
  6
Continuous
 62
     7
370
    25
100
AcDbLine
 10
81.8904111792
 20
46.0150843423
 30
0.0
 11
81.9350175124
 21
46.0158909594
 31
0.0
  0
LINE
  5
1BE
330
1F
100
AcDbEntity
  8
0
  6
Continuous
 62
     7
370
    25
100
AcDbLine
 10
81.9761274688
 20
46.0166325255
 30
0.0
 11
81.9350175124
 21
46.0158909594
 31
0.0
  0
LINE
  5
1BF
330
1F
100
AcDbEntity
  8
0
  6
Continuous
 62
     7
370
    25
100
AcDbLine
 10
82.8563655324
 20
29.7129085392
 30
0.0
 11
82.8945413364
 21
29.7122212365
 31
0.0
  0
LINE
  5
1C0
330
1F
100
AcDbEntity
  8
0
  6
Continuous
 62
     7
370
    25
100
AcDbLine
 10
82.8563655324
 20
29.7129085392
 30
0.0
 11
82.8238313931
 21
29.7134955801
 31
0.0
  0
LWPOLYLINE
  5
1C1
330
1F
100
AcDbEntity
  8
0
  6
Continuous
 62
     7
370
    25
100
AcDbPolyline
 90
        3
 70
   128
 43
0.0
 10
82.8945413364
 20
29.7122212365
 10
85.3784551364
 20
29.6848297641
 10
91.3697289332
 20
29.6188317341
  0
LINE
  5
1C2
330
1F
100
AcDbEntity
  8
0
  6
Continuous
 62
     7
370
    25
100
AcDbLine
 10
87.3435503235
 20
26.2387647818
 30
0.0
 11
87.3435503235
 21
26.19187404
 31
0.0
  0
SPLINE
  5
1C3
330
1F
100
AcDbEntity
  8
0
  6
Continuous
 62
     7
370
    25
100
AcDbSpline
210
0.0
220
0.0
230
1.0
 70
     8
 71
     3
 72
    13
 73
     9
 74
     0
 42
0.00000001
 43
0.00000001
 40
0.0
 40
0.0
 40
0.0
 40
0.0
 40
0.0460329529079882
 40
0.2492425848193729
 40
0.4775225570272889
 40
0.7051721168687848
 40
0.8526808263814666
 40
1.0
 40
1.0
 40
1.0
 40
1.0
 10
82.89454133637236
 20
29.71222123649545
 30
0.0
 10
82.9965318706809
 20
29.64971226805884
 30
0.0
 10
83.54875332927345
 20
29.3112613131815
 30
0.0
 10
84.58987225373505
 20
28.69328388915253
 30
0.0
 10
85.87507269711573
 20
27.88281156243939
 30
0.0
 10
86.76764359723853
 20
27.19018676117473
 30
0.0
 10
87.25618605463006
 20
26.63995295947663
 30
0.0
 10
87.31444138408078
 20
26.37243684837073
 30
0.0
 10
87.34355032351488
 20
26.23876478181038
 30
0.0
  0
LINE
  5
1C4
330
1F
100
AcDbEntity
  8
0
  6
Continuous
 62
     7
370
    25
100
AcDbLine
 10
87.3435503235
 20
26.19187404
 30
0.0
 11
91.3697289332
 21
26.1233590834
 31
0.0
  0
LINE
  5
1C5
330
1F
100
AcDbEntity
  8
0
  6
Continuous
 62
     7
370
    25
100
AcDbLine
 10
91.8784551364
 20
49.3413826113
 30
0.0
 11
91.8784551364
 21
49.1282390183
 31
0.0
  0
LINE
  5
1C6
330
1F
100
AcDbEntity
  8
0
  6
Continuous
 62
     7
370
    25
100
AcDbLine
 10
91.8784551364
 20
26.6107469749
 30
0.0
 11
91.8784551364
 21
26.3976033819
 31
0.0
  0
LINE
  5
1C7
330
1F
100
AcDbEntity
  8
0
  6
Continuous
 62
     7
370
    25
100
AcDbLine
 10
87.3435503235
 20
49.7544404435
 30
0.0
 11
87.2872211064
 21
49.5461533783
 31
0.0
  0
LINE
  5
1C8
330
1F
100
AcDbEntity
  8
0
  6
Continuous
 62
     7
370
    25
100
AcDbLine
 10
243.2871813396
 20
46.365574294
 30
0.0
 11
243.2871813396
 21
29.8642545621
 31
0.0
  0
SPLINE
  5
1C9
330
1F
100
AcDbEntity
  8
0
  6
Continuous
 62
     7
370
    25
100
AcDbSpline
210
0.0
220
0.0
230
1.0
 70
     8
 71
     3
 72
    11
 73
     7
 74
     0
 42
0.00000001
 43
0.00000001
 40
0.0
 40
0.0
 40
0.0
 40
0.0
 40
0.2499999999999913
 40
0.4999999999999988
 40
0.7499999999999947
 40
1.0
 40
1.0
 40
1.0
 40
1.0
 10
243.2871813396081
 20
29.86425302288632
 30
0.0
 10
243.2208102868707
 20
29.87014550028928
 30
0.0
 10
243.088068181396
 20
29.88193045509518
 30
0.0
 10
242.9196044406152
 20
29.98585213752704
 30
0.0
 10
242.8015170815802
 20
30.13603254198307
 30
0.0
 10
242.786142451453
 20
30.25559160101504
 30
0.0
 10
242.7784551363895
 20
30.31537113053103
 30
0.0
  0
LINE
  5
1CA
330
1F
100
AcDbEntity
  8
0
  6
Continuous
 62
     7
370
    25
100
AcDbLine
 10
242.7784551364
 20
30.3154259808
 30
0.0
 11
242.7784551364
 21
45.914349051
 31
0.0
  0
SPLINE
  5
1CB
330
1F
100
AcDbEntity
  8
0
  6
Continuous
 62
     7
370
    25
100
AcDbSpline
210
0.0
220
0.0
230
1.0
 70
     8
 71
     3
 72
    11
 73
     7
 74
     0
 42
0.00000001
 43
0.00000001
 40
0.0
 40
0.0
 40
0.0
 40
0.0
 40
0.2499999999999901
 40
0.5000000000000007
 40
0.7500000000000012
 40
1.0
 40
1.0
 40
1.0
 40
1.0
 10
243.2871813396081
 20
46.36557400872136
 30
0.0
 10
243.2208102868707
 20
46.35968013564885
 30
0.0
 10
243.088068181396
 20
46.34789238950385
 30
0.0
 10
242.9196044406152
 20
46.24394609258165
 30
0.0
 10
242.8015170815802
 20
46.09373011697215
 30
0.0
 10
242.786142451453
 20
45.97414273964092
 30
0.0
 10
242.7784551363895
 20
45.91434905097531
 30
0.0
  0
LWPOLYLINE
  5
1CC
330
1F
100
AcDbEntity
  8
0
  6
Continuous
 62
     7
370
    25
100
AcDbPolyline
 90
        3
 70
   128
 43
0.0
 10
243.2871813396
 20
29.8642545621
 10
249.2786551364
 20
29.9305069734
 10
252.7664990935
 20
29.9693229397
  0
LWPOLYLINE
  5
1CD
330
1F
100
AcDbEntity
  8
0
  6
Continuous
 62
     7
370
    25
100
AcDbPolyline
 90
        3
 70
   128
 43
0.0
 10
251.8330788797
 20
46.2709117019
 10
249.2786551364
 20
46.2993215975
 10
243.2871813227
 20
46.3655740089
  0
LINE
  5
1CE
330
1F
100
AcDbEntity
  8
0
  6
Continuous
 62
     7
370
    25
100
AcDbLine
 10
257.6284551364
 20
46.5143579397
 30
0.0
 11
257.6284551364
 21
29.7154706312
 31
0.0
  0
LINE
  5
1CF
330
1F
100
AcDbEntity
  8
0
  6
Continuous
 62
     7
370
    25
100
AcDbLine
 10
243.2871813396
 20
29.8642533088
 30
0.0
 11
243.2871813396
 21
26.3687803722
 31
0.0
  0
ARC
  5
1D0
330
1F
100
AcDbEntity
  8
0
  6
Continuous
 62
     7
370
    25
100
AcDbCircle
 10
243.2725164311
 20
26.862666729
 30
0.0
 40
0.4941040304928666
100
AcDbArc
 50
180.7535768612
 51
271.7007770082
  0
LINE
  5
1D1
330
1F
100
AcDbEntity
  8
0
  6
Continuous
 62
     7
370
    25
100
AcDbLine
 10
242.7784551364
 20
26.8561682638
 30
0.0
 11
242.7784551364
 21
30.3154247264
 31
0.0
  0
LINE
  5
1D2
330
1F
100
AcDbEntity
  8
0
  6
Continuous
 62
     7
370
    25
100
AcDbLine
 10
243.2871813396
 20
49.8610481987
 30
0.0
 11
243.2871813396
 21
46.365575548
 31
0.0
  0
ARC
  5
1D3
330
1F
100
AcDbEntity
  8
0
  6
Continuous
 62
     7
370
    25
100
AcDbCircle
 10
243.2725164311
 20
49.3671618419
 30
0.0
 40
0.4941040304928666
100
AcDbArc
 50
88.2992229918
 51
179.2464231388
  0
LINE
  5
1D4
330
1F
100
AcDbEntity
  8
0
  6
Continuous
 62
     7
370
    25
100
AcDbLine
 10
242.7784551364
 20
45.9144038444
 30
0.0
 11
242.7784551364
 21
49.3736603071
 31
0.0
  0
LINE
  5
1D5
330
1F
100
AcDbEntity
  8
0
  6
Continuous
 62
     7
370
    25
100
AcDbLine
 10
247.3133599493
 20
49.7456425002
 30
0.0
 11
247.3133599493
 21
49.792533242
 31
0.0
  0
SPLINE
  5
1D6
330
1F
100
AcDbEntity
  8
0
  6
Continuous
 62
     7
370
    25
100
AcDbSpline
210
0.0
220
0.0
230
1.0
 70
     8
 71
     3
 72
    13
 73
     9
 74
     0
 42
0.00000001
 43
0.00000001
 40
0.0
 40
0.0
 40
0.0
 40
0.0
 40
0.0460329529079872
 40
0.249242584819372
 40
0.477522557027288
 40
0.7051721168687841
 40
0.8526808263814666
 40
1.0
 40
1.0
 40
1.0
 40
1.0
 10
251.7623689364065
 20
46.27218604552876
 30
0.0
 10
251.660378402098
 20
46.33469501396537
 30
0.0
 10
251.1081569435055
 20
46.67314596884272
 30
0.0
 10
250.0670380190438
 20
47.29112339287168
 30
0.0
 10
248.7818375756631
 20
48.10159571958481
 30
0.0
 10
247.8892666755403
 20
48.79422052084949
 30
0.0
 10
247.4007242181488
 20
49.34445432254758
 30
0.0
 10
247.3424688886981
 20
49.61197043365348
 30
0.0
 10
247.313359949264
 20
49.74564250021383
 30
0.0
  0
LWPOLYLINE
  5
1D7
330
1F
100
AcDbEntity
  8
0
  6
Continuous
 62
     7
370
    25
100
AcDbPolyline
 90
        3
 70
   128
 43
0.0
 10
251.7623689364
 20
46.2721860455
 10
249.2784551364
 20
46.2995775179
 10
243.2871813396
 20
46.365575548
  0
LINE
  5
1D8
330
1F
100
AcDbEntity
  8
0
  6
Continuous
 62
     7
370
    25
100
AcDbLine
 10
247.3133599493
 20
49.792533242
 30
0.0
 11
243.2871813396
 21
49.8610481987
 31
0.0
  0
LINE
  5
1D9
330
1F
100
AcDbEntity
  8
0
  6
Continuous
 62
     7
370
    25
100
AcDbLine
 10
251.8005447404
 20
46.2714987428
 30
0.0
 11
251.7623689364
 21
46.2721860455
 31
0.0
  0
LINE
  5
1DA
330
1F
100
AcDbEntity
  8
0
  6
Continuous
 62
     7
370
    25
100
AcDbLine
 10
251.8005447404
 20
46.2714987428
 30
0.0
 11
251.8330788797
 21
46.2709117019
 31
0.0
  0
LINE
  5
1DB
330
1F
100
AcDbEntity
  8
0
  6
Continuous
 62
     7
370
    25
100
AcDbLine
 10
252.7664990935
 20
29.9693229397
 30
0.0
 11
252.7218927604
 21
29.9685163226
 31
0.0
  0
LINE
  5
1DC
330
1F
100
AcDbEntity
  8
0
  6
Continuous
 62
     7
370
    25
100
AcDbLine
 10
252.680782804
 20
29.9677747565
 30
0.0
 11
252.7218927604
 21
29.9685163226
 31
0.0
  0
LWPOLYLINE
  5
1DD
330
1F
100
AcDbEntity
  8
0
  6
Continuous
 62
     7
370
    25
100
AcDbPolyline
 90
        3
 70
   128
 43
0.0
 10
252.680782804
 20
29.9677747565
 10
249.2784551364
 20
29.930251053
 10
243.2871813565
 20
29.8642530231
  0
SPLINE
  5
1DE
330
1F
100
AcDbEntity
  8
0
  6
Continuous
 62
     7
370
    25
100
AcDbSpline
210
0.0
220
0.0
230
1.0
 70
     8
 71
     3
 72
    12
 73
     8
 74
     0
 42
0.00000001
 43
0.00000001
 40
0.0
 40
0.0
 40
0.0
 40
0.0
 40
0.1662426524176543
 40
0.3368059756191298
 40
0.6054181071254586
 40
0.880143508713619
 40
1.0
 40
1.0
 40
1.0
 40
1.0
 10
247.3696891663333
 20
26.43825390375532
 30
0.0
 10
247.4691458736085
 20
26.59373907923831
 30
0.0
 10
247.6706441824875
 20
26.90875051259355
 30
0.0
 10
248.4928919385099
 20
27.57171561759207
 30
0.0
 10
249.8547211054965
 20
28.42391053439746
 30
0.0
 10
251.4158272941554
 20
29.26653921300955
 30
0.0
 10
252.386066986317
 20
29.80439730570474
 30
0.0
 10
252.6807828040199
 20
29.96777475653198
 30
0.0
  0
LINE
  5
1DF
330
1F
100
AcDbEntity
  8
0
  6
Continuous
 62
     7
370
    25
100
AcDbLine
 10
247.3696891663
 20
26.4382539038
 30
0.0
 11
243.2871813396
 21
26.3687803722
 31
0.0
  0
LINE
  5
1E0
330
1F
100
AcDbEntity
  8
0
  6
Continuous
 62
     7
370
    25
100
AcDbLine
 10
242.7784551364
 20
49.3736603071
 30
0.0
 11
242.7784551364
 21
49.5868039002
 31
0.0
  0
LINE
  5
1E1
330
1F
100
AcDbEntity
  8
0
  6
Continuous
 62
     7
370
    25
100
AcDbLine
 10
242.7784551364
 20
26.6430246707
 30
0.0
 11
242.7784551364
 21
26.8561682638
 31
0.0
  0
LINE
  5
1E2
330
1F
100
AcDbEntity
  8
0
  6
Continuous
 62
     7
370
    25
100
AcDbLine
 10
247.3133599493
 20
26.2299668385
 30
0.0
 11
247.3696891663
 21
26.4382539038
 31
0.0
  0
LINE
  5
1E3
330
1F
100
AcDbEntity
  8
0
  6
Continuous
 62
     7
370
    25
100
AcDbLine
 10
101.7784551364
 20
46.5859500039
 30
0.0
 11
101.7784551364
 21
47.6843761326
 31
0.0
  0
SPLINE
  5
1E4
330
1F
100
AcDbEntity
  8
0
  6
Continuous
 62
     7
370
    25
100
AcDbSpline
210
0.0
220
0.0
230
1.0
 70
     8
 71
     3
 72
    13
 73
     9
 74
     0
 42
0.00000001
 43
0.00000001
 40
0.0
 40
0.0
 40
0.0
 40
0.0
 40
0.0295448902054266
 40
0.2606471239688194
 40
0.4913152552054734
 40
0.7308682638478785
 40
0.9709134921287365
 40
1.0
 40
1.0
 40
1.0
 40
1.0
 10
101.7784551363894
 20
46.58595000385248
 30
0.0
 10
101.7505303185736
 20
46.52440469674534
 30
0.0
 10
101.5041755885185
 20
45.98144761754429
 30
0.0
 10
101.1420869046212
 20
44.92600145178695
 30
0.0
 10
100.930339334427
 20
43.36766623170334
 30
0.0
 10
101.1251799692791
 20
41.78685563527433
 30
0.0
 10
101.4965251255007
 20
40.69285235632103
 30
0.0
 10
101.7509572899457
 20
40.13224067332849
 30
0.0
 10
101.7784551363894
 20
40.07165236678679
 30
0.0
  0
LINE
  5
1E5
330
1F
100
AcDbEntity
  8
0
  6
Continuous
 62
     7
370
    25
100
AcDbLine
 10
101.7784551364
 20
37.4753502047
 30
0.0
 11
101.7784551364
 21
40.0716523668
 31
0.0
  0
SPLINE
  5
1E6
330
1F
100
AcDbEntity
  8
0
  6
Continuous
 62
     7
370
    25
100
AcDbSpline
210
0.0
220
0.0
230
1.0
 70
     8
 71
     3
 72
    11
 73
     7
 74
     0
 42
0.00000001
 43
0.00000001
 40
0.0
 40
0.0
 40
0.0
 40
0.0
 40
0.2431641197380918
 40
0.4936284730588935
 40
0.7421706076863281
 40
1.0
 40
1.0
 40
1.0
 40
1.0
 10
101.7784551363894
 20
37.47535020470205
 30
0.0
 10
101.5683148131806
 20
36.90627398434479
 30
0.0
 10
101.141725368219
 20
35.75103683006541
 30
0.0
 10
100.9313409380761
 20
33.91845726274292
 30
0.0
 10
101.1220276317431
 20
32.04721216810169
 30
0.0
 10
101.5569868021378
 20
30.86083656813632
 30
0.0
 10
101.7784551363894
 20
30.25676923077513
 30
0.0
  0
LINE
  5
1E7
330
1F
100
AcDbEntity
  8
0
  6
Continuous
 62
     7
370
    25
100
AcDbLine
 10
101.7784551364
 20
28.7588931974
 30
0.0
 11
101.7784551364
 21
30.2567692308
 31
0.0
  0
SPLINE
  5
1E8
330
1F
100
AcDbEntity
  8
0
  6
Continuous
 62
     7
370
    25
100
AcDbSpline
210
0.0
220
0.0
230
1.0
 70
     8
 71
     3
 72
    11
 73
     7
 74
     0
 42
0.00000001
 43
0.00000001
 40
0.0
 40
0.0
 40
0.0
 40
0.0
 40
0.2431641197380915
 40
0.493628473058893
 40
0.7421706076863287
 40
1.0
 40
1.0
 40
1.0
 40
1.0
 10
101.7784551363894
 20
28.75889319744751
 30
0.0
 10
101.5683148131806
 20
28.70337108017138
 30
0.0
 10
101.141725368219
 20
28.59065996966079
 30
0.0
 10
100.9313409380761
 20
28.41186371352687
 30
0.0
 10
101.1220276317431
 20
28.22929504191409
 30
0.0
 10
101.5569868021378
 20
28.11354589823442
 30
0.0
 10
101.7784551363894
 20
28.05460986058627
 30
0.0
  0
SPLINE
  5
1E9
330
1F
100
AcDbEntity
  8
0
  6
Continuous
 62
     7
370
    25
100
AcDbSpline
210
0.0
220
0.0
230
1.0
 70
     8
 71
     3
 72
     9
 73
     5
 74
     0
 42
0.00000001
 43
0.00000001
 40
0.0
 40
0.0
 40
0.0
 40
0.0
 40
0.3487394647221129
 40
1.0
 40
1.0
 40
1.0
 40
1.0
 10
101.0850666518076
 20
47.40687332095541
 30
0.0
 10
101.1094084863222
 20
47.44008667505565
 30
0.0
 10
101.1792079698248
 20
47.53532497602255
 30
0.0
 10
101.5421108272251
 20
47.62559005134089
 30
0.0
 10
101.7784551363894
 20
47.6843761326096
 30
0.0
  0
LINE
  5
1EA
330
1F
100
AcDbEntity
  8
0
  6
Continuous
 62
     7
370
    25
100
AcDbLine
 10
99.7784551364
 20
42.6104711605
 30
0.0
 11
99.7784551364
 21
46.1194929966
 31
0.0
  0
LINE
  5
1EB
330
1F
100
AcDbEntity
  8
0
  6
Continuous
 62
     7
370
    25
100
AcDbLine
 10
99.7784551364
 20
29.6194929966
 30
0.0
 11
99.7784551364
 21
42.6104711605
 31
0.0
  0
SPLINE
  5
1EC
330
1F
100
AcDbEntity
  8
0
  6
Continuous
 62
     7
370
    25
100
AcDbSpline
210
0.0
220
0.0
230
1.0
 70
     8
 71
     3
 72
    30
 73
    26
 74
     0
 42
0.00000001
 43
0.00000001
 40
0.0
 40
0.0
 40
0.0
 40
0.0
 40
0.0136093589018513
 40
0.077646748111953
 40
0.1347810739036327
 40
0.1769849068927787
 40
0.204241533283474
 40
0.2303229815851675
 40
0.2594846728382921
 40
0.2864570645089605
 40
0.3219445424317325
 40
0.3828854693409762
 40
0.4369826745052885
 40
0.4813055832037644
 40
0.515846681253214
 40
0.5466662833806543
 40
0.6342697940636157
 40
0.6907798805741928
 40
0.742509204363423
 40
0.7860305983532331
 40
0.8208172845516444
 40
0.8484231294965963
 40
0.8874953751210565
 40
0.9380249228365467
 40
0.9999999999999999
 40
0.9999999999999999
 40
0.9999999999999999
 40
0.9999999999999999
 10
107.177916636992
 20
28.48163718045987
 30
0.0
 10
107.1752138483861
 20
28.47848863920693
 30
0.0
 10
107.1597933757839
 20
28.46052497233982
 30
0.0
 10
107.132048830725
 20
28.62559565442717
 30
0.0
 10
107.0989718867541
 20
28.99860933279405
 30
0.0
 10
107.0734316243082
 20
29.42689603012193
 30
0.0
 10
107.0544341961984
 20
29.81424429845654
 30
0.0
 10
107.0386026373089
 20
30.19078584068308
 30
0.0
 10
107.0226451468814
 20
30.60723787155978
 30
0.0
 10
107.005163950207
 20
31.1153368285707
 30
0.0
 10
106.9801800862133
 20
31.86149320539333
 30
0.0
 10
106.9493536986773
 20
32.87862599197857
 30
0.0
 10
106.9170032948139
 20
34.06173163270215
 30
0.0
 10
106.8903742259493
 20
35.10623108751454
 30
0.0
 10
106.8689446838792
 20
35.99519729243024
 30
0.0
 10
106.8399291232467
 20
37.25589820066627
 30
0.0
 10
106.8045051568988
 20
38.73033776962414
 30
0.0
 10
106.7645221503822
 20
40.33774336978187
 30
0.0
 10
106.7337247242717
 20
41.53552605504258
 30
0.0
 10
106.7077755947941
 20
42.50692514537269
 30
0.0
 10
106.6875581117517
 20
43.25189972844548
 30
0.0
 10
106.6679424799828
 20
43.9252457214611
 30
0.0
 10
106.6445264314792
 20
44.64601418480095
 30
0.0
 10
106.6139855580946
 20
45.48279496933791
 30
0.0
 10
106.5910755191678
 20
45.95437088632675
 30
0.0
 10
106.5784551363895
 20
46.21414646333309
 30
0.0
  0
LINE
  5
1ED
330
1F
100
AcDbEntity
  8
0
  6
Continuous
 62
     7
370
    25
100
AcDbLine
 10
106.5784551364
 20
47.2694929966
 30
0.0
 11
106.5784551364
 21
46.2141464635
 31
0.0
  0
SPLINE
  5
1EE
330
1F
100
AcDbEntity
  8
0
  6
Continuous
 62
     7
370
    25
100
AcDbSpline
210
0.0
220
0.0
230
1.0
 70
     8
 71
     3
 72
    38
 73
    34
 74
     0
 42
0.00000001
 43
0.00000001
 40
0.0
 40
0.0
 40
0.0
 40
0.0
 40
0.0240661125068554
 40
0.0679839383505108
 40
0.1125685657840761
 40
0.1438959221267361
 40
0.1776792384955937
 40
0.2210788719725156
 40
0.2461731617926302
 40
0.2682122133336146
 40
0.2935632688592976
 40
0.369455504673788
 40
0.3999470667020982
 40
0.4395502126186384
 40
0.4786100533774669
 40
0.516682857933481
 40
0.5503767769658937
 40
0.5895925370852811
 40
0.6181411384040253
 40
0.6457697099727427
 40
0.6951018263969846
 40
0.7446617072469708
 40
0.764260865116101
 40
0.789569201352977
 40
0.8205846834508663
 40
0.8620430242862906
 40
0.8879044980170473
 40
0.8964727036524105
 40
0.9151832052490493
 40
0.9338937983103698
 40
0.9526044836845986
 40
0.9713152622199495
 40
0.9999999999999999
 40
0.9999999999999999
 40
0.9999999999999999
 40
0.9999999999999999
 10
107.5306708454142
 20
28.47827576441142
 30
0.0
 10
107.5249845912887
 20
28.48016569061812
 30
0.0
 10
107.5089215919237
 20
28.4855045099512
 30
0.0
 10
107.4817297175246
 20
28.65790189190214
 30
0.0
 10
107.4528784910767
 20
28.98514688841223
 30
0.0
 10
107.42671748059
 20
29.40951499863855
 30
0.0
 10
107.4017742912215
 20
29.9266533279147
 30
0.0
 10
107.378865420271
 20
30.51848339648863
 30
0.0
 10
107.3580331599943
 20
31.11543726708717
 30
0.0
 10
107.3405089196604
 20
31.63128600097764
 30
0.0
 10
107.310692335518
 20
32.56802523366447
 30
0.0
 10
107.2789708665634
 20
33.69993301165507
 30
0.0
 10
107.2446029111759
 20
35.04410306004901
 30
0.0
 10
107.2197233337733
 20
36.08687147650158
 30
0.0
 10
107.1932961593284
 20
37.22847527836286
 30
0.0
 10
107.167166121705
 20
38.32127015891375
 30
0.0
 10
107.140535303858
 20
39.40875435955822
 30
0.0
 10
107.1161755723779
 20
40.38533658554466
 30
0.0
 10
107.0933344231836
 20
41.27524359145507
 30
0.0
 10
107.0679547818024
 20
42.22622020519731
 30
0.0
 10
107.0393797808815
 20
43.3011073886365
 30
0.0
 10
107.0124502645259
 20
44.20328800607334
 30
0.0
 10
106.9900556303785
 20
44.85128117750759
 30
0.0
 10
106.9719021135954
 20
45.33338908750667
 30
0.0
 10
106.9483335793136
 20
45.88706856338743
 30
0.0
 10
106.9246490860818
 20
46.35100231843733
 30
0.0
 10
106.9064308156217
 20
46.63698864832561
 30
0.0
 10
106.894064414636
 20
46.81074132473559
 30
0.0
 10
106.8839015577031
 20
46.94253775204467
 30
0.0
 10
106.87111088011
 20
47.07326696610225
 30
0.0
 10
106.8582575698772
 20
47.16790439545753
 30
0.0
 10
106.8430395750123
 20
47.26062242757152
 30
0.0
 10
106.8317348536349
 20
47.22795139155716
 30
0.0
 10
106.8248930045826
 20
47.20817821101328
 30
0.0
  0
SPLINE
  5
1EF
330
1F
100
AcDbEntity
  8
0
  6
Continuous
 62
     7
370
    25
100
AcDbSpline
210
0.0
220
0.0
230
1.0
 70
     8
 71
     3
 72
    18
 73
    14
 74
     0
 42
0.00000001
 43
0.00000001
 40
0.0
 40
0.0
 40
0.0
 40
0.0
 40
0.0774264717278347
 40
0.1860406538110198
 40
0.2602096872923729
 40
0.3355986391199472
 40
0.411479349578922
 40
0.5187200893514508
 40
0.628238760737948
 40
0.7366697917046751
 40
0.8447119662568084
 40
0.9543660270268705
 40
0.9999999999999999
 40
0.9999999999999999
 40
0.9999999999999999
 40
0.9999999999999999
 10
106.7265930351284
 20
29.33028723699403
 30
0.0
 10
106.7096018304894
 20
29.36504361772336
 30
0.0
 10
106.6687752921033
 20
29.44855639637247
 30
0.0
 10
106.6119602181876
 20
30.42624258950767
 30
0.0
 10
106.5589219461818
 20
31.77553266746681
 30
0.0
 10
106.5087613372319
 20
33.25437272883904
 30
0.0
 10
106.4514991547167
 20
35.19142261466064
 30
0.0
 10
106.3920404942546
 20
37.60922731959258
 30
0.0
 10
106.3187903338769
 20
40.31999418034069
 30
0.0
 10
106.2490225375684
 20
42.80026142076092
 30
0.0
 10
106.1804314790784
 20
44.79286608552252
 30
0.0
 10
106.1206607918612
 20
45.88666931060938
 30
0.0
 10
106.0880410039237
 20
46.21107550567516
 30
0.0
 10
106.0784551363894
 20
46.30640766476753
 30
0.0
  0
SPLINE
  5
1F0
330
1F
100
AcDbEntity
  8
0
  6
Continuous
 62
     7
370
    25
100
AcDbSpline
210
0.0
220
0.0
230
1.0
 70
     8
 71
     3
 72
    11
 73
     7
 74
     0
 42
0.00000001
 43
0.00000001
 40
0.0
 40
0.0
 40
0.0
 40
0.0
 40
0.1701587585696654
 40
0.514806609474055
 40
0.7558205066443116
 40
1.0
 40
1.0
 40
1.0
 40
1.0
 10
106.3268597414724
 20
46.98584020766726
 30
0.0
 10
106.3416329060373
 20
47.00709841992155
 30
0.0
 10
106.3863283588295
 20
47.07141405237033
 30
0.0
 10
106.4464271253484
 20
46.91294816564892
 30
0.0
 10
106.5162234297127
 20
46.6238372540292
 30
0.0
 10
106.5576212022648
 20
46.35130276838982
 30
0.0
 10
106.5784551363729
 20
46.21414646345079
 30
0.0
  0
SPLINE
  5
1F1
330
1F
100
AcDbEntity
  8
0
  6
Continuous
 62
     7
370
    25
100
AcDbSpline
210
0.0
220
0.0
230
1.0
 70
     8
 71
     3
 72
    16
 73
    12
 74
     0
 42
0.00000001
 43
0.00000001
 40
0.0
 40
0.0
 40
0.0
 40
0.0
 40
0.0792140638713481
 40
0.1934397168971908
 40
0.3076653699220764
 40
0.4218677295428674
 40
0.5346865681724852
 40
0.6475054053740938
 40
0.7603242420221161
 40
0.87828045029795
 40
0.9999999999999999
 40
0.9999999999999999
 40
0.9999999999999999
 40
0.9999999999999999
 10
106.2874581974357
 20
28.78703868638969
 30
0.0
 10
106.2819884720176
 20
28.79359568526618
 30
0.0
 10
106.2686314734662
 20
28.8096077915056
 30
0.0
 10
106.2466967836069
 20
29.12319032183602
 30
0.0
 10
106.2224556260075
 20
29.67830147979572
 30
0.0
 10
106.1995754785987
 20
30.46408871902337
 30
0.0
 10
106.1766753568182
 20
31.4458332069071
 30
0.0
 10
106.1525176596676
 20
32.5982102277508
 30
0.0
 10
106.1278003563683
 20
33.91235093005134
 30
0.0
 10
106.1027740252014
 20
35.37228466622607
 30
0.0
 10
106.086645846486
 20
36.41915611239845
 30
0.0
 10
106.0784551363894
 20
36.95081071985271
 30
0.0
  0
SPLINE
  5
1F2
330
1F
100
AcDbEntity
  8
0
  6
Continuous
 62
     7
370
    25
100
AcDbSpline
210
0.0
220
0.0
230
1.0
 70
    24
 71
     3
 72
    10
 73
     6
 74
     0
 42
0.00000001
 43
0.00000001
 40
0.0
 40
0.0
 40
0.0
 40
0.0
 40
0.3294562546722015
 40
0.8318642056942915
 40
1.0
 40
1.0
 40
1.0
 40
1.0
 10
106.0784551363894
 20
36.95081071985271
 30
0.0
 10
106.0784551363894
 20
37.59953859746076
 30
0.0
 10
106.0784551363894
 20
39.237551210562
 30
0.0
 10
106.0784551363894
 20
41.15141474683434
 30
0.0
 10
106.0784551363894
 20
42.25437921678932
 30
0.0
 10
106.0784551363894
 20
42.53094254101538
 30
0.0
  0
SPLINE
  5
1F3
330
1F
100
AcDbEntity
  8
0
  6
Continuous
 62
     7
370
    25
100
AcDbSpline
210
0.0
220
0.0
230
1.0
 70
     8
 71
     3
 72
    15
 73
    11
 74
     0
 42
0.00000001
 43
0.00000001
 40
0.0
 40
0.0
 40
0.0
 40
0.0
 40
0.1319494890184818
 40
0.1607829656257433
 40
0.3024001631851545
 40
0.4436737534166196
 40
0.5869484086248865
 40
0.7270936885454883
 40
0.8702158345299066
 40
1.0
 40
1.0
 40
1.0
 40
1.0
 10
106.5750774683425
 20
29.25487154323847
 30
0.0
 10
106.5531227407688
 20
29.26405755780294
 30
0.0
 10
106.5263704870461
 20
29.27525089151679
 30
0.0
 10
106.4752026650641
 20
29.77215645353885
 30
0.0
 10
106.4243510393934
 20
30.63175590612203
 30
0.0
 10
106.3555677450519
 20
32.51580345865087
 30
0.0
 10
106.2818311916556
 20
34.91593714712361
 30
0.0
 10
106.2156958535653
 20
37.60326230465233
 30
0.0
 10
106.144419596917
 20
40.26409307668511
 30
0.0
 10
106.0997149946449
 20
41.80035370707702
 30
0.0
 10
106.0784551363894
 20
42.53094254101538
 30
0.0
  0
LINE
  5
1F4
330
1F
100
AcDbEntity
  8
0
  6
Continuous
 62
     7
370
    25
100
AcDbLine
 10
104.3284551364
 20
37.4753502047
 30
0.0
 11
104.5784551364
 21
36.8397721864
 31
0.0
  0
LINE
  5
1F5
330
1F
100
AcDbEntity
  8
0
  6
Continuous
 62
     7
370
    25
100
AcDbLine
 10
104.5784551364
 20
30.8923472491
 30
0.0
 11
104.3284551364
 21
30.2567692308
 31
0.0
  0
LINE
  5
1F6
330
1F
100
AcDbEntity
  8
0
  6
Continuous
 62
     7
370
    25
100
AcDbLine
 10
101.7784551364
 20
30.2567692308
 30
0.0
 11
104.3284551364
 21
30.2567692308
 31
0.0
  0
LINE
  5
1F7
330
1F
100
AcDbEntity
  8
0
  6
Continuous
 62
     7
370
    25
100
AcDbLine
 10
104.3284551364
 20
37.4753502047
 30
0.0
 11
101.7784551364
 21
37.4753502047
 31
0.0
  0
LINE
  5
1F8
330
1F
100
AcDbEntity
  8
0
  6
Continuous
 62
     7
370
    25
100
AcDbLine
 10
104.5784551364
 20
30.8923472491
 30
0.0
 11
104.5784551364
 21
36.8397721864
 31
0.0
  0
LINE
  5
1F9
330
1F
100
AcDbEntity
  8
0
  6
Continuous
 62
     7
370
    25
100
AcDbLine
 10
106.0784551364
 20
28.9694929966
 30
0.0
 11
106.0784551364
 21
36.9508107199
 31
0.0
  0
SPLINE
  5
1FA
330
1F
100
AcDbEntity
  8
0
  6
Continuous
 62
     7
370
    25
100
AcDbSpline
210
0.0
220
0.0
230
1.0
 70
    24
 71
     3
 72
    11
 73
     7
 74
     0
 42
0.00000001
 43
0.00000001
 40
0.0
 40
0.0
 40
0.0
 40
0.0
 40
0.0521773337626345
 40
0.2615477432295213
 40
0.6847281688108021
 40
0.9999999999999999
 40
0.9999999999999999
 40
0.9999999999999999
 40
0.9999999999999999
 10
106.0784551363894
 20
42.53094254101538
 30
0.0
 10
106.0784551363894
 20
42.62916507470057
 30
0.0
 10
106.0784551363894
 20
43.12152219928102
 30
0.0
 10
106.0784551363895
 20
44.30641184573999
 30
0.0
 10
106.0784551363894
 20
45.62951811015583
 30
0.0
 10
106.0784551363894
 20
46.10388386196779
 30
0.0
 10
106.0784551363894
 20
46.30640766476753
 30
0.0
  0
LINE
  5
1FB
330
1F
100
AcDbEntity
  8
0
  6
Continuous
 62
     7
370
    25
100
AcDbLine
 10
104.3284551364
 20
37.4753502047
 30
0.0
 11
104.3284551364
 21
40.0716523668
 31
0.0
  0
LINE
  5
1FC
330
1F
100
AcDbEntity
  8
0
  6
Continuous
 62
     7
370
    25
100
AcDbLine
 10
104.5784551364
 20
40.645219997
 30
0.0
 11
104.3284551364
 21
40.0716523668
 31
0.0
  0
LINE
  5
1FD
330
1F
100
AcDbEntity
  8
0
  6
Continuous
 62
     7
370
    25
100
AcDbLine
 10
104.5784551364
 20
40.645219997
 30
0.0
 11
104.5784551364
 21
36.8397721864
 31
0.0
  0
LINE
  5
1FE
330
1F
100
AcDbEntity
  8
0
  6
Continuous
 62
     7
370
    25
100
AcDbLine
 10
101.7784551364
 20
40.0716523668
 30
0.0
 11
104.3284551364
 21
40.0716523668
 31
0.0
  0
LINE
  5
1FF
330
1F
100
AcDbEntity
  8
0
  6
Continuous
 62
     7
370
    25
100
AcDbLine
 10
104.3284551364
 20
46.5859500039
 30
0.0
 11
104.5784551364
 21
46.0123823736
 31
0.0
  0
LINE
  5
200
330
1F
100
AcDbEntity
  8
0
  6
Continuous
 62
     7
370
    25
100
AcDbLine
 10
104.3284551364
 20
46.5859500039
 30
0.0
 11
101.7784551364
 21
46.5859500039
 31
0.0
  0
LINE
  5
201
330
1F
100
AcDbEntity
  8
0
  6
Continuous
 62
     7
370
    25
100
AcDbLine
 10
104.5784551364
 20
40.645219997
 30
0.0
 11
104.5784551364
 21
46.0123823736
 31
0.0
  0
LINE
  5
202
330
1F
100
AcDbEntity
  8
0
  6
Continuous
 62
     7
370
    25
100
AcDbLine
 10
104.3284551364
 20
28.7588931974
 30
0.0
 11
104.5784551364
 21
28.6968828094
 31
0.0
  0
LINE
  5
203
330
1F
100
AcDbEntity
  8
0
  6
Continuous
 62
     7
370
    25
100
AcDbLine
 10
104.3284551364
 20
28.7588931974
 30
0.0
 11
104.3284551364
 21
30.2567692308
 31
0.0
  0
LINE
  5
204
330
1F
100
AcDbEntity
  8
0
  6
Continuous
 62
     7
370
    25
100
AcDbLine
 10
104.5784551364
 20
30.8923472491
 30
0.0
 11
104.5784551364
 21
28.6968828094
 31
0.0
  0
LINE
  5
205
330
1F
100
AcDbEntity
  8
0
  6
Continuous
 62
     7
370
    25
100
AcDbLine
 10
104.3284551364
 20
28.7588931974
 30
0.0
 11
101.7784551364
 21
28.7588931974
 31
0.0
  0
LINE
  5
206
330
1F
100
AcDbEntity
  8
0
  6
Continuous
 62
     7
370
    25
100
AcDbLine
 10
104.3284551364
 20
46.5859500039
 30
0.0
 11
104.3284551364
 21
47.6843761326
 31
0.0
  0
LINE
  5
207
330
1F
100
AcDbEntity
  8
0
  6
Continuous
 62
     7
370
    25
100
AcDbLine
 10
104.5784551364
 20
47.6223657445
 30
0.0
 11
104.3284551364
 21
47.6843761326
 31
0.0
  0
LINE
  5
208
330
1F
100
AcDbEntity
  8
0
  6
Continuous
 62
     7
370
    25
100
AcDbLine
 10
104.5784551364
 20
47.6223657445
 30
0.0
 11
104.5784551364
 21
46.0123823736
 31
0.0
  0
LINE
  5
209
330
1F
100
AcDbEntity
  8
0
  6
Continuous
 62
     7
370
    25
100
AcDbLine
 10
101.7784551364
 20
47.6843761326
 30
0.0
 11
104.3284551364
 21
47.6843761326
 31
0.0
  0
LINE
  5
20A
330
1F
100
AcDbEntity
  8
0
  6
Continuous
 62
     7
370
    25
100
AcDbLine
 10
104.5784551364
 20
28.1166202487
 30
0.0
 11
104.3284551364
 21
28.0546098606
 31
0.0
  0
LINE
  5
20B
330
1F
100
AcDbEntity
  8
0
  6
Continuous
 62
     7
370
    25
100
AcDbLine
 10
101.7784551364
 20
28.0546098606
 30
0.0
 11
104.3284551364
 21
28.0546098606
 31
0.0
  0
LINE
  5
20C
330
1F
100
AcDbEntity
  8
0
  6
Continuous
 62
     7
370
    25
100
AcDbLine
 10
104.5784551364
 20
28.1166202487
 30
0.0
 11
104.5784551364
 21
28.6968828094
 31
0.0
  0
LINE
  5
20D
330
1F
100
AcDbEntity
  8
0
  6
Continuous
 62
     7
370
    25
100
AcDbLine
 10
234.1284551364
 20
40.0716523668
 30
0.0
 11
234.1284551364
 21
37.4753502047
 31
0.0
  0
SPLINE
  5
20E
330
1F
100
AcDbEntity
  8
0
  6
Continuous
 62
     7
370
    25
100
AcDbSpline
210
0.0
220
0.0
230
1.0
 70
     8
 71
     3
 72
    13
 73
     9
 74
     0
 42
0.00000001
 43
0.00000001
 40
0.0
 40
0.0
 40
0.0
 40
0.0
 40
0.0295448902054266
 40
0.2606471239688193
 40
0.491315255205473
 40
0.7308682638478775
 40
0.9709134921287355
 40
1.0
 40
1.0
 40
1.0
 40
1.0
 10
234.1284551363894
 20
40.07165236678679
 30
0.0
 10
234.1563799542053
 20
40.13319767389394
 30
0.0
 10
234.4027346842603
 20
40.67615475309499
 30
0.0
 10
234.7648233681577
 20
41.73160091885232
 30
0.0
 10
234.9765709383519
 20
43.28993613893594
 30
0.0
 10
234.7817303034998
 20
44.87074673536494
 30
0.0
 10
234.4103851472783
 20
45.96475001431827
 30
0.0
 10
234.1559529828332
 20
46.52536169731078
 30
0.0
 10
234.1284551363894
 20
46.58595000385248
 30
0.0
  0
LINE
  5
20F
330
1F
100
AcDbEntity
  8
0
  6
Continuous
 62
     7
370
    25
100
AcDbLine
 10
234.1284551364
 20
47.6843761326
 30
0.0
 11
234.1284551364
 21
46.5859500039
 31
0.0
  0
SPLINE
  5
210
330
1F
100
AcDbEntity
  8
0
  6
Continuous
 62
     7
370
    25
100
AcDbSpline
210
0.0
220
0.0
230
1.0
 70
     8
 71
     3
 72
     9
 73
     5
 74
     0
 42
0.00000001
 43
0.00000001
 40
0.0
 40
0.0
 40
0.0
 40
0.0
 40
0.6141669735876173
 40
1.0
 40
1.0
 40
1.0
 40
1.0
 10
234.1284551363895
 20
47.68437613260959
 30
0.0
 10
234.3510065368095
 20
47.62898190032856
 30
0.0
 10
234.7133695585787
 20
47.53878780871622
 30
0.0
 10
234.7926100120628
 20
47.44358232208971
 30
0.0
 10
234.8231835960448
 20
47.40684890105354
 30
0.0
  0
SPLINE
  5
211
330
1F
100
AcDbEntity
  8
0
  6
Continuous
 62
     7
370
    25
100
AcDbSpline
210
0.0
220
0.0
230
1.0
 70
     8
 71
     3
 72
    11
 73
     7
 74
     0
 42
0.00000001
 43
0.00000001
 40
0.0
 40
0.0
 40
0.0
 40
0.0
 40
0.243164119738092
 40
0.4936284730588932
 40
0.742170607686328
 40
1.0
 40
1.0
 40
1.0
 40
1.0
 10
234.1284551363895
 20
28.05460986058626
 30
0.0
 10
234.3385954595982
 20
28.11013197786239
 30
0.0
 10
234.7651849045598
 20
28.22284308837299
 30
0.0
 10
234.9755693347028
 20
28.4016393445069
 30
0.0
 10
234.7848826410359
 20
28.58420801611969
 30
0.0
 10
234.3499234706412
 20
28.69995715979935
 30
0.0
 10
234.1284551363894
 20
28.75889319744751
 30
0.0
  0
LINE
  5
212
330
1F
100
AcDbEntity
  8
0
  6
Continuous
 62
     7
370
    25
100
AcDbLine
 10
234.1284551364
 20
30.2567692308
 30
0.0
 11
234.1284551364
 21
28.7588931974
 31
0.0
  0
SPLINE
  5
213
330
1F
100
AcDbEntity
  8
0
  6
Continuous
 62
     7
370
    25
100
AcDbSpline
210
0.0
220
0.0
230
1.0
 70
     8
 71
     3
 72
    11
 73
     7
 74
     0
 42
0.00000001
 43
0.00000001
 40
0.0
 40
0.0
 40
0.0
 40
0.0
 40
0.2431641197380919
 40
0.4936284730588941
 40
0.7421706076863291
 40
1.0
 40
1.0
 40
1.0
 40
1.0
 10
234.1284551363894
 20
30.25676923077512
 30
0.0
 10
234.3385954595982
 20
30.82584545113239
 30
0.0
 10
234.7651849045598
 20
31.98108260541176
 30
0.0
 10
234.9755693347028
 20
33.81366217273425
 30
0.0
 10
234.7848826410359
 20
35.68490726737549
 30
0.0
 10
234.3499234706411
 20
36.87128286734086
 30
0.0
 10
234.1284551363894
 20
37.47535020470205
 30
0.0
  0
LINE
  5
214
330
1F
100
AcDbEntity
  8
0
  6
Continuous
 62
     7
370
    25
100
AcDbLine
 10
236.1284551364
 20
42.6104711605
 30
0.0
 11
236.1284551364
 21
29.6194929966
 31
0.0
  0
LINE
  5
215
330
1F
100
AcDbEntity
  8
0
  6
Continuous
 62
     7
370
    25
100
AcDbLine
 10
236.1284551364
 20
46.1194929966
 30
0.0
 11
236.1284551364
 21
42.6104711605
 31
0.0
  0
SPLINE
  5
216
330
1F
100
AcDbEntity
  8
0
  6
Continuous
 62
     7
370
    25
100
AcDbSpline
210
0.0
220
0.0
230
1.0
 70
     8
 71
     3
 72
    19
 73
    15
 74
     0
 42
0.00000001
 43
0.00000001
 40
0.0
 40
0.0
 40
0.0
 40
0.0
 40
0.0116747442427731
 40
0.0774896797007511
 40
0.1362136415723207
 40
0.3031342007634973
 40
0.410809054964539
 40
0.5093745985844617
 40
0.5923006750044957
 40
0.6585835564481524
 40
0.7111839949377997
 40
0.785632621912271
 40
0.8819121008348813
 40
1.0
 40
1.0
 40
1.0
 40
1.0
 10
229.0147010088069
 20
47.2538165942974
 30
0.0
 10
229.0159268346989
 20
47.25427762418526
 30
0.0
 10
229.0240631033631
 20
47.25733765339011
 30
0.0
 10
229.0379429788726
 20
47.17622998207642
 30
0.0
 10
229.0669995747057
 20
46.94429880276416
 30
0.0
 10
229.1024008536867
 20
46.4363658689157
 30
0.0
 10
229.1423889661654
 20
45.59476268161529
 30
0.0
 10
229.1731853675232
 20
44.7920727972743
 30
0.0
 10
229.1991347132021
 20
44.00425070579156
 30
0.0
 10
229.2193521545382
 20
43.30310182547607
 30
0.0
 10
229.2389677950924
 20
42.59142083553173
 30
0.0
 10
229.2623838403772
 20
41.72442797664729
 30
0.0
 10
229.2929247150065
 20
40.5415233318319
 30
0.0
 10
229.3158347537255
 20
39.61633450085936
 30
0.0
 10
229.3284551363894
 20
39.10667857114103
 30
0.0
  0
LINE
  5
217
330
1F
100
AcDbEntity
  8
0
  6
Continuous
 62
     7
370
    25
100
AcDbLine
 10
229.3284551364
 20
28.5512650844
 30
0.0
 11
229.3284551364
 21
39.1066785709
 31
0.0
  0
SPLINE
  5
218
330
1F
100
AcDbEntity
  8
0
  6
Continuous
 62
     7
370
    25
100
AcDbSpline
210
0.0
220
0.0
230
1.0
 70
     8
 71
     3
 72
    36
 73
    32
 74
     0
 42
0.00000001
 43
0.00000001
 40
0.0
 40
0.0
 40
0.0
 40
0.0
 40
0.0107200018201637
 40
0.0520602593979731
 40
0.0928333808394137
 40
0.1325761717371911
 40
0.1677480061803746
 40
0.2086838860688449
 40
0.2384847138740465
 40
0.2673251566905019
 40
0.3188211263322691
 40
0.3705548508242993
 40
0.391013685996775
 40
0.4174321210651187
 40
0.4498080343708135
 40
0.4930848612293899
 40
0.5200806960457529
 40
0.5290247286408407
 40
0.5485559284360572
 40
0.5680872237078683
 40
0.5876186153417061
 40
0.6071501042229895
 40
0.6851087215395553
 40
0.7212206873892139
 40
0.7533853098737222
 40
0.7816014543636342
 40
0.8424746847174005
 40
0.8663209903729383
 40
0.9005299383316542
 40
0.9450932184811159
 40
1.0
 40
1.0
 40
1.0
 40
1.0
 10
228.652827714098
 20
47.2598689580736
 30
0.0
 10
228.6552455484093
 20
47.26242340992194
 30
0.0
 10
228.6669874383403
 20
47.27482876470403
 30
0.0
 10
228.6871596642635
 20
47.17376085773323
 30
0.0
 10
228.7136212017543
 20
46.9312011907536
 30
0.0
 10
228.7397425191795
 20
46.56598153331555
 30
0.0
 10
228.7663754645978
 20
46.08888858322335
 30
0.0
 10
228.7907346010581
 20
45.55183346647269
 30
0.0
 10
228.813575871337
 20
44.96635184729634
 30
0.0
 10
228.8389554800352
 20
44.24984862483203
 30
0.0
 10
228.8675304955732
 20
43.28518630544584
 30
0.0
 10
228.8944600080462
 20
42.27712821244641
 30
0.0
 10
228.9168546422594
 20
41.43014529490327
 30
0.0
 10
228.9350081603818
 20
40.72896038497609
 30
0.0
 10
228.9585766869502
 20
39.79960227158877
 30
0.0
 10
228.9822612145892
 20
38.84053666242256
 30
0.0
 10
229.0004794124779
 20
38.09408379697358
 30
0.0
 10
229.0128459301091
 20
37.57134802807693
 30
0.0
 10
229.0230080386405
 20
37.1192462622631
 30
0.0
 10
229.035801861412
 20
36.57010020576017
 30
0.0
 10
229.0486435043013
 20
36.02535302449761
 30
0.0
 10
229.0745374210423
 20
34.95065500316329
 30
0.0
 10
229.1050249082346
 20
33.76488586832784
 30
0.0
 10
229.1387407452894
 20
32.58542365071142
 30
0.0
 10
229.1607905949176
 20
31.85922799908165
 30
0.0
 10
229.188363440845
 20
31.01390098000482
 30
0.0
 10
229.2133966517353
 20
30.32559281026932
 30
0.0
 10
229.2392699633268
 20
29.71997593299377
 30
0.0
 10
229.2624852601915
 20
29.27200380969855
 30
0.0
 10
229.2929208961019
 20
28.81093632463048
 30
0.0
 10
229.3158167721916
 20
28.64362163064935
 30
0.0
 10
229.3284551363894
 20
28.55126508443597
 30
0.0
  0
SPLINE
  5
219
330
1F
100
AcDbEntity
  8
0
  6
Continuous
 62
     7
370
    25
100
AcDbSpline
210
0.0
220
0.0
230
1.0
 70
     8
 71
     3
 72
     9
 73
     5
 74
     0
 42
0.00000001
 43
0.00000001
 40
0.0
 40
0.0
 40
0.0
 40
0.0
 40
0.9763813925560015
 40
1.0
 40
1.0
 40
1.0
 40
1.0
 10
228.6784551363895
 20
29.60890549795983
 30
0.0
 10
228.6993953068879
 20
29.36676492537412
 30
0.0
 10
228.7208420188574
 20
29.11876698683104
 30
0.0
 10
228.7408873727457
 20
29.23886910322136
 30
0.0
 10
228.7413608160903
 20
29.24170574796157
 30
0.0
  0
SPLINE
  5
21A
330
1F
100
AcDbEntity
  8
0
  6
Continuous
 62
     7
370
    25
100
AcDbSpline
210
0.0
220
0.0
230
1.0
 70
     8
 71
     3
 72
    13
 73
     9
 74
     0
 42
0.00000001
 43
0.00000001
 40
0.0
 40
0.0
 40
0.0
 40
0.0
 40
0.163253676379175
 40
0.353661261700989
 40
0.5421778910478534
 40
0.7300184602307094
 40
0.9206614315855749
 40
1.0
 40
1.0
 40
1.0
 40
1.0
 10
229.4563087457499
 20
46.45289122841288
 30
0.0
 10
229.4758283334071
 20
46.3754451605986
 30
0.0
 10
229.5181141927632
 20
46.20767145611333
 30
0.0
 10
229.5880524037381
 20
44.95362841453174
 30
0.0
 10
229.6579057041667
 20
43.03050903796911
 30
0.0
 10
229.7264737934668
 20
40.58766213243642
 30
0.0
 10
229.78624993265
 20
38.39595957414591
 30
0.0
 10
229.8188693714538
 20
37.11612558883036
 30
0.0
 10
229.8284551363894
 20
36.74002507362539
 30
0.0
  0
SPLINE
  5
21B
330
1F
100
AcDbEntity
  8
0
  6
Continuous
 62
     7
370
    25
100
AcDbSpline
210
0.0
220
0.0
230
1.0
 70
    24
 71
     3
 72
    10
 73
     6
 74
     0
 42
0.00000001
 43
0.00000001
 40
0.0
 40
0.0
 40
0.0
 40
0.0
 40
0.3187287177375316
 40
0.8180873955881237
 40
1.0
 40
1.0
 40
1.0
 40
1.0
 10
229.8284551363894
 20
36.74002507362539
 30
0.0
 10
229.8284551363894
 20
36.11772133369341
 30
0.0
 10
229.8284551363894
 20
34.52044183694931
 30
0.0
 10
229.8284551363894
 20
32.71379117006787
 30
0.0
 10
229.8284551363894
 20
31.70881086127889
 30
0.0
 10
229.8284551363894
 20
31.44046168802837
 30
0.0
  0
SPLINE
  5
21C
330
1F
100
AcDbEntity
  8
0
  6
Continuous
 62
     7
370
    25
100
AcDbSpline
210
0.0
220
0.0
230
1.0
 70
     8
 71
     3
 72
    13
 73
     9
 74
     0
 42
0.00000001
 43
0.00000001
 40
0.0
 40
0.0
 40
0.0
 40
0.0
 40
0.2187316754180425
 40
0.393147377746412
 40
0.5714254113794046
 40
0.7494200729435005
 40
0.8738925945231121
 40
1.0
 40
1.0
 40
1.0
 40
1.0
 10
229.8284551363894
 20
31.44046168802837
 30
0.0
 10
229.7907273294829
 20
31.87570524045159
 30
0.0
 10
229.7229155307342
 20
32.65801013977258
 30
0.0
 10
229.6241021021213
 20
34.0522380742264
 30
0.0
 10
229.5350905658701
 20
35.45333287513095
 30
0.0
 10
229.460377638933
 20
36.8009412407179
 30
0.0
 10
229.3907095600274
 20
38.02649465043415
 30
0.0
 10
229.3492966756995
 20
38.74505453978838
 30
0.0
 10
229.328455136406
 20
39.10667857085367
 30
0.0
  0
LINE
  5
21D
330
1F
100
AcDbEntity
  8
0
  6
Continuous
 62
     7
370
    25
100
AcDbLine
 10
229.3284551364
 20
28.5512650844
 30
0.0
 11
229.3473860551
 21
28.5310810995
 31
0.0
  0
SPLINE
  5
21E
330
1F
100
AcDbEntity
  8
0
  6
Continuous
 62
     7
370
    25
100
AcDbSpline
210
0.0
220
0.0
230
1.0
 70
     8
 71
     3
 72
     9
 73
     5
 74
     0
 42
0.00000001
 43
0.00000001
 40
0.0
 40
0.0
 40
0.0
 40
0.0
 40
0.2575807037701783
 40
1.0
 40
1.0
 40
1.0
 40
1.0
 10
229.7947158754053
 20
46.77201067174823
 30
0.0
 10
229.7977095295124
 20
46.77783634293594
 30
0.0
 10
229.8093317281608
 20
46.80045322029687
 30
0.0
 10
229.8203069327342
 20
46.63261603920131
 30
0.0
 10
229.8284551363894
 20
46.50801047733115
 30
0.0
  0
SPLINE
  5
21F
330
1F
100
AcDbEntity
  8
0
  6
Continuous
 62
     7
370
    25
100
AcDbSpline
210
0.0
220
0.0
230
1.0
 70
    24
 71
     3
 72
    10
 73
     6
 74
     0
 42
0.00000001
 43
0.00000001
 40
0.0
 40
0.0
 40
0.0
 40
0.0
 40
0.3294562546722022
 40
0.8318642056942919
 40
1.0
 40
1.0
 40
1.0
 40
1.0
 10
229.8284551363894
 20
46.50801047733115
 30
0.0
 10
229.8284551363894
 20
46.28425002764512
 30
0.0
 10
229.8284551363894
 20
45.71926361107499
 30
0.0
 10
229.8284551363894
 20
44.43911208571701
 30
0.0
 10
229.8284551363894
 20
43.38853971980452
 30
0.0
 10
229.8284551363894
 20
43.12511347737201
 30
0.0
  0
SPLINE
  5
220
330
1F
100
AcDbEntity
  8
0
  6
Continuous
 62
     7
370
    25
100
AcDbSpline
210
0.0
220
0.0
230
1.0
 70
     8
 71
     3
 72
    11
 73
     7
 74
     0
 42
0.00000001
 43
0.00000001
 40
0.0
 40
0.0
 40
0.0
 40
0.0
 40
0.1124281466988205
 40
0.4201181812307394
 40
0.7263587932182936
 40
1.0
 40
1.0
 40
1.0
 40
1.0
 10
228.6784551363895
 20
33.69440406863636
 30
0.0
 10
228.6871759401376
 20
33.39512827283168
 30
0.0
 10
228.719763582264
 20
32.27680330962951
 30
0.0
 10
228.774832806813
 20
30.82490491599838
 30
0.0
 10
228.8407903617287
 20
29.53561735526365
 30
0.0
 10
228.8861921196176
 20
29.36643984884549
 30
0.0
 10
228.9076168158515
 20
29.28660644914547
 30
0.0
  0
SPLINE
  5
221
330
1F
100
AcDbEntity
  8
0
  6
Continuous
 62
     7
370
    25
100
AcDbSpline
210
0.0
220
0.0
230
1.0
 70
     8
 71
     3
 72
    11
 73
     7
 74
     0
 42
0.00000001
 43
0.00000001
 40
0.0
 40
0.0
 40
0.0
 40
0.0
 40
0.0058314992650623
 40
0.3431453499632228
 40
0.6876241808559895
 40
1.0
 40
1.0
 40
1.0
 40
1.0
 10
229.6230528788047
 20
46.49858742422787
 30
0.0
 10
229.6234612116595
 20
46.50095710587049
 30
0.0
 10
229.647488912596
 20
46.64039727375805
 30
0.0
 10
229.690947503022
 20
46.14070011986424
 30
0.0
 10
229.7625507259469
 20
45.03751935138907
 30
0.0
 10
229.8072146318327
 20
43.74146776092731
 30
0.0
 10
229.8284551363894
 20
43.12511347737201
 30
0.0
  0
LINE
  5
222
330
1F
100
AcDbEntity
  8
0
  6
Continuous
 62
     7
370
    25
100
AcDbLine
 10
231.5784551364
 20
30.2567692308
 30
0.0
 11
231.3284551364
 21
30.8923472491
 31
0.0
  0
LINE
  5
223
330
1F
100
AcDbEntity
  8
0
  6
Continuous
 62
     7
370
    25
100
AcDbLine
 10
231.3284551364
 20
36.8397721864
 30
0.0
 11
231.5784551364
 21
37.4753502047
 31
0.0
  0
LINE
  5
224
330
1F
100
AcDbEntity
  8
0
  6
Continuous
 62
     7
370
    25
100
AcDbLine
 10
234.1284551364
 20
37.4753502047
 30
0.0
 11
231.5784551364
 21
37.4753502047
 31
0.0
  0
LINE
  5
225
330
1F
100
AcDbEntity
  8
0
  6
Continuous
 62
     7
370
    25
100
AcDbLine
 10
231.5784551364
 20
30.2567692308
 30
0.0
 11
234.1284551364
 21
30.2567692308
 31
0.0
  0
LINE
  5
226
330
1F
100
AcDbEntity
  8
0
  6
Continuous
 62
     7
370
    25
100
AcDbLine
 10
231.3284551364
 20
36.8397721864
 30
0.0
 11
231.3284551364
 21
30.8923472491
 31
0.0
  0
LINE
  5
227
330
1F
100
AcDbEntity
  8
0
  6
Continuous
 62
     7
370
    25
100
AcDbLine
 10
229.8284551364
 20
31.440461688
 30
0.0
 11
229.8284551364
 21
28.9694929966
 31
0.0
  0
SPLINE
  5
228
330
1F
100
AcDbEntity
  8
0
  6
Continuous
 62
     7
370
    25
100
AcDbSpline
210
0.0
220
0.0
230
1.0
 70
    24
 71
     3
 72
    11
 73
     7
 74
     0
 42
0.00000001
 43
0.00000001
 40
0.0
 40
0.0
 40
0.0
 40
0.0
 40
0.0521773337626343
 40
0.2615477432295206
 40
0.6847281688108012
 40
1.0
 40
1.0
 40
1.0
 40
1.0
 10
229.8284551363894
 20
43.12511347737201
 30
0.0
 10
229.8284551363894
 20
43.03085276682594
 30
0.0
 10
229.8284551363895
 20
42.5583549532985
 30
0.0
 10
229.8284551363894
 20
41.22022349790035
 30
0.0
 10
229.8284551363894
 20
39.12237515037972
 30
0.0
 10
229.8284551363894
 20
37.45281875445164
 30
0.0
 10
229.8284551363894
 20
36.74002507362539
 30
0.0
  0
LINE
  5
229
330
1F
100
AcDbEntity
  8
0
  6
Continuous
 62
     7
370
    25
100
AcDbLine
 10
231.5784551364
 20
40.0716523668
 30
0.0
 11
231.3284551364
 21
40.645219997
 31
0.0
  0
LINE
  5
22A
330
1F
100
AcDbEntity
  8
0
  6
Continuous
 62
     7
370
    25
100
AcDbLine
 10
231.5784551364
 20
40.0716523668
 30
0.0
 11
231.5784551364
 21
37.4753502047
 31
0.0
  0
LINE
  5
22B
330
1F
100
AcDbEntity
  8
0
  6
Continuous
 62
     7
370
    25
100
AcDbLine
 10
231.3284551364
 20
36.8397721864
 30
0.0
 11
231.3284551364
 21
40.645219997
 31
0.0
  0
LINE
  5
22C
330
1F
100
AcDbEntity
  8
0
  6
Continuous
 62
     7
370
    25
100
AcDbLine
 10
231.5784551364
 20
40.0716523668
 30
0.0
 11
234.1284551364
 21
40.0716523668
 31
0.0
  0
LINE
  5
22D
330
1F
100
AcDbEntity
  8
0
  6
Continuous
 62
     7
370
    25
100
AcDbLine
 10
231.3284551364
 20
46.0123823736
 30
0.0
 11
231.5784551364
 21
46.5859500039
 31
0.0
  0
LINE
  5
22E
330
1F
100
AcDbEntity
  8
0
  6
Continuous
 62
     7
370
    25
100
AcDbLine
 10
234.1284551364
 20
46.5859500039
 30
0.0
 11
231.5784551364
 21
46.5859500039
 31
0.0
  0
LINE
  5
22F
330
1F
100
AcDbEntity
  8
0
  6
Continuous
 62
     7
370
    25
100
AcDbLine
 10
231.3284551364
 20
46.0123823736
 30
0.0
 11
231.3284551364
 21
40.645219997
 31
0.0
  0
LINE
  5
230
330
1F
100
AcDbEntity
  8
0
  6
Continuous
 62
     7
370
    25
100
AcDbLine
 10
231.3284551364
 20
28.6968828094
 30
0.0
 11
231.5784551364
 21
28.7588931974
 31
0.0
  0
LINE
  5
231
330
1F
100
AcDbEntity
  8
0
  6
Continuous
 62
     7
370
    25
100
AcDbLine
 10
231.5784551364
 20
30.2567692308
 30
0.0
 11
231.5784551364
 21
28.7588931974
 31
0.0
  0
LINE
  5
232
330
1F
100
AcDbEntity
  8
0
  6
Continuous
 62
     7
370
    25
100
AcDbLine
 10
231.3284551364
 20
28.6968828094
 30
0.0
 11
231.3284551364
 21
30.8923472491
 31
0.0
  0
LINE
  5
233
330
1F
100
AcDbEntity
  8
0
  6
Continuous
 62
     7
370
    25
100
AcDbLine
 10
234.1284551364
 20
28.7588931974
 30
0.0
 11
231.5784551364
 21
28.7588931974
 31
0.0
  0
LINE
  5
234
330
1F
100
AcDbEntity
  8
0
  6
Continuous
 62
     7
370
    25
100
AcDbLine
 10
231.5784551364
 20
47.6843761326
 30
0.0
 11
231.3284551364
 21
47.6223657445
 31
0.0
  0
LINE
  5
235
330
1F
100
AcDbEntity
  8
0
  6
Continuous
 62
     7
370
    25
100
AcDbLine
 10
231.5784551364
 20
47.6843761326
 30
0.0
 11
231.5784551364
 21
46.5859500039
 31
0.0
  0
LINE
  5
236
330
1F
100
AcDbEntity
  8
0
  6
Continuous
 62
     7
370
    25
100
AcDbLine
 10
231.3284551364
 20
46.0123823736
 30
0.0
 11
231.3284551364
 21
47.6223657445
 31
0.0
  0
LINE
  5
237
330
1F
100
AcDbEntity
  8
0
  6
Continuous
 62
     7
370
    25
100
AcDbLine
 10
231.5784551364
 20
47.6843761326
 30
0.0
 11
234.1284551364
 21
47.6843761326
 31
0.0
  0
LINE
  5
238
330
1F
100
AcDbEntity
  8
0
  6
Continuous
 62
     7
370
    25
100
AcDbLine
 10
231.5784551364
 20
28.0546098606
 30
0.0
 11
231.3284551364
 21
28.1166202487
 31
0.0
  0
LINE
  5
239
330
1F
100
AcDbEntity
  8
0
  6
Continuous
 62
     7
370
    25
100
AcDbLine
 10
231.5784551364
 20
28.0546098606
 30
0.0
 11
234.1284551364
 21
28.0546098606
 31
0.0
  0
LINE
  5
23A
330
1F
100
AcDbEntity
  8
0
  6
Continuous
 62
     7
370
    25
100
AcDbLine
 10
231.3284551364
 20
28.6968828094
 30
0.0
 11
231.3284551364
 21
28.1166202487
 31
0.0
  0
SPLINE
  5
23B
330
1F
100
AcDbEntity
  8
0
  6
Continuous
 62
     7
370
    25
100
AcDbSpline
210
0.0
220
0.0
230
1.0
 70
     8
 71
     3
 72
     9
 73
     5
 74
     0
 42
0.00000001
 43
0.00000001
 40
0.0
 40
0.0
 40
0.0
 40
0.0
 40
0.5841917497409228
 40
1.0
 40
1.0
 40
1.0
 40
1.0
 10
122.9284551363894
 20
53.60122887759695
 30
0.0
 10
122.9546231002101
 20
53.34738690892086
 30
0.0
 10
122.9994165500187
 20
52.91286867276182
 30
0.0
 10
123.2420309675327
 20
52.28968196481666
 30
0.0
 10
123.3429120439668
 20
52.03055579020127
 30
0.0
  0
LINE
  5
23C
330
1F
100
AcDbEntity
  8
0
  6
Continuous
 62
     7
370
    25
100
AcDbLine
 10
122.9284551364
 20
53.6012288776
 30
0.0
 11
122.9284551364
 21
54.2138189609
 31
0.0
  0
SPLINE
  5
23D
330
1F
100
AcDbEntity
  8
0
  6
Continuous
 62
     7
370
    25
100
AcDbSpline
210
0.0
220
0.0
230
1.0
 70
     8
 71
     3
 72
     9
 73
     5
 74
     0
 42
0.00000001
 43
0.00000001
 40
0.0
 40
0.0
 40
0.0
 40
0.0
 40
0.5850553834536181
 40
1.0
 40
1.0
 40
1.0
 40
1.0
 10
123.3429120439668
 20
54.57716797413202
 30
0.0
 10
123.2063579099425
 20
54.58670530501165
 30
0.0
 10
122.9729541367505
 20
54.60300689140733
 30
0.0
 10
122.9415048490253
 20
54.32795165181032
 30
0.0
 10
122.9284551363894
 20
54.21381896088666
 30
0.0
  0
SPLINE
  5
23E
330
1F
100
AcDbEntity
  8
0
  6
Continuous
 62
     7
370
    25
100
AcDbSpline
210
0.0
220
0.0
230
1.0
 70
     8
 71
     3
 72
     9
 73
     5
 74
     0
 42
0.00000001
 43
0.00000001
 40
0.0
 40
0.0
 40
0.0
 40
0.0
 40
0.2910559175694252
 40
1.0
 40
1.0
 40
1.0
 40
1.0
 10
124.2423384917372
 20
54.18352275444855
 30
0.0
 10
124.2210495497385
 20
54.22266971872665
 30
0.0
 10
124.147905728522
 20
54.3571695241421
 30
0.0
 10
123.6768583181174
 20
54.48590308087558
 30
0.0
 10
123.3429120439668
 20
54.57716797413202
 30
0.0
  0
LINE
  5
23F
330
1F
100
AcDbEntity
  8
0
  6
Continuous
 62
     7
370
    25
100
AcDbLine
 10
123.342912044
 20
21.1618180191
 30
0.0
 11
123.2351017718
 21
21.1843328174
 31
0.0
  0
SPLINE
  5
240
330
1F
100
AcDbEntity
  8
0
  6
Continuous
 62
     7
370
    25
100
AcDbSpline
210
0.0
220
0.0
230
1.0
 70
     8
 71
     3
 72
    11
 73
     7
 74
     0
 42
0.00000001
 43
0.00000001
 40
0.0
 40
0.0
 40
0.0
 40
0.0
 40
0.2328716322111456
 40
0.4710265024313186
 40
0.7311421212560271
 40
1.0
 40
1.0
 40
1.0
 40
1.0
 10
123.3429120439668
 20
22.20463137451269
 30
0.0
 10
123.6133087786396
 20
22.12554391999523
 30
0.0
 10
124.1602368307704
 20
21.96557472695165
 30
0.0
 10
124.461461148754
 20
21.70653739516416
 30
0.0
 10
124.2538093833443
 20
21.43339420752067
 30
0.0
 10
123.649871551564
 20
21.25333534981026
 30
0.0
 10
123.3429120439668
 20
21.16181801906385
 30
0.0
  0
SPLINE
  5
241
330
1F
100
AcDbEntity
  8
0
  6
Continuous
 62
     7
370
    25
100
AcDbSpline
210
0.0
220
0.0
230
1.0
 70
     8
 71
     3
 72
     9
 73
     5
 74
     0
 42
0.00000001
 43
0.00000001
 40
0.0
 40
0.0
 40
0.0
 40
0.0
 40
0.5841917497409185
 40
1.0
 40
1.0
 40
1.0
 40
1.0
 10
122.9284551363894
 20
22.97853682691113
 30
0.0
 10
122.9546231002101
 20
22.74888855069736
 30
0.0
 10
122.9994165500187
 20
22.35578427232363
 30
0.0
 10
123.2420309675327
 20
22.24902341838505
 30
0.0
 10
123.3429120439668
 20
22.20463137451269
 30
0.0
  0
LINE
  5
242
330
1F
100
AcDbEntity
  8
0
  6
Continuous
 62
     7
370
    25
100
AcDbLine
 10
122.9284551364
 20
22.9785368269
 30
0.0
 11
122.9284551364
 21
23.8138993333
 31
0.0
  0
SPLINE
  5
243
330
1F
100
AcDbEntity
  8
0
  6
Continuous
 62
     7
370
    25
100
AcDbSpline
210
0.0
220
0.0
230
1.0
 70
     8
 71
     3
 72
     9
 73
     5
 74
     0
 42
0.00000001
 43
0.00000001
 40
0.0
 40
0.0
 40
0.0
 40
0.0
 40
0.5850553834536176
 40
1.0
 40
1.0
 40
1.0
 40
1.0
 10
123.3429120439668
 20
25.67733587108737
 30
0.0
 10
123.2063579099425
 20
25.26932075677274
 30
0.0
 10
122.9729541367505
 20
24.57192504714592
 30
0.0
 10
122.9415048490253
 20
24.03619686035302
 30
0.0
 10
122.9284551363894
 20
23.81389933331115
 30
0.0
  0
SPLINE
  5
244
330
1F
100
AcDbEntity
  8
0
  6
Continuous
 62
     7
370
    25
100
AcDbSpline
210
0.0
220
0.0
230
1.0
 70
     8
 71
     3
 72
    11
 73
     7
 74
     0
 42
0.00000001
 43
0.00000001
 40
0.0
 40
0.0
 40
0.0
 40
0.0
 40
0.2556279644380999
 40
0.5185037642963934
 40
0.7560467972580139
 40
1.0
 40
1.0
 40
1.0
 40
1.0
 10
123.3429120439668
 20
36.36569416811604
 30
0.0
 10
123.6365380040688
 20
35.47461787530327
 30
0.0
 10
124.2321151192044
 20
33.66720054866499
 30
0.0
 10
124.464004080831
 20
30.90993821639108
 30
0.0
 10
124.1810336223702
 20
28.20435864711828
 30
0.0
 10
123.6247544888059
 20
26.52711983526769
 30
0.0
 10
123.3429120439668
 20
25.67733587108737
 30
0.0
  0
SPLINE
  5
245
330
1F
100
AcDbEntity
  8
0
  6
Continuous
 62
     7
370
    25
100
AcDbSpline
210
0.0
220
0.0
230
1.0
 70
     8
 71
     3
 72
     9
 73
     5
 74
     0
 42
0.00000001
 43
0.00000001
 40
0.0
 40
0.0
 40
0.0
 40
0.0
 40
0.5841917497409215
 40
1.0
 40
1.0
 40
1.0
 40
1.0
 10
122.9284551363894
 20
38.71027270791016
 30
0.0
 10
122.9546231002101
 20
38.22678246302029
 30
0.0
 10
122.9994165500187
 20
37.39915994848752
 30
0.0
 10
123.2420309675327
 20
36.66921238660379
 30
0.0
 10
123.3429120439668
 20
36.36569416811604
 30
0.0
  0
LINE
  5
246
330
1F
100
AcDbEntity
  8
0
  6
Continuous
 62
     7
370
    25
100
AcDbLine
 10
122.9284551364
 20
38.7102727079
 30
0.0
 11
122.9284551364
 21
40.1582252976
 31
0.0
  0
SPLINE
  5
247
330
1F
100
AcDbEntity
  8
0
  6
Continuous
 62
     7
370
    25
100
AcDbSpline
210
0.0
220
0.0
230
1.0
 70
     8
 71
     3
 72
     9
 73
     5
 74
     0
 42
0.00000001
 43
0.00000001
 40
0.0
 40
0.0
 40
0.0
 40
0.0
 40
0.5850553834536164
 40
1.0
 40
1.0
 40
1.0
 40
1.0
 10
123.3429120439668
 20
42.38501084862147
 30
0.0
 10
123.2063579099425
 20
41.98653306518647
 30
0.0
 10
122.9729541367505
 20
41.30543894195534
 30
0.0
 10
122.9415048490253
 20
40.49465551556542
 30
0.0
 10
122.9284551363894
 20
40.1582252975999
 30
0.0
  0
SPLINE
  5
248
330
1F
100
AcDbEntity
  8
0
  6
Continuous
 62
     7
370
    25
100
AcDbSpline
210
0.0
220
0.0
230
1.0
 70
     8
 71
     3
 72
    11
 73
     7
 74
     0
 42
0.00000001
 43
0.00000001
 40
0.0
 40
0.0
 40
0.0
 40
0.0
 40
0.2328716322111445
 40
0.4710265024313167
 40
0.7311421212560263
 40
1.0
 40
1.0
 40
1.0
 40
1.0
 10
123.3429120439668
 20
52.03055579020127
 30
0.0
 10
123.6133087786396
 20
51.29903313288451
 30
0.0
 10
124.1602368307704
 20
49.81939151465271
 30
0.0
 10
124.461461148754
 20
47.42341508008955
 30
0.0
 10
124.2538093833443
 20
44.89696595270226
 30
0.0
 10
123.649871551564
 20
43.23150415639857
 30
0.0
 10
123.3429120439668
 20
42.38501084862147
 30
0.0
  0
LINE
  5
249
330
1F
100
AcDbEntity
  8
0
  6
Continuous
 62
     7
370
    25
100
AcDbLine
 10
124.4284551364
 20
54.0694929966
 30
0.0
 11
124.4284551364
 21
21.6694929966
 31
0.0
  0
SPLINE
  5
24A
330
1F
100
AcDbEntity
  8
0
  6
Continuous
 62
     7
370
    25
100
AcDbSpline
210
0.0
220
0.0
230
1.0
 70
     8
 71
     3
 72
     9
 73
     5
 74
     0
 42
0.00000001
 43
0.00000001
 40
0.0
 40
0.0
 40
0.0
 40
0.0
 40
0.5850553834534112
 40
1.0
 40
1.0
 40
1.0
 40
1.0
 10
116.0639982288115
 20
36.36569416811459
 30
0.0
 10
116.200552362836
 20
36.80042559772608
 30
0.0
 10
116.4339561360282
 20
37.54348589920624
 30
0.0
 10
116.4654054237536
 20
38.36810249201088
 30
0.0
 10
116.4784551363894
 20
38.71027270791016
 30
0.0
  0
SPLINE
  5
24B
330
1F
100
AcDbEntity
  8
0
  6
Continuous
 62
     7
370
    25
100
AcDbSpline
210
0.0
220
0.0
230
1.0
 70
     8
 71
     3
 72
    11
 73
     7
 74
     0
 42
0.00000001
 43
0.00000001
 40
0.0
 40
0.0
 40
0.0
 40
0.0
 40
0.2379053903768483
 40
0.4814905141303177
 40
0.7366519444348059
 40
1.0
 40
1.0
 40
1.0
 40
1.0
 10
116.0639982288122
 20
25.67733587108712
 30
0.0
 10
115.7884127938391
 20
26.50572766832703
 30
0.0
 10
115.2306626202857
 20
28.18228821923584
 30
0.0
 10
114.9440993956294
 20
30.85995505334298
 30
0.0
 10
115.1689798018273
 20
33.63884162169198
 30
0.0
 10
115.7625349187452
 20
35.44722593335727
 30
0.0
 10
116.0639982288115
 20
36.36569416811459
 30
0.0
  0
SPLINE
  5
24C
330
1F
100
AcDbEntity
  8
0
  6
Continuous
 62
     7
370
    25
100
AcDbSpline
210
0.0
220
0.0
230
1.0
 70
     8
 71
     3
 72
     9
 73
     5
 74
     0
 42
0.00000001
 43
0.00000001
 40
0.0
 40
0.0
 40
0.0
 40
0.0
 40
0.5841917497409935
 40
1.0
 40
1.0
 40
1.0
 40
1.0
 10
116.4784551363894
 20
23.81389933331115
 30
0.0
 10
116.4522871725688
 20
24.13634011992323
 30
0.0
 10
116.4074937227602
 20
24.68828353020767
 30
0.0
 10
116.1648793052462
 20
25.38686142075077
 30
0.0
 10
116.0639982288122
 20
25.67733587108712
 30
0.0
  0
LINE
  5
24D
330
1F
100
AcDbEntity
  8
0
  6
Continuous
 62
     7
370
    25
100
AcDbLine
 10
116.4784551364
 20
23.8138993333
 30
0.0
 11
116.4784551364
 21
22.9785368269
 31
0.0
  0
SPLINE
  5
24E
330
1F
100
AcDbEntity
  8
0
  6
Continuous
 62
     7
370
    25
100
AcDbSpline
210
0.0
220
0.0
230
1.0
 70
     8
 71
     3
 72
     9
 73
     5
 74
     0
 42
0.00000001
 43
0.00000001
 40
0.0
 40
0.0
 40
0.0
 40
0.0
 40
0.5850553834536193
 40
1.0
 40
1.0
 40
1.0
 40
1.0
 10
116.0639982288121
 20
22.20463137451269
 30
0.0
 10
116.2005523628364
 20
22.27731690020671
 30
0.0
 10
116.4339561360283
 20
22.40155390024073
 30
0.0
 10
116.4654054237536
 20
22.80933164639641
 30
0.0
 10
116.4784551363894
 20
22.97853682691113
 30
0.0
  0
SPLINE
  5
24F
330
1F
100
AcDbEntity
  8
0
  6
Continuous
 62
     7
370
    25
100
AcDbSpline
210
0.0
220
0.0
230
1.0
 70
     8
 71
     3
 72
    11
 73
     7
 74
     0
 42
0.00000001
 43
0.00000001
 40
0.0
 40
0.0
 40
0.0
 40
0.0
 40
0.2328716322111473
 40
0.4710265024313225
 40
0.7311421212560294
 40
1.0
 40
1.0
 40
1.0
 40
1.0
 10
116.0639982288121
 20
21.16181801906385
 30
0.0
 10
115.7936014941393
 20
21.24090547358132
 30
0.0
 10
115.2466734420085
 20
21.40087466662488
 30
0.0
 10
114.9454491240249
 20
21.6599119984124
 30
0.0
 10
115.1531008894346
 20
21.93305518605585
 30
0.0
 10
115.7570387212148
 20
22.11311404376626
 30
0.0
 10
116.0639982288121
 20
22.20463137451269
 30
0.0
  0
LINE
  5
250
330
1F
100
AcDbEntity
  8
0
  6
Continuous
 62
     7
370
    25
100
AcDbLine
 10
116.18480222
 20
21.1661609459
 30
0.0
 11
116.0639982288
 21
21.1618180191
 31
0.0
  0
SPLINE
  5
251
330
1F
100
AcDbEntity
  8
0
  6
Continuous
 62
     7
370
    25
100
AcDbSpline
210
0.0
220
0.0
230
1.0
 70
     8
 71
     3
 72
     9
 73
     5
 74
     0
 42
0.00000001
 43
0.00000001
 40
0.0
 40
0.0
 40
0.0
 40
0.0
 40
0.6137694938147298
 40
1.0
 40
1.0
 40
1.0
 40
1.0
 10
116.0639982288121
 20
54.57716797413202
 30
0.0
 10
115.7788865904036
 20
54.49823661840736
 30
0.0
 10
115.3143609968678
 20
54.36963564276407
 30
0.0
 10
115.1959719405845
 20
54.23530720601871
 30
0.0
 10
115.1502464754493
 20
54.18342546589948
 30
0.0
  0
SPLINE
  5
252
330
1F
100
AcDbEntity
  8
0
  6
Continuous
 62
     7
370
    25
100
AcDbSpline
210
0.0
220
0.0
230
1.0
 70
     8
 71
     3
 72
     9
 73
     5
 74
     0
 42
0.00000001
 43
0.00000001
 40
0.0
 40
0.0
 40
0.0
 40
0.0
 40
0.5841917497409246
 40
1.0
 40
1.0
 40
1.0
 40
1.0
 10
116.4784551363894
 20
54.21381896088666
 30
0.0
 10
116.4522871725688
 20
54.36483629866581
 30
0.0
 10
116.4074937227602
 20
54.62334275283284
 30
0.0
 10
116.1648793052462
 20
54.590729029405
 30
0.0
 10
116.0639982288121
 20
54.57716797413202
 30
0.0
  0
LINE
  5
253
330
1F
100
AcDbEntity
  8
0
  6
Continuous
 62
     7
370
    25
100
AcDbLine
 10
116.4784551364
 20
54.2138189609
 30
0.0
 11
116.4784551364
 21
53.6012288776
 31
0.0
  0
SPLINE
  5
254
330
1F
100
AcDbEntity
  8
0
  6
Continuous
 62
     7
370
    25
100
AcDbSpline
210
0.0
220
0.0
230
1.0
 70
     8
 71
     3
 72
     9
 73
     5
 74
     0
 42
0.00000001
 43
0.00000001
 40
0.0
 40
0.0
 40
0.0
 40
0.0
 40
0.5850553834536214
 40
1.0
 40
1.0
 40
1.0
 40
1.0
 10
116.0639982288121
 20
52.03055579020127
 30
0.0
 10
116.2005523628364
 20
52.39260169411866
 30
0.0
 10
116.4339561360283
 20
53.01142499556442
 30
0.0
 10
116.4654054237536
 20
53.4282638422128
 30
0.0
 10
116.4784551363894
 20
53.60122887759695
 30
0.0
  0
SPLINE
  5
255
330
1F
100
AcDbEntity
  8
0
  6
Continuous
 62
     7
370
    25
100
AcDbSpline
210
0.0
220
0.0
230
1.0
 70
     8
 71
     3
 72
    11
 73
     7
 74
     0
 42
0.00000001
 43
0.00000001
 40
0.0
 40
0.0
 40
0.0
 40
0.0
 40
0.2328716322111489
 40
0.471026502431326
 40
0.7311421212560306
 40
1.0
 40
1.0
 40
1.0
 40
1.0
 10
116.0639982288121
 20
42.38501084862147
 30
0.0
 10
115.7936014941393
 20
43.11653350593825
 30
0.0
 10
115.2466734420085
 20
44.59617512417009
 30
0.0
 10
114.9454491240249
 20
46.99215155873325
 30
0.0
 10
115.1531008894346
 20
49.51860068612054
 30
0.0
 10
115.7570387212148
 20
51.18406248242419
 30
0.0
 10
116.0639982288121
 20
52.03055579020127
 30
0.0
  0
SPLINE
  5
256
330
1F
100
AcDbEntity
  8
0
  6
Continuous
 62
     7
370
    25
100
AcDbSpline
210
0.0
220
0.0
230
1.0
 70
     8
 71
     3
 72
     9
 73
     5
 74
     0
 42
0.00000001
 43
0.00000001
 40
0.0
 40
0.0
 40
0.0
 40
0.0
 40
0.5841917497409261
 40
1.0
 40
1.0
 40
1.0
 40
1.0
 10
116.4784551363894
 20
40.1582252975999
 30
0.0
 10
116.4522871725688
 20
40.63168342199114
 30
0.0
 10
116.4074937227602
 20
41.44213328644267
 30
0.0
 10
116.1648793052462
 20
42.108097453558
 30
0.0
 10
116.0639982288121
 20
42.38501084862147
 30
0.0
  0
LINE
  5
257
330
1F
100
AcDbEntity
  8
0
  6
Continuous
 62
     7
370
    25
100
AcDbLine
 10
116.4784551364
 20
40.1582252976
 30
0.0
 11
116.4784551364
 21
38.7102727079
 31
0.0
  0
LINE
  5
258
330
1F
100
AcDbEntity
  8
0
  6
Continuous
 62
     7
370
    25
100
AcDbLine
 10
114.9784551364
 20
31.0425857211
 30
0.0
 11
114.9784551364
 21
54.0694929966
 31
0.0
  0
LINE
  5
259
330
1F
100
AcDbEntity
  8
0
  6
Continuous
 62
     7
370
    25
100
AcDbLine
 10
114.9784551364
 20
21.6694929966
 30
0.0
 11
114.9784551364
 21
31.0425857211
 31
0.0
  0
LINE
  5
25A
330
1F
100
AcDbEntity
  8
0
  6
Continuous
 62
     7
370
    25
100
AcDbLine
 10
107.2284551364
 20
48.4444929966
 30
0.0
 11
107.2284551364
 21
27.2944929966
 31
0.0
  0
LINE
  5
25B
330
1F
100
AcDbEntity
  8
0
  6
Continuous
 62
     7
370
    25
100
AcDbLine
 10
123.342912044
 20
52.0305557902
 30
0.0
 11
116.0639982288
 21
52.0305557902
 31
0.0
  0
LINE
  5
25C
330
1F
100
AcDbEntity
  8
0
  6
Continuous
 62
     7
370
    25
100
AcDbLine
 10
116.0639982288
 20
42.3850108486
 30
0.0
 11
123.342912044
 21
42.3850108486
 31
0.0
  0
LINE
  5
25D
330
1F
100
AcDbEntity
  8
0
  6
Continuous
 62
     7
370
    25
100
AcDbLine
 10
122.9284551364
 20
40.1582252976
 30
0.0
 11
116.4784551364
 21
40.1582252976
 31
0.0
  0
LINE
  5
25E
330
1F
100
AcDbEntity
  8
0
  6
Continuous
 62
     7
370
    25
100
AcDbLine
 10
116.4784551364
 20
38.7102727079
 30
0.0
 11
122.9284551364
 21
38.7102727079
 31
0.0
  0
LINE
  5
25F
330
1F
100
AcDbEntity
  8
0
  6
Continuous
 62
     7
370
    25
100
AcDbLine
 10
123.342912044
 20
36.3656941681
 30
0.0
 11
116.0639982288
 21
36.3656941681
 31
0.0
  0
LINE
  5
260
330
1F
100
AcDbEntity
  8
0
  6
Continuous
 62
     7
370
    25
100
AcDbLine
 10
116.0639982288
 20
25.6773358711
 30
0.0
 11
123.342912044
 21
25.6773358711
 31
0.0
  0
LINE
  5
261
330
1F
100
AcDbEntity
  8
0
  6
Continuous
 62
     7
370
    25
100
AcDbLine
 10
122.9284551364
 20
23.8138993333
 30
0.0
 11
116.4784551364
 21
23.8138993333
 31
0.0
  0
LINE
  5
262
330
1F
100
AcDbEntity
  8
0
  6
Continuous
 62
     7
370
    25
100
AcDbLine
 10
116.4784551364
 20
22.9785368269
 30
0.0
 11
122.9284551364
 21
22.9785368269
 31
0.0
  0
LINE
  5
263
330
1F
100
AcDbEntity
  8
0
  6
Continuous
 62
     7
370
    25
100
AcDbLine
 10
116.4784551364
 20
53.6012288776
 30
0.0
 11
122.9284551364
 21
53.6012288776
 31
0.0
  0
LINE
  5
264
330
1F
100
AcDbEntity
  8
0
  6
Continuous
 62
     7
370
    25
100
AcDbLine
 10
123.342912044
 20
22.2046313745
 30
0.0
 11
116.0639982288
 21
22.2046313745
 31
0.0
  0
LINE
  5
265
330
1F
100
AcDbEntity
  8
0
  6
Continuous
 62
     7
370
    25
100
AcDbLine
 10
122.9284551364
 20
54.2138189609
 30
0.0
 11
116.4784551364
 21
54.2138189609
 31
0.0
  0
LINE
  5
266
330
1F
100
AcDbEntity
  8
0
  6
Continuous
 62
     7
370
    25
100
AcDbLine
 10
116.0639982288
 20
21.1618180191
 30
0.0
 11
123.342912044
 21
21.1618180191
 31
0.0
  0
SPLINE
  5
267
330
1F
100
AcDbEntity
  8
0
  6
Continuous
 62
     7
370
    25
100
AcDbSpline
210
0.0
220
0.0
230
1.0
 70
     8
 71
     3
 72
     9
 73
     5
 74
     0
 42
0.00000001
 43
0.00000001
 40
0.0
 40
0.0
 40
0.0
 40
0.0
 40
0.5841917497409234
 40
0.9999999999999999
 40
0.9999999999999999
 40
0.9999999999999999
 40
0.9999999999999999
 10
212.9784551363895
 20
40.1582252975999
 30
0.0
 10
212.9522871725688
 20
40.63168342199113
 30
0.0
 10
212.9074937227601
 20
41.44213328644266
 30
0.0
 10
212.6648793052462
 20
42.108097453558
 30
0.0
 10
212.5639982288121
 20
42.38501084862146
 30
0.0
  0
LINE
  5
268
330
1F
100
AcDbEntity
  8
0
  6
Continuous
 62
     7
370
    25
100
AcDbLine
 10
212.9784551364
 20
40.1582252976
 30
0.0
 11
212.9784551364
 21
38.7102727079
 31
0.0
  0
SPLINE
  5
269
330
1F
100
AcDbEntity
  8
0
  6
Continuous
 62
     7
370
    25
100
AcDbSpline
210
0.0
220
0.0
230
1.0
 70
     8
 71
     3
 72
     9
 73
     5
 74
     0
 42
0.00000001
 43
0.00000001
 40
0.0
 40
0.0
 40
0.0
 40
0.0
 40
0.5850553834536164
 40
1.0
 40
1.0
 40
1.0
 40
1.0
 10
212.5639982288121
 20
36.36569416811604
 30
0.0
 10
212.7005523628364
 20
36.80042559772745
 30
0.0
 10
212.9339561360283
 20
37.54348589920723
 30
0.0
 10
212.9654054237537
 20
38.3681024920113
 30
0.0
 10
212.9784551363895
 20
38.71027270791016
 30
0.0
  0
SPLINE
  5
26A
330
1F
100
AcDbEntity
  8
0
  6
Continuous
 62
     7
370
    25
100
AcDbSpline
210
0.0
220
0.0
230
1.0
 70
     8
 71
     3
 72
    11
 73
     7
 74
     0
 42
0.00000001
 43
0.00000001
 40
0.0
 40
0.0
 40
0.0
 40
0.0
 40
0.232871632211145
 40
0.4710265024313184
 40
0.731142121256027
 40
0.9999999999999999
 40
0.9999999999999999
 40
0.9999999999999999
 40
0.9999999999999999
 10
212.5639982288121
 20
25.67733587108737
 30
0.0
 10
212.2936014941393
 20
26.4879459829216
 30
0.0
 10
211.7466734420085
 20
28.12755679419699
 30
0.0
 10
211.4454491240249
 20
30.78257056054764
 30
0.0
 10
211.6531008894346
 20
33.58216287557841
 30
0.0
 10
212.2570387212149
 20
35.42768352959251
 30
0.0
 10
212.5639982288121
 20
36.36569416811604
 30
0.0
  0
SPLINE
  5
26B
330
1F
100
AcDbEntity
  8
0
  6
Continuous
 62
     7
370
    25
100
AcDbSpline
210
0.0
220
0.0
230
1.0
 70
     8
 71
     3
 72
     9
 73
     5
 74
     0
 42
0.00000001
 43
0.00000001
 40
0.0
 40
0.0
 40
0.0
 40
0.0
 40
0.5841917497409213
 40
1.0
 40
1.0
 40
1.0
 40
1.0
 10
212.9784551363895
 20
23.81389933331114
 30
0.0
 10
212.9522871725688
 20
24.13634011992322
 30
0.0
 10
212.9074937227602
 20
24.68828353020773
 30
0.0
 10
212.6648793052462
 20
25.38686142075092
 30
0.0
 10
212.5639982288121
 20
25.67733587108737
 30
0.0
  0
LINE
  5
26C
330
1F
100
AcDbEntity
  8
0
  6
Continuous
 62
     7
370
    25
100
AcDbLine
 10
212.9784551364
 20
23.8138993333
 30
0.0
 11
212.9784551364
 21
22.9785368269
 31
0.0
  0
SPLINE
  5
26D
330
1F
100
AcDbEntity
  8
0
  6
Continuous
 62
     7
370
    25
100
AcDbSpline
210
0.0
220
0.0
230
1.0
 70
     8
 71
     3
 72
     9
 73
     5
 74
     0
 42
0.00000001
 43
0.00000001
 40
0.0
 40
0.0
 40
0.0
 40
0.0
 40
0.5850553834536157
 40
1.0
 40
1.0
 40
1.0
 40
1.0
 10
212.5639982288121
 20
22.20463137451267
 30
0.0
 10
212.7005523628364
 20
22.2773169002067
 30
0.0
 10
212.9339561360283
 20
22.40155390024071
 30
0.0
 10
212.9654054237537
 20
22.8093316463964
 30
0.0
 10
212.9784551363895
 20
22.97853682691112
 30
0.0
  0
SPLINE
  5
26E
330
1F
100
AcDbEntity
  8
0
  6
Continuous
 62
     7
370
    25
100
AcDbSpline
210
0.0
220
0.0
230
1.0
 70
     8
 71
     3
 72
    11
 73
     7
 74
     0
 42
0.00000001
 43
0.00000001
 40
0.0
 40
0.0
 40
0.0
 40
0.0
 40
0.2379053903768113
 40
0.4814905141302429
 40
0.7366519444347657
 40
1.0
 40
1.0
 40
1.0
 40
1.0
 10
212.5639982288122
 20
21.16181801906381
 30
0.0
 10
212.2884127938391
 20
21.24264034983711
 30
0.0
 10
211.7306626202857
 20
21.40621455694358
 30
0.0
 10
211.4440993956293
 20
21.6674620430824
 30
0.0
 10
211.6689798018274
 20
21.93858506742541
 30
0.0
 10
212.2625349187456
 20
22.11502070511483
 30
0.0
 10
212.5639982288121
 20
22.20463137451267
 30
0.0
  0
LINE
  5
26F
330
1F
100
AcDbEntity
  8
0
  6
Continuous
 62
     7
370
    25
100
AcDbLine
 10
212.68480222
 20
21.1661609459
 30
0.0
 11
212.5639982288
 21
21.1618180191
 31
0.0
  0
SPLINE
  5
270
330
1F
100
AcDbEntity
  8
0
  6
Continuous
 62
     7
370
    25
100
AcDbSpline
210
0.0
220
0.0
230
1.0
 70
     8
 71
     3
 72
     9
 73
     5
 74
     0
 42
0.00000001
 43
0.00000001
 40
0.0
 40
0.0
 40
0.0
 40
0.0
 40
0.672342263059961
 40
1.0
 40
1.0
 40
1.0
 40
1.0
 10
212.5639982288121
 20
54.57716797413202
 30
0.0
 10
212.2471714163905
 20
54.49045205000354
 30
0.0
 10
211.7759429516207
 20
54.36147618623168
 30
0.0
 10
211.6934136581009
 20
54.22664300577318
 30
0.0
 10
211.666372296555
 20
54.18246387099973
 30
0.0
  0
SPLINE
  5
271
330
1F
100
AcDbEntity
  8
0
  6
Continuous
 62
     7
370
    25
100
AcDbSpline
210
0.0
220
0.0
230
1.0
 70
     8
 71
     3
 72
     9
 73
     5
 74
     0
 42
0.00000001
 43
0.00000001
 40
0.0
 40
0.0
 40
0.0
 40
0.0
 40
0.5841917497409217
 40
1.0
 40
1.0
 40
1.0
 40
1.0
 10
212.9784551363895
 20
54.21381896088666
 30
0.0
 10
212.9522871725688
 20
54.36483629866582
 30
0.0
 10
212.9074937227602
 20
54.62334275283285
 30
0.0
 10
212.6648793052462
 20
54.590729029405
 30
0.0
 10
212.5639982288121
 20
54.57716797413203
 30
0.0
  0
LINE
  5
272
330
1F
100
AcDbEntity
  8
0
  6
Continuous
 62
     7
370
    25
100
AcDbLine
 10
212.9784551364
 20
54.2138189609
 30
0.0
 11
212.9784551364
 21
53.6012288776
 31
0.0
  0
SPLINE
  5
273
330
1F
100
AcDbEntity
  8
0
  6
Continuous
 62
     7
370
    25
100
AcDbSpline
210
0.0
220
0.0
230
1.0
 70
     8
 71
     3
 72
     9
 73
     5
 74
     0
 42
0.00000001
 43
0.00000001
 40
0.0
 40
0.0
 40
0.0
 40
0.0
 40
0.5850553834536191
 40
1.0
 40
1.0
 40
1.0
 40
1.0
 10
212.5639982288121
 20
52.03055579020127
 30
0.0
 10
212.7005523628364
 20
52.39260169411865
 30
0.0
 10
212.9339561360283
 20
53.01142499556443
 30
0.0
 10
212.9654054237537
 20
53.4282638422128
 30
0.0
 10
212.9784551363895
 20
53.60122887759695
 30
0.0
  0
SPLINE
  5
274
330
1F
100
AcDbEntity
  8
0
  6
Continuous
 62
     7
370
    25
100
AcDbSpline
210
0.0
220
0.0
230
1.0
 70
     8
 71
     3
 72
    11
 73
     7
 74
     0
 42
0.00000001
 43
0.00000001
 40
0.0
 40
0.0
 40
0.0
 40
0.0
 40
0.2328716322111445
 40
0.4710265024313174
 40
0.7311421212560267
 40
1.0
 40
1.0
 40
1.0
 40
1.0
 10
212.5639982288121
 20
42.38501084862146
 30
0.0
 10
212.2936014941393
 20
43.11653350593824
 30
0.0
 10
211.7466734420085
 20
44.59617512417004
 30
0.0
 10
211.4454491240249
 20
46.99215155873319
 30
0.0
 10
211.6531008894346
 20
49.51860068612048
 30
0.0
 10
212.2570387212149
 20
51.18406248242417
 30
0.0
 10
212.5639982288121
 20
52.03055579020127
 30
0.0
  0
LINE
  5
275
330
1F
100
AcDbEntity
  8
0
  6
Continuous
 62
     7
370
    25
100
AcDbLine
 10
211.4784551364
 20
21.6694929966
 30
0.0
 11
211.4784551364
 21
54.0694929966
 31
0.0
  0
SPLINE
  5
276
330
1F
100
AcDbEntity
  8
0
  6
Continuous
 62
     7
370
    25
100
AcDbSpline
210
0.0
220
0.0
230
1.0
 70
     8
 71
     3
 72
     9
 73
     5
 74
     0
 42
0.00000001
 43
0.00000001
 40
0.0
 40
0.0
 40
0.0
 40
0.0
 40
0.5850553834534123
 40
1.0
 40
1.0
 40
1.0
 40
1.0
 10
219.8429120439673
 20
54.57716797413188
 30
0.0
 10
219.7063579099429
 20
54.58670530501166
 30
0.0
 10
219.4729541367507
 20
54.60300689140759
 30
0.0
 10
219.4415048490253
 20
54.32795165181043
 30
0.0
 10
219.4284551363895
 20
54.21381896088666
 30
0.0
  0
SPLINE
  5
277
330
1F
100
AcDbEntity
  8
0
  6
Continuous
 62
     7
370
    25
100
AcDbSpline
210
0.0
220
0.0
230
1.0
 70
     8
 71
     3
 72
     9
 73
     5
 74
     0
 42
0.00000001
 43
0.00000001
 40
0.0
 40
0.0
 40
0.0
 40
0.0
 40
0.3073603104685657
 40
1.0
 40
1.0
 40
1.0
 40
1.0
 10
220.7450717669876
 20
54.18249835410761
 30
0.0
 10
220.7202019172759
 20
54.22393578796591
 30
0.0
 10
220.6392875998947
 20
54.35875291446847
 30
0.0
 10
220.1687943455697
 20
54.48779104409184
 30
0.0
 10
219.8429120439673
 20
54.57716797413188
 30
0.0
  0
LINE
  5
278
330
1F
100
AcDbEntity
  8
0
  6
Continuous
 62
     7
370
    25
100
AcDbLine
 10
219.842912044
 20
21.1618180191
 30
0.0
 11
219.7351017718
 21
21.1843328174
 31
0.0
  0
SPLINE
  5
279
330
1F
100
AcDbEntity
  8
0
  6
Continuous
 62
     7
370
    25
100
AcDbSpline
210
0.0
220
0.0
230
1.0
 70
     8
 71
     3
 72
    11
 73
     7
 74
     0
 42
0.00000001
 43
0.00000001
 40
0.0
 40
0.0
 40
0.0
 40
0.0
 40
0.2556279644380967
 40
0.5185037642963866
 40
0.7560467972580099
 40
1.0
 40
1.0
 40
1.0
 40
1.0
 10
219.8429120439668
 20
22.20463137451267
 30
0.0
 10
220.1365380040688
 20
22.11769320935711
 30
0.0
 10
220.7321151192043
 20
21.94135191589466
 30
0.0
 10
220.964004080831
 20
21.67233866758594
 30
0.0
 10
220.6810336223702
 20
21.40836786583507
 30
0.0
 10
220.1247544888059
 20
21.2447274839664
 30
0.0
 10
219.8429120439668
 20
21.16181801906383
 30
0.0
  0
SPLINE
  5
27A
330
1F
100
AcDbEntity
  8
0
  6
Continuous
 62
     7
370
    25
100
AcDbSpline
210
0.0
220
0.0
230
1.0
 70
     8
 71
     3
 72
     9
 73
     5
 74
     0
 42
0.00000001
 43
0.00000001
 40
0.0
 40
0.0
 40
0.0
 40
0.0
 40
0.5841917497409268
 40
0.9999999999999999
 40
0.9999999999999999
 40
0.9999999999999999
 40
0.9999999999999999
 10
219.4284551363894
 20
22.97853682691112
 30
0.0
 10
219.4546231002101
 20
22.74888855069734
 30
0.0
 10
219.4994165500187
 20
22.35578427232362
 30
0.0
 10
219.7420309675327
 20
22.24902341838504
 30
0.0
 10
219.8429120439668
 20
22.20463137451267
 30
0.0
  0
LINE
  5
27B
330
1F
100
AcDbEntity
  8
0
  6
Continuous
 62
     7
370
    25
100
AcDbLine
 10
219.4284551364
 20
22.9785368269
 30
0.0
 11
219.4284551364
 21
23.8138993333
 31
0.0
  0
SPLINE
  5
27C
330
1F
100
AcDbEntity
  8
0
  6
Continuous
 62
     7
370
    25
100
AcDbSpline
210
0.0
220
0.0
230
1.0
 70
     8
 71
     3
 72
     9
 73
     5
 74
     0
 42
0.00000001
 43
0.00000001
 40
0.0
 40
0.0
 40
0.0
 40
0.0
 40
0.5850553834536173
 40
1.0
 40
1.0
 40
1.0
 40
1.0
 10
219.8429120439668
 20
25.67733587108737
 30
0.0
 10
219.7063579099425
 20
25.26932075677274
 30
0.0
 10
219.4729541367506
 20
24.57192504714591
 30
0.0
 10
219.4415048490253
 20
24.03619686035301
 30
0.0
 10
219.4284551363895
 20
23.81389933331114
 30
0.0
  0
SPLINE
  5
27D
330
1F
100
AcDbEntity
  8
0
  6
Continuous
 62
     7
370
    25
100
AcDbSpline
210
0.0
220
0.0
230
1.0
 70
     8
 71
     3
 72
    11
 73
     7
 74
     0
 42
0.00000001
 43
0.00000001
 40
0.0
 40
0.0
 40
0.0
 40
0.0
 40
0.2328716322111473
 40
0.4710265024313233
 40
0.7311421212560294
 40
1.0
 40
1.0
 40
1.0
 40
1.0
 10
219.8429120439668
 20
36.36569416811604
 30
0.0
 10
220.1133087786396
 20
35.55508405628179
 30
0.0
 10
220.6602368307704
 20
33.91547324500638
 30
0.0
 10
220.961461148754
 20
31.26045947865572
 30
0.0
 10
220.7538093833443
 20
28.46086716362495
 30
0.0
 10
220.149871551564
 20
26.61534650961087
 30
0.0
 10
219.8429120439668
 20
25.67733587108737
 30
0.0
  0
SPLINE
  5
27E
330
1F
100
AcDbEntity
  8
0
  6
Continuous
 62
     7
370
    25
100
AcDbSpline
210
0.0
220
0.0
230
1.0
 70
     8
 71
     3
 72
     9
 73
     5
 74
     0
 42
0.00000001
 43
0.00000001
 40
0.0
 40
0.0
 40
0.0
 40
0.0
 40
0.5841917497409242
 40
1.0
 40
1.0
 40
1.0
 40
1.0
 10
219.4284551363894
 20
38.71027270791016
 30
0.0
 10
219.4546231002101
 20
38.22678246302029
 30
0.0
 10
219.4994165500188
 20
37.39915994848752
 30
0.0
 10
219.7420309675327
 20
36.66921238660379
 30
0.0
 10
219.8429120439668
 20
36.36569416811604
 30
0.0
  0
LINE
  5
27F
330
1F
100
AcDbEntity
  8
0
  6
Continuous
 62
     7
370
    25
100
AcDbLine
 10
219.4284551364
 20
38.7102727079
 30
0.0
 11
219.4284551364
 21
40.1582252976
 31
0.0
  0
SPLINE
  5
280
330
1F
100
AcDbEntity
  8
0
  6
Continuous
 62
     7
370
    25
100
AcDbSpline
210
0.0
220
0.0
230
1.0
 70
     8
 71
     3
 72
     9
 73
     5
 74
     0
 42
0.00000001
 43
0.00000001
 40
0.0
 40
0.0
 40
0.0
 40
0.0
 40
0.5850553834536175
 40
1.0
 40
1.0
 40
1.0
 40
1.0
 10
219.8429120439668
 20
42.38501084862146
 30
0.0
 10
219.7063579099425
 20
41.98653306518646
 30
0.0
 10
219.4729541367506
 20
41.30543894195532
 30
0.0
 10
219.4415048490253
 20
40.49465551556541
 30
0.0
 10
219.4284551363894
 20
40.1582252975999
 30
0.0
  0
SPLINE
  5
281
330
1F
100
AcDbEntity
  8
0
  6
Continuous
 62
     7
370
    25
100
AcDbSpline
210
0.0
220
0.0
230
1.0
 70
     8
 71
     3
 72
    11
 73
     7
 74
     0
 42
0.00000001
 43
0.00000001
 40
0.0
 40
0.0
 40
0.0
 40
0.0
 40
0.2328716322111489
 40
0.4710265024313259
 40
0.7311421212560307
 40
1.0
 40
1.0
 40
1.0
 40
1.0
 10
219.8429120439668
 20
52.03055579020127
 30
0.0
 10
220.1133087786396
 20
51.2990331328845
 30
0.0
 10
220.6602368307704
 20
49.81939151465266
 30
0.0
 10
220.961461148754
 20
47.42341508008949
 30
0.0
 10
220.7538093833443
 20
44.8969659527022
 30
0.0
 10
220.149871551564
 20
43.23150415639855
 30
0.0
 10
219.8429120439668
 20
42.38501084862146
 30
0.0
  0
SPLINE
  5
282
330
1F
100
AcDbEntity
  8
0
  6
Continuous
 62
     7
370
    25
100
AcDbSpline
210
0.0
220
0.0
230
1.0
 70
     8
 71
     3
 72
     9
 73
     5
 74
     0
 42
0.00000001
 43
0.00000001
 40
0.0
 40
0.0
 40
0.0
 40
0.0
 40
0.5841917497409261
 40
1.0
 40
1.0
 40
1.0
 40
1.0
 10
219.4284551363895
 20
53.60122887759695
 30
0.0
 10
219.4546231002101
 20
53.34738690892086
 30
0.0
 10
219.4994165500188
 20
52.91286867276181
 30
0.0
 10
219.7420309675327
 20
52.28968196481666
 30
0.0
 10
219.8429120439668
 20
52.03055579020127
 30
0.0
  0
LINE
  5
283
330
1F
100
AcDbEntity
  8
0
  6
Continuous
 62
     7
370
    25
100
AcDbLine
 10
219.4284551364
 20
53.6012288776
 30
0.0
 11
219.4284551364
 21
54.2138189609
 31
0.0
  0
LINE
  5
284
330
1F
100
AcDbEntity
  8
0
  6
Continuous
 62
     7
370
    25
100
AcDbLine
 10
220.9284551364
 20
54.0694929966
 30
0.0
 11
220.9284551364
 21
21.6694929966
 31
0.0
  0
LINE
  5
285
330
1F
100
AcDbEntity
  8
0
  6
Continuous
 62
     7
370
    25
100
AcDbLine
 10
212.5639982288
 20
25.6773358711
 30
0.0
 11
219.842912044
 21
25.6773358711
 31
0.0
  0
LINE
  5
286
330
1F
100
AcDbEntity
  8
0
  6
Continuous
 62
     7
370
    25
100
AcDbLine
 10
219.842912044
 20
36.3656941681
 30
0.0
 11
212.5639982288
 21
36.3656941681
 31
0.0
  0
LINE
  5
287
330
1F
100
AcDbEntity
  8
0
  6
Continuous
 62
     7
370
    25
100
AcDbLine
 10
212.9784551364
 20
38.7102727079
 30
0.0
 11
219.4284551364
 21
38.7102727079
 31
0.0
  0
LINE
  5
288
330
1F
100
AcDbEntity
  8
0
  6
Continuous
 62
     7
370
    25
100
AcDbLine
 10
212.5639982288
 20
42.3850108486
 30
0.0
 11
219.842912044
 21
42.3850108486
 31
0.0
  0
LINE
  5
289
330
1F
100
AcDbEntity
  8
0
  6
Continuous
 62
     7
370
    25
100
AcDbLine
 10
219.842912044
 20
52.0305557902
 30
0.0
 11
212.5639982288
 21
52.0305557902
 31
0.0
  0
LINE
  5
28A
330
1F
100
AcDbEntity
  8
0
  6
Continuous
 62
     7
370
    25
100
AcDbLine
 10
219.4284551364
 20
40.1582252976
 30
0.0
 11
212.9784551364
 21
40.1582252976
 31
0.0
  0
LINE
  5
28B
330
1F
100
AcDbEntity
  8
0
  6
Continuous
 62
     7
370
    25
100
AcDbLine
 10
228.6784551364
 20
27.2944929966
 30
0.0
 11
228.6784551364
 21
48.4444929966
 31
0.0
  0
LINE
  5
28C
330
1F
100
AcDbEntity
  8
0
  6
Continuous
 62
     7
370
    25
100
AcDbLine
 10
219.4284551364
 20
23.8138993333
 30
0.0
 11
212.9784551364
 21
23.8138993333
 31
0.0
  0
LINE
  5
28D
330
1F
100
AcDbEntity
  8
0
  6
Continuous
 62
     7
370
    25
100
AcDbLine
 10
212.9784551364
 20
22.9785368269
 30
0.0
 11
219.4284551364
 21
22.9785368269
 31
0.0
  0
LINE
  5
28E
330
1F
100
AcDbEntity
  8
0
  6
Continuous
 62
     7
370
    25
100
AcDbLine
 10
212.9784551364
 20
53.6012288776
 30
0.0
 11
219.4284551364
 21
53.6012288776
 31
0.0
  0
LINE
  5
28F
330
1F
100
AcDbEntity
  8
0
  6
Continuous
 62
     7
370
    25
100
AcDbLine
 10
219.842912044
 20
22.2046313745
 30
0.0
 11
212.5639982288
 21
22.2046313745
 31
0.0
  0
LINE
  5
290
330
1F
100
AcDbEntity
  8
0
  6
Continuous
 62
     7
370
    25
100
AcDbLine
 10
219.4284551364
 20
54.2138189609
 30
0.0
 11
212.9784551364
 21
54.2138189609
 31
0.0
  0
LINE
  5
291
330
1F
100
AcDbEntity
  8
0
  6
Continuous
 62
     7
370
    25
100
AcDbLine
 10
212.5639982288
 20
21.1618180191
 30
0.0
 11
219.842912044
 21
21.1618180191
 31
0.0
  0
LINE
  5
292
330
1F
100
AcDbEntity
  8
0
  6
Continuous
 62
     8
370
    25
100
AcDbLine
 10
167.1233112771
 20
22.8694929966
 30
0.0
 11
167.282697587
 21
22.8562658408
 31
0.0
  0
LINE
  5
293
330
1F
100
AcDbEntity
  8
0
  6
Continuous
 62
     8
370
    25
100
AcDbLine
 10
167.5347248929
 20
22.8694929966
 30
0.0
 11
167.3742126858
 21
22.8562658408
 31
0.0
  0
ARC
  5
294
330
1F
100
AcDbEntity
  8
0
  6
Continuous
 62
     8
370
    25
100
AcDbCircle
 10
167.3284551364
 20
37.8694929966
 30
0.0
 40
15.7942374954421
100
AcDbArc
 50
270.0
 51
288.2473766402
  0
ARC
  5
295
330
1F
100
AcDbEntity
  8
0
  6
Continuous
 62
     8
370
    25
100
AcDbCircle
 10
167.3284551364
 20
37.8694929966
 30
0.0
 40
15.7942374954421
100
AcDbArc
 50
71.7526233598
 51
108.2473766402
  0
ARC
  5
296
330
1F
100
AcDbEntity
  8
0
  6
Continuous
 62
     8
370
    25
100
AcDbCircle
 10
167.3284551364
 20
37.8694929966
 30
0.0
 40
15.79423749544209
100
AcDbArc
 50
251.7526233598
 51
270.0
  0
ARC
  5
297
330
1F
100
AcDbEntity
  8
0
  6
Continuous
 62
     8
370
    25
100
AcDbCircle
 10
167.3284551364
 20
37.8694929966
 30
0.0
 40
18.44627261143964
100
AcDbArc
 50
234.407052935
 51
270.0
  0
ARC
  5
298
330
1F
100
AcDbEntity
  8
0
  6
Continuous
 62
     8
370
    25
100
AcDbCircle
 10
167.3284551364
 20
37.8694929966
 30
0.0
 40
18.44627261143963
100
AcDbArc
 50
54.407052935
 51
125.592947065
  0
ARC
  5
299
330
1F
100
AcDbEntity
  8
0
  6
Continuous
 62
     8
370
    25
100
AcDbCircle
 10
167.3284551364
 20
37.8694929966
 30
0.0
 40
18.44627261143964
100
AcDbArc
 50
270.0
 51
305.592947065
  0
ARC
  5
29A
330
1F
100
AcDbEntity
  8
0
  6
Continuous
 62
     8
370
    25
100
AcDbCircle
 10
167.3284551364
 20
37.8694929966
 30
0.0
 40
27.18743161379872
100
AcDbArc
 50
270.0
 51
326.5145280392
  0
ARC
  5
29B
330
1F
100
AcDbEntity
  8
0
  6
Continuous
 62
     8
370
    25
100
AcDbCircle
 10
167.3284551364
 20
37.8694929966
 30
0.0
 40
27.18743161379872
100
AcDbArc
 50
33.4854719608
 51
146.5145280392
  0
ARC
  5
29C
330
1F
100
AcDbEntity
  8
0
  6
Continuous
 62
     8
370
    25
100
AcDbCircle
 10
167.3284551364
 20
37.8694929966
 30
0.0
 40
27.1874316137987
100
AcDbArc
 50
213.4854719608
 51
270.0
  0
LINE
  5
29D
330
1F
100
AcDbEntity
  8
0
  6
Continuous
 62
     8
370
    25
100
AcDbLine
 10
259.2334601259
 20
31.9443652254
 30
0.0
 11
259.2334601259
 21
43.7946207678
 31
0.0
  0
LINE
  5
29E
330
1F
100
AcDbEntity
  8
0
  6
Continuous
 62
     8
370
    25
100
AcDbLine
 10
259.9878243407
 20
40.2417847809
 30
0.0
 11
259.9878243407
 21
33.6720596304
 31
0.0
  0
LINE
  5
29F
330
1F
100
AcDbEntity
  8
0
  6
Continuous
 62
     8
370
    25
100
AcDbLine
 10
259.9878243407
 20
42.0669263628
 30
0.0
 11
259.9878243407
 21
40.2417847809
 31
0.0
  0
LINE
  5
2A0
330
1F
100
AcDbEntity
  8
0
  6
Continuous
 62
     8
370
    25
100
AcDbLine
 10
260.5255750644
 20
39.1274635227
 30
0.0
 11
260.7484769381
 21
39.1274635227
 31
0.0
  0
LINE
  5
2A1
330
1F
100
AcDbEntity
  8
0
  6
Continuous
 62
     8
370
    25
100
AcDbLine
 10
260.7484769381
 20
36.4166776618
 30
0.0
 11
260.6100352404
 21
36.4166776618
 31
0.0
  0
LINE
  5
2A2
330
1F
100
AcDbEntity
  8
0
  6
Continuous
 62
     8
370
    25
100
AcDbLine
 10
260.5942340159
 20
38.6440962211
 30
0.0
 11
260.7484769381
 21
38.6440962211
 31
0.0
  0
LINE
  5
2A3
330
1F
100
AcDbEntity
  8
0
  6
Continuous
 62
     8
370
    25
100
AcDbLine
 10
74.669085932
 20
40.2417847809
 30
0.0
 11
74.669085932
 21
42.0669263628
 31
0.0
  0
LINE
  5
2A4
330
1F
100
AcDbEntity
  8
0
  6
Continuous
 62
     8
370
    25
100
AcDbLine
 10
74.669085932
 20
33.6720596304
 30
0.0
 11
74.669085932
 21
40.2417847809
 31
0.0
  0
LINE
  5
2A5
330
1F
100
AcDbEntity
  8
0
  6
Continuous
 62
     8
370
    25
100
AcDbLine
 10
73.9084333347
 20
39.1274635227
 30
0.0
 11
74.1313352083
 21
39.1274635227
 31
0.0
  0
LINE
  5
2A6
330
1F
100
AcDbEntity
  8
0
  6
Continuous
 62
     8
370
    25
100
AcDbLine
 10
74.0468750324
 20
36.4166776618
 30
0.0
 11
73.9084333347
 21
36.4166776618
 31
0.0
  0
LINE
  5
2A7
330
1F
100
AcDbEntity
  8
0
  6
Continuous
 62
     8
370
    25
100
AcDbLine
 10
73.9084333347
 20
38.6440962211
 30
0.0
 11
74.0626762568
 21
38.6440962211
 31
0.0
  0
LINE
  5
2A8
330
1F
100
AcDbEntity
  8
0
  6
Continuous
 62
     8
370
    25
100
AcDbLine
 10
75.4234501469
 20
32.358968449
 30
0.0
 11
75.4234501469
 21
31.9443652254
 31
0.0
  0
LINE
  5
2A9
330
1F
100
AcDbEntity
  8
0
  6
Continuous
 62
     8
370
    25
100
AcDbLine
 10
75.4234501469
 20
43.7946207678
 30
0.0
 11
75.4234501469
 21
32.358968449
 31
0.0
  0
LINE
  5
2AA
330
1F
100
AcDbEntity
  8
0
  6
Continuous
 62
     8
370
    25
100
AcDbLine
 10
81.8904111792
 20
46.0150843423
 30
0.0
 11
81.8904111792
 21
46.8451510408
 31
0.0
  0
LINE
  5
2AB
330
1F
100
AcDbEntity
  8
0
  6
Continuous
 62
     8
370
    25
100
AcDbLine
 10
82.8238313931
 20
28.8775420419
 30
0.0
 11
82.8238313931
 21
29.7134955801
 31
0.0
  0
LINE
  5
2AC
330
1F
100
AcDbEntity
  8
0
  6
Continuous
 62
     8
370
    25
100
AcDbLine
 10
77.5197289332
 20
46.7688604984
 30
0.0
 11
77.5197289332
 21
28.9701254948
 31
0.0
  0
ARC
  5
2AD
330
1F
100
AcDbEntity
  8
0
  6
Continuous
 62
     8
370
    25
100
AcDbCircle
 10
87.3636112406
 20
28.2358496153
 30
0.0
 40
1.997185587887248
100
AcDbArc
 50
201.0032844958
 51
269.4244775152
  0
SPLINE
  5
2AE
330
1F
100
AcDbEntity
  8
0
  6
Continuous
 62
     8
370
    25
100
AcDbSpline
210
0.0
220
0.0
230
1.0
 70
     8
 71
     3
 72
    11
 73
     7
 74
     0
 42
0.00000001
 43
0.00000001
 40
0.0
 40
0.0
 40
0.0
 40
0.0
 40
0.2770826629203715
 40
0.8570479850993344
 40
0.8602889465972279
 40
1.0
 40
1.0
 40
1.0
 40
1.0
 10
84.11005553870687
 20
28.54519671343673
 30
0.0
 10
84.00082429282061
 20
28.60458750009246
 30
0.0
 10
83.6629597068158
 20
28.78828991402295
 30
0.0
 10
83.28835508569571
 20
29.18253476590608
 30
0.0
 10
82.977976195786
 20
29.55672916615709
 30
0.0
 10
82.91647368161668
 20
29.63571421433802
 30
0.0
 10
82.85636553240674
 20
29.71290853924553
 30
0.0
  0
SPLINE
  5
2AF
330
1F
100
AcDbEntity
  8
0
  6
Continuous
 62
     8
370
    25
100
AcDbSpline
210
0.0
220
0.0
230
1.0
 70
     8
 71
     3
 72
     9
 73
     5
 74
     0
 42
0.00000001
 43
0.00000001
 40
0.0
 40
0.0
 40
0.0
 40
0.0
 40
0.3520514946814721
 40
1.0
 40
1.0
 40
1.0
 40
1.0
 10
81.93501751242326
 20
46.01589095941829
 30
0.0
 10
82.12711229485448
 20
46.20917418438967
 30
0.0
 10
82.67275628538783
 20
46.7581939382932
 30
0.0
 10
83.19441924443743
 20
47.06317485144927
 30
0.0
 10
83.53242997903365
 20
47.26078677827942
 30
0.0
  0
ARC
  5
2B0
330
1F
100
AcDbEntity
  8
0
  6
Continuous
 62
     8
370
    25
100
AcDbCircle
 10
87.2579593787
 20
47.6106173172
 30
0.0
 40
1.935757240020832
100
AcDbArc
 50
89.1338596984
 51
155.4069351671
  0
ARC
  5
2B1
330
1F
100
AcDbEntity
  8
0
  6
Continuous
 62
     8
370
    25
100
AcDbCircle
 10
87.3638582963
 20
28.1880659804
 30
0.0
 40
1.996295237902736
100
AcDbArc
 50
199.7924857741
 51
269.4171297006
  0
LINE
  5
2B2
330
1F
100
AcDbEntity
  8
0
  6
Continuous
 62
     8
370
    25
100
AcDbLine
 10
91.3697289332
 20
49.6156269098
 30
0.0
 11
91.3697289332
 21
49.8413064589
 31
0.0
  0
LINE
  5
2B3
330
1F
100
AcDbEntity
  8
0
  6
Continuous
 62
     8
370
    25
100
AcDbLine
 10
91.3697289332
 20
25.8976795343
 30
0.0
 11
91.3697289332
 21
26.1233590834
 31
0.0
  0
LINE
  5
2B4
330
1F
100
AcDbEntity
  8
0
  6
Continuous
 62
     8
370
    25
100
AcDbLine
 10
87.3435503235
 20
49.7710292499
 30
0.0
 11
87.3435503235
 21
49.7544404435
 31
0.0
  0
LINE
  5
2B5
330
1F
100
AcDbEntity
  8
0
  6
Continuous
 62
     8
370
    25
100
AcDbLine
 10
87.3435503235
 20
26.19187404
 30
0.0
 11
87.3435503235
 21
25.9679567433
 31
0.0
  0
ARC
  5
2B6
330
1F
100
AcDbEntity
  8
0
  6
Continuous
 62
     8
370
    25
100
AcDbCircle
 10
87.377523923
 20
47.7545377375
 30
0.0
 40
2.000191250574682
100
AcDbArc
 50
90.9732256708
 51
152.6332154323
  0
LINE
  5
2B7
330
1F
100
AcDbEntity
  8
0
  6
Continuous
 62
     8
370
    25
100
AcDbLine
 10
252.7664990935
 20
29.9693229397
 30
0.0
 11
252.7664990935
 21
29.1392562412
 31
0.0
  0
LINE
  5
2B8
330
1F
100
AcDbEntity
  8
0
  6
Continuous
 62
     8
370
    25
100
AcDbLine
 10
251.8330788797
 20
47.1068652401
 30
0.0
 11
251.8330788797
 21
46.2709117019
 31
0.0
  0
LINE
  5
2B9
330
1F
100
AcDbEntity
  8
0
  6
Continuous
 62
     8
370
    25
100
AcDbLine
 10
257.1371813396
 20
29.2155467836
 30
0.0
 11
257.1371813396
 21
47.0142817873
 31
0.0
  0
ARC
  5
2BA
330
1F
100
AcDbEntity
  8
0
  6
Continuous
 62
     8
370
    25
100
AcDbCircle
 10
247.2928372324
 20
47.7470780705
 30
0.0
 40
1.998669798093983
100
AcDbArc
 50
22.7318380621
 51
89.4116658362
  0
SPLINE
  5
2BB
330
1F
100
AcDbEntity
  8
0
  6
Continuous
 62
     8
370
    25
100
AcDbSpline
210
0.0
220
0.0
230
1.0
 70
     8
 71
     3
 72
    11
 73
     7
 74
     0
 42
0.00000001
 43
0.00000001
 40
0.0
 40
0.0
 40
0.0
 40
0.0
 40
0.2770826629203871
 40
0.8570479850993377
 40
0.8602889465972311
 40
1.0
 40
1.0
 40
1.0
 40
1.0
 10
250.546854734072
 20
47.4392105685875
 30
0.0
 10
250.6560859799581
 20
47.37981978193175
 30
0.0
 10
250.9939505659627
 20
47.19611736800123
 30
0.0
 10
251.3685551870853
 20
46.80187251611832
 30
0.0
 10
251.6789340769924
 20
46.42767811586707
 30
0.0
 10
251.7404365911619
 20
46.34869306768616
 30
0.0
 10
251.8005447403722
 20
46.27149874277868
 30
0.0
  0
SPLINE
  5
2BC
330
1F
100
AcDbEntity
  8
0
  6
Continuous
 62
     8
370
    25
100
AcDbSpline
210
0.0
220
0.0
230
1.0
 70
     8
 71
     3
 72
     9
 73
     5
 74
     0
 42
0.00000001
 43
0.00000001
 40
0.0
 40
0.0
 40
0.0
 40
0.0
 40
0.3520514946814791
 40
1.0
 40
1.0
 40
1.0
 40
1.0
 10
252.7218927603556
 20
29.96851632260593
 30
0.0
 10
252.5297979779244
 20
29.77523309763454
 30
0.0
 10
251.984153987391
 20
29.22621334373102
 30
0.0
 10
251.4624910283415
 20
28.92123243057495
 30
0.0
 10
251.1244802937452
 20
28.7236205037448
 30
0.0
  0
ARC
  5
2BD
330
1F
100
AcDbEntity
  8
0
  6
Continuous
 62
     8
370
    25
100
AcDbCircle
 10
247.3989508941
 20
28.3737899648
 30
0.0
 40
1.935757240020957
100
AcDbArc
 50
269.1338596984
 51
335.4069351671
  0
ARC
  5
2BE
330
1F
100
AcDbEntity
  8
0
  6
Continuous
 62
     8
370
    25
100
AcDbCircle
 10
247.2930519764
 20
47.7963413016
 30
0.0
 40
1.996295237902754
100
AcDbArc
 50
19.7924857741
 51
89.4171297006
  0
LINE
  5
2BF
330
1F
100
AcDbEntity
  8
0
  6
Continuous
 62
     8
370
    25
100
AcDbLine
 10
243.2871813396
 20
50.0867277477
 30
0.0
 11
243.2871813396
 21
49.8610481987
 31
0.0
  0
LINE
  5
2C0
330
1F
100
AcDbEntity
  8
0
  6
Continuous
 62
     8
370
    25
100
AcDbLine
 10
243.2871813396
 20
26.3687803722
 30
0.0
 11
243.2871813396
 21
26.1431008231
 31
0.0
  0
LINE
  5
2C1
330
1F
100
AcDbEntity
  8
0
  6
Continuous
 62
     8
370
    25
100
AcDbLine
 10
247.3133599493
 20
49.792533242
 30
0.0
 11
247.3133599493
 21
50.0164505387
 31
0.0
  0
LINE
  5
2C2
330
1F
100
AcDbEntity
  8
0
  6
Continuous
 62
     8
370
    25
100
AcDbLine
 10
247.3133599493
 20
26.2133780322
 30
0.0
 11
247.3133599493
 21
26.2299668385
 31
0.0
  0
ARC
  5
2C3
330
1F
100
AcDbEntity
  8
0
  6
Continuous
 62
     8
370
    25
100
AcDbCircle
 10
247.2793863498
 20
28.2298695445
 30
0.0
 40
2.000191250574857
100
AcDbArc
 50
270.9732256708
 51
332.6332154323
  0
ENDSEC
  0
SECTION
  2
OBJECTS
  0
DICTIONARY
  5
C
330
0
100
AcDbDictionary
281
     1
  3
ACAD_GROUP
350
D
  3
ACAD_LAYOUT
350
1A
  3
ACAD_MLINESTYLE
350
17
  3
ACAD_PLOTSETTINGS
350
19
  3
ACAD_PLOTSTYLENAME
350
E
  3
ACAD_SCALELIST
350
47
  3
DWGPROPS
350
2C4
  0
DICTIONARY
  5
D
102
{ACAD_REACTORS
330
C
102
}
330
C
100
AcDbDictionary
281
     1
  0
DICTIONARY
  5
1A
102
{ACAD_REACTORS
330
C
102
}
330
C
100
AcDbDictionary
281
     1
  3
Layout1
350
1E
  3
Layout2
350
26
  3
Model
350
22
  0
DICTIONARY
  5
17
102
{ACAD_REACTORS
330
C
102
}
330
C
100
AcDbDictionary
281
     1
  3
Standard
350
18
  0
DICTIONARY
  5
19
102
{ACAD_REACTORS
330
C
102
}
330
C
100
AcDbDictionary
281
     1
  0
ACDBDICTIONARYWDFLT
  5
E
102
{ACAD_REACTORS
330
C
102
}
330
C
100
AcDbDictionary
281
     1
  3
Normal
350
F
100
AcDbDictionaryWithDefault
340
F
  0
DICTIONARY
  5
47
102
{ACAD_REACTORS
330
C
102
}
330
C
100
AcDbDictionary
281
     1
  3
A0
350
48
  3
A1
350
49
  3
A2
350
4A
  3
A3
350
4B
  3
A4
350
4C
  3
A5
350
4D
  3
A6
350
4E
  3
A7
350
4F
  3
A8
350
50
  3
A9
350
51
  3
B0
350
52
  3
B1
350
53
  3
B2
350
54
  3
B3
350
55
  3
B4
350
56
  3
B5
350
57
  3
B6
350
58
  3
B7
350
59
  3
B8
350
5A
  3
B9
350
5B
  3
C0
350
5C
  3
C1
350
5D
  3
C2
350
5E
  3
C3
350
5F
  3
C4
350
60
  3
C5
350
61
  3
C6
350
62
  3
C7
350
63
  3
C8
350
64
  3
C9
350
65
  3
D0
350
66
  3
D1
350
67
  3
D2
350
68
  0
XRECORD
  5
2C4
102
{ACAD_REACTORS
330
C
102
}
330
C
100
AcDbXrecord
280
     1
  1
DWGPROPS COOKIE
  2

  3

  4

  6

  7

  8
DS-1
  9

300
=
301
=
302
=
303
=
304
=
305
=
306
=
307
=
308
=
309
=
 40
0.0
 41
2460383.508438391
 42
2460383.508439016
  1

 90
        0
  0
LAYOUT
  5
1E
102
{ACAD_REACTORS
330
1A
102
}
330
1A
100
AcDbPlotSettings
  1

  2
none_device
  4

  6

 40
0.0
 41
0.0
 42
0.0
 43
0.0
 44
0.0
 45
0.0
 46
0.0
 47
0.0
 48
0.0
 49
0.0
140
0.0
141
0.0
142
1.0
143
1.0
 70
   688
 72
     1
 73
     0
 74
     5
  7

 75
    16
147
1.0
148
0.0
149
0.0
100
AcDbLayout
  1
Layout1
 70
     1
 71
     1
 10
0.0
 20
0.0
 11
420.0
 21
297.0
 12
0.0
 22
0.0
 32
0.0
 14
1.0000000000E+20
 24
1.0000000000E+20
 34
1.0000000000E+20
 15
-1.0000000000E+20
 25
-1.0000000000E+20
 35
-1.0000000000E+20
146
0.0
 13
0.0
 23
0.0
 33
0.0
 16
1.0
 26
0.0
 36
0.0
 17
0.0
 27
1.0
 37
0.0
 76
     0
330
1B
  0
LAYOUT
  5
26
102
{ACAD_REACTORS
330
1A
102
}
330
1A
100
AcDbPlotSettings
  1

  2
none_device
  4

  6

 40
0.0
 41
0.0
 42
0.0
 43
0.0
 44
0.0
 45
0.0
 46
0.0
 47
0.0
 48
0.0
 49
0.0
140
0.0
141
0.0
142
1.0
143
1.0
 70
   688
 72
     1
 73
     0
 74
     5
  7

 75
    16
147
1.0
148
0.0
149
0.0
100
AcDbLayout
  1
Layout2
 70
     1
 71
     2
 10
0.0
 20
0.0
 11
0.0
 21
0.0
 12
0.0
 22
0.0
 32
0.0
 14
0.0
 24
0.0
 34
0.0
 15
0.0
 25
0.0
 35
0.0
146
0.0
 13
0.0
 23
0.0
 33
0.0
 16
1.0
 26
0.0
 36
0.0
 17
0.0
 27
1.0
 37
0.0
 76
     0
330
23
  0
LAYOUT
  5
22
102
{ACAD_REACTORS
330
1A
102
}
330
1A
100
AcDbPlotSettings
  1

  2
none_device
  4
Letter_(8.50_x_11.00_Inches)
  6

 40
6.35
 41
6.35
 42
6.35000508
 43
6.35000508
 44
215.9
 45
279.4
 46
0.0
 47
0.0
 48
0.0
 49
0.0
140
0.0
141
0.0
142
1.0
143
1.0
 70
  1712
 72
     1
 73
     0
 74
     0
  7

 75
     0
147
1.0
148
0.0
149
0.0
100
AcDbLayout
  1
Model
 70
     1
 71
     0
 10
0.0
 20
0.0
 11
279.4
 21
215.9
 12
0.0
 22
0.0
 32
0.0
 14
0.0
 24
0.0
 34
0.0
 15
279.4
 25
215.9
 35
0.0
146
0.0
 13
0.0
 23
0.0
 33
0.0
 16
1.0
 26
0.0
 36
0.0
 17
0.0
 27
1.0
 37
0.0
 76
     0
330
1F
331
29
  0
MLINESTYLE
  5
18
102
{ACAD_REACTORS
330
17
102
}
330
17
100
AcDbMlineStyle
  2
Standard
 70
     0
  3

 62
   256
 51
90.0
 52
90.0
 71
     2
 49
0.5
 62
   256
  6
BYLAYER
 49
-0.5
 62
   256
  6
BYLAYER
  0
ACDBPLACEHOLDER
  5
F
102
{ACAD_REACTORS
330
E
102
}
330
E
  0
SCALE
  5
48
102
{ACAD_REACTORS
330
47
102
}
330
47
100
AcDbScale
 70
     0
300
1:1
140
1.0
141
1.0
290
     1
  0
SCALE
  5
49
102
{ACAD_REACTORS
330
47
102
}
330
47
100
AcDbScale
 70
     0
300
1:2
140
1.0
141
2.0
290
     0
  0
SCALE
  5
4A
102
{ACAD_REACTORS
330
47
102
}
330
47
100
AcDbScale
 70
     0
300
1:4
140
1.0
141
4.0
290
     0
  0
SCALE
  5
4B
102
{ACAD_REACTORS
330
47
102
}
330
47
100
AcDbScale
 70
     0
300
1:5
140
1.0
141
5.0
290
     0
  0
SCALE
  5
4C
102
{ACAD_REACTORS
330
47
102
}
330
47
100
AcDbScale
 70
     0
300
1:8
140
1.0
141
8.0
290
     0
  0
SCALE
  5
4D
102
{ACAD_REACTORS
330
47
102
}
330
47
100
AcDbScale
 70
     0
300
1:10
140
1.0
141
10.0
290
     0
  0
SCALE
  5
4E
102
{ACAD_REACTORS
330
47
102
}
330
47
100
AcDbScale
 70
     0
300
1:16
140
1.0
141
16.0
290
     0
  0
SCALE
  5
4F
102
{ACAD_REACTORS
330
47
102
}
330
47
100
AcDbScale
 70
     0
300
1:20
140
1.0
141
20.0
290
     0
  0
SCALE
  5
50
102
{ACAD_REACTORS
330
47
102
}
330
47
100
AcDbScale
 70
     0
300
1:30
140
1.0
141
30.0
290
     0
  0
SCALE
  5
51
102
{ACAD_REACTORS
330
47
102
}
330
47
100
AcDbScale
 70
     0
300
1:40
140
1.0
141
40.0
290
     0
  0
SCALE
  5
52
102
{ACAD_REACTORS
330
47
102
}
330
47
100
AcDbScale
 70
     0
300
1:50
140
1.0
141
50.0
290
     0
  0
SCALE
  5
53
102
{ACAD_REACTORS
330
47
102
}
330
47
100
AcDbScale
 70
     0
300
1:100
140
1.0
141
100.0
290
     0
  0
SCALE
  5
54
102
{ACAD_REACTORS
330
47
102
}
330
47
100
AcDbScale
 70
     0
300
2:1
140
2.0
141
1.0
290
     0
  0
SCALE
  5
55
102
{ACAD_REACTORS
330
47
102
}
330
47
100
AcDbScale
 70
     0
300
4:1
140
4.0
141
1.0
290
     0
  0
SCALE
  5
56
102
{ACAD_REACTORS
330
47
102
}
330
47
100
AcDbScale
 70
     0
300
8:1
140
8.0
141
1.0
290
     0
  0
SCALE
  5
57
102
{ACAD_REACTORS
330
47
102
}
330
47
100
AcDbScale
 70
     0
300
10:1
140
10.0
141
1.0
290
     0
  0
SCALE
  5
58
102
{ACAD_REACTORS
330
47
102
}
330
47
100
AcDbScale
 70
     0
300
100:1
140
100.0
141
1.0
290
     0
  0
SCALE
  5
59
102
{ACAD_REACTORS
330
47
102
}
330
47
100
AcDbScale
 70
     0
300
1/128" = 1'-0"
140
0.0078125
141
12.0
290
     0
  0
SCALE
  5
5A
102
{ACAD_REACTORS
330
47
102
}
330
47
100
AcDbScale
 70
     0
300
1/64" = 1'-0"
140
0.015625
141
12.0
290
     0
  0
SCALE
  5
5B
102
{ACAD_REACTORS
330
47
102
}
330
47
100
AcDbScale
 70
     0
300
1/32" = 1'-0"
140
0.03125
141
12.0
290
     0
  0
SCALE
  5
5C
102
{ACAD_REACTORS
330
47
102
}
330
47
100
AcDbScale
 70
     0
300
1/16" = 1'-0"
140
0.0625
141
12.0
290
     0
  0
SCALE
  5
5D
102
{ACAD_REACTORS
330
47
102
}
330
47
100
AcDbScale
 70
     0
300
3/32" = 1'-0"
140
0.09375
141
12.0
290
     0
  0
SCALE
  5
5E
102
{ACAD_REACTORS
330
47
102
}
330
47
100
AcDbScale
 70
     0
300
1/8" = 1'-0"
140
0.125
141
12.0
290
     0
  0
SCALE
  5
5F
102
{ACAD_REACTORS
330
47
102
}
330
47
100
AcDbScale
 70
     0
300
3/16" = 1'-0"
140
0.1875
141
12.0
290
     0
  0
SCALE
  5
60
102
{ACAD_REACTORS
330
47
102
}
330
47
100
AcDbScale
 70
     0
300
1/4" = 1'-0"
140
0.25
141
12.0
290
     0
  0
SCALE
  5
61
102
{ACAD_REACTORS
330
47
102
}
330
47
100
AcDbScale
 70
     0
300
3/8" = 1'-0"
140
0.375
141
12.0
290
     0
  0
SCALE
  5
62
102
{ACAD_REACTORS
330
47
102
}
330
47
100
AcDbScale
 70
     0
300
1/2" = 1'-0"
140
0.5
141
12.0
290
     0
  0
SCALE
  5
63
102
{ACAD_REACTORS
330
47
102
}
330
47
100
AcDbScale
 70
     0
300
3/4" = 1'-0"
140
0.75
141
12.0
290
     0
  0
SCALE
  5
64
102
{ACAD_REACTORS
330
47
102
}
330
47
100
AcDbScale
 70
     0
300
1" = 1'-0"
140
1.0
141
12.0
290
     0
  0
SCALE
  5
65
102
{ACAD_REACTORS
330
47
102
}
330
47
100
AcDbScale
 70
     0
300
1-1/2" = 1'-0"
140
1.5
141
12.0
290
     0
  0
SCALE
  5
66
102
{ACAD_REACTORS
330
47
102
}
330
47
100
AcDbScale
 70
     0
300
3" = 1'-0"
140
3.0
141
12.0
290
     0
  0
SCALE
  5
67
102
{ACAD_REACTORS
330
47
102
}
330
47
100
AcDbScale
 70
     0
300
6" = 1'-0"
140
6.0
141
12.0
290
     0
  0
SCALE
  5
68
102
{ACAD_REACTORS
330
47
102
}
330
47
100
AcDbScale
 70
     0
300
1'-0" = 1'-0"
140
12.0
141
12.0
290
     0
  0
ENDSEC
  0
EOF
