  0
SECTION
  2
HEADER
  9
$ACADVER
  1
AC1015
  9
$ACADMAINTVER
 70
     6
  9
$DWGCODEPAGE
  3
ANSI_1252
  9
$INSBASE
 10
0.0
 20
0.0
 30
0.0
  9
$EXTMIN
 10
0.0
 20
0.0
 30
0.0
  9
$EXTMAX
 10
279.4
 20
215.9
 30
0.0
  9
$LIMMIN
 10
0.0
 20
0.0
  9
$LIMMAX
 10
279.4
 20
215.9
  9
$ORTHOMODE
 70
     0
  9
$REGENMODE
 70
     1
  9
$FILLMODE
 70
     1
  9
$QTEXTMODE
 70
     0
  9
$MIRRTEXT
 70
     1
  9
$LTSCALE
 40
1.0
  9
$ATTMODE
 70
     1
  9
$TEXTSIZE
 40
3.5277777778
  9
$TRACEWID
 40
1.0
  9
$TEXTSTYLE
  7
Standard
  9
$CLAYER
  8
0
  9
$CELTYPE
  6
ByLayer
  9
$CECOLOR
 62
   256
  9
$CELTSCALE
 40
1.0
  9
$DISPSILH
 70
     0
  9
$DIMSCALE
 40
1.0
  9
$DIMASZ
 40
3.556
  9
$DIMEXO
 40
1.0
  9
$DIMDLI
 40
3.75
  9
$DIMRND
 40
0.0
  9
$DIMDLE
 40
0.0
  9
$DIMEXE
 40
1.0
  9
$DIMTP
 40
0.0
  9
$DIMTM
 40
0.0
  9
$DIMTXT
 40
3.5277777778
  9
$DIMCEN
 40
2.5
  9
$DIMTSZ
 40
0.0
  9
$DIMTOL
 70
     0
  9
$DIMLIM
 70
     0
  9
$DIMTIH
 70
     1
  9
$DIMTOH
 70
     1
  9
$DIMSE1
 70
     0
  9
$DIMSE2
 70
     0
  9
$DIMTAD
 70
     1
  9
$DIMZIN
 70
     0
  9
$DIMBLK
  1

  9
$DIMASO
 70
     1
  9
$DIMSHO
 70
     1
  9
$DIMPOST
  1

  9
$DIMAPOST
  1

  9
$DIMALT
 70
     0
  9
$DIMALTD
 70
     3
  9
$DIMALTF
 40
0.0393700787
  9
$DIMLFAC
 40
2.0
  9
$DIMTOFL
 70
     1
  9
$DIMTVP
 40
0.0
  9
$DIMTIX
 70
     0
  9
$DIMSOXD
 70
     0
  9
$DIMSAH
 70
     0
  9
$DIMBLK1
  1

  9
$DIMBLK2
  1

  9
$DIMSTYLE
  2
ISO-25
  9
$DIMCLRD
 70
     0
  9
$DIMCLRE
 70
     0
  9
$DIMCLRT
 70
     0
  9
$DIMTFAC
 40
1.0
  9
$DIMGAP
 40
1.524
  9
$DIMJUST
 70
     0
  9
$DIMSD1
 70
     0
  9
$DIMSD2
 70
     0
  9
$DIMTOLJ
 70
     0
  9
$DIMTZIN
 70
     0
  9
$DIMALTZ
 70
     0
  9
$DIMALTTZ
 70
     0
  9
$DIMUPT
 70
     0
  9
$DIMDEC
 70
     2
  9
$DIMTDEC
 70
     2
  9
$DIMALTU
 70
     2
  9
$DIMALTTD
 70
     3
  9
$DIMTXSTY
  7
Standard
  9
$DIMAUNIT
 70
     0
  9
$DIMADEC
 70
     2
  9
$DIMALTRND
 40
0.0
  9
$DIMAZIN
 70
     0
  9
$DIMDSEP
 70
    44
  9
$DIMATFIT
 70
     3
  9
$DIMFRAC
 70
     0
  9
$DIMLDRBLK
  1

  9
$DIMLUNIT
 70
     2
  9
$DIMLWD
 70
    -2
  9
$DIMLWE
 70
    -2
  9
$DIMTMOVE
 70
     0
  9
$LUNITS
 70
     2
  9
$LUPREC
 70
     2
  9
$SKETCHINC
 40
1.0
  9
$FILLETRAD
 40
10.0
  9
$AUNITS
 70
     0
  9
$AUPREC
 70
     2
  9
$MENU
  1
.
  9
$ELEVATION
 40
0.0
  9
$PELEVATION
 40
0.0
  9
$THICKNESS
 40
0.0
  9
$LIMCHECK
 70
     0
  9
$CHAMFERA
 40
0.0
  9
$CHAMFERB
 40
0.0
  9
$CHAMFERC
 40
0.0
  9
$CHAMFERD
 40
0.0
  9
$SKPOLY
 70
     0
  9
$TDCREATE
 40
2460383.727067836
  9
$TDUCREATE
 40
2460383.497901169
  9
$TDUPDATE
 40
2460383.727068438
  9
$TDUUPDATE
 40
2460383.497901771
  9
$TDINDWG
 40
0.0000000116
  9
$TDUSRTIMER
 40
0.0000000116
  9
$USRTIMER
 70
     1
  9
$ANGBASE
 50
0.0
  9
$ANGDIR
 70
     0
  9
$PDMODE
 70
     0
  9
$PDSIZE
 40
-1.0
  9
$PLINEWID
 40
0.0
  9
$SPLFRAME
 70
     0
  9
$SPLINETYPE
 70
     6
  9
$SPLINESEGS
 70
     8
  9
$HANDSEED
  5
32B
  9
$SURFTAB1
 70
     6
  9
$SURFTAB2
 70
     6
  9
$SURFTYPE
 70
     6
  9
$SURFU
 70
     6
  9
$SURFV
 70
     6
  9
$UCSBASE
  2

  9
$UCSNAME
  2

  9
$UCSORG
 10
0.0
 20
0.0
 30
0.0
  9
$UCSXDIR
 10
1.0
 20
0.0
 30
0.0
  9
$UCSYDIR
 10
0.0
 20
1.0
 30
0.0
  9
$UCSORTHOREF
  2

  9
$UCSORTHOVIEW
 70
     0
  9
$UCSORGTOP
 10
0.0
 20
0.0
 30
0.0
  9
$UCSORGBOTTOM
 10
0.0
 20
0.0
 30
0.0
  9
$UCSORGLEFT
 10
0.0
 20
0.0
 30
0.0
  9
$UCSORGRIGHT
 10
0.0
 20
0.0
 30
0.0
  9
$UCSORGFRONT
 10
0.0
 20
0.0
 30
0.0
  9
$UCSORGBACK
 10
0.0
 20
0.0
 30
0.0
  9
$PUCSBASE
  2

  9
$PUCSNAME
  2

  9
$PUCSORG
 10
0.0
 20
0.0
 30
0.0
  9
$PUCSXDIR
 10
1.0
 20
0.0
 30
0.0
  9
$PUCSYDIR
 10
0.0
 20
1.0
 30
0.0
  9
$PUCSORTHOREF
  2

  9
$PUCSORTHOVIEW
 70
     0
  9
$PUCSORGTOP
 10
0.0
 20
0.0
 30
0.0
  9
$PUCSORGBOTTOM
 10
0.0
 20
0.0
 30
0.0
  9
$PUCSORGLEFT
 10
0.0
 20
0.0
 30
0.0
  9
$PUCSORGRIGHT
 10
0.0
 20
0.0
 30
0.0
  9
$PUCSORGFRONT
 10
0.0
 20
0.0
 30
0.0
  9
$PUCSORGBACK
 10
0.0
 20
0.0
 30
0.0
  9
$USERI1
 70
     0
  9
$USERI2
 70
     0
  9
$USERI3
 70
     0
  9
$USERI4
 70
     0
  9
$USERI5
 70
     0
  9
$USERR1
 40
0.0
  9
$USERR2
 40
0.0
  9
$USERR3
 40
0.0
  9
$USERR4
 40
0.0
  9
$USERR5
 40
0.0
  9
$WORLDVIEW
 70
     1
  9
$SHADEDGE
 70
     3
  9
$SHADEDIF
 70
    70
  9
$TILEMODE
 70
     1
  9
$MAXACTVP
 70
    64
  9
$PINSBASE
 10
0.0
 20
0.0
 30
0.0
  9
$PLIMCHECK
 70
     0
  9
$PEXTMIN
 10
1.0000000000E+20
 20
1.0000000000E+20
 30
1.0000000000E+20
  9
$PEXTMAX
 10
-1.0000000000E+20
 20
-1.0000000000E+20
 30
-1.0000000000E+20
  9
$PLIMMIN
 10
0.0
 20
0.0
  9
$PLIMMAX
 10
420.0
 20
297.0
  9
$UNITMODE
 70
     0
  9
$VISRETAIN
 70
     1
  9
$PLINEGEN
 70
     0
  9
$PSLTSCALE
 70
     1
  9
$TREEDEPTH
 70
  3020
  9
$CMLSTYLE
  2
Standard
  9
$CMLJUST
 70
     0
  9
$CMLSCALE
 40
20.0
  9
$PROXYGRAPHICS
 70
     1
  9
$MEASUREMENT
 70
     1
  9
$CELWEIGHT
370
    -1
  9
$ENDCAPS
280
     0
  9
$JOINSTYLE
280
     0
  9
$LWDISPLAY
290
     1
  9
$INSUNITS
 70
     4
  9
$HYPERLINKBASE
  1

  9
$STYLESHEET
  1

  9
$XEDIT
290
     1
  9
$CEPSNTYPE
380
     0
  9
$PSTYLEMODE
290
     1
  9
$FINGERPRINTGUID
  2
{e79566c7-bb7c-4482-8cb4-87ff1501040e}
  9
$VERSIONGUID
  2
{FAEB1C32-E019-11D5-929B-00C0DF256EC4}
  9
$EXTNAMES
290
     1
  9
$PSVPSCALE
 40
0.0
  9
$OLESTARTUP
290
     0
  0
ENDSEC
  0
SECTION
  2
CLASSES
  0
CLASS
  1
ACDBDICTIONARYWDFLT
  2
AcDbDictionaryWithDefault
  3
ObjectDBX Classes
 90
        0
280
     0
281
     0
  0
CLASS
  1
VISUALSTYLE
  2
AcDbVisualStyle
  3
ObjectDBX Classes
 90
     4095
280
     0
281
     0
  0
CLASS
  1
MATERIAL
  2
AcDbMaterial
  3
ObjectDBX Classes
 90
     1153
280
     0
281
     0
  0
CLASS
  1
SCALE
  2
AcDbScale
  3
ObjectDBX Classes
 90
     1153
280
     0
281
     0
  0
CLASS
  1
TABLESTYLE
  2
AcDbTableStyle
  3
ObjectDBX Classes
 90
     4095
280
     0
281
     0
  0
CLASS
  1
MLEADERSTYLE
  2
AcDbMLeaderStyle
  3
ACDB_MLEADERSTYLE_CLASS
 90
     4095
280
     0
281
     0
  0
CLASS
  1
SUN
  2
AcDbSun
  3
SCENEOE
 90
     1153
280
     0
281
     0
  0
CLASS
  1
ACDBPLACEHOLDER
  2
AcDbPlaceHolder
  3
ObjectDBX Classes
 90
        0
280
     0
281
     0
  0
CLASS
  1
LAYOUT
  2
AcDbLayout
  3
ObjectDBX Classes
 90
        0
280
     0
281
     0
  0
ENDSEC
  0
SECTION
  2
TABLES
  0
TABLE
  2
VPORT
  5
8
330
0
100
AcDbSymbolTable
 70
     1
  0
VPORT
  5
29
330
8
100
AcDbSymbolTableRecord
100
AcDbViewportTableRecord
  2
*Active
 70
     0
 10
0.0
 20
0.0
 11
1.0
 21
1.0
 12
139.7
 22
107.95
 13
0.0
 23
0.0
 14
10.0
 24
10.0
 15
10.0
 25
10.0
 16
0.0
 26
0.0
 36
1.0
 17
0.0
 27
0.0
 37
0.0
 40
215.9
 41
1.2941176471
 42
50.0
 43
0.0
 44
0.0
 50
0.0
 51
0.0
 71
     0
 72
  2000
 73
     1
 74
     3
 75
     0
 76
     0
 77
     0
 78
     0
281
     0
 65
     1
110
0.0
120
0.0
130
0.0
111
1.0
121
0.0
131
0.0
112
0.0
122
1.0
132
0.0
 79
     0
146
0.0
  0
ENDTAB
  0
TABLE
  2
LTYPE
  5
5
330
0
100
AcDbSymbolTable
 70
     6
  0
LTYPE
  5
14
330
5
100
AcDbSymbolTableRecord
100
AcDbLinetypeTableRecord
  2
ByBlock
 70
     0
  3

 72
    65
 73
     0
 40
0.0
  0
LTYPE
  5
15
330
5
100
AcDbSymbolTableRecord
100
AcDbLinetypeTableRecord
  2
ByLayer
 70
     0
  3

 72
    65
 73
     0
 40
0.0
  0
LTYPE
  5
16
330
5
100
AcDbSymbolTableRecord
100
AcDbLinetypeTableRecord
  2
Continuous
 70
     0
  3
Solid line
 72
    65
 73
     0
 40
0.0
  0
LTYPE
  5
6E
330
5
100
AcDbSymbolTableRecord
100
AcDbLinetypeTableRecord
  2
HIDDEN
 70
     0
  3
Hidden __ __ __ __ __ __ __ __ __ __ __ __ __ __
 72
    65
 73
     2
 40
1.905
 49
1.27
 74
     0
 49
-0.635
 74
     0
  0
LTYPE
  5
6F
330
5
100
AcDbSymbolTableRecord
100
AcDbLinetypeTableRecord
  2
PHANTOM
 70
     0
  3
Phantom ______  __  __  ______  __  __  ______
 72
    65
 73
     6
 40
12.7
 49
6.35
 74
     0
 49
-1.27
 74
     0
 49
1.27
 74
     0
 49
-1.27
 74
     0
 49
1.27
 74
     0
 49
-1.27
 74
     0
  0
LTYPE
  5
70
330
5
100
AcDbSymbolTableRecord
100
AcDbLinetypeTableRecord
  2
CENTER
 70
     0
  3
Center ____ _ ____ _ ____ _ ____ _ ____ _ ____
 72
    65
 73
     4
 40
10.16
 49
6.35
 74
     0
 49
-1.27
 74
     0
 49
1.27
 74
     0
 49
-1.27
 74
     0
  0
LTYPE
  5
71
330
5
100
AcDbSymbolTableRecord
100
AcDbLinetypeTableRecord
  2
CENTERX2
 70
     0
  3
Center (2x) ________  __  ________  __  _____
 72
    65
 73
     4
 40
20.32
 49
12.7
 74
     0
 49
-2.54
 74
     0
 49
2.54
 74
     0
 49
-2.54
 74
     0
  0
LTYPE
  5
72
330
5
100
AcDbSymbolTableRecord
100
AcDbLinetypeTableRecord
  2
DOT2
 70
     0
  3
Dot (.5x) ........................................
 72
    65
 73
     2
 40
0.635
 49
0.0
 74
     0
 49
-0.635
 74
     0
  0
ENDTAB
  0
TABLE
  2
LAYER
  5
2
330
0
100
AcDbSymbolTable
 70
     5
  0
LAYER
  5
10
330
2
100
AcDbSymbolTableRecord
100
AcDbLayerTableRecord
  2
0
 70
     0
 62
     7
  6
Continuous
370
    -3
390
F
  0
LAYER
  5
73
330
2
100
AcDbSymbolTableRecord
100
AcDbLayerTableRecord
  2
FORMAT
 70
     0
 62
     7
  6
Continuous
370
    -3
390
F
  0
LAYER
  5
74
330
2
100
AcDbSymbolTableRecord
100
AcDbLayerTableRecord
  2
OUT_LINE
 70
     0
 62
     7
  6
Continuous
370
    50
390
F
  0
LAYER
  5
75
330
2
100
AcDbSymbolTableRecord
100
AcDbLayerTableRecord
  2
WATERMARK
 70
     0
 62
   254
  6
Continuous
370
    -3
390
F
  0
LAYER
  5
76
330
2
100
AcDbSymbolTableRecord
100
AcDbLayerTableRecord
  2
LAYER3
 70
     0
 62
     7
  6
Continuous
370
    35
390
F
  0
ENDTAB
  0
TABLE
  2
STYLE
  5
3
330
0
100
AcDbSymbolTable
 70
     1
  0
STYLE
  5
11
330
3
100
AcDbSymbolTableRecord
100
AcDbTextStyleTableRecord
  2
Standard
 70
     0
 40
0.0
 41
1.0
 50
0.0
 71
     0
 42
3.5277777778
  3
txt
  4

  0
ENDTAB
  0
TABLE
  2
VIEW
  5
6
330
0
100
AcDbSymbolTable
 70
     0
  0
ENDTAB
  0
TABLE
  2
UCS
  5
7
330
0
100
AcDbSymbolTable
 70
     0
  0
ENDTAB
  0
TABLE
  2
APPID
  5
9
330
0
100
AcDbSymbolTable
 70
     1
  0
APPID
  5
12
330
9
100
AcDbSymbolTableRecord
100
AcDbRegAppTableRecord
  2
ACAD
 70
     0
  0
ENDTAB
  0
TABLE
  2
DIMSTYLE
  5
A
330
0
100
AcDbSymbolTable
 70
     1
100
AcDbDimStyleTable
  0
DIMSTYLE
105
27
330
A
100
AcDbSymbolTableRecord
100
AcDbDimStyleTableRecord
  2
ISO-25
 70
     0
 41
2.5
 42
0.625
 43
3.75
 44
1.25
 73
     0
 74
     0
 77
     1
 78
     8
140
2.5
141
2.5
143
0.0393700787
147
0.625
171
     3
172
     1
178
     0
271
     2
272
     2
274
     3
278
    44
283
     0
284
     8
340
11
  0
ENDTAB
  0
TABLE
  2
BLOCK_RECORD
  5
1
330
0
100
AcDbSymbolTable
 70
     4
  0
BLOCK_RECORD
  5
1F
330
1
100
AcDbSymbolTableRecord
100
AcDbBlockTableRecord
  2
*Model_Space
340
22
  0
BLOCK_RECORD
  5
1B
330
1
100
AcDbSymbolTableRecord
100
AcDbBlockTableRecord
  2
*Paper_Space
340
1E
  0
BLOCK_RECORD
  5
23
330
1
100
AcDbSymbolTableRecord
100
AcDbBlockTableRecord
  2
*Paper_Space0
340
26
  0
BLOCK_RECORD
  5
77
330
1
100
AcDbSymbolTableRecord
100
AcDbBlockTableRecord
  2
Block5
340
0
  0
BLOCK_RECORD
  5
85
330
1
100
AcDbSymbolTableRecord
100
AcDbBlockTableRecord
  2
Block2
340
0
  0
BLOCK_RECORD
  5
90
330
1
100
AcDbSymbolTableRecord
100
AcDbBlockTableRecord
  2
Block7
340
0
  0
ENDTAB
  0
ENDSEC
  0
SECTION
  2
BLOCKS
  0
BLOCK
  5
20
330
1F
100
AcDbEntity
  8
0
100
AcDbBlockBegin
  2
*Model_Space
 70
     0
 10
0.0
 20
0.0
 30
0.0
  3
*Model_Space
  1

  0
ENDBLK
  5
21
330
1F
100
AcDbEntity
  8
0
100
AcDbBlockEnd
  0
BLOCK
  5
1C
330
1B
100
AcDbEntity
 67
     1
  8
0
100
AcDbBlockBegin
  2
*Paper_Space
 70
     0
 10
0.0
 20
0.0
 30
0.0
  3
*Paper_Space
  1

  0
ENDBLK
  5
1D
330
1B
100
AcDbEntity
 67
     1
  8
0
100
AcDbBlockEnd
  0
BLOCK
  5
24
330
23
100
AcDbEntity
  8
0
100
AcDbBlockBegin
  2
*Paper_Space0
 70
     0
 10
0.0
 20
0.0
 30
0.0
  3
*Paper_Space0
  1

  0
ENDBLK
  5
25
330
23
100
AcDbEntity
  8
0
100
AcDbBlockEnd
  0
BLOCK
  5
78
330
77
100
AcDbEntity
  8
0
100
AcDbBlockBegin
  2
Block5
 70
     0
 10
0.0
 20
0.0
 30
0.0
  3
Block5
  1

  0
LINE
  5
7A
330
77
100
AcDbEntity
  8
LAYER3
100
AcDbLine
 10
251.0883122991
 20
64.4632252413
 30
0.0
 11
250.3611798328
 21
64.9733337839
 31
0.0
  0
LINE
  5
7B
330
77
100
AcDbEntity
  8
LAYER3
100
AcDbLine
 10
250.3611798328
 20
64.9733337839
 30
0.0
 11
251.0883122991
 21
65.4834423266
 31
0.0
  0
LINE
  5
7C
330
77
100
AcDbEntity
  8
LAYER3
100
AcDbLine
 10
250.3611798328
 20
65.6106440044
 30
0.0
 11
250.3611798328
 21
64.3360235634
 31
0.0
  0
LINE
  5
7D
330
77
100
AcDbEntity
  8
LAYER3
100
AcDbLine
 10
251.0883122991
 20
65.4834423266
 30
0.0
 11
251.0883122991
 21
64.4632252413
 31
0.0
  0
LINE
  5
7E
330
77
100
AcDbEntity
  8
LAYER3
  6
Continuous
 62
     7
370
    18
100
AcDbLine
 10
254.0738326611
 20
65.4834423266
 30
0.0
 11
254.0738326611
 21
64.4632252413
 31
0.0
  0
LINE
  5
7F
330
77
100
AcDbEntity
  8
LAYER3
100
AcDbLine
 10
251.0883122991
 20
64.9733337839
 30
0.0
 11
254.0738326611
 21
64.9733337839
 31
0.0
  0
LINE
  5
80
330
77
100
AcDbEntity
  8
LAYER3
100
AcDbLine
 10
254.0738326611
 20
64.9733337839
 30
0.0
 11
254.0738326611
 21
64.4632252413
 31
0.0
  0
LINE
  5
81
330
77
100
AcDbEntity
  8
LAYER3
100
AcDbLine
 10
254.0738326611
 20
65.4834423266
 30
0.0
 11
254.8009651274
 21
64.9733337839
 31
0.0
  0
LINE
  5
82
330
77
100
AcDbEntity
  8
LAYER3
100
AcDbLine
 10
254.8009651274
 20
64.9733337839
 30
0.0
 11
254.0738326611
 21
64.4632252413
 31
0.0
  0
LINE
  5
83
330
77
100
AcDbEntity
  8
LAYER3
100
AcDbLine
 10
254.0738326611
 20
65.4834423266
 30
0.0
 11
254.0738326611
 21
64.9733337839
 31
0.0
  0
LINE
  5
84
330
77
100
AcDbEntity
  8
LAYER3
100
AcDbLine
 10
254.8009651274
 20
65.6106440044
 30
0.0
 11
254.8009651274
 21
64.3360235634
 31
0.0
  0
ENDBLK
  5
79
330
77
100
AcDbEntity
  8
0
100
AcDbBlockEnd
  0
BLOCK
  5
86
330
85
100
AcDbEntity
  8
0
100
AcDbBlockBegin
  2
Block2
 70
     0
 10
0.0
 20
0.0
 30
0.0
  3
Block2
  1

  0
CIRCLE
  5
88
330
85
100
AcDbEntity
  8
FORMAT
100
AcDbCircle
 10
44.9757425281
 20
71.5551333392
 30
0.0
 40
3.500000000000012
  0
CIRCLE
  5
89
330
85
100
AcDbEntity
  8
FORMAT
100
AcDbCircle
 10
44.9757425281
 20
71.5551333392
 30
0.0
 40
1.664444312410222
  0
LINE
  5
8A
330
85
100
AcDbEntity
  8
FORMAT
100
AcDbLine
 10
50.8419693267
 20
74.6444962432
 30
0.0
 11
58.8419693267
 21
73.6204905773
 31
0.0
  0
LINE
  5
8B
330
85
100
AcDbEntity
  8
FORMAT
100
AcDbLine
 10
58.8419693267
 20
73.6204905773
 30
0.0
 11
58.8419693267
 21
69.4897761011
 31
0.0
  0
LINE
  5
8C
330
85
100
AcDbEntity
  8
FORMAT
100
AcDbLine
 10
58.8419693267
 20
69.4897761011
 30
0.0
 11
50.8419693267
 21
68.4657704351
 31
0.0
  0
LINE
  5
8D
330
85
100
AcDbEntity
  8
FORMAT
100
AcDbLine
 10
50.8419693267
 20
68.4657704351
 30
0.0
 11
50.8419693267
 21
74.6444962432
 31
0.0
  0
LINE
  5
8E
330
85
100
AcDbEntity
  8
FORMAT
  6
CENTERX2
100
AcDbLine
 10
58.8419693267
 20
71.5551333392
 30
0.0
 11
40.5246830005
 21
71.5551333392
 31
0.0
  0
LINE
  5
8F
330
85
100
AcDbEntity
  8
FORMAT
100
AcDbLine
 10
44.9757425281
 20
77.2283416432
 30
0.0
 11
44.9757425281
 21
65.8819250352
 31
0.0
  0
ENDBLK
  5
87
330
85
100
AcDbEntity
  8
0
100
AcDbBlockEnd
  0
BLOCK
  5
91
330
90
100
AcDbEntity
  8
0
100
AcDbBlockBegin
  2
Block7
 70
     0
 10
0.0
 20
0.0
 30
0.0
  3
Block7
  1

  0
LINE
  5
93
330
90
100
AcDbEntity
  8
FORMAT
100
AcDbLine
 10
221.8284763776
 20
80.2705155621
 30
0.0
 11
222.3963943455
 21
79.286852787
 31
0.0
  0
LINE
  5
94
330
90
100
AcDbEntity
  8
FORMAT
100
AcDbLine
 10
222.3963943455
 20
79.286852787
 30
0.0
 11
222.9643123135
 21
80.2705155621
 31
0.0
  0
LINE
  5
95
330
90
100
AcDbEntity
  8
FORMAT
100
AcDbLine
 10
221.8284763776
 20
80.2705155621
 30
0.0
 11
222.9643123135
 21
80.2705155621
 31
0.0
  0
LINE
  5
96
330
90
100
AcDbEntity
  8
FORMAT
100
AcDbLine
 10
222.9643123135
 20
80.2705155621
 30
0.0
 11
223.3725273771
 21
80.9775647926
 31
0.0
  0
LINE
  5
97
330
90
100
AcDbEntity
  8
FORMAT
100
AcDbLine
 10
223.3725273771
 20
80.9775647926
 30
0.0
 11
224.1023154201
 21
80.9775647926
 31
0.0
  0
ENDBLK
  5
92
330
90
100
AcDbEntity
  8
0
100
AcDbBlockEnd
  0
ENDSEC
  0
SECTION
  2
ENTITIES
  0
LINE
  5
98
330
1F
100
AcDbEntity
  8
0
  6
Continuous
 62
     7
370
    25
100
AcDbLine
 10
236.3127360223
 20
87.7002379283
 30
0.0
 11
237.9177410118
 21
88.9251101572
 31
0.0
  0
LINE
  5
99
330
1F
100
AcDbEntity
  8
0
  6
Continuous
 62
     7
370
    25
100
AcDbLine
 10
237.9177410118
 20
100.7753656995
 30
0.0
 11
236.3127360223
 21
102.0002379283
 31
0.0
  0
ARC
  5
9A
330
1F
100
AcDbEntity
  8
0
  6
Continuous
 62
     7
370
    25
100
AcDbCircle
 10
237.4627360223
 20
89.5213235917
 30
0.0
 40
0.7500000000000128
100
AcDbArc
 50
307.3493490446
 51
0.0
  0
ARC
  5
9B
330
1F
100
AcDbEntity
  8
0
  6
Continuous
 62
     7
370
    25
100
AcDbCircle
 10
237.4627360223
 20
100.179152265
 30
0.0
 40
0.7500000000000128
100
AcDbArc
 50
0.0
 51
52.6506509554
  0
ARC
  5
9C
330
1F
100
AcDbEntity
  8
0
  6
Continuous
 62
     7
370
    25
100
AcDbCircle
 10
53.8127360223
 20
98.8502379283
 30
0.0
 40
0.5000000000000083
100
AcDbArc
 50
90.0
 51
156.742337232
  0
ARC
  5
9D
330
1F
100
AcDbEntity
  8
0
  6
Continuous
 62
     7
370
    25
100
AcDbCircle
 10
53.8127360223
 20
90.8502379283
 30
0.0
 40
0.5000000000000083
100
AcDbArc
 50
203.257662768
 51
270.0
  0
ARC
  5
9E
330
1F
100
AcDbEntity
  8
0
  6
Continuous
 62
     7
370
    25
100
AcDbCircle
 10
63.1195561022
 20
94.8502379283
 30
0.0
 40
10.63
100
AcDbArc
 50
186.6454578524
 51
203.257662768
  0
ARC
  5
9F
330
1F
100
AcDbEntity
  8
0
  6
Continuous
 62
     7
370
    25
100
AcDbCircle
 10
63.1195561022
 20
94.8502379283
 30
0.0
 40
10.63000000000001
100
AcDbArc
 50
156.742337232
 51
173.3788698941
  0
LINE
  5
A0
330
1F
100
AcDbEntity
  8
0
  6
Continuous
 62
     7
370
    25
100
AcDbLine
 10
52.5559338775
 20
95.976935832
 30
0.0
 11
52.8208050543
 21
95.976935832
 31
0.0
  0
LINE
  5
A1
330
1F
100
AcDbEntity
  8
0
  6
Continuous
 62
     7
370
    25
100
AcDbLine
 10
52.6562921611
 20
93.7235400246
 30
0.0
 11
52.5559338775
 21
93.7235400246
 31
0.0
  0
ARC
  5
A2
330
1F
100
AcDbEntity
  8
0
  6
Continuous
 62
     7
370
    25
100
AcDbCircle
 10
238.2127360223
 20
90.8502379283
 30
0.0
 40
0.5000000000000148
100
AcDbArc
 50
270.0
 51
336.742337232
  0
ARC
  5
A3
330
1F
100
AcDbEntity
  8
0
  6
Continuous
 62
     7
370
    25
100
AcDbCircle
 10
238.2127360223
 20
98.8502379283
 30
0.0
 40
0.5000000000000148
100
AcDbArc
 50
23.257662768
 51
90.0
  0
LINE
  5
A4
330
1F
100
AcDbEntity
  8
0
  6
Continuous
 62
     7
370
    25
100
AcDbLine
 10
236.3127360223
 20
91.4268695577
 30
0.0
 11
237.3948043381
 21
90.4748471546
 31
0.0
  0
ARC
  5
A5
330
1F
100
AcDbEntity
  8
0
  6
Continuous
 62
     7
370
    25
100
AcDbCircle
 10
228.9059159424
 20
94.8502379283
 30
0.0
 40
10.63000000000003
100
AcDbArc
 50
6.6431237694
 51
23.257662768
  0
ARC
  5
A6
330
1F
100
AcDbEntity
  8
0
  6
Continuous
 62
     7
370
    25
100
AcDbCircle
 10
228.9059159424
 20
94.8502379283
 30
0.0
 40
10.63000000000003
100
AcDbArc
 50
336.742337232
 51
353.3915325368
  0
LINE
  5
A7
330
1F
100
AcDbEntity
  8
0
  6
Continuous
 62
     7
370
    25
100
AcDbLine
 10
239.2046669902
 20
95.976935832
 30
0.0
 11
239.469011685
 21
95.976935832
 31
0.0
  0
LINE
  5
A8
330
1F
100
AcDbEntity
  8
0
  6
Continuous
 62
     7
370
    25
100
AcDbLine
 10
239.469011685
 20
93.7235400246
 30
0.0
 11
239.3691798835
 21
93.7235400246
 31
0.0
  0
LINE
  5
A9
330
1F
100
AcDbEntity
  8
0
  6
Continuous
 62
     7
370
    25
100
AcDbLine
 10
55.7127360223
 20
102.0002379283
 30
0.0
 11
54.1077310328
 21
100.7753656995
 31
0.0
  0
LINE
  5
AA
330
1F
100
AcDbEntity
  8
0
  6
Continuous
 62
     7
370
    25
100
AcDbLine
 10
54.1077310328
 20
88.9251101572
 30
0.0
 11
55.7127360223
 21
87.7002379283
 31
0.0
  0
ARC
  5
AB
330
1F
100
AcDbEntity
  8
0
  6
Continuous
 62
     7
370
    25
100
AcDbCircle
 10
54.5627360223
 20
100.179152265
 30
0.0
 40
0.7500000000000128
100
AcDbArc
 50
127.3493490446
 51
180.0
  0
ARC
  5
AC
330
1F
100
AcDbEntity
  8
0
  6
Continuous
 62
     7
370
    25
100
AcDbCircle
 10
54.5627360223
 20
89.5213235917
 30
0.0
 40
0.7500000000000128
100
AcDbArc
 50
180.0
 51
232.6506509554
  0
LINE
  5
AD
330
1F
100
AcDbEntity
  8
0
  6
Continuous
 62
     7
370
    25
100
AcDbLine
 10
60.5746920651
 20
103.8258959726
 30
0.0
 11
56.2040098191
 21
103.7496054302
 31
0.0
  0
LINE
  5
AE
330
1F
100
AcDbEntity
  8
0
  6
Continuous
 62
     7
370
    25
100
AcDbLine
 10
56.2040098191
 20
85.9508704265
 30
0.0
 11
61.508112279
 21
85.8582869737
 31
0.0
  0
ARC
  5
AF
330
1F
100
AcDbEntity
  8
0
  6
Continuous
 62
     7
370
    25
100
AcDbCircle
 10
56.2127360223
 20
103.2496815826
 30
0.0
 40
0.5
100
AcDbArc
 50
91.0
 51
180.0
  0
ARC
  5
B0
330
1F
100
AcDbEntity
  8
0
  6
Continuous
 62
     7
370
    25
100
AcDbCircle
 10
56.2127360223
 20
86.4507942741
 30
0.0
 40
0.5
100
AcDbArc
 50
180.0
 51
269.0
  0
SPLINE
  5
B1
330
1F
100
AcDbEntity
  8
0
  6
Continuous
 62
     7
370
    25
100
AcDbSpline
210
0.0
220
0.0
230
1.0
 70
     8
 71
     3
 72
    12
 73
     8
 74
     0
 42
0.00000001
 43
0.00000001
 40
0.0
 40
0.0
 40
0.0
 40
0.0
 40
0.1110213958485484
 40
0.4537544599013409
 40
0.730499587047022
 40
0.9573202587385997
 40
1.0
 40
1.0
 40
1.0
 40
1.0
 10
62.78636009253263
 20
85.4912996610396
 30
0.0
 10
62.88046444935306
 20
85.43552478150276
 30
0.0
 10
63.26507744468658
 20
85.20756781747022
 30
0.0
 10
63.74545603208603
 20
84.87852677702217
 30
0.0
 10
64.13678006328688
 20
84.58405395948742
 30
0.0
 10
64.27933690942135
 20
84.42008063601172
 30
0.0
 10
64.25668290555562
 20
84.45400653671966
 30
0.0
 10
64.25309527831257
 20
84.45937925080355
 30
0.0
  0
ARC
  5
B2
330
1F
100
AcDbEntity
  8
0
  6
Continuous
 62
     7
370
    25
100
AcDbCircle
 10
61.4627360223
 20
83.2586829663
 30
0.0
 40
2.599999999999997
100
AcDbArc
 50
59.4420525213
 51
89.0
  0
SPLINE
  5
B3
330
1F
100
AcDbEntity
  8
0
  6
Continuous
 62
     7
370
    25
100
AcDbSpline
210
0.0
220
0.0
230
1.0
 70
     8
 71
     3
 72
    13
 73
     9
 74
     0
 42
0.00000001
 43
0.00000001
 40
0.0
 40
0.0
 40
0.0
 40
0.0
 40
0.0257777025631122
 40
0.188992481979516
 40
0.3912819398086742
 40
0.63912533502418
 40
0.9333979274773946
 40
1.0
 40
1.0
 40
1.0
 40
1.0
 10
64.2906285400892
 20
105.5881263904439
 30
0.0
 10
64.29354372855103
 20
105.592184997592
 30
0.0
 10
64.31491680093757
 20
105.6219411884874
 30
0.0
 10
64.19683147432947
 20
105.4910876242159
 30
0.0
 10
63.89441712911587
 20
105.2612283975711
 30
0.0
 10
63.29933221809064
 20
104.8717907203175
 30
0.0
 10
62.70757413111801
 20
104.5276212582246
 30
0.0
 10
62.28308727986806
 20
104.3008941132805
 30
0.0
 10
62.20474511070046
 20
104.259049951814
 30
0.0
  0
ARC
  5
B4
330
1F
100
AcDbEntity
  8
0
  6
Continuous
 62
     7
370
    25
100
AcDbCircle
 10
60.5127360223
 20
107.3753552904
 30
0.0
 40
3.549999999999984
100
AcDbArc
 50
271.0
 51
298.1920130769
  0
ARC
  5
B5
330
1F
100
AcDbEntity
  8
0
  6
Continuous
 62
     7
370
    25
100
AcDbCircle
 10
70.0627360223
 20
106.3221275431
 30
0.0
 40
0.5
100
AcDbArc
 50
0.0
 51
91.0
  0
ARC
  5
B6
330
1F
100
AcDbEntity
  8
0
  6
Continuous
 62
     7
370
    25
100
AcDbCircle
 10
70.0627360223
 20
83.3783483136
 30
0.0
 40
0.5
100
AcDbArc
 50
269.0
 51
0.0
  0
LINE
  5
B7
330
1F
100
AcDbEntity
  8
0
  6
Continuous
 62
     7
370
    25
100
AcDbLine
 10
66.0278312094
 20
82.9487016751
 30
0.0
 11
70.0540098191
 21
82.878424466
 31
0.0
  0
LINE
  5
B8
330
1F
100
AcDbEntity
  8
0
  6
Continuous
 62
     7
370
    25
100
AcDbLine
 10
70.0540098191
 20
106.8220513906
 30
0.0
 11
66.0278312094
 21
106.7517741816
 31
0.0
  0
ARC
  5
B9
330
1F
100
AcDbEntity
  8
0
  6
Continuous
 62
     7
370
    25
100
AcDbCircle
 10
66.0627360223
 20
84.9483970654
 30
0.0
 40
1.999999999999998
100
AcDbArc
 50
194.5234270308
 51
269.0
  0
LINE
  5
BA
330
1F
100
AcDbEntity
  8
0
  6
Continuous
 62
     7
370
    25
100
AcDbLine
 10
55.7127360223
 20
99.6094366107
 30
0.0
 11
55.6372704682
 21
99.3542977242
 31
0.0
  0
LINE
  5
BB
330
1F
100
AcDbEntity
  8
0
  6
Continuous
 62
     7
370
    25
100
AcDbLine
 10
55.6411197923
 20
90.3468568681
 30
0.0
 11
55.7127360223
 21
90.1012712519
 31
0.0
  0
ARC
  5
BC
330
1F
100
AcDbEntity
  8
0
  6
Continuous
 62
     7
370
    25
100
AcDbCircle
 10
66.0627360223
 20
104.7520787913
 30
0.0
 40
2.0
100
AcDbArc
 50
91.0
 51
154.3886051651
  0
LINE
  5
BD
330
1F
100
AcDbEntity
  8
0
  6
Continuous
 62
     7
370
    25
100
AcDbLine
 10
231.4507799794
 20
86.1200011729
 30
0.0
 11
235.8214622255
 21
86.1962917153
 31
0.0
  0
LINE
  5
BE
330
1F
100
AcDbEntity
  8
0
  6
Continuous
 62
     7
370
    25
100
AcDbLine
 10
235.8214622255
 20
103.995026719
 30
0.0
 11
230.5173597655
 21
104.0876101718
 31
0.0
  0
ARC
  5
BF
330
1F
100
AcDbEntity
  8
0
  6
Continuous
 62
     7
370
    25
100
AcDbCircle
 10
235.8127360223
 20
86.6962155629
 30
0.0
 40
0.5
100
AcDbArc
 50
271.0
 51
0.0
  0
ARC
  5
C0
330
1F
100
AcDbEntity
  8
0
  6
Continuous
 62
     7
370
    25
100
AcDbCircle
 10
235.8127360223
 20
103.4951028714
 30
0.0
 40
0.5
100
AcDbArc
 50
0.0
 51
89.0
  0
SPLINE
  5
C1
330
1F
100
AcDbEntity
  8
0
  6
Continuous
 62
     7
370
    25
100
AcDbSpline
210
0.0
220
0.0
230
1.0
 70
     8
 71
     3
 72
    12
 73
     8
 74
     0
 42
0.00000001
 43
0.00000001
 40
0.0
 40
0.0
 40
0.0
 40
0.0
 40
0.111021395848553
 40
0.4537544599013409
 40
0.7304995870469854
 40
0.957320258738588
 40
0.9999999999999999
 40
0.9999999999999999
 40
0.9999999999999999
 40
0.9999999999999999
 10
229.2391119520207
 20
104.4545974844574
 30
0.0
 10
229.1450075952002
 20
104.5103723639942
 30
0.0
 10
228.7603945998668
 20
104.7383293280268
 30
0.0
 10
228.2800160124674
 20
105.0673703684748
 30
0.0
 10
227.8886919812664
 20
105.3618431860095
 30
0.0
 10
227.7461351351321
 20
105.5258165094854
 30
0.0
 10
227.7687891389977
 20
105.4918906087773
 30
0.0
 10
227.7723767662408
 20
105.4865178946935
 30
0.0
  0
ARC
  5
C2
330
1F
100
AcDbEntity
  8
0
  6
Continuous
 62
     7
370
    25
100
AcDbCircle
 10
230.5627360223
 20
106.6872141792
 30
0.0
 40
2.60000000000002
100
AcDbArc
 50
239.4420525213
 51
269.0
  0
SPLINE
  5
C3
330
1F
100
AcDbEntity
  8
0
  6
Continuous
 62
     7
370
    25
100
AcDbSpline
210
0.0
220
0.0
230
1.0
 70
     8
 71
     3
 72
    13
 73
     9
 74
     0
 42
0.00000001
 43
0.00000001
 40
0.0
 40
0.0
 40
0.0
 40
0.0
 40
0.0257777025631259
 40
0.1889924819795253
 40
0.3912819398086737
 40
0.6391253350241691
 40
0.9333979274773748
 40
1.0
 40
1.0
 40
1.0
 40
1.0
 10
227.7348435044642
 20
84.35777075505312
 30
0.0
 10
227.7319283160023
 20
84.35371214790496
 30
0.0
 10
227.7105552436158
 20
84.32395595700947
 30
0.0
 10
227.8286405702239
 20
84.45480952128123
 30
0.0
 10
228.1310549154375
 20
84.68466874792585
 30
0.0
 10
228.7261398264627
 20
85.07410642517945
 30
0.0
 10
229.3178979134353
 20
85.41827588727244
 30
0.0
 10
229.7423847646852
 20
85.64500303221651
 30
0.0
 10
229.8207269338529
 20
85.686847193683
 30
0.0
  0
ARC
  5
C4
330
1F
100
AcDbEntity
  8
0
  6
Continuous
 62
     7
370
    25
100
AcDbCircle
 10
231.5127360223
 20
82.5705418551
 30
0.0
 40
3.550000000000013
100
AcDbArc
 50
91.0
 51
118.1920130769
  0
ARC
  5
C5
330
1F
100
AcDbEntity
  8
0
  6
Continuous
 62
     7
370
    25
100
AcDbCircle
 10
221.9627360223
 20
83.6237696024
 30
0.0
 40
0.5
100
AcDbArc
 50
180.0
 51
271.0
  0
ARC
  5
C6
330
1F
100
AcDbEntity
  8
0
  6
Continuous
 62
     7
370
    25
100
AcDbCircle
 10
221.9627360223
 20
106.5675488319
 30
0.0
 40
0.5
100
AcDbArc
 50
89.0
 51
180.0
  0
LINE
  5
C7
330
1F
100
AcDbEntity
  8
0
  6
Continuous
 62
     7
370
    25
100
AcDbLine
 10
221.9714622255
 20
83.1238457549
 30
0.0
 11
225.9976408352
 21
83.1941229639
 31
0.0
  0
LINE
  5
C8
330
1F
100
AcDbEntity
  8
0
  6
Continuous
 62
     7
370
    25
100
AcDbLine
 10
225.9976408352
 20
106.9971954704
 30
0.0
 11
221.9714622255
 21
107.0674726795
 31
0.0
  0
ARC
  5
C9
330
1F
100
AcDbEntity
  8
0
  6
Continuous
 62
     7
370
    25
100
AcDbCircle
 10
225.9627360223
 20
104.9975000801
 30
0.0
 40
1.999999999999998
100
AcDbArc
 50
14.5234270308
 51
89.0
  0
SPLINE
  5
CA
330
1F
100
AcDbEntity
  8
0
  6
Continuous
 62
     7
370
    25
100
AcDbSpline
210
0.0
220
0.0
230
1.0
 70
     8
 71
     3
 72
     9
 73
     5
 74
     0
 42
0.00000001
 43
0.00000001
 40
0.0
 40
0.0
 40
0.0
 40
0.0
 40
0.6627403955522301
 40
1.0
 40
1.0
 40
1.0
 40
1.0
 10
236.3127360222767
 20
90.33646053480571
 30
0.0
 10
236.3557086391182
 20
90.49099984144118
 30
0.0
 10
236.4205494382153
 20
90.72418210658242
 30
0.0
 10
236.5387892145009
 20
91.07468774582547
 30
0.0
 10
236.5786667146809
 20
91.19289913907333
 30
0.0
  0
LINE
  5
CB
330
1F
100
AcDbEntity
  8
0
  6
Continuous
 62
     7
370
    25
100
AcDbLine
 10
236.4532318878
 20
99.3628389615
 30
0.0
 11
236.3127360223
 21
99.8446258936
 31
0.0
  0
ARC
  5
CC
330
1F
100
AcDbEntity
  8
0
  6
Continuous
 62
     7
370
    25
100
AcDbCircle
 10
225.9627360223
 20
85.1938183542
 30
0.0
 40
2.000000000000013
100
AcDbArc
 50
271.0
 51
334.3886051651
  0
LINE
  5
CD
330
1F
100
AcDbEntity
  8
0
  6
Continuous
 62
     7
370
    25
100
AcDbLine
 10
221.4627360223
 20
100.5002379283
 30
0.0
 11
214.8127360223
 21
100.5002379283
 31
0.0
  0
LINE
  5
CE
330
1F
100
AcDbEntity
  8
0
  6
Continuous
 62
     7
370
    25
100
AcDbLine
 10
214.8127360223
 20
89.2002379283
 30
0.0
 11
221.4627360223
 21
89.2002379283
 31
0.0
  0
LINE
  5
CF
330
1F
100
AcDbEntity
  8
0
  6
Continuous
 62
     7
370
    25
100
AcDbLine
 10
213.5327304911
 20
85.2882322589
 30
0.0
 11
214.8127360223
 21
86.6002379283
 31
0.0
  0
LINE
  5
D0
330
1F
100
AcDbEntity
  8
0
  6
Continuous
 62
     7
370
    25
100
AcDbLine
 10
214.8127360223
 20
103.1002379283
 30
0.0
 11
213.5327304911
 21
104.4122435978
 31
0.0
  0
LINE
  5
D1
330
1F
100
AcDbEntity
  8
0
  6
Continuous
 62
     7
370
    25
100
AcDbLine
 10
207.6896913969
 20
104.2502379283
 30
0.0
 11
207.3627360223
 21
104.2502379283
 31
0.0
  0
SPLINE
  5
D2
330
1F
100
AcDbEntity
  8
0
  6
Continuous
 62
     7
370
    25
100
AcDbSpline
210
0.0
220
0.0
230
1.0
 70
     8
 71
     3
 72
     9
 73
     5
 74
     0
 42
0.00000001
 43
0.00000001
 40
0.0
 40
0.0
 40
0.0
 40
0.0
 40
0.492159739404312
 40
0.9999999999999999
 40
0.9999999999999999
 40
0.9999999999999999
 40
0.9999999999999999
 10
207.0014621392409
 20
85.47170689229088
 30
0.0
 10
207.0726390797277
 20
85.59489467059755
 30
0.0
 10
207.2172607031317
 20
85.84519506789492
 30
0.0
 10
207.3619108205482
 20
86.09546946639068
 30
0.0
 10
207.4353699738722
 20
86.22256888214322
 30
0.0
  0
SPLINE
  5
D3
330
1F
100
AcDbEntity
  8
0
  6
Continuous
 62
     7
370
    25
100
AcDbSpline
210
0.0
220
0.0
230
1.0
 70
     8
 71
     3
 72
     9
 73
     5
 74
     0
 42
0.00000001
 43
0.00000001
 40
0.0
 40
0.0
 40
0.0
 40
0.0
 40
0.4981873554341618
 40
1.0
 40
1.0
 40
1.0
 40
1.0
 10
208.1409269151967
 20
103.4779045820481
 30
0.0
 10
208.0675523471585
 20
103.6048425150208
 30
0.0
 10
207.9202692673335
 20
103.8596421031438
 30
0.0
 10
207.7730350402419
 20
104.1144949405733
 30
0.0
 10
207.6991510433745
 20
104.2423833168989
 30
0.0
  0
SPLINE
  5
D4
330
1F
100
AcDbEntity
  8
0
  6
Continuous
 62
     7
370
    25
100
AcDbSpline
210
0.0
220
0.0
230
1.0
 70
     8
 71
     3
 72
     9
 73
     5
 74
     0
 42
0.00000001
 43
0.00000001
 40
0.0
 40
0.0
 40
0.0
 40
0.0
 40
0.5011659921197231
 40
1.0
 40
1.0
 40
1.0
 40
1.0
 10
207.5916747678438
 20
86.22270016677908
 30
0.0
 10
207.6654905470114
 20
86.09499486895008
 30
0.0
 10
207.8127786318541
 20
85.84017850104597
 30
0.0
 10
207.9600314766669
 20
85.58531958466834
 30
0.0
 10
208.0334862034165
 20
85.45818728996768
 30
0.0
  0
LINE
  5
D5
330
1F
100
AcDbEntity
  8
0
  6
Continuous
 62
     7
370
    25
100
AcDbLine
 10
208.459322299
 20
103.7581957905
 30
0.0
 11
208.2972300167
 21
103.4777751668
 31
0.0
  0
LINE
  5
D6
330
1F
100
AcDbEntity
  8
0
  6
Continuous
 62
     7
370
    25
100
AcDbLine
 10
208.0529955331
 20
85.4904974392
 30
0.0
 11
208.5127360223
 21
85.9502379283
 31
0.0
  0
LINE
  5
D7
330
1F
100
AcDbEntity
  8
0
  6
Continuous
 62
     7
370
    25
100
AcDbLine
 10
208.5127360223
 20
103.7502379283
 30
0.0
 11
208.4946075542
 21
103.7683663964
 31
0.0
  0
SPLINE
  5
D8
330
1F
100
AcDbEntity
  8
0
  6
Continuous
 62
     7
370
    25
100
AcDbSpline
210
0.0
220
0.0
230
1.0
 70
     8
 71
     3
 72
     9
 73
     5
 74
     0
 42
0.00000001
 43
0.00000001
 40
0.0
 40
0.0
 40
0.0
 40
0.0
 40
0.5178081832965679
 40
1.0
 40
1.0
 40
1.0
 40
1.0
 10
207.4253994924635
 20
86.21402424953317
 30
0.0
 10
207.4549774585984
 20
86.21403545591794
 30
0.0
 10
207.5120989315471
 20
86.21405709787938
 30
0.0
 10
207.5691695318159
 20
86.21403580350737
 30
0.0
 10
207.5966885082398
 20
86.21402553553548
 30
0.0
  0
SPLINE
  5
D9
330
1F
100
AcDbEntity
  8
0
  6
Continuous
 62
     7
370
    25
100
AcDbSpline
210
0.0
220
0.0
230
1.0
 70
     8
 71
     3
 72
     9
 73
     5
 74
     0
 42
0.00000001
 43
0.00000001
 40
0.0
 40
0.0
 40
0.0
 40
0.0
 40
0.5105586537198666
 40
1.0
 40
1.0
 40
1.0
 40
1.0
 10
208.3073433318861
 20
103.4864516053773
 30
0.0
 10
208.2782220857399
 20
103.4864261061874
 30
0.0
 10
208.2211840824977
 20
103.4863761624842
 30
0.0
 10
208.1639844202252
 20
103.4864248855774
 30
0.0
 10
208.1359885405158
 20
103.4864487326737
 30
0.0
  0
LINE
  5
DA
330
1F
100
AcDbEntity
  8
0
  6
Continuous
 62
     7
370
    25
100
AcDbLine
 10
208.5127360223
 20
86.7252379283
 30
0.0
 11
210.0127360223
 21
86.7252379283
 31
0.0
  0
LINE
  5
DB
330
1F
100
AcDbEntity
  8
0
  6
Continuous
 62
     7
370
    25
100
AcDbLine
 10
210.0127360223
 20
102.9752379283
 30
0.0
 11
208.5127360223
 21
102.9752379283
 31
0.0
  0
LINE
  5
DC
330
1F
100
AcDbEntity
  8
0
  6
Continuous
 62
     7
370
    25
100
AcDbLine
 10
79.7434072069
 20
104.4129258925
 30
0.0
 11
78.4627360223
 21
103.1002379283
 31
0.0
  0
LINE
  5
DD
330
1F
100
AcDbEntity
  8
0
  6
Continuous
 62
     7
370
    25
100
AcDbLine
 10
78.4627360223
 20
86.6002379283
 30
0.0
 11
79.7434072069
 21
85.2875499641
 31
0.0
  0
LINE
  5
DE
330
1F
100
AcDbEntity
  8
0
  6
Continuous
 62
     7
370
    25
100
AcDbLine
 10
85.8621975229
 20
85.4502379283
 30
0.0
 11
85.9127360223
 21
85.4502379283
 31
0.0
  0
LINE
  5
DF
330
1F
100
AcDbEntity
  8
0
  6
Continuous
 62
     7
370
    25
100
AcDbLine
 10
85.5091738905
 20
104.2502379283
 30
0.0
 11
85.2627360223
 21
104.2502379283
 31
0.0
  0
SPLINE
  5
E0
330
1F
100
AcDbEntity
  8
0
  6
Continuous
 62
     7
370
    25
100
AcDbSpline
210
0.0
220
0.0
230
1.0
 70
     8
 71
     3
 72
     9
 73
     5
 74
     0
 42
0.00000001
 43
0.00000001
 40
0.0
 40
0.0
 40
0.0
 40
0.0
 40
0.1888230383401882
 40
1.0
 40
1.0
 40
1.0
 40
1.0
 10
84.97685576345198
 20
103.9471776823222
 30
0.0
 10
84.95978283591438
 20
103.9176293523367
 30
0.0
 10
84.86936522751395
 20
103.7611424625736
 30
0.0
 10
84.77890389175832
 20
103.6046503193551
 30
0.0
 10
84.70552374027237
 20
103.4777074980955
 30
0.0
  0
SPLINE
  5
E1
330
1F
100
AcDbEntity
  8
0
  6
Continuous
 62
     7
370
    25
100
AcDbSpline
210
0.0
220
0.0
230
1.0
 70
     8
 71
     3
 72
     9
 73
     5
 74
     0
 42
0.00000001
 43
0.00000001
 40
0.0
 40
0.0
 40
0.0
 40
0.0
 40
0.4987433617574073
 40
1.0
 40
1.0
 40
1.0
 40
1.0
 10
85.4110804436888
 20
86.22276639370271
 30
0.0
 10
85.48454356536824
 20
86.09566083826606
 30
0.0
 10
85.63184000540622
 20
85.84080921480022
 30
0.0
 10
85.77909184936482
 20
85.58597308636828
 30
0.0
 10
85.85290281364253
 20
85.45823478532769
 30
0.0
  0
SPLINE
  5
E2
330
1F
100
AcDbEntity
  8
0
  6
Continuous
 62
     7
370
    25
100
AcDbSpline
210
0.0
220
0.0
230
1.0
 70
     8
 71
     3
 72
     9
 73
     5
 74
     0
 42
0.00000001
 43
0.00000001
 40
0.0
 40
0.0
 40
0.0
 40
0.0
 40
0.5011130755725104
 40
1.0
 40
1.0
 40
1.0
 40
1.0
 10
85.96033183185855
 20
103.4779726849063
 30
0.0
 10
85.88652801574933
 20
103.6056662950156
 30
0.0
 10
85.73924825054883
 20
103.8604862475053
 30
0.0
 10
85.5920209962429
 20
104.1153012203837
 30
0.0
 10
85.51857124415031
 20
104.2424250785011
 30
0.0
  0
SPLINE
  5
E3
330
1F
100
AcDbEntity
  8
0
  6
Continuous
 62
     7
370
    25
100
AcDbSpline
210
0.0
220
0.0
230
1.0
 70
     8
 71
     3
 72
     9
 73
     5
 74
     0
 42
0.00000001
 43
0.00000001
 40
0.0
 40
0.0
 40
0.0
 40
0.0
 40
0.1964851983542631
 40
1.0
 40
1.0
 40
1.0
 40
1.0
 10
84.9840712150917
 20
85.75580928880333
 30
0.0
 10
85.00206852120516
 20
85.78689444055689
 30
0.0
 10
85.09366476491311
 20
85.9451005141643
 30
0.0
 10
85.18549785329768
 20
86.10421428764234
 30
0.0
 10
85.25928709909553
 20
86.23206455977767
 30
0.0
  0
LINE
  5
E4
330
1F
100
AcDbEntity
  8
0
  6
Continuous
 62
     7
370
    25
100
AcDbLine
 10
85.2627360223
 20
104.2502379283
 30
0.0
 11
84.9951119304
 21
103.9826138364
 31
0.0
  0
LINE
  5
E5
330
1F
100
AcDbEntity
  8
0
  6
Continuous
 62
     7
370
    25
100
AcDbLine
 10
84.7627360223
 20
85.9502379283
 30
0.0
 11
84.9584647079
 21
85.7545092427
 31
0.0
  0
SPLINE
  5
E6
330
1F
100
AcDbEntity
  8
0
  6
Continuous
 62
     7
370
    25
100
AcDbSpline
210
0.0
220
0.0
230
1.0
 70
     8
 71
     3
 72
     9
 73
     5
 74
     0
 42
0.00000001
 43
0.00000001
 40
0.0
 40
0.0
 40
0.0
 40
0.0
 40
0.5166266336148384
 40
1.0
 40
1.0
 40
1.0
 40
1.0
 10
86.12711706358961
 20
103.4864433224001
 30
0.0
 10
86.09753905427159
 20
103.4864455515011
 30
0.0
 10
86.04028685821065
 20
103.4864498662245
 30
0.0
 10
85.98308567560409
 20
103.4864456140965
 30
0.0
 10
85.95543614740633
 20
103.486443558731
 30
0.0
  0
SPLINE
  5
E7
330
1F
100
AcDbEntity
  8
0
  6
Continuous
 62
     7
370
    25
100
AcDbSpline
210
0.0
220
0.0
230
1.0
 70
     8
 71
     3
 72
     9
 73
     5
 74
     0
 42
0.00000001
 43
0.00000001
 40
0.0
 40
0.0
 40
0.0
 40
0.0
 40
0.4973303336687774
 40
1.0
 40
1.0
 40
1.0
 40
1.0
 10
85.27574997117374
 20
86.29847802869101
 30
0.0
 10
85.30497933710771
 20
86.29711354881928
 30
0.0
 10
85.36375187510744
 20
86.29436994003586
 30
0.0
 10
85.42257184528157
 20
86.2971038001431
 30
0.0
 10
85.45213886006263
 20
86.29847802869101
 30
0.0
  0
LINE
  5
E8
330
1F
100
AcDbEntity
  8
0
  6
Continuous
 62
     7
370
    25
100
AcDbLine
 10
84.7627360223
 20
102.9752379283
 30
0.0
 11
83.2627360223
 21
102.9752379283
 31
0.0
  0
LINE
  5
E9
330
1F
100
AcDbEntity
  8
0
  6
Continuous
 62
     7
370
    25
100
AcDbLine
 10
83.2627360223
 20
86.7252379283
 30
0.0
 11
84.7627360223
 21
86.7252379283
 31
0.0
  0
LINE
  5
EA
330
1F
100
AcDbEntity
  8
0
  6
Continuous
 62
     7
370
    25
100
AcDbLine
 10
190.2767186592
 20
111.1642205653
 30
0.0
 11
190.1627360223
 21
111.0502379283
 31
0.0
  0
LINE
  5
EB
330
1F
100
AcDbEntity
  8
0
  6
Continuous
 62
     7
370
    25
100
AcDbLine
 10
190.1627360223
 20
78.6502379283
 30
0.0
 11
190.2767186592
 21
78.5362552914
 31
0.0
  0
LINE
  5
EC
330
1F
100
AcDbEntity
  8
0
  6
Continuous
 62
     7
370
    25
100
AcDbLine
 10
199.4987533853
 20
78.5362552914
 30
0.0
 11
199.6127360223
 21
78.6502379283
 31
0.0
  0
LINE
  5
ED
330
1F
100
AcDbEntity
  8
0
  6
Continuous
 62
     7
370
    25
100
AcDbLine
 10
199.6127360223
 20
111.0502379283
 30
0.0
 11
199.4987533853
 21
111.1642205653
 31
0.0
  0
ARC
  5
EE
330
1F
100
AcDbEntity
  8
0
  6
Continuous
 62
     7
370
    25
100
AcDbCircle
 10
199.6127360223
 20
89.1092495562
 30
0.0
 40
9.134011627906972
100
AcDbArc
 50
270.0
 51
328.0464183091
  0
ARC
  5
EF
330
1F
100
AcDbEntity
  8
0
  6
Continuous
 62
     7
370
    25
100
AcDbCircle
 10
199.6127360223
 20
100.5912263004
 30
0.0
 40
9.134011627906972
100
AcDbArc
 50
31.9535816909
 51
90.0
  0
LINE
  5
F0
330
1F
100
AcDbEntity
  8
0
  6
Continuous
 62
     7
370
    25
100
AcDbLine
 10
198.4193826577
 20
111.5775226598
 30
0.0
 11
191.3690831059
 21
111.5775226598
 31
0.0
  0
LINE
  5
F1
330
1F
100
AcDbEntity
  8
0
  6
Continuous
 62
     7
370
    25
100
AcDbLine
 10
191.3690831059
 20
78.1229531969
 30
0.0
 11
198.4193826577
 21
78.1229531969
 31
0.0
  0
LINE
  5
F2
330
1F
100
AcDbEntity
  8
0
  6
Continuous
 62
     7
370
    25
100
AcDbLine
 10
102.962662821
 20
78.5001647271
 30
0.0
 11
103.1127360223
 21
78.6502379283
 31
0.0
  0
LINE
  5
F3
330
1F
100
AcDbEntity
  8
0
  6
Continuous
 62
     7
370
    25
100
AcDbLine
 10
103.1127360223
 20
111.0502379283
 30
0.0
 11
102.962662821
 21
111.2003111296
 31
0.0
  0
LINE
  5
F4
330
1F
100
AcDbEntity
  8
0
  6
Continuous
 62
     7
370
    25
100
AcDbLine
 10
93.8055979265
 20
111.1930998325
 30
0.0
 11
93.6627360223
 21
111.0502379283
 31
0.0
  0
LINE
  5
F5
330
1F
100
AcDbEntity
  8
0
  6
Continuous
 62
     7
370
    25
100
AcDbLine
 10
93.6627360223
 20
78.6502379283
 30
0.0
 11
93.8055979265
 21
78.5073760242
 31
0.0
  0
ARC
  5
F6
330
1F
100
AcDbEntity
  8
0
  6
Continuous
 62
     7
370
    25
100
AcDbCircle
 10
93.6627360223
 20
100.5912263004
 30
0.0
 40
9.134011627906972
100
AcDbArc
 50
90.0
 51
148.0464183091
  0
ARC
  5
F7
330
1F
100
AcDbEntity
  8
0
  6
Continuous
 62
     7
370
    25
100
AcDbCircle
 10
93.6627360223
 20
89.1092495562
 30
0.0
 40
9.134011627906972
100
AcDbArc
 50
211.9535816909
 51
270.0
  0
LINE
  5
F8
330
1F
100
AcDbEntity
  8
0
  6
Continuous
 62
     7
370
    25
100
AcDbLine
 10
101.9193826577
 20
111.5775226598
 30
0.0
 11
94.8690831059
 21
111.5775226598
 31
0.0
  0
LINE
  5
F9
330
1F
100
AcDbEntity
  8
0
  6
Continuous
 62
     7
370
    25
100
AcDbLine
 10
94.8690831059
 20
78.1229531969
 30
0.0
 11
101.9193826577
 21
78.1229531969
 31
0.0
  0
LINE
  5
FA
330
1F
100
AcDbEntity
  8
0
  6
Continuous
 62
     7
370
    25
100
AcDbLine
 10
70.5627360223
 20
89.2002379283
 30
0.0
 11
78.4627360223
 21
89.2002379283
 31
0.0
  0
LINE
  5
FB
330
1F
100
AcDbEntity
  8
0
  6
Continuous
 62
     7
370
    25
100
AcDbLine
 10
78.4627360223
 20
100.5002379283
 30
0.0
 11
70.5627360223
 21
100.5002379283
 31
0.0
  0
LINE
  5
FC
330
1F
100
AcDbEntity
  8
0
  6
Continuous
 62
     7
370
    25
100
AcDbLine
 10
188.2502360264
 20
109.3502379283
 30
0.0
 11
187.2127360223
 21
109.3502379283
 31
0.0
  0
LINE
  5
FD
330
1F
100
AcDbEntity
  8
0
  6
Continuous
 62
     7
370
    25
100
AcDbLine
 10
189.7502360264
 20
109.3502379283
 30
0.0
 11
189.5627360223
 21
109.3502379283
 31
0.0
  0
LINE
  5
FE
330
1F
100
AcDbEntity
  8
0
  6
Continuous
 62
     7
370
    25
100
AcDbLine
 10
188.8127360223
 20
80.3502379283
 30
0.0
 11
189.0002360264
 21
80.3502379283
 31
0.0
  0
LINE
  5
FF
330
1F
100
AcDbEntity
  8
0
  6
Continuous
 62
     7
370
    25
100
AcDbLine
 10
187.2127360223
 20
80.3502379283
 30
0.0
 11
187.5002360264
 21
80.3502379283
 31
0.0
  0
SPLINE
  5
100
330
1F
100
AcDbEntity
  8
0
  6
Continuous
 62
     7
370
    25
100
AcDbSpline
210
0.0
220
0.0
230
1.0
 70
     8
 71
     3
 72
     9
 73
     5
 74
     0
 42
0.00000001
 43
0.00000001
 40
0.0
 40
0.0
 40
0.0
 40
0.0
 40
0.5036319833775863
 40
1.0
 40
1.0
 40
1.0
 40
1.0
 10
189.5564510757515
 20
109.3447098225318
 30
0.0
 10
189.4782644576615
 20
109.2093378338199
 30
0.0
 10
189.3230189199067
 20
108.9405463488074
 30
0.0
 10
189.1677693430124
 20
108.6717573498851
 30
0.0
 10
189.090708418448
 20
108.5383390876002
 30
0.0
  0
SPLINE
  5
101
330
1F
100
AcDbEntity
  8
0
  6
Continuous
 62
     7
370
    25
100
AcDbSpline
210
0.0
220
0.0
230
1.0
 70
     8
 71
     3
 72
     9
 73
     5
 74
     0
 42
0.00000001
 43
0.00000001
 40
0.0
 40
0.0
 40
0.0
 40
0.0
 40
0.499995754777303
 40
1.0
 40
1.0
 40
1.0
 40
1.0
 10
189.8373292328035
 20
81.16798730499025
 30
0.0
 10
189.9155165598915
 20
81.03261886856316
 30
0.0
 10
190.071892541769
 20
80.76187969701284
 30
0.0
 10
190.2282644552016
 20
80.49113802133468
 30
0.0
 10
190.3064510757515
 20
80.35576603413685
 30
0.0
  0
SPLINE
  5
102
330
1F
100
AcDbEntity
  8
0
  6
Continuous
 62
     7
370
    25
100
AcDbSpline
210
0.0
220
0.0
230
1.0
 70
     8
 71
     3
 72
     9
 73
     5
 74
     0
 42
0.00000001
 43
0.00000001
 40
0.0
 40
0.0
 40
0.0
 40
0.0
 40
0.499995657411536
 40
1.0
 40
1.0
 40
1.0
 40
1.0
 10
190.2255537666365
 20
108.5326431529358
 30
0.0
 10
190.14736573146
 20
108.6680128940365
 30
0.0
 10
189.9909883029414
 20
108.9387547276785
 30
0.0
 10
189.8346150363122
 20
109.2094986416788
 30
0.0
 10
189.7564277239329
 20
109.3448717744083
 30
0.0
  0
SPLINE
  5
103
330
1F
100
AcDbEntity
  8
0
  6
Continuous
 62
     7
370
    25
100
AcDbSpline
210
0.0
220
0.0
230
1.0
 70
     8
 71
     3
 72
     9
 73
     5
 74
     0
 42
0.00000001
 43
0.00000001
 40
0.0
 40
0.0
 40
0.0
 40
0.0
 40
0.4999956574115285
 40
1.0
 40
1.0
 40
1.0
 40
1.0
 10
188.7255537666365
 20
108.5326431529358
 30
0.0
 10
188.64736573146
 20
108.6680128940365
 30
0.0
 10
188.4909883029414
 20
108.9387547276786
 30
0.0
 10
188.3346150363122
 20
109.2094986416787
 30
0.0
 10
188.2564277239329
 20
109.3448717744083
 30
0.0
  0
SPLINE
  5
104
330
1F
100
AcDbEntity
  8
0
  6
Continuous
 62
     7
370
    25
100
AcDbSpline
210
0.0
220
0.0
230
1.0
 70
     8
 71
     3
 72
     9
 73
     5
 74
     0
 42
0.00000001
 43
0.00000001
 40
0.0
 40
0.0
 40
0.0
 40
0.0
 40
0.503535506867365
 40
1.0
 40
1.0
 40
1.0
 40
1.0
 10
189.0064277239329
 20
80.35560408226038
 30
0.0
 10
189.0846150338628
 20
80.49097721621426
 30
0.0
 10
189.2398916903519
 20
80.75982247560032
 30
0.0
 10
189.3951724795443
 20
81.02866566921732
 30
0.0
 10
189.4722638778439
 20
81.1621367690685
 30
0.0
  0
SPLINE
  5
105
330
1F
100
AcDbEntity
  8
0
  6
Continuous
 62
     7
370
    25
100
AcDbSpline
210
0.0
220
0.0
230
1.0
 70
     8
 71
     3
 72
     9
 73
     5
 74
     0
 42
0.00000001
 43
0.00000001
 40
0.0
 40
0.0
 40
0.0
 40
0.0
 40
0.5035355244946027
 40
0.9999999999999999
 40
0.9999999999999999
 40
0.9999999999999999
 40
0.9999999999999999
 10
187.5064277239329
 20
80.35560408226038
 30
0.0
 10
187.5846150338627
 20
80.49097721621429
 30
0.0
 10
187.7398916849161
 20
80.75982246618895
 30
0.0
 10
187.8951724686725
 20
81.02866565039452
 30
0.0
 10
187.9722638615362
 20
81.16213674083433
 30
0.0
  0
SPLINE
  5
106
330
1F
100
AcDbEntity
  8
0
  6
Continuous
 62
     7
370
    25
100
AcDbSpline
210
0.0
220
0.0
230
1.0
 70
     8
 71
     3
 72
     9
 73
     5
 74
     0
 42
0.00000001
 43
0.00000001
 40
0.0
 40
0.0
 40
0.0
 40
0.0
 40
0.5000043425884696
 40
0.9999999999999999
 40
0.9999999999999999
 40
0.9999999999999999
 40
0.9999999999999999
 10
103.7690443206205
 20
109.3448717744083
 30
0.0
 10
103.6908570082411
 20
109.2094986416788
 30
0.0
 10
103.5344837416119
 20
108.9387547276786
 30
0.0
 10
103.3781063130933
 20
108.6680128940365
 30
0.0
 10
103.2999182779168
 20
108.5326431529358
 30
0.0
  0
SPLINE
  5
107
330
1F
100
AcDbEntity
  8
0
  6
Continuous
 62
     7
370
    25
100
AcDbSpline
210
0.0
220
0.0
230
1.0
 70
     8
 71
     3
 72
     9
 73
     5
 74
     0
 42
0.00000001
 43
0.00000001
 40
0.0
 40
0.0
 40
0.0
 40
0.0
 40
0.496464475505401
 40
1.0
 40
1.0
 40
1.0
 40
1.0
 10
104.0532081830171
 20
81.16213674083433
 30
0.0
 10
104.1302995758808
 20
81.02866565039452
 30
0.0
 10
104.2855803596372
 20
80.75982246618891
 30
0.0
 10
104.4408570106906
 20
80.49097721621426
 30
0.0
 10
104.5190443206205
 20
80.35560408226038
 30
0.0
  0
LINE
  5
108
330
1F
100
AcDbEntity
  8
0
  6
Continuous
 62
     7
370
    25
100
AcDbLine
 10
104.5252360182
 20
80.3502379283
 30
0.0
 11
104.8127360223
 21
80.3502379283
 31
0.0
  0
LINE
  5
109
330
1F
100
AcDbEntity
  8
0
  6
Continuous
 62
     7
370
    25
100
AcDbLine
 10
103.1127360223
 20
80.3502379283
 30
0.0
 11
103.2127360223
 21
80.3502379283
 31
0.0
  0
LINE
  5
10A
330
1F
100
AcDbEntity
  8
0
  6
Continuous
 62
     7
370
    25
100
AcDbLine
 10
104.8127360223
 20
109.3502379283
 30
0.0
 11
103.7752360182
 21
109.3502379283
 31
0.0
  0
LINE
  5
10B
330
1F
100
AcDbEntity
  8
0
  6
Continuous
 62
     7
370
    25
100
AcDbLine
 10
103.3032081667
 20
108.5383390876
 30
0.0
 11
102.9315005575
 21
108.5383390876
 31
0.0
  0
LINE
  5
10C
330
1F
100
AcDbEntity
  8
0
  6
Continuous
 62
     7
370
    25
100
AcDbLine
 10
189.093971487
 20
108.5383390876
 30
0.0
 11
188.7222638778
 21
108.5383390876
 31
0.0
  0
LINE
  5
10D
330
1F
100
AcDbEntity
  8
0
  6
Continuous
 62
     7
370
    25
100
AcDbLine
 10
189.468971487
 20
81.1621367691
 30
0.0
 11
189.8407084184
 21
81.1621367691
 31
0.0
  0
SPLINE
  5
10E
330
1F
100
AcDbEntity
  8
0
  6
Continuous
 62
     7
370
    25
100
AcDbSpline
210
0.0
220
0.0
230
1.0
 70
     8
 71
     3
 72
    60
 73
    56
 74
     0
 42
0.00000001
 43
0.00000001
 40
0.0
 40
0.0
 40
0.0
 40
0.0
 40
0.009531113969126
 40
0.031971605314807
 40
0.0528475943223479
 40
0.0691852474022321
 40
0.0814903040634059
 40
0.0975113097879287
 40
0.1172566103893978
 40
0.1407382199982003
 40
0.1584807435177757
 40
0.1772690588161054
 40
0.1951124215474446
 40
0.2198178801743048
 40
0.2420532522766947
 40
0.2678382521469904
 40
0.2892451271500584
 40
0.3099580664359129
 40
0.3323494459342213
 40
0.3555828221485076
 40
0.3772547020454087
 40
0.3926317612735357
 40
0.4103441732768802
 40
0.4241460372706746
 40
0.4393044641854154
 40
0.4546814830176416
 40
0.4663866549299616
 40
0.4772881336823371
 40
0.4867875374849322
 40
0.4948352653029418
 40
0.5034705319210316
 40
0.5124146848193477
 40
0.5227114399197129
 40
0.5407194052044002
 40
0.5601820558988831
 40
0.5795762371753532
 40
0.5989906532903951
 40
0.6240539631093583
 40
0.6479345635670234
 40
0.6711508609742185
 40
0.6955573008909338
 40
0.7213368035457757
 40
0.7484847475118722
 40
0.7765794357567732
 40
0.8036667718476397
 40
0.8295086208815937
 40
0.8480832997982715
 40
0.8659681781659035
 40
0.8831675160737716
 40
0.9007587699548094
 40
0.9218682101397508
 40
0.9466818923238292
 40
0.9652824307397112
 40
0.9855191212644926
 40
1.0
 40
1.0
 40
1.0
 40
1.0
 10
159.6088557743914
 20
119.4569301701082
 30
0.0
 10
159.6083779019366
 20
120.0916614007432
 30
0.0
 10
159.6067749046829
 20
122.2208329175857
 30
0.0
 10
159.5843009556817
 20
125.9386598474295
 30
0.0
 10
159.535024215358
 20
130.2837406084796
 30
0.0
 10
159.4729359823611
 20
133.9892490178773
 30
0.0
 10
159.4018360021651
 20
137.3766184318423
 30
0.0
 10
159.3083035039657
 20
141.0607432120306
 30
0.0
 10
159.1650836272271
 20
145.6351216231389
 30
0.0
 10
158.9803205105498
 20
150.3447666625738
 30
0.0
 10
158.7617053763439
 20
154.9322678816687
 30
0.0
 10
158.5335163475882
 20
159.0253990497049
 30
0.0
 10
158.2412433297705
 20
163.5379994561699
 30
0.0
 10
157.8884207027661
 20
168.1428245670326
 30
0.0
 10
157.4365630070898
 20
173.0438529989599
 30
0.0
 10
156.9505608128335
 20
177.4232669302604
 30
0.0
 10
156.4236024708882
 20
181.3651207691679
 30
0.0
 10
155.8730863084022
 20
184.825785444516
 30
0.0
 10
155.2476035422652
 20
188.0656318407249
 30
0.0
 10
154.5483158362153
 20
190.9760464255177
 30
0.0
 10
153.8356439482183
 20
193.2888405954359
 30
0.0
 10
153.1195315097219
 20
195.1366490377211
 30
0.0
 10
152.3221523405248
 20
196.7453852280408
 30
0.0
 10
151.297195397149
 20
198.2473841670424
 30
0.0
 10
150.0857713906393
 20
199.5272801383232
 30
0.0
 10
148.5134322890962
 20
200.5884822541605
 30
0.0
 10
146.6993844915614
 20
201.2119156174955
 30
0.0
 10
145.0644113769777
 20
201.3600936899666
 30
0.0
 10
143.6508527882117
 20
201.186020877369
 30
0.0
 10
142.4246449801571
 20
200.8100621345257
 30
0.0
 10
141.3274932319653
 20
200.2674562672119
 30
0.0
 10
140.3670854768775
 20
199.5995804697177
 30
0.0
 10
139.3020142695353
 20
198.6335207886208
 30
0.0
 10
138.2021846225316
 20
197.2663994253763
 30
0.0
 10
137.118833483086
 20
195.43816188685
 30
0.0
 10
136.1666251169849
 20
193.3782962770931
 30
0.0
 10
135.2345845379037
 20
190.9406400932442
 30
0.0
 10
134.2758905186058
 20
187.9449596172425
 30
0.0
 10
133.3013245411586
 20
184.3632761578764
 30
0.0
 10
132.3679469347384
 20
180.4515788095343
 30
0.0
 10
131.4297297203433
 20
176.0315342330094
 30
0.0
 10
130.472132602223
 20
170.9899750799121
 30
0.0
 10
129.5073698555434
 20
165.3562433194338
 30
0.0
 10
128.5743926719777
 20
159.3412073845016
 30
0.0
 10
127.7101676330541
 20
153.2273792874492
 30
0.0
 10
126.9966971309297
 20
147.7481413121405
 30
0.0
 10
126.4136833781691
 20
142.9698227075287
 30
0.0
 10
125.9399316218242
 20
138.877719995982
 30
0.0
 10
125.5029204107965
 20
134.9095836924668
 30
0.0
 10
125.0689269826917
 20
130.7746443549584
 30
0.0
 10
124.6147321092377
 20
126.2111795069887
 30
0.0
 10
124.2000023844024
 20
121.7774740389423
 30
0.0
 10
123.8378792113322
 20
117.6661215583736
 30
0.0
 10
123.5629032456178
 20
114.3933214391873
 30
0.0
 10
123.4136822743217
 20
112.4842179414919
 30
0.0
 10
123.3514414309627
 20
111.6879209416532
 30
0.0
  0
SPLINE
  5
10F
330
1F
100
AcDbEntity
  8
0
  6
Continuous
 62
     7
370
    25
100
AcDbSpline
210
0.0
220
0.0
230
1.0
 70
     8
 71
     3
 72
    27
 73
    23
 74
     0
 42
0.00000001
 43
0.00000001
 40
0.0
 40
0.0
 40
0.0
 40
0.0
 40
0.01996748963113
 40
0.0741503532041994
 40
0.1203734718057682
 40
0.1602385318234882
 40
0.2008751628997406
 40
0.2431385613030596
 40
0.3019947326844017
 40
0.363701027081166
 40
0.4282282530508254
 40
0.4944376547261318
 40
0.5579500528190411
 40
0.6183180599739977
 40
0.6755506450914447
 40
0.7302281893541153
 40
0.7867960038387793
 40
0.8310345327575956
 40
0.8766418295690914
 40
0.9224805143119433
 40
0.9682845013838747
 40
1.0
 40
1.0
 40
1.0
 40
1.0
 10
136.2002170276304
 20
121.1631652472491
 30
0.0
 10
136.2469604165744
 20
121.6832503459431
 30
0.0
 10
136.4205445207454
 20
123.6146145022204
 30
0.0
 10
136.7498023680269
 20
126.9943931761764
 30
0.0
 10
137.1570073982068
 20
131.0092677940672
 30
0.0
 10
137.554088479279
 20
134.7326663011316
 30
0.0
 10
137.9625077133987
 20
138.3959579566253
 30
0.0
 10
138.4624739448546
 20
142.6710976456351
 30
0.0
 10
139.0744617083916
 20
147.6078438988703
 30
0.0
 10
139.8174900574878
 20
153.1838530974986
 30
0.0
 10
140.6376974255691
 20
158.8640245702256
 30
0.0
 10
141.5102552355312
 20
164.3868538830532
 30
0.0
 10
142.3997765303114
 20
169.5055554100449
 30
0.0
 10
143.2734059921631
 20
174.0535686155604
 30
0.0
 10
144.1212335924614
 20
178.0165849302922
 30
0.0
 10
144.9610988758533
 20
181.5154244381471
 30
0.0
 10
145.7270405255174
 20
184.3160731488248
 30
0.0
 10
146.4243631341458
 20
186.5460642698449
 30
0.0
 10
147.0584449407727
 20
188.285799880981
 30
0.0
 10
147.5879024133492
 20
189.5100998870539
 30
0.0
 10
147.957965971168
 20
190.1809029211005
 30
0.0
 10
147.9582200608071
 20
190.2194725287725
 30
0.0
 10
147.958324016342
 20
190.2352524881968
 30
0.0
  0
SPLINE
  5
110
330
1F
100
AcDbEntity
  8
0
  6
Continuous
 62
     7
370
    25
100
AcDbSpline
210
0.0
220
0.0
230
1.0
 70
     8
 71
     3
 72
    24
 73
    20
 74
     0
 42
0.00000001
 43
0.00000001
 40
0.0
 40
0.0
 40
0.0
 40
0.0
 40
0.030250864018331
 40
0.1109450993324509
 40
0.1810756187310465
 40
0.259454804560025
 40
0.3461104251320798
 40
0.4410762725871788
 40
0.5362142143482055
 40
0.6187853175143668
 40
0.6885875627260296
 40
0.7455759463310869
 40
0.7897100851952062
 40
0.8254508919332781
 40
0.8651952661399476
 40
0.9096668826827741
 40
0.9430726614364024
 40
0.9849271988420922
 40
1.0
 40
1.0
 40
1.0
 40
1.0
 10
144.5254002689295
 20
179.633196195508
 30
0.0
 10
144.5892698470415
 20
179.211322999416
 30
0.0
 10
144.8235116420417
 20
177.6641022781247
 30
0.0
 10
145.1721581564815
 20
174.7873173842163
 30
0.0
 10
145.582115755477
 20
170.950228666905
 30
0.0
 10
145.9619243600967
 20
166.7473338131232
 30
0.0
 10
146.3328546598256
 20
161.8525613238102
 30
0.0
 10
146.670691357859
 20
156.4132642367168
 30
0.0
 10
146.9465820590819
 20
150.898904727664
 30
0.0
 10
147.1499479241784
 20
145.8266132131137
 30
0.0
 10
147.2893052954883
 20
141.5299733359347
 30
0.0
 10
147.3823090935017
 20
138.0423307540036
 30
0.0
 10
147.4441800622929
 20
135.2751096404911
 30
0.0
 10
147.4899286413445
 20
132.8815503447206
 30
0.0
 10
147.5281782956594
 20
130.5094911893744
 30
0.0
 10
147.5578818015517
 20
128.2188245315771
 30
0.0
 10
147.5805019136066
 20
125.9330205598174
 30
0.0
 10
147.5942076767437
 20
124.2291883158644
 30
0.0
 10
147.5981927473065
 20
123.1963018351108
 30
0.0
 10
147.5992478849206
 20
122.9228217649737
 30
0.0
  0
SPLINE
  5
111
330
1F
100
AcDbEntity
  8
0
  6
Continuous
 62
     7
370
    25
100
AcDbSpline
210
0.0
220
0.0
230
1.0
 70
     8
 71
     3
 72
    17
 73
    13
 74
     0
 42
0.00000001
 43
0.00000001
 40
0.0
 40
0.0
 40
0.0
 40
0.0
 40
0.0945559122344752
 40
0.2168932501307514
 40
0.3126350607124653
 40
0.3847450754306694
 40
0.4786312711961073
 40
0.5943425560924968
 40
0.7319493352502567
 40
0.8359239586399735
 40
0.9460271243545779
 40
0.9999999999999999
 40
0.9999999999999999
 40
0.9999999999999999
 40
0.9999999999999999
 10
143.950756430151
 20
122.9510701413998
 30
0.0
 10
143.8956110795295
 20
124.0683119755749
 30
0.0
 10
143.7691181501794
 20
126.6310519129293
 30
0.0
 10
143.5480525912098
 20
130.5348326728145
 30
0.0
 10
143.3216211661583
 20
134.2287027393216
 30
0.0
 10
143.0993864287641
 20
137.6105226168995
 30
0.0
 10
142.8417409512572
 20
141.2865502762462
 30
0.0
 10
142.4945854689309
 20
145.8497673950609
 30
0.0
 10
142.1003736922854
 20
150.5479019598736
 30
0.0
 10
141.6763125315686
 20
155.1167036466215
 30
0.0
 10
141.3343832569005
 20
158.5613756920301
 30
0.0
 10
141.1073120551478
 20
160.604017404806
 30
0.0
 10
141.0326168977483
 20
161.2759451660926
 30
0.0
  0
SPLINE
  5
112
330
1F
100
AcDbEntity
  8
0
  6
Continuous
 62
     7
370
    25
100
AcDbSpline
210
0.0
220
0.0
230
1.0
 70
     8
 71
     3
 72
    42
 73
    38
 74
     0
 42
0.00000001
 43
0.00000001
 40
0.0
 40
0.0
 40
0.0
 40
0.0
 40
0.0232991835441114
 40
0.0473039893772796
 40
0.0749544656269666
 40
0.0965002670960017
 40
0.1201637705934083
 40
0.1441685133653793
 40
0.1624412126397068
 40
0.179459283316479
 40
0.1942886040877124
 40
0.2068517438144643
 40
0.220332078084474
 40
0.234294608271879
 40
0.2503686574921509
 40
0.2784805157932898
 40
0.30886325308972
 40
0.3391391042084665
 40
0.3694465435108696
 40
0.4085723527319369
 40
0.445851859083655
 40
0.4820943358249424
 40
0.5201947191679402
 40
0.5604385620591203
 40
0.6028186500855637
 40
0.6466766808219361
 40
0.6889621551608547
 40
0.729303325681641
 40
0.7582998687913074
 40
0.7862195786783278
 40
0.8130691056790575
 40
0.8405304445158019
 40
0.8734839504735287
 40
0.9122200712101396
 40
0.9412569830436389
 40
0.9728480577443672
 40
1.0
 40
1.0
 40
1.0
 40
1.0
 10
135.5530805760162
 20
191.7100869633753
 30
0.0
 10
135.3545019278488
 20
192.2872418194652
 30
0.0
 10
134.9513306216232
 20
193.4590308278583
 30
0.0
 10
134.24657654266
 20
195.0273636081119
 30
0.0
 10
133.3798023066492
 20
196.6054801622662
 30
0.0
 10
132.2885451435224
 20
198.0588212768318
 30
0.0
 10
131.0213487367897
 20
199.2838213141085
 30
0.0
 10
129.4032296268968
 20
200.2737521321409
 30
0.0
 10
127.5631922628569
 20
200.8156982805792
 30
0.0
 10
125.9232369645241
 20
200.890820752224
 30
0.0
 10
124.5188465040631
 20
200.6538914836069
 30
0.0
 10
123.3106222812989
 20
200.2236297967824
 30
0.0
 10
122.2387566259951
 20
199.6326416431073
 30
0.0
 10
121.3090847263246
 20
198.922605496455
 30
0.0
 10
120.288149513143
 20
197.9100151260985
 30
0.0
 10
119.2503737864691
 20
196.4952120918959
 30
0.0
 10
118.2496213672233
 20
194.6204863040415
 30
0.0
 10
117.3902095874853
 20
192.5202104895656
 30
0.0
 10
116.5677912323523
 20
190.0434191458243
 30
0.0
 10
115.7436282730848
 20
187.0079700598344
 30
0.0
 10
114.9297390391633
 20
183.3863931156651
 30
0.0
 10
114.1717125417395
 20
179.4369671156439
 30
0.0
 10
113.4315184734089
 20
174.9794837063091
 30
0.0
 10
112.6996771375027
 20
169.9002397489818
 30
0.0
 10
111.9870823000432
 20
164.2290926538325
 30
0.0
 10
111.3232437820559
 20
158.1784379904703
 30
0.0
 10
110.7324941625473
 20
152.0321549789596
 30
0.0
 10
110.264052767443
 20
146.5265534148365
 30
0.0
 10
109.8946842526081
 20
141.7269901318194
 30
0.0
 10
109.6038709439422
 20
137.6178353405375
 30
0.0
 10
109.3442329846693
 20
133.6341508728076
 30
0.0
 10
109.0950514481329
 20
129.4840074133023
 30
0.0
 10
108.8447785597596
 20
124.904662473697
 30
0.0
 10
108.6282216612434
 20
120.4575602473558
 30
0.0
 10
108.4495986197182
 20
116.3320716494745
 30
0.0
 10
108.3144652418558
 20
112.8785038261757
 30
0.0
 10
108.2454578072124
 20
110.8074920157361
 30
0.0
 10
108.213561490378
 20
109.8502379283343
 30
0.0
  0
SPLINE
  5
113
330
1F
100
AcDbEntity
  8
0
  6
Continuous
 62
     7
370
    25
100
AcDbSpline
210
0.0
220
0.0
230
1.0
 70
     8
 71
     3
 72
    29
 73
    25
 74
     0
 42
0.00000001
 43
0.00000001
 40
0.0
 40
0.0
 40
0.0
 40
0.0
 40
0.0281667855961189
 40
0.0894749242663801
 40
0.1437849443134557
 40
0.1911223367577241
 40
0.2315056196067298
 40
0.2663341219491405
 40
0.3018367149465622
 40
0.3387605492424058
 40
0.3901808230839391
 40
0.4440911349706841
 40
0.5004659815113526
 40
0.5583104774261435
 40
0.6137987095965618
 40
0.666539813652806
 40
0.7165416253630886
 40
0.764311200464271
 40
0.8137322287634481
 40
0.8523816552885518
 40
0.8922269193650167
 40
0.9322743377868064
 40
0.9722914422466363
 40
1.0
 40
1.0
 40
1.0
 40
1.0
 10
120.2198766654675
 20
109.8502379283343
 30
0.0
 10
120.2418802230357
 20
110.5339566949492
 30
0.0
 10
120.3117769686294
 20
112.7058653301609
 30
0.0
 10
120.4762174833555
 20
116.79777236343
 30
0.0
 10
120.6984300065055
 20
121.6912782248527
 30
0.0
 10
120.9315378678626
 20
126.2192590124766
 30
0.0
 10
121.1609254939908
 20
130.2592971505082
 30
0.0
 10
121.3912319830464
 20
133.9942869187403
 30
0.0
 10
121.6359907250649
 20
137.6727749158564
 30
0.0
 10
121.9448030423707
 20
141.9657648937308
 30
0.0
 10
122.3360628057553
 20
146.9249605901886
 30
0.0
 10
122.8297143906415
 20
152.5285331970969
 30
0.0
 10
123.3958278080012
 20
158.2396344173003
 30
0.0
 10
124.0212543059775
 20
163.7958761911478
 30
0.0
 10
124.6816478133818
 20
168.9491507425609
 30
0.0
 10
125.3516122273143
 20
173.5315954163858
 30
0.0
 10
126.0218854985475
 20
177.5284746890132
 30
0.0
 10
126.7049020299514
 20
181.0612837643185
 30
0.0
 10
127.3452008115468
 20
183.8933002353758
 30
0.0
 10
127.942394447401
 20
186.1521669821734
 30
0.0
 10
128.498270695593
 20
187.9184459327395
 30
0.0
 10
128.9726099667702
 20
189.1651367427984
 30
0.0
 10
129.3123943136384
 20
189.8517737247216
 30
0.0
 10
129.3109283301843
 20
189.8903162997521
 30
0.0
 10
129.3103285532921
 20
189.9060851993286
 30
0.0
  0
SPLINE
  5
114
330
1F
100
AcDbEntity
  8
0
  6
Continuous
 62
     7
370
    25
100
AcDbSpline
210
0.0
220
0.0
230
1.0
 70
     8
 71
     3
 72
    13
 73
     9
 74
     0
 42
0.00000001
 43
0.00000001
 40
0.0
 40
0.0
 40
0.0
 40
0.0
 40
0.0871756658659657
 40
0.3197169146313644
 40
0.5218160917786793
 40
0.7476859284396953
 40
0.9974064461684286
 40
1.0
 40
1.0
 40
1.0
 40
1.0
 10
126.353565415927
 20
179.1614998262947
 30
0.0
 10
126.4361868023268
 20
178.7429114852671
 30
0.0
 10
126.7392008886539
 20
177.2077379759558
 30
0.0
 10
127.2155375692021
 20
174.3483247768888
 30
0.0
 10
127.7971248354652
 20
170.5374126292718
 30
0.0
 10
128.3600490160502
 20
166.3386722688068
 30
0.0
 10
128.7466958578834
 20
163.2754965569565
 30
0.0
 10
128.9300308841331
 20
161.565198240751
 30
0.0
 10
128.9319153975765
 20
161.5476179658037
 30
0.0
  0
LINE
  5
115
330
1F
100
AcDbEntity
  8
0
  6
Continuous
 62
     7
370
    25
100
AcDbLine
 10
157.5577075589
 20
-50.5410121412
 30
0.0
 11
157.5577351267
 21
-49.7439290372
 31
0.0
  0
LINE
  5
116
330
1F
100
AcDbEntity
  8
0
  6
Continuous
 62
     7
370
    25
100
AcDbLine
 10
134.4577351405
 20
-49.7431301056
 30
0.0
 11
134.4577075727
 21
-50.5402132096
 31
0.0
  0
SPLINE
  5
117
330
1F
100
AcDbEntity
  8
0
  6
Continuous
 62
     7
370
    25
100
AcDbSpline
210
0.0
220
0.0
230
1.0
 70
    24
 71
     3
 72
    41
 73
    37
 74
     0
 42
0.00000001
 43
0.00000001
 40
0.0
 40
0.0
 40
0.0
 40
0.0
 40
0.0363374710680837
 40
0.0700686291170851
 40
0.101190228782661
 40
0.1297024682604435
 40
0.155604519796452
 40
0.178897219366109
 40
0.2034016039225562
 40
0.2241569372862593
 40
0.2433996006094263
 40
0.262835552210163
 40
0.2824640792909816
 40
0.3155991002097088
 40
0.3492637916673674
 40
0.3831237485015431
 40
0.4169836212041301
 40
0.45084448443978
 40
0.4847045508949418
 40
0.5185645068107533
 40
0.5524246906607648
 40
0.5862855139150661
 40
0.6197475112870572
 40
0.6518378443285906
 40
0.6825122387607875
 40
0.700240927471241
 40
0.7178691488411161
 40
0.7388560147888563
 40
0.7639842892800668
 40
0.7932524463397126
 40
0.8208085500896285
 40
0.8512390001534821
 40
0.8845433867084593
 40
0.9207207200217258
 40
0.9597726299318856
 40
1.0
 40
1.0
 40
1.0
 40
1.0
 10
153.9077994753913
 20
-47.88331138831366
 30
0.0
 10
153.9078078439264
 20
-47.6413467902447
 30
0.0
 10
153.9078239807617
 20
-47.17477255755283
 30
0.0
 10
153.9078809600992
 20
-45.52729397005797
 30
0.0
 10
153.9079537173999
 20
-43.42361743821784
 30
0.0
 10
153.9080386356689
 20
-40.96832335844366
 30
0.0
 10
153.9081300865985
 20
-38.32414645381429
 30
0.0
 10
153.9082285631888
 20
-35.47683230192552
 30
0.0
 10
153.9083302557485
 20
-32.53653285258942
 30
0.0
 10
153.9084344525318
 20
-29.52382724689347
 30
0.0
 10
153.9085370675674
 20
-26.55685568242318
 30
0.0
 10
153.9086437276208
 20
-23.47292803563324
 30
0.0
 10
153.9087827832447
 20
-19.45232735862484
 30
0.0
 10
153.9089597555498
 20
-14.33541838361232
 30
0.0
 10
153.9091791153635
 20
-7.992933333200135
 30
0.0
 10
153.9094114140871
 20
-1.276337632888945
 30
0.0
 10
153.909653180753
 20
5.714010499888462
 30
0.0
 10
153.9099013126771
 20
12.88840125210709
 30
0.0
 10
153.9101532619661
 20
20.17316582102195
 30
0.0
 10
153.9104064276097
 20
27.4930995993977
 30
0.0
 10
153.9106581226153
 20
34.77051191808717
 30
0.0
 10
153.9109047861778
 20
41.90244702760291
 30
0.0
 10
153.9111407025075
 20
48.72364079824785
 30
0.0
 10
153.9113605692326
 20
55.08078248721979
 30
0.0
 10
153.91153607896
 20
60.15540305445531
 30
0.0
 10
153.9116737518098
 20
64.13602273420146
 30
0.0
 10
153.9117870038684
 20
67.41054907857335
 30
0.0
 10
153.9119095010073
 20
70.95238410885769
 30
0.0
 10
153.9120456851658
 20
74.88996034130541
 30
0.0
 10
153.9121816895011
 20
78.82233723947496
 30
0.0
 10
153.9123121228641
 20
82.59363719143082
 30
0.0
 10
153.9124322882937
 20
86.06805407612327
 30
0.0
 10
153.9125430085481
 20
89.26937681016136
 30
0.0
 10
153.9126365420859
 20
91.97376944784207
 30
0.0
 10
153.9127076359241
 20
94.02934926431317
 30
0.0
 10
153.9127259735688
 20
94.559556851907
 30
0.0
 10
153.9127352783357
 20
94.82859129375493
 30
0.0
  0
SPLINE
  5
118
330
1F
100
AcDbEntity
  8
0
  6
Continuous
 62
     7
370
    25
100
AcDbSpline
210
0.0
220
0.0
230
1.0
 70
    24
 71
     3
 72
    41
 73
    37
 74
     0
 42
0.00000001
 43
0.00000001
 40
0.0
 40
0.0
 40
0.0
 40
0.0
 40
0.0346421122416754
 40
0.0683724097808892
 40
0.0994924323851169
 40
0.1280039594095051
 40
0.1539059582726579
 40
0.1771985648007599
 40
0.2017029432879714
 40
0.2224583408987411
 40
0.241700912733577
 40
0.2611368110677703
 40
0.2807652702052585
 40
0.3139001553824681
 40
0.3475648442149303
 40
0.3814247495271132
 40
0.4152845516325282
 40
0.4491453496956604
 40
0.4830054289319577
 40
0.5168653372423742
 40
0.550725411028968
 40
0.5845862108042922
 40
0.6180482053402374
 40
0.6501385645541301
 40
0.6808129376149393
 40
0.6985416669308309
 40
0.7161698929107925
 40
0.7371566678579109
 40
0.7622848796138233
 40
0.7915529705897958
 40
0.8191090588308539
 40
0.8495395995786658
 40
0.8828440914294127
 40
0.91902296989245
 40
0.9580761960802067
 40
0.9999999999999999
 40
0.9999999999999999
 40
0.9999999999999999
 40
0.9999999999999999
 10
138.1127353950195
 20
94.83223826975498
 30
0.0
 10
138.1127278004506
 20
94.61265183620404
 30
0.0
 10
138.1127128112096
 20
94.1792587015034
 30
0.0
 10
138.1126578524504
 20
92.59020233520582
 30
0.0
 10
138.1125862664754
 20
90.52039306424192
 30
0.0
 10
138.1125023417591
 20
88.0938261850041
 30
0.0
 10
138.1124117732038
 20
85.47516190680052
 30
0.0
 10
138.1123140846208
 20
82.65063189511562
 30
0.0
 10
138.1122130901122
 20
79.73051562528244
 30
0.0
 10
138.112109517093
 20
76.73584529462457
 30
0.0
 10
138.1120074501361
 20
73.78472066784578
 30
0.0
 10
138.111901301435
 20
70.71557806319467
 30
0.0
 10
138.1117628302439
 20
66.71187545152063
 30
0.0
 10
138.1115864845736
 20
61.61308475425218
 30
0.0
 10
138.1113677460272
 20
55.28856278636
 30
0.0
 10
138.1111359646477
 20
48.58692537325269
 30
0.0
 10
138.1108945851171
 20
41.60777072276956
 30
0.0
 10
138.1106467108789
 20
34.44083060076628
 30
0.0
 10
138.110394891662
 20
27.1598268849252
 30
0.0
 10
138.1101417229611
 20
19.83980470895256
 30
0.0
 10
138.1098898921116
 20
12.55846465310987
 30
0.0
 10
138.1096429661406
 20
5.418942362281277
 30
0.0
 10
138.1094066655982
 20
-1.413360382100513
 30
0.0
 10
138.1091863069255
 20
-7.784726055350209
 30
0.0
 10
138.1090103056706
 20
-12.87355846142423
 30
0.0
 10
138.1088721783015
 20
-16.86731993548487
 30
0.0
 10
138.1087585065663
 20
-20.15398064814602
 30
0.0
 10
138.1086354952529
 20
-23.71068231952413
 30
0.0
 10
138.1084986439188
 20
-27.66754901370019
 30
0.0
 10
138.1083618639994
 20
-31.62235084922318
 30
0.0
 10
138.1082305495365
 20
-35.41912658215737
 30
0.0
 10
138.1081094009302
 20
-38.92197065958399
 30
0.0
 10
138.1079975402809
 20
-42.1562663309766
 30
0.0
 10
138.1079026658098
 20
-44.89943019659811
 30
0.0
 10
138.107829279122
 20
-47.02130458550094
 30
0.0
 10
138.107809648235
 20
-47.58890448051314
 30
0.0
 10
138.1077994848411
 20
-47.88276493293749
 30
0.0
  0
LINE
  5
119
330
1F
100
AcDbEntity
  8
0
  6
Continuous
 62
     7
370
    25
100
AcDbLine
 10
138.1077994848
 20
-47.8827649329
 30
0.0
 11
138.1077400911
 21
-49.6000519018
 31
0.0
  0
LINE
  5
11A
330
1F
100
AcDbEntity
  8
0
  6
Continuous
 62
     7
370
    25
100
AcDbLine
 10
153.9077400817
 20
-49.6005983571
 30
0.0
 11
153.9077994754
 21
-47.8833113883
 31
0.0
  0
LINE
  5
11B
330
1F
100
AcDbEntity
  8
0
  6
Continuous
 62
     7
370
    25
100
AcDbLine
 10
238.2127360223
 20
89.8942075442
 30
0.0
 11
238.2127360223
 21
89.5213235917
 31
0.0
  0
LINE
  5
11C
330
1F
100
AcDbEntity
  8
0
  6
Continuous
 62
     7
370
    25
100
AcDbLine
 10
238.2127360223
 20
100.179152265
 30
0.0
 11
238.2127360223
 21
89.8942075442
 31
0.0
  0
ARC
  5
11D
330
1F
100
AcDbEntity
  8
0
  6
Continuous
 62
     7
370
    25
100
AcDbCircle
 10
56.1117188658
 20
92.7053163527
 30
0.0
 40
3.299286112123965
100
AcDbArc
 50
174.1006273552
 51
185.8993726448
  0
ARC
  5
11E
330
1F
100
AcDbEntity
  8
0
  6
Continuous
 62
     7
370
    25
100
AcDbCircle
 10
59.9081309074
 20
95.2153874681
 30
0.0
 40
7.403671904240956
100
AcDbArc
 50
188.8555717152
 51
197.0513202202
  0
SPLINE
  5
11F
330
1F
100
AcDbEntity
  8
0
  6
Continuous
 62
     7
370
    25
100
AcDbSpline
210
0.0
220
0.0
230
1.0
 70
     8
 71
     3
 72
    12
 73
     8
 74
     0
 42
0.00000001
 43
0.00000001
 40
0.0
 40
0.0
 40
0.0
 40
0.0
 40
0.2133534395476214
 40
0.4267919313634498
 40
0.6383539739091488
 40
0.8490950351927615
 40
1.0
 40
1.0
 40
1.0
 40
1.0
 10
52.59271422060641
 20
95.11824465034816
 30
0.0
 10
52.58305507687905
 20
95.06437235907018
 30
0.0
 10
52.56373293885558
 20
94.9566063005981
 30
0.0
 10
52.55141986884748
 20
94.72499687992125
 30
0.0
 10
52.55375730914425
 20
94.47483914956281
 30
0.0
 10
52.56887482815806
 20
94.2484201174788
 30
0.0
 10
52.58569544053901
 20
94.12650608489223
 30
0.0
 10
52.59271422060642
 20
94.07563470384636
 30
0.0
  0
ARC
  5
120
330
1F
100
AcDbEntity
  8
0
  6
Continuous
 62
     7
370
    25
100
AcDbCircle
 10
56.2772049084
 20
94.2742606143
 30
0.0
 40
3.779918078701193
100
AcDbArc
 50
155.7837213117
 51
167.0981823598
  0
ARC
  5
121
330
1F
100
AcDbEntity
  8
0
  6
Continuous
 62
     7
370
    25
100
AcDbCircle
 10
59.8304608154
 20
96.3196975006
 30
0.0
 40
7.018032155403551
100
AcDbArc
 50
175.9555700063
 51
184.0444299937
  0
ARC
  5
122
330
1F
100
AcDbEntity
  8
0
  6
Continuous
 62
     7
370
    25
100
AcDbCircle
 10
56.2772049084
 20
95.2642244184
 30
0.0
 40
3.77991807870143
100
AcDbArc
 50
155.7837213117
 51
167.0981823598
  0
SPLINE
  5
123
330
1F
100
AcDbEntity
  8
0
  6
Continuous
 62
     7
370
    25
100
AcDbSpline
210
0.0
220
0.0
230
1.0
 70
     8
 71
     3
 72
    11
 73
     7
 74
     0
 42
0.00000001
 43
0.00000001
 40
0.0
 40
0.0
 40
0.0
 40
0.0
 40
0.1771553424640969
 40
0.480854306193254
 40
0.7833747449113244
 40
1.0
 40
1.0
 40
1.0
 40
1.0
 10
52.56116694449309
 20
96.07577529973277
 30
0.0
 10
52.55826383414741
 20
96.0515528596323
 30
0.0
 10
52.55038389616948
 20
95.98580567714929
 30
0.0
 10
52.55420292976724
 20
95.96614247717505
 30
0.0
 10
52.56879958030536
 20
96.00630561237617
 30
0.0
 10
52.58567328610994
 20
96.07820627893057
 30
0.0
 10
52.59271422060642
 20
96.10820845446474
 30
0.0
  0
ARC
  5
124
330
1F
100
AcDbEntity
  8
0
  6
Continuous
 62
     7
370
    25
100
AcDbCircle
 10
59.8407260073
 20
94.497850952
 30
0.0
 40
7.335106118712739
100
AcDbArc
 50
168.3668500212
 51
171.1618771205
  0
SPLINE
  5
125
330
1F
100
AcDbEntity
  8
0
  6
Continuous
 62
     7
370
    25
100
AcDbSpline
210
0.0
220
0.0
230
1.0
 70
     8
 71
     3
 72
    11
 73
     7
 74
     0
 42
0.00000001
 43
0.00000001
 40
0.0
 40
0.0
 40
0.0
 40
0.0
 40
0.1769183548232171
 40
0.4807047869467062
 40
0.783312354631837
 40
1.0
 40
1.0
 40
1.0
 40
1.0
 10
52.56115504485214
 20
94.85023792833432
 30
0.0
 10
52.55825710144858
 20
94.89237901900638
 30
0.0
 10
52.55038310065438
 20
95.00688055862025
 30
0.0
 10
52.5542036470272
 20
95.22697482614348
 30
0.0
 10
52.56879945918827
 20
95.45182978334523
 30
0.0
 10
52.58567325045075
 20
95.57390324598802
 30
0.0
 10
52.59271422060642
 20
95.6248411528223
 30
0.0
  0
SPLINE
  5
126
330
1F
100
AcDbEntity
  8
0
  6
Continuous
 62
     7
370
    25
100
AcDbSpline
210
0.0
220
0.0
230
1.0
 70
     8
 71
     3
 72
    10
 73
     6
 74
     0
 42
0.00000001
 43
0.00000001
 40
0.0
 40
0.0
 40
0.0
 40
0.0
 40
0.3456786151971638
 40
0.6914950334237443
 40
1.0
 40
1.0
 40
1.0
 40
1.0
 10
52.59271422060642
 20
93.39742259356001
 30
0.0
 10
52.58312376524121
 20
93.4613405083011
 30
0.0
 10
52.56393903132431
 20
93.58920181833635
 30
0.0
 10
52.55104019542822
 20
93.7036663808683
 30
0.0
 10
52.55436586349983
 20
93.7146406457808
 30
0.0
 10
52.55593387753866
 20
93.71981488478428
 30
0.0
  0
ARC
  5
127
330
1F
100
AcDbEntity
  8
0
  6
Continuous
 62
     7
370
    25
100
AcDbCircle
 10
59.9081309074
 20
94.5371753578
 30
0.0
 40
7.40367190423876
100
AcDbArc
 50
188.8555717152
 51
197.0513202203
  0
SPLINE
  5
128
330
1F
100
AcDbEntity
  8
0
  6
Continuous
 62
     7
370
    25
100
AcDbSpline
210
0.0
220
0.0
230
1.0
 70
     8
 71
     3
 72
    11
 73
     7
 74
     0
 42
0.00000001
 43
0.00000001
 40
0.0
 40
0.0
 40
0.0
 40
0.0
 40
0.3039812236456108
 40
0.608083627866646
 40
0.9095125090057321
 40
1.0
 40
1.0
 40
1.0
 40
1.0
 10
239.4327578239469
 20
96.10820845446474
 30
0.0
 10
239.4424731870095
 20
96.06742144789654
 30
0.0
 10
239.4619077861149
 20
95.9858311752265
 30
0.0
 10
239.4733796130663
 20
95.96864267582129
 30
0.0
 10
239.4740161367753
 20
96.00180912771982
 30
0.0
 10
239.4660861807879
 20
96.0630433622974
 30
0.0
 10
239.4642552753397
 20
96.07718140970714
 30
0.0
  0
ARC
  5
129
330
1F
100
AcDbEntity
  8
0
  6
Continuous
 62
     7
370
    25
100
AcDbCircle
 10
235.7482671361
 20
95.2642244184
 30
0.0
 40
3.779918078701305
100
AcDbArc
 50
12.9018176402
 51
24.2162786883
  0
ARC
  5
12A
330
1F
100
AcDbEntity
  8
0
  6
Continuous
 62
     7
370
    25
100
AcDbCircle
 10
232.1950112291
 20
96.3196975006
 30
0.0
 40
7.018032155398164
100
AcDbArc
 50
355.9555700063
 51
4.0444299937
  0
ARC
  5
12B
330
1F
100
AcDbEntity
  8
0
  6
Continuous
 62
     7
370
    25
100
AcDbCircle
 10
235.7482671361
 20
94.2742606143
 30
0.0
 40
3.77991807869426
100
AcDbArc
 50
12.9018176402
 51
24.2162786883
  0
SPLINE
  5
12C
330
1F
100
AcDbEntity
  8
0
  6
Continuous
 62
     7
370
    25
100
AcDbSpline
210
0.0
220
0.0
230
1.0
 70
     8
 71
     3
 72
    12
 73
     8
 74
     0
 42
0.00000001
 43
0.00000001
 40
0.0
 40
0.0
 40
0.0
 40
0.0
 40
0.2133534395476094
 40
0.4267919313634458
 40
0.638353973909152
 40
0.8490950351927495
 40
1.0
 40
1.0
 40
1.0
 40
1.0
 10
239.4327578239469
 20
94.07563470384636
 30
0.0
 10
239.4424169676743
 20
94.14909337411886
 30
0.0
 10
239.4617391056978
 20
94.29603999859081
 30
0.0
 10
239.4740521757059
 20
94.55270273014266
 30
0.0
 10
239.4717147354091
 20
94.79810409217929
 30
0.0
 10
239.4565972163953
 20
94.99378585193965
 30
0.0
 10
239.4397766040143
 20
95.08160156326551
 30
0.0
 10
239.4327578239469
 20
95.11824465034819
 30
0.0
  0
ARC
  5
12D
330
1F
100
AcDbEntity
  8
0
  6
Continuous
 62
     7
370
    25
100
AcDbCircle
 10
232.1173411371
 20
95.2153874681
 30
0.0
 40
7.403671904239061
100
AcDbArc
 50
342.9486797798
 51
351.1444282848
  0
ARC
  5
12E
330
1F
100
AcDbEntity
  8
0
  6
Continuous
 62
     7
370
    25
100
AcDbCircle
 10
235.9137531788
 20
92.7053163527
 30
0.0
 40
3.29928611212147
100
AcDbArc
 50
354.1006273552
 51
5.8993726448
  0
ARC
  5
12F
330
1F
100
AcDbEntity
  8
0
  6
Continuous
 62
     7
370
    25
100
AcDbCircle
 10
232.1173411371
 20
94.5371753578
 30
0.0
 40
7.403671904230277
100
AcDbArc
 50
342.9486797797
 51
351.1444282848
  0
SPLINE
  5
130
330
1F
100
AcDbEntity
  8
0
  6
Continuous
 62
     7
370
    25
100
AcDbSpline
210
0.0
220
0.0
230
1.0
 70
     8
 71
     3
 72
    11
 73
     7
 74
     0
 42
0.00000001
 43
0.00000001
 40
0.0
 40
0.0
 40
0.0
 40
0.0
 40
0.0714051685223774
 40
0.414134850803526
 40
0.7555345466479035
 40
1.0
 40
1.0
 40
1.0
 40
1.0
 10
239.4690116850497
 20
93.71663792358726
 30
0.0
 10
239.4699629791449
 20
93.71877964903442
 30
0.0
 10
239.4754802833731
 20
93.73120120292019
 30
0.0
 10
239.4708865556627
 20
93.67143934780222
 30
0.0
 10
239.4567370634857
 20
93.55529402696233
 30
0.0
 10
239.4398177777134
 20
93.44390300921562
 30
0.0
 10
239.432757823947
 20
93.39742259355998
 30
0.0
  0
SPLINE
  5
131
330
1F
100
AcDbEntity
  8
0
  6
Continuous
 62
     7
370
    25
100
AcDbSpline
210
0.0
220
0.0
230
1.0
 70
     8
 71
     3
 72
    11
 73
     7
 74
     0
 42
0.00000001
 43
0.00000001
 40
0.0
 40
0.0
 40
0.0
 40
0.0
 40
0.3067489698104707
 40
0.6136202235443585
 40
0.9177936117939343
 40
1.0
 40
1.0
 40
1.0
 40
1.0
 10
239.4327578239469
 20
95.6248411528223
 30
0.0
 10
239.4424760915529
 20
95.55119429921996
 30
0.0
 10
239.461916500903
 20
95.40387123306998
 30
0.0
 10
239.4733448654592
 20
95.15002439962645
 30
0.0
 10
239.4740971892887
 20
94.95586273883077
 30
0.0
 10
239.466397176453
 20
94.86876821119519
 30
0.0
 10
239.4647589171989
 20
94.85023792833432
 30
0.0
  0
ARC
  5
132
330
1F
100
AcDbEntity
  8
0
  6
Continuous
 62
     7
370
    25
100
AcDbCircle
 10
232.186706802
 20
94.498183074
 30
0.0
 40
7.333117607029283
100
AcDbArc
 50
8.837912545
 51
11.3659567697
  0
LINE
  5
133
330
1F
100
AcDbEntity
  8
0
  6
Continuous
 62
     7
370
    25
100
AcDbLine
 10
53.8127360223
 20
89.5213235917
 30
0.0
 11
53.8127360223
 21
100.179152265
 31
0.0
  0
LINE
  5
134
330
1F
100
AcDbEntity
  8
0
  6
Continuous
 62
     7
370
    25
100
AcDbLine
 10
70.0540098191
 20
86.5995779198
 30
0.0
 11
70.0540098191
 21
103.1008976516
 31
0.0
  0
SPLINE
  5
135
330
1F
100
AcDbEntity
  8
0
  6
Continuous
 62
     7
370
    25
100
AcDbSpline
210
0.0
220
0.0
230
1.0
 70
     8
 71
     3
 72
    11
 73
     7
 74
     0
 42
0.00000001
 43
0.00000001
 40
0.0
 40
0.0
 40
0.0
 40
0.0
 40
0.2499999999999979
 40
0.4999999999999962
 40
0.7499999999999943
 40
1.0
 40
1.0
 40
1.0
 40
1.0
 10
70.05400981905802
 20
103.1008991908743
 30
0.0
 10
70.12038087179539
 20
103.0950067134713
 30
0.0
 10
70.25312297727015
 20
103.0832217586654
 30
0.0
 10
70.42158671805086
 20
102.9793000762336
 30
0.0
 10
70.53967407708596
 20
102.8291196717775
 30
0.0
 10
70.5550487072131
 20
102.7095606127455
 30
0.0
 10
70.56273602227667
 20
102.6497810832296
 30
0.0
  0
LINE
  5
136
330
1F
100
AcDbEntity
  8
0
  6
Continuous
 62
     7
370
    25
100
AcDbLine
 10
70.5627360223
 20
102.649726233
 30
0.0
 11
70.5627360223
 21
87.0508031628
 31
0.0
  0
SPLINE
  5
137
330
1F
100
AcDbEntity
  8
0
  6
Continuous
 62
     7
370
    25
100
AcDbSpline
210
0.0
220
0.0
230
1.0
 70
     8
 71
     3
 72
    11
 73
     7
 74
     0
 42
0.00000001
 43
0.00000001
 40
0.0
 40
0.0
 40
0.0
 40
0.0
 40
0.2500000000000009
 40
0.5000000000000018
 40
0.7500000000000026
 40
0.9999999999999999
 40
0.9999999999999999
 40
0.9999999999999999
 40
0.9999999999999999
 10
70.05400981905802
 20
86.59957820503925
 30
0.0
 10
70.12038087179539
 20
86.60547207811176
 30
0.0
 10
70.25312297727015
 20
86.61725982425678
 30
0.0
 10
70.42158671805086
 20
86.72120612117895
 30
0.0
 10
70.53967407708596
 20
86.87142209678846
 30
0.0
 10
70.55504870721309
 20
86.99100947411964
 30
0.0
 10
70.56273602227667
 20
87.0508031627853
 30
0.0
  0
LWPOLYLINE
  5
138
330
1F
100
AcDbEntity
  8
0
  6
Continuous
 62
     7
370
    25
100
AcDbPolyline
 90
        3
 70
   128
 43
0.0
 10
70.0540098191
 20
103.1008976516
 10
64.0625360223
 20
103.0346452404
 10
60.5746920651
 20
102.9958292741
  0
LWPOLYLINE
  5
139
330
1F
100
AcDbEntity
  8
0
  6
Continuous
 62
     7
370
    25
100
AcDbPolyline
 90
        3
 70
   128
 43
0.0
 10
61.508112279
 20
86.6942405119
 10
64.0625360223
 20
86.6658306163
 10
70.054009836
 20
86.5995782049
  0
LINE
  5
13A
330
1F
100
AcDbEntity
  8
0
  6
Continuous
 62
     7
370
    25
100
AcDbLine
 10
55.7127360223
 20
86.4507942741
 30
0.0
 11
55.7127360223
 21
103.2496815826
 31
0.0
  0
LINE
  5
13B
330
1F
100
AcDbEntity
  8
0
  6
Continuous
 62
     7
370
    25
100
AcDbLine
 10
70.0540098191
 20
103.100898905
 30
0.0
 11
70.0540098191
 21
106.5963718416
 31
0.0
  0
ARC
  5
13C
330
1F
100
AcDbEntity
  8
0
  6
Continuous
 62
     7
370
    25
100
AcDbCircle
 10
70.0686747276
 20
106.1024854848
 30
0.0
 40
0.494104030492867
100
AcDbArc
 50
0.7535768612
 51
91.7007770082
  0
LINE
  5
13D
330
1F
100
AcDbEntity
  8
0
  6
Continuous
 62
     7
370
    25
100
AcDbLine
 10
70.5627360223
 20
106.10898395
 30
0.0
 11
70.5627360223
 21
102.6497274873
 31
0.0
  0
LINE
  5
13E
330
1F
100
AcDbEntity
  8
0
  6
Continuous
 62
     7
370
    25
100
AcDbLine
 10
70.0540098191
 20
83.1041040151
 30
0.0
 11
70.0540098191
 21
86.5995766658
 31
0.0
  0
ARC
  5
13F
330
1F
100
AcDbEntity
  8
0
  6
Continuous
 62
     7
370
    25
100
AcDbCircle
 10
70.0686747276
 20
83.5979903719
 30
0.0
 40
0.4941040304928702
100
AcDbArc
 50
268.2992229918
 51
359.2464231388
  0
LINE
  5
140
330
1F
100
AcDbEntity
  8
0
  6
Continuous
 62
     7
370
    25
100
AcDbLine
 10
70.5627360223
 20
87.0507483693
 30
0.0
 11
70.5627360223
 21
83.5914919067
 31
0.0
  0
LINE
  5
141
330
1F
100
AcDbEntity
  8
0
  6
Continuous
 62
     7
370
    25
100
AcDbLine
 10
61.5406464183
 20
86.693653471
 30
0.0
 11
61.5788222223
 21
86.6929661682
 31
0.0
  0
LINE
  5
142
330
1F
100
AcDbEntity
  8
0
  6
Continuous
 62
     7
370
    25
100
AcDbLine
 10
61.5406464183
 20
86.693653471
 30
0.0
 11
61.508112279
 21
86.6942405119
 31
0.0
  0
LWPOLYLINE
  5
143
330
1F
100
AcDbEntity
  8
0
  6
Continuous
 62
     7
370
    25
100
AcDbPolyline
 90
        3
 70
   128
 43
0.0
 10
61.5788222223
 20
86.6929661682
 10
64.0627360223
 20
86.6655746959
 10
70.0540098191
 20
86.5995766658
  0
LINE
  5
144
330
1F
100
AcDbEntity
  8
0
  6
Continuous
 62
     7
370
    25
100
AcDbLine
 10
60.5746920651
 20
102.9958292741
 30
0.0
 11
60.6192983983
 21
102.9966358912
 31
0.0
  0
LINE
  5
145
330
1F
100
AcDbEntity
  8
0
  6
Continuous
 62
     7
370
    25
100
AcDbLine
 10
60.6604083546
 20
102.9973774572
 30
0.0
 11
60.6192983983
 21
102.9966358912
 31
0.0
  0
LWPOLYLINE
  5
146
330
1F
100
AcDbEntity
  8
0
  6
Continuous
 62
     7
370
    25
100
AcDbPolyline
 90
        3
 70
   128
 43
0.0
 10
60.6604083546
 20
102.9973774572
 10
64.0627360223
 20
103.0349011608
 10
70.0540098021
 20
103.1008991907
  0
SPLINE
  5
147
330
1F
100
AcDbEntity
  8
0
  6
Continuous
 62
     7
370
    25
100
AcDbSpline
210
0.0
220
0.0
230
1.0
 70
     8
 71
     3
 72
    12
 73
     8
 74
     0
 42
0.00000001
 43
0.00000001
 40
0.0
 40
0.0
 40
0.0
 40
0.0
 40
0.1662426524176552
 40
0.336805975619131
 40
0.6054181071254596
 40
0.8801435087136189
 40
0.9999999999999999
 40
0.9999999999999999
 40
0.9999999999999999
 40
0.9999999999999999
 10
65.97150199233282
 20
106.5268983100053
 30
0.0
 10
65.87204528505758
 20
106.3714131345223
 30
0.0
 10
65.67054697617868
 20
106.0564017011671
 30
0.0
 10
64.84829922015616
 20
105.3934365961685
 30
0.0
 10
63.48647005316961
 20
104.5412416793631
 30
0.0
 10
61.92536386451069
 20
103.6986130007511
 30
0.0
 10
60.95512417234909
 20
103.1607549080558
 30
0.0
 10
60.66040835464623
 20
102.9973774572286
 30
0.0
  0
LINE
  5
148
330
1F
100
AcDbEntity
  8
0
  6
Continuous
 62
     7
370
    25
100
AcDbLine
 10
65.9715019923
 20
106.52689831
 30
0.0
 11
70.0540098191
 21
106.5963718416
 31
0.0
  0
LINE
  5
149
330
1F
100
AcDbEntity
  8
0
  6
Continuous
 62
     7
370
    25
100
AcDbLine
 10
66.0278312094
 20
83.2195097135
 30
0.0
 11
66.0278312094
 21
83.1726189717
 31
0.0
  0
SPLINE
  5
14A
330
1F
100
AcDbEntity
  8
0
  6
Continuous
 62
     7
370
    25
100
AcDbSpline
210
0.0
220
0.0
230
1.0
 70
     8
 71
     3
 72
    12
 73
     8
 74
     0
 42
0.00000001
 43
0.00000001
 40
0.0
 40
0.0
 40
0.0
 40
0.0
 40
0.0460732444350187
 40
0.2494607408078308
 40
0.4779405209378896
 40
0.7057893369168762
 40
1.0
 40
1.0
 40
1.0
 40
1.0
 10
61.5788222222596
 20
86.69296616823186
 30
0.0
 10
61.68079466325666
 20
86.6304607708161
 30
0.0
 10
62.23291815672982
 20
86.2920291510107
 30
0.0
 10
63.2768981120422
 20
85.67348705418578
 30
0.0
 10
64.54817638755402
 20
84.8657625026171
 30
0.0
 10
65.71493941213136
 20
83.99368458907743
 30
0.0
 10
65.91505469290922
 20
83.49854785510318
 30
0.0
 10
66.02783120940211
 20
83.21950971354677
 30
0.0
  0
LINE
  5
14B
330
1F
100
AcDbEntity
  8
0
  6
Continuous
 62
     7
370
    25
100
AcDbLine
 10
66.0278312094
 20
83.1726189717
 30
0.0
 11
70.0540098191
 21
83.1041040151
 31
0.0
  0
LINE
  5
14C
330
1F
100
AcDbEntity
  8
0
  6
Continuous
 62
     7
370
    25
100
AcDbLine
 10
70.5627360223
 20
106.3221275431
 30
0.0
 11
70.5627360223
 21
106.10898395
 31
0.0
  0
LINE
  5
14D
330
1F
100
AcDbEntity
  8
0
  6
Continuous
 62
     7
370
    25
100
AcDbLine
 10
70.5627360223
 20
83.5914919067
 30
0.0
 11
70.5627360223
 21
83.3783483136
 31
0.0
  0
LINE
  5
14E
330
1F
100
AcDbEntity
  8
0
  6
Continuous
 62
     7
370
    25
100
AcDbLine
 10
66.0278312094
 20
106.7351853753
 30
0.0
 11
65.9715019923
 21
106.52689831
 31
0.0
  0
LINE
  5
14F
330
1F
100
AcDbEntity
  8
0
  6
Continuous
 62
     7
370
    25
100
AcDbLine
 10
221.9714622255
 20
103.3463192257
 30
0.0
 11
221.9714622255
 21
86.8449994939
 31
0.0
  0
SPLINE
  5
150
330
1F
100
AcDbEntity
  8
0
  6
Continuous
 62
     7
370
    25
100
AcDbSpline
210
0.0
220
0.0
230
1.0
 70
     8
 71
     3
 72
    11
 73
     7
 74
     0
 42
0.00000001
 43
0.00000001
 40
0.0
 40
0.0
 40
0.0
 40
0.0
 40
0.2500000000000168
 40
0.4999999999999941
 40
0.7499999999999969
 40
1.0
 40
1.0
 40
1.0
 40
1.0
 10
221.9714622254953
 20
86.84499795462273
 30
0.0
 10
221.9050911727579
 20
86.85089043202568
 30
0.0
 10
221.7723490672832
 20
86.86267538683157
 30
0.0
 10
221.6038853265025
 20
86.96659706926349
 30
0.0
 10
221.4857979674674
 20
87.11677747371941
 30
0.0
 10
221.4704233373402
 20
87.23633653275145
 30
0.0
 10
221.4627360222767
 20
87.29611606226744
 30
0.0
  0
LINE
  5
151
330
1F
100
AcDbEntity
  8
0
  6
Continuous
 62
     7
370
    25
100
AcDbLine
 10
221.4627360223
 20
87.2961709125
 30
0.0
 11
221.4627360223
 21
102.8950939827
 31
0.0
  0
SPLINE
  5
152
330
1F
100
AcDbEntity
  8
0
  6
Continuous
 62
     7
370
    25
100
AcDbSpline
210
0.0
220
0.0
230
1.0
 70
     8
 71
     3
 72
    11
 73
     7
 74
     0
 42
0.00000001
 43
0.00000001
 40
0.0
 40
0.0
 40
0.0
 40
0.0
 40
0.250000000000024
 40
0.5
 40
0.7500000000000054
 40
1.0
 40
1.0
 40
1.0
 40
1.0
 10
221.9714622254953
 20
103.3463189404578
 30
0.0
 10
221.9050911727579
 20
103.3404250673853
 30
0.0
 10
221.7723490672832
 20
103.3286373212402
 30
0.0
 10
221.6038853265025
 20
103.224691024318
 30
0.0
 10
221.4857979674674
 20
103.0744750487086
 30
0.0
 10
221.4704233373402
 20
102.9548876713773
 30
0.0
 10
221.4627360222767
 20
102.8950939827117
 30
0.0
  0
LWPOLYLINE
  5
153
330
1F
100
AcDbEntity
  8
0
  6
Continuous
 62
     7
370
    25
100
AcDbPolyline
 90
        3
 70
   128
 43
0.0
 10
221.9714622255
 20
86.8449994939
 10
227.9629360223
 20
86.9112519051
 10
231.4507799794
 20
86.9500678714
  0
LWPOLYLINE
  5
154
330
1F
100
AcDbEntity
  8
0
  6
Continuous
 62
     7
370
    25
100
AcDbPolyline
 90
        3
 70
   128
 43
0.0
 10
230.5173597655
 20
103.2516566336
 10
227.9629360223
 20
103.2800665292
 10
221.9714622086
 20
103.3463189406
  0
LINE
  5
155
330
1F
100
AcDbEntity
  8
0
  6
Continuous
 62
     7
370
    25
100
AcDbLine
 10
236.3127360223
 20
103.4951028714
 30
0.0
 11
236.3127360223
 21
86.6962155629
 31
0.0
  0
LINE
  5
156
330
1F
100
AcDbEntity
  8
0
  6
Continuous
 62
     7
370
    25
100
AcDbLine
 10
221.9714622255
 20
86.8449982405
 30
0.0
 11
221.9714622255
 21
83.3495253039
 31
0.0
  0
ARC
  5
157
330
1F
100
AcDbEntity
  8
0
  6
Continuous
 62
     7
370
    25
100
AcDbCircle
 10
221.956797317
 20
83.8434116607
 30
0.0
 40
0.494104030492884
100
AcDbArc
 50
180.7535768612
 51
271.7007770082
  0
LINE
  5
158
330
1F
100
AcDbEntity
  8
0
  6
Continuous
 62
     7
370
    25
100
AcDbLine
 10
221.4627360223
 20
83.8369131955
 30
0.0
 11
221.4627360223
 21
87.2961696582
 31
0.0
  0
LINE
  5
159
330
1F
100
AcDbEntity
  8
0
  6
Continuous
 62
     7
370
    25
100
AcDbLine
 10
221.9714622255
 20
106.8417931304
 30
0.0
 11
221.9714622255
 21
103.3463204797
 31
0.0
  0
ARC
  5
15A
330
1F
100
AcDbEntity
  8
0
  6
Continuous
 62
     7
370
    25
100
AcDbCircle
 10
221.956797317
 20
106.3479067736
 30
0.0
 40
0.494104030492884
100
AcDbArc
 50
88.2992229918
 51
179.2464231388
  0
LINE
  5
15B
330
1F
100
AcDbEntity
  8
0
  6
Continuous
 62
     7
370
    25
100
AcDbLine
 10
221.4627360223
 20
102.8951487762
 30
0.0
 11
221.4627360223
 21
106.3544052388
 31
0.0
  0
SPLINE
  5
15C
330
1F
100
AcDbEntity
  8
0
  6
Continuous
 62
     7
370
    25
100
AcDbSpline
210
0.0
220
0.0
230
1.0
 70
     8
 71
     3
 72
    12
 73
     8
 74
     0
 42
0.00000001
 43
0.00000001
 40
0.0
 40
0.0
 40
0.0
 40
0.0
 40
0.1662426524176553
 40
0.3368059756191319
 40
0.6054181071254597
 40
0.8801435087136193
 40
1.0
 40
1.0
 40
1.0
 40
1.0
 10
226.0539700522205
 20
83.41899883549172
 30
0.0
 10
226.1534267594958
 20
83.5744840109747
 30
0.0
 10
226.3549250683747
 20
83.88949544432991
 30
0.0
 10
227.1771728243972
 20
84.55246054932847
 30
0.0
 10
228.5390019913837
 20
85.40465546613387
 30
0.0
 10
230.1001081800426
 20
86.24728414474595
 30
0.0
 10
231.0703478722043
 20
86.78514223744114
 30
0.0
 10
231.3650636899071
 20
86.94851968826839
 30
0.0
  0
LINE
  5
15D
330
1F
100
AcDbEntity
  8
0
  6
Continuous
 62
     7
370
    25
100
AcDbLine
 10
226.0539700522
 20
83.4189988355
 30
0.0
 11
221.9714622255
 21
83.3495253039
 31
0.0
  0
LWPOLYLINE
  5
15E
330
1F
100
AcDbEntity
  8
0
  6
Continuous
 62
     7
370
    25
100
AcDbPolyline
 90
        3
 70
   128
 43
0.0
 10
231.3650636899
 20
86.9485196883
 10
227.9627360223
 20
86.9109959847
 10
221.9714622424
 20
86.8449979548
  0
LINE
  5
15F
330
1F
100
AcDbEntity
  8
0
  6
Continuous
 62
     7
370
    25
100
AcDbLine
 10
225.9976408352
 20
106.726387432
 30
0.0
 11
225.9976408352
 21
106.7732781738
 31
0.0
  0
SPLINE
  5
160
330
1F
100
AcDbEntity
  8
0
  6
Continuous
 62
     7
370
    25
100
AcDbSpline
210
0.0
220
0.0
230
1.0
 70
     8
 71
     3
 72
    12
 73
     8
 74
     0
 42
0.00000001
 43
0.00000001
 40
0.0
 40
0.0
 40
0.0
 40
0.0
 40
0.0460732444350169
 40
0.249460740807831
 40
0.4779405209378897
 40
0.7057893369168755
 40
0.9999999999999999
 40
0.9999999999999999
 40
0.9999999999999999
 40
0.9999999999999999
 10
230.4466498222938
 20
103.2529309772652
 30
0.0
 10
230.3446773812967
 20
103.3154363746809
 30
0.0
 10
229.7925538878235
 20
103.6538679944862
 30
0.0
 10
228.7485739325111
 20
104.2724100913112
 30
0.0
 10
227.4772956569992
 20
105.08013464288
 30
0.0
 10
226.3105326324221
 20
105.9522125564195
 30
0.0
 10
226.1104173516442
 20
106.4473492903938
 30
0.0
 10
225.9976408351513
 20
106.7263874319502
 30
0.0
  0
LWPOLYLINE
  5
161
330
1F
100
AcDbEntity
  8
0
  6
Continuous
 62
     7
370
    25
100
AcDbPolyline
 90
        3
 70
   128
 43
0.0
 10
230.4466498223
 20
103.2529309773
 10
227.9627360223
 20
103.2803224496
 10
221.9714622255
 20
103.3463204797
  0
LINE
  5
162
330
1F
100
AcDbEntity
  8
0
  6
Continuous
 62
     7
370
    25
100
AcDbLine
 10
225.9976408352
 20
106.7732781738
 30
0.0
 11
221.9714622255
 21
106.8417931304
 31
0.0
  0
LINE
  5
163
330
1F
100
AcDbEntity
  8
0
  6
Continuous
 62
     7
370
    25
100
AcDbLine
 10
230.4848256263
 20
103.2522436745
 30
0.0
 11
230.4466498223
 21
103.2529309773
 31
0.0
  0
LINE
  5
164
330
1F
100
AcDbEntity
  8
0
  6
Continuous
 62
     7
370
    25
100
AcDbLine
 10
230.4848256263
 20
103.2522436745
 30
0.0
 11
230.5173597655
 21
103.2516566336
 31
0.0
  0
LINE
  5
165
330
1F
100
AcDbEntity
  8
0
  6
Continuous
 62
     7
370
    25
100
AcDbLine
 10
231.4507799794
 20
86.9500678714
 30
0.0
 11
231.4061736462
 21
86.9492612543
 31
0.0
  0
LINE
  5
166
330
1F
100
AcDbEntity
  8
0
  6
Continuous
 62
     7
370
    25
100
AcDbLine
 10
231.3650636899
 20
86.9485196883
 30
0.0
 11
231.4061736462
 21
86.9492612543
 31
0.0
  0
LINE
  5
167
330
1F
100
AcDbEntity
  8
0
  6
Continuous
 62
     7
370
    25
100
AcDbLine
 10
221.4627360223
 20
83.6237696024
 30
0.0
 11
221.4627360223
 21
83.8369131955
 31
0.0
  0
LINE
  5
168
330
1F
100
AcDbEntity
  8
0
  6
Continuous
 62
     7
370
    25
100
AcDbLine
 10
221.4627360223
 20
106.3544052388
 30
0.0
 11
221.4627360223
 21
106.5675488319
 31
0.0
  0
LINE
  5
169
330
1F
100
AcDbEntity
  8
0
  6
Continuous
 62
     7
370
    25
100
AcDbLine
 10
225.9976408352
 20
83.2107117702
 30
0.0
 11
226.0539700522
 21
83.4189988355
 31
0.0
  0
LINE
  5
16A
330
1F
100
AcDbEntity
  8
0
  6
Continuous
 62
     7
370
    25
100
AcDbLine
 10
212.8127360223
 20
97.0523972985
 30
0.0
 11
212.8127360223
 21
94.4560951364
 31
0.0
  0
SPLINE
  5
16B
330
1F
100
AcDbEntity
  8
0
  6
Continuous
 62
     7
370
    25
100
AcDbSpline
210
0.0
220
0.0
230
1.0
 70
     8
 71
     3
 72
    13
 73
     9
 74
     0
 42
0.00000001
 43
0.00000001
 40
0.0
 40
0.0
 40
0.0
 40
0.0
 40
0.0295448902054259
 40
0.260647123968819
 40
0.4913152552054721
 40
0.730868263847878
 40
0.9709134921287368
 40
1.0
 40
1.0
 40
1.0
 40
1.0
 10
212.8127360222767
 20
97.05239729852316
 30
0.0
 10
212.8406608400926
 20
97.11394260563033
 30
0.0
 10
213.0870155701477
 20
97.65689968483132
 30
0.0
 10
213.4491042540449
 20
98.71234585058875
 30
0.0
 10
213.6608518242391
 20
100.2706810706724
 30
0.0
 10
213.466011189387
 20
101.8514916671014
 30
0.0
 10
213.0946660331655
 20
102.9454949460547
 30
0.0
 10
212.8402338687204
 20
103.5061066290472
 30
0.0
 10
212.8127360222767
 20
103.5666949355889
 30
0.0
  0
LINE
  5
16C
330
1F
100
AcDbEntity
  8
0
  6
Continuous
 62
     7
370
    25
100
AcDbLine
 10
212.8127360223
 20
104.6651210643
 30
0.0
 11
212.8127360223
 21
103.5666949356
 31
0.0
  0
SPLINE
  5
16D
330
1F
100
AcDbEntity
  8
0
  6
Continuous
 62
     7
370
    25
100
AcDbSpline
210
0.0
220
0.0
230
1.0
 70
     8
 71
     3
 72
     9
 73
     5
 74
     0
 42
0.00000001
 43
0.00000001
 40
0.0
 40
0.0
 40
0.0
 40
0.0
 40
0.614166973587624
 40
0.9999999999999999
 40
0.9999999999999999
 40
0.9999999999999999
 40
0.9999999999999999
 10
212.8127360222767
 20
104.665121064346
 30
0.0
 10
213.0352874226967
 20
104.609726832065
 30
0.0
 10
213.3976504444659
 20
104.5195327404527
 30
0.0
 10
213.47689089795
 20
104.4243272538261
 30
0.0
 10
213.507464481932
 20
104.3875938327899
 30
0.0
  0
SPLINE
  5
16E
330
1F
100
AcDbEntity
  8
0
  6
Continuous
 62
     7
370
    25
100
AcDbSpline
210
0.0
220
0.0
230
1.0
 70
     8
 71
     3
 72
    11
 73
     7
 74
     0
 42
0.00000001
 43
0.00000001
 40
0.0
 40
0.0
 40
0.0
 40
0.0
 40
0.2431641197380933
 40
0.4936284730588935
 40
0.7421706076863281
 40
0.9999999999999999
 40
0.9999999999999999
 40
0.9999999999999999
 40
0.9999999999999999
 10
212.8127360222767
 20
85.03535479232266
 30
0.0
 10
213.0228763454855
 20
85.09087690959879
 30
0.0
 10
213.4494657904471
 20
85.20358802010938
 30
0.0
 10
213.65985022059
 20
85.38238427624334
 30
0.0
 10
213.4691635269231
 20
85.56495294785604
 30
0.0
 10
213.0342043565284
 20
85.68070209153575
 30
0.0
 10
212.8127360222767
 20
85.73963812918392
 30
0.0
  0
LINE
  5
16F
330
1F
100
AcDbEntity
  8
0
  6
Continuous
 62
     7
370
    25
100
AcDbLine
 10
212.8127360223
 20
87.2375141625
 30
0.0
 11
212.8127360223
 21
85.7396381292
 31
0.0
  0
SPLINE
  5
170
330
1F
100
AcDbEntity
  8
0
  6
Continuous
 62
     7
370
    25
100
AcDbSpline
210
0.0
220
0.0
230
1.0
 70
     8
 71
     3
 72
    11
 73
     7
 74
     0
 42
0.00000001
 43
0.00000001
 40
0.0
 40
0.0
 40
0.0
 40
0.0
 40
0.2431641197380922
 40
0.4936284730588946
 40
0.7421706076863281
 40
1.0
 40
1.0
 40
1.0
 40
1.0
 10
212.8127360222767
 20
87.23751416251152
 30
0.0
 10
213.0228763454855
 20
87.80659038286875
 30
0.0
 10
213.4494657904471
 20
88.96182753714818
 30
0.0
 10
213.65985022059
 20
90.79440710447062
 30
0.0
 10
213.469163526923
 20
92.6656521991119
 30
0.0
 10
213.0342043565284
 20
93.85202779907725
 30
0.0
 10
212.8127360222767
 20
94.45609513643846
 30
0.0
  0
LINE
  5
171
330
1F
100
AcDbEntity
  8
0
  6
Continuous
 62
     7
370
    25
100
AcDbLine
 10
214.8127360223
 20
99.5912160922
 30
0.0
 11
214.8127360223
 21
86.6002379283
 31
0.0
  0
LINE
  5
172
330
1F
100
AcDbEntity
  8
0
  6
Continuous
 62
     7
370
    25
100
AcDbLine
 10
214.8127360223
 20
103.1002379283
 30
0.0
 11
214.8127360223
 21
99.5912160922
 31
0.0
  0
LWPOLYLINE
  5
173
330
1F
100
AcDbEntity
  8
0
  6
Continuous
 62
     7
370
    25
100
AcDbPolyline
 90
       69
 70
   128
 43
0.0
 10
207.6989614587
 20
104.2235858227
 10
206.2915494805
 20
104.2345464233
 10
206.3041198994
 20
104.1889537875
 10
206.3131483553
 20
104.1366228698
 10
206.361126672
 20
103.6032093413
 10
206.3903768858
 20
103.091053855
 10
206.4239946087
 20
102.3435458576
 10
206.4782941806
 20
100.7711777137
 10
206.496574572
 20
100.1334339281
 10
206.5164350736
 20
99.4080622299
 10
206.5748765851
 20
97.1603665352
 10
206.6085391864
 20
95.805324804
 10
206.6337397029
 20
94.763440095
 10
206.6378922961
 20
94.588320999
 10
206.6429764992
 20
94.3691301723
 10
206.6525304427
 20
93.9578840999
 10
206.6665541265
 20
93.3574888708
 10
206.6829121265
 20
92.6651380401
 10
206.6987410169
 20
92.0209424072
 10
206.7236103004
 20
91.0556847806
 10
206.7575199771
 20
89.8252040178
 10
206.791628058
 20
88.7017683954
 10
206.8439445492
 20
87.2163387715
 10
206.8609112927
 20
86.8108836354
 10
206.8746030038
 20
86.5170371186
 10
206.8884318448
 20
86.2649174843
 10
206.9254427633
 20
85.7607876555
 10
206.9597935381
 20
85.5053534113
 10
206.9689898923
 20
85.4721151496
 10
206.9880833179
 20
85.451477361
 10
207.0052245776
 20
85.4913097944
 10
207.0324995414
 20
85.6753978555
 10
207.0567932004
 20
85.9573115905
 10
207.0780048876
 20
86.2813958049
 10
207.1089767486
 20
86.8792116901
 10
207.140803358
 20
87.6437265957
 10
207.1625949298
 20
88.2559559267
 10
207.1866729045
 20
89.0264044824
 10
207.2136725255
 20
89.9891476236
 10
207.2305748093
 20
90.6177622531
 10
207.2495496004
 20
91.3382640433
 10
207.2598650321
 20
91.734847797
 10
207.2788136674
 20
92.4759460379
 10
207.3054332893
 20
93.5422480409
 10
207.3253130933
 20
94.3559819297
 10
207.3495018191
 20
95.3665850318
 10
207.3749961846
 20
96.452307798
 10
207.397275805
 20
97.4034970344
 10
207.4214001841
 20
98.3599996511
 10
207.4604486099
 20
99.789569249
 10
207.4952187148
 20
100.9448756936
 10
207.520700499
 20
101.7088735566
 10
207.5368939625
 20
102.156748746
 10
207.5520244584
 20
102.5493548593
 10
207.5689210146
 20
102.9443511968
 10
207.5845383979
 20
103.2663410136
 10
207.6058881753
 20
103.6237406974
 10
207.6431811798
 20
104.0537584352
 10
207.7026539192
 20
104.2348278051
 10
207.7405935354
 20
104.0000144827
 10
207.7930707425
 20
103.2526078501
 10
207.8276089138
 20
102.5257007806
 10
207.85903707
 20
101.7077936585
 10
207.8849489902
 20
100.9184940443
 10
207.9050510652
 20
100.2286663953
 10
207.9444048086
 20
98.7829901588
 10
207.9749482316
 20
97.6020671325
 10
208.0127360223
 20
96.0874235029
 10
208.0127360223
 20
96.0874235029
  0
LINE
  5
174
330
1F
100
AcDbEntity
  8
0
  6
Continuous
 62
     7
370
    25
100
AcDbLine
 10
208.0127360223
 20
85.5320100162
 30
0.0
 11
208.0127360223
 21
96.0874235026
 31
0.0
  0
SPLINE
  5
175
330
1F
100
AcDbEntity
  8
0
  6
Continuous
 62
     7
370
    25
100
AcDbSpline
210
0.0
220
0.0
230
1.0
 70
     8
 71
     3
 72
    34
 73
    30
 74
     0
 42
0.00000001
 43
0.00000001
 40
0.0
 40
0.0
 40
0.0
 40
0.0
 40
0.0107203951961487
 40
0.0520621697759953
 40
0.0928367874081198
 40
0.1325810366880711
 40
0.1677541617798289
 40
0.2086915438314888
 40
0.2384934651934105
 40
0.2673349663247645
 40
0.3188328256376513
 40
0.3705684485253378
 40
0.4034855483800231
 40
0.4497965787901722
 40
0.4930749937141918
 40
0.5200718191566127
 40
0.5290161799575821
 40
0.5550558451171256
 40
0.5810956805628307
 40
0.6071356883937962
 40
0.6850971664419631
 40
0.7212104574388014
 40
0.7533762602206928
 40
0.7815934401165545
 40
0.8424689042448504
 40
0.8663160849528517
 40
0.9005262882265267
 40
0.9450912036484979
 40
1.0
 40
1.0
 40
1.0
 40
1.0
 10
207.3371085999852
 20
104.24061388981
 30
0.0
 10
207.3395264342935
 20
104.2431683416336
 30
0.0
 10
207.35126832421
 20
104.2555736962957
 30
0.0
 10
207.3714405504858
 20
104.1545057922294
 30
0.0
 10
207.3979020864649
 20
103.9119461128005
 30
0.0
 10
207.4240234091191
 20
103.5467264984235
 30
0.0
 10
207.4506563363716
 20
103.0696333987358
 30
0.0
 10
207.4750155422965
 20
102.5325788540254
 30
0.0
 10
207.4978566145278
 20
101.9470956039289
 30
0.0
 10
207.5232370558201
 20
101.230599237866
 30
0.0
 10
207.5518064541214
 20
100.265890660616
 30
0.0
 10
207.5814683915029
 20
99.1564748212451
 30
0.0
 10
207.6113655878689
 20
98.02126884273571
 30
0.0
 10
207.6396401572659
 20
96.91031821389114
 30
0.0
 10
207.6665390527664
 20
95.82131642602765
 30
0.0
 10
207.6847661647562
 20
95.07482519345828
 30
0.0
 10
207.698566277851
 20
94.49077292702322
 30
0.0
 10
207.7114847651507
 20
93.91614265810469
 30
0.0
 10
207.7286329041146
 20
93.18628116192772
 30
0.0
 10
207.7573212275536
 20
91.98895595405348
 30
0.0
 10
207.7893077789467
 20
90.74566384392271
 30
0.0
 10
207.823021317648
 20
89.5661633627454
 30
0.0
 10
207.8450715480913
 20
88.83997405102087
 30
0.0
 10
207.8726442861042
 20
87.99464523535467
 30
0.0
 10
207.8976775426192
 20
87.30633782519021
 30
0.0
 10
207.9235508479977
 20
86.70072084447963
 30
0.0
 10
207.9467661465734
 20
86.25274874967079
 30
0.0
 10
207.977201781815
 20
85.79168125346717
 30
0.0
 10
208.0000976580169
 20
85.62436656135439
 30
0.0
 10
208.0127360222767
 20
85.53201001617236
 30
0.0
  0
SPLINE
  5
176
330
1F
100
AcDbEntity
  8
0
  6
Continuous
 62
     7
370
    25
100
AcDbSpline
210
0.0
220
0.0
230
1.0
 70
     8
 71
     3
 72
     9
 73
     5
 74
     0
 42
0.00000001
 43
0.00000001
 40
0.0
 40
0.0
 40
0.0
 40
0.0
 40
0.97638139255599
 40
1.0
 40
1.0
 40
1.0
 40
1.0
 10
207.3627360222767
 20
86.58965042969626
 30
0.0
 10
207.3836761927749
 20
86.347509857111
 30
0.0
 10
207.4051229047442
 20
86.09951191856838
 30
0.0
 10
207.4251682586329
 20
86.21961403495773
 30
0.0
 10
207.4256417019775
 20
86.22245067969794
 30
0.0
  0
SPLINE
  5
177
330
1F
100
AcDbEntity
  8
0
  6
Continuous
 62
     7
370
    25
100
AcDbSpline
210
0.0
220
0.0
230
1.0
 70
     8
 71
     3
 72
    13
 73
     9
 74
     0
 42
0.00000001
 43
0.00000001
 40
0.0
 40
0.0
 40
0.0
 40
0.0
 40
0.1633117204154805
 40
0.3537060974034397
 40
0.542209649589676
 40
0.7300371885093455
 40
0.9206669352019216
 40
1.0
 40
1.0
 40
1.0
 40
1.0
 10
208.1405644455365
 20
103.4337937686304
 30
0.0
 10
208.160092277342
 20
103.3563246512174
 30
0.0
 10
208.2023863218916
 20
103.1885393929413
 30
0.0
 10
208.2723332354562
 20
101.9343839088856
 30
0.0
 10
208.3421866044665
 20
100.0112511593294
 30
0.0
 10
208.4107546753434
 20
97.5684078462181
 30
0.0
 10
208.4705308188995
 20
95.37670443523064
 30
0.0
 10
208.5031502574234
 20
94.09687050452013
 30
0.0
 10
208.5127360222767
 20
93.72077000536177
 30
0.0
  0
SPLINE
  5
178
330
1F
100
AcDbEntity
  8
0
  6
Continuous
 62
     7
370
    25
100
AcDbSpline
210
0.0
220
0.0
230
1.0
 70
    24
 71
     3
 72
    10
 73
     6
 74
     0
 42
0.00000001
 43
0.00000001
 40
0.0
 40
0.0
 40
0.0
 40
0.0
 40
0.3187287177375316
 40
0.8180873955881224
 40
1.0
 40
1.0
 40
1.0
 40
1.0
 10
208.5127360222767
 20
93.72077000536177
 30
0.0
 10
208.5127360222767
 20
93.0984662654298
 30
0.0
 10
208.5127360222767
 20
91.50118676868566
 30
0.0
 10
208.5127360222767
 20
89.69453610180419
 30
0.0
 10
208.5127360222767
 20
88.6895557930153
 30
0.0
 10
208.5127360222767
 20
88.42120661976477
 30
0.0
  0
SPLINE
  5
179
330
1F
100
AcDbEntity
  8
0
  6
Continuous
 62
     7
370
    25
100
AcDbSpline
210
0.0
220
0.0
230
1.0
 70
     8
 71
     3
 72
    13
 73
     9
 74
     0
 42
0.00000001
 43
0.00000001
 40
0.0
 40
0.0
 40
0.0
 40
0.0
 40
0.2187316754180408
 40
0.3931473777464116
 40
0.571425411379405
 40
0.7494200729434982
 40
0.8738925945231115
 40
1.0
 40
1.0
 40
1.0
 40
1.0
 10
208.5127360222767
 20
88.42120661976477
 30
0.0
 10
208.4750082153701
 20
88.85645017218799
 30
0.0
 10
208.4071964166214
 20
89.63875507150898
 30
0.0
 10
208.3083829880085
 20
91.03298300596285
 30
0.0
 10
208.2193714517574
 20
92.43407780686726
 30
0.0
 10
208.1446585248202
 20
93.78168617245436
 30
0.0
 10
208.0749904459147
 20
95.0072395821705
 30
0.0
 10
208.0335775615868
 20
95.72579947152477
 30
0.0
 10
208.0127360222933
 20
96.08742350259008
 30
0.0
  0
LINE
  5
17A
330
1F
100
AcDbEntity
  8
0
  6
Continuous
 62
     7
370
    25
100
AcDbLine
 10
208.0127360223
 20
85.5320100162
 30
0.0
 11
208.031666941
 21
85.5118260313
 31
0.0
  0
SPLINE
  5
17B
330
1F
100
AcDbEntity
  8
0
  6
Continuous
 62
     7
370
    25
100
AcDbSpline
210
0.0
220
0.0
230
1.0
 70
     8
 71
     3
 72
     9
 73
     5
 74
     0
 42
0.00000001
 43
0.00000001
 40
0.0
 40
0.0
 40
0.0
 40
0.0
 40
0.2575807037701713
 40
1.0
 40
1.0
 40
1.0
 40
1.0
 10
208.4789967612925
 20
103.7527556034846
 30
0.0
 10
208.4819904153997
 20
103.7585812746724
 30
0.0
 10
208.493612614048
 20
103.7811981520333
 30
0.0
 10
208.5045878186214
 20
103.6133609709377
 30
0.0
 10
208.5127360222767
 20
103.4887554090676
 30
0.0
  0
SPLINE
  5
17C
330
1F
100
AcDbEntity
  8
0
  6
Continuous
 62
     7
370
    25
100
AcDbSpline
210
0.0
220
0.0
230
1.0
 70
    24
 71
     3
 72
    10
 73
     6
 74
     0
 42
0.00000001
 43
0.00000001
 40
0.0
 40
0.0
 40
0.0
 40
0.0
 40
0.3294562546722
 40
0.8318642056942901
 40
1.0
 40
1.0
 40
1.0
 40
1.0
 10
208.5127360222767
 20
103.4887554090676
 30
0.0
 10
208.5127360222767
 20
103.2649949593815
 30
0.0
 10
208.5127360222767
 20
102.7000085428114
 30
0.0
 10
208.5127360222767
 20
101.4198570174534
 30
0.0
 10
208.5127360222767
 20
100.3692846515409
 30
0.0
 10
208.5127360222767
 20
100.1058584091084
 30
0.0
  0
SPLINE
  5
17D
330
1F
100
AcDbEntity
  8
0
  6
Continuous
 62
     7
370
    25
100
AcDbSpline
210
0.0
220
0.0
230
1.0
 70
     8
 71
     3
 72
    11
 73
     7
 74
     0
 42
0.00000001
 43
0.00000001
 40
0.0
 40
0.0
 40
0.0
 40
0.0
 40
0.1123950113901299
 40
0.4199943621869238
 40
0.7261447176194223
 40
1.0
 40
1.0
 40
1.0
 40
1.0
 10
207.3627360222767
 20
90.67514900037277
 30
0.0
 10
207.371456827619
 20
90.3758736692469
 30
0.0
 10
207.4040444757023
 20
89.2575504424429
 30
0.0
 10
207.4591135950928
 20
87.805621396162
 30
0.0
 10
207.5250934927735
 20
86.51603228855254
 30
0.0
 10
207.5705185250955
 20
86.34682480708413
 30
0.0
 10
207.591966394293
 20
86.26693185502052
 30
0.0
  0
SPLINE
  5
17E
330
1F
100
AcDbEntity
  8
0
  6
Continuous
 62
     7
370
    25
100
AcDbSpline
210
0.0
220
0.0
230
1.0
 70
     8
 71
     3
 72
    11
 73
     7
 74
     0
 42
0.00000001
 43
0.00000001
 40
0.0
 40
0.0
 40
0.0
 40
0.0
 40
0.0058314992650536
 40
0.3431453499632175
 40
0.6876241808559886
 40
1.0
 40
1.0
 40
1.0
 40
1.0
 10
208.3073337646919
 20
103.4793323559643
 30
0.0
 10
208.3077420975467
 20
103.4817020376069
 30
0.0
 10
208.3317697984833
 20
103.6211422054943
 30
0.0
 10
208.3752283889092
 20
103.1214450516007
 30
0.0
 10
208.4468316118342
 20
102.0182642831255
 30
0.0
 10
208.4914955177199
 20
100.7222126926637
 30
0.0
 10
208.5127360222767
 20
100.1058584091084
 30
0.0
  0
LINE
  5
17F
330
1F
100
AcDbEntity
  8
0
  6
Continuous
 62
     7
370
    25
100
AcDbLine
 10
210.2627360223
 20
87.2375141625
 30
0.0
 11
210.0127360223
 21
87.8730921808
 31
0.0
  0
LINE
  5
180
330
1F
100
AcDbEntity
  8
0
  6
Continuous
 62
     7
370
    25
100
AcDbLine
 10
210.0127360223
 20
93.8205171181
 30
0.0
 11
210.2627360223
 21
94.4560951364
 31
0.0
  0
LINE
  5
181
330
1F
100
AcDbEntity
  8
0
  6
Continuous
 62
     7
370
    25
100
AcDbLine
 10
212.8127360223
 20
94.4560951364
 30
0.0
 11
210.2627360223
 21
94.4560951364
 31
0.0
  0
LINE
  5
182
330
1F
100
AcDbEntity
  8
0
  6
Continuous
 62
     7
370
    25
100
AcDbLine
 10
210.2627360223
 20
87.2375141625
 30
0.0
 11
212.8127360223
 21
87.2375141625
 31
0.0
  0
LINE
  5
183
330
1F
100
AcDbEntity
  8
0
  6
Continuous
 62
     7
370
    25
100
AcDbLine
 10
210.0127360223
 20
93.8205171181
 30
0.0
 11
210.0127360223
 21
87.8730921808
 31
0.0
  0
LINE
  5
184
330
1F
100
AcDbEntity
  8
0
  6
Continuous
 62
     7
370
    25
100
AcDbLine
 10
208.5127360223
 20
88.4212066198
 30
0.0
 11
208.5127360223
 21
85.9502379283
 31
0.0
  0
SPLINE
  5
185
330
1F
100
AcDbEntity
  8
0
  6
Continuous
 62
     7
370
    25
100
AcDbSpline
210
0.0
220
0.0
230
1.0
 70
    24
 71
     3
 72
    11
 73
     7
 74
     0
 42
0.00000001
 43
0.00000001
 40
0.0
 40
0.0
 40
0.0
 40
0.0
 40
0.0521773337626324
 40
0.261547743229521
 40
0.6847281688108003
 40
0.9999999999999999
 40
0.9999999999999999
 40
0.9999999999999999
 40
0.9999999999999999
 10
208.5127360222767
 20
100.1058584091084
 30
0.0
 10
208.5127360222767
 20
100.0115976985624
 30
0.0
 10
208.5127360222767
 20
99.53909988503493
 30
0.0
 10
208.5127360222767
 20
98.20096842963672
 30
0.0
 10
208.5127360222767
 20
96.1031200821161
 30
0.0
 10
208.5127360222767
 20
94.43356368618805
 30
0.0
 10
208.5127360222767
 20
93.72077000536174
 30
0.0
  0
LINE
  5
186
330
1F
100
AcDbEntity
  8
0
  6
Continuous
 62
     7
370
    25
100
AcDbLine
 10
210.2627360223
 20
97.0523972985
 30
0.0
 11
210.0127360223
 21
97.6259649288
 31
0.0
  0
LINE
  5
187
330
1F
100
AcDbEntity
  8
0
  6
Continuous
 62
     7
370
    25
100
AcDbLine
 10
210.2627360223
 20
97.0523972985
 30
0.0
 11
210.2627360223
 21
94.4560951364
 31
0.0
  0
LINE
  5
188
330
1F
100
AcDbEntity
  8
0
  6
Continuous
 62
     7
370
    25
100
AcDbLine
 10
210.0127360223
 20
93.8205171181
 30
0.0
 11
210.0127360223
 21
97.6259649288
 31
0.0
  0
LINE
  5
189
330
1F
100
AcDbEntity
  8
0
  6
Continuous
 62
     7
370
    25
100
AcDbLine
 10
210.2627360223
 20
97.0523972985
 30
0.0
 11
212.8127360223
 21
97.0523972985
 31
0.0
  0
LINE
  5
18A
330
1F
100
AcDbEntity
  8
0
  6
Continuous
 62
     7
370
    25
100
AcDbLine
 10
210.0127360223
 20
102.9931273053
 30
0.0
 11
210.2627360223
 21
103.5666949356
 31
0.0
  0
LINE
  5
18B
330
1F
100
AcDbEntity
  8
0
  6
Continuous
 62
     7
370
    25
100
AcDbLine
 10
212.8127360223
 20
103.5666949356
 30
0.0
 11
210.2627360223
 21
103.5666949356
 31
0.0
  0
LINE
  5
18C
330
1F
100
AcDbEntity
  8
0
  6
Continuous
 62
     7
370
    25
100
AcDbLine
 10
210.0127360223
 20
102.9931273053
 30
0.0
 11
210.0127360223
 21
97.6259649288
 31
0.0
  0
LINE
  5
18D
330
1F
100
AcDbEntity
  8
0
  6
Continuous
 62
     7
370
    25
100
AcDbLine
 10
210.0127360223
 20
85.6776277411
 30
0.0
 11
210.2627360223
 21
85.7396381292
 31
0.0
  0
LINE
  5
18E
330
1F
100
AcDbEntity
  8
0
  6
Continuous
 62
     7
370
    25
100
AcDbLine
 10
210.2627360223
 20
87.2375141625
 30
0.0
 11
210.2627360223
 21
85.7396381292
 31
0.0
  0
LINE
  5
18F
330
1F
100
AcDbEntity
  8
0
  6
Continuous
 62
     7
370
    25
100
AcDbLine
 10
210.0127360223
 20
85.6776277411
 30
0.0
 11
210.0127360223
 21
87.8730921808
 31
0.0
  0
LINE
  5
190
330
1F
100
AcDbEntity
  8
0
  6
Continuous
 62
     7
370
    25
100
AcDbLine
 10
212.8127360223
 20
85.7396381292
 30
0.0
 11
210.2627360223
 21
85.7396381292
 31
0.0
  0
LINE
  5
191
330
1F
100
AcDbEntity
  8
0
  6
Continuous
 62
     7
370
    25
100
AcDbLine
 10
210.2627360223
 20
104.6651210643
 30
0.0
 11
210.0127360223
 21
104.6031106763
 31
0.0
  0
LINE
  5
192
330
1F
100
AcDbEntity
  8
0
  6
Continuous
 62
     7
370
    25
100
AcDbLine
 10
210.2627360223
 20
104.6651210643
 30
0.0
 11
210.2627360223
 21
103.5666949356
 31
0.0
  0
LINE
  5
193
330
1F
100
AcDbEntity
  8
0
  6
Continuous
 62
     7
370
    25
100
AcDbLine
 10
210.0127360223
 20
102.9931273053
 30
0.0
 11
210.0127360223
 21
104.6031106763
 31
0.0
  0
LINE
  5
194
330
1F
100
AcDbEntity
  8
0
  6
Continuous
 62
     7
370
    25
100
AcDbLine
 10
210.2627360223
 20
104.6651210643
 30
0.0
 11
212.8127360223
 21
104.6651210643
 31
0.0
  0
LINE
  5
195
330
1F
100
AcDbEntity
  8
0
  6
Continuous
 62
     7
370
    25
100
AcDbLine
 10
210.2627360223
 20
85.0353547923
 30
0.0
 11
210.0127360223
 21
85.0973651804
 31
0.0
  0
LINE
  5
196
330
1F
100
AcDbEntity
  8
0
  6
Continuous
 62
     7
370
    25
100
AcDbLine
 10
210.2627360223
 20
85.0353547923
 30
0.0
 11
212.8127360223
 21
85.0353547923
 31
0.0
  0
LINE
  5
197
330
1F
100
AcDbEntity
  8
0
  6
Continuous
 62
     7
370
    25
100
AcDbLine
 10
210.0127360223
 20
85.6776277411
 30
0.0
 11
210.0127360223
 21
85.0973651804
 31
0.0
  0
LINE
  5
198
330
1F
100
AcDbEntity
  8
0
  6
Continuous
 62
     7
370
    25
100
AcDbLine
 10
80.4627360223
 20
103.5666949356
 30
0.0
 11
80.4627360223
 21
104.6651210643
 31
0.0
  0
SPLINE
  5
199
330
1F
100
AcDbEntity
  8
0
  6
Continuous
 62
     7
370
    25
100
AcDbSpline
210
0.0
220
0.0
230
1.0
 70
     8
 71
     3
 72
    13
 73
     9
 74
     0
 42
0.00000001
 43
0.00000001
 40
0.0
 40
0.0
 40
0.0
 40
0.0
 40
0.0295448902054257
 40
0.2606471239688184
 40
0.4913152552054746
 40
0.7308682638478782
 40
0.9709134921287369
 40
1.0
 40
1.0
 40
1.0
 40
1.0
 10
80.46273602227666
 20
103.5666949355889
 30
0.0
 10
80.43481120446077
 20
103.5051496284817
 30
0.0
 10
80.18845647440577
 20
102.9621925492807
 30
0.0
 10
79.82636779050837
 20
101.9067463835234
 30
0.0
 10
79.61462022031425
 20
100.3484111634398
 30
0.0
 10
79.80946085516638
 20
98.7676005670107
 30
0.0
 10
80.18080601138783
 20
97.67359728805746
 30
0.0
 10
80.43523817583298
 20
97.11298560506492
 30
0.0
 10
80.46273602227666
 20
97.05239729852319
 30
0.0
  0
LINE
  5
19A
330
1F
100
AcDbEntity
  8
0
  6
Continuous
 62
     7
370
    25
100
AcDbLine
 10
80.4627360223
 20
94.4560951364
 30
0.0
 11
80.4627360223
 21
97.0523972985
 31
0.0
  0
SPLINE
  5
19B
330
1F
100
AcDbEntity
  8
0
  6
Continuous
 62
     7
370
    25
100
AcDbSpline
210
0.0
220
0.0
230
1.0
 70
     8
 71
     3
 72
    11
 73
     7
 74
     0
 42
0.00000001
 43
0.00000001
 40
0.0
 40
0.0
 40
0.0
 40
0.0
 40
0.243164119738092
 40
0.4936284730588945
 40
0.7421706076863281
 40
1.0
 40
1.0
 40
1.0
 40
1.0
 10
80.46273602227666
 20
94.45609513643846
 30
0.0
 10
80.25259569906788
 20
93.88701891608117
 30
0.0
 10
79.82600625410628
 20
92.7317817618018
 30
0.0
 10
79.61562182396331
 20
90.8992021944793
 30
0.0
 10
79.80630851763028
 20
89.0279570998381
 30
0.0
 10
80.24126768802498
 20
87.8415814998727
 30
0.0
 10
80.46273602227666
 20
87.23751416251152
 30
0.0
  0
LINE
  5
19C
330
1F
100
AcDbEntity
  8
0
  6
Continuous
 62
     7
370
    25
100
AcDbLine
 10
80.4627360223
 20
85.7396381292
 30
0.0
 11
80.4627360223
 21
87.2375141625
 31
0.0
  0
SPLINE
  5
19D
330
1F
100
AcDbEntity
  8
0
  6
Continuous
 62
     7
370
    25
100
AcDbSpline
210
0.0
220
0.0
230
1.0
 70
     8
 71
     3
 72
    11
 73
     7
 74
     0
 42
0.00000001
 43
0.00000001
 40
0.0
 40
0.0
 40
0.0
 40
0.0
 40
0.2431641197380907
 40
0.4936284730588919
 40
0.7421706076863273
 40
1.0
 40
1.0
 40
1.0
 40
1.0
 10
80.46273602227666
 20
85.73963812918389
 30
0.0
 10
80.2525956990679
 20
85.68411601190782
 30
0.0
 10
79.82600625410629
 20
85.57140490139723
 30
0.0
 10
79.61562182396331
 20
85.39260864526321
 30
0.0
 10
79.80630851763027
 20
85.21003997365045
 30
0.0
 10
80.24126768802498
 20
85.09429082997083
 30
0.0
 10
80.46273602227666
 20
85.03535479232266
 30
0.0
  0
SPLINE
  5
19E
330
1F
100
AcDbEntity
  8
0
  6
Continuous
 62
     7
370
    25
100
AcDbSpline
210
0.0
220
0.0
230
1.0
 70
     8
 71
     3
 72
     9
 73
     5
 74
     0
 42
0.00000001
 43
0.00000001
 40
0.0
 40
0.0
 40
0.0
 40
0.0
 40
0.3487394647221094
 40
1.0
 40
1.0
 40
1.0
 40
1.0
 10
79.76934753769488
 20
104.3876182526918
 30
0.0
 10
79.79368937220944
 20
104.420831606792
 30
0.0
 10
79.86348885571202
 20
104.516069907759
 30
0.0
 10
80.22639171311229
 20
104.6063349830773
 30
0.0
 10
80.46273602227666
 20
104.665121064346
 30
0.0
  0
LINE
  5
19F
330
1F
100
AcDbEntity
  8
0
  6
Continuous
 62
     7
370
    25
100
AcDbLine
 10
78.4627360223
 20
99.5912160922
 30
0.0
 11
78.4627360223
 21
103.1002379283
 31
0.0
  0
LINE
  5
1A0
330
1F
100
AcDbEntity
  8
0
  6
Continuous
 62
     7
370
    25
100
AcDbLine
 10
78.4627360223
 20
86.6002379283
 30
0.0
 11
78.4627360223
 21
99.5912160922
 31
0.0
  0
SPLINE
  5
1A1
330
1F
100
AcDbEntity
  8
0
  6
Continuous
 62
     7
370
    25
100
AcDbSpline
210
0.0
220
0.0
230
1.0
 70
     8
 71
     3
 72
    27
 73
    23
 74
     0
 42
0.00000001
 43
0.00000001
 40
0.0
 40
0.0
 40
0.0
 40
0.0
 40
0.0136139090399478
 40
0.0776727084403657
 40
0.1348261364597254
 40
0.1770440798320015
 40
0.2043098191732026
 40
0.2303999875176517
 40
0.2595714286585743
 40
0.2865528382490248
 40
0.3220521810161567
 40
0.3830134828479143
 40
0.4812574504364837
 40
0.5465783976780292
 40
0.6342111976224547
 40
0.690740177653238
 40
0.7424867965677212
 40
0.7860227414525571
 40
0.8208210581933933
 40
0.8874577604484434
 40
0.9380042021573733
 40
1.0
 40
1.0
 40
1.0
 40
1.0
 10
85.86219752287921
 20
85.46238211219625
 30
0.0
 10
85.85949473426088
 20
85.4592335710959
 30
0.0
 10
85.84407426158758
 20
85.44126990509918
 30
0.0
 10
85.81632971851874
 20
85.60634056283605
 30
0.0
 10
85.78325276726434
 20
85.97935433032028
 30
0.0
 10
85.75771252245356
 20
86.40764081187486
 30
0.0
 10
85.738715054223
 20
86.79498957110555
 30
0.0
 10
85.72288362864438
 20
87.17152948220883
 30
0.0
 10
85.70692560024364
 20
87.58798809545002
 30
0.0
 10
85.68944650651991
 20
88.09606132183225
 30
0.0
 10
85.66444984820187
 20
88.8423742434675
 30
0.0
 10
85.62469556991861
 20
90.15629368636779
 30
0.0
 10
85.57868904690183
 20
91.8873322786897
 30
0.0
 10
85.5309429057737
 20
93.94687657958819
 30
0.0
 10
85.48883309826867
 20
95.71092827531686
 30
0.0
 10
85.44879232669118
 20
97.3185120979989
 30
0.0
 10
85.41801248038131
 20
98.51628810372576
 30
0.0
 10
85.39204221281017
 20
99.48760391290138
 30
0.0
 10
85.36444897341973
 20
100.5072931863017
 30
0.0
 10
85.33440111670257
 20
101.4756300022363
 30
0.0
 10
85.29825399001412
 20
102.4632824394598
 30
0.0
 10
85.27535198141376
 20
102.9350243678644
 30
0.0
 10
85.26273602227668
 20
103.1948913950695
 30
0.0
  0
LINE
  5
1A2
330
1F
100
AcDbEntity
  8
0
  6
Continuous
 62
     7
370
    25
100
AcDbLine
 10
85.2627360223
 20
104.2502379283
 30
0.0
 11
85.2627360223
 21
103.1948913952
 31
0.0
  0
SPLINE
  5
1A3
330
1F
100
AcDbEntity
  8
0
  6
Continuous
 62
     7
370
    25
100
AcDbSpline
210
0.0
220
0.0
230
1.0
 70
     8
 71
     3
 72
    35
 73
    31
 74
     0
 42
0.00000001
 43
0.00000001
 40
0.0
 40
0.0
 40
0.0
 40
0.0
 40
0.0240674770331332
 40
0.0679877929768137
 40
0.1125749483174371
 40
0.1439040808921709
 40
0.1776893127437588
 40
0.2210914069396798
 40
0.2567988075823098
 40
0.2935583688291122
 40
0.3694549076630429
 40
0.3999481985346627
 40
0.4395535899128755
 40
0.4786156453284776
 40
0.516690608577227
 40
0.5503864380236239
 40
0.5896044216402678
 40
0.6181546416382507
 40
0.6457847797213723
 40
0.6951196932308977
 40
0.7446823840802006
 40
0.776216942913968
 40
0.8205828779315805
 40
0.8620435694165094
 40
0.8879065094688606
 40
0.8964752009135436
 40
0.9214211820786599
 40
0.9463673263778011
 40
0.971313635821902
 40
1.0
 40
1.0
 40
1.0
 40
1.0
 10
86.21495173130147
 20
85.4590206961478
 30
0.0
 10
86.20926546777203
 20
85.46091064786937
 30
0.0
 10
86.19320244184209
 20
85.46624953927886
 30
0.0
 10
86.16601089622617
 20
85.63864602916846
 30
0.0
 10
86.13715842045947
 20
85.96589441535663
 30
0.0
 10
86.11100085229083
 20
86.39025318581331
 30
0.0
 10
86.08604372736801
 20
86.90742932532802
 30
0.0
 10
86.06082158484843
 20
87.56048849146406
 30
0.0
 10
86.03384189953586
 20
88.33951633399548
 30
0.0
 10
85.99758240558947
 20
89.45113724279699
 30
0.0
 10
85.96326903256052
 20
90.68063084093453
 30
0.0
 10
85.92887995670539
 20
92.02485846042605
 30
0.0
 10
85.90400534328454
 20
93.06761334234223
 30
0.0
 10
85.8775767542917
 20
94.2092210143895
 30
0.0
 10
85.8514470707889
 20
95.30201487942139
 30
0.0
 10
85.82481618343009
 20
96.38949944424024
 30
0.0
 10
85.8004564070168
 20
97.36608112464273
 30
0.0
 10
85.77761545084795
 20
98.25598950909617
 30
0.0
 10
85.75223497835599
 20
99.2069603809384
 30
0.0
 10
85.72366559314801
 20
100.2818862799452
 30
0.0
 10
85.69400365499399
 20
101.2747886155313
 30
0.0
 10
85.66410645027695
 20
102.1193978241195
 30
0.0
 10
85.63583192281394
 20
102.8050026324189
 30
0.0
 10
85.60893288914865
 20
103.3316853989315
 30
0.0
 10
85.59070604569897
 20
103.6177961032578
 30
0.0
 10
85.57690544858762
 20
103.8117519085756
 30
0.0
 10
85.5639914112436
 20
103.975524497194
 30
0.0
 10
85.54682417766156
 20
104.1220701544948
 30
0.0
 10
85.52880316307143
 20
104.2432434642125
 30
0.0
 10
85.51601425786777
 20
104.2078525734791
 30
0.0
 10
85.5091738904698
 20
104.1889231427497
 30
0.0
  0
SPLINE
  5
1A4
330
1F
100
AcDbEntity
  8
0
  6
Continuous
 62
     7
370
    25
100
AcDbSpline
210
0.0
220
0.0
230
1.0
 70
     8
 71
     3
 72
    18
 73
    14
 74
     0
 42
0.00000001
 43
0.00000001
 40
0.0
 40
0.0
 40
0.0
 40
0.0
 40
0.0774554087960547
 40
0.1860661841307256
 40
0.2602328912561668
 40
0.335619478464364
 40
0.4114978088796589
 40
0.5187351849825097
 40
0.6282504212506468
 40
0.7366780512135038
 40
0.8447168369584802
 40
0.9543674583636139
 40
1.0
 40
1.0
 40
1.0
 40
1.0
 10
85.41089455672163
 20
86.31094673935321
 30
0.0
 10
85.39389646609224
 20
86.34570939859185
 30
0.0
 10
85.35306303805822
 20
86.4292175157822
 30
0.0
 10
85.2962411017952
 20
87.40698070292693
 30
0.0
 10
85.2432028325886
 20
88.75627915325559
 30
0.0
 10
85.19304222297953
 20
90.23511724308544
 30
0.0
 10
85.13578004065906
 20
92.17216771105396
 30
0.0
 10
85.07632138012458
 20
94.5899721997924
 30
0.0
 10
85.00307121976873
 20
97.30073912585776
 30
0.0
 10
84.93330342345445
 20
99.78100634883077
 30
0.0
 10
84.86471236496598
 20
101.7736110182792
 30
0.0
 10
84.80494167774835
 20
102.8674142422536
 30
0.0
 10
84.77232188981095
 20
103.1918204373906
 30
0.0
 10
84.76273602227667
 20
103.2871525965039
 30
0.0
  0
SPLINE
  5
1A5
330
1F
100
AcDbEntity
  8
0
  6
Continuous
 62
     7
370
    25
100
AcDbSpline
210
0.0
220
0.0
230
1.0
 70
     8
 71
     3
 72
    11
 73
     7
 74
     0
 42
0.00000001
 43
0.00000001
 40
0.0
 40
0.0
 40
0.0
 40
0.0
 40
0.1701587585696636
 40
0.5148066094740528
 40
0.7558205066443126
 40
0.9999999999999999
 40
0.9999999999999999
 40
0.9999999999999999
 40
0.9999999999999999
 10
85.01114062735968
 20
103.9665851394037
 30
0.0
 10
85.02591379192451
 20
103.9878433516579
 30
0.0
 10
85.0706092447167
 20
104.0521589841067
 30
0.0
 10
85.13070801123564
 20
103.8936930973853
 30
0.0
 10
85.20050431559989
 20
103.6045821857656
 30
0.0
 10
85.24190208815207
 20
103.3320477001262
 30
0.0
 10
85.26273602226007
 20
103.1948913951872
 30
0.0
  0
SPLINE
  5
1A6
330
1F
100
AcDbEntity
  8
0
  6
Continuous
 62
     7
370
    25
100
AcDbSpline
210
0.0
220
0.0
230
1.0
 70
     8
 71
     3
 72
    16
 73
    12
 74
     0
 42
0.00000001
 43
0.00000001
 40
0.0
 40
0.0
 40
0.0
 40
0.0
 40
0.0792140638713506
 40
0.1934397168971935
 40
0.3076653699220785
 40
0.4218677295428675
 40
0.5346865681724855
 40
0.647505405374094
 40
0.760324242022115
 40
0.87828045029795
 40
0.9999999999999999
 40
0.9999999999999999
 40
0.9999999999999999
 40
0.9999999999999999
 10
84.97173908332292
 20
85.76778361812609
 30
0.0
 10
84.96626935790482
 20
85.7743406170026
 30
0.0
 10
84.95291235935342
 20
85.79035272324204
 30
0.0
 10
84.93097766949408
 20
86.10393525357237
 30
0.0
 10
84.9067365118947
 20
86.65904641153213
 30
0.0
 10
84.8838563644859
 20
87.44483365075975
 30
0.0
 10
84.86095624270544
 20
88.42657813864349
 30
0.0
 10
84.83679854555487
 20
89.5789551594872
 30
0.0
 10
84.81208124225552
 20
90.89309586178776
 30
0.0
 10
84.78705491108862
 20
92.35302959796246
 30
0.0
 10
84.77092673237318
 20
93.39990104413486
 30
0.0
 10
84.76273602227666
 20
93.93155565158912
 30
0.0
  0
SPLINE
  5
1A7
330
1F
100
AcDbEntity
  8
0
  6
Continuous
 62
     7
370
    25
100
AcDbSpline
210
0.0
220
0.0
230
1.0
 70
    24
 71
     3
 72
    10
 73
     6
 74
     0
 42
0.00000001
 43
0.00000001
 40
0.0
 40
0.0
 40
0.0
 40
0.0
 40
0.3294562546722003
 40
0.831864205694292
 40
1.0
 40
1.0
 40
1.0
 40
1.0
 10
84.76273602227666
 20
93.93155565158912
 30
0.0
 10
84.76273602227666
 20
94.58028352919717
 30
0.0
 10
84.76273602227666
 20
96.21829614229831
 30
0.0
 10
84.76273602227667
 20
98.1321596785708
 30
0.0
 10
84.76273602227667
 20
99.2351241485257
 30
0.0
 10
84.76273602227667
 20
99.51168747275177
 30
0.0
  0
SPLINE
  5
1A8
330
1F
100
AcDbEntity
  8
0
  6
Continuous
 62
     7
370
    25
100
AcDbSpline
210
0.0
220
0.0
230
1.0
 70
     8
 71
     3
 72
    15
 73
    11
 74
     0
 42
0.00000001
 43
0.00000001
 40
0.0
 40
0.0
 40
0.0
 40
0.0
 40
0.1319746667032353
 40
0.1608073069995044
 40
0.3024203969717298
 40
0.4436898895822916
 40
0.5869603891290425
 40
0.7271016041552263
 40
0.8702195989016372
 40
1.0
 40
1.0
 40
1.0
 40
1.0
 10
85.25937289986403
 20
86.23557295926918
 30
0.0
 10
85.23741334996039
 20
86.24475884214483
 30
0.0
 10
85.21065627474938
 20
86.25595157423912
 30
0.0
 10
85.15948355498932
 20
86.7528991306677
 30
0.0
 10
85.10863192365458
 20
87.6125017457251
 30
0.0
 10
85.03984863138156
 20
89.49654814337407
 30
0.0
 10
84.96611207742659
 20
91.89668214377039
 30
0.0
 10
84.89997673948407
 20
94.58400721877696
 30
0.0
 10
84.82870048279715
 20
97.24483801238374
 30
0.0
 10
84.78399588052987
 20
98.78109864009038
 30
0.0
 10
84.76273602227667
 20
99.51168747275177
 30
0.0
  0
LINE
  5
1A9
330
1F
100
AcDbEntity
  8
0
  6
Continuous
 62
     7
370
    25
100
AcDbLine
 10
83.0127360223
 20
94.4560951364
 30
0.0
 11
83.2627360223
 21
93.8205171181
 31
0.0
  0
LINE
  5
1AA
330
1F
100
AcDbEntity
  8
0
  6
Continuous
 62
     7
370
    25
100
AcDbLine
 10
83.2627360223
 20
87.8730921808
 30
0.0
 11
83.0127360223
 21
87.2375141625
 31
0.0
  0
LINE
  5
1AB
330
1F
100
AcDbEntity
  8
0
  6
Continuous
 62
     7
370
    25
100
AcDbLine
 10
80.4627360223
 20
87.2375141625
 30
0.0
 11
83.0127360223
 21
87.2375141625
 31
0.0
  0
LINE
  5
1AC
330
1F
100
AcDbEntity
  8
0
  6
Continuous
 62
     7
370
    25
100
AcDbLine
 10
83.0127360223
 20
94.4560951364
 30
0.0
 11
80.4627360223
 21
94.4560951364
 31
0.0
  0
LINE
  5
1AD
330
1F
100
AcDbEntity
  8
0
  6
Continuous
 62
     7
370
    25
100
AcDbLine
 10
83.2627360223
 20
87.8730921808
 30
0.0
 11
83.2627360223
 21
93.8205171181
 31
0.0
  0
LINE
  5
1AE
330
1F
100
AcDbEntity
  8
0
  6
Continuous
 62
     7
370
    25
100
AcDbLine
 10
84.7627360223
 20
85.9502379283
 30
0.0
 11
84.7627360223
 21
93.9315556516
 31
0.0
  0
SPLINE
  5
1AF
330
1F
100
AcDbEntity
  8
0
  6
Continuous
 62
     7
370
    25
100
AcDbSpline
210
0.0
220
0.0
230
1.0
 70
    24
 71
     3
 72
    11
 73
     7
 74
     0
 42
0.00000001
 43
0.00000001
 40
0.0
 40
0.0
 40
0.0
 40
0.0
 40
0.0521773337626352
 40
0.2615477432295232
 40
0.6847281688108031
 40
1.0
 40
1.0
 40
1.0
 40
1.0
 10
84.76273602227666
 20
99.51168747275175
 30
0.0
 10
84.76273602227666
 20
99.60991000643693
 30
0.0
 10
84.76273602227666
 20
100.1022671310174
 30
0.0
 10
84.76273602227667
 20
101.2871567774763
 30
0.0
 10
84.76273602227667
 20
102.6102630418923
 30
0.0
 10
84.76273602227667
 20
103.0846287937042
 30
0.0
 10
84.76273602227667
 20
103.2871525965039
 30
0.0
  0
LINE
  5
1B0
330
1F
100
AcDbEntity
  8
0
  6
Continuous
 62
     7
370
    25
100
AcDbLine
 10
83.0127360223
 20
94.4560951364
 30
0.0
 11
83.0127360223
 21
97.0523972985
 31
0.0
  0
LINE
  5
1B1
330
1F
100
AcDbEntity
  8
0
  6
Continuous
 62
     7
370
    25
100
AcDbLine
 10
83.2627360223
 20
97.6259649288
 30
0.0
 11
83.0127360223
 21
97.0523972985
 31
0.0
  0
LINE
  5
1B2
330
1F
100
AcDbEntity
  8
0
  6
Continuous
 62
     7
370
    25
100
AcDbLine
 10
83.2627360223
 20
97.6259649288
 30
0.0
 11
83.2627360223
 21
93.8205171181
 31
0.0
  0
LINE
  5
1B3
330
1F
100
AcDbEntity
  8
0
  6
Continuous
 62
     7
370
    25
100
AcDbLine
 10
80.4627360223
 20
97.0523972985
 30
0.0
 11
83.0127360223
 21
97.0523972985
 31
0.0
  0
LINE
  5
1B4
330
1F
100
AcDbEntity
  8
0
  6
Continuous
 62
     7
370
    25
100
AcDbLine
 10
83.0127360223
 20
103.5666949356
 30
0.0
 11
83.2627360223
 21
102.9931273053
 31
0.0
  0
LINE
  5
1B5
330
1F
100
AcDbEntity
  8
0
  6
Continuous
 62
     7
370
    25
100
AcDbLine
 10
83.0127360223
 20
103.5666949356
 30
0.0
 11
80.4627360223
 21
103.5666949356
 31
0.0
  0
LINE
  5
1B6
330
1F
100
AcDbEntity
  8
0
  6
Continuous
 62
     7
370
    25
100
AcDbLine
 10
83.2627360223
 20
97.6259649288
 30
0.0
 11
83.2627360223
 21
102.9931273053
 31
0.0
  0
LINE
  5
1B7
330
1F
100
AcDbEntity
  8
0
  6
Continuous
 62
     7
370
    25
100
AcDbLine
 10
83.0127360223
 20
85.7396381292
 30
0.0
 11
83.2627360223
 21
85.6776277411
 31
0.0
  0
LINE
  5
1B8
330
1F
100
AcDbEntity
  8
0
  6
Continuous
 62
     7
370
    25
100
AcDbLine
 10
83.0127360223
 20
85.7396381292
 30
0.0
 11
83.0127360223
 21
87.2375141625
 31
0.0
  0
LINE
  5
1B9
330
1F
100
AcDbEntity
  8
0
  6
Continuous
 62
     7
370
    25
100
AcDbLine
 10
83.2627360223
 20
87.8730921808
 30
0.0
 11
83.2627360223
 21
85.6776277411
 31
0.0
  0
LINE
  5
1BA
330
1F
100
AcDbEntity
  8
0
  6
Continuous
 62
     7
370
    25
100
AcDbLine
 10
83.0127360223
 20
85.7396381292
 30
0.0
 11
80.4627360223
 21
85.7396381292
 31
0.0
  0
LINE
  5
1BB
330
1F
100
AcDbEntity
  8
0
  6
Continuous
 62
     7
370
    25
100
AcDbLine
 10
83.0127360223
 20
103.5666949356
 30
0.0
 11
83.0127360223
 21
104.6651210643
 31
0.0
  0
LINE
  5
1BC
330
1F
100
AcDbEntity
  8
0
  6
Continuous
 62
     7
370
    25
100
AcDbLine
 10
83.2627360223
 20
104.6031106763
 30
0.0
 11
83.0127360223
 21
104.6651210643
 31
0.0
  0
LINE
  5
1BD
330
1F
100
AcDbEntity
  8
0
  6
Continuous
 62
     7
370
    25
100
AcDbLine
 10
83.2627360223
 20
104.6031106763
 30
0.0
 11
83.2627360223
 21
102.9931273053
 31
0.0
  0
LINE
  5
1BE
330
1F
100
AcDbEntity
  8
0
  6
Continuous
 62
     7
370
    25
100
AcDbLine
 10
80.4627360223
 20
104.6651210643
 30
0.0
 11
83.0127360223
 21
104.6651210643
 31
0.0
  0
LINE
  5
1BF
330
1F
100
AcDbEntity
  8
0
  6
Continuous
 62
     7
370
    25
100
AcDbLine
 10
83.2627360223
 20
85.0973651804
 30
0.0
 11
83.0127360223
 21
85.0353547923
 31
0.0
  0
LINE
  5
1C0
330
1F
100
AcDbEntity
  8
0
  6
Continuous
 62
     7
370
    25
100
AcDbLine
 10
80.4627360223
 20
85.0353547923
 30
0.0
 11
83.0127360223
 21
85.0353547923
 31
0.0
  0
LINE
  5
1C1
330
1F
100
AcDbEntity
  8
0
  6
Continuous
 62
     7
370
    25
100
AcDbLine
 10
83.2627360223
 20
85.0973651804
 30
0.0
 11
83.2627360223
 21
85.6776277411
 31
0.0
  0
SPLINE
  5
1C2
330
1F
100
AcDbEntity
  8
0
  6
Continuous
 62
     7
370
    25
100
AcDbSpline
210
0.0
220
0.0
230
1.0
 70
     8
 71
     3
 72
     9
 73
     5
 74
     0
 42
0.00000001
 43
0.00000001
 40
0.0
 40
0.0
 40
0.0
 40
0.0
 40
0.5841917497409228
 40
1.0
 40
1.0
 40
1.0
 40
1.0
 10
191.6627360222767
 20
97.1389702293363
 30
0.0
 10
191.636568058456
 20
97.61242835372752
 30
0.0
 10
191.5917746086474
 20
98.42287821817905
 30
0.0
 10
191.3491601911334
 20
99.08884238529438
 30
0.0
 10
191.2482791146993
 20
99.36575578035786
 30
0.0
  0
LINE
  5
1C3
330
1F
100
AcDbEntity
  8
0
  6
Continuous
 62
     7
370
    25
100
AcDbLine
 10
191.6627360223
 20
97.1389702293
 30
0.0
 11
191.6627360223
 21
95.6910176396
 31
0.0
  0
SPLINE
  5
1C4
330
1F
100
AcDbEntity
  8
0
  6
Continuous
 62
     7
370
    25
100
AcDbSpline
210
0.0
220
0.0
230
1.0
 70
     8
 71
     3
 72
     9
 73
     5
 74
     0
 42
0.00000001
 43
0.00000001
 40
0.0
 40
0.0
 40
0.0
 40
0.0
 40
0.5850553834536185
 40
1.0
 40
1.0
 40
1.0
 40
1.0
 10
191.2482791146993
 20
93.34643909985243
 30
0.0
 10
191.3848332487236
 20
93.78117052946384
 30
0.0
 10
191.6182370219156
 20
94.52423083094364
 30
0.0
 10
191.6496863096409
 20
95.34884742374771
 30
0.0
 10
191.6627360222767
 20
95.69101763964657
 30
0.0
  0
SPLINE
  5
1C5
330
1F
100
AcDbEntity
  8
0
  6
Continuous
 62
     7
370
    25
100
AcDbSpline
210
0.0
220
0.0
230
1.0
 70
     8
 71
     3
 72
    11
 73
     7
 74
     0
 42
0.00000001
 43
0.00000001
 40
0.0
 40
0.0
 40
0.0
 40
0.0
 40
0.2328716322111435
 40
0.4710265024313177
 40
0.7311421212560258
 40
1.0
 40
1.0
 40
1.0
 40
1.0
 10
191.2482791146993
 20
82.65808080282375
 30
0.0
 10
190.9778823800266
 20
83.468690914658
 30
0.0
 10
190.4309543278957
 20
85.10830172593337
 30
0.0
 10
190.1297300099121
 20
87.76331549228405
 30
0.0
 10
190.3373817753218
 20
90.5629078073148
 30
0.0
 10
190.9413196071021
 20
92.40842846132894
 30
0.0
 10
191.2482791146993
 20
93.34643909985243
 30
0.0
  0
SPLINE
  5
1C6
330
1F
100
AcDbEntity
  8
0
  6
Continuous
 62
     7
370
    25
100
AcDbSpline
210
0.0
220
0.0
230
1.0
 70
     8
 71
     3
 72
     9
 73
     5
 74
     0
 42
0.00000001
 43
0.00000001
 40
0.0
 40
0.0
 40
0.0
 40
0.0
 40
0.5841917497409231
 40
0.9999999999999999
 40
0.9999999999999999
 40
0.9999999999999999
 40
0.9999999999999999
 10
191.6627360222767
 20
80.79464426504754
 30
0.0
 10
191.636568058456
 20
81.11708505165963
 30
0.0
 10
191.5917746086473
 20
81.66902846194418
 30
0.0
 10
191.3491601911334
 20
82.3676063524873
 30
0.0
 10
191.2482791146993
 20
82.65808080282378
 30
0.0
  0
LINE
  5
1C7
330
1F
100
AcDbEntity
  8
0
  6
Continuous
 62
     7
370
    25
100
AcDbLine
 10
191.6627360223
 20
80.794644265
 30
0.0
 11
191.6627360223
 21
79.9592817586
 31
0.0
  0
SPLINE
  5
1C8
330
1F
100
AcDbEntity
  8
0
  6
Continuous
 62
     7
370
    25
100
AcDbSpline
210
0.0
220
0.0
230
1.0
 70
     8
 71
     3
 72
     9
 73
     5
 74
     0
 42
0.00000001
 43
0.00000001
 40
0.0
 40
0.0
 40
0.0
 40
0.0
 40
0.5850553834536119
 40
0.9999999999999999
 40
0.9999999999999999
 40
0.9999999999999999
 40
0.9999999999999999
 10
191.2482791146993
 20
79.18537630624908
 30
0.0
 10
191.3848332487236
 20
79.25806183194311
 30
0.0
 10
191.6182370219155
 20
79.38229883197711
 30
0.0
 10
191.6496863096409
 20
79.79007657813281
 30
0.0
 10
191.6627360222767
 20
79.95928175864752
 30
0.0
  0
SPLINE
  5
1C9
330
1F
100
AcDbEntity
  8
0
  6
Continuous
 62
     7
370
    25
100
AcDbSpline
210
0.0
220
0.0
230
1.0
 70
     8
 71
     3
 72
    11
 73
     7
 74
     0
 42
0.00000001
 43
0.00000001
 40
0.0
 40
0.0
 40
0.0
 40
0.0
 40
0.2379053903768123
 40
0.4814905141302427
 40
0.7366519444347667
 40
1.0
 40
1.0
 40
1.0
 40
1.0
 10
191.2482791146994
 20
78.14256295080018
 30
0.0
 10
190.9726936797263
 20
78.2233852815735
 30
0.0
 10
190.4149435061729
 20
78.38695948867999
 30
0.0
 10
190.1283802815165
 20
78.64820697481878
 30
0.0
 10
190.3532606877146
 20
78.91932999916185
 30
0.0
 10
190.9468158046327
 20
79.09576563685125
 30
0.0
 10
191.2482791146993
 20
79.18537630624908
 30
0.0
  0
LINE
  5
1CA
330
1F
100
AcDbEntity
  8
0
  6
Continuous
 62
     7
370
    25
100
AcDbLine
 10
191.3690831059
 20
78.1469058777
 30
0.0
 11
191.2482791147
 21
78.1425629508
 31
0.0
  0
SPLINE
  5
1CB
330
1F
100
AcDbEntity
  8
0
  6
Continuous
 62
     7
370
    25
100
AcDbSpline
210
0.0
220
0.0
230
1.0
 70
     8
 71
     3
 72
     9
 73
     5
 74
     0
 42
0.00000001
 43
0.00000001
 40
0.0
 40
0.0
 40
0.0
 40
0.0
 40
0.6721061852891758
 40
1.0
 40
1.0
 40
1.0
 40
1.0
 10
191.2482791146993
 20
111.5579129058684
 30
0.0
 10
190.9314728677112
 20
111.4711966718389
 30
0.0
 10
190.4601094820999
 20
111.3421750441148
 30
0.0
 10
190.3775817985963
 20
111.2072940423174
 30
0.0
 10
190.3505214816331
 20
111.1630673961061
 30
0.0
  0
SPLINE
  5
1CC
330
1F
100
AcDbEntity
  8
0
  6
Continuous
 62
     7
370
    25
100
AcDbSpline
210
0.0
220
0.0
230
1.0
 70
     8
 71
     3
 72
     9
 73
     5
 74
     0
 42
0.00000001
 43
0.00000001
 40
0.0
 40
0.0
 40
0.0
 40
0.0
 40
0.584191749740928
 40
1.0
 40
1.0
 40
1.0
 40
1.0
 10
191.6627360222767
 20
111.1945638926231
 30
0.0
 10
191.636568058456
 20
111.3455812304022
 30
0.0
 10
191.5917746086474
 20
111.6040876845692
 30
0.0
 10
191.3491601911334
 20
111.5714739611414
 30
0.0
 10
191.2482791146993
 20
111.5579129058684
 30
0.0
  0
LINE
  5
1CD
330
1F
100
AcDbEntity
  8
0
  6
Continuous
 62
     7
370
    25
100
AcDbLine
 10
191.6627360223
 20
111.1945638926
 30
0.0
 11
191.6627360223
 21
110.5819738093
 31
0.0
  0
SPLINE
  5
1CE
330
1F
100
AcDbEntity
  8
0
  6
Continuous
 62
     7
370
    25
100
AcDbSpline
210
0.0
220
0.0
230
1.0
 70
     8
 71
     3
 72
     9
 73
     5
 74
     0
 42
0.00000001
 43
0.00000001
 40
0.0
 40
0.0
 40
0.0
 40
0.0
 40
0.585055383453618
 40
1.0
 40
1.0
 40
1.0
 40
1.0
 10
191.2482791146993
 20
109.0113007219377
 30
0.0
 10
191.3848332487236
 20
109.3733466258551
 30
0.0
 10
191.6182370219156
 20
109.9921699273008
 30
0.0
 10
191.6496863096409
 20
110.4090087739492
 30
0.0
 10
191.6627360222767
 20
110.5819738093333
 30
0.0
  0
SPLINE
  5
1CF
330
1F
100
AcDbEntity
  8
0
  6
Continuous
 62
     7
370
    25
100
AcDbSpline
210
0.0
220
0.0
230
1.0
 70
     8
 71
     3
 72
    11
 73
     7
 74
     0
 42
0.00000001
 43
0.00000001
 40
0.0
 40
0.0
 40
0.0
 40
0.0
 40
0.232871632211144
 40
0.4710265024313168
 40
0.7311421212560267
 40
0.9999999999999999
 40
0.9999999999999999
 40
0.9999999999999999
 40
0.9999999999999999
 10
191.2482791146993
 20
99.36575578035783
 30
0.0
 10
190.9778823800266
 20
100.0972784376746
 30
0.0
 10
190.4309543278958
 20
101.5769200559065
 30
0.0
 10
190.1297300099121
 20
103.9728964904696
 30
0.0
 10
190.3373817753218
 20
106.499345617857
 30
0.0
 10
190.9413196071021
 20
108.1648074141606
 30
0.0
 10
191.2482791146993
 20
109.0113007219377
 30
0.0
  0
LINE
  5
1D0
330
1F
100
AcDbEntity
  8
0
  6
Continuous
 62
     7
370
    25
100
AcDbLine
 10
190.1627360223
 20
78.6502379283
 30
0.0
 11
190.1627360223
 21
111.0502379283
 31
0.0
  0
SPLINE
  5
1D1
330
1F
100
AcDbEntity
  8
0
  6
Continuous
 62
     7
370
    25
100
AcDbSpline
210
0.0
220
0.0
230
1.0
 70
     8
 71
     3
 72
     9
 73
     5
 74
     0
 42
0.00000001
 43
0.00000001
 40
0.0
 40
0.0
 40
0.0
 40
0.0
 40
0.5850553834534044
 40
1.0
 40
1.0
 40
1.0
 40
1.0
 10
198.5271929298546
 20
111.5579129058683
 30
0.0
 10
198.3906387958301
 20
111.567450236748
 30
0.0
 10
198.1572350226379
 20
111.583751823144
 30
0.0
 10
198.1257857349125
 20
111.3086965835468
 30
0.0
 10
198.1127360222767
 20
111.1945638926231
 30
0.0
  0
SPLINE
  5
1D2
330
1F
100
AcDbEntity
  8
0
  6
Continuous
 62
     7
370
    25
100
AcDbSpline
210
0.0
220
0.0
230
1.0
 70
     8
 71
     3
 72
     9
 73
     5
 74
     0
 42
0.00000001
 43
0.00000001
 40
0.0
 40
0.0
 40
0.0
 40
0.0
 40
0.307597899551815
 40
1.0
 40
1.0
 40
1.0
 40
1.0
 10
199.4294770347251
 20
111.1631051129261
 30
0.0
 10
199.4045889139283
 20
111.2045889484162
 30
0.0
 10
199.3236776956365
 20
111.3394527935548
 30
0.0
 10
198.8530538612824
 20
111.468535658824
 30
0.0
 10
198.5271929298546
 20
111.5579129058683
 30
0.0
  0
LINE
  5
1D3
330
1F
100
AcDbEntity
  8
0
  6
Continuous
 62
     7
370
    25
100
AcDbLine
 10
198.5271929299
 20
78.1425629508
 30
0.0
 11
198.4193826577
 21
78.1650777492
 31
0.0
  0
SPLINE
  5
1D4
330
1F
100
AcDbEntity
  8
0
  6
Continuous
 62
     7
370
    25
100
AcDbSpline
210
0.0
220
0.0
230
1.0
 70
     8
 71
     3
 72
    11
 73
     7
 74
     0
 42
0.00000001
 43
0.00000001
 40
0.0
 40
0.0
 40
0.0
 40
0.0
 40
0.2556279644380969
 40
0.5185037642963868
 40
0.7560467972580112
 40
1.0
 40
1.0
 40
1.0
 40
1.0
 10
198.527192929854
 20
79.18537630624908
 30
0.0
 10
198.820818889956
 20
79.0984381410935
 30
0.0
 10
199.4163960050916
 20
78.92209684763104
 30
0.0
 10
199.6482849667182
 20
78.65308359932236
 30
0.0
 10
199.3653145082574
 20
78.38911279757149
 30
0.0
 10
198.8090353746932
 20
78.2254724157028
 30
0.0
 10
198.527192929854
 20
78.14256295080021
 30
0.0
  0
SPLINE
  5
1D5
330
1F
100
AcDbEntity
  8
0
  6
Continuous
 62
     7
370
    25
100
AcDbSpline
210
0.0
220
0.0
230
1.0
 70
     8
 71
     3
 72
     9
 73
     5
 74
     0
 42
0.00000001
 43
0.00000001
 40
0.0
 40
0.0
 40
0.0
 40
0.0
 40
0.5841917497409203
 40
1.0
 40
1.0
 40
1.0
 40
1.0
 10
198.1127360222767
 20
79.95928175864752
 30
0.0
 10
198.1389039860973
 20
79.72963348243375
 30
0.0
 10
198.183697435906
 20
79.33652920406004
 30
0.0
 10
198.4263118534199
 20
79.22976835012143
 30
0.0
 10
198.527192929854
 20
79.18537630624908
 30
0.0
  0
LINE
  5
1D6
330
1F
100
AcDbEntity
  8
0
  6
Continuous
 62
     7
370
    25
100
AcDbLine
 10
198.1127360223
 20
79.9592817586
 30
0.0
 11
198.1127360223
 21
80.794644265
 31
0.0
  0
SPLINE
  5
1D7
330
1F
100
AcDbEntity
  8
0
  6
Continuous
 62
     7
370
    25
100
AcDbSpline
210
0.0
220
0.0
230
1.0
 70
     8
 71
     3
 72
     9
 73
     5
 74
     0
 42
0.00000001
 43
0.00000001
 40
0.0
 40
0.0
 40
0.0
 40
0.0
 40
0.5850553834536245
 40
1.0
 40
1.0
 40
1.0
 40
1.0
 10
198.527192929854
 20
82.65808080282375
 30
0.0
 10
198.3906387958297
 20
82.25006568850912
 30
0.0
 10
198.1572350226378
 20
81.5526699788823
 30
0.0
 10
198.1257857349125
 20
81.01694179208943
 30
0.0
 10
198.1127360222767
 20
80.79464426504754
 30
0.0
  0
SPLINE
  5
1D8
330
1F
100
AcDbEntity
  8
0
  6
Continuous
 62
     7
370
    25
100
AcDbSpline
210
0.0
220
0.0
230
1.0
 70
     8
 71
     3
 72
    11
 73
     7
 74
     0
 42
0.00000001
 43
0.00000001
 40
0.0
 40
0.0
 40
0.0
 40
0.0
 40
0.2328716322111481
 40
0.4710265024313218
 40
0.7311421212560294
 40
0.9999999999999999
 40
0.9999999999999999
 40
0.9999999999999999
 40
0.9999999999999999
 10
198.527192929854
 20
93.3464390998524
 30
0.0
 10
198.7975896645268
 20
92.53582898801818
 30
0.0
 10
199.3445177166576
 20
90.89621817674279
 30
0.0
 10
199.6457420346412
 20
88.2412044103921
 30
0.0
 10
199.4380902692315
 20
85.44161209536131
 30
0.0
 10
198.8341524374513
 20
83.59609144134724
 30
0.0
 10
198.527192929854
 20
82.65808080282375
 30
0.0
  0
SPLINE
  5
1D9
330
1F
100
AcDbEntity
  8
0
  6
Continuous
 62
     7
370
    25
100
AcDbSpline
210
0.0
220
0.0
230
1.0
 70
     8
 71
     3
 72
     9
 73
     5
 74
     0
 42
0.00000001
 43
0.00000001
 40
0.0
 40
0.0
 40
0.0
 40
0.0
 40
0.5841917497409231
 40
1.0
 40
1.0
 40
1.0
 40
1.0
 10
198.1127360222767
 20
95.69101763964655
 30
0.0
 10
198.1389039860973
 20
95.20752739475668
 30
0.0
 10
198.183697435906
 20
94.3799048802239
 30
0.0
 10
198.4263118534199
 20
93.64995731834023
 30
0.0
 10
198.527192929854
 20
93.34643909985243
 30
0.0
  0
LINE
  5
1DA
330
1F
100
AcDbEntity
  8
0
  6
Continuous
 62
     7
370
    25
100
AcDbLine
 10
198.1127360223
 20
95.6910176396
 30
0.0
 11
198.1127360223
 21
97.1389702293
 31
0.0
  0
SPLINE
  5
1DB
330
1F
100
AcDbEntity
  8
0
  6
Continuous
 62
     7
370
    25
100
AcDbSpline
210
0.0
220
0.0
230
1.0
 70
     8
 71
     3
 72
     9
 73
     5
 74
     0
 42
0.00000001
 43
0.00000001
 40
0.0
 40
0.0
 40
0.0
 40
0.0
 40
0.5850553834536216
 40
1.0
 40
1.0
 40
1.0
 40
1.0
 10
198.527192929854
 20
99.36575578035786
 30
0.0
 10
198.3906387958297
 20
98.96727799692287
 30
0.0
 10
198.1572350226378
 20
98.28618387369173
 30
0.0
 10
198.1257857349125
 20
97.47540044730182
 30
0.0
 10
198.1127360222767
 20
97.1389702293363
 30
0.0
  0
SPLINE
  5
1DC
330
1F
100
AcDbEntity
  8
0
  6
Continuous
 62
     7
370
    25
100
AcDbSpline
210
0.0
220
0.0
230
1.0
 70
     8
 71
     3
 72
    11
 73
     7
 74
     0
 42
0.00000001
 43
0.00000001
 40
0.0
 40
0.0
 40
0.0
 40
0.0
 40
0.2328716322111493
 40
0.471026502431326
 40
0.731142121256032
 40
0.9999999999999999
 40
0.9999999999999999
 40
0.9999999999999999
 40
0.9999999999999999
 10
198.527192929854
 20
109.0113007219377
 30
0.0
 10
198.7975896645268
 20
108.2797780646209
 30
0.0
 10
199.3445177166576
 20
106.8001364463891
 30
0.0
 10
199.6457420346412
 20
104.4041600118259
 30
0.0
 10
199.4380902692315
 20
101.8777108844386
 30
0.0
 10
198.8341524374513
 20
100.212249088135
 30
0.0
 10
198.527192929854
 20
99.36575578035786
 30
0.0
  0
SPLINE
  5
1DD
330
1F
100
AcDbEntity
  8
0
  6
Continuous
 62
     7
370
    25
100
AcDbSpline
210
0.0
220
0.0
230
1.0
 70
     8
 71
     3
 72
     9
 73
     5
 74
     0
 42
0.00000001
 43
0.00000001
 40
0.0
 40
0.0
 40
0.0
 40
0.0
 40
0.5841917497409262
 40
1.0
 40
1.0
 40
1.0
 40
1.0
 10
198.1127360222767
 20
110.5819738093333
 30
0.0
 10
198.1389039860973
 20
110.3281318406573
 30
0.0
 10
198.183697435906
 20
109.8936136044982
 30
0.0
 10
198.4263118534199
 20
109.2704268965531
 30
0.0
 10
198.527192929854
 20
109.0113007219377
 30
0.0
  0
LINE
  5
1DE
330
1F
100
AcDbEntity
  8
0
  6
Continuous
 62
     7
370
    25
100
AcDbLine
 10
198.1127360223
 20
110.5819738093
 30
0.0
 11
198.1127360223
 21
111.1945638926
 31
0.0
  0
LINE
  5
1DF
330
1F
100
AcDbEntity
  8
0
  6
Continuous
 62
     7
370
    25
100
AcDbLine
 10
199.6127360223
 20
111.0502379283
 30
0.0
 11
199.6127360223
 21
78.6502379283
 31
0.0
  0
LINE
  5
1E0
330
1F
100
AcDbEntity
  8
0
  6
Continuous
 62
     7
370
    25
100
AcDbLine
 10
191.2482791147
 20
82.6580808028
 30
0.0
 11
198.5271929299
 21
82.6580808028
 31
0.0
  0
LINE
  5
1E1
330
1F
100
AcDbEntity
  8
0
  6
Continuous
 62
     7
370
    25
100
AcDbLine
 10
198.5271929299
 20
93.3464390999
 30
0.0
 11
191.2482791147
 21
93.3464390999
 31
0.0
  0
LINE
  5
1E2
330
1F
100
AcDbEntity
  8
0
  6
Continuous
 62
     7
370
    25
100
AcDbLine
 10
191.6627360223
 20
95.6910176396
 30
0.0
 11
198.1127360223
 21
95.6910176396
 31
0.0
  0
LINE
  5
1E3
330
1F
100
AcDbEntity
  8
0
  6
Continuous
 62
     7
370
    25
100
AcDbLine
 10
191.2482791147
 20
99.3657557804
 30
0.0
 11
198.5271929299
 21
99.3657557804
 31
0.0
  0
LINE
  5
1E4
330
1F
100
AcDbEntity
  8
0
  6
Continuous
 62
     7
370
    25
100
AcDbLine
 10
198.5271929299
 20
109.0113007219
 30
0.0
 11
191.2482791147
 21
109.0113007219
 31
0.0
  0
LINE
  5
1E5
330
1F
100
AcDbEntity
  8
0
  6
Continuous
 62
     7
370
    25
100
AcDbLine
 10
198.1127360223
 20
97.1389702293
 30
0.0
 11
191.6627360223
 21
97.1389702293
 31
0.0
  0
LINE
  5
1E6
330
1F
100
AcDbEntity
  8
0
  6
Continuous
 62
     7
370
    25
100
AcDbLine
 10
207.3627360223
 20
84.2752379283
 30
0.0
 11
207.3627360223
 21
105.4252379283
 31
0.0
  0
LINE
  5
1E7
330
1F
100
AcDbEntity
  8
0
  6
Continuous
 62
     7
370
    25
100
AcDbLine
 10
198.1127360223
 20
80.794644265
 30
0.0
 11
191.6627360223
 21
80.794644265
 31
0.0
  0
LINE
  5
1E8
330
1F
100
AcDbEntity
  8
0
  6
Continuous
 62
     7
370
    25
100
AcDbLine
 10
191.6627360223
 20
79.9592817586
 30
0.0
 11
198.1127360223
 21
79.9592817586
 31
0.0
  0
LINE
  5
1E9
330
1F
100
AcDbEntity
  8
0
  6
Continuous
 62
     7
370
    25
100
AcDbLine
 10
191.6627360223
 20
110.5819738093
 30
0.0
 11
198.1127360223
 21
110.5819738093
 31
0.0
  0
LINE
  5
1EA
330
1F
100
AcDbEntity
  8
0
  6
Continuous
 62
     7
370
    25
100
AcDbLine
 10
198.5271929299
 20
79.1853763062
 30
0.0
 11
191.2482791147
 21
79.1853763062
 31
0.0
  0
LINE
  5
1EB
330
1F
100
AcDbEntity
  8
0
  6
Continuous
 62
     7
370
    25
100
AcDbLine
 10
198.1127360223
 20
111.1945638926
 30
0.0
 11
191.6627360223
 21
111.1945638926
 31
0.0
  0
LINE
  5
1EC
330
1F
100
AcDbEntity
  8
0
  6
Continuous
 62
     7
370
    25
100
AcDbLine
 10
191.2482791147
 20
78.1425629508
 30
0.0
 11
198.5271929299
 21
78.1425629508
 31
0.0
  0
SPLINE
  5
1ED
330
1F
100
AcDbEntity
  8
0
  6
Continuous
 62
     7
370
    25
100
AcDbSpline
210
0.0
220
0.0
230
1.0
 70
     8
 71
     3
 72
     9
 73
     5
 74
     0
 42
0.00000001
 43
0.00000001
 40
0.0
 40
0.0
 40
0.0
 40
0.0
 40
0.5841917497409239
 40
1.0
 40
1.0
 40
1.0
 40
1.0
 10
101.6127360222767
 20
110.5819738093333
 30
0.0
 10
101.6389039860973
 20
110.3281318406573
 30
0.0
 10
101.683697435906
 20
109.8936136044982
 30
0.0
 10
101.9263118534199
 20
109.2704268965531
 30
0.0
 10
102.027192929854
 20
109.0113007219377
 30
0.0
  0
LINE
  5
1EE
330
1F
100
AcDbEntity
  8
0
  6
Continuous
 62
     7
370
    25
100
AcDbLine
 10
101.6127360223
 20
110.5819738093
 30
0.0
 11
101.6127360223
 21
111.1945638926
 31
0.0
  0
SPLINE
  5
1EF
330
1F
100
AcDbEntity
  8
0
  6
Continuous
 62
     7
370
    25
100
AcDbSpline
210
0.0
220
0.0
230
1.0
 70
     8
 71
     3
 72
     9
 73
     5
 74
     0
 42
0.00000001
 43
0.00000001
 40
0.0
 40
0.0
 40
0.0
 40
0.0
 40
0.5850553834536204
 40
1.0
 40
1.0
 40
1.0
 40
1.0
 10
102.027192929854
 20
111.5579129058684
 30
0.0
 10
101.8906387958297
 20
111.5674502367481
 30
0.0
 10
101.6572350226378
 20
111.5837518231437
 30
0.0
 10
101.6257857349125
 20
111.3086965835467
 30
0.0
 10
101.6127360222767
 20
111.1945638926231
 30
0.0
  0
SPLINE
  5
1F0
330
1F
100
AcDbEntity
  8
0
  6
Continuous
 62
     7
370
    25
100
AcDbSpline
210
0.0
220
0.0
230
1.0
 70
     8
 71
     3
 72
     9
 73
     5
 74
     0
 42
0.00000001
 43
0.00000001
 40
0.0
 40
0.0
 40
0.0
 40
0.0
 40
0.2910559175694163
 40
1.0
 40
1.0
 40
1.0
 40
1.0
 10
102.9266193776244
 20
111.164267686185
 30
0.0
 10
102.9053304356257
 20
111.203414650463
 30
0.0
 10
102.8321866144093
 20
111.3379144558785
 30
0.0
 10
102.3611392040046
 20
111.466648012612
 30
0.0
 10
102.027192929854
 20
111.5579129058684
 30
0.0
  0
LINE
  5
1F1
330
1F
100
AcDbEntity
  8
0
  6
Continuous
 62
     7
370
    25
100
AcDbLine
 10
102.0271929299
 20
78.1425629508
 30
0.0
 11
101.9193826577
 21
78.1650777492
 31
0.0
  0
SPLINE
  5
1F2
330
1F
100
AcDbEntity
  8
0
  6
Continuous
 62
     7
370
    25
100
AcDbSpline
210
0.0
220
0.0
230
1.0
 70
     8
 71
     3
 72
    11
 73
     7
 74
     0
 42
0.00000001
 43
0.00000001
 40
0.0
 40
0.0
 40
0.0
 40
0.0
 40
0.2328716322111447
 40
0.4710265024313176
 40
0.7311421212560256
 40
0.9999999999999999
 40
0.9999999999999999
 40
0.9999999999999999
 40
0.9999999999999999
 10
102.027192929854
 20
79.18537630624908
 30
0.0
 10
102.2975896645268
 20
79.10628885173162
 30
0.0
 10
102.8445177166576
 20
78.94631965868807
 30
0.0
 10
103.1457420346412
 20
78.68728232690061
 30
0.0
 10
102.9380902692315
 20
78.41413913925699
 30
0.0
 10
102.3341524374513
 20
78.23408028154662
 30
0.0
 10
102.027192929854
 20
78.14256295080024
 30
0.0
  0
SPLINE
  5
1F3
330
1F
100
AcDbEntity
  8
0
  6
Continuous
 62
     7
370
    25
100
AcDbSpline
210
0.0
220
0.0
230
1.0
 70
     8
 71
     3
 72
     9
 73
     5
 74
     0
 42
0.00000001
 43
0.00000001
 40
0.0
 40
0.0
 40
0.0
 40
0.0
 40
0.5841917497409196
 40
1.0
 40
1.0
 40
1.0
 40
1.0
 10
101.6127360222767
 20
79.95928175864752
 30
0.0
 10
101.6389039860973
 20
79.72963348243373
 30
0.0
 10
101.683697435906
 20
79.33652920406001
 30
0.0
 10
101.9263118534199
 20
79.22976835012143
 30
0.0
 10
102.027192929854
 20
79.18537630624908
 30
0.0
  0
LINE
  5
1F4
330
1F
100
AcDbEntity
  8
0
  6
Continuous
 62
     7
370
    25
100
AcDbLine
 10
101.6127360223
 20
79.9592817586
 30
0.0
 11
101.6127360223
 21
80.794644265
 31
0.0
  0
SPLINE
  5
1F5
330
1F
100
AcDbEntity
  8
0
  6
Continuous
 62
     7
370
    25
100
AcDbSpline
210
0.0
220
0.0
230
1.0
 70
     8
 71
     3
 72
     9
 73
     5
 74
     0
 42
0.00000001
 43
0.00000001
 40
0.0
 40
0.0
 40
0.0
 40
0.0
 40
0.5850553834536146
 40
1.0
 40
1.0
 40
1.0
 40
1.0
 10
102.027192929854
 20
82.65808080282378
 30
0.0
 10
101.8906387958297
 20
82.25006568850915
 30
0.0
 10
101.6572350226378
 20
81.55266997888239
 30
0.0
 10
101.6257857349125
 20
81.01694179208937
 30
0.0
 10
101.6127360222767
 20
80.79464426504751
 30
0.0
  0
SPLINE
  5
1F6
330
1F
100
AcDbEntity
  8
0
  6
Continuous
 62
     7
370
    25
100
AcDbSpline
210
0.0
220
0.0
230
1.0
 70
     8
 71
     3
 72
    11
 73
     7
 74
     0
 42
0.00000001
 43
0.00000001
 40
0.0
 40
0.0
 40
0.0
 40
0.0
 40
0.2556279644380998
 40
0.5185037642963946
 40
0.7560467972580136
 40
1.0
 40
1.0
 40
1.0
 40
1.0
 10
102.027192929854
 20
93.34643909985243
 30
0.0
 10
102.320818889956
 20
92.4553628070397
 30
0.0
 10
102.9163960050916
 20
90.64794548040139
 30
0.0
 10
103.1482849667182
 20
87.89068314812751
 30
0.0
 10
102.8653145082574
 20
85.18510357885467
 30
0.0
 10
102.3090353746932
 20
83.50786476700411
 30
0.0
 10
102.027192929854
 20
82.65808080282378
 30
0.0
  0
SPLINE
  5
1F7
330
1F
100
AcDbEntity
  8
0
  6
Continuous
 62
     7
370
    25
100
AcDbSpline
210
0.0
220
0.0
230
1.0
 70
     8
 71
     3
 72
     9
 73
     5
 74
     0
 42
0.00000001
 43
0.00000001
 40
0.0
 40
0.0
 40
0.0
 40
0.0
 40
0.5841917497409213
 40
1.0
 40
1.0
 40
1.0
 40
1.0
 10
101.6127360222767
 20
95.69101763964655
 30
0.0
 10
101.6389039860973
 20
95.20752739475668
 30
0.0
 10
101.683697435906
 20
94.3799048802239
 30
0.0
 10
101.9263118534199
 20
93.6499573183402
 30
0.0
 10
102.027192929854
 20
93.34643909985243
 30
0.0
  0
LINE
  5
1F8
330
1F
100
AcDbEntity
  8
0
  6
Continuous
 62
     7
370
    25
100
AcDbLine
 10
101.6127360223
 20
95.6910176396
 30
0.0
 11
101.6127360223
 21
97.1389702293
 31
0.0
  0
SPLINE
  5
1F9
330
1F
100
AcDbEntity
  8
0
  6
Continuous
 62
     7
370
    25
100
AcDbSpline
210
0.0
220
0.0
230
1.0
 70
     8
 71
     3
 72
     9
 73
     5
 74
     0
 42
0.00000001
 43
0.00000001
 40
0.0
 40
0.0
 40
0.0
 40
0.0
 40
0.5850553834536213
 40
1.0
 40
1.0
 40
1.0
 40
1.0
 10
102.027192929854
 20
99.36575578035786
 30
0.0
 10
101.8906387958297
 20
98.96727799692285
 30
0.0
 10
101.6572350226378
 20
98.28618387369173
 30
0.0
 10
101.6257857349125
 20
97.47540044730182
 30
0.0
 10
101.6127360222767
 20
97.1389702293363
 30
0.0
  0
SPLINE
  5
1FA
330
1F
100
AcDbEntity
  8
0
  6
Continuous
 62
     7
370
    25
100
AcDbSpline
210
0.0
220
0.0
230
1.0
 70
     8
 71
     3
 72
    11
 73
     7
 74
     0
 42
0.00000001
 43
0.00000001
 40
0.0
 40
0.0
 40
0.0
 40
0.0
 40
0.2328716322111444
 40
0.471026502431316
 40
0.7311421212560254
 40
1.0
 40
1.0
 40
1.0
 40
1.0
 10
102.027192929854
 20
109.0113007219377
 30
0.0
 10
102.2975896645268
 20
108.2797780646209
 30
0.0
 10
102.8445177166576
 20
106.8001364463891
 30
0.0
 10
103.1457420346412
 20
104.4041600118259
 30
0.0
 10
102.9380902692315
 20
101.8777108844387
 30
0.0
 10
102.3341524374513
 20
100.212249088135
 30
0.0
 10
102.027192929854
 20
99.36575578035786
 30
0.0
  0
LINE
  5
1FB
330
1F
100
AcDbEntity
  8
0
  6
Continuous
 62
     7
370
    25
100
AcDbLine
 10
103.1127360223
 20
111.0502379283
 30
0.0
 11
103.1127360223
 21
78.6502379283
 31
0.0
  0
SPLINE
  5
1FC
330
1F
100
AcDbEntity
  8
0
  6
Continuous
 62
     7
370
    25
100
AcDbSpline
210
0.0
220
0.0
230
1.0
 70
     8
 71
     3
 72
     9
 73
     5
 74
     0
 42
0.00000001
 43
0.00000001
 40
0.0
 40
0.0
 40
0.0
 40
0.0
 40
0.5850553834534132
 40
1.0
 40
1.0
 40
1.0
 40
1.0
 10
94.74827911469878
 20
93.34643909985097
 30
0.0
 10
94.88483324872323
 20
93.78117052946247
 30
0.0
 10
95.11823702191546
 20
94.52423083094261
 30
0.0
 10
95.14968630964081
 20
95.34884742374724
 30
0.0
 10
95.16273602227668
 20
95.69101763964655
 30
0.0
  0
SPLINE
  5
1FD
330
1F
100
AcDbEntity
  8
0
  6
Continuous
 62
     7
370
    25
100
AcDbSpline
210
0.0
220
0.0
230
1.0
 70
     8
 71
     3
 72
    11
 73
     7
 74
     0
 42
0.00000001
 43
0.00000001
 40
0.0
 40
0.0
 40
0.0
 40
0.0
 40
0.2379053903768466
 40
0.4814905141303167
 40
0.7366519444348044
 40
1.0
 40
1.0
 40
1.0
 40
1.0
 10
94.74827911469941
 20
82.65808080282352
 30
0.0
 10
94.47269367972636
 20
83.48647260006345
 30
0.0
 10
93.91494350617288
 20
85.16303315097227
 30
0.0
 10
93.62838028151657
 20
87.84069998507931
 30
0.0
 10
93.85326068771452
 20
90.61958655342839
 30
0.0
 10
94.4468158046324
 20
92.42797086509366
 30
0.0
 10
94.74827911469878
 20
93.346439099851
 30
0.0
  0
SPLINE
  5
1FE
330
1F
100
AcDbEntity
  8
0
  6
Continuous
 62
     7
370
    25
100
AcDbSpline
210
0.0
220
0.0
230
1.0
 70
     8
 71
     3
 72
     9
 73
     5
 74
     0
 42
0.00000001
 43
0.00000001
 40
0.0
 40
0.0
 40
0.0
 40
0.0
 40
0.5841917497409945
 40
1.0
 40
1.0
 40
1.0
 40
1.0
 10
95.16273602227668
 20
80.79464426504754
 30
0.0
 10
95.13656805845602
 20
81.11708505165963
 30
0.0
 10
95.09177460864737
 20
81.66902846194412
 30
0.0
 10
94.84916019113348
 20
82.36760635248716
 30
0.0
 10
94.74827911469941
 20
82.65808080282352
 30
0.0
  0
LINE
  5
1FF
330
1F
100
AcDbEntity
  8
0
  6
Continuous
 62
     7
370
    25
100
AcDbLine
 10
95.1627360223
 20
80.794644265
 30
0.0
 11
95.1627360223
 21
79.9592817586
 31
0.0
  0
SPLINE
  5
200
330
1F
100
AcDbEntity
  8
0
  6
Continuous
 62
     7
370
    25
100
AcDbSpline
210
0.0
220
0.0
230
1.0
 70
     8
 71
     3
 72
     9
 73
     5
 74
     0
 42
0.00000001
 43
0.00000001
 40
0.0
 40
0.0
 40
0.0
 40
0.0
 40
0.5850553834536258
 40
1.0
 40
1.0
 40
1.0
 40
1.0
 10
94.74827911469932
 20
79.18537630624908
 30
0.0
 10
94.88483324872362
 20
79.25806183194311
 30
0.0
 10
95.11823702191555
 20
79.38229883197714
 30
0.0
 10
95.14968630964086
 20
79.79007657813284
 30
0.0
 10
95.16273602227668
 20
79.95928175864752
 30
0.0
  0
SPLINE
  5
201
330
1F
100
AcDbEntity
  8
0
  6
Continuous
 62
     7
370
    25
100
AcDbSpline
210
0.0
220
0.0
230
1.0
 70
     8
 71
     3
 72
    11
 73
     7
 74
     0
 42
0.00000001
 43
0.00000001
 40
0.0
 40
0.0
 40
0.0
 40
0.0
 40
0.2328716322111468
 40
0.4710265024313223
 40
0.7311421212560304
 40
1.0
 40
1.0
 40
1.0
 40
1.0
 10
94.74827911469932
 20
78.14256295080024
 30
0.0
 10
94.47788238002654
 20
78.2216504053177
 30
0.0
 10
93.93095432789572
 20
78.38161959836127
 30
0.0
 10
93.62973000991212
 20
78.6406569301488
 30
0.0
 10
93.83738177532182
 20
78.91380011779225
 30
0.0
 10
94.44131960710207
 20
79.09385897550264
 30
0.0
 10
94.74827911469932
 20
79.18537630624908
 30
0.0
  0
LINE
  5
202
330
1F
100
AcDbEntity
  8
0
  6
Continuous
 62
     7
370
    25
100
AcDbLine
 10
94.8690831059
 20
78.1469058777
 30
0.0
 11
94.7482791147
 21
78.1425629508
 31
0.0
  0
SPLINE
  5
203
330
1F
100
AcDbEntity
  8
0
  6
Continuous
 62
     7
370
    25
100
AcDbSpline
210
0.0
220
0.0
230
1.0
 70
     8
 71
     3
 72
     9
 73
     5
 74
     0
 42
0.00000001
 43
0.00000001
 40
0.0
 40
0.0
 40
0.0
 40
0.0
 40
0.6137694938147354
 40
1.0
 40
1.0
 40
1.0
 40
1.0
 10
94.74827911469932
 20
111.5579129058684
 30
0.0
 10
94.46316747629082
 20
111.4789815501438
 30
0.0
 10
93.998641882755
 20
111.3503805745005
 30
0.0
 10
93.88025282647166
 20
111.2160521377551
 30
0.0
 10
93.83452736133655
 20
111.1641703976359
 30
0.0
  0
SPLINE
  5
204
330
1F
100
AcDbEntity
  8
0
  6
Continuous
 62
     7
370
    25
100
AcDbSpline
210
0.0
220
0.0
230
1.0
 70
     8
 71
     3
 72
     9
 73
     5
 74
     0
 42
0.00000001
 43
0.00000001
 40
0.0
 40
0.0
 40
0.0
 40
0.0
 40
0.5841917497409274
 40
1.0
 40
1.0
 40
1.0
 40
1.0
 10
95.16273602227668
 20
111.1945638926231
 30
0.0
 10
95.13656805845602
 20
111.3455812304022
 30
0.0
 10
95.09177460864737
 20
111.6040876845693
 30
0.0
 10
94.84916019113342
 20
111.5714739611414
 30
0.0
 10
94.74827911469932
 20
111.5579129058684
 30
0.0
  0
LINE
  5
205
330
1F
100
AcDbEntity
  8
0
  6
Continuous
 62
     7
370
    25
100
AcDbLine
 10
95.1627360223
 20
111.1945638926
 30
0.0
 11
95.1627360223
 21
110.5819738093
 31
0.0
  0
SPLINE
  5
206
330
1F
100
AcDbEntity
  8
0
  6
Continuous
 62
     7
370
    25
100
AcDbSpline
210
0.0
220
0.0
230
1.0
 70
     8
 71
     3
 72
     9
 73
     5
 74
     0
 42
0.00000001
 43
0.00000001
 40
0.0
 40
0.0
 40
0.0
 40
0.0
 40
0.5850553834536192
 40
1.0
 40
1.0
 40
1.0
 40
1.0
 10
94.74827911469932
 20
109.0113007219377
 30
0.0
 10
94.88483324872362
 20
109.3733466258551
 30
0.0
 10
95.11823702191556
 20
109.9921699273008
 30
0.0
 10
95.14968630964086
 20
110.4090087739492
 30
0.0
 10
95.16273602227668
 20
110.5819738093333
 30
0.0
  0
SPLINE
  5
207
330
1F
100
AcDbEntity
  8
0
  6
Continuous
 62
     7
370
    25
100
AcDbSpline
210
0.0
220
0.0
230
1.0
 70
     8
 71
     3
 72
    11
 73
     7
 74
     0
 42
0.00000001
 43
0.00000001
 40
0.0
 40
0.0
 40
0.0
 40
0.0
 40
0.2328716322111495
 40
0.4710265024313264
 40
0.7311421212560317
 40
1.0
 40
1.0
 40
1.0
 40
1.0
 10
94.74827911469932
 20
99.36575578035783
 30
0.0
 10
94.47788238002654
 20
100.0972784376746
 30
0.0
 10
93.93095432789572
 20
101.5769200559065
 30
0.0
 10
93.62973000991212
 20
103.9728964904697
 30
0.0
 10
93.83738177532183
 20
106.499345617857
 30
0.0
 10
94.44131960710207
 20
108.1648074141606
 30
0.0
 10
94.74827911469932
 20
109.0113007219377
 30
0.0
  0
SPLINE
  5
208
330
1F
100
AcDbEntity
  8
0
  6
Continuous
 62
     7
370
    25
100
AcDbSpline
210
0.0
220
0.0
230
1.0
 70
     8
 71
     3
 72
     9
 73
     5
 74
     0
 42
0.00000001
 43
0.00000001
 40
0.0
 40
0.0
 40
0.0
 40
0.0
 40
0.5841917497409277
 40
1.0
 40
1.0
 40
1.0
 40
1.0
 10
95.16273602227668
 20
97.1389702293363
 30
0.0
 10
95.13656805845602
 20
97.61242835372752
 30
0.0
 10
95.09177460864737
 20
98.42287821817905
 30
0.0
 10
94.84916019113342
 20
99.08884238529438
 30
0.0
 10
94.74827911469932
 20
99.36575578035783
 30
0.0
  0
LINE
  5
209
330
1F
100
AcDbEntity
  8
0
  6
Continuous
 62
     7
370
    25
100
AcDbLine
 10
95.1627360223
 20
97.1389702293
 30
0.0
 11
95.1627360223
 21
95.6910176396
 31
0.0
  0
LINE
  5
20A
330
1F
100
AcDbEntity
  8
0
  6
Continuous
 62
     7
370
    25
100
AcDbLine
 10
93.6627360223
 20
88.0233306528
 30
0.0
 11
93.6627360223
 21
111.0502379283
 31
0.0
  0
LINE
  5
20B
330
1F
100
AcDbEntity
  8
0
  6
Continuous
 62
     7
370
    25
100
AcDbLine
 10
93.6627360223
 20
78.6502379283
 30
0.0
 11
93.6627360223
 21
88.0233306528
 31
0.0
  0
LINE
  5
20C
330
1F
100
AcDbEntity
  8
0
  6
Continuous
 62
     7
370
    25
100
AcDbLine
 10
85.9127360223
 20
105.4252379283
 30
0.0
 11
85.9127360223
 21
84.2752379283
 31
0.0
  0
LINE
  5
20D
330
1F
100
AcDbEntity
  8
0
  6
Continuous
 62
     7
370
    25
100
AcDbLine
 10
102.0271929299
 20
109.0113007219
 30
0.0
 11
94.7482791147
 21
109.0113007219
 31
0.0
  0
LINE
  5
20E
330
1F
100
AcDbEntity
  8
0
  6
Continuous
 62
     7
370
    25
100
AcDbLine
 10
94.7482791147
 20
99.3657557804
 30
0.0
 11
102.0271929299
 21
99.3657557804
 31
0.0
  0
LINE
  5
20F
330
1F
100
AcDbEntity
  8
0
  6
Continuous
 62
     7
370
    25
100
AcDbLine
 10
101.6127360223
 20
97.1389702293
 30
0.0
 11
95.1627360223
 21
97.1389702293
 31
0.0
  0
LINE
  5
210
330
1F
100
AcDbEntity
  8
0
  6
Continuous
 62
     7
370
    25
100
AcDbLine
 10
95.1627360223
 20
95.6910176396
 30
0.0
 11
101.6127360223
 21
95.6910176396
 31
0.0
  0
LINE
  5
211
330
1F
100
AcDbEntity
  8
0
  6
Continuous
 62
     7
370
    25
100
AcDbLine
 10
102.0271929299
 20
93.3464390999
 30
0.0
 11
94.7482791147
 21
93.3464390999
 31
0.0
  0
LINE
  5
212
330
1F
100
AcDbEntity
  8
0
  6
Continuous
 62
     7
370
    25
100
AcDbLine
 10
94.7482791147
 20
82.6580808028
 30
0.0
 11
102.0271929299
 21
82.6580808028
 31
0.0
  0
LINE
  5
213
330
1F
100
AcDbEntity
  8
0
  6
Continuous
 62
     7
370
    25
100
AcDbLine
 10
101.6127360223
 20
80.794644265
 30
0.0
 11
95.1627360223
 21
80.794644265
 31
0.0
  0
LINE
  5
214
330
1F
100
AcDbEntity
  8
0
  6
Continuous
 62
     7
370
    25
100
AcDbLine
 10
95.1627360223
 20
79.9592817586
 30
0.0
 11
101.6127360223
 21
79.9592817586
 31
0.0
  0
LINE
  5
215
330
1F
100
AcDbEntity
  8
0
  6
Continuous
 62
     7
370
    25
100
AcDbLine
 10
95.1627360223
 20
110.5819738093
 30
0.0
 11
101.6127360223
 21
110.5819738093
 31
0.0
  0
LINE
  5
216
330
1F
100
AcDbEntity
  8
0
  6
Continuous
 62
     7
370
    25
100
AcDbLine
 10
102.0271929299
 20
79.1853763062
 30
0.0
 11
94.7482791147
 21
79.1853763062
 31
0.0
  0
LINE
  5
217
330
1F
100
AcDbEntity
  8
0
  6
Continuous
 62
     7
370
    25
100
AcDbLine
 10
101.6127360223
 20
111.1945638926
 30
0.0
 11
95.1627360223
 21
111.1945638926
 31
0.0
  0
LINE
  5
218
330
1F
100
AcDbEntity
  8
0
  6
Continuous
 62
     7
370
    25
100
AcDbLine
 10
94.7482791147
 20
78.1425629508
 30
0.0
 11
102.0271929299
 21
78.1425629508
 31
0.0
  0
SPLINE
  5
219
330
1F
100
AcDbEntity
  8
0
  6
Continuous
 62
     7
370
    25
100
AcDbSpline
210
0.0
220
0.0
230
1.0
 70
     8
 71
     3
 72
    12
 73
     8
 74
     0
 42
0.00000001
 43
0.00000001
 40
0.0
 40
0.0
 40
0.0
 40
0.0
 40
0.1961211259854504
 40
0.3920122454189701
 40
0.7062105609801936
 40
0.7780407016783261
 40
1.0
 40
1.0
 40
1.0
 40
1.0
 10
127.5306956996624
 20
100.3099628053219
 30
0.0
 10
127.215873839083
 20
99.6388540625246
 30
0.0
 10
126.5865993340924
 20
98.29742363853367
 30
0.0
 10
126.0256085567538
 20
95.65303845268211
 30
0.0
 10
126.1433822637241
 20
93.39809610420873
 30
0.0
 10
126.7033933622489
 20
91.15912819904726
 30
0.0
 10
127.1746551841611
 20
90.15165999900238
 30
0.0
 10
127.5306956996623
 20
89.39051305134682
 30
0.0
  0
SPLINE
  5
21A
330
1F
100
AcDbEntity
  8
0
  6
Continuous
 62
     7
370
    25
100
AcDbSpline
210
0.0
220
0.0
230
1.0
 70
     8
 71
     3
 72
    12
 73
     8
 74
     0
 42
0.00000001
 43
0.00000001
 40
0.0
 40
0.0
 40
0.0
 40
0.0
 40
0.1961211259854505
 40
0.3920122454189702
 40
0.7062105609801936
 40
0.7780407016783263
 40
1.0
 40
1.0
 40
1.0
 40
1.0
 10
164.494776344891
 20
100.3099628053219
 30
0.0
 10
164.8095982054704
 20
99.6388540625246
 30
0.0
 10
165.4388727104609
 20
98.29742363853364
 30
0.0
 10
165.9998634877996
 20
95.65303845268214
 30
0.0
 10
165.8820897808292
 20
93.39809610420873
 30
0.0
 10
165.3220786823044
 20
91.15912819904729
 30
0.0
 10
164.8508168603922
 20
90.15165999900238
 30
0.0
 10
164.494776344891
 20
89.39051305134682
 30
0.0
  0
SPLINE
  5
21B
330
1F
100
AcDbEntity
  8
0
  6
Continuous
 62
     7
370
    25
100
AcDbSpline
210
0.0
220
0.0
230
1.0
 70
     8
 71
     3
 72
    10
 73
     6
 74
     0
 42
0.00000001
 43
0.00000001
 40
0.0
 40
0.0
 40
0.0
 40
0.0
 40
0.4174866340693339
 40
0.8391571006300924
 40
0.9999999999999999
 40
0.9999999999999999
 40
0.9999999999999999
 40
0.9999999999999999
 10
133.6260448739786
 20
104.205590032094
 30
0.0
 10
132.8285853630031
 20
103.5673204493258
 30
0.0
 10
131.2256746193049
 20
102.2843848801664
 30
0.0
 10
129.1990508776798
 20
101.0239894643633
 30
0.0
 10
127.8916842276902
 20
100.4644595431966
 30
0.0
 10
127.5306956996624
 20
100.3099628053219
 30
0.0
  0
SPLINE
  5
21C
330
1F
100
AcDbEntity
  8
0
  6
Continuous
 62
     7
370
    25
100
AcDbSpline
210
0.0
220
0.0
230
1.0
 70
     8
 71
     3
 72
     9
 73
     5
 74
     0
 42
0.00000001
 43
0.00000001
 40
0.0
 40
0.0
 40
0.0
 40
0.0
 40
0.4100126263040273
 40
1.0
 40
1.0
 40
1.0
 40
1.0
 10
164.494776344891
 20
89.39051305134682
 30
0.0
 10
163.595845242244
 20
88.97044672927309
 30
0.0
 10
161.4033978760489
 20
87.94592627520734
 30
0.0
 10
159.5140931210738
 20
86.40437915905935
 30
0.0
 10
158.3994271705748
 20
85.49488582457465
 30
0.0
  0
LINE
  5
21D
330
1F
100
AcDbEntity
  8
0
  6
Continuous
 62
     7
370
    25
100
AcDbLine
 10
158.1381748309
 20
109.8502379283
 30
0.0
 11
148.5835990063
 21
109.8502379283
 31
0.0
  0
LWPOLYLINE
  5
21E
330
1F
100
AcDbEntity
  8
0
  6
Continuous
 62
     7
370
    25
100
AcDbPolyline
 90
        9
 70
   128
 43
0.0
 10
158.1381748309
 20
109.8502379283
 10
159.1565805537
 20
109.6822921011
 10
160.1521813443
 20
109.182215393
 10
161.1026829363
 20
108.3612059102
 10
161.9868009594
 20
107.2376483348
 10
162.7847375561
 20
105.8367022411
 10
163.47862471
 20
104.1897387024
 10
164.052924361
 20
102.3336378061
 10
164.4947763449
 20
100.3099628053
  0
LWPOLYLINE
  5
21F
330
1F
100
AcDbEntity
  8
0
  6
Continuous
 62
     7
370
    25
100
AcDbPolyline
 90
        9
 70
   128
 43
0.0
 10
133.8872972137
 20
109.8502379283
 10
132.8688914909
 20
109.6822921011
 10
131.8732907003
 20
109.182215393
 10
130.9227891083
 20
108.3612059102
 10
130.0386710851
 20
107.2376483348
 10
129.2407344885
 20
105.8367022411
 10
128.5468473345
 20
104.1897387024
 10
127.9725476836
 20
102.3336378061
 10
127.5306956997
 20
100.3099628053
  0
LINE
  5
220
330
1F
100
AcDbEntity
  8
0
  6
Continuous
 62
     7
370
    25
100
AcDbLine
 10
133.8872972137
 20
109.8502379283
 30
0.0
 11
141.9858772542
 21
109.8502379283
 31
0.0
  0
LINE
  5
221
330
1F
100
AcDbEntity
  8
0
  6
Continuous
 62
     7
370
    25
100
AcDbLine
 10
133.8872972137
 20
79.8502379283
 30
0.0
 11
138.1607245542
 21
79.8502379283
 31
0.0
  0
LWPOLYLINE
  5
222
330
1F
100
AcDbEntity
  8
0
  6
Continuous
 62
     7
370
    25
100
AcDbPolyline
 90
        9
 70
   128
 43
0.0
 10
127.5306956997
 20
89.3905130513
 10
127.9725476836
 20
87.3668380506
 10
128.5468473345
 20
85.5107371542
 10
129.2407344885
 20
83.8637736156
 10
130.0386710851
 20
82.4628275219
 10
130.9227891083
 20
81.3392699465
 10
131.8732907003
 20
80.5182604636
 10
132.8688914909
 20
80.0181837555
 10
133.8872972137
 20
79.8502379283
  0
LINE
  5
223
330
1F
100
AcDbEntity
  8
0
  6
Continuous
 62
     7
370
    25
100
AcDbLine
 10
158.1381748309
 20
79.8502379283
 30
0.0
 11
153.8637709202
 21
79.8502379283
 31
0.0
  0
LWPOLYLINE
  5
224
330
1F
100
AcDbEntity
  8
0
  6
Continuous
 62
     7
370
    25
100
AcDbPolyline
 90
        9
 70
   128
 43
0.0
 10
164.4947763449
 20
89.3905130513
 10
164.052924361
 20
87.3668380506
 10
163.47862471
 20
85.5107371542
 10
162.7847375561
 20
83.8637736156
 10
161.9868009594
 20
82.4628275219
 10
161.1026829363
 20
81.3392699465
 10
160.1521813443
 20
80.5182604636
 10
159.1565805537
 20
80.0181837555
 10
158.1381748309
 20
79.8502379283
  0
LINE
  5
225
330
1F
100
AcDbEntity
  8
0
  6
Continuous
 62
     7
370
    25
100
AcDbLine
 10
148.5835990063
 20
109.8502379283
 30
0.0
 11
147.0611583331
 21
109.8502379283
 31
0.0
  0
LINE
  5
226
330
1F
100
AcDbEntity
  8
0
  6
Continuous
 62
     7
370
    25
100
AcDbLine
 10
125.3237670217
 20
79.8502379283
 30
0.0
 11
133.8872972137
 21
79.8502379283
 31
0.0
  0
LWPOLYLINE
  5
227
330
1F
100
AcDbEntity
  8
0
  6
Continuous
 62
     7
370
    25
100
AcDbPolyline
 90
       21
 70
   128
 43
0.0
 10
125.3237670217
 20
109.8502379283
 10
124.2561429846
 20
109.6655630373
 10
123.2148073946
 20
109.1160856728
 10
122.2254013899
 20
108.2153357912
 10
121.3122874299
 20
106.985492844
 10
120.4979494108
 20
105.4568396461
 10
119.8024390372
 20
103.6670167127
 10
119.2428820829
 20
101.6600954244
 10
118.833056697
 20
99.485492844
 10
118.5830541408
 20
97.1967549039
 10
118.4990303068
 20
94.8502379283
 10
118.5830541408
 20
92.5037209527
 10
118.833056697
 20
90.2149830127
 10
119.2428820829
 20
88.0403804322
 10
119.8024390372
 20
86.0334591439
 10
120.4979494108
 20
84.2436362105
 10
121.3122874299
 20
82.7149830127
 10
122.2254013899
 20
81.4851400655
 10
123.2148073946
 20
80.5843901839
 10
124.2561429846
 20
80.0349128194
 10
125.3237670217
 20
79.8502379283
  0
LINE
  5
228
330
1F
100
AcDbEntity
  8
0
  6
Continuous
 62
     7
370
    25
100
AcDbLine
 10
125.3237670217
 20
109.8502379283
 30
0.0
 11
133.8872972137
 21
109.8502379283
 31
0.0
  0
LINE
  5
229
330
1F
100
AcDbEntity
  8
0
  6
Continuous
 62
     7
370
    25
100
AcDbLine
 10
166.7017050229
 20
109.8502379283
 30
0.0
 11
158.1381748309
 21
109.8502379283
 31
0.0
  0
LWPOLYLINE
  5
22A
330
1F
100
AcDbEntity
  8
0
  6
Continuous
 62
     7
370
    25
100
AcDbPolyline
 90
       21
 70
   128
 43
0.0
 10
166.7017050229
 20
109.8502379283
 10
167.7693290599
 20
109.6655630373
 10
168.8106646499
 20
109.1160856728
 10
169.8000706547
 20
108.2153357912
 10
170.7131846147
 20
106.985492844
 10
171.5275226338
 20
105.4568396461
 10
172.2230330073
 20
103.6670167127
 10
172.7825899617
 20
101.6600954244
 10
173.1924153475
 20
99.485492844
 10
173.4424179038
 20
97.1967549039
 10
173.5264417377
 20
94.8502379283
 10
173.4424179038
 20
92.5037209527
 10
173.1924153475
 20
90.2149830127
 10
172.7825899617
 20
88.0403804322
 10
172.2230330073
 20
86.0334591439
 10
171.5275226338
 20
84.2436362105
 10
170.7131846147
 20
82.7149830127
 10
169.8000706547
 20
81.4851400655
 10
168.8106646499
 20
80.5843901839
 10
167.7693290599
 20
80.0349128194
 10
166.7017050229
 20
79.8502379283
  0
LINE
  5
22B
330
1F
100
AcDbEntity
  8
0
  6
Continuous
 62
     7
370
    25
100
AcDbLine
 10
166.7017050229
 20
79.8502379283
 30
0.0
 11
158.1381748309
 21
79.8502379283
 31
0.0
  0
LINE
  5
22C
330
1F
100
AcDbEntity
  8
0
  6
Continuous
 62
     7
370
    25
100
AcDbLine
 10
109.3993813537
 20
79.8502379283
 30
0.0
 11
125.3237670217
 21
79.8502379283
 31
0.0
  0
LINE
  5
22D
330
1F
100
AcDbEntity
  8
0
  6
Continuous
 62
     7
370
    25
100
AcDbLine
 10
109.3993813537
 20
109.8502379283
 30
0.0
 11
109.3993813537
 21
79.8502379283
 31
0.0
  0
LINE
  5
22E
330
1F
100
AcDbEntity
  8
0
  6
Continuous
 62
     7
370
    25
100
AcDbLine
 10
109.3993813537
 20
109.8502379283
 30
0.0
 11
125.3237670217
 21
109.8502379283
 31
0.0
  0
LINE
  5
22F
330
1F
100
AcDbEntity
  8
0
  6
Continuous
 62
     7
370
    25
100
AcDbLine
 10
182.6260906909
 20
109.8502379283
 30
0.0
 11
166.7017050229
 21
109.8502379283
 31
0.0
  0
LINE
  5
230
330
1F
100
AcDbEntity
  8
0
  6
Continuous
 62
     7
370
    25
100
AcDbLine
 10
182.6260906909
 20
109.8502379283
 30
0.0
 11
182.6260906909
 21
79.8502379283
 31
0.0
  0
LINE
  5
231
330
1F
100
AcDbEntity
  8
0
  6
Continuous
 62
     7
370
    25
100
AcDbLine
 10
182.6260906909
 20
79.8502379283
 30
0.0
 11
166.7017050229
 21
79.8502379283
 31
0.0
  0
LINE
  5
232
330
1F
100
AcDbEntity
  8
0
  6
Continuous
 62
     7
370
    25
100
AcDbLine
 10
104.8127360223
 20
109.8502379283
 30
0.0
 11
109.3993813537
 21
109.8502379283
 31
0.0
  0
LINE
  5
233
330
1F
100
AcDbEntity
  8
0
  6
Continuous
 62
     7
370
    25
100
AcDbLine
 10
104.8127360223
 20
79.8502379283
 30
0.0
 11
109.3993813537
 21
79.8502379283
 31
0.0
  0
LINE
  5
234
330
1F
100
AcDbEntity
  8
0
  6
Continuous
 62
     7
370
    25
100
AcDbLine
 10
104.8127360223
 20
79.8502379283
 30
0.0
 11
104.8127360223
 21
109.8502379283
 31
0.0
  0
LINE
  5
235
330
1F
100
AcDbEntity
  8
0
  6
Continuous
 62
     7
370
    25
100
AcDbLine
 10
187.2127360223
 20
109.8502379283
 30
0.0
 11
182.6260906909
 21
109.8502379283
 31
0.0
  0
LINE
  5
236
330
1F
100
AcDbEntity
  8
0
  6
Continuous
 62
     7
370
    25
100
AcDbLine
 10
187.2127360223
 20
79.8502379283
 30
0.0
 11
187.2127360223
 21
109.8502379283
 31
0.0
  0
LINE
  5
237
330
1F
100
AcDbEntity
  8
0
  6
Continuous
 62
     7
370
    25
100
AcDbLine
 10
187.2127360223
 20
79.8502379283
 30
0.0
 11
182.6260906909
 21
79.8502379283
 31
0.0
  0
SPLINE
  5
238
330
1F
100
AcDbEntity
  8
0
  6
Continuous
 62
     7
370
    25
100
AcDbSpline
210
0.0
220
0.0
230
1.0
 70
     8
 71
     3
 72
    14
 73
    10
 74
     0
 42
0.00000001
 43
0.00000001
 40
0.0
 40
0.0
 40
0.0
 40
0.0
 40
0.0918965940499282
 40
0.2423760614181678
 40
0.3954689234315534
 40
0.545948390799794
 40
0.6951332188673913
 40
0.8469312509612342
 40
0.9999999999999999
 40
0.9999999999999999
 40
0.9999999999999999
 40
0.9999999999999999
 10
190.1627360222767
 20
92.57134542945425
 30
0.0
 10
190.1502056698436
 20
93.3291888114528
 30
0.0
 10
190.1171570296594
 20
95.32799079099982
 30
0.0
 10
190.0642673226413
 20
98.65016698364288
 30
0.0
 10
189.9987548825478
 20
102.1825280150209
 30
0.0
 10
189.937909381611
 20
105.2145097393568
 30
0.0
 10
189.8772416541611
 20
107.5215170693428
 30
0.0
 10
189.8118307485034
 20
109.0560645724263
 30
0.0
 10
189.7708245731068
 20
109.2519080442729
 30
0.0
 10
189.7502360263734
 20
109.3502379283343
 30
0.0
  0
SPLINE
  5
239
330
1F
100
AcDbEntity
  8
0
  6
Continuous
 62
     7
370
    25
100
AcDbSpline
210
0.0
220
0.0
230
1.0
 70
     8
 71
     3
 72
    20
 73
    16
 74
     0
 42
0.00000001
 43
0.00000001
 40
0.0
 40
0.0
 40
0.0
 40
0.0
 40
0.0086573631120547
 40
0.0907937671802662
 40
0.1743566438584473
 40
0.2564930479266592
 40
0.3386294519948714
 40
0.4221923286730525
 40
0.5043287327412647
 40
0.5864651368094769
 40
0.6700280134876573
 40
0.75216441755587
 40
0.8335941669649458
 40
0.9164502849382267
 40
1.0
 40
1.0
 40
1.0
 40
1.0
 10
189.0067083317193
 20
80.40171712984053
 30
0.0
 10
189.0045495218743
 20
80.38308389275493
 30
0.0
 10
188.9819090855301
 20
80.18766852575826
 30
0.0
 10
188.93930240345
 20
80.74607560217181
 30
0.0
 10
188.873744240673
 20
82.13110316082947
 30
0.0
 10
188.8127431655147
 20
84.48528009210582
 30
0.0
 10
188.7516990075359
 20
87.51480116878903
 30
0.0
 10
188.6862715896691
 20
91.05479599734714
 30
0.0
 10
188.6252359918601
 20
94.8500896886175
 30
0.0
 10
188.5642006023295
 20
98.64627796718212
 30
0.0
 10
188.4987725523933
 20
102.1835579610514
 30
0.0
 10
188.4379047309193
 20
105.2142386582427
 30
0.0
 10
188.3772429136735
 20
107.521590484235
 30
0.0
 10
188.311830428253
 20
109.0560459055646
 30
0.0
 10
188.2708244660605
 20
109.2519018047195
 30
0.0
 10
188.2502360263734
 20
109.3502379283343
 30
0.0
  0
LINE
  5
23A
330
1F
100
AcDbEntity
  8
0
  6
Continuous
 62
     7
370
    25
100
AcDbLine
 10
187.5067083317
 20
80.4017171298
 30
0.0
 11
187.5002360264
 21
80.3502379283
 31
0.0
  0
SPLINE
  5
23B
330
1F
100
AcDbEntity
  8
0
  6
Continuous
 62
     7
370
    25
100
AcDbSpline
210
0.0
220
0.0
230
1.0
 70
     8
 71
     3
 72
    18
 73
    14
 74
     0
 42
0.00000001
 43
0.00000001
 40
0.0
 40
0.0
 40
0.0
 40
0.0
 40
0.062508350000668
 40
0.164864942035536
 40
0.2689991730679212
 40
0.3713557651027891
 40
0.472831736246613
 40
0.5760852167264459
 40
0.6802030526311144
 40
0.7825596446659819
 40
0.8866938756983671
 40
0.9890504677332341
 40
1.0
 40
1.0
 40
1.0
 40
1.0
 10
190.1627360222767
 20
83.19667515298005
 30
0.0
 10
190.1502056675111
 20
83.63923855186306
 30
0.0
 10
190.1171570234164
 20
84.80649363223422
 30
0.0
 10
190.0642673436503
 20
87.53759539982327
 30
0.0
 10
189.9987547847152
 20
91.0487107299478
 30
0.0
 10
189.9379097196347
 20
94.84104642654847
 30
0.0
 10
189.8772403799021
 20
98.6126632553536
 30
0.0
 10
189.8118356057959
 20
102.1572280054445
 30
0.0
 10
189.7505661324105
 20
105.2019296256484
 30
0.0
 10
189.6892306591812
 20
107.5692864173971
 30
0.0
 10
189.6236690023285
 20
108.9545868648179
 30
0.0
 10
189.5810310511823
 20
109.5128204520701
 30
0.0
 10
189.5583582095719
 20
109.3169218930643
 30
0.0
 10
189.5561671805139
 20
109.2979908987683
 30
0.0
  0
LINE
  5
23C
330
1F
100
AcDbEntity
  8
0
  6
Continuous
 62
     7
370
    25
100
AcDbLine
 10
188.8127360223
 20
80.3502379283
 30
0.0
 11
188.3439860243
 21
81.1621367408
 31
0.0
  0
LINE
  5
23D
330
1F
100
AcDbEntity
  8
0
  6
Continuous
 62
     7
370
    25
100
AcDbLine
 10
188.3439860243
 20
81.1621367408
 30
0.0
 11
187.9689860243
 21
81.1621367408
 31
0.0
  0
LINE
  5
23E
330
1F
100
AcDbEntity
  8
0
  6
Continuous
 62
     7
370
    25
100
AcDbLine
 10
187.9689860243
 20
81.1621367408
 30
0.0
 11
187.5002360264
 21
80.3502379283
 31
0.0
  0
SPLINE
  5
23F
330
1F
100
AcDbEntity
  8
0
  6
Continuous
 62
     7
370
    25
100
AcDbSpline
210
0.0
220
0.0
230
1.0
 70
     8
 71
     3
 72
    21
 73
    17
 74
     0
 42
0.00000001
 43
0.00000001
 40
0.0
 40
0.0
 40
0.0
 40
0.0
 40
0.0744253596644122
 40
0.1594654728433945
 40
0.2430537979151432
 40
0.3266421229868915
 40
0.4116822361658744
 40
0.4952705612376232
 40
0.5788588863093713
 40
0.6638989994883542
 40
0.7474873245601027
 40
0.8166848884187206
 40
0.8872233607816259
 40
0.9574401662793351
 40
0.9999794898814968
 40
1.0
 40
1.0
 40
1.0
 40
1.0
 10
189.8372547161487
 20
81.2126781658746
 30
0.0
 10
189.8192324965599
 20
81.29575108683746
 30
0.0
 10
189.7806176778828
 20
81.47374502172147
 30
0.0
 10
189.7175089949886
 20
82.873691217253
 30
0.0
 10
189.6564892261316
 20
85.05756117564326
 30
0.0
 10
189.5954501352155
 20
87.92774713491566
 30
0.0
 10
189.5300209346003
 20
91.26672298346003
 30
0.0
 10
189.4689876002871
 20
94.85026693988294
 30
0.0
 10
189.4079447554577
 20
98.43363581925082
 30
0.0
 10
189.3425444167544
 20
101.7731429805462
 30
0.0
 10
189.2848895415217
 20
104.4777511617119
 30
0.0
 10
189.2311660842854
 20
106.4694265934306
 30
0.0
 10
189.1774949705019
 20
107.8267812210669
 30
0.0
 10
189.1307678180223
 20
108.3717120446675
 30
0.0
 10
189.1043978397916
 20
108.6165421625741
 30
0.0
 10
189.0939759795835
 20
108.5382637087309
 30
0.0
 10
189.0939709571582
 20
108.5382259853606
 30
0.0
  0
SPLINE
  5
240
330
1F
100
AcDbEntity
  8
0
  6
Continuous
 62
     7
370
    25
100
AcDbSpline
210
0.0
220
0.0
230
1.0
 70
     8
 71
     3
 72
    20
 73
    16
 74
     0
 42
0.00000001
 43
0.00000001
 40
0.0
 40
0.0
 40
0.0
 40
0.0
 40
0.0835700848942301
 40
0.1686020731605481
 40
0.2521824120265455
 40
0.3213733646032417
 40
0.3919050975709866
 40
0.4621151944062687
 40
0.5046504537112818
 40
0.5882307925772793
 40
0.6732627808435979
 40
0.7568431197095946
 40
0.8404234585755923
 40
0.925455446841911
 40
0.9999999999999999
 40
0.9999999999999999
 40
0.9999999999999999
 40
0.9999999999999999
 10
189.4689784908207
 20
81.16219330547708
 30
0.0
 10
189.4487510150636
 20
81.25201849258649
 30
0.0
 10
189.4079422214414
 20
81.43324019156938
 30
0.0
 10
189.342545722985
 20
82.87032098460601
 30
0.0
 10
189.2848846800875
 20
84.93407794901228
 30
0.0
 10
189.2311809944341
 20
87.42057310048284
 30
0.0
 10
189.1774378411531
 20
90.10567174596999
 30
0.0
 10
189.1309445933868
 20
92.64939142819306
 30
0.0
 10
189.0843325701155
 20
95.43094295159271
 30
0.0
 10
189.0328540863755
 20
98.43461311920487
 30
0.0
 10
188.9675475908137
 20
101.7725041494905
 30
0.0
 10
188.906476040392
 20
104.6429627414479
 30
0.0
 10
188.8454647403766
 20
106.8268153005314
 30
0.0
 10
188.7823218116756
 20
108.2272917401035
 30
0.0
 10
188.7436770458996
 20
108.4053270517208
 30
0.0
 10
188.725624537862
 20
108.4884944310386
 30
0.0
  0
SPLINE
  5
241
330
1F
100
AcDbEntity
  8
0
  6
Continuous
 62
     7
370
    25
100
AcDbSpline
210
0.0
220
0.0
230
1.0
 70
     8
 71
     3
 72
    18
 73
    14
 74
     0
 42
0.00000001
 43
0.00000001
 40
0.0
 40
0.0
 40
0.0
 40
0.0
 40
0.0569447277585363
 40
0.1507614687560893
 40
0.2445782097536427
 40
0.3400242771492498
 40
0.4338410181468031
 40
0.5276577591443564
 40
0.6231038265399629
 40
0.7169205675375168
 40
0.809930162935223
 40
0.9045689658892273
 40
1.0
 40
1.0
 40
1.0
 40
1.0
 10
103.1127360222767
 20
81.42969039333389
 30
0.0
 10
103.1256835183003
 20
81.69196305814668
 30
0.0
 10
103.1599620826918
 20
82.38633132924303
 30
0.0
 10
103.2127489219801
 20
84.50614202496723
 30
0.0
 10
103.2737675595097
 20
87.50909984003546
 30
0.0
 10
103.3392019051377
 20
91.0563055108425
 30
0.0
 10
103.4002356671352
 20
94.84968837602212
 30
0.0
 10
103.4612715475943
 20
98.64638764335464
 30
0.0
 10
103.5266994642543
 20
102.1835289150087
 30
0.0
 10
103.5875673209788
 20
105.2142463031419
 30
0.0
 10
103.6482291288907
 20
107.5215884138236
 30
0.0
 10
103.7136416168061
 20
109.0560464319984
 30
0.0
 10
103.7546475786619
 20
109.2519019806844
 30
0.0
 10
103.7752360181799
 20
109.3502379283343
 30
0.0
  0
LINE
  5
242
330
1F
100
AcDbEntity
  8
0
  6
Continuous
 62
     7
370
    25
100
AcDbLine
 10
104.5187637128
 20
80.4017171298
 30
0.0
 11
104.5252360182
 21
80.3502379283
 31
0.0
  0
SPLINE
  5
243
330
1F
100
AcDbEntity
  8
0
  6
Continuous
 62
     7
370
    25
100
AcDbSpline
210
0.0
220
0.0
230
1.0
 70
     8
 71
     3
 72
    11
 73
     7
 74
     0
 42
0.00000001
 43
0.00000001
 40
0.0
 40
0.0
 40
0.0
 40
0.0
 40
0.0338029119390419
 40
0.3659139339879687
 40
0.70379316387786
 40
1.0
 40
1.0
 40
1.0
 40
1.0
 10
103.1127360222767
 20
104.2424723583157
 30
0.0
 10
103.1148206611044
 20
104.3389378788672
 30
0.0
 10
103.1373867168275
 20
105.3831697540041
 30
0.0
 10
103.1799067576206
 20
106.7871998649402
 30
0.0
 10
103.2431719429971
 20
108.2358455471279
 30
0.0
 10
103.2818019111925
 20
108.4080505983691
 30
0.0
 10
103.2998475066913
 20
108.4884944310386
 30
0.0
  0
LINE
  5
244
330
1F
100
AcDbEntity
  8
0
  6
Continuous
 62
     7
370
    25
100
AcDbLine
 10
103.6814860202
 20
81.1621367408
 30
0.0
 11
104.0564860202
 21
81.1621367408
 31
0.0
  0
LINE
  5
245
330
1F
100
AcDbEntity
  8
0
  6
Continuous
 62
     7
370
    25
100
AcDbLine
 10
103.2127360223
 20
80.3502379283
 30
0.0
 11
103.6814860202
 21
81.1621367408
 31
0.0
  0
LINE
  5
246
330
1F
100
AcDbEntity
  8
0
  6
Continuous
 62
     7
370
    25
100
AcDbLine
 10
104.0564860202
 20
81.1621367408
 30
0.0
 11
104.5252360182
 21
80.3502379283
 31
0.0
  0
ARC
  5
247
330
1F
100
AcDbEntity
  8
0
  6
Continuous
 62
     7
370
    25
100
AcDbCircle
 10
146.0127360223
 20
94.8502379283
 30
0.0
 40
28.25
100
AcDbArc
 50
32.0712506327
 51
90.0
  0
ARC
  5
248
330
1F
100
AcDbEntity
  8
0
  6
Continuous
 62
     7
370
    25
100
AcDbCircle
 10
146.0127360223
 20
94.8502379283
 30
0.0
 40
28.25
100
AcDbArc
 50
286.3062465256
 51
327.9287493673
  0
ARC
  5
249
330
1F
100
AcDbEntity
  8
0
  6
Continuous
 62
     7
370
    25
100
AcDbCircle
 10
146.0127360223
 20
94.8502379283
 30
0.0
 40
28.25
100
AcDbArc
 50
212.0712506327
 51
253.6546313002
  0
ARC
  5
24A
330
1F
100
AcDbEntity
  8
0
  6
Continuous
 62
     7
370
    25
100
AcDbCircle
 10
146.0127360223
 20
94.8502379283
 30
0.0
 40
28.25
100
AcDbArc
 50
90.0
 51
147.9287493673
  0
ARC
  5
24B
330
1F
100
AcDbEntity
  8
0
  6
Continuous
 62
     7
370
    25
100
AcDbCircle
 10
146.0078025007
 20
-49.7470287573
 30
0.0
 40
11.54125552692374
100
AcDbArc
 50
133.5489066015
 51
46.1680029253
  0
ARC
  5
24C
330
1F
100
AcDbEntity
  8
0
  6
Continuous
 62
     7
370
    25
100
AcDbCircle
 10
146.0078376976
 20
-49.7467007656
 30
0.0
 40
10.79301205464782
100
AcDbArc
 50
137.4922096461
 51
42.0129665281
  0
ARC
  5
24D
330
1F
100
AcDbEntity
  8
0
  6
Continuous
 62
     7
370
    25
100
AcDbCircle
 10
146.0077081339
 20
-50.5241863125
 30
0.0
 40
11.55001168074725
100
AcDbArc
 50
180.0795041496
 51
359.9165326116
  0
ARC
  5
24E
330
1F
100
AcDbEntity
  8
0
  6
Continuous
 62
     7
370
    25
100
AcDbCircle
 10
146.009439188
 20
-49.7318605329
 30
0.0
 40
10.510358578775
100
AcDbArc
 50
271.4559031835
 51
311.0677163272
  0
ARC
  5
24F
330
1F
100
AcDbEntity
  8
0
  6
Continuous
 62
     7
370
    25
100
AcDbCircle
 10
146.0127360223
 20
94.8502379283
 30
0.0
 40
9.725000000000032
100
AcDbArc
 50
67.9937902719
 51
214.4541334488
  0
ARC
  5
250
330
1F
100
AcDbEntity
  8
0
  6
Continuous
 62
     7
370
    25
100
AcDbCircle
 10
146.0127360223
 20
94.8502379283
 30
0.0
 40
9.725000000000001
100
AcDbArc
 50
325.1657002527
 51
67.9937902719
  0
ARC
  5
251
330
1F
100
AcDbEntity
  8
0
  6
Continuous
 62
     7
370
    25
100
AcDbCircle
 10
146.0127360223
 20
94.8502379283
 30
0.0
 40
9.925000000000006
100
AcDbArc
 50
323.4773652778
 51
67.9937902719
  0
ARC
  5
252
330
1F
100
AcDbEntity
  8
0
  6
Continuous
 62
     7
370
    25
100
AcDbCircle
 10
146.0127360223
 20
94.8502379283
 30
0.0
 40
9.925000000000024
100
AcDbArc
 50
67.9937902719
 51
216.4835098904
  0
ARC
  5
253
330
1F
100
AcDbEntity
  8
0
  6
Continuous
 62
     7
370
    25
100
AcDbCircle
 10
146.0127360223
 20
94.8502379283
 30
0.0
 40
14.22500000000002
100
AcDbArc
 50
303.9329457233
 51
67.9937902719
  0
ARC
  5
254
330
1F
100
AcDbEntity
  8
0
  6
Continuous
 62
     7
370
    25
100
AcDbCircle
 10
146.0127360223
 20
94.8502379283
 30
0.0
 40
14.22500000000002
100
AcDbArc
 50
67.9937902719
 51
235.8691822317
  0
LINE
  5
255
330
1F
100
AcDbEntity
  8
0
  6
Continuous
 62
     7
370
    25
100
AcDbLine
 10
134.8349947449
 20
103.6484607566
 30
0.0
 11
134.6443877909
 21
103.798491287
 31
0.0
  0
SPLINE
  5
256
330
1F
100
AcDbEntity
  8
0
  6
Continuous
 62
     7
370
    25
100
AcDbSpline
210
0.0
220
0.0
230
1.0
 70
     8
 71
     3
 72
    11
 73
     7
 74
     0
 42
0.00000001
 43
0.00000001
 40
0.0
 40
0.0
 40
0.0
 40
0.0
 40
0.1446702591042535
 40
0.3907520209323631
 40
0.5962314811354592
 40
1.0
 40
1.0
 40
1.0
 40
1.0
 10
140.0833967724569
 20
108.0469616028684
 30
0.0
 10
139.7988627853375
 20
107.8730550029697
 30
0.0
 10
139.0303411059042
 20
107.4033361002414
 30
0.0
 10
137.9038321721036
 20
106.6131498969
 30
0.0
 10
136.3408117223965
 20
105.4077940576336
 30
0.0
 10
135.3205491165907
 20
104.4399278257506
 30
0.0
 10
134.6443877909027
 20
103.7984912870453
 30
0.0
  0
LINE
  5
257
330
1F
100
AcDbEntity
  8
0
  6
Continuous
 62
     7
370
    25
100
AcDbLine
 10
140.1828108008
 20
107.8256992655
 30
0.0
 11
140.0833967725
 21
108.0469616029
 31
0.0
  0
LINE
  5
258
330
1F
100
AcDbEntity
  8
0
  6
Continuous
 62
     7
370
    25
100
AcDbLine
 10
157.3810842537
 20
85.9019845696
 30
0.0
 11
157.1904772997
 21
86.0520151001
 31
0.0
  0
LINE
  5
259
330
1F
100
AcDbEntity
  8
0
  6
Continuous
 62
     7
370
    25
100
AcDbLine
 10
137.6906194892
 20
83.3136439158
 30
0.0
 11
137.5487076983
 21
83.1169176731
 31
0.0
  0
LINE
  5
25A
330
1F
100
AcDbEntity
  8
0
  6
Continuous
 62
     7
370
    25
100
AcDbLine
 10
159.4463248661
 20
100.2213896164
 30
0.0
 11
159.2210911384
 21
100.1313344174
 31
0.0
  0
SPLINE
  5
25B
330
1F
100
AcDbEntity
  8
0
  6
Continuous
 62
     7
370
    25
100
AcDbSpline
210
0.0
220
0.0
230
1.0
 70
     8
 71
     3
 72
    11
 73
     7
 74
     0
 42
0.00000001
 43
0.00000001
 40
0.0
 40
0.0
 40
0.0
 40
0.0
 40
0.1446702591042561
 40
0.3907520209323592
 40
0.5962314811354634
 40
1.0
 40
1.0
 40
1.0
 40
1.0
 10
160.4061035960565
 20
93.38683450906731
 30
0.0
 10
160.3977630562182
 20
93.72020147010213
 30
0.0
 10
160.3752353935344
 20
94.6206202192146
 30
0.0
 10
160.254168534621
 20
95.99129867514675
 30
0.0
 10
159.99180998207
 20
97.94759201086093
 30
0.0
 10
159.6637445406971
 20
99.31509846196148
 30
0.0
 10
159.4463248661067
 20
100.2213896164164
 30
0.0
  0
LINE
  5
25C
330
1F
100
AcDbEntity
  8
0
  6
Continuous
 62
     7
370
    25
100
AcDbLine
 10
160.4061035961
 20
93.3868345091
 30
0.0
 11
160.1647777768
 21
93.4113706037
 31
0.0
  0
LINE
  5
25D
330
1F
100
AcDbEntity
  8
0
  6
Continuous
 62
     7
370
    25
100
AcDbLine
 10
148.043349861
 20
108.9295572456
 30
0.0
 11
148.0779766347
 21
109.1696429751
 31
0.0
  0
SPLINE
  5
25E
330
1F
100
AcDbEntity
  8
0
  6
Continuous
 62
     7
370
    25
100
AcDbSpline
210
0.0
220
0.0
230
1.0
 70
     8
 71
     3
 72
    11
 73
     7
 74
     0
 42
0.00000001
 43
0.00000001
 40
0.0
 40
0.0
 40
0.0
 40
0.0
 40
0.1446702591042537
 40
0.3907520209323657
 40
0.5962314811354789
 40
1.0
 40
1.0
 40
1.0
 40
1.0
 10
154.4767643462368
 20
106.5835581836014
 30
0.0
 10
154.1838898192791
 20
106.7430185447376
 30
0.0
 10
153.3928404771619
 20
107.1737183911217
 30
0.0
 10
152.1452646844479
 20
107.7542106437125
 30
0.0
 10
150.3198856821897
 20
108.5051481401602
 30
0.0
 10
148.9715576350111
 20
108.9047883593778
 30
0.0
 10
148.0779766347328
 20
109.1696429751275
 30
0.0
  0
LINE
  5
25F
330
1F
100
AcDbEntity
  8
0
  6
Continuous
 62
     7
370
    25
100
AcDbLine
 10
154.4767643462
 20
106.5835581836
 30
0.0
 11
154.3348525553
 21
106.3868319409
 31
0.0
  0
LINE
  5
260
330
1F
100
AcDbEntity
  8
0
  6
Continuous
 62
     7
370
    25
100
AcDbLine
 10
132.8043809062
 20
89.5691414393
 30
0.0
 11
132.5791471784
 21
89.4790862403
 31
0.0
  0
SPLINE
  5
261
330
1F
100
AcDbEntity
  8
0
  6
Continuous
 62
     7
370
    25
100
AcDbSpline
210
0.0
220
0.0
230
1.0
 70
     8
 71
     3
 72
    11
 73
     7
 74
     0
 42
0.00000001
 43
0.00000001
 40
0.0
 40
0.0
 40
0.0
 40
0.0
 40
0.1446702591042549
 40
0.3907520209323599
 40
0.5962314811354746
 40
1.0
 40
1.0
 40
1.0
 40
1.0
 10
131.6193684484967
 20
96.31364134760129
 30
0.0
 10
131.6277089883351
 20
95.9802743865665
 30
0.0
 10
131.6502366510189
 20
95.07985563745406
 30
0.0
 10
131.7713035099322
 20
93.7091771815218
 30
0.0
 10
132.0336620624833
 20
91.75288384580769
 30
0.0
 10
132.3617275038562
 20
90.38537739470712
 30
0.0
 10
132.5791471784466
 20
89.47908624025214
 30
0.0
  0
LINE
  5
262
330
1F
100
AcDbEntity
  8
0
  6
Continuous
 62
     7
370
    25
100
AcDbLine
 10
131.8606942677
 20
96.289105253
 30
0.0
 11
131.6193684485
 21
96.3136413476
 31
0.0
  0
SPLINE
  5
263
330
1F
100
AcDbEntity
  8
0
  6
Continuous
 62
     7
370
    25
100
AcDbSpline
210
0.0
220
0.0
230
1.0
 70
     8
 71
     3
 72
     9
 73
     5
 74
     0
 42
0.00000001
 43
0.00000001
 40
0.0
 40
0.0
 40
0.0
 40
0.0
 40
0.586228306203279
 40
0.9999999999999999
 40
0.9999999999999999
 40
0.9999999999999999
 40
0.9999999999999999
 10
132.5791471784466
 20
89.47908624025214
 30
0.0
 10
132.6674481681148
 20
89.15823713094268
 30
0.0
 10
132.8180737669369
 20
88.61092628649119
 30
0.0
 10
132.9900203134096
 20
88.06870470623515
 30
0.0
 10
133.0611669271862
 20
87.84434876455946
 30
0.0
  0
SPLINE
  5
264
330
1F
100
AcDbEntity
  8
0
  6
Continuous
 62
     7
370
    25
100
AcDbSpline
210
0.0
220
0.0
230
1.0
 70
     8
 71
     3
 72
     9
 73
     5
 74
     0
 42
0.00000001
 43
0.00000001
 40
0.0
 40
0.0
 40
0.0
 40
0.0
 40
0.5863847898283626
 40
1.0
 40
1.0
 40
1.0
 40
1.0
 10
136.0793271812721
 20
83.98041668797102
 30
0.0
 10
136.3637683829648
 20
83.80618808003915
 30
0.0
 10
136.8488444057858
 20
83.5090647389258
 30
0.0
 10
137.3439319568356
 20
83.23165751874537
 30
0.0
 10
137.5487076983165
 20
83.11691767306725
 30
0.0
  0
ARC
  5
265
330
1F
100
AcDbEntity
  8
0
  6
Continuous
 62
     7
370
    25
100
AcDbCircle
 10
146.0127360223
 20
94.8502379283
 30
0.0
 40
14.72500000000003
100
AcDbArc
 50
208.4102747092
 51
227.5773058346
  0
SPLINE
  5
266
330
1F
100
AcDbEntity
  8
0
  6
Continuous
 62
     7
370
    25
100
AcDbSpline
210
0.0
220
0.0
230
1.0
 70
     8
 71
     3
 72
     9
 73
     5
 74
     0
 42
0.00000001
 43
0.00000001
 40
0.0
 40
0.0
 40
0.0
 40
0.0
 40
0.5862283062032673
 40
1.0
 40
1.0
 40
1.0
 40
1.0
 10
159.4463248661067
 20
100.2213896164164
 30
0.0
 10
159.3580238764384
 20
100.5422387257259
 30
0.0
 10
159.2073982776164
 20
101.0895495701775
 30
0.0
 10
159.0354517311436
 20
101.6317711504335
 30
0.0
 10
158.9643051173671
 20
101.8561270921092
 30
0.0
  0
SPLINE
  5
267
330
1F
100
AcDbEntity
  8
0
  6
Continuous
 62
     7
370
    25
100
AcDbSpline
210
0.0
220
0.0
230
1.0
 70
     8
 71
     3
 72
     9
 73
     5
 74
     0
 42
0.00000001
 43
0.00000001
 40
0.0
 40
0.0
 40
0.0
 40
0.0
 40
0.5863847898283646
 40
1.0
 40
1.0
 40
1.0
 40
1.0
 10
155.9461448632811
 20
105.7200591686976
 30
0.0
 10
155.6617036615885
 20
105.8942877766295
 30
0.0
 10
155.1766276387675
 20
106.1914111177428
 30
0.0
 10
154.6815400877176
 20
106.4688183379233
 30
0.0
 10
154.4767643462368
 20
106.5835581836014
 30
0.0
  0
ARC
  5
268
330
1F
100
AcDbEntity
  8
0
  6
Continuous
 62
     7
370
    25
100
AcDbCircle
 10
146.0127360223
 20
94.8502379283
 30
0.0
 40
14.725
100
AcDbArc
 50
28.4102747092
 51
47.5773058346
  0
SPLINE
  5
269
330
1F
100
AcDbEntity
  8
0
  6
Continuous
 62
     7
370
    25
100
AcDbSpline
210
0.0
220
0.0
230
1.0
 70
     8
 71
     3
 72
     9
 73
     5
 74
     0
 42
0.00000001
 43
0.00000001
 40
0.0
 40
0.0
 40
0.0
 40
0.0
 40
0.5863847898283637
 40
1.0
 40
1.0
 40
1.0
 40
1.0
 10
141.5658991140286
 20
108.8877329510028
 30
0.0
 10
141.2727921126473
 20
108.7285139484199
 30
0.0
 10
140.7729377397754
 20
108.4569874604469
 30
0.0
 10
140.2851522643809
 20
108.1669326742306
 30
0.0
 10
140.0833967724569
 20
108.0469616028684
 30
0.0
  0
ARC
  5
26A
330
1F
100
AcDbEntity
  8
0
  6
Continuous
 62
     7
370
    25
100
AcDbCircle
 10
146.0127360223
 20
94.8502379283
 30
0.0
 40
14.72500000000002
100
AcDbArc
 50
88.4102747092
 51
107.5773058346
  0
SPLINE
  5
26B
330
1F
100
AcDbEntity
  8
0
  6
Continuous
 62
     7
370
    25
100
AcDbSpline
210
0.0
220
0.0
230
1.0
 70
     8
 71
     3
 72
     9
 73
     5
 74
     0
 42
0.00000001
 43
0.00000001
 40
0.0
 40
0.0
 40
0.0
 40
0.0
 40
0.5862283062032907
 40
0.9999999999999999
 40
0.9999999999999999
 40
0.9999999999999999
 40
0.9999999999999999
 10
148.0779766347328
 20
109.1696429751275
 30
0.0
 10
147.7559626604551
 20
109.2535966295502
 30
0.0
 10
147.2066647659823
 20
109.3968064567358
 30
0.0
 10
146.6511138297641
 20
109.5190071695254
 30
0.0
 10
146.4212425778947
 20
109.5695703654395
 30
0.0
  0
SPLINE
  5
26C
330
1F
100
AcDbEntity
  8
0
  6
Continuous
 62
     7
370
    25
100
AcDbSpline
210
0.0
220
0.0
230
1.0
 70
     8
 71
     3
 72
     9
 73
     5
 74
     0
 42
0.00000001
 43
0.00000001
 40
0.0
 40
0.0
 40
0.0
 40
0.0
 40
0.5862283062032714
 40
0.9999999999999999
 40
0.9999999999999999
 40
0.9999999999999999
 40
0.9999999999999999
 10
157.3810842536504
 20
85.90198456962331
 30
0.0
 10
157.6147972382599
 20
86.13888002451014
 30
0.0
 10
158.0134695339106
 20
86.54298104177602
 30
0.0
 10
158.3970739236561
 20
86.96300190924242
 30
0.0
 10
158.555798561749
 20
87.13679465500395
 30
0.0
  0
SPLINE
  5
26D
330
1F
100
AcDbEntity
  8
0
  6
Continuous
 62
     7
370
    25
100
AcDbSpline
210
0.0
220
0.0
230
1.0
 70
     8
 71
     3
 72
     9
 73
     5
 74
     0
 42
0.00000001
 43
0.00000001
 40
0.0
 40
0.0
 40
0.0
 40
0.0
 40
0.5863847898283687
 40
0.9999999999999999
 40
0.9999999999999999
 40
0.9999999999999999
 40
0.9999999999999999
 10
160.3929817715292
 20
91.68256414602912
 30
0.0
 10
160.4016475712178
 20
92.01601175654389
 30
0.0
 10
160.4164259212688
 20
92.58466158563027
 30
0.0
 10
160.4091238456134
 20
93.1521235920271
 30
0.0
 10
160.4061035960565
 20
93.38683450906734
 30
0.0
  0
ARC
  5
26E
330
1F
100
AcDbEntity
  8
0
  6
Continuous
 62
     7
370
    25
100
AcDbCircle
 10
146.0127360223
 20
94.8502379283
 30
0.0
 40
14.72500000000001
100
AcDbArc
 50
328.4102747092
 51
347.5773058346
  0
SPLINE
  5
26F
330
1F
100
AcDbEntity
  8
0
  6
Continuous
 62
     7
370
    25
100
AcDbSpline
210
0.0
220
0.0
230
1.0
 70
     8
 71
     3
 72
     9
 73
     5
 74
     0
 42
0.00000001
 43
0.00000001
 40
0.0
 40
0.0
 40
0.0
 40
0.0
 40
0.5862283062032948
 40
0.9999999999999999
 40
0.9999999999999999
 40
0.9999999999999999
 40
0.9999999999999999
 10
134.6443877909027
 20
103.7984912870453
 30
0.0
 10
134.4106748062933
 20
103.5615958321585
 30
0.0
 10
134.0120025106426
 20
103.1574948148926
 30
0.0
 10
133.6283981208971
 20
102.7374739474262
 30
0.0
 10
133.4696734828042
 20
102.5636812016647
 30
0.0
  0
SPLINE
  5
270
330
1F
100
AcDbEntity
  8
0
  6
Continuous
 62
     7
370
    25
100
AcDbSpline
210
0.0
220
0.0
230
1.0
 70
     8
 71
     3
 72
     9
 73
     5
 74
     0
 42
0.00000001
 43
0.00000001
 40
0.0
 40
0.0
 40
0.0
 40
0.0
 40
0.5863847898283593
 40
1.0
 40
1.0
 40
1.0
 40
1.0
 10
131.6324902730241
 20
98.01791171063954
 30
0.0
 10
131.6238244733354
 20
97.68446410012477
 30
0.0
 10
131.6090461232845
 20
97.11581427103837
 30
0.0
 10
131.6163481989398
 20
96.5483522646416
 30
0.0
 10
131.6193684484967
 20
96.31364134760129
 30
0.0
  0
ARC
  5
271
330
1F
100
AcDbEntity
  8
0
  6
Continuous
 62
     7
370
    25
100
AcDbCircle
 10
146.0127360223
 20
94.8502379283
 30
0.0
 40
14.72500000000002
100
AcDbArc
 50
148.4102747092
 51
167.5773058346
  0
SPLINE
  5
272
330
1F
100
AcDbEntity
  8
0
  6
Continuous
 62
     7
370
    25
100
AcDbSpline
210
0.0
220
0.0
230
1.0
 70
    24
 71
     3
 72
    12
 73
     8
 74
     0
 42
0.00000001
 43
0.00000001
 40
0.0
 40
0.0
 40
0.0
 40
0.0
 40
0.3013828945620923
 40
0.4108442493795686
 40
0.624718519533645
 40
0.6986171054378641
 40
1.0
 40
1.0
 40
1.0
 40
1.0
 10
134.5388835337885
 20
104.033308434279
 30
0.0
 10
135.0740946295982
 20
104.4513677647486
 30
0.0
 10
135.8036927749642
 20
105.0212649782998
 30
0.0
 10
136.9184286950934
 20
105.8919975846831
 30
0.0
 10
137.628576172607
 20
106.4467016655744
 30
0.0
 10
138.6794857123012
 20
107.2675787774064
 30
0.0
 10
139.3459142737472
 20
107.7881335274578
 30
0.0
 10
139.8811129960979
 20
108.2061831928812
 30
0.0
  0
ARC
  5
273
330
1F
100
AcDbEntity
  8
0
  6
Continuous
 62
     7
370
    25
100
AcDbCircle
 10
139.7550913261
 20
107.8379714462
 30
0.0
 40
0.3891803587961267
100
AcDbArc
 50
32.4797014618
 51
71.1063219111
  0
ARC
  5
274
330
1F
100
AcDbEntity
  8
0
  6
Continuous
 62
     7
370
    25
100
AcDbCircle
 10
134.9266524065
 20
104.0664241862
 30
0.0
 40
0.3891803587984202
100
AcDbArc
 50
184.8812586329
 51
223.5078790819
  0
ARC
  5
275
330
1F
100
AcDbEntity
  8
0
  6
Continuous
 62
     7
370
    25
100
AcDbCircle
 10
148.4511456398
 20
109.059161097
 30
0.0
 40
0.3891803588373653
100
AcDbArc
 50
124.8812586349
 51
163.5078790799
  0
SPLINE
  5
276
330
1F
100
AcDbEntity
  8
0
  6
Continuous
 62
     7
370
    25
100
AcDbSpline
210
0.0
220
0.0
230
1.0
 70
    24
 71
     3
 72
    12
 73
     8
 74
     0
 42
0.00000001
 43
0.00000001
 40
0.0
 40
0.0
 40
0.0
 40
0.0
 40
0.301382894562094
 40
0.4108442493795582
 40
0.6247185195336498
 40
0.698617105437864
 40
0.9999999999999999
 40
0.9999999999999999
 40
0.9999999999999999
 40
0.9999999999999999
 10
148.2285821209242
 20
109.3784209156127
 30
0.0
 10
148.8582376693049
 20
109.123944175489
 30
0.0
 10
149.7165822064692
 20
108.7770422538235
 30
0.0
 10
151.0280267235651
 20
108.2470189316723
 30
0.0
 10
151.8634882879568
 20
107.9093652161578
 30
0.0
 10
153.0998434900356
 20
107.4096894136192
 30
0.0
 10
153.8838714083637
 20
107.0928227246251
 30
0.0
 10
154.5135123998393
 20
106.8383518677081
 30
0.0
  0
ARC
  5
277
330
1F
100
AcDbEntity
  8
0
  6
Continuous
 62
     7
370
    25
100
AcDbCircle
 10
154.1316208383
 20
106.763383962
 30
0.0
 40
0.3891803587967603
100
AcDbArc
 50
332.4797014619
 51
11.106321911
  0
SPLINE
  5
278
330
1F
100
AcDbEntity
  8
0
  6
Continuous
 62
     7
370
    25
100
AcDbSpline
210
0.0
220
0.0
230
1.0
 70
    24
 71
     3
 72
    12
 73
     8
 74
     0
 42
0.00000001
 43
0.00000001
 40
0.0
 40
0.0
 40
0.0
 40
0.0
 40
0.3013828945620991
 40
0.4108442493795577
 40
0.6247185195336507
 40
0.6986171054378598
 40
1.0
 40
1.0
 40
1.0
 40
1.0
 10
132.3230374351408
 20
89.50512544700062
 30
0.0
 10
132.2285929825699
 20
90.17766151759399
 30
0.0
 10
132.0998465907717
 20
91.09446065281054
 30
0.0
 10
131.9031379938049
 20
92.49521658134505
 30
0.0
 10
131.7778239069269
 20
93.38757437775088
 30
0.0
 10
131.5923782445422
 20
94.7081272921216
 30
0.0
 10
131.4747788876601
 20
95.545548731167
 30
0.0
 10
131.3803366185352
 20
96.21806925350731
 30
0.0
  0
ARC
  5
279
330
1F
100
AcDbEntity
  8
0
  6
Continuous
 62
     7
370
    25
100
AcDbCircle
 10
131.6362065101
 20
95.9248254125
 30
0.0
 40
0.3891803587962416
100
AcDbArc
 50
92.4797014618
 51
131.1063219111
  0
ARC
  5
27A
330
1F
100
AcDbEntity
  8
0
  6
Continuous
 62
     7
370
    25
100
AcDbCircle
 10
132.4882427891
 20
89.8575010175
 30
0.0
 40
0.3891803587989203
100
AcDbArc
 50
244.8812586329
 51
283.5078790818
  0
ARC
  5
27B
330
1F
100
AcDbEntity
  8
0
  6
Continuous
 62
     7
370
    25
100
AcDbCircle
 10
159.5372292555
 20
99.8429748391
 30
0.0
 40
0.3891803588383542
100
AcDbArc
 50
64.881258635
 51
103.5078790798
  0
SPLINE
  5
27C
330
1F
100
AcDbEntity
  8
0
  6
Continuous
 62
     7
370
    25
100
AcDbSpline
210
0.0
220
0.0
230
1.0
 70
    24
 71
     3
 72
    12
 73
     8
 74
     0
 42
0.00000001
 43
0.00000001
 40
0.0
 40
0.0
 40
0.0
 40
0.0
 40
0.3013828945621496
 40
0.4108442493795798
 40
0.6247185195336613
 40
0.6986171054378627
 40
1.0
 40
1.0
 40
1.0
 40
1.0
 10
159.7024346094124
 20
100.195350409668
 30
0.0
 10
159.7968790619834
 20
99.52281433907447
 30
0.0
 10
159.9256254537816
 20
98.6060152038579
 30
0.0
 10
160.1223340507484
 20
97.20525927532334
 30
0.0
 10
160.2476481376264
 20
96.31290147891758
 30
0.0
 10
160.433093800011
 20
94.99234856454697
 30
0.0
 10
160.5506931568931
 20
94.15492712550163
 30
0.0
 10
160.645135426018
 20
93.4824066031613
 30
0.0
  0
ARC
  5
27D
330
1F
100
AcDbEntity
  8
0
  6
Continuous
 62
     7
370
    25
100
AcDbCircle
 10
160.3892655345
 20
93.7756504441
 30
0.0
 40
0.3891803587965589
100
AcDbArc
 50
272.4797014619
 51
311.1063219111
  0
ARC
  5
27E
330
1F
100
AcDbEntity
  8
0
  6
Continuous
 62
     7
370
    25
100
AcDbCircle
 10
157.098819638
 20
85.6340516704
 30
0.0
 40
0.3891803588380851
100
AcDbArc
 50
4.8812586349
 51
43.5078790798
  0
SPLINE
  5
27F
330
1F
100
AcDbEntity
  8
0
  6
Continuous
 62
     7
370
    25
100
AcDbSpline
210
0.0
220
0.0
230
1.0
 70
    24
 71
     3
 72
    11
 73
     7
 74
     0
 42
0.00000001
 43
0.00000001
 40
0.0
 40
0.0
 40
0.0
 40
0.0
 40
0.4507457568859869
 40
0.6144552510781464
 40
0.9343238352560659
 40
1.0
 40
1.0
 40
1.0
 40
1.0
 10
157.4865885107647
 20
85.66716742238961
 30
0.0
 10
156.9513700467656
 20
85.24910233654548
 30
0.0
 10
156.2217618571063
 20
84.67919727728527
 30
0.0
 10
155.1070731245385
 20
83.80850152963029
 30
0.0
 10
154.4503422983247
 20
83.2955217882624
 30
0.0
 10
153.990631883185
 20
82.93643687790092
 30
0.0
 10
153.912321863288
 20
82.8752680517247
 30
0.0
  0
LINE
  5
280
330
1F
100
AcDbEntity
  8
0
  6
Continuous
 62
     7
370
    25
100
AcDbLine
 10
138.1123130075
 20
82.6194897946
 30
0.0
 11
137.5119596447
 21
82.862123989
 31
0.0
  0
ARC
  5
281
330
1F
100
AcDbEntity
  8
0
  6
Continuous
 62
     7
370
    25
100
AcDbCircle
 10
137.8938512063
 20
82.9370918946
 30
0.0
 40
0.3891803587965149
100
AcDbArc
 50
152.4797014619
 51
191.1063219111
  0
LINE
  5
282
330
1F
100
AcDbEntity
  8
0
  6
Continuous
 62
     7
370
    25
100
AcDbLine
 10
137.5119596447
 20
82.862123989
 30
0.0
 11
135.8919736415
 21
83.5168450634
 31
0.0
  0
LINE
  5
283
330
1F
100
AcDbEntity
  8
0
  6
Continuous
 62
     7
370
    25
100
AcDbLine
 10
135.8919736415
 20
83.5168450634
 30
0.0
 11
136.0793271813
 21
83.980416688
 31
0.0
  0
LINE
  5
284
330
1F
100
AcDbEntity
  8
0
  6
Continuous
 62
     7
370
    25
100
AcDbLine
 10
139.8811129961
 20
108.2061831929
 30
0.0
 11
141.2581110806
 21
109.2817716882
 31
0.0
  0
LINE
  5
285
330
1F
100
AcDbEntity
  8
0
  6
Continuous
 62
     7
370
    25
100
AcDbLine
 10
141.2581110806
 20
109.2817716882
 30
0.0
 11
141.565899114
 21
108.887732951
 31
0.0
  0
LINE
  5
286
330
1F
100
AcDbEntity
  8
0
  6
Continuous
 62
     7
370
    25
100
AcDbLine
 10
154.5135123998
 20
106.8383518677
 30
0.0
 11
156.1334984031
 21
106.1836307933
 31
0.0
  0
LINE
  5
287
330
1F
100
AcDbEntity
  8
0
  6
Continuous
 62
     7
370
    25
100
AcDbLine
 10
155.9461448633
 20
105.7200591687
 30
0.0
 11
156.1334984031
 21
106.1836307933
 31
0.0
  0
LINE
  5
288
330
1F
100
AcDbEntity
  8
0
  6
Continuous
 62
     7
370
    25
100
AcDbLine
 10
131.3803366185
 20
96.2180692535
 30
0.0
 11
131.1373486998
 21
97.9483788233
 31
0.0
  0
LINE
  5
289
330
1F
100
AcDbEntity
  8
0
  6
Continuous
 62
     7
370
    25
100
AcDbLine
 10
131.1373486998
 20
97.9483788233
 30
0.0
 11
131.632490273
 21
98.0179117106
 31
0.0
  0
LINE
  5
28A
330
1F
100
AcDbEntity
  8
0
  6
Continuous
 62
     7
370
    25
100
AcDbLine
 10
160.645135426
 20
93.4824066032
 30
0.0
 11
160.8881233448
 21
91.7520970334
 31
0.0
  0
LINE
  5
28B
330
1F
100
AcDbEntity
  8
0
  6
Continuous
 62
     7
370
    25
100
AcDbLine
 10
160.8881233448
 20
91.7520970334
 30
0.0
 11
160.3929817715
 21
91.682564146
 31
0.0
  0
LINE
  5
28C
330
1F
100
AcDbEntity
  8
0
  6
Continuous
 62
     7
370
    25
100
AcDbLine
 10
132.5660253539
 20
87.7748158772
 30
0.0
 11
132.3230374351
 21
89.505125447
 31
0.0
  0
LINE
  5
28D
330
1F
100
AcDbEntity
  8
0
  6
Continuous
 62
     7
370
    25
100
AcDbLine
 10
133.0611669272
 20
87.8443487646
 30
0.0
 11
132.5660253539
 21
87.7748158772
 31
0.0
  0
LINE
  5
28E
330
1F
100
AcDbEntity
  8
0
  6
Continuous
 62
     7
370
    25
100
AcDbLine
 10
158.5557985617
 20
87.136794655
 30
0.0
 11
158.8635865952
 21
86.7427559178
 31
0.0
  0
LINE
  5
28F
330
1F
100
AcDbEntity
  8
0
  6
Continuous
 62
     7
370
    25
100
AcDbLine
 10
158.8635865952
 20
86.7427559178
 30
0.0
 11
157.4865885108
 21
85.6671674224
 31
0.0
  0
LINE
  5
290
330
1F
100
AcDbEntity
  8
0
  6
Continuous
 62
     7
370
    25
100
AcDbLine
 10
158.9643051174
 20
101.8561270921
 30
0.0
 11
159.4594466906
 21
101.9256599795
 31
0.0
  0
LINE
  5
291
330
1F
100
AcDbEntity
  8
0
  6
Continuous
 62
     7
370
    25
100
AcDbLine
 10
159.4594466906
 20
101.9256599795
 30
0.0
 11
159.7024346094
 21
100.1953504097
 31
0.0
  0
LINE
  5
292
330
1F
100
AcDbEntity
  8
0
  6
Continuous
 62
     7
370
    25
100
AcDbLine
 10
133.1618854493
 20
102.9577199389
 30
0.0
 11
134.5388835338
 21
104.0333084343
 31
0.0
  0
LINE
  5
293
330
1F
100
AcDbEntity
  8
0
  6
Continuous
 62
     7
370
    25
100
AcDbLine
 10
133.1618854493
 20
102.9577199389
 30
0.0
 11
133.4696734828
 21
102.5636812017
 31
0.0
  0
LINE
  5
294
330
1F
100
AcDbEntity
  8
0
  6
Continuous
 62
     7
370
    25
100
AcDbLine
 10
146.4212425779
 20
109.5695703654
 30
0.0
 11
146.6085961177
 21
110.03314199
 31
0.0
  0
LINE
  5
295
330
1F
100
AcDbEntity
  8
0
  6
Continuous
 62
     7
370
    25
100
AcDbLine
 10
146.6085961177
 20
110.03314199
 30
0.0
 11
148.2285821209
 21
109.3784209156
 31
0.0
  0
LINE
  5
296
330
1F
100
AcDbEntity
  8
0
  6
Continuous
 62
     7
370
    25
100
AcDbLine
 10
133.0611669272
 20
87.8443487646
 30
0.0
 11
133.3283019922
 21
85.9420881015
 31
0.0
  0
LINE
  5
297
330
1F
100
AcDbEntity
  8
0
  6
Continuous
 62
     7
370
    25
100
AcDbLine
 10
133.3283019922
 20
85.9420881015
 30
0.0
 11
132.833160419
 21
85.8725552141
 31
0.0
  0
LINE
  5
298
330
1F
100
AcDbEntity
  8
0
  6
Continuous
 62
     7
370
    25
100
AcDbLine
 10
132.833160419
 20
85.8725552141
 30
0.0
 11
132.5660253539
 21
87.7748158772
 31
0.0
  0
ARC
  5
299
330
1F
100
AcDbEntity
  8
0
  6
Continuous
 62
     7
370
    25
100
AcDbCircle
 10
146.0127360223
 20
94.8502379283
 30
0.0
 40
15.50000000000002
100
AcDbArc
 50
95.0799800305
 51
100.9076005133
  0
LINE
  5
29A
330
1F
100
AcDbEntity
  8
0
  6
Continuous
 62
     7
370
    25
100
AcDbLine
 10
142.9851247893
 20
110.561175845
 30
0.0
 11
143.0797376404
 21
110.0702090351
 31
0.0
  0
ARC
  5
29B
330
1F
100
AcDbEntity
  8
0
  6
Continuous
 62
     7
370
    25
100
AcDbCircle
 10
146.0127360223
 20
94.8502379283
 30
0.0
 40
16.00000000000001
100
AcDbArc
 50
95.0799800305
 51
100.9076005133
  0
LINE
  5
29C
330
1F
100
AcDbEntity
  8
0
  6
Continuous
 62
     7
370
    25
100
AcDbLine
 10
144.6402689865
 20
110.2893549444
 30
0.0
 11
144.5959958563
 21
110.7873909772
 31
0.0
  0
LINE
  5
29D
330
1F
100
AcDbEntity
  8
0
  6
Continuous
 62
     7
370
    25
100
AcDbLine
 10
133.9204702856
 20
84.3727807295
 30
0.0
 11
134.2983535899
 21
84.7002012669
 31
0.0
  0
LINE
  5
29E
330
1F
100
AcDbEntity
  8
0
  6
Continuous
 62
     7
370
    25
100
AcDbLine
 10
134.1110000501
 20
84.2366296423
 30
0.0
 11
134.2983535899
 21
84.7002012669
 31
0.0
  0
ARC
  5
29F
330
1F
100
AcDbEntity
  8
0
  6
Continuous
 62
     7
370
    25
100
AcDbCircle
 10
134.2983535899
 20
84.7002012669
 30
0.0
 40
0.4999999999999908
100
AcDbArc
 50
220.9076005133
 51
247.9937902719
  0
LINE
  5
2A0
330
1F
100
AcDbEntity
  8
0
  6
Continuous
 62
     7
370
    25
100
AcDbLine
 10
158.5557985617
 20
87.136794655
 30
0.0
 11
160.0696370881
 21
88.3192707391
 31
0.0
  0
LINE
  5
2A1
330
1F
100
AcDbEntity
  8
0
  6
Continuous
 62
     7
370
    25
100
AcDbLine
 10
160.6601168366
 20
89.7803034829
 30
0.0
 11
160.3929817715
 21
91.682564146
 31
0.0
  0
ARC
  5
2A2
330
1F
100
AcDbEntity
  8
0
  6
Continuous
 62
     7
370
    25
100
AcDbCircle
 10
146.0127360223
 20
94.8502379283
 30
0.0
 40
15.5
100
AcDbArc
 50
335.0799800305
 51
340.9076005133
  0
LINE
  5
2A3
330
1F
100
AcDbEntity
  8
0
  6
Continuous
 62
     7
370
    25
100
AcDbLine
 10
141.2581110806
 20
109.2817716882
 30
0.0
 11
142.7719496069
 21
110.4642477724
 31
0.0
  0
LINE
  5
2A4
330
1F
100
AcDbEntity
  8
0
  6
Continuous
 62
     7
370
    25
100
AcDbLine
 10
142.7719496069
 20
110.4642477724
 30
0.0
 11
143.0797376404
 21
110.0702090351
 31
0.0
  0
LINE
  5
2A5
330
1F
100
AcDbEntity
  8
0
  6
Continuous
 62
     7
370
    25
100
AcDbLine
 10
143.0797376404
 20
110.0702090351
 30
0.0
 11
141.565899114
 21
108.887732951
 31
0.0
  0
ARC
  5
2A6
330
1F
100
AcDbEntity
  8
0
  6
Continuous
 62
     7
370
    25
100
AcDbCircle
 10
160.0696370881
 20
88.3192707391
 30
0.0
 40
0.500000000000008
100
AcDbArc
 50
307.9937902719
 51
335.0799800305
  0
LINE
  5
2A7
330
1F
100
AcDbEntity
  8
0
  6
Continuous
 62
     7
370
    25
100
AcDbLine
 10
160.0696370881
 20
88.3192707391
 30
0.0
 11
160.3774251215
 21
87.9252320019
 31
0.0
  0
LINE
  5
2A8
330
1F
100
AcDbEntity
  8
0
  6
Continuous
 62
     7
370
    25
100
AcDbLine
 10
160.0696370881
 20
88.3192707391
 30
0.0
 11
160.5230855095
 21
88.1085943782
 31
0.0
  0
LINE
  5
2A9
330
1F
100
AcDbEntity
  8
0
  6
Continuous
 62
     7
370
    25
100
AcDbLine
 10
131.648046923
 20
101.7752438548
 30
0.0
 11
133.1618854493
 21
102.9577199389
 31
0.0
  0
LINE
  5
2AA
330
1F
100
AcDbEntity
  8
0
  6
Continuous
 62
     7
370
    25
100
AcDbLine
 10
133.4696734828
 20
102.5636812017
 30
0.0
 11
131.9558349565
 21
101.3812051175
 31
0.0
  0
LINE
  5
2AB
330
1F
100
AcDbEntity
  8
0
  6
Continuous
 62
     7
370
    25
100
AcDbLine
 10
131.648046923
 20
101.7752438548
 30
0.0
 11
131.9558349565
 21
101.3812051175
 31
0.0
  0
LINE
  5
2AC
330
1F
100
AcDbEntity
  8
0
  6
Continuous
 62
     7
370
    25
100
AcDbLine
 10
131.1373486998
 20
97.9483788233
 30
0.0
 11
130.8702136347
 21
99.8506394864
 31
0.0
  0
LINE
  5
2AD
330
1F
100
AcDbEntity
  8
0
  6
Continuous
 62
     7
370
    25
100
AcDbLine
 10
130.8702136347
 20
99.8506394864
 30
0.0
 11
131.365355208
 21
99.9201723737
 31
0.0
  0
LINE
  5
2AE
330
1F
100
AcDbEntity
  8
0
  6
Continuous
 62
     7
370
    25
100
AcDbLine
 10
131.365355208
 20
99.9201723737
 30
0.0
 11
131.632490273
 21
98.0179117106
 31
0.0
  0
ARC
  5
2AF
330
1F
100
AcDbEntity
  8
0
  6
Continuous
 62
     7
370
    25
100
AcDbCircle
 10
146.0127360223
 20
94.8502379283
 30
0.0
 40
16.00000000000002
100
AcDbArc
 50
155.0799800305
 51
160.9076005133
  0
LINE
  5
2B0
330
1F
100
AcDbEntity
  8
0
  6
Continuous
 62
     7
370
    25
100
AcDbLine
 10
131.502386535
 20
101.5918814785
 30
0.0
 11
131.9558349565
 21
101.3812051175
 31
0.0
  0
ARC
  5
2B1
330
1F
100
AcDbEntity
  8
0
  6
Continuous
 62
     7
370
    25
100
AcDbCircle
 10
146.0127360223
 20
94.8502379283
 30
0.0
 40
15.50000000000002
100
AcDbArc
 50
155.0799800305
 51
160.9076005133
  0
LINE
  5
2B2
330
1F
100
AcDbEntity
  8
0
  6
Continuous
 62
     7
370
    25
100
AcDbLine
 10
130.8928590527
 20
100.0837186462
 30
0.0
 11
131.365355208
 21
99.9201723737
 31
0.0
  0
ARC
  5
2B3
330
1F
100
AcDbEntity
  8
0
  6
Continuous
 62
     7
370
    25
100
AcDbCircle
 10
144.6402689865
 20
110.2893549444
 30
0.0
 40
0.4999999999999948
100
AcDbArc
 50
67.9937902719
 51
95.0799800305
  0
LINE
  5
2B4
330
1F
100
AcDbEntity
  8
0
  6
Continuous
 62
     7
370
    25
100
AcDbLine
 10
144.6402689865
 20
110.2893549444
 30
0.0
 11
144.8276225263
 21
110.752926569
 31
0.0
  0
ARC
  5
2B5
330
1F
100
AcDbEntity
  8
0
  6
Continuous
 62
     7
370
    25
100
AcDbCircle
 10
146.0127360223
 20
94.8502379283
 30
0.0
 40
16.00000000000002
100
AcDbArc
 50
215.0799800305
 51
220.9076005133
  0
LINE
  5
2B6
330
1F
100
AcDbEntity
  8
0
  6
Continuous
 62
     7
370
    25
100
AcDbLine
 10
132.919126701
 20
85.6547284296
 30
0.0
 11
133.3283019922
 21
85.9420881015
 31
0.0
  0
ARC
  5
2B7
330
1F
100
AcDbEntity
  8
0
  6
Continuous
 62
     7
370
    25
100
AcDbCircle
 10
146.0127360223
 20
94.8502379283
 30
0.0
 40
15.50000000000003
100
AcDbArc
 50
215.0799800305
 51
220.9076005133
  0
LINE
  5
2B8
330
1F
100
AcDbEntity
  8
0
  6
Continuous
 62
     7
370
    25
100
AcDbLine
 10
146.4212425779
 20
109.5695703654
 30
0.0
 11
144.6402689865
 21
110.2893549444
 31
0.0
  0
LINE
  5
2B9
330
1F
100
AcDbEntity
  8
0
  6
Continuous
 62
     7
370
    25
100
AcDbLine
 10
160.8881233448
 20
91.7520970334
 30
0.0
 11
161.1552584099
 21
89.8498363703
 31
0.0
  0
LINE
  5
2BA
330
1F
100
AcDbEntity
  8
0
  6
Continuous
 62
     7
370
    25
100
AcDbLine
 10
161.1552584099
 20
89.8498363703
 30
0.0
 11
160.6601168366
 21
89.7803034829
 31
0.0
  0
LINE
  5
2BB
330
1F
100
AcDbEntity
  8
0
  6
Continuous
 62
     7
370
    25
100
AcDbLine
 10
158.9643051174
 20
101.8561270921
 30
0.0
 11
158.6971700523
 21
103.7583877552
 31
0.0
  0
LINE
  5
2BC
330
1F
100
AcDbEntity
  8
0
  6
Continuous
 62
     7
370
    25
100
AcDbLine
 10
157.7271184547
 20
105.0002745897
 30
0.0
 11
155.9461448633
 21
105.7200591687
 31
0.0
  0
ARC
  5
2BD
330
1F
100
AcDbEntity
  8
0
  6
Continuous
 62
     7
370
    25
100
AcDbCircle
 10
146.0127360223
 20
94.8502379283
 30
0.0
 40
15.5
100
AcDbArc
 50
35.0799800305
 51
40.9076005133
  0
LINE
  5
2BE
330
1F
100
AcDbEntity
  8
0
  6
Continuous
 62
     7
370
    25
100
AcDbLine
 10
158.6971700523
 20
103.7583877552
 30
0.0
 11
159.1923116256
 21
103.8279206425
 31
0.0
  0
LINE
  5
2BF
330
1F
100
AcDbEntity
  8
0
  6
Continuous
 62
     7
370
    25
100
AcDbLine
 10
159.1923116256
 20
103.8279206425
 30
0.0
 11
159.4594466906
 21
101.9256599795
 31
0.0
  0
ARC
  5
2C0
330
1F
100
AcDbEntity
  8
0
  6
Continuous
 62
     7
370
    25
100
AcDbCircle
 10
143.0797376404
 20
110.0702090351
 30
0.0
 40
0.500000000000008
100
AcDbArc
 50
100.9076005133
 51
127.9937902719
  0
ARC
  5
2C1
330
1F
100
AcDbEntity
  8
0
  6
Continuous
 62
     7
370
    25
100
AcDbCircle
 10
158.6971700523
 20
103.7583877552
 30
0.0
 40
0.5000000000000345
100
AcDbArc
 50
7.9937902719
 51
35.0799800305
  0
LINE
  5
2C2
330
1F
100
AcDbEntity
  8
0
  6
Continuous
 62
     7
370
    25
100
AcDbLine
 10
158.6971700523
 20
103.7583877552
 30
0.0
 11
159.1063453436
 21
104.045747427
 31
0.0
  0
ARC
  5
2C3
330
1F
100
AcDbEntity
  8
0
  6
Continuous
 62
     7
370
    25
100
AcDbCircle
 10
131.365355208
 20
99.9201723737
 30
0.0
 40
0.5000000000000064
100
AcDbArc
 50
160.9076005133
 51
187.9937902719
  0
ARC
  5
2C4
330
1F
100
AcDbEntity
  8
0
  6
Continuous
 62
     7
370
    25
100
AcDbCircle
 10
133.3283019922
 20
85.9420881015
 30
0.0
 40
0.5000000000000345
100
AcDbArc
 50
187.9937902719
 51
215.0799800305
  0
LINE
  5
2C5
330
1F
100
AcDbEntity
  8
0
  6
Continuous
 62
     7
370
    25
100
AcDbLine
 10
144.8276225263
 20
110.752926569
 30
0.0
 11
146.6085961177
 21
110.03314199
 31
0.0
  0
ARC
  5
2C6
330
1F
100
AcDbEntity
  8
0
  6
Continuous
 62
     7
370
    25
100
AcDbCircle
 10
157.7271184547
 20
105.0002745897
 30
0.0
 40
0.5000000000000014
100
AcDbArc
 50
40.9076005133
 51
67.9937902719
  0
LINE
  5
2C7
330
1F
100
AcDbEntity
  8
0
  6
Continuous
 62
     7
370
    25
100
AcDbLine
 10
157.7271184547
 20
105.0002745897
 30
0.0
 11
158.1050017589
 21
105.3276951272
 31
0.0
  0
LINE
  5
2C8
330
1F
100
AcDbEntity
  8
0
  6
Continuous
 62
     7
370
    25
100
AcDbLine
 10
157.7271184547
 20
105.0002745897
 30
0.0
 11
157.9144719945
 21
105.4638462143
 31
0.0
  0
LINE
  5
2C9
330
1F
100
AcDbEntity
  8
0
  6
Continuous
 62
     7
370
    25
100
AcDbLine
 10
134.2983535899
 20
84.7002012669
 30
0.0
 11
136.0793271813
 21
83.980416688
 31
0.0
  0
ARC
  5
2CA
330
1F
100
AcDbEntity
  8
0
  6
Continuous
 62
     7
370
    25
100
AcDbCircle
 10
146.0127360223
 20
94.8502379283
 30
0.0
 40
15.99999999999998
100
AcDbArc
 50
35.0799800305
 51
40.9076005133
  0
LINE
  5
2CB
330
1F
100
AcDbEntity
  8
0
  6
Continuous
 62
     7
370
    25
100
AcDbLine
 10
160.3774251215
 20
87.9252320019
 30
0.0
 11
158.8635865952
 21
86.7427559178
 31
0.0
  0
LINE
  5
2CC
330
1F
100
AcDbEntity
  8
0
  6
Continuous
 62
     7
370
    25
100
AcDbLine
 10
135.8919736415
 20
83.5168450634
 30
0.0
 11
134.1110000501
 21
84.2366296423
 31
0.0
  0
ARC
  5
2CD
330
1F
100
AcDbEntity
  8
0
  6
Continuous
 62
     7
370
    25
100
AcDbCircle
 10
131.9558349565
 20
101.3812051175
 30
0.0
 40
0.5000000000000265
100
AcDbArc
 50
127.9937902719
 51
155.0799800305
  0
LINE
  5
2CE
330
1F
100
AcDbEntity
  8
0
  6
Continuous
 62
     7
370
    25
100
AcDbLine
 10
160.6601168366
 20
89.7803034829
 30
0.0
 11
161.1326129919
 21
89.6167572105
 31
0.0
  0
ARC
  5
2CF
330
1F
100
AcDbEntity
  8
0
  6
Continuous
 62
     7
370
    25
100
AcDbCircle
 10
146.0127360223
 20
94.8502379283
 30
0.0
 40
15.99999999999998
100
AcDbArc
 50
335.0799800305
 51
340.9076005133
  0
LINE
  5
2D0
330
1F
100
AcDbEntity
  8
0
  6
Continuous
 62
     7
370
    25
100
AcDbLine
 10
156.1334984031
 20
106.1836307933
 30
0.0
 11
157.9144719945
 21
105.4638462143
 31
0.0
  0
ARC
  5
2D1
330
1F
100
AcDbEntity
  8
0
  6
Continuous
 62
     7
370
    25
100
AcDbCircle
 10
160.6601168366
 20
89.7803034829
 30
0.0
 40
0.5000000000000064
100
AcDbArc
 50
340.9076005133
 51
7.9937902719
  0
ARC
  5
2D2
330
1F
100
AcDbEntity
  8
0
  6
Continuous
 62
     7
370
    25
100
AcDbCircle
 10
146.0127360223
 20
94.8502379283
 30
0.0
 40
8.250000000000007
100
AcDbArc
 50
346.1465798862
 51
194.7247618871
  0
ARC
  5
2D3
330
1F
100
AcDbEntity
  8
0
  6
Continuous
 62
     7
370
    25
100
AcDbCircle
 10
146.0127360223
 20
94.8502379283
 30
0.0
 40
8.050000000000015
100
AcDbArc
 50
354.8620990868
 51
58.0512762162
  0
LWPOLYLINE
  5
2D4
330
1F
100
AcDbEntity
  8
0
  6
Continuous
 62
     7
370
    25
100
AcDbPolyline
 90
        3
 70
   128
 43
0.0
 10
137.9917566493
 20
95.5331653756
 10
138.0185547821
 20
93.9038942809
 10
138.03297953
 20
93.7891129011
  0
ARC
  5
2D5
330
1F
100
AcDbEntity
  8
0
  6
Continuous
 62
     7
370
    25
100
AcDbCircle
 10
146.0127360223
 20
94.8502379283
 30
0.0
 40
9.57500000000001
100
AcDbArc
 50
326.7612002822
 51
212.8460394593
  0
SPLINE
  5
2D6
330
1F
100
AcDbEntity
  8
0
  6
Continuous
 62
     7
370
    25
100
AcDbSpline
210
0.0
220
0.0
230
1.0
 70
     8
 71
     3
 72
    19
 73
    15
 74
     0
 42
0.00000001
 43
0.00000001
 40
0.0
 40
0.0
 40
0.0
 40
0.0
 40
0.0029114949483349
 40
0.1103449700018815
 40
0.2177792512512343
 40
0.3251903449012479
 40
0.4325535863764737
 40
0.5398727389020742
 40
0.6471708839500625
 40
0.7544802800170777
 40
0.8618784706644684
 40
0.969275454392945
 40
0.9970885050516537
 40
1.0
 40
1.0
 40
1.0
 40
1.0
 10
153.9127360175518
 20
94.84996470064804
 30
0.0
 10
153.9126653550378
 20
94.87393342430012
 30
0.0
 10
153.9099872624714
 20
95.78234238234495
 30
0.0
 10
153.5848800556504
 20
97.5868224181489
 30
0.0
 10
152.2528961570935
 20
99.93773747682525
 30
0.0
 10
150.2159920862563
 20
101.7174502250215
 30
0.0
 10
147.7057306092344
 20
102.7214714249641
 30
0.0
 10
145.0053265610245
 20
102.8381271508197
 30
0.0
 10
142.4190066120085
 20
102.0549212879059
 30
0.0
 10
140.2373577744284
 20
100.4593768070834
 30
0.0
 10
138.7059238090271
 20
98.23356639764417
 30
0.0
 10
138.1739515857583
 20
96.26380261177023
 30
0.0
 10
138.1135677692173
 20
95.12743992570546
 30
0.0
 10
138.1128080216008
 20
94.87448177505698
 30
0.0
 10
138.1127360270015
 20
94.85051115602245
 30
0.0
  0
ARC
  5
2D7
330
1F
100
AcDbEntity
  8
0
  6
Continuous
 62
     7
370
    25
100
AcDbCircle
 10
146.0158937612
 20
-49.5937452348
 30
0.0
 40
7.891849296027492
100
AcDbArc
 50
269.9388233579
 51
359.9502454976
  0
ARC
  5
2D8
330
1F
100
AcDbEntity
  8
0
  6
Continuous
 62
     7
370
    25
100
AcDbCircle
 10
145.9995868668
 20
-49.5937446708
 30
0.0
 40
7.891849296027641
100
AcDbArc
 50
180.0457912636
 51
270.0572134032
  0
SPLINE
  5
2D9
330
1F
100
AcDbEntity
  8
0
  6
Continuous
 62
     7
370
    25
100
AcDbSpline
210
0.0
220
0.0
230
1.0
 70
     8
 71
     3
 72
    17
 73
    13
 74
     0
 42
0.00000001
 43
0.00000001
 40
0.0
 40
0.0
 40
0.0
 40
0.0
 40
0.0376671985718299
 40
0.1484604333427449
 40
0.2592527213937429
 40
0.3701734624636364
 40
0.4815783269801212
 40
0.5929753207203721
 40
0.7048362597292981
 40
0.8167489528367889
 40
0.9289020022658332
 40
1.0
 40
1.0
 40
1.0
 40
1.0
 10
152.9481649064881
 20
-57.68455567201438
 30
0.0
 10
152.6377458330259
 20
-57.94042061353107
 30
0.0
 10
151.4142688580614
 20
-58.94887947256563
 30
0.0
 10
148.8414669174971
 20
-60.1390200872526
 30
0.0
 10
145.2508213959343
 20
-60.52313392163791
 30
0.0
 10
141.7212213229464
 20
-59.69384398946711
 30
0.0
 10
138.6602796887668
 20
-57.74525320941122
 30
0.0
 10
136.4134242057776
 20
-54.89072329733732
 30
0.0
 10
135.2254027012789
 20
-51.44162721413794
 30
0.0
 10
135.2844872141746
 20
-47.8211375160418
 30
0.0
 10
136.2695167797715
 20
-44.72147216601798
 30
0.0
 10
137.5940747927676
 20
-43.26652893494195
 30
0.0
 10
138.1079786643394
 20
-42.70203802398822
 30
0.0
  0
SPLINE
  5
2DA
330
1F
100
AcDbEntity
  8
0
  6
Continuous
 62
     7
370
    25
100
AcDbSpline
210
0.0
220
0.0
230
1.0
 70
     8
 71
     3
 72
     9
 73
     5
 74
     0
 42
0.00000001
 43
0.00000001
 40
0.0
 40
0.0
 40
0.0
 40
0.0
 40
0.666174492956978
 40
0.9999999999999999
 40
0.9999999999999999
 40
0.9999999999999999
 40
0.9999999999999999
 10
153.0073941676136
 20
-57.76128469181043
 30
0.0
 10
152.9970146886712
 20
-57.74724907143616
 30
0.0
 10
152.9814339676256
 20
-57.72618008647409
 30
0.0
 10
152.9564913788373
 20
-57.69497329500108
 30
0.0
 10
152.9481649064881
 20
-57.68455567201438
 30
0.0
  0
LINE
  5
2DB
330
1F
100
AcDbEntity
  8
0
  6
Continuous
 62
     7
370
    25
100
AcDbLine
 10
146.01300925
 20
102.7502379236
 30
0.0
 11
145.7605304213
 21
102.7308862409
 31
0.0
  0
LINE
  5
2DC
330
1F
100
AcDbEntity
  8
0
  6
Continuous
 62
     8
370
    25
100
AcDbLine
 10
237.9177410118
 20
88.9251101572
 30
0.0
 11
237.9177410118
 21
100.7753656995
 31
0.0
  0
LINE
  5
2DD
330
1F
100
AcDbEntity
  8
0
  6
Continuous
 62
     8
370
    25
100
AcDbLine
 10
53.3533668179
 20
97.2225297126
 30
0.0
 11
53.3533668179
 21
99.0476712946
 31
0.0
  0
LINE
  5
2DE
330
1F
100
AcDbEntity
  8
0
  6
Continuous
 62
     8
370
    25
100
AcDbLine
 10
53.3533668179
 20
90.6528045621
 30
0.0
 11
53.3533668179
 21
97.2225297126
 31
0.0
  0
LINE
  5
2DF
330
1F
100
AcDbEntity
  8
0
  6
Continuous
 62
     8
370
    25
100
AcDbLine
 10
52.5927142206
 20
96.1082084545
 30
0.0
 11
52.8156160942
 21
96.1082084545
 31
0.0
  0
LINE
  5
2E0
330
1F
100
AcDbEntity
  8
0
  6
Continuous
 62
     8
370
    25
100
AcDbLine
 10
52.7311559183
 20
93.3974225936
 30
0.0
 11
52.5927142206
 21
93.3974225936
 31
0.0
  0
LINE
  5
2E1
330
1F
100
AcDbEntity
  8
0
  6
Continuous
 62
     8
370
    25
100
AcDbLine
 10
52.5927142206
 20
95.6248411528
 30
0.0
 11
52.7469571427
 21
95.6248411528
 31
0.0
  0
LINE
  5
2E2
330
1F
100
AcDbEntity
  8
0
  6
Continuous
 62
     8
370
    25
100
AcDbLine
 10
238.6721052266
 20
97.2225297126
 30
0.0
 11
238.6721052266
 21
90.6528045621
 31
0.0
  0
LINE
  5
2E3
330
1F
100
AcDbEntity
  8
0
  6
Continuous
 62
     8
370
    25
100
AcDbLine
 10
238.6721052266
 20
99.0476712946
 30
0.0
 11
238.6721052266
 21
97.2225297126
 31
0.0
  0
LINE
  5
2E4
330
1F
100
AcDbEntity
  8
0
  6
Continuous
 62
     8
370
    25
100
AcDbLine
 10
239.2098559503
 20
96.1082084545
 30
0.0
 11
239.4327578239
 21
96.1082084545
 31
0.0
  0
LINE
  5
2E5
330
1F
100
AcDbEntity
  8
0
  6
Continuous
 62
     8
370
    25
100
AcDbLine
 10
239.4327578239
 20
93.3974225936
 30
0.0
 11
239.2943161262
 21
93.3974225936
 31
0.0
  0
LINE
  5
2E6
330
1F
100
AcDbEntity
  8
0
  6
Continuous
 62
     8
370
    25
100
AcDbLine
 10
239.2785149018
 20
95.6248411528
 30
0.0
 11
239.4327578239
 21
95.6248411528
 31
0.0
  0
LINE
  5
2E7
330
1F
100
AcDbEntity
  8
0
  6
Continuous
 62
     8
370
    25
100
AcDbLine
 10
54.1077310328
 20
89.3397133808
 30
0.0
 11
54.1077310328
 21
88.9251101572
 31
0.0
  0
LINE
  5
2E8
330
1F
100
AcDbEntity
  8
0
  6
Continuous
 62
     8
370
    25
100
AcDbLine
 10
54.1077310328
 20
100.7753656995
 30
0.0
 11
54.1077310328
 21
89.3397133808
 31
0.0
  0
LINE
  5
2E9
330
1F
100
AcDbEntity
  8
0
  6
Continuous
 62
     8
370
    25
100
AcDbLine
 10
60.5746920651
 20
102.9958292741
 30
0.0
 11
60.5746920651
 21
103.8258959726
 31
0.0
  0
LINE
  5
2EA
330
1F
100
AcDbEntity
  8
0
  6
Continuous
 62
     8
370
    25
100
AcDbLine
 10
61.508112279
 20
85.8582869737
 30
0.0
 11
61.508112279
 21
86.6942405119
 31
0.0
  0
LINE
  5
2EB
330
1F
100
AcDbEntity
  8
0
  6
Continuous
 62
     8
370
    25
100
AcDbLine
 10
56.2040098191
 20
103.7496054302
 30
0.0
 11
56.2040098191
 21
85.9508704265
 31
0.0
  0
ARC
  5
2EC
330
1F
100
AcDbEntity
  8
0
  6
Continuous
 62
     8
370
    25
100
AcDbCircle
 10
66.0478945087
 20
85.2166021897
 30
0.0
 40
1.997193254156763
100
AcDbArc
 50
201.0122086051
 51
269.4244113789
  0
SPLINE
  5
2ED
330
1F
100
AcDbEntity
  8
0
  6
Continuous
 62
     8
370
    25
100
AcDbSpline
210
0.0
220
0.0
230
1.0
 70
     8
 71
     3
 72
    11
 73
     7
 74
     0
 42
0.00000001
 43
0.00000001
 40
0.0
 40
0.0
 40
0.0
 40
0.0
 40
0.2826501073666261
 40
0.8581489095904483
 40
0.8613649112870395
 40
1.0
 40
1.0
 40
1.0
 40
1.0
 10
62.80361860822742
 20
85.5203389568264
 30
0.0
 10
62.69134921141787
 20
85.58126645857539
 30
0.0
 10
62.35049011410451
 20
85.76624735130211
 30
0.0
 10
61.97263613658727
 20
86.16327872122898
 30
0.0
 10
61.66225704323786
 20
86.53747432533498
 30
0.0
 10
61.60075454850658
 20
86.61645925849126
 30
0.0
 10
61.54064641829397
 20
86.69365347098193
 30
0.0
  0
SPLINE
  5
2EE
330
1F
100
AcDbEntity
  8
0
  6
Continuous
 62
     8
370
    25
100
AcDbSpline
210
0.0
220
0.0
230
1.0
 70
     8
 71
     3
 72
     9
 73
     5
 74
     0
 42
0.00000001
 43
0.00000001
 40
0.0
 40
0.0
 40
0.0
 40
0.0
 40
0.3530215453708973
 40
1.0
 40
1.0
 40
1.0
 40
1.0
 10
60.61929839831051
 20
102.9966358911547
 30
0.0
 10
60.8113959106448
 20
103.1899468965149
 30
0.0
 10
61.35554828562933
 20
103.7375367189918
 30
0.0
 10
61.8757855254371
 20
104.0417582831513
 30
0.0
 10
62.21236781088843
 20
104.2385830805961
 30
0.0
  0
ARC
  5
2EF
330
1F
100
AcDbEntity
  8
0
  6
Continuous
 62
     8
370
    25
100
AcDbCircle
 10
65.9422084324
 20
104.5914905509
 30
0.0
 40
1.935629434209631
100
AcDbArc
 50
89.1328601458
 51
155.5788705465
  0
ARC
  5
2F0
330
1F
100
AcDbEntity
  8
0
  6
Continuous
 62
     8
370
    25
100
AcDbCircle
 10
66.0480804752
 20
85.1686223828
 30
0.0
 40
1.996106121819902
100
AcDbArc
 50
199.5637302954
 51
269.4187596751
  0
LINE
  5
2F1
330
1F
100
AcDbEntity
  8
0
  6
Continuous
 62
     8
370
    25
100
AcDbLine
 10
70.0540098191
 20
106.5963718416
 30
0.0
 11
70.0540098191
 21
106.8220513906
 31
0.0
  0
LINE
  5
2F2
330
1F
100
AcDbEntity
  8
0
  6
Continuous
 62
     8
370
    25
100
AcDbLine
 10
70.0540098191
 20
82.878424466
 30
0.0
 11
70.0540098191
 21
83.1041040151
 31
0.0
  0
LINE
  5
2F3
330
1F
100
AcDbEntity
  8
0
  6
Continuous
 62
     8
370
    25
100
AcDbLine
 10
66.0278312094
 20
83.1726189717
 30
0.0
 11
66.0278312094
 21
82.9487016751
 31
0.0
  0
LINE
  5
2F4
330
1F
100
AcDbEntity
  8
0
  6
Continuous
 62
     8
370
    25
100
AcDbLine
 10
66.0278312094
 20
106.7517741816
 30
0.0
 11
66.0278312094
 21
106.7351853753
 31
0.0
  0
ARC
  5
2F5
330
1F
100
AcDbEntity
  8
0
  6
Continuous
 62
     8
370
    25
100
AcDbCircle
 10
66.0618115699
 20
104.7352617465
 30
0.0
 40
2.000212285190707
100
AcDbArc
 50
90.9734091321
 51
152.2807513659
  0
LINE
  5
2F6
330
1F
100
AcDbEntity
  8
0
  6
Continuous
 62
     8
370
    25
100
AcDbLine
 10
231.4507799794
 20
86.9500678714
 30
0.0
 11
231.4507799794
 21
86.1200011729
 31
0.0
  0
LINE
  5
2F7
330
1F
100
AcDbEntity
  8
0
  6
Continuous
 62
     8
370
    25
100
AcDbLine
 10
230.5173597655
 20
104.0876101718
 30
0.0
 11
230.5173597655
 21
103.2516566336
 31
0.0
  0
LINE
  5
2F8
330
1F
100
AcDbEntity
  8
0
  6
Continuous
 62
     8
370
    25
100
AcDbLine
 10
235.8214622255
 20
86.1962917153
 30
0.0
 11
235.8214622255
 21
103.995026719
 31
0.0
  0
ARC
  5
2F9
330
1F
100
AcDbEntity
  8
0
  6
Continuous
 62
     8
370
    25
100
AcDbCircle
 10
225.9775775358
 20
104.7292949558
 30
0.0
 40
1.997193254156685
100
AcDbArc
 50
21.0122086051
 51
89.4244113789
  0
SPLINE
  5
2FA
330
1F
100
AcDbEntity
  8
0
  6
Continuous
 62
     8
370
    25
100
AcDbSpline
210
0.0
220
0.0
230
1.0
 70
     8
 71
     3
 72
    11
 73
     7
 74
     0
 42
0.00000001
 43
0.00000001
 40
0.0
 40
0.0
 40
0.0
 40
0.0
 40
0.2826501073666253
 40
0.8581489095904493
 40
0.8613649112870386
 40
1.0
 40
1.0
 40
1.0
 40
1.0
 10
229.2218534363259
 20
104.4255581886706
 30
0.0
 10
229.3341228331356
 20
104.3646306869215
 30
0.0
 10
229.6749819304491
 20
104.1796497941946
 30
0.0
 10
230.0528359079647
 20
103.7826184242698
 30
0.0
 10
230.3632150013158
 20
103.4084228201616
 30
0.0
 10
230.4247174960469
 20
103.3294378870056
 30
0.0
 10
230.4848256262594
 20
103.2522436745151
 30
0.0
  0
SPLINE
  5
2FB
330
1F
100
AcDbEntity
  8
0
  6
Continuous
 62
     8
370
    25
100
AcDbSpline
210
0.0
220
0.0
230
1.0
 70
     8
 71
     3
 72
     9
 73
     5
 74
     0
 42
0.00000001
 43
0.00000001
 40
0.0
 40
0.0
 40
0.0
 40
0.0
 40
0.3530215453708969
 40
1.0
 40
1.0
 40
1.0
 40
1.0
 10
231.4061736462428
 20
86.94926125434233
 30
0.0
 10
231.2140761339086
 20
86.75595024898215
 30
0.0
 10
230.669923758924
 20
86.20836042650518
 30
0.0
 10
230.1496865191162
 20
85.90413886234572
 30
0.0
 10
229.8131042336649
 20
85.70731406490096
 30
0.0
  0
ARC
  5
2FC
330
1F
100
AcDbEntity
  8
0
  6
Continuous
 62
     8
370
    25
100
AcDbCircle
 10
226.0832636121
 20
85.3544065946
 30
0.0
 40
1.935629434209511
100
AcDbArc
 50
269.1328601458
 51
335.5788705465
  0
ARC
  5
2FD
330
1F
100
AcDbEntity
  8
0
  6
Continuous
 62
     8
370
    25
100
AcDbCircle
 10
225.9773915693
 20
104.7772747627
 30
0.0
 40
1.996106121819865
100
AcDbArc
 50
19.5637302954
 51
89.4187596751
  0
LINE
  5
2FE
330
1F
100
AcDbEntity
  8
0
  6
Continuous
 62
     8
370
    25
100
AcDbLine
 10
221.9714622255
 20
83.3495253039
 30
0.0
 11
221.9714622255
 21
83.1238457549
 31
0.0
  0
LINE
  5
2FF
330
1F
100
AcDbEntity
  8
0
  6
Continuous
 62
     8
370
    25
100
AcDbLine
 10
221.9714622255
 20
107.0674726795
 30
0.0
 11
221.9714622255
 21
106.8417931304
 31
0.0
  0
LINE
  5
300
330
1F
100
AcDbEntity
  8
0
  6
Continuous
 62
     8
370
    25
100
AcDbLine
 10
225.9976408352
 20
83.1941229639
 30
0.0
 11
225.9976408352
 21
83.2107117702
 31
0.0
  0
LINE
  5
301
330
1F
100
AcDbEntity
  8
0
  6
Continuous
 62
     8
370
    25
100
AcDbLine
 10
225.9976408352
 20
106.7732781738
 30
0.0
 11
225.9976408352
 21
106.9971954704
 31
0.0
  0
ARC
  5
302
330
1F
100
AcDbEntity
  8
0
  6
Continuous
 62
     8
370
    25
100
AcDbCircle
 10
225.9636604746
 20
85.210635399
 30
0.0
 40
2.000212285190521
100
AcDbArc
 50
270.9734091321
 51
332.2807513659
  0
LINE
  5
303
330
1F
100
AcDbEntity
  8
0
  6
Continuous
 62
     8
370
    25
100
AcDbLine
 10
134.7962860734
 20
104.0887167565
 30
0.0
 11
135.3392691331
 21
104.6584985142
 31
0.0
  0
LINE
  5
304
330
1F
100
AcDbEntity
  8
0
  6
Continuous
 62
     8
370
    25
100
AcDbLine
 10
148.4664435841
 20
109.2822886574
 30
0.0
 11
148.2706859764
 21
109.3290820927
 31
0.0
  0
SPLINE
  5
305
330
1F
100
AcDbEntity
  8
0
  6
Continuous
 62
     8
370
    25
100
AcDbSpline
210
0.0
220
0.0
230
1.0
 70
     8
 71
     3
 72
    10
 73
     6
 74
     0
 42
0.00000001
 43
0.00000001
 40
0.0
 40
0.0
 40
0.0
 40
0.0
 40
0.6061604253546644
 40
0.8594190476471881
 40
1.0
 40
1.0
 40
1.0
 40
1.0
 10
156.8282809585648
 20
85.15295608284434
 30
0.0
 10
156.9125967487234
 20
85.24260000950035
 30
0.0
 10
157.0321403432056
 20
85.36969787807038
 30
0.0
 10
157.1606751547121
 20
85.52737998345444
 30
0.0
 10
157.2111639915452
 20
85.5895629157081
 30
0.0
 10
157.2291859711077
 20
85.61175910014232
 30
0.0
  0
ARC
  5
306
330
1F
100
AcDbEntity
  8
0
  6
Continuous
 62
     8
370
    25
100
AcDbCircle
 10
131.7626855405
 20
116.3124577396
 30
0.0
 40
16.55263067106838
100
AcDbArc
 50
255.1867866432
 51
266.9420047499
  0
LWPOLYLINE
  5
307
330
1F
100
AcDbEntity
  8
0
  6
Continuous
 62
     8
370
    25
100
AcDbPolyline
 90
        9
 70
   128
 43
0.0
 10
132.4295287912
 20
89.6230849864
 10
132.3637035394
 20
89.6694130804
 10
132.0211341055
 20
89.8137061624
 10
131.5478553788
 20
89.8971533905
 10
130.9509549742
 20
89.9185050955
 10
130.2393718106
 20
89.8774415236
 10
129.4237622461
 20
89.7745776249
 10
128.5163404921
 20
89.611453844
 10
127.5306956997
 20
89.3905130513
  0
LWPOLYLINE
  5
308
330
1F
100
AcDbEntity
  8
0
  6
Continuous
 62
     8
370
    25
100
AcDbPolyline
 90
        9
 70
   128
 43
0.0
 10
159.5959432534
 20
100.0773908703
 10
159.6617685052
 20
100.0310627763
 10
160.004337939
 20
99.8867696942
 10
160.4776166657
 20
99.8033224661
 10
161.0745170704
 20
99.7819707612
 10
161.7861002339
 20
99.8230343331
 10
162.6017097985
 20
99.9258982318
 10
163.5091315524
 20
100.0890220127
 10
164.4947763449
 20
100.3099628053
  0
ARC
  5
309
330
1F
100
AcDbEntity
  8
0
  6
Continuous
 62
     8
370
    25
100
AcDbCircle
 10
160.2627865041
 20
73.3880181171
 30
0.0
 40
16.55263067107172
100
AcDbArc
 50
75.1867866432
 51
86.9420047499
  0
ARC
  5
30A
330
1F
100
AcDbEntity
  8
0
  6
Continuous
 62
     8
370
    25
100
AcDbCircle
 10
134.6837381244
 20
106.7623631358
 30
0.0
 40
2.766912307212067
100
AcDbArc
 50
247.5259580966
 51
265.3181969176
  0
SPLINE
  5
30B
330
1F
100
AcDbEntity
  8
0
  6
Continuous
 62
     8
370
    25
100
AcDbSpline
210
0.0
220
0.0
230
1.0
 70
     8
 71
     3
 72
    10
 73
     6
 74
     0
 42
0.00000001
 43
0.00000001
 40
0.0
 40
0.0
 40
0.0
 40
0.0
 40
0.3200523557110223
 40
0.8122536633087396
 40
1.0
 40
1.0
 40
1.0
 40
1.0
 10
159.2288832816401
 20
103.5674949934384
 30
0.0
 10
159.7536387937092
 20
103.1506384128049
 30
0.0
 10
161.0854039859157
 20
102.0927074879045
 30
0.0
 10
162.8268842749178
 20
101.0250567563004
 30
0.0
 10
164.13388802136
 20
100.4646904773228
 30
0.0
 10
164.494776344891
 20
100.3099628053219
 30
0.0
  0
SPLINE
  5
30C
330
1F
100
AcDbEntity
  8
0
  6
Continuous
 62
     8
370
    25
100
AcDbSpline
210
0.0
220
0.0
230
1.0
 70
     8
 71
     3
 72
     9
 73
     5
 74
     0
 42
0.00000001
 43
0.00000001
 40
0.0
 40
0.0
 40
0.0
 40
0.0
 40
0.477418403521971
 40
0.9999999999999999
 40
0.9999999999999999
 40
0.9999999999999999
 40
0.9999999999999999
 10
127.5306956996623
 20
89.39051305134682
 30
0.0
 10
128.4324194752961
 20
88.97520978909779
 30
0.0
 10
130.3211689851217
 20
88.10531608750344
 30
0.0
 10
131.9495760002841
 20
86.79139371414935
 30
0.0
 10
132.8005515379837
 20
86.10476206263371
 30
0.0
  0
ARC
  5
30D
330
1F
100
AcDbEntity
  8
0
  6
Continuous
 62
     8
370
    25
100
AcDbCircle
 10
157.453687532
 20
83.3518288816
 30
0.0
 40
2.342459503352697
100
AcDbArc
 50
66.1879395141
 51
89.3673653949
  0
SPLINE
  5
30E
330
1F
100
AcDbEntity
  8
0
  6
Continuous
 62
     8
370
    25
100
AcDbSpline
210
0.0
220
0.0
230
1.0
 70
     8
 71
     3
 72
    11
 73
     7
 74
     0
 42
0.00000001
 43
0.00000001
 40
0.0
 40
0.0
 40
0.0
 40
0.0
 40
0.1006227625564879
 40
0.3920125256762896
 40
0.9366816788911787
 40
0.9999999999999999
 40
0.9999999999999999
 40
0.9999999999999999
 40
0.9999999999999999
 10
148.1290135174613
 20
109.4186617960323
 30
0.0
 10
148.4097450710335
 20
109.3942903983772
 30
0.0
 10
149.5034368218549
 20
109.2993427651943
 30
0.0
 10
152.0754184823842
 20
108.5361805803709
 30
0.0
 10
154.5003801074303
 20
107.5077780560799
 30
0.0
 10
155.824210001337
 20
106.3712708433389
 30
0.0
 10
155.9620791020271
 20
106.2529102986272
 30
0.0
  0
SPLINE
  5
30F
330
1F
100
AcDbEntity
  8
0
  6
Continuous
 62
     8
370
    25
100
AcDbSpline
210
0.0
220
0.0
230
1.0
 70
     8
 71
     3
 72
     9
 73
     5
 74
     0
 42
0.00000001
 43
0.00000001
 40
0.0
 40
0.0
 40
0.0
 40
0.0
 40
0.5348312352582502
 40
1.0
 40
1.0
 40
1.0
 40
1.0
 10
140.2954510731834
 20
108.5298272661274
 30
0.0
 10
138.9762470268973
 20
107.9616099104548
 30
0.0
 10
136.5096669931992
 20
106.8991862556392
 30
0.0
 10
134.5415509722923
 20
105.0607658030848
 30
0.0
 10
133.6260448739786
 20
104.205590032094
 30
0.0
  0
SPLINE
  5
310
330
1F
100
AcDbEntity
  8
0
  6
Continuous
 62
     8
370
    25
100
AcDbSpline
210
0.0
220
0.0
230
1.0
 70
     8
 71
     3
 72
     9
 73
     5
 74
     0
 42
0.00000001
 43
0.00000001
 40
0.0
 40
0.0
 40
0.0
 40
0.0
 40
0.7678653088124531
 40
1.0
 40
1.0
 40
1.0
 40
1.0
 10
136.0226364943798
 20
83.46403737043154
 30
0.0
 10
136.5276731388424
 20
83.07257006530827
 30
0.0
 10
137.1853882858433
 20
82.56275760128551
 30
0.0
 10
137.9376667220372
 20
82.22482186837229
 30
0.0
 10
138.1122966445101
 20
82.14637526137122
 30
0.0
  0
SPLINE
  5
311
330
1F
100
AcDbEntity
  8
0
  6
Continuous
 62
     8
370
    25
100
AcDbSpline
210
0.0
220
0.0
230
1.0
 70
     8
 71
     3
 72
    10
 73
     6
 74
     0
 42
0.00000001
 43
0.00000001
 40
0.0
 40
0.0
 40
0.0
 40
0.0
 40
0.4444631688066805
 40
0.8975424679601615
 40
1.0
 40
1.0
 40
1.0
 40
1.0
 10
158.3994271705748
 20
85.49488582457465
 30
0.0
 10
157.7893512727078
 20
84.92857128355402
 30
0.0
 10
156.5573728649475
 20
83.78496392424451
 30
0.0
 10
155.0318838847275
 20
82.65617323639881
 30
0.0
 10
154.0866296619868
 20
82.22540705220568
 30
0.0
 10
153.9122966396303
 20
82.14596094235216
 30
0.0
  0
ARC
  5
312
330
1F
100
AcDbEntity
  8
0
  6
Continuous
 62
     8
370
    25
100
AcDbCircle
 10
147.4516820533
 20
92.6192887184
 30
0.0
 40
13.06178547315758
100
AcDbArc
 50
299.9598680631
 51
326.9453541112
  0
ARC
  5
313
330
1F
100
AcDbEntity
  8
0
  6
Continuous
 62
     8
370
    25
100
AcDbCircle
 10
144.3378642397
 20
92.2887151589
 30
0.0
 40
12.65762959615338
100
AcDbArc
 50
221.1887154497
 51
240.2132624103
  0
ARC
  5
314
330
1F
100
AcDbEntity
  8
0
  6
Continuous
 62
     8
370
    25
100
AcDbCircle
 10
143.9216849446
 20
97.7618052847
 30
0.0
 40
12.14588680731129
100
AcDbArc
 50
99.9343316899
 51
147.95857562
  0
ARC
  5
315
330
1F
100
AcDbEntity
  8
0
  6
Continuous
 62
     8
370
    25
100
AcDbCircle
 10
148.3984283467
 20
98.334386699
 30
0.0
 40
11.51733987120999
100
AcDbArc
 50
40.0632941292
 51
89.0787842915
  0
LINE
  5
316
330
1F
100
AcDbEntity
  8
0
  6
Continuous
 62
     8
370
    25
100
AcDbLine
 10
148.5835990063
 20
109.8502379283
 30
0.0
 11
147.4491096636
 21
109.6934465046
 31
0.0
  0
ARC
  5
317
330
1F
100
AcDbEntity
  8
0
  6
Continuous
 62
     8
370
    25
100
AcDbCircle
 10
146.0127360223
 20
94.8502379283
 30
0.0
 40
15.7942374954421
100
AcDbArc
 50
71.7526233598
 51
93.1174568377
  0
LWPOLYLINE
  5
318
330
1F
100
AcDbEntity
  8
0
  6
Continuous
 62
     8
370
    25
100
AcDbPolyline
 90
        3
 70
   128
 43
0.0
 10
142.4946990302
 20
110.2476842681
 10
141.3573027946
 20
109.9427817671
 10
141.0672392765
 20
109.8502379283
  0
LWPOLYLINE
  5
319
330
1F
100
AcDbEntity
  8
0
  6
Continuous
 62
     8
370
    25
100
AcDbPolyline
 90
        3
 70
   128
 43
0.0
 10
138.0442359754
 20
78.2138927691
 10
136.2377008122
 20
79.206911559
 10
135.2765833941
 20
79.8502379283
  0
ARC
  5
31A
330
1F
100
AcDbEntity
  8
0
  6
Continuous
 62
     8
370
    25
100
AcDbCircle
 10
146.0127360223
 20
94.8502379283
 30
0.0
 40
18.44627261143964
100
AcDbArc
 50
54.407052935
 51
125.592947065
  0
LWPOLYLINE
  5
31B
330
1F
100
AcDbEntity
  8
0
  6
Continuous
 62
     8
370
    25
100
AcDbPolyline
 90
        3
 70
   128
 43
0.0
 10
156.7488886505
 20
79.8502379283
 10
155.7877712324
 20
79.206911559
 10
153.9502437227
 20
78.199083471
  0
ARC
  5
31C
330
1F
100
AcDbEntity
  8
0
  6
Continuous
 62
     8
370
    25
100
AcDbCircle
 10
146.0127360223
 20
94.8502379283
 30
0.0
 40
27.18743161379869
100
AcDbArc
 50
286.995378028
 51
326.5145280392
  0
ARC
  5
31D
330
1F
100
AcDbEntity
  8
0
  6
Continuous
 62
     8
370
    25
100
AcDbCircle
 10
146.0127360223
 20
94.8502379283
 30
0.0
 40
27.18743161379871
100
AcDbArc
 50
33.4854719608
 51
146.5145280392
  0
ARC
  5
31E
330
1F
100
AcDbEntity
  8
0
  6
Continuous
 62
     8
370
    25
100
AcDbCircle
 10
146.0127360223
 20
94.8502379283
 30
0.0
 40
27.1874316137987
100
AcDbArc
 50
213.4854719608
 51
253.0077683777
  0
ARC
  5
31F
330
1F
100
AcDbEntity
  8
0
  6
Continuous
 62
     8
370
    25
100
AcDbCircle
 10
146.0127360223
 20
94.8502379283
 30
0.0
 40
11.05993649053893
100
AcDbArc
 50
67.9937902719
 51
223.495002617
  0
ARC
  5
320
330
1F
100
AcDbEntity
  8
0
  6
Continuous
 62
     8
370
    25
100
AcDbCircle
 10
146.0127360223
 20
94.8502379283
 30
0.0
 40
11.0599364905389
100
AcDbArc
 50
316.1128386316
 51
67.9937902719
  0
ARC
  5
321
330
1F
100
AcDbEntity
  8
0
  6
Continuous
 62
     8
370
    25
100
AcDbCircle
 10
146.0127360223
 20
94.8502379283
 30
0.0
 40
11.30993649053892
100
AcDbArc
 50
315.1797546291
 51
67.9937902719
  0
ARC
  5
322
330
1F
100
AcDbEntity
  8
0
  6
Continuous
 62
     8
370
    25
100
AcDbCircle
 10
146.0127360223
 20
94.8502379283
 30
0.0
 40
11.30993649053894
100
AcDbArc
 50
67.9937902719
 51
225.5873887395
  0
SPLINE
  5
323
330
1F
100
AcDbEntity
  8
0
  6
Continuous
 62
     8
370
    25
100
AcDbSpline
210
0.0
220
0.0
230
1.0
 70
     8
 71
     3
 72
    10
 73
     6
 74
     0
 42
0.00000001
 43
0.00000001
 40
0.0
 40
0.0
 40
0.0
 40
0.0
 40
0.0742526680891363
 40
0.3864770308791535
 40
1.0
 40
1.0
 40
1.0
 40
1.0
 10
153.9123247819994
 20
82.9596585483439
 30
0.0
 10
154.00517845561
 20
83.02350148956003
 30
0.0
 10
154.4884716894659
 20
83.35579702854584
 30
0.0
 10
155.6796700323972
 20
84.30000087810139
 30
0.0
 10
156.7029338962843
 20
85.26346527236475
 30
0.0
 10
157.3810842536504
 20
85.90198456962331
 30
0.0
  0
LINE
  5
324
330
1F
100
AcDbEntity
  8
0
  6
Continuous
 62
     8
370
    25
100
AcDbLine
 10
137.5487076983
 20
83.1169176731
 30
0.0
 11
138.1123197943
 21
82.8157180746
 31
0.0
  0
ARC
  5
325
330
1F
100
AcDbEntity
  8
0
  6
Continuous
 62
     8
370
    25
100
AcDbCircle
 10
146.0127360223
 20
94.8502379283
 30
0.0
 40
9.374999999999973
100
AcDbArc
 50
328.7595064026
 51
210.940574193
  0
ARC
  5
326
330
1F
100
AcDbEntity
  8
0
  6
Continuous
 62
     8
370
    25
100
AcDbCircle
 10
146.0159549136
 20
-47.8764622265
 30
0.0
 40
7.891845337350041
100
AcDbArc
 50
269.9388105594
 51
359.9694019763
  0
ARC
  5
327
330
1F
100
AcDbEntity
  8
0
  6
Continuous
 62
     8
370
    25
100
AcDbCircle
 10
145.999642357
 20
-47.8764664914
 30
0.0
 40
7.891840510541662
100
AcDbArc
 50
180.0032734517
 51
270.0572418065
  0
ARC
  5
328
330
1F
100
AcDbEntity
  8
0
  6
Continuous
 62
     8
370
    25
100
AcDbCircle
 10
146.0242084812
 20
-49.723165184
 30
0.0
 40
9.814195752342924
100
AcDbArc
 50
269.9018501968
 51
35.6091246748
  0
ARC
  5
329
330
1F
100
AcDbEntity
  8
0
  6
Continuous
 62
     8
370
    25
100
AcDbCircle
 10
145.9912556155
 20
-49.723180559
 30
0.0
 40
9.81417925042142
100
AcDbArc
 50
144.2255094359
 51
270.0942309704
  0
ENDSEC
  0
SECTION
  2
OBJECTS
  0
DICTIONARY
  5
C
330
0
100
AcDbDictionary
281
     1
  3
ACAD_GROUP
350
D
  3
ACAD_LAYOUT
350
1A
  3
ACAD_MLINESTYLE
350
17
  3
ACAD_PLOTSETTINGS
350
19
  3
ACAD_PLOTSTYLENAME
350
E
  3
ACAD_SCALELIST
350
47
  3
DWGPROPS
350
32A
  0
DICTIONARY
  5
D
102
{ACAD_REACTORS
330
C
102
}
330
C
100
AcDbDictionary
281
     1
  0
DICTIONARY
  5
1A
102
{ACAD_REACTORS
330
C
102
}
330
C
100
AcDbDictionary
281
     1
  3
Layout1
350
1E
  3
Layout2
350
26
  3
Model
350
22
  0
DICTIONARY
  5
17
102
{ACAD_REACTORS
330
C
102
}
330
C
100
AcDbDictionary
281
     1
  3
Standard
350
18
  0
DICTIONARY
  5
19
102
{ACAD_REACTORS
330
C
102
}
330
C
100
AcDbDictionary
281
     1
  0
ACDBDICTIONARYWDFLT
  5
E
102
{ACAD_REACTORS
330
C
102
}
330
C
100
AcDbDictionary
281
     1
  3
Normal
350
F
100
AcDbDictionaryWithDefault
340
F
  0
DICTIONARY
  5
47
102
{ACAD_REACTORS
330
C
102
}
330
C
100
AcDbDictionary
281
     1
  3
A0
350
48
  3
A1
350
49
  3
A2
350
4A
  3
A3
350
4B
  3
A4
350
4C
  3
A5
350
4D
  3
A6
350
4E
  3
A7
350
4F
  3
A8
350
50
  3
A9
350
51
  3
B0
350
52
  3
B1
350
53
  3
B2
350
54
  3
B3
350
55
  3
B4
350
56
  3
B5
350
57
  3
B6
350
58
  3
B7
350
59
  3
B8
350
5A
  3
B9
350
5B
  3
C0
350
5C
  3
C1
350
5D
  3
C2
350
5E
  3
C3
350
5F
  3
C4
350
60
  3
C5
350
61
  3
C6
350
62
  3
C7
350
63
  3
C8
350
64
  3
C9
350
65
  3
D0
350
66
  3
D1
350
67
  3
D2
350
68
  0
XRECORD
  5
32A
102
{ACAD_REACTORS
330
C
102
}
330
C
100
AcDbXrecord
280
     1
  1
DWGPROPS COOKIE
  2

  3

  4

  6

  7

  8
DS-1
  9

300
=
301
=
302
=
303
=
304
=
305
=
306
=
307
=
308
=
309
=
 40
0.0
 41
2460383.497901169
 42
2460383.497901771
  1

 90
        0
  0
LAYOUT
  5
1E
102
{ACAD_REACTORS
330
1A
102
}
330
1A
100
AcDbPlotSettings
  1

  2
none_device
  4

  6

 40
0.0
 41
0.0
 42
0.0
 43
0.0
 44
0.0
 45
0.0
 46
0.0
 47
0.0
 48
0.0
 49
0.0
140
0.0
141
0.0
142
1.0
143
1.0
 70
   688
 72
     1
 73
     0
 74
     5
  7

 75
    16
147
1.0
148
0.0
149
0.0
100
AcDbLayout
  1
Layout1
 70
     1
 71
     1
 10
0.0
 20
0.0
 11
420.0
 21
297.0
 12
0.0
 22
0.0
 32
0.0
 14
1.0000000000E+20
 24
1.0000000000E+20
 34
1.0000000000E+20
 15
-1.0000000000E+20
 25
-1.0000000000E+20
 35
-1.0000000000E+20
146
0.0
 13
0.0
 23
0.0
 33
0.0
 16
1.0
 26
0.0
 36
0.0
 17
0.0
 27
1.0
 37
0.0
 76
     0
330
1B
  0
LAYOUT
  5
26
102
{ACAD_REACTORS
330
1A
102
}
330
1A
100
AcDbPlotSettings
  1

  2
none_device
  4

  6

 40
0.0
 41
0.0
 42
0.0
 43
0.0
 44
0.0
 45
0.0
 46
0.0
 47
0.0
 48
0.0
 49
0.0
140
0.0
141
0.0
142
1.0
143
1.0
 70
   688
 72
     1
 73
     0
 74
     5
  7

 75
    16
147
1.0
148
0.0
149
0.0
100
AcDbLayout
  1
Layout2
 70
     1
 71
     2
 10
0.0
 20
0.0
 11
0.0
 21
0.0
 12
0.0
 22
0.0
 32
0.0
 14
0.0
 24
0.0
 34
0.0
 15
0.0
 25
0.0
 35
0.0
146
0.0
 13
0.0
 23
0.0
 33
0.0
 16
1.0
 26
0.0
 36
0.0
 17
0.0
 27
1.0
 37
0.0
 76
     0
330
23
  0
LAYOUT
  5
22
102
{ACAD_REACTORS
330
1A
102
}
330
1A
100
AcDbPlotSettings
  1

  2
none_device
  4
Letter_(8.50_x_11.00_Inches)
  6

 40
6.35
 41
6.35
 42
6.35000508
 43
6.35000508
 44
215.9
 45
279.4
 46
0.0
 47
0.0
 48
0.0
 49
0.0
140
0.0
141
0.0
142
1.0
143
1.0
 70
  1712
 72
     1
 73
     0
 74
     0
  7

 75
     0
147
1.0
148
0.0
149
0.0
100
AcDbLayout
  1
Model
 70
     1
 71
     0
 10
0.0
 20
0.0
 11
279.4
 21
215.9
 12
0.0
 22
0.0
 32
0.0
 14
0.0
 24
0.0
 34
0.0
 15
279.4
 25
215.9
 35
0.0
146
0.0
 13
0.0
 23
0.0
 33
0.0
 16
1.0
 26
0.0
 36
0.0
 17
0.0
 27
1.0
 37
0.0
 76
     0
330
1F
331
29
  0
MLINESTYLE
  5
18
102
{ACAD_REACTORS
330
17
102
}
330
17
100
AcDbMlineStyle
  2
Standard
 70
     0
  3

 62
   256
 51
90.0
 52
90.0
 71
     2
 49
0.5
 62
   256
  6
BYLAYER
 49
-0.5
 62
   256
  6
BYLAYER
  0
ACDBPLACEHOLDER
  5
F
102
{ACAD_REACTORS
330
E
102
}
330
E
  0
SCALE
  5
48
102
{ACAD_REACTORS
330
47
102
}
330
47
100
AcDbScale
 70
     0
300
1:1
140
1.0
141
1.0
290
     1
  0
SCALE
  5
49
102
{ACAD_REACTORS
330
47
102
}
330
47
100
AcDbScale
 70
     0
300
1:2
140
1.0
141
2.0
290
     0
  0
SCALE
  5
4A
102
{ACAD_REACTORS
330
47
102
}
330
47
100
AcDbScale
 70
     0
300
1:4
140
1.0
141
4.0
290
     0
  0
SCALE
  5
4B
102
{ACAD_REACTORS
330
47
102
}
330
47
100
AcDbScale
 70
     0
300
1:5
140
1.0
141
5.0
290
     0
  0
SCALE
  5
4C
102
{ACAD_REACTORS
330
47
102
}
330
47
100
AcDbScale
 70
     0
300
1:8
140
1.0
141
8.0
290
     0
  0
SCALE
  5
4D
102
{ACAD_REACTORS
330
47
102
}
330
47
100
AcDbScale
 70
     0
300
1:10
140
1.0
141
10.0
290
     0
  0
SCALE
  5
4E
102
{ACAD_REACTORS
330
47
102
}
330
47
100
AcDbScale
 70
     0
300
1:16
140
1.0
141
16.0
290
     0
  0
SCALE
  5
4F
102
{ACAD_REACTORS
330
47
102
}
330
47
100
AcDbScale
 70
     0
300
1:20
140
1.0
141
20.0
290
     0
  0
SCALE
  5
50
102
{ACAD_REACTORS
330
47
102
}
330
47
100
AcDbScale
 70
     0
300
1:30
140
1.0
141
30.0
290
     0
  0
SCALE
  5
51
102
{ACAD_REACTORS
330
47
102
}
330
47
100
AcDbScale
 70
     0
300
1:40
140
1.0
141
40.0
290
     0
  0
SCALE
  5
52
102
{ACAD_REACTORS
330
47
102
}
330
47
100
AcDbScale
 70
     0
300
1:50
140
1.0
141
50.0
290
     0
  0
SCALE
  5
53
102
{ACAD_REACTORS
330
47
102
}
330
47
100
AcDbScale
 70
     0
300
1:100
140
1.0
141
100.0
290
     0
  0
SCALE
  5
54
102
{ACAD_REACTORS
330
47
102
}
330
47
100
AcDbScale
 70
     0
300
2:1
140
2.0
141
1.0
290
     0
  0
SCALE
  5
55
102
{ACAD_REACTORS
330
47
102
}
330
47
100
AcDbScale
 70
     0
300
4:1
140
4.0
141
1.0
290
     0
  0
SCALE
  5
56
102
{ACAD_REACTORS
330
47
102
}
330
47
100
AcDbScale
 70
     0
300
8:1
140
8.0
141
1.0
290
     0
  0
SCALE
  5
57
102
{ACAD_REACTORS
330
47
102
}
330
47
100
AcDbScale
 70
     0
300
10:1
140
10.0
141
1.0
290
     0
  0
SCALE
  5
58
102
{ACAD_REACTORS
330
47
102
}
330
47
100
AcDbScale
 70
     0
300
100:1
140
100.0
141
1.0
290
     0
  0
SCALE
  5
59
102
{ACAD_REACTORS
330
47
102
}
330
47
100
AcDbScale
 70
     0
300
1/128" = 1'-0"
140
0.0078125
141
12.0
290
     0
  0
SCALE
  5
5A
102
{ACAD_REACTORS
330
47
102
}
330
47
100
AcDbScale
 70
     0
300
1/64" = 1'-0"
140
0.015625
141
12.0
290
     0
  0
SCALE
  5
5B
102
{ACAD_REACTORS
330
47
102
}
330
47
100
AcDbScale
 70
     0
300
1/32" = 1'-0"
140
0.03125
141
12.0
290
     0
  0
SCALE
  5
5C
102
{ACAD_REACTORS
330
47
102
}
330
47
100
AcDbScale
 70
     0
300
1/16" = 1'-0"
140
0.0625
141
12.0
290
     0
  0
SCALE
  5
5D
102
{ACAD_REACTORS
330
47
102
}
330
47
100
AcDbScale
 70
     0
300
3/32" = 1'-0"
140
0.09375
141
12.0
290
     0
  0
SCALE
  5
5E
102
{ACAD_REACTORS
330
47
102
}
330
47
100
AcDbScale
 70
     0
300
1/8" = 1'-0"
140
0.125
141
12.0
290
     0
  0
SCALE
  5
5F
102
{ACAD_REACTORS
330
47
102
}
330
47
100
AcDbScale
 70
     0
300
3/16" = 1'-0"
140
0.1875
141
12.0
290
     0
  0
SCALE
  5
60
102
{ACAD_REACTORS
330
47
102
}
330
47
100
AcDbScale
 70
     0
300
1/4" = 1'-0"
140
0.25
141
12.0
290
     0
  0
SCALE
  5
61
102
{ACAD_REACTORS
330
47
102
}
330
47
100
AcDbScale
 70
     0
300
3/8" = 1'-0"
140
0.375
141
12.0
290
     0
  0
SCALE
  5
62
102
{ACAD_REACTORS
330
47
102
}
330
47
100
AcDbScale
 70
     0
300
1/2" = 1'-0"
140
0.5
141
12.0
290
     0
  0
SCALE
  5
63
102
{ACAD_REACTORS
330
47
102
}
330
47
100
AcDbScale
 70
     0
300
3/4" = 1'-0"
140
0.75
141
12.0
290
     0
  0
SCALE
  5
64
102
{ACAD_REACTORS
330
47
102
}
330
47
100
AcDbScale
 70
     0
300
1" = 1'-0"
140
1.0
141
12.0
290
     0
  0
SCALE
  5
65
102
{ACAD_REACTORS
330
47
102
}
330
47
100
AcDbScale
 70
     0
300
1-1/2" = 1'-0"
140
1.5
141
12.0
290
     0
  0
SCALE
  5
66
102
{ACAD_REACTORS
330
47
102
}
330
47
100
AcDbScale
 70
     0
300
3" = 1'-0"
140
3.0
141
12.0
290
     0
  0
SCALE
  5
67
102
{ACAD_REACTORS
330
47
102
}
330
47
100
AcDbScale
 70
     0
300
6" = 1'-0"
140
6.0
141
12.0
290
     0
  0
SCALE
  5
68
102
{ACAD_REACTORS
330
47
102
}
330
47
100
AcDbScale
 70
     0
300
1'-0" = 1'-0"
140
12.0
141
12.0
290
     0
  0
ENDSEC
  0
EOF
