  0
SECTION
  2
HEADER
  9
$ACADVER
  1
AC1015
  9
$ACADMAINTVER
 70
     6
  9
$DWGCODEPAGE
  3
ANSI_1252
  9
$INSBASE
 10
0.0
 20
0.0
 30
0.0
  9
$EXTMIN
 10
0.0
 20
0.0
 30
0.0
  9
$EXTMAX
 10
279.4
 20
215.9
 30
0.0
  9
$LIMMIN
 10
0.0
 20
0.0
  9
$LIMMAX
 10
279.4
 20
215.9
  9
$ORTHOMODE
 70
     0
  9
$REGENMODE
 70
     1
  9
$FILLMODE
 70
     1
  9
$QTEXTMODE
 70
     0
  9
$MIRRTEXT
 70
     1
  9
$LTSCALE
 40
1.0
  9
$ATTMODE
 70
     1
  9
$TEXTSIZE
 40
3.5277777778
  9
$TRACEWID
 40
1.0
  9
$TEXTSTYLE
  7
Standard
  9
$CLAYER
  8
0
  9
$CELTYPE
  6
ByLayer
  9
$CECOLOR
 62
   256
  9
$CELTSCALE
 40
1.0
  9
$DISPSILH
 70
     0
  9
$DIMSCALE
 40
1.0
  9
$DIMASZ
 40
3.556
  9
$DIMEXO
 40
1.0
  9
$DIMDLI
 40
3.75
  9
$DIMRND
 40
0.0
  9
$DIMDLE
 40
0.0
  9
$DIMEXE
 40
1.0
  9
$DIMTP
 40
0.0
  9
$DIMTM
 40
0.0
  9
$DIMTXT
 40
3.5277777778
  9
$DIMCEN
 40
2.5
  9
$DIMTSZ
 40
0.0
  9
$DIMTOL
 70
     0
  9
$DIMLIM
 70
     0
  9
$DIMTIH
 70
     1
  9
$DIMTOH
 70
     1
  9
$DIMSE1
 70
     0
  9
$DIMSE2
 70
     0
  9
$DIMTAD
 70
     1
  9
$DIMZIN
 70
     0
  9
$DIMBLK
  1

  9
$DIMASO
 70
     1
  9
$DIMSHO
 70
     1
  9
$DIMPOST
  1

  9
$DIMAPOST
  1

  9
$DIMALT
 70
     0
  9
$DIMALTD
 70
     3
  9
$DIMALTF
 40
0.0393700787
  9
$DIMLFAC
 40
2.0
  9
$DIMTOFL
 70
     1
  9
$DIMTVP
 40
0.0
  9
$DIMTIX
 70
     0
  9
$DIMSOXD
 70
     0
  9
$DIMSAH
 70
     0
  9
$DIMBLK1
  1

  9
$DIMBLK2
  1

  9
$DIMSTYLE
  2
ISO-25
  9
$DIMCLRD
 70
     0
  9
$DIMCLRE
 70
     0
  9
$DIMCLRT
 70
     0
  9
$DIMTFAC
 40
1.0
  9
$DIMGAP
 40
1.524
  9
$DIMJUST
 70
     0
  9
$DIMSD1
 70
     0
  9
$DIMSD2
 70
     0
  9
$DIMTOLJ
 70
     0
  9
$DIMTZIN
 70
     0
  9
$DIMALTZ
 70
     0
  9
$DIMALTTZ
 70
     0
  9
$DIMUPT
 70
     0
  9
$DIMDEC
 70
     2
  9
$DIMTDEC
 70
     2
  9
$DIMALTU
 70
     2
  9
$DIMALTTD
 70
     3
  9
$DIMTXSTY
  7
Standard
  9
$DIMAUNIT
 70
     0
  9
$DIMADEC
 70
     2
  9
$DIMALTRND
 40
0.0
  9
$DIMAZIN
 70
     0
  9
$DIMDSEP
 70
    44
  9
$DIMATFIT
 70
     3
  9
$DIMFRAC
 70
     0
  9
$DIMLDRBLK
  1

  9
$DIMLUNIT
 70
     2
  9
$DIMLWD
 70
    -2
  9
$DIMLWE
 70
    -2
  9
$DIMTMOVE
 70
     0
  9
$LUNITS
 70
     2
  9
$LUPREC
 70
     2
  9
$SKETCHINC
 40
1.0
  9
$FILLETRAD
 40
10.0
  9
$AUNITS
 70
     0
  9
$AUPREC
 70
     2
  9
$MENU
  1
.
  9
$ELEVATION
 40
0.0
  9
$PELEVATION
 40
0.0
  9
$THICKNESS
 40
0.0
  9
$LIMCHECK
 70
     0
  9
$CHAMFERA
 40
0.0
  9
$CHAMFERB
 40
0.0
  9
$CHAMFERC
 40
0.0
  9
$CHAMFERD
 40
0.0
  9
$SKPOLY
 70
     0
  9
$TDCREATE
 40
2460383.728499583
  9
$TDUCREATE
 40
2460383.499332916
  9
$TDUPDATE
 40
2460383.728500173
  9
$TDUUPDATE
 40
2460383.499333507
  9
$TDINDWG
 40
0.0000000116
  9
$TDUSRTIMER
 40
0.0000000116
  9
$USRTIMER
 70
     1
  9
$ANGBASE
 50
0.0
  9
$ANGDIR
 70
     0
  9
$PDMODE
 70
     0
  9
$PDSIZE
 40
-1.0
  9
$PLINEWID
 40
0.0
  9
$SPLFRAME
 70
     0
  9
$SPLINETYPE
 70
     6
  9
$SPLINESEGS
 70
     8
  9
$HANDSEED
  5
33A
  9
$SURFTAB1
 70
     6
  9
$SURFTAB2
 70
     6
  9
$SURFTYPE
 70
     6
  9
$SURFU
 70
     6
  9
$SURFV
 70
     6
  9
$UCSBASE
  2

  9
$UCSNAME
  2

  9
$UCSORG
 10
0.0
 20
0.0
 30
0.0
  9
$UCSXDIR
 10
1.0
 20
0.0
 30
0.0
  9
$UCSYDIR
 10
0.0
 20
1.0
 30
0.0
  9
$UCSORTHOREF
  2

  9
$UCSORTHOVIEW
 70
     0
  9
$UCSORGTOP
 10
0.0
 20
0.0
 30
0.0
  9
$UCSORGBOTTOM
 10
0.0
 20
0.0
 30
0.0
  9
$UCSORGLEFT
 10
0.0
 20
0.0
 30
0.0
  9
$UCSORGRIGHT
 10
0.0
 20
0.0
 30
0.0
  9
$UCSORGFRONT
 10
0.0
 20
0.0
 30
0.0
  9
$UCSORGBACK
 10
0.0
 20
0.0
 30
0.0
  9
$PUCSBASE
  2

  9
$PUCSNAME
  2

  9
$PUCSORG
 10
0.0
 20
0.0
 30
0.0
  9
$PUCSXDIR
 10
1.0
 20
0.0
 30
0.0
  9
$PUCSYDIR
 10
0.0
 20
1.0
 30
0.0
  9
$PUCSORTHOREF
  2

  9
$PUCSORTHOVIEW
 70
     0
  9
$PUCSORGTOP
 10
0.0
 20
0.0
 30
0.0
  9
$PUCSORGBOTTOM
 10
0.0
 20
0.0
 30
0.0
  9
$PUCSORGLEFT
 10
0.0
 20
0.0
 30
0.0
  9
$PUCSORGRIGHT
 10
0.0
 20
0.0
 30
0.0
  9
$PUCSORGFRONT
 10
0.0
 20
0.0
 30
0.0
  9
$PUCSORGBACK
 10
0.0
 20
0.0
 30
0.0
  9
$USERI1
 70
     0
  9
$USERI2
 70
     0
  9
$USERI3
 70
     0
  9
$USERI4
 70
     0
  9
$USERI5
 70
     0
  9
$USERR1
 40
0.0
  9
$USERR2
 40
0.0
  9
$USERR3
 40
0.0
  9
$USERR4
 40
0.0
  9
$USERR5
 40
0.0
  9
$WORLDVIEW
 70
     1
  9
$SHADEDGE
 70
     3
  9
$SHADEDIF
 70
    70
  9
$TILEMODE
 70
     1
  9
$MAXACTVP
 70
    64
  9
$PINSBASE
 10
0.0
 20
0.0
 30
0.0
  9
$PLIMCHECK
 70
     0
  9
$PEXTMIN
 10
1.0000000000E+20
 20
1.0000000000E+20
 30
1.0000000000E+20
  9
$PEXTMAX
 10
-1.0000000000E+20
 20
-1.0000000000E+20
 30
-1.0000000000E+20
  9
$PLIMMIN
 10
0.0
 20
0.0
  9
$PLIMMAX
 10
420.0
 20
297.0
  9
$UNITMODE
 70
     0
  9
$VISRETAIN
 70
     1
  9
$PLINEGEN
 70
     0
  9
$PSLTSCALE
 70
     1
  9
$TREEDEPTH
 70
  3020
  9
$CMLSTYLE
  2
Standard
  9
$CMLJUST
 70
     0
  9
$CMLSCALE
 40
20.0
  9
$PROXYGRAPHICS
 70
     1
  9
$MEASUREMENT
 70
     1
  9
$CELWEIGHT
370
    -1
  9
$ENDCAPS
280
     0
  9
$JOINSTYLE
280
     0
  9
$LWDISPLAY
290
     1
  9
$INSUNITS
 70
     4
  9
$HYPERLINKBASE
  1

  9
$STYLESHEET
  1

  9
$XEDIT
290
     1
  9
$CEPSNTYPE
380
     0
  9
$PSTYLEMODE
290
     1
  9
$FINGERPRINTGUID
  2
{b23c8ba8-d975-4180-94b9-5bd59ea35484}
  9
$VERSIONGUID
  2
{FAEB1C32-E019-11D5-929B-00C0DF256EC4}
  9
$EXTNAMES
290
     1
  9
$PSVPSCALE
 40
0.0
  9
$OLESTARTUP
290
     0
  0
ENDSEC
  0
SECTION
  2
CLASSES
  0
CLASS
  1
ACDBDICTIONARYWDFLT
  2
AcDbDictionaryWithDefault
  3
ObjectDBX Classes
 90
        0
280
     0
281
     0
  0
CLASS
  1
VISUALSTYLE
  2
AcDbVisualStyle
  3
ObjectDBX Classes
 90
     4095
280
     0
281
     0
  0
CLASS
  1
MATERIAL
  2
AcDbMaterial
  3
ObjectDBX Classes
 90
     1153
280
     0
281
     0
  0
CLASS
  1
SCALE
  2
AcDbScale
  3
ObjectDBX Classes
 90
     1153
280
     0
281
     0
  0
CLASS
  1
TABLESTYLE
  2
AcDbTableStyle
  3
ObjectDBX Classes
 90
     4095
280
     0
281
     0
  0
CLASS
  1
MLEADERSTYLE
  2
AcDbMLeaderStyle
  3
ACDB_MLEADERSTYLE_CLASS
 90
     4095
280
     0
281
     0
  0
CLASS
  1
SUN
  2
AcDbSun
  3
SCENEOE
 90
     1153
280
     0
281
     0
  0
CLASS
  1
ACDBPLACEHOLDER
  2
AcDbPlaceHolder
  3
ObjectDBX Classes
 90
        0
280
     0
281
     0
  0
CLASS
  1
LAYOUT
  2
AcDbLayout
  3
ObjectDBX Classes
 90
        0
280
     0
281
     0
  0
ENDSEC
  0
SECTION
  2
TABLES
  0
TABLE
  2
VPORT
  5
8
330
0
100
AcDbSymbolTable
 70
     1
  0
VPORT
  5
29
330
8
100
AcDbSymbolTableRecord
100
AcDbViewportTableRecord
  2
*Active
 70
     0
 10
0.0
 20
0.0
 11
1.0
 21
1.0
 12
139.7
 22
107.95
 13
0.0
 23
0.0
 14
10.0
 24
10.0
 15
10.0
 25
10.0
 16
0.0
 26
0.0
 36
1.0
 17
0.0
 27
0.0
 37
0.0
 40
215.9
 41
1.2941176471
 42
50.0
 43
0.0
 44
0.0
 50
0.0
 51
0.0
 71
     0
 72
  2000
 73
     1
 74
     3
 75
     0
 76
     0
 77
     0
 78
     0
281
     0
 65
     1
110
0.0
120
0.0
130
0.0
111
1.0
121
0.0
131
0.0
112
0.0
122
1.0
132
0.0
 79
     0
146
0.0
  0
ENDTAB
  0
TABLE
  2
LTYPE
  5
5
330
0
100
AcDbSymbolTable
 70
     6
  0
LTYPE
  5
14
330
5
100
AcDbSymbolTableRecord
100
AcDbLinetypeTableRecord
  2
ByBlock
 70
     0
  3

 72
    65
 73
     0
 40
0.0
  0
LTYPE
  5
15
330
5
100
AcDbSymbolTableRecord
100
AcDbLinetypeTableRecord
  2
ByLayer
 70
     0
  3

 72
    65
 73
     0
 40
0.0
  0
LTYPE
  5
16
330
5
100
AcDbSymbolTableRecord
100
AcDbLinetypeTableRecord
  2
Continuous
 70
     0
  3
Solid line
 72
    65
 73
     0
 40
0.0
  0
LTYPE
  5
6E
330
5
100
AcDbSymbolTableRecord
100
AcDbLinetypeTableRecord
  2
HIDDEN
 70
     0
  3
Hidden __ __ __ __ __ __ __ __ __ __ __ __ __ __
 72
    65
 73
     2
 40
1.905
 49
1.27
 74
     0
 49
-0.635
 74
     0
  0
LTYPE
  5
6F
330
5
100
AcDbSymbolTableRecord
100
AcDbLinetypeTableRecord
  2
PHANTOM
 70
     0
  3
Phantom ______  __  __  ______  __  __  ______
 72
    65
 73
     6
 40
12.7
 49
6.35
 74
     0
 49
-1.27
 74
     0
 49
1.27
 74
     0
 49
-1.27
 74
     0
 49
1.27
 74
     0
 49
-1.27
 74
     0
  0
LTYPE
  5
70
330
5
100
AcDbSymbolTableRecord
100
AcDbLinetypeTableRecord
  2
CENTER
 70
     0
  3
Center ____ _ ____ _ ____ _ ____ _ ____ _ ____
 72
    65
 73
     4
 40
10.16
 49
6.35
 74
     0
 49
-1.27
 74
     0
 49
1.27
 74
     0
 49
-1.27
 74
     0
  0
LTYPE
  5
71
330
5
100
AcDbSymbolTableRecord
100
AcDbLinetypeTableRecord
  2
CENTERX2
 70
     0
  3
Center (2x) ________  __  ________  __  _____
 72
    65
 73
     4
 40
20.32
 49
12.7
 74
     0
 49
-2.54
 74
     0
 49
2.54
 74
     0
 49
-2.54
 74
     0
  0
LTYPE
  5
72
330
5
100
AcDbSymbolTableRecord
100
AcDbLinetypeTableRecord
  2
DOT2
 70
     0
  3
Dot (.5x) ........................................
 72
    65
 73
     2
 40
0.635
 49
0.0
 74
     0
 49
-0.635
 74
     0
  0
ENDTAB
  0
TABLE
  2
LAYER
  5
2
330
0
100
AcDbSymbolTable
 70
     5
  0
LAYER
  5
10
330
2
100
AcDbSymbolTableRecord
100
AcDbLayerTableRecord
  2
0
 70
     0
 62
     7
  6
Continuous
370
    -3
390
F
  0
LAYER
  5
73
330
2
100
AcDbSymbolTableRecord
100
AcDbLayerTableRecord
  2
FORMAT
 70
     0
 62
     7
  6
Continuous
370
    -3
390
F
  0
LAYER
  5
74
330
2
100
AcDbSymbolTableRecord
100
AcDbLayerTableRecord
  2
OUT_LINE
 70
     0
 62
     7
  6
Continuous
370
    50
390
F
  0
LAYER
  5
75
330
2
100
AcDbSymbolTableRecord
100
AcDbLayerTableRecord
  2
WATERMARK
 70
     0
 62
   254
  6
Continuous
370
    -3
390
F
  0
LAYER
  5
76
330
2
100
AcDbSymbolTableRecord
100
AcDbLayerTableRecord
  2
LAYER3
 70
     0
 62
     7
  6
Continuous
370
    35
390
F
  0
ENDTAB
  0
TABLE
  2
STYLE
  5
3
330
0
100
AcDbSymbolTable
 70
     1
  0
STYLE
  5
11
330
3
100
AcDbSymbolTableRecord
100
AcDbTextStyleTableRecord
  2
Standard
 70
     0
 40
0.0
 41
1.0
 50
0.0
 71
     0
 42
3.5277777778
  3
txt
  4

  0
ENDTAB
  0
TABLE
  2
VIEW
  5
6
330
0
100
AcDbSymbolTable
 70
     0
  0
ENDTAB
  0
TABLE
  2
UCS
  5
7
330
0
100
AcDbSymbolTable
 70
     0
  0
ENDTAB
  0
TABLE
  2
APPID
  5
9
330
0
100
AcDbSymbolTable
 70
     1
  0
APPID
  5
12
330
9
100
AcDbSymbolTableRecord
100
AcDbRegAppTableRecord
  2
ACAD
 70
     0
  0
ENDTAB
  0
TABLE
  2
DIMSTYLE
  5
A
330
0
100
AcDbSymbolTable
 70
     1
100
AcDbDimStyleTable
  0
DIMSTYLE
105
27
330
A
100
AcDbSymbolTableRecord
100
AcDbDimStyleTableRecord
  2
ISO-25
 70
     0
 41
2.5
 42
0.625
 43
3.75
 44
1.25
 73
     0
 74
     0
 77
     1
 78
     8
140
2.5
141
2.5
143
0.0393700787
147
0.625
171
     3
172
     1
178
     0
271
     2
272
     2
274
     3
278
    44
283
     0
284
     8
340
11
  0
ENDTAB
  0
TABLE
  2
BLOCK_RECORD
  5
1
330
0
100
AcDbSymbolTable
 70
     4
  0
BLOCK_RECORD
  5
1F
330
1
100
AcDbSymbolTableRecord
100
AcDbBlockTableRecord
  2
*Model_Space
340
22
  0
BLOCK_RECORD
  5
1B
330
1
100
AcDbSymbolTableRecord
100
AcDbBlockTableRecord
  2
*Paper_Space
340
1E
  0
BLOCK_RECORD
  5
23
330
1
100
AcDbSymbolTableRecord
100
AcDbBlockTableRecord
  2
*Paper_Space0
340
26
  0
BLOCK_RECORD
  5
77
330
1
100
AcDbSymbolTableRecord
100
AcDbBlockTableRecord
  2
Block5
340
0
  0
BLOCK_RECORD
  5
85
330
1
100
AcDbSymbolTableRecord
100
AcDbBlockTableRecord
  2
Block2
340
0
  0
BLOCK_RECORD
  5
90
330
1
100
AcDbSymbolTableRecord
100
AcDbBlockTableRecord
  2
Block7
340
0
  0
ENDTAB
  0
ENDSEC
  0
SECTION
  2
BLOCKS
  0
BLOCK
  5
20
330
1F
100
AcDbEntity
  8
0
100
AcDbBlockBegin
  2
*Model_Space
 70
     0
 10
0.0
 20
0.0
 30
0.0
  3
*Model_Space
  1

  0
ENDBLK
  5
21
330
1F
100
AcDbEntity
  8
0
100
AcDbBlockEnd
  0
BLOCK
  5
1C
330
1B
100
AcDbEntity
 67
     1
  8
0
100
AcDbBlockBegin
  2
*Paper_Space
 70
     0
 10
0.0
 20
0.0
 30
0.0
  3
*Paper_Space
  1

  0
ENDBLK
  5
1D
330
1B
100
AcDbEntity
 67
     1
  8
0
100
AcDbBlockEnd
  0
BLOCK
  5
24
330
23
100
AcDbEntity
  8
0
100
AcDbBlockBegin
  2
*Paper_Space0
 70
     0
 10
0.0
 20
0.0
 30
0.0
  3
*Paper_Space0
  1

  0
ENDBLK
  5
25
330
23
100
AcDbEntity
  8
0
100
AcDbBlockEnd
  0
BLOCK
  5
78
330
77
100
AcDbEntity
  8
0
100
AcDbBlockBegin
  2
Block5
 70
     0
 10
0.0
 20
0.0
 30
0.0
  3
Block5
  1

  0
LINE
  5
7A
330
77
100
AcDbEntity
  8
LAYER3
100
AcDbLine
 10
251.0883122991
 20
64.4632252413
 30
0.0
 11
250.3611798328
 21
64.9733337839
 31
0.0
  0
LINE
  5
7B
330
77
100
AcDbEntity
  8
LAYER3
100
AcDbLine
 10
250.3611798328
 20
64.9733337839
 30
0.0
 11
251.0883122991
 21
65.4834423266
 31
0.0
  0
LINE
  5
7C
330
77
100
AcDbEntity
  8
LAYER3
100
AcDbLine
 10
250.3611798328
 20
65.6106440044
 30
0.0
 11
250.3611798328
 21
64.3360235634
 31
0.0
  0
LINE
  5
7D
330
77
100
AcDbEntity
  8
LAYER3
100
AcDbLine
 10
251.0883122991
 20
65.4834423266
 30
0.0
 11
251.0883122991
 21
64.4632252413
 31
0.0
  0
LINE
  5
7E
330
77
100
AcDbEntity
  8
LAYER3
  6
Continuous
 62
     7
370
    18
100
AcDbLine
 10
254.0738326611
 20
65.4834423266
 30
0.0
 11
254.0738326611
 21
64.4632252413
 31
0.0
  0
LINE
  5
7F
330
77
100
AcDbEntity
  8
LAYER3
100
AcDbLine
 10
251.0883122991
 20
64.9733337839
 30
0.0
 11
254.0738326611
 21
64.9733337839
 31
0.0
  0
LINE
  5
80
330
77
100
AcDbEntity
  8
LAYER3
100
AcDbLine
 10
254.0738326611
 20
64.9733337839
 30
0.0
 11
254.0738326611
 21
64.4632252413
 31
0.0
  0
LINE
  5
81
330
77
100
AcDbEntity
  8
LAYER3
100
AcDbLine
 10
254.0738326611
 20
65.4834423266
 30
0.0
 11
254.8009651274
 21
64.9733337839
 31
0.0
  0
LINE
  5
82
330
77
100
AcDbEntity
  8
LAYER3
100
AcDbLine
 10
254.8009651274
 20
64.9733337839
 30
0.0
 11
254.0738326611
 21
64.4632252413
 31
0.0
  0
LINE
  5
83
330
77
100
AcDbEntity
  8
LAYER3
100
AcDbLine
 10
254.0738326611
 20
65.4834423266
 30
0.0
 11
254.0738326611
 21
64.9733337839
 31
0.0
  0
LINE
  5
84
330
77
100
AcDbEntity
  8
LAYER3
100
AcDbLine
 10
254.8009651274
 20
65.6106440044
 30
0.0
 11
254.8009651274
 21
64.3360235634
 31
0.0
  0
ENDBLK
  5
79
330
77
100
AcDbEntity
  8
0
100
AcDbBlockEnd
  0
BLOCK
  5
86
330
85
100
AcDbEntity
  8
0
100
AcDbBlockBegin
  2
Block2
 70
     0
 10
0.0
 20
0.0
 30
0.0
  3
Block2
  1

  0
CIRCLE
  5
88
330
85
100
AcDbEntity
  8
FORMAT
100
AcDbCircle
 10
44.9757425281
 20
71.5551333392
 30
0.0
 40
3.500000000000012
  0
CIRCLE
  5
89
330
85
100
AcDbEntity
  8
FORMAT
100
AcDbCircle
 10
44.9757425281
 20
71.5551333392
 30
0.0
 40
1.664444312410222
  0
LINE
  5
8A
330
85
100
AcDbEntity
  8
FORMAT
100
AcDbLine
 10
50.8419693267
 20
74.6444962432
 30
0.0
 11
58.8419693267
 21
73.6204905773
 31
0.0
  0
LINE
  5
8B
330
85
100
AcDbEntity
  8
FORMAT
100
AcDbLine
 10
58.8419693267
 20
73.6204905773
 30
0.0
 11
58.8419693267
 21
69.4897761011
 31
0.0
  0
LINE
  5
8C
330
85
100
AcDbEntity
  8
FORMAT
100
AcDbLine
 10
58.8419693267
 20
69.4897761011
 30
0.0
 11
50.8419693267
 21
68.4657704351
 31
0.0
  0
LINE
  5
8D
330
85
100
AcDbEntity
  8
FORMAT
100
AcDbLine
 10
50.8419693267
 20
68.4657704351
 30
0.0
 11
50.8419693267
 21
74.6444962432
 31
0.0
  0
LINE
  5
8E
330
85
100
AcDbEntity
  8
FORMAT
  6
CENTERX2
100
AcDbLine
 10
58.8419693267
 20
71.5551333392
 30
0.0
 11
40.5246830005
 21
71.5551333392
 31
0.0
  0
LINE
  5
8F
330
85
100
AcDbEntity
  8
FORMAT
100
AcDbLine
 10
44.9757425281
 20
77.2283416432
 30
0.0
 11
44.9757425281
 21
65.8819250352
 31
0.0
  0
ENDBLK
  5
87
330
85
100
AcDbEntity
  8
0
100
AcDbBlockEnd
  0
BLOCK
  5
91
330
90
100
AcDbEntity
  8
0
100
AcDbBlockBegin
  2
Block7
 70
     0
 10
0.0
 20
0.0
 30
0.0
  3
Block7
  1

  0
LINE
  5
93
330
90
100
AcDbEntity
  8
FORMAT
100
AcDbLine
 10
221.8284763776
 20
80.2705155621
 30
0.0
 11
222.3963943455
 21
79.286852787
 31
0.0
  0
LINE
  5
94
330
90
100
AcDbEntity
  8
FORMAT
100
AcDbLine
 10
222.3963943455
 20
79.286852787
 30
0.0
 11
222.9643123135
 21
80.2705155621
 31
0.0
  0
LINE
  5
95
330
90
100
AcDbEntity
  8
FORMAT
100
AcDbLine
 10
221.8284763776
 20
80.2705155621
 30
0.0
 11
222.9643123135
 21
80.2705155621
 31
0.0
  0
LINE
  5
96
330
90
100
AcDbEntity
  8
FORMAT
100
AcDbLine
 10
222.9643123135
 20
80.2705155621
 30
0.0
 11
223.3725273771
 21
80.9775647926
 31
0.0
  0
LINE
  5
97
330
90
100
AcDbEntity
  8
FORMAT
100
AcDbLine
 10
223.3725273771
 20
80.9775647926
 30
0.0
 11
224.1023154201
 21
80.9775647926
 31
0.0
  0
ENDBLK
  5
92
330
90
100
AcDbEntity
  8
0
100
AcDbBlockEnd
  0
ENDSEC
  0
SECTION
  2
ENTITIES
  0
LINE
  5
98
330
1F
100
AcDbEntity
  8
0
  6
Continuous
 62
     7
370
    25
100
AcDbLine
 10
140.5183325902
 20
-46.3966936876
 30
0.0
 11
140.5183325902
 21
166.4247394954
 31
0.0
  0
LINE
  5
99
330
1F
100
AcDbEntity
  8
0
  6
Continuous
 62
     7
370
    25
100
AcDbLine
 10
124.7183325902
 20
166.4247394954
 30
0.0
 11
124.7183325902
 21
-46.3966936876
 31
0.0
  0
LINE
  5
9A
330
1F
100
AcDbEntity
  8
0
  6
Continuous
 62
     7
370
    25
100
AcDbLine
 10
124.7183325902
 20
-46.3966936876
 30
0.0
 11
124.7183325902
 21
-46.5435503693
 31
0.0
  0
LINE
  5
9B
330
1F
100
AcDbEntity
  8
0
  6
Continuous
 62
     7
370
    25
100
AcDbLine
 10
140.5183325902
 20
-46.5435503693
 30
0.0
 11
140.5183325902
 21
-46.3966936876
 31
0.0
  0
LINE
  5
9C
330
1F
100
AcDbEntity
  8
0
  6
Continuous
 62
     7
370
    25
100
AcDbLine
 10
222.9183325902
 20
159.2747394954
 30
0.0
 11
224.5233375797
 21
160.4996117243
 31
0.0
  0
LINE
  5
9D
330
1F
100
AcDbEntity
  8
0
  6
Continuous
 62
     7
370
    25
100
AcDbLine
 10
224.5233375797
 20
172.3498672666
 30
0.0
 11
222.9183325902
 21
173.5747394954
 31
0.0
  0
ARC
  5
9E
330
1F
100
AcDbEntity
  8
0
  6
Continuous
 62
     7
370
    25
100
AcDbCircle
 10
224.0683325902
 20
161.0958251588
 30
0.0
 40
0.7500000000000284
100
AcDbArc
 50
307.3493490446
 51
0.0
  0
ARC
  5
9F
330
1F
100
AcDbEntity
  8
0
  6
Continuous
 62
     7
370
    25
100
AcDbCircle
 10
224.0683325902
 20
171.7536538321
 30
0.0
 40
0.7500000000000284
100
AcDbArc
 50
0.0
 51
52.6506509554
  0
ARC
  5
A0
330
1F
100
AcDbEntity
  8
0
  6
Continuous
 62
     7
370
    25
100
AcDbCircle
 10
224.8183325902
 20
162.4247394954
 30
0.0
 40
0.5000000000000148
100
AcDbArc
 50
270.0
 51
336.742337232
  0
ARC
  5
A1
330
1F
100
AcDbEntity
  8
0
  6
Continuous
 62
     7
370
    25
100
AcDbCircle
 10
224.8183325902
 20
170.4247394954
 30
0.0
 40
0.5000000000000148
100
AcDbArc
 50
23.257662768
 51
90.0
  0
LINE
  5
A2
330
1F
100
AcDbEntity
  8
0
  6
Continuous
 62
     7
370
    25
100
AcDbLine
 10
222.9183325902
 20
163.0013711248
 30
0.0
 11
224.0004009059
 21
162.0493487217
 31
0.0
  0
ARC
  5
A3
330
1F
100
AcDbEntity
  8
0
  6
Continuous
 62
     7
370
    25
100
AcDbCircle
 10
215.5115125102
 20
166.4247394954
 30
0.0
 40
10.63000000000005
100
AcDbArc
 50
6.6431237694
 51
23.257662768
  0
ARC
  5
A4
330
1F
100
AcDbEntity
  8
0
  6
Continuous
 62
     7
370
    25
100
AcDbCircle
 10
215.5115125102
 20
166.4247394954
 30
0.0
 40
10.63000000000003
100
AcDbArc
 50
336.742337232
 51
353.3915325368
  0
LINE
  5
A5
330
1F
100
AcDbEntity
  8
0
  6
Continuous
 62
     7
370
    25
100
AcDbLine
 10
225.8102635581
 20
167.5514373991
 30
0.0
 11
226.0746082529
 21
167.5514373991
 31
0.0
  0
LINE
  5
A6
330
1F
100
AcDbEntity
  8
0
  6
Continuous
 62
     7
370
    25
100
AcDbLine
 10
226.0746082529
 20
165.2980415917
 30
0.0
 11
225.9747764513
 21
165.2980415917
 31
0.0
  0
ARC
  5
A7
330
1F
100
AcDbEntity
  8
0
  6
Continuous
 62
     7
370
    25
100
AcDbCircle
 10
40.4183325902
 20
170.4247394954
 30
0.0
 40
0.5000000000000148
100
AcDbArc
 50
90.0
 51
156.742337232
  0
ARC
  5
A8
330
1F
100
AcDbEntity
  8
0
  6
Continuous
 62
     7
370
    25
100
AcDbCircle
 10
40.4183325902
 20
162.4247394954
 30
0.0
 40
0.5000000000000148
100
AcDbArc
 50
203.257662768
 51
270.0
  0
ARC
  5
A9
330
1F
100
AcDbEntity
  8
0
  6
Continuous
 62
     7
370
    25
100
AcDbCircle
 10
49.7251526701
 20
166.4247394954
 30
0.0
 40
10.63000000000001
100
AcDbArc
 50
186.6454578524
 51
203.257662768
  0
ARC
  5
AA
330
1F
100
AcDbEntity
  8
0
  6
Continuous
 62
     7
370
    25
100
AcDbCircle
 10
49.7251526701
 20
166.4247394954
 30
0.0
 40
10.63000000000001
100
AcDbArc
 50
156.742337232
 51
173.3788698941
  0
LINE
  5
AB
330
1F
100
AcDbEntity
  8
0
  6
Continuous
 62
     7
370
    25
100
AcDbLine
 10
39.1615304454
 20
167.5514373991
 30
0.0
 11
39.4264016222
 21
167.5514373991
 31
0.0
  0
LINE
  5
AC
330
1F
100
AcDbEntity
  8
0
  6
Continuous
 62
     7
370
    25
100
AcDbLine
 10
39.261888729
 20
165.2980415917
 30
0.0
 11
39.1615304454
 21
165.2980415917
 31
0.0
  0
LINE
  5
AD
330
1F
100
AcDbEntity
  8
0
  6
Continuous
 62
     7
370
    25
100
AcDbLine
 10
42.3183325902
 20
173.5747394954
 30
0.0
 11
40.7133276006
 21
172.3498672666
 31
0.0
  0
LINE
  5
AE
330
1F
100
AcDbEntity
  8
0
  6
Continuous
 62
     7
370
    25
100
AcDbLine
 10
40.7133276006
 20
160.4996117243
 30
0.0
 11
42.3183325902
 21
159.2747394954
 31
0.0
  0
ARC
  5
AF
330
1F
100
AcDbEntity
  8
0
  6
Continuous
 62
     7
370
    25
100
AcDbCircle
 10
41.1683325902
 20
171.7536538321
 30
0.0
 40
0.7500000000000058
100
AcDbArc
 50
127.3493490446
 51
180.0
  0
ARC
  5
B0
330
1F
100
AcDbEntity
  8
0
  6
Continuous
 62
     7
370
    25
100
AcDbCircle
 10
41.1683325902
 20
161.0958251588
 30
0.0
 40
0.7500000000000058
100
AcDbArc
 50
180.0
 51
232.6506509554
  0
LINE
  5
B1
330
1F
100
AcDbEntity
  8
0
  6
Continuous
 62
     7
370
    25
100
AcDbLine
 10
218.0563765473
 20
157.69450274
 30
0.0
 11
222.4270587934
 21
157.7707932824
 31
0.0
  0
LINE
  5
B2
330
1F
100
AcDbEntity
  8
0
  6
Continuous
 62
     7
370
    25
100
AcDbLine
 10
222.4270587934
 20
175.5695282861
 30
0.0
 11
217.1229563334
 21
175.6621117389
 31
0.0
  0
ARC
  5
B3
330
1F
100
AcDbEntity
  8
0
  6
Continuous
 62
     7
370
    25
100
AcDbCircle
 10
222.4183325902
 20
158.27071713
 30
0.0
 40
0.5
100
AcDbArc
 50
271.0
 51
0.0
  0
ARC
  5
B4
330
1F
100
AcDbEntity
  8
0
  6
Continuous
 62
     7
370
    25
100
AcDbCircle
 10
222.4183325902
 20
175.0696044385
 30
0.0
 40
0.5
100
AcDbArc
 50
0.0
 51
89.0
  0
SPLINE
  5
B5
330
1F
100
AcDbEntity
  8
0
  6
Continuous
 62
     7
370
    25
100
AcDbSpline
210
0.0
220
0.0
230
1.0
 70
     8
 71
     3
 72
    12
 73
     8
 74
     0
 42
0.00000001
 43
0.00000001
 40
0.0
 40
0.0
 40
0.0
 40
0.0
 40
0.1110213958485529
 40
0.4537544599013407
 40
0.7304995870469849
 40
0.9573202587385877
 40
0.9999999999999999
 40
0.9999999999999999
 40
0.9999999999999999
 40
0.9999999999999999
 10
215.8447085198968
 20
176.0290990515527
 30
0.0
 10
215.7506041630763
 20
176.0848739310895
 30
0.0
 10
215.3659911677429
 20
176.312830895122
 30
0.0
 10
214.8856125803433
 20
176.6418719355702
 30
0.0
 10
214.4942885491427
 20
176.9363447531047
 30
0.0
 10
214.351731703008
 20
177.1003180765808
 30
0.0
 10
214.3743857068738
 20
177.0663921758726
 30
0.0
 10
214.3779733341168
 20
177.0610194617888
 30
0.0
  0
ARC
  5
B6
330
1F
100
AcDbEntity
  8
0
  6
Continuous
 62
     7
370
    25
100
AcDbCircle
 10
217.1683325902
 20
178.2617157463
 30
0.0
 40
2.599999999999991
100
AcDbArc
 50
239.4420525213
 51
269.0
  0
SPLINE
  5
B7
330
1F
100
AcDbEntity
  8
0
  6
Continuous
 62
     7
370
    25
100
AcDbSpline
210
0.0
220
0.0
230
1.0
 70
     8
 71
     3
 72
    13
 73
     9
 74
     0
 42
0.00000001
 43
0.00000001
 40
0.0
 40
0.0
 40
0.0
 40
0.0
 40
0.0257777025631259
 40
0.1889924819795253
 40
0.3912819398086737
 40
0.6391253350241691
 40
0.9333979274773748
 40
1.0
 40
1.0
 40
1.0
 40
1.0
 10
214.3404400723402
 20
155.9322723221485
 30
0.0
 10
214.3375248838784
 20
155.9282137150003
 30
0.0
 10
214.3161518114918
 20
155.8984575241048
 30
0.0
 10
214.4342371380999
 20
156.0293110883765
 30
0.0
 10
214.7366514833136
 20
156.2591703150211
 30
0.0
 10
215.3317363943388
 20
156.6486079922748
 30
0.0
 10
215.9234944813113
 20
156.9927774543676
 30
0.0
 10
216.3479813325613
 20
157.2195045993118
 30
0.0
 10
216.426323501729
 20
157.2613487607783
 30
0.0
  0
ARC
  5
B8
330
1F
100
AcDbEntity
  8
0
  6
Continuous
 62
     7
370
    25
100
AcDbCircle
 10
218.1183325902
 20
154.1450434222
 30
0.0
 40
3.549999999999962
100
AcDbArc
 50
91.0
 51
118.1920130769
  0
ARC
  5
B9
330
1F
100
AcDbEntity
  8
0
  6
Continuous
 62
     7
370
    25
100
AcDbCircle
 10
208.5683325902
 20
155.1982711695
 30
0.0
 40
0.5
100
AcDbArc
 50
180.0
 51
271.0
  0
ARC
  5
BA
330
1F
100
AcDbEntity
  8
0
  6
Continuous
 62
     7
370
    25
100
AcDbCircle
 10
208.5683325902
 20
178.142050399
 30
0.0
 40
0.5
100
AcDbArc
 50
89.0
 51
180.0
  0
LINE
  5
BB
330
1F
100
AcDbEntity
  8
0
  6
Continuous
 62
     7
370
    25
100
AcDbLine
 10
208.5770587934
 20
154.6983473219
 30
0.0
 11
212.603237403
 21
154.768624531
 31
0.0
  0
LINE
  5
BC
330
1F
100
AcDbEntity
  8
0
  6
Continuous
 62
     7
370
    25
100
AcDbLine
 10
212.603237403
 20
178.5716970375
 30
0.0
 11
208.5770587934
 21
178.6419742466
 31
0.0
  0
ARC
  5
BD
330
1F
100
AcDbEntity
  8
0
  6
Continuous
 62
     7
370
    25
100
AcDbCircle
 10
212.5683325902
 20
176.5720016472
 30
0.0
 40
2.000000000000034
100
AcDbArc
 50
14.5234270308
 51
89.0
  0
SPLINE
  5
BE
330
1F
100
AcDbEntity
  8
0
  6
Continuous
 62
     7
370
    25
100
AcDbSpline
210
0.0
220
0.0
230
1.0
 70
     8
 71
     3
 72
     9
 73
     5
 74
     0
 42
0.00000001
 43
0.00000001
 40
0.0
 40
0.0
 40
0.0
 40
0.0
 40
0.6627403955522465
 40
1.0
 40
1.0
 40
1.0
 40
1.0
 10
222.9183325901527
 20
161.910962101901
 30
0.0
 10
222.9613052069943
 20
162.0655014085364
 30
0.0
 10
223.0261460060914
 20
162.2986836736777
 30
0.0
 10
223.1443857823769
 20
162.6491893129208
 30
0.0
 10
223.184263282557
 20
162.7674007061686
 30
0.0
  0
LINE
  5
BF
330
1F
100
AcDbEntity
  8
0
  6
Continuous
 62
     7
370
    25
100
AcDbLine
 10
223.0588284557
 20
170.9373405286
 30
0.0
 11
222.9183325902
 21
171.4191274607
 31
0.0
  0
ARC
  5
C0
330
1F
100
AcDbEntity
  8
0
  6
Continuous
 62
     7
370
    25
100
AcDbCircle
 10
212.5683325902
 20
156.7683199213
 30
0.0
 40
2.000000000000045
100
AcDbArc
 50
271.0
 51
334.3886051651
  0
LINE
  5
C1
330
1F
100
AcDbEntity
  8
0
  6
Continuous
 62
     7
370
    25
100
AcDbLine
 10
47.180288633
 20
175.4003975397
 30
0.0
 11
42.8096063869
 21
175.3241069973
 31
0.0
  0
LINE
  5
C2
330
1F
100
AcDbEntity
  8
0
  6
Continuous
 62
     7
370
    25
100
AcDbLine
 10
42.8096063869
 20
157.5253719936
 30
0.0
 11
48.1137088469
 21
157.4327885408
 31
0.0
  0
ARC
  5
C3
330
1F
100
AcDbEntity
  8
0
  6
Continuous
 62
     7
370
    25
100
AcDbCircle
 10
42.8183325902
 20
174.8241831497
 30
0.0
 40
0.5
100
AcDbArc
 50
91.0
 51
180.0
  0
ARC
  5
C4
330
1F
100
AcDbEntity
  8
0
  6
Continuous
 62
     7
370
    25
100
AcDbCircle
 10
42.8183325902
 20
158.0252958412
 30
0.0
 40
0.5
100
AcDbArc
 50
180.0
 51
269.0
  0
SPLINE
  5
C5
330
1F
100
AcDbEntity
  8
0
  6
Continuous
 62
     7
370
    25
100
AcDbSpline
210
0.0
220
0.0
230
1.0
 70
     8
 71
     3
 72
    12
 73
     8
 74
     0
 42
0.00000001
 43
0.00000001
 40
0.0
 40
0.0
 40
0.0
 40
0.0
 40
0.1110213958485484
 40
0.4537544599013409
 40
0.730499587047022
 40
0.9573202587385997
 40
1.0
 40
1.0
 40
1.0
 40
1.0
 10
49.3919566604087
 20
157.0658012281349
 30
0.0
 10
49.48606101722913
 20
157.0100263485981
 30
0.0
 10
49.87067401256265
 20
156.7820693845655
 30
0.0
 10
50.3510525999621
 20
156.4530283441175
 30
0.0
 10
50.74237663116295
 20
156.1585555265827
 30
0.0
 10
50.88493347729742
 20
155.994582203107
 30
0.0
 10
50.86227947343169
 20
156.028508103815
 30
0.0
 10
50.85869184618864
 20
156.0338808178989
 30
0.0
  0
ARC
  5
C6
330
1F
100
AcDbEntity
  8
0
  6
Continuous
 62
     7
370
    25
100
AcDbCircle
 10
48.0683325902
 20
154.8331845334
 30
0.0
 40
2.600000000000033
100
AcDbArc
 50
59.4420525213
 51
89.0
  0
SPLINE
  5
C7
330
1F
100
AcDbEntity
  8
0
  6
Continuous
 62
     7
370
    25
100
AcDbSpline
210
0.0
220
0.0
230
1.0
 70
     8
 71
     3
 72
    13
 73
     9
 74
     0
 42
0.00000001
 43
0.00000001
 40
0.0
 40
0.0
 40
0.0
 40
0.0
 40
0.0257777025631122
 40
0.1889924819795163
 40
0.391281939808674
 40
0.6391253350241799
 40
0.9333979274773946
 40
1.0
 40
1.0
 40
1.0
 40
1.0
 10
50.89622510796526
 20
177.1626279575392
 30
0.0
 10
50.8991402964271
 20
177.1666865646874
 30
0.0
 10
50.92051336881366
 20
177.1964427555828
 30
0.0
 10
50.80242804220553
 20
177.0655891913111
 30
0.0
 10
50.50001369699195
 20
176.8357299646664
 30
0.0
 10
49.90492878596671
 20
176.4462922874129
 30
0.0
 10
49.31317069899407
 20
176.1021228253199
 30
0.0
 10
48.88868384774414
 20
175.8753956803758
 30
0.0
 10
48.81034167857652
 20
175.8335515189093
 30
0.0
  0
ARC
  5
C8
330
1F
100
AcDbEntity
  8
0
  6
Continuous
 62
     7
370
    25
100
AcDbCircle
 10
47.1183325902
 20
178.9498568575
 30
0.0
 40
3.549999999999985
100
AcDbArc
 50
271.0
 51
298.1920130769
  0
ARC
  5
C9
330
1F
100
AcDbEntity
  8
0
  6
Continuous
 62
     7
370
    25
100
AcDbCircle
 10
56.6683325902
 20
177.8966291102
 30
0.0
 40
0.5000000000000063
100
AcDbArc
 50
0.0
 51
91.0
  0
ARC
  5
CA
330
1F
100
AcDbEntity
  8
0
  6
Continuous
 62
     7
370
    25
100
AcDbCircle
 10
56.6683325902
 20
154.9528498807
 30
0.0
 40
0.5
100
AcDbArc
 50
269.0
 51
0.0
  0
LINE
  5
CB
330
1F
100
AcDbEntity
  8
0
  6
Continuous
 62
     7
370
    25
100
AcDbLine
 10
52.6334277773
 20
154.5232032422
 30
0.0
 11
56.6596063869
 21
154.4529260331
 31
0.0
  0
LINE
  5
CC
330
1F
100
AcDbEntity
  8
0
  6
Continuous
 62
     7
370
    25
100
AcDbLine
 10
56.6596063869
 20
178.3965529577
 30
0.0
 11
52.6334277773
 21
178.3262757487
 31
0.0
  0
ARC
  5
CD
330
1F
100
AcDbEntity
  8
0
  6
Continuous
 62
     7
370
    25
100
AcDbCircle
 10
52.6683325902
 20
156.5228986325
 30
0.0
 40
1.999999999999993
100
AcDbArc
 50
194.5234270308
 51
269.0
  0
LINE
  5
CE
330
1F
100
AcDbEntity
  8
0
  6
Continuous
 62
     7
370
    25
100
AcDbLine
 10
42.3183325902
 20
171.1839381778
 30
0.0
 11
42.2428670361
 21
170.9287992913
 31
0.0
  0
LINE
  5
CF
330
1F
100
AcDbEntity
  8
0
  6
Continuous
 62
     7
370
    25
100
AcDbLine
 10
42.2467163602
 20
161.9213584352
 30
0.0
 11
42.3183325902
 21
161.675772819
 31
0.0
  0
ARC
  5
D0
330
1F
100
AcDbEntity
  8
0
  6
Continuous
 62
     7
370
    25
100
AcDbCircle
 10
52.6683325902
 20
176.3265803584
 30
0.0
 40
2.000000000000026
100
AcDbArc
 50
91.0
 51
154.3886051651
  0
LINE
  5
D1
330
1F
100
AcDbEntity
  8
0
  6
Continuous
 62
     7
370
    25
100
AcDbLine
 10
208.0683325902
 20
172.0747394954
 30
0.0
 11
201.4183325902
 21
172.0747394954
 31
0.0
  0
LINE
  5
D2
330
1F
100
AcDbEntity
  8
0
  6
Continuous
 62
     7
370
    25
100
AcDbLine
 10
201.4183325902
 20
160.7747394954
 30
0.0
 11
208.0683325902
 21
160.7747394954
 31
0.0
  0
LINE
  5
D3
330
1F
100
AcDbEntity
  8
0
  6
Continuous
 62
     7
370
    25
100
AcDbLine
 10
200.138327059
 20
156.862733826
 30
0.0
 11
201.4183325902
 21
158.1747394954
 31
0.0
  0
LINE
  5
D4
330
1F
100
AcDbEntity
  8
0
  6
Continuous
 62
     7
370
    25
100
AcDbLine
 10
201.4183325902
 20
174.6747394954
 30
0.0
 11
200.138327059
 21
175.9867451649
 31
0.0
  0
LINE
  5
D5
330
1F
100
AcDbEntity
  8
0
  6
Continuous
 62
     7
370
    25
100
AcDbLine
 10
194.2952879648
 20
175.8247394954
 30
0.0
 11
193.9683325902
 21
175.8247394954
 31
0.0
  0
SPLINE
  5
D6
330
1F
100
AcDbEntity
  8
0
  6
Continuous
 62
     7
370
    25
100
AcDbSpline
210
0.0
220
0.0
230
1.0
 70
     8
 71
     3
 72
     9
 73
     5
 74
     0
 42
0.00000001
 43
0.00000001
 40
0.0
 40
0.0
 40
0.0
 40
0.0
 40
0.4921597394042843
 40
0.9999999999999999
 40
0.9999999999999999
 40
0.9999999999999999
 40
0.9999999999999999
 10
193.607058707117
 20
157.0462084593862
 30
0.0
 10
193.6782356476037
 20
157.1693962376928
 30
0.0
 10
193.8228572710078
 20
157.4196966349902
 30
0.0
 10
193.9675073884243
 20
157.669971033486
 30
0.0
 10
194.0409665417483
 20
157.7970704492385
 30
0.0
  0
SPLINE
  5
D7
330
1F
100
AcDbEntity
  8
0
  6
Continuous
 62
     7
370
    25
100
AcDbSpline
210
0.0
220
0.0
230
1.0
 70
     8
 71
     3
 72
     9
 73
     5
 74
     0
 42
0.00000001
 43
0.00000001
 40
0.0
 40
0.0
 40
0.0
 40
0.0
 40
0.4981873554341348
 40
1.0
 40
1.0
 40
1.0
 40
1.0
 10
194.7465234830728
 20
175.0524061491434
 30
0.0
 10
194.6731489150346
 20
175.1793440821161
 30
0.0
 10
194.5258658352095
 20
175.4341436702391
 30
0.0
 10
194.378631608118
 20
175.6889965076685
 30
0.0
 10
194.3047476112505
 20
175.8168848839942
 30
0.0
  0
SPLINE
  5
D8
330
1F
100
AcDbEntity
  8
0
  6
Continuous
 62
     7
370
    25
100
AcDbSpline
210
0.0
220
0.0
230
1.0
 70
     8
 71
     3
 72
     9
 73
     5
 74
     0
 42
0.00000001
 43
0.00000001
 40
0.0
 40
0.0
 40
0.0
 40
0.0
 40
0.5011659921197231
 40
1.0
 40
1.0
 40
1.0
 40
1.0
 10
194.1972713357199
 20
157.7972017338744
 30
0.0
 10
194.2710871148875
 20
157.6694964360454
 30
0.0
 10
194.4183751997302
 20
157.4146800681413
 30
0.0
 10
194.5656280445429
 20
157.1598211517636
 30
0.0
 10
194.6390827712926
 20
157.032688857063
 30
0.0
  0
LINE
  5
D9
330
1F
100
AcDbEntity
  8
0
  6
Continuous
 62
     7
370
    25
100
AcDbLine
 10
195.0649188669
 20
175.3326973576
 30
0.0
 11
194.9028265845
 21
175.0522767339
 31
0.0
  0
LINE
  5
DA
330
1F
100
AcDbEntity
  8
0
  6
Continuous
 62
     7
370
    25
100
AcDbLine
 10
194.658592101
 20
157.0649990063
 30
0.0
 11
195.1183325902
 21
157.5247394954
 31
0.0
  0
LINE
  5
DB
330
1F
100
AcDbEntity
  8
0
  6
Continuous
 62
     7
370
    25
100
AcDbLine
 10
195.1183325902
 20
175.3247394954
 30
0.0
 11
195.1002041221
 21
175.3428679635
 31
0.0
  0
SPLINE
  5
DC
330
1F
100
AcDbEntity
  8
0
  6
Continuous
 62
     7
370
    25
100
AcDbSpline
210
0.0
220
0.0
230
1.0
 70
     8
 71
     3
 72
     9
 73
     5
 74
     0
 42
0.00000001
 43
0.00000001
 40
0.0
 40
0.0
 40
0.0
 40
0.0
 40
0.5178081832965679
 40
1.0
 40
1.0
 40
1.0
 40
1.0
 10
194.0309960603396
 20
157.7885258166285
 30
0.0
 10
194.0605740264744
 20
157.7885370230133
 30
0.0
 10
194.1176954994232
 20
157.7885586649747
 30
0.0
 10
194.174766099692
 20
157.7885373706027
 30
0.0
 10
194.2022850761159
 20
157.7885271026308
 30
0.0
  0
SPLINE
  5
DD
330
1F
100
AcDbEntity
  8
0
  6
Continuous
 62
     7
370
    25
100
AcDbSpline
210
0.0
220
0.0
230
1.0
 70
     8
 71
     3
 72
     9
 73
     5
 74
     0
 42
0.00000001
 43
0.00000001
 40
0.0
 40
0.0
 40
0.0
 40
0.0
 40
0.5105586537199035
 40
1.0
 40
1.0
 40
1.0
 40
1.0
 10
194.9129398997622
 20
175.0609531724726
 30
0.0
 10
194.8838186536159
 20
175.0609276732827
 30
0.0
 10
194.8267806503738
 20
175.0608777295795
 30
0.0
 10
194.7695809881013
 20
175.0609264526727
 30
0.0
 10
194.7415851083919
 20
175.060950299769
 30
0.0
  0
LINE
  5
DE
330
1F
100
AcDbEntity
  8
0
  6
Continuous
 62
     7
370
    25
100
AcDbLine
 10
195.1183325902
 20
158.2997394954
 30
0.0
 11
196.6183325902
 21
158.2997394954
 31
0.0
  0
LINE
  5
DF
330
1F
100
AcDbEntity
  8
0
  6
Continuous
 62
     7
370
    25
100
AcDbLine
 10
196.6183325902
 20
174.5497394954
 30
0.0
 11
195.1183325902
 21
174.5497394954
 31
0.0
  0
LINE
  5
E0
330
1F
100
AcDbEntity
  8
0
  6
Continuous
 62
     7
370
    25
100
AcDbLine
 10
66.3490037747
 20
175.9874274596
 30
0.0
 11
65.0683325902
 21
174.6747394954
 31
0.0
  0
LINE
  5
E1
330
1F
100
AcDbEntity
  8
0
  6
Continuous
 62
     7
370
    25
100
AcDbLine
 10
65.0683325902
 20
158.1747394954
 30
0.0
 11
66.3490037747
 21
156.8620515312
 31
0.0
  0
LINE
  5
E2
330
1F
100
AcDbEntity
  8
0
  6
Continuous
 62
     7
370
    25
100
AcDbLine
 10
72.4677940908
 20
157.0247394954
 30
0.0
 11
72.5183325902
 21
157.0247394954
 31
0.0
  0
LINE
  5
E3
330
1F
100
AcDbEntity
  8
0
  6
Continuous
 62
     7
370
    25
100
AcDbLine
 10
72.1147704583
 20
175.8247394954
 30
0.0
 11
71.8683325902
 21
175.8247394954
 31
0.0
  0
SPLINE
  5
E4
330
1F
100
AcDbEntity
  8
0
  6
Continuous
 62
     7
370
    25
100
AcDbSpline
210
0.0
220
0.0
230
1.0
 70
     8
 71
     3
 72
     9
 73
     5
 74
     0
 42
0.00000001
 43
0.00000001
 40
0.0
 40
0.0
 40
0.0
 40
0.0
 40
0.188823038340183
 40
1.0
 40
1.0
 40
1.0
 40
1.0
 10
71.58245233132806
 20
175.5216792494175
 30
0.0
 10
71.56537940379043
 20
175.492130919432
 30
0.0
 10
71.47496179539002
 20
175.3356440296689
 30
0.0
 10
71.3845004596344
 20
175.1791518864505
 30
0.0
 10
71.31112030814845
 20
175.0522090651908
 30
0.0
  0
SPLINE
  5
E5
330
1F
100
AcDbEntity
  8
0
  6
Continuous
 62
     7
370
    25
100
AcDbSpline
210
0.0
220
0.0
230
1.0
 70
     8
 71
     3
 72
     9
 73
     5
 74
     0
 42
0.00000001
 43
0.00000001
 40
0.0
 40
0.0
 40
0.0
 40
0.0
 40
0.4987433617574337
 40
1.0
 40
1.0
 40
1.0
 40
1.0
 10
72.0166770115649
 20
157.7972679607981
 30
0.0
 10
72.09014013324432
 20
157.6701624053614
 30
0.0
 10
72.23743657328227
 20
157.4153107818955
 30
0.0
 10
72.38468841724088
 20
157.1604746534636
 30
0.0
 10
72.4584993815186
 20
157.032736352423
 30
0.0
  0
SPLINE
  5
E6
330
1F
100
AcDbEntity
  8
0
  6
Continuous
 62
     7
370
    25
100
AcDbSpline
210
0.0
220
0.0
230
1.0
 70
     8
 71
     3
 72
     9
 73
     5
 74
     0
 42
0.00000001
 43
0.00000001
 40
0.0
 40
0.0
 40
0.0
 40
0.0
 40
0.501113075572497
 40
0.9999999999999999
 40
0.9999999999999999
 40
0.9999999999999999
 40
0.9999999999999999
 10
72.56592839973462
 20
175.0524742520016
 30
0.0
 10
72.49212458362538
 20
175.180167862111
 30
0.0
 10
72.34484481842487
 20
175.4349878146007
 30
0.0
 10
72.19761756411897
 20
175.689802787479
 30
0.0
 10
72.12416781202639
 20
175.8169266455964
 30
0.0
  0
SPLINE
  5
E7
330
1F
100
AcDbEntity
  8
0
  6
Continuous
 62
     7
370
    25
100
AcDbSpline
210
0.0
220
0.0
230
1.0
 70
     8
 71
     3
 72
     9
 73
     5
 74
     0
 42
0.00000001
 43
0.00000001
 40
0.0
 40
0.0
 40
0.0
 40
0.0
 40
0.1964851983542632
 40
1.0
 40
1.0
 40
1.0
 40
1.0
 10
71.58966778296777
 20
157.3303108558987
 30
0.0
 10
71.60766508908122
 20
157.3613960076522
 30
0.0
 10
71.69926133278918
 20
157.5196020812595
 30
0.0
 10
71.79109442117374
 20
157.6787158547376
 30
0.0
 10
71.86488366697158
 20
157.806566126873
 30
0.0
  0
LINE
  5
E8
330
1F
100
AcDbEntity
  8
0
  6
Continuous
 62
     7
370
    25
100
AcDbLine
 10
71.8683325902
 20
175.8247394954
 30
0.0
 11
71.6007084982
 21
175.5571154035
 31
0.0
  0
LINE
  5
E9
330
1F
100
AcDbEntity
  8
0
  6
Continuous
 62
     7
370
    25
100
AcDbLine
 10
71.3683325902
 20
157.5247394954
 30
0.0
 11
71.5640612758
 21
157.3290108098
 31
0.0
  0
SPLINE
  5
EA
330
1F
100
AcDbEntity
  8
0
  6
Continuous
 62
     7
370
    25
100
AcDbSpline
210
0.0
220
0.0
230
1.0
 70
     8
 71
     3
 72
     9
 73
     5
 74
     0
 42
0.00000001
 43
0.00000001
 40
0.0
 40
0.0
 40
0.0
 40
0.0
 40
0.5166266336148583
 40
1.0
 40
1.0
 40
1.0
 40
1.0
 10
72.73271363146566
 20
175.0609448894954
 30
0.0
 10
72.70313562214766
 20
175.0609471185964
 30
0.0
 10
72.64588342608671
 20
175.0609514333198
 30
0.0
 10
72.58868224348014
 20
175.0609471811918
 30
0.0
 10
72.5610327152824
 20
175.0609451258263
 30
0.0
  0
SPLINE
  5
EB
330
1F
100
AcDbEntity
  8
0
  6
Continuous
 62
     7
370
    25
100
AcDbSpline
210
0.0
220
0.0
230
1.0
 70
     8
 71
     3
 72
     9
 73
     5
 74
     0
 42
0.00000001
 43
0.00000001
 40
0.0
 40
0.0
 40
0.0
 40
0.0
 40
0.4973303336687774
 40
1.0
 40
1.0
 40
1.0
 40
1.0
 10
71.8813465390498
 20
157.8729795957863
 30
0.0
 10
71.91057590498377
 20
157.8716151159146
 30
0.0
 10
71.9693484429835
 20
157.8688715071312
 30
0.0
 10
72.02816841315764
 20
157.8716053672384
 30
0.0
 10
72.0577354279387
 20
157.8729795957863
 30
0.0
  0
LINE
  5
EC
330
1F
100
AcDbEntity
  8
0
  6
Continuous
 62
     7
370
    25
100
AcDbLine
 10
71.3683325902
 20
174.5497394954
 30
0.0
 11
69.8683325902
 21
174.5497394954
 31
0.0
  0
LINE
  5
ED
330
1F
100
AcDbEntity
  8
0
  6
Continuous
 62
     7
370
    25
100
AcDbLine
 10
69.8683325902
 20
158.2997394954
 30
0.0
 11
71.3683325902
 21
158.2997394954
 31
0.0
  0
LINE
  5
EE
330
1F
100
AcDbEntity
  8
0
  6
Continuous
 62
     7
370
    25
100
AcDbLine
 10
176.8823152271
 20
182.7387221324
 30
0.0
 11
176.7683325902
 21
182.6247394954
 31
0.0
  0
LINE
  5
EF
330
1F
100
AcDbEntity
  8
0
  6
Continuous
 62
     7
370
    25
100
AcDbLine
 10
176.7683325902
 20
150.2247394954
 30
0.0
 11
176.8823152271
 21
150.1107568585
 31
0.0
  0
LINE
  5
F0
330
1F
100
AcDbEntity
  8
0
  6
Continuous
 62
     7
370
    25
100
AcDbLine
 10
186.1043499532
 20
150.1107568585
 30
0.0
 11
186.2183325902
 21
150.2247394954
 31
0.0
  0
LINE
  5
F1
330
1F
100
AcDbEntity
  8
0
  6
Continuous
 62
     7
370
    25
100
AcDbLine
 10
186.2183325902
 20
182.6247394954
 30
0.0
 11
186.1043499532
 21
182.7387221324
 31
0.0
  0
ARC
  5
F2
330
1F
100
AcDbEntity
  8
0
  6
Continuous
 62
     7
370
    25
100
AcDbCircle
 10
186.2183325902
 20
160.6837511233
 30
0.0
 40
9.13401162790696
100
AcDbArc
 50
270.0
 51
328.0464183091
  0
ARC
  5
F3
330
1F
100
AcDbEntity
  8
0
  6
Continuous
 62
     7
370
    25
100
AcDbCircle
 10
186.2183325902
 20
172.1657278675
 30
0.0
 40
9.134011627907
100
AcDbArc
 50
31.9535816909
 51
90.0
  0
LINE
  5
F4
330
1F
100
AcDbEntity
  8
0
  6
Continuous
 62
     7
370
    25
100
AcDbLine
 10
185.0249792256
 20
183.1520242269
 30
0.0
 11
177.9746796738
 21
183.1520242269
 31
0.0
  0
LINE
  5
F5
330
1F
100
AcDbEntity
  8
0
  6
Continuous
 62
     7
370
    25
100
AcDbLine
 10
177.9746796738
 20
149.697454764
 30
0.0
 11
185.0249792256
 21
149.697454764
 31
0.0
  0
LINE
  5
F6
330
1F
100
AcDbEntity
  8
0
  6
Continuous
 62
     7
370
    25
100
AcDbLine
 10
89.5682593889
 20
150.0746662942
 30
0.0
 11
89.7183325902
 21
150.2247394954
 31
0.0
  0
LINE
  5
F7
330
1F
100
AcDbEntity
  8
0
  6
Continuous
 62
     7
370
    25
100
AcDbLine
 10
89.7183325902
 20
182.6247394954
 30
0.0
 11
89.5682593889
 21
182.7748126967
 31
0.0
  0
LINE
  5
F8
330
1F
100
AcDbEntity
  8
0
  6
Continuous
 62
     7
370
    25
100
AcDbLine
 10
80.4111944943
 20
182.7676013996
 30
0.0
 11
80.2683325902
 21
182.6247394954
 31
0.0
  0
LINE
  5
F9
330
1F
100
AcDbEntity
  8
0
  6
Continuous
 62
     7
370
    25
100
AcDbLine
 10
80.2683325902
 20
150.2247394954
 30
0.0
 11
80.4111944943
 21
150.0818775912
 31
0.0
  0
ARC
  5
FA
330
1F
100
AcDbEntity
  8
0
  6
Continuous
 62
     7
370
    25
100
AcDbCircle
 10
80.2683325902
 20
172.1657278675
 30
0.0
 40
9.134011627907
100
AcDbArc
 50
90.0
 51
148.0464183091
  0
ARC
  5
FB
330
1F
100
AcDbEntity
  8
0
  6
Continuous
 62
     7
370
    25
100
AcDbCircle
 10
80.2683325902
 20
160.6837511233
 30
0.0
 40
9.134011627906984
100
AcDbArc
 50
211.9535816909
 51
270.0
  0
LINE
  5
FC
330
1F
100
AcDbEntity
  8
0
  6
Continuous
 62
     7
370
    25
100
AcDbLine
 10
88.5249792256
 20
183.1520242269
 30
0.0
 11
81.4746796738
 21
183.1520242269
 31
0.0
  0
LINE
  5
FD
330
1F
100
AcDbEntity
  8
0
  6
Continuous
 62
     7
370
    25
100
AcDbLine
 10
81.4746796738
 20
149.697454764
 30
0.0
 11
88.5249792256
 21
149.697454764
 31
0.0
  0
LINE
  5
FE
330
1F
100
AcDbEntity
  8
0
  6
Continuous
 62
     7
370
    25
100
AcDbLine
 10
57.1683325902
 20
160.7747394954
 30
0.0
 11
65.0683325902
 21
160.7747394954
 31
0.0
  0
LINE
  5
FF
330
1F
100
AcDbEntity
  8
0
  6
Continuous
 62
     7
370
    25
100
AcDbLine
 10
65.0683325902
 20
172.0747394954
 30
0.0
 11
57.1683325902
 21
172.0747394954
 31
0.0
  0
SPLINE
  5
100
330
1F
100
AcDbEntity
  8
0
  6
Continuous
 62
     7
370
    25
100
AcDbSpline
210
0.0
220
0.0
230
1.0
 70
     8
 71
     3
 72
     9
 73
     5
 74
     0
 42
0.00000001
 43
0.00000001
 40
0.0
 40
0.0
 40
0.0
 40
0.0
 40
0.4999956574115232
 40
1.0
 40
1.0
 40
1.0
 40
1.0
 10
176.8311503345126
 20
180.1071447200311
 30
0.0
 10
176.7529622993361
 20
180.2425144611319
 30
0.0
 10
176.5965848708175
 20
180.5132562947739
 30
0.0
 10
176.4402116041883
 20
180.784000208774
 30
0.0
 10
176.3620242918089
 20
180.9193733415036
 30
0.0
  0
SPLINE
  5
101
330
1F
100
AcDbEntity
  8
0
  6
Continuous
 62
     7
370
    25
100
AcDbSpline
210
0.0
220
0.0
230
1.0
 70
     8
 71
     3
 72
     9
 73
     5
 74
     0
 42
0.00000001
 43
0.00000001
 40
0.0
 40
0.0
 40
0.0
 40
0.0
 40
0.4999956574115158
 40
1.0
 40
1.0
 40
1.0
 40
1.0
 10
175.3311503345126
 20
180.1071447200311
 30
0.0
 10
175.2529622993361
 20
180.2425144611318
 30
0.0
 10
175.0965848708175
 20
180.5132562947738
 30
0.0
 10
174.9402116041883
 20
180.7840002087741
 30
0.0
 10
174.8620242918089
 20
180.9193733415036
 30
0.0
  0
SPLINE
  5
102
330
1F
100
AcDbEntity
  8
0
  6
Continuous
 62
     7
370
    25
100
AcDbSpline
210
0.0
220
0.0
230
1.0
 70
     8
 71
     3
 72
     9
 73
     5
 74
     0
 42
0.00000001
 43
0.00000001
 40
0.0
 40
0.0
 40
0.0
 40
0.0
 40
0.503535506867365
 40
1.0
 40
1.0
 40
1.0
 40
1.0
 10
175.612024291809
 20
151.9301056493557
 30
0.0
 10
175.6902116017389
 20
152.0654787833096
 30
0.0
 10
175.845488258228
 20
152.3343240426956
 30
0.0
 10
176.0007690474203
 20
152.6031672363126
 30
0.0
 10
176.0778604457199
 20
152.7366383361638
 30
0.0
  0
SPLINE
  5
103
330
1F
100
AcDbEntity
  8
0
  6
Continuous
 62
     7
370
    25
100
AcDbSpline
210
0.0
220
0.0
230
1.0
 70
     8
 71
     3
 72
     9
 73
     5
 74
     0
 42
0.00000001
 43
0.00000001
 40
0.0
 40
0.0
 40
0.0
 40
0.0
 40
0.5035355244946027
 40
0.9999999999999999
 40
0.9999999999999999
 40
0.9999999999999999
 40
0.9999999999999999
 10
174.112024291809
 20
151.9301056493557
 30
0.0
 10
174.1902116017388
 20
152.0654787833096
 30
0.0
 10
174.3454882527922
 20
152.3343240332843
 30
0.0
 10
174.5007690365486
 20
152.6031672174898
 30
0.0
 10
174.5778604294123
 20
152.7366383079297
 30
0.0
  0
SPLINE
  5
104
330
1F
100
AcDbEntity
  8
0
  6
Continuous
 62
     7
370
    25
100
AcDbSpline
210
0.0
220
0.0
230
1.0
 70
     8
 71
     3
 72
     9
 73
     5
 74
     0
 42
0.00000001
 43
0.00000001
 40
0.0
 40
0.0
 40
0.0
 40
0.0
 40
0.5036319833775901
 40
1.0
 40
1.0
 40
1.0
 40
1.0
 10
176.1620476436276
 20
180.9192113896271
 30
0.0
 10
176.0838610255376
 20
180.7838394009152
 30
0.0
 10
175.9286154877827
 20
180.5150479159027
 30
0.0
 10
175.7733659108885
 20
180.2462589169804
 30
0.0
 10
175.6963049863241
 20
180.1128406546954
 30
0.0
  0
SPLINE
  5
105
330
1F
100
AcDbEntity
  8
0
  6
Continuous
 62
     7
370
    25
100
AcDbSpline
210
0.0
220
0.0
230
1.0
 70
     8
 71
     3
 72
     9
 73
     5
 74
     0
 42
0.00000001
 43
0.00000001
 40
0.0
 40
0.0
 40
0.0
 40
0.0
 40
0.499995754777303
 40
1.0
 40
1.0
 40
1.0
 40
1.0
 10
176.4429258006796
 20
152.7424888720856
 30
0.0
 10
176.5211131277675
 20
152.6071204356585
 30
0.0
 10
176.6774891096451
 20
152.3363812641082
 30
0.0
 10
176.8338610230777
 20
152.0656395884299
 30
0.0
 10
176.9120476436275
 20
151.9302676012322
 30
0.0
  0
LINE
  5
106
330
1F
100
AcDbEntity
  8
0
  6
Continuous
 62
     7
370
    25
100
AcDbLine
 10
91.1308325861
 20
151.9247394954
 30
0.0
 11
91.4183325902
 21
151.9247394954
 31
0.0
  0
LINE
  5
107
330
1F
100
AcDbEntity
  8
0
  6
Continuous
 62
     7
370
    25
100
AcDbLine
 10
89.7183325902
 20
151.9247394954
 30
0.0
 11
89.8183325902
 21
151.9247394954
 31
0.0
  0
LINE
  5
108
330
1F
100
AcDbEntity
  8
0
  6
Continuous
 62
     7
370
    25
100
AcDbLine
 10
91.4183325902
 20
180.9247394954
 30
0.0
 11
90.3808325861
 21
180.9247394954
 31
0.0
  0
LINE
  5
109
330
1F
100
AcDbEntity
  8
0
  6
Continuous
 62
     7
370
    25
100
AcDbLine
 10
174.8558325942
 20
180.9247394954
 30
0.0
 11
173.8183325902
 21
180.9247394954
 31
0.0
  0
LINE
  5
10A
330
1F
100
AcDbEntity
  8
0
  6
Continuous
 62
     7
370
    25
100
AcDbLine
 10
176.3558325942
 20
180.9247394954
 30
0.0
 11
176.1683325902
 21
180.9247394954
 31
0.0
  0
LINE
  5
10B
330
1F
100
AcDbEntity
  8
0
  6
Continuous
 62
     7
370
    25
100
AcDbLine
 10
175.4183325902
 20
151.9247394954
 30
0.0
 11
175.6058325942
 21
151.9247394954
 31
0.0
  0
LINE
  5
10C
330
1F
100
AcDbEntity
  8
0
  6
Continuous
 62
     7
370
    25
100
AcDbLine
 10
173.8183325902
 20
151.9247394954
 30
0.0
 11
174.1058325942
 21
151.9247394954
 31
0.0
  0
SPLINE
  5
10D
330
1F
100
AcDbEntity
  8
0
  6
Continuous
 62
     7
370
    25
100
AcDbSpline
210
0.0
220
0.0
230
1.0
 70
     8
 71
     3
 72
     9
 73
     5
 74
     0
 42
0.00000001
 43
0.00000001
 40
0.0
 40
0.0
 40
0.0
 40
0.0
 40
0.5000043425884825
 40
0.9999999999999999
 40
0.9999999999999999
 40
0.9999999999999999
 40
0.9999999999999999
 10
90.37464088849653
 20
180.9193733415036
 30
0.0
 10
90.29645357611719
 20
180.7840002087741
 30
0.0
 10
90.140080309488
 20
180.5132562947739
 30
0.0
 10
89.98370288096939
 20
180.2425144611319
 30
0.0
 10
89.90551484579291
 20
180.1071447200311
 30
0.0
  0
SPLINE
  5
10E
330
1F
100
AcDbEntity
  8
0
  6
Continuous
 62
     7
370
    25
100
AcDbSpline
210
0.0
220
0.0
230
1.0
 70
     8
 71
     3
 72
     9
 73
     5
 74
     0
 42
0.00000001
 43
0.00000001
 40
0.0
 40
0.0
 40
0.0
 40
0.0
 40
0.496464475505401
 40
1.0
 40
1.0
 40
1.0
 40
1.0
 10
90.65880475089317
 20
152.7366383079297
 30
0.0
 10
90.73589614375685
 20
152.6031672174898
 30
0.0
 10
90.89117692751326
 20
152.3343240332842
 30
0.0
 10
91.04645357856663
 20
152.0654787833096
 30
0.0
 10
91.12464088849654
 20
151.9301056493557
 30
0.0
  0
LINE
  5
10F
330
1F
100
AcDbEntity
  8
0
  6
Continuous
 62
     7
370
    25
100
AcDbLine
 10
175.6995680549
 20
180.1128406547
 30
0.0
 11
175.3278604457
 21
180.1128406547
 31
0.0
  0
LINE
  5
110
330
1F
100
AcDbEntity
  8
0
  6
Continuous
 62
     7
370
    25
100
AcDbLine
 10
176.0745680549
 20
152.7366383362
 30
0.0
 11
176.4463049863
 21
152.7366383362
 31
0.0
  0
LINE
  5
111
330
1F
100
AcDbEntity
  8
0
  6
Continuous
 62
     7
370
    25
100
AcDbLine
 10
89.9088047346
 20
180.1128406547
 30
0.0
 11
89.5370971254
 21
180.1128406547
 31
0.0
  0
SPLINE
  5
112
330
1F
100
AcDbEntity
  8
0
  6
Continuous
 62
     7
370
    25
100
AcDbSpline
210
0.0
220
0.0
230
1.0
 70
     8
 71
     3
 72
    17
 73
    13
 74
     0
 42
0.00000001
 43
0.00000001
 40
0.0
 40
0.0
 40
0.0
 40
0.0
 40
0.0945559122344756
 40
0.2168932501307518
 40
0.3126350607124658
 40
0.3847450754306701
 40
0.478631271196108
 40
0.5943425560924975
 40
0.7319493352502576
 40
0.8359239586399744
 40
0.9460271243545789
 40
0.9999999999999999
 40
0.9999999999999999
 40
0.9999999999999999
 40
0.9999999999999999
 10
130.5563529980271
 20
194.5255717084951
 30
0.0
 10
130.5012076474056
 20
195.6428135426702
 30
0.0
 10
130.3747147180555
 20
198.2055534800246
 30
0.0
 10
130.1536491590858
 20
202.1093342399099
 30
0.0
 10
129.9272177340344
 20
205.8032043064168
 30
0.0
 10
129.7049829966402
 20
209.1850241839948
 30
0.0
 10
129.4473375191333
 20
212.8610518433415
 30
0.0
 10
129.100182036807
 20
217.4242689621562
 30
0.0
 10
128.7059702601615
 20
222.1224035269689
 30
0.0
 10
128.2819090994447
 20
226.6912052137168
 30
0.0
 10
127.9399798247765
 20
230.1358772591254
 30
0.0
 10
127.7129086230238
 20
232.1785189719013
 30
0.0
 10
127.6382134656244
 20
232.8504467331879
 30
0.0
  0
SPLINE
  5
113
330
1F
100
AcDbEntity
  8
0
  6
Continuous
 62
     7
370
    25
100
AcDbSpline
210
0.0
220
0.0
230
1.0
 70
     8
 71
     3
 72
    42
 73
    38
 74
     0
 42
0.00000001
 43
0.00000001
 40
0.0
 40
0.0
 40
0.0
 40
0.0
 40
0.0232991835441114
 40
0.0473039893772797
 40
0.0749544656269667
 40
0.0965002670960018
 40
0.1201637705934084
 40
0.1441685133653794
 40
0.1624412126397068
 40
0.1794592833164791
 40
0.1942886040877125
 40
0.2068517438144643
 40
0.220332078084474
 40
0.2342946082718791
 40
0.2503686574921509
 40
0.2784805157932898
 40
0.30886325308972
 40
0.3391391042084666
 40
0.3694465435108696
 40
0.4085723527319369
 40
0.445851859083655
 40
0.4820943358249424
 40
0.5201947191679402
 40
0.5604385620591203
 40
0.6028186500855637
 40
0.6466766808219361
 40
0.6889621551608547
 40
0.729303325681641
 40
0.7582998687913074
 40
0.7862195786783278
 40
0.8130691056790574
 40
0.8405304445158019
 40
0.8734839504735286
 40
0.9122200712101395
 40
0.9412569830436386
 40
0.9728480577443669
 40
1.0
 40
1.0
 40
1.0
 40
1.0
 10
122.1586771438923
 20
263.2845885304706
 30
0.0
 10
121.9600984957248
 20
263.8617433865605
 30
0.0
 10
121.5569271894993
 20
265.0335323949535
 30
0.0
 10
120.852173110536
 20
266.6018651752073
 30
0.0
 10
119.9853988745252
 20
268.1799817293615
 30
0.0
 10
118.8941417113985
 20
269.6333228439271
 30
0.0
 10
117.6269453046657
 20
270.8583228812038
 30
0.0
 10
116.0088261947729
 20
271.8482536992361
 30
0.0
 10
114.168788830733
 20
272.3901998476745
 30
0.0
 10
112.5288335324001
 20
272.4653223193193
 30
0.0
 10
111.1244430719392
 20
272.2283930507022
 30
0.0
 10
109.916218849175
 20
271.7981313638776
 30
0.0
 10
108.8443531938711
 20
271.2071432102026
 30
0.0
 10
107.9146812942006
 20
270.4971070635503
 30
0.0
 10
106.893746081019
 20
269.4845166931938
 30
0.0
 10
105.8559703543451
 20
268.0697136589912
 30
0.0
 10
104.8552179350994
 20
266.1949878711369
 30
0.0
 10
103.9958061553613
 20
264.0947120566609
 30
0.0
 10
103.1733878002284
 20
261.6179207129196
 30
0.0
 10
102.3492248409609
 20
258.5824716269298
 30
0.0
 10
101.5353356070393
 20
254.9608946827604
 30
0.0
 10
100.7773091096156
 20
251.0114686827391
 30
0.0
 10
100.037115041285
 20
246.5539852734044
 30
0.0
 10
99.30527370537881
 20
241.4747413160771
 30
0.0
 10
98.5926788679193
 20
235.8035942209278
 30
0.0
 10
97.92884034993196
 20
229.7529395575656
 30
0.0
 10
97.33809073042337
 20
223.6066565460549
 30
0.0
 10
96.86964933531902
 20
218.1010549819318
 30
0.0
 10
96.50028082048416
 20
213.3014916989147
 30
0.0
 10
96.20946751181825
 20
209.1923369076328
 30
0.0
 10
95.94982955254535
 20
205.2086524399029
 30
0.0
 10
95.70064801600894
 20
201.0585089803976
 30
0.0
 10
95.45037512763568
 20
196.4791640407923
 30
0.0
 10
95.23381822911949
 20
192.032061814451
 30
0.0
 10
95.05519518759424
 20
187.9065732165697
 30
0.0
 10
94.92006180973182
 20
184.453005393271
 30
0.0
 10
94.85105437508842
 20
182.3819935828314
 30
0.0
 10
94.81915805825406
 20
181.4247394954296
 30
0.0
  0
SPLINE
  5
114
330
1F
100
AcDbEntity
  8
0
  6
Continuous
 62
     7
370
    25
100
AcDbSpline
210
0.0
220
0.0
230
1.0
 70
     8
 71
     3
 72
    29
 73
    25
 74
     0
 42
0.00000001
 43
0.00000001
 40
0.0
 40
0.0
 40
0.0
 40
0.0
 40
0.0281667855961192
 40
0.0894749242663802
 40
0.1437849443134559
 40
0.1911223367577242
 40
0.23150561960673
 40
0.2663341219491406
 40
0.3018367149465623
 40
0.338760549242406
 40
0.3901808230839393
 40
0.4440911349706843
 40
0.5004659815113527
 40
0.5583104774261436
 40
0.6137987095965618
 40
0.666539813652806
 40
0.7165416253630886
 40
0.764311200464271
 40
0.813732228763448
 40
0.8523816552885517
 40
0.8922269193650167
 40
0.9322743377868062
 40
0.9722914422466362
 40
1.0
 40
1.0
 40
1.0
 40
1.0
 10
106.8254732333435
 20
181.4247394954296
 30
0.0
 10
106.8474767909117
 20
182.1084582620445
 30
0.0
 10
106.9173735365054
 20
184.2803668972562
 30
0.0
 10
107.0818140512315
 20
188.3722739305253
 30
0.0
 10
107.3040265743815
 20
193.265779791948
 30
0.0
 10
107.5371344357387
 20
197.7937605795719
 30
0.0
 10
107.766522061867
 20
201.8337987176034
 30
0.0
 10
107.9968285509224
 20
205.5687884858356
 30
0.0
 10
108.2415872929409
 20
209.2472764829517
 30
0.0
 10
108.5503996102467
 20
213.5402664608261
 30
0.0
 10
108.9416593736313
 20
218.4994621572839
 30
0.0
 10
109.4353109585176
 20
224.1030347641922
 30
0.0
 10
110.0014243758773
 20
229.8141359843956
 30
0.0
 10
110.6268508738535
 20
235.3703777582431
 30
0.0
 10
111.2872443812579
 20
240.5236523096562
 30
0.0
 10
111.9572087951903
 20
245.1060969834811
 30
0.0
 10
112.6274820664236
 20
249.1029762561085
 30
0.0
 10
113.3104985978274
 20
252.6357853314138
 30
0.0
 10
113.9507973794229
 20
255.4678018024711
 30
0.0
 10
114.547991015277
 20
257.7266685492687
 30
0.0
 10
115.1038672634691
 20
259.4929474998348
 30
0.0
 10
115.5782065346463
 20
260.7396383098937
 30
0.0
 10
115.9179908815145
 20
261.4262752918169
 30
0.0
 10
115.9165248980604
 20
261.4648178668474
 30
0.0
 10
115.9159251211682
 20
261.4805867664239
 30
0.0
  0
SPLINE
  5
115
330
1F
100
AcDbEntity
  8
0
  6
Continuous
 62
     7
370
    25
100
AcDbSpline
210
0.0
220
0.0
230
1.0
 70
     8
 71
     3
 72
    13
 73
     9
 74
     0
 42
0.00000001
 43
0.00000001
 40
0.0
 40
0.0
 40
0.0
 40
0.0
 40
0.0871756658659658
 40
0.3197169146313638
 40
0.5218160917786784
 40
0.747685928439694
 40
0.9974064461684268
 40
0.9999999999999999
 40
0.9999999999999999
 40
0.9999999999999999
 40
0.9999999999999999
 10
112.959161983803
 20
250.73600139339
 30
0.0
 10
113.0417833702029
 20
250.3174130523624
 30
0.0
 10
113.34479745653
 20
248.7822395430511
 30
0.0
 10
113.8211341370781
 20
245.9228263439841
 30
0.0
 10
114.4027214033413
 20
242.1119141963671
 30
0.0
 10
114.9656455839264
 20
237.913173835902
 30
0.0
 10
115.3522924257591
 20
234.8499981240521
 30
0.0
 10
115.5356274520092
 20
233.1396998078463
 30
0.0
 10
115.5375119654525
 20
233.1221195328989
 30
0.0
  0
SPLINE
  5
116
330
1F
100
AcDbEntity
  8
0
  6
Continuous
 62
     7
370
    25
100
AcDbSpline
210
0.0
220
0.0
230
1.0
 70
     8
 71
     3
 72
    60
 73
    56
 74
     0
 42
0.00000001
 43
0.00000001
 40
0.0
 40
0.0
 40
0.0
 40
0.0
 40
0.0095311139691262
 40
0.0319716053148071
 40
0.052847594322348
 40
0.0691852474022322
 40
0.081490304063406
 40
0.0975113097879288
 40
0.1172566103893979
 40
0.1407382199982004
 40
0.1584807435177758
 40
0.1772690588161056
 40
0.1951124215474447
 40
0.2198178801743049
 40
0.2420532522766949
 40
0.2678382521469905
 40
0.2892451271500585
 40
0.3099580664359131
 40
0.3323494459342215
 40
0.3555828221485078
 40
0.3772547020454089
 40
0.3926317612735359
 40
0.4103441732768805
 40
0.4241460372706748
 40
0.4393044641854156
 40
0.4546814830176418
 40
0.4663866549299619
 40
0.4772881336823374
 40
0.4867875374849325
 40
0.494835265302942
 40
0.503470531921032
 40
0.512414684819348
 40
0.5227114399197132
 40
0.5407194052044005
 40
0.5601820558988835
 40
0.5795762371753537
 40
0.5989906532903955
 40
0.6240539631093587
 40
0.6479345635670237
 40
0.6711508609742186
 40
0.695557300890934
 40
0.7213368035457759
 40
0.7484847475118726
 40
0.7765794357567736
 40
0.80366677184764
 40
0.8295086208815942
 40
0.8480832997982718
 40
0.8659681781659039
 40
0.883167516073772
 40
0.9007587699548099
 40
0.9218682101397513
 40
0.9466818923238295
 40
0.9652824307397115
 40
0.9855191212644929
 40
1.0
 40
1.0
 40
1.0
 40
1.0
 10
146.2144523422675
 20
191.0314317372035
 30
0.0
 10
146.2139744698127
 20
191.6661629678385
 30
0.0
 10
146.2123714725589
 20
193.7953344846811
 30
0.0
 10
146.1898975235578
 20
197.5131614145249
 30
0.0
 10
146.1406207832342
 20
201.8582421755748
 30
0.0
 10
146.0785325502372
 20
205.5637505849727
 30
0.0
 10
146.0074325700411
 20
208.9511199989376
 30
0.0
 10
145.9139000718418
 20
212.6352447791259
 30
0.0
 10
145.7706801951032
 20
217.2096231902341
 30
0.0
 10
145.5859170784259
 20
221.9192682296691
 30
0.0
 10
145.36730194422
 20
226.506769448764
 30
0.0
 10
145.1391129154643
 20
230.5999006168001
 30
0.0
 10
144.8468398976466
 20
235.1125010232652
 30
0.0
 10
144.4940172706421
 20
239.7173261341279
 30
0.0
 10
144.0421595749659
 20
244.6183545660552
 30
0.0
 10
143.5561573807095
 20
248.9977684973557
 30
0.0
 10
143.0291990387643
 20
252.9396223362632
 30
0.0
 10
142.4786828762783
 20
256.4002870116114
 30
0.0
 10
141.8532001101413
 20
259.6401334078202
 30
0.0
 10
141.1539124040914
 20
262.550547992613
 30
0.0
 10
140.4412405160944
 20
264.8633421625312
 30
0.0
 10
139.725128077598
 20
266.7111506048165
 30
0.0
 10
138.9277489084009
 20
268.3198867951361
 30
0.0
 10
137.902791965025
 20
269.8218857341377
 30
0.0
 10
136.6913679585154
 20
271.1017817054185
 30
0.0
 10
135.1190288569723
 20
272.1629838212559
 30
0.0
 10
133.3049810594374
 20
272.7864171845908
 30
0.0
 10
131.6700079448538
 20
272.9345952570619
 30
0.0
 10
130.2564493560878
 20
272.7605224444643
 30
0.0
 10
129.0302415480331
 20
272.384563701621
 30
0.0
 10
127.9330897998414
 20
271.8419578343072
 30
0.0
 10
126.9726820447536
 20
271.174082036813
 30
0.0
 10
125.9076108374114
 20
270.2080223557161
 30
0.0
 10
124.8077811904077
 20
268.8409009924716
 30
0.0
 10
123.7244300509621
 20
267.0126634539453
 30
0.0
 10
122.772221684861
 20
264.9527978441885
 30
0.0
 10
121.8401811057798
 20
262.5151416603395
 30
0.0
 10
120.8814870864818
 20
259.5194611843379
 30
0.0
 10
119.9069211090346
 20
255.9377777249717
 30
0.0
 10
118.9735435026145
 20
252.0260803766296
 30
0.0
 10
118.0353262882194
 20
247.6060358001048
 30
0.0
 10
117.077729170099
 20
242.5644766470074
 30
0.0
 10
116.1129664234196
 20
236.9307448865291
 30
0.0
 10
115.1799892398537
 20
230.915708951597
 30
0.0
 10
114.3157642009301
 20
224.8018808545445
 30
0.0
 10
113.6022936988058
 20
219.3226428792359
 30
0.0
 10
113.0192799460452
 20
214.544324274624
 30
0.0
 10
112.5455281897002
 20
210.4522215630772
 30
0.0
 10
112.1085169786726
 20
206.484085259562
 30
0.0
 10
111.6745235505678
 20
202.3491459220537
 30
0.0
 10
111.2203286771138
 20
197.7856810740841
 30
0.0
 10
110.8055989522785
 20
193.3519756060376
 30
0.0
 10
110.4434757792083
 20
189.2406231254689
 30
0.0
 10
110.1684998134939
 20
185.9678230062826
 30
0.0
 10
110.0192788421978
 20
184.0587195085873
 30
0.0
 10
109.9570379988388
 20
183.2624225087486
 30
0.0
  0
SPLINE
  5
117
330
1F
100
AcDbEntity
  8
0
  6
Continuous
 62
     7
370
    25
100
AcDbSpline
210
0.0
220
0.0
230
1.0
 70
     8
 71
     3
 72
    27
 73
    23
 74
     0
 42
0.00000001
 43
0.00000001
 40
0.0
 40
0.0
 40
0.0
 40
0.0
 40
0.0199674896311303
 40
0.0741503532041993
 40
0.1203734718057682
 40
0.1602385318234882
 40
0.2008751628997406
 40
0.2431385613030596
 40
0.3019947326844016
 40
0.3637010270811659
 40
0.4282282530508253
 40
0.4944376547261316
 40
0.5579500528190409
 40
0.6183180599739974
 40
0.6755506450914445
 40
0.7302281893541149
 40
0.7867960038387791
 40
0.8310345327575954
 40
0.8766418295690913
 40
0.9224805143119432
 40
0.9682845013838747
 40
1.0
 40
1.0
 40
1.0
 40
1.0
 10
122.8058135955065
 20
192.7376668143444
 30
0.0
 10
122.8525569844505
 20
193.2577519130384
 30
0.0
 10
123.0261410886214
 20
195.1891160693157
 30
0.0
 10
123.355398935903
 20
198.5688947432718
 30
0.0
 10
123.7626039660828
 20
202.5837693611625
 30
0.0
 10
124.1596850471551
 20
206.3071678682269
 30
0.0
 10
124.5681042812748
 20
209.9704595237206
 30
0.0
 10
125.0680705127306
 20
214.2455992127304
 30
0.0
 10
125.6800582762677
 20
219.1823454659656
 30
0.0
 10
126.4230866253639
 20
224.7583546645939
 30
0.0
 10
127.2432939934452
 20
230.4385261373209
 30
0.0
 10
128.1158518034072
 20
235.9613554501485
 30
0.0
 10
129.0053730981874
 20
241.0800569771402
 30
0.0
 10
129.8790025600392
 20
245.6280701826557
 30
0.0
 10
130.7268301603374
 20
249.5910864973876
 30
0.0
 10
131.5666954437294
 20
253.0899260052424
 30
0.0
 10
132.3326370933934
 20
255.8905747159201
 30
0.0
 10
133.0299597020219
 20
258.1205658369402
 30
0.0
 10
133.6640415086488
 20
259.8603014480764
 30
0.0
 10
134.1934989812253
 20
261.0846014541493
 30
0.0
 10
134.5635625390441
 20
261.7554044881958
 30
0.0
 10
134.5638166286832
 20
261.7939740958678
 30
0.0
 10
134.5639205842181
 20
261.8097540552921
 30
0.0
  0
SPLINE
  5
118
330
1F
100
AcDbEntity
  8
0
  6
Continuous
 62
     7
370
    25
100
AcDbSpline
210
0.0
220
0.0
230
1.0
 70
     8
 71
     3
 72
    24
 73
    20
 74
     0
 42
0.00000001
 43
0.00000001
 40
0.0
 40
0.0
 40
0.0
 40
0.0
 40
0.0302508640183311
 40
0.1109450993324509
 40
0.1810756187310465
 40
0.259454804560025
 40
0.3461104251320798
 40
0.4410762725871789
 40
0.5362142143482056
 40
0.6187853175143669
 40
0.6885875627260297
 40
0.745575946331087
 40
0.7897100851952064
 40
0.8254508919332781
 40
0.8651952661399476
 40
0.9096668826827742
 40
0.9430726614364024
 40
0.9849271988420922
 40
1.0
 40
1.0
 40
1.0
 40
1.0
 10
131.1309968368055
 20
251.2076977626033
 30
0.0
 10
131.1948664149176
 20
250.7858245665113
 30
0.0
 10
131.4291082099178
 20
249.23860384522
 30
0.0
 10
131.7777547243576
 20
246.3618189513116
 30
0.0
 10
132.1877123233531
 20
242.5247302340003
 30
0.0
 10
132.5675209279728
 20
238.3218353802185
 30
0.0
 10
132.9384512277017
 20
233.4270628909055
 30
0.0
 10
133.2762879257351
 20
227.9877658038121
 30
0.0
 10
133.552178626958
 20
222.4734062947592
 30
0.0
 10
133.7555444920545
 20
217.401114780209
 30
0.0
 10
133.8949018633644
 20
213.10447490303
 30
0.0
 10
133.9879056613778
 20
209.616832321099
 30
0.0
 10
134.049776630169
 20
206.8496112075864
 30
0.0
 10
134.0955252092206
 20
204.4560519118159
 30
0.0
 10
134.1337748635355
 20
202.0839927564697
 30
0.0
 10
134.1634783694278
 20
199.7933260986724
 30
0.0
 10
134.1860984814826
 20
197.5075221269128
 30
0.0
 10
134.1998042446198
 20
195.8036898829597
 30
0.0
 10
134.2037893151825
 20
194.7708034022061
 30
0.0
 10
134.2048444527967
 20
194.497323332069
 30
0.0
  0
LINE
  5
119
330
1F
100
AcDbEntity
  8
0
  6
Continuous
 62
     7
370
    25
100
AcDbLine
 10
144.1683325902
 20
-48.8986243966
 30
0.0
 11
144.1683325902
 21
-46.9811832808
 31
0.0
  0
LINE
  5
11A
330
1F
100
AcDbEntity
  8
0
  6
Continuous
 62
     7
370
    25
100
AcDbLine
 10
121.0683325902
 20
-46.9811832808
 30
0.0
 11
121.0683325902
 21
-48.8986243966
 31
0.0
  0
LINE
  5
11B
330
1F
100
AcDbEntity
  8
0
  6
Continuous
 62
     7
370
    25
100
AcDbLine
 10
128.895076098
 20
-59.713510372
 30
0.0
 11
129.0723740262
 21
-59.7732325743
 31
0.0
  0
LINE
  5
11C
330
1F
100
AcDbEntity
  8
0
  6
Continuous
 62
     7
370
    25
100
AcDbLine
 10
136.1642911541
 20
-59.7732325743
 30
0.0
 11
136.3415890823
 21
-59.713510372
 31
0.0
  0
ARC
  5
11D
330
1F
100
AcDbEntity
  8
0
  6
Continuous
 62
     7
370
    25
100
AcDbCircle
 10
132.6183325902
 20
166.4247394954
 30
0.0
 40
7.900000000000006
100
AcDbArc
 50
0.0
 51
90.0
  0
ARC
  5
11E
330
1F
100
AcDbEntity
  8
0
  6
Continuous
 62
     7
370
    25
100
AcDbCircle
 10
132.6183325902
 20
166.4247394954
 30
0.0
 40
7.900000000000006
100
AcDbArc
 50
90.0
 51
180.0
  0
ARC
  5
11F
330
1F
100
AcDbEntity
  8
0
  6
Continuous
 62
     7
370
    25
100
AcDbCircle
 10
132.6655147838
 20
-46.5051267703
 30
0.0
 40
7.852911808525841
100
AcDbArc
 50
269.6557510264
 51
359.7196557283
  0
ARC
  5
120
330
1F
100
AcDbEntity
  8
0
  6
Continuous
 62
     7
370
    25
100
AcDbCircle
 10
132.5711503965
 20
-46.5051267703
 30
0.0
 40
7.852911808525868
100
AcDbArc
 50
180.2803442717
 51
270.3442489736
  0
SPLINE
  5
121
330
1F
100
AcDbEntity
  8
0
  6
Continuous
 62
     7
370
    25
100
AcDbSpline
210
0.0
220
0.0
230
1.0
 70
     8
 71
     3
 72
     9
 73
     5
 74
     0
 42
0.00000001
 43
0.00000001
 40
0.0
 40
0.0
 40
0.0
 40
0.0
 40
0.3733283679056121
 40
1.0
 40
1.0
 40
1.0
 40
1.0
 10
143.3431505321636
 20
-46.09105428969913
 30
0.0
 10
143.3345999051307
 20
-46.12555624429699
 30
0.0
 10
143.3116961352383
 20
-46.21797342328461
 30
0.0
 10
143.2842598505186
 20
-46.33626763709438
 30
0.0
 10
143.2670663091948
 20
-46.41039926512981
 30
0.0
  0
SPLINE
  5
122
330
1F
100
AcDbEntity
  8
0
  6
Continuous
 62
     7
370
    25
100
AcDbSpline
210
0.0
220
0.0
230
1.0
 70
     8
 71
     3
 72
     9
 73
     5
 74
     0
 42
0.00000001
 43
0.00000001
 40
0.0
 40
0.0
 40
0.0
 40
0.0
 40
0.8169784353419365
 40
1.0
 40
1.0
 40
1.0
 40
1.0
 10
143.267066309191
 20
-46.41039926512931
 30
0.0
 10
143.2192203149499
 20
-47.135740197236
 30
0.0
 10
143.1606557406953
 20
-48.02357382995988
 30
0.0
 10
142.9770389571003
 20
-48.9061797731958
 30
0.0
 10
142.9434331260693
 20
-49.06771569390335
 30
0.0
  0
SPLINE
  5
123
330
1F
100
AcDbEntity
  8
0
  6
Continuous
 62
     7
370
    25
100
AcDbSpline
210
0.0
220
0.0
230
1.0
 70
     8
 71
     3
 72
    19
 73
    15
 74
     0
 42
0.00000001
 43
0.00000001
 40
0.0
 40
0.0
 40
0.0
 40
0.0
 40
0.0309875197273645
 40
0.1220346502357653
 40
0.2130781325958136
 40
0.3044553685839387
 40
0.3960144663038078
 40
0.4877063042634163
 40
0.5797065501159616
 40
0.6717020630512975
 40
0.7640557667699919
 40
0.8564125362484855
 40
0.9489597756151685
 40
1.0
 40
1.0
 40
1.0
 40
1.0
 10
142.9434346943211
 20
-49.06770843705656
 30
0.0
 10
142.8487526564074
 20
-49.45516350083819
 30
0.0
 10
142.4758770767525
 20
-50.9810340321575
 30
0.0
 10
141.1326296296163
 20
-53.45150164109609
 30
0.0
 10
138.4912927892953
 20
-55.88980899489222
 30
0.0
 10
135.1686418326115
 20
-57.332063393311
 30
0.0
 10
131.5469512527793
 20
-57.6063420667627
 30
0.0
 10
128.0298119655625
 20
-56.6828334624613
 30
0.0
 10
125.0152263526626
 20
-54.65700402901265
 30
0.0
 10
122.8464633177748
 20
-51.75644294358213
 30
0.0
 10
121.7571155759618
 20
-48.29517603248119
 30
0.0
 10
121.9302728957771
 20
-44.70588762341678
 30
0.0
 10
122.9614736453206
 20
-41.74273193852558
 30
0.0
 10
124.2576043370693
 20
-40.40485277752122
 30
0.0
 10
124.7183325901527
 20
-39.9292844319752
 30
0.0
  0
LINE
  5
124
330
1F
100
AcDbEntity
  8
0
  6
Continuous
 62
     7
370
    25
100
AcDbLine
 10
140.5183325902
 20
-39.9098260541
 30
0.0
 11
141.6350574895
 21
-41.1036947195
 31
0.0
  0
ARC
  5
125
330
1F
100
AcDbEntity
  8
0
  6
Continuous
 62
     7
370
    25
100
AcDbCircle
 10
132.8287515297
 20
-46.9840583257
 30
0.0
 40
10.58913125798409
100
AcDbArc
 50
348.3951793204
 51
33.7328054928
  0
SPLINE
  5
126
330
1F
100
AcDbEntity
  8
0
  6
Continuous
 62
     7
370
    25
100
AcDbSpline
210
0.0
220
0.0
230
1.0
 70
     8
 71
     3
 72
     9
 73
     5
 74
     0
 42
0.00000001
 43
0.00000001
 40
0.0
 40
0.0
 40
0.0
 40
0.0
 40
0.6275173949569981
 40
1.0
 40
1.0
 40
1.0
 40
1.0
 10
143.2014232406994
 20
-49.11417155598126
 30
0.0
 10
143.3039783835744
 20
-48.48538224459205
 30
0.0
 10
143.4674083437624
 20
-47.4833553423223
 30
0.0
 10
143.3768732716662
 20
-46.46891548894362
 30
0.0
 10
143.3431505321641
 20
-46.09105428969769
 30
0.0
  0
LINE
  5
127
330
1F
100
AcDbEntity
  8
0
  6
Continuous
 62
     7
370
    25
100
AcDbLine
 10
131.2765548882
 20
-57.6105931901
 30
0.0
 11
132.1022243892
 21
-57.6846676533
 31
0.0
  0
LINE
  5
128
330
1F
100
AcDbEntity
  8
0
  6
Continuous
 62
     7
370
    25
100
AcDbLine
 10
129.1406959213
 20
-57.014925514
 30
0.0
 11
129.6236877169
 21
-57.153853621
 31
0.0
  0
LINE
  5
129
330
1F
100
AcDbEntity
  8
0
  6
Continuous
 62
     7
370
    25
100
AcDbLine
 10
143.3431505322
 20
-46.0910542897
 30
0.0
 11
143.2603181861
 21
-46.4749817762
 31
0.0
  0
LINE
  5
12A
330
1F
100
AcDbEntity
  8
0
  6
Continuous
 62
     7
370
    25
100
AcDbLine
 10
125.5822455296
 20
169.8938538943
 30
0.0
 11
125.1547650755
 21
169.0141718568
 31
0.0
  0
LINE
  5
12B
330
1F
100
AcDbEntity
  8
0
  6
Continuous
 62
     7
370
    25
100
AcDbLine
 10
224.8183325902
 20
161.4687091113
 30
0.0
 11
224.8183325902
 21
161.0958251588
 31
0.0
  0
LINE
  5
12C
330
1F
100
AcDbEntity
  8
0
  6
Continuous
 62
     7
370
    25
100
AcDbLine
 10
224.8183325902
 20
171.7536538321
 30
0.0
 11
224.8183325902
 21
161.4687091113
 31
0.0
  0
SPLINE
  5
12D
330
1F
100
AcDbEntity
  8
0
  6
Continuous
 62
     7
370
    25
100
AcDbSpline
210
0.0
220
0.0
230
1.0
 70
     8
 71
     3
 72
    11
 73
     7
 74
     0
 42
0.00000001
 43
0.00000001
 40
0.0
 40
0.0
 40
0.0
 40
0.0
 40
0.3039812236456108
 40
0.608083627866646
 40
0.9095125090057321
 40
1.0
 40
1.0
 40
1.0
 40
1.0
 10
226.038354391823
 20
167.68271002156
 30
0.0
 10
226.0480697548855
 20
167.6419230149919
 30
0.0
 10
226.0675043539909
 20
167.5603327423218
 30
0.0
 10
226.0789761809424
 20
167.5431442429166
 30
0.0
 10
226.0796127046514
 20
167.5763106948152
 30
0.0
 10
226.071682748664
 20
167.6375449293927
 30
0.0
 10
226.0698518432157
 20
167.6516829768024
 30
0.0
  0
ARC
  5
12E
330
1F
100
AcDbEntity
  8
0
  6
Continuous
 62
     7
370
    25
100
AcDbCircle
 10
222.353863704
 20
166.8387259855
 30
0.0
 40
3.779918078707121
100
AcDbArc
 50
12.9018176402
 51
24.2162786883
  0
ARC
  5
12F
330
1F
100
AcDbEntity
  8
0
  6
Continuous
 62
     7
370
    25
100
AcDbCircle
 10
218.800607797
 20
167.8941990677
 30
0.0
 40
7.018032155407862
100
AcDbArc
 50
355.9555700063
 51
4.0444299937
  0
ARC
  5
130
330
1F
100
AcDbEntity
  8
0
  6
Continuous
 62
     7
370
    25
100
AcDbCircle
 10
222.353863704
 20
165.8487621814
 30
0.0
 40
3.779918078697527
100
AcDbArc
 50
12.9018176402
 51
24.2162786883
  0
SPLINE
  5
131
330
1F
100
AcDbEntity
  8
0
  6
Continuous
 62
     7
370
    25
100
AcDbSpline
210
0.0
220
0.0
230
1.0
 70
     8
 71
     3
 72
    12
 73
     8
 74
     0
 42
0.00000001
 43
0.00000001
 40
0.0
 40
0.0
 40
0.0
 40
0.0
 40
0.2133534395476094
 40
0.4267919313634458
 40
0.638353973909152
 40
0.8490950351927495
 40
1.0
 40
1.0
 40
1.0
 40
1.0
 10
226.038354391823
 20
165.6501362709417
 30
0.0
 10
226.0480135355503
 20
165.7235949412142
 30
0.0
 10
226.0673356735738
 20
165.8705415656862
 30
0.0
 10
226.0796487435819
 20
166.127204297238
 30
0.0
 10
226.0773113032851
 20
166.3726056592746
 30
0.0
 10
226.0621937842714
 20
166.5682874190349
 30
0.0
 10
226.0453731718904
 20
166.6561031303608
 30
0.0
 10
226.038354391823
 20
166.6927462174435
 30
0.0
  0
ARC
  5
132
330
1F
100
AcDbEntity
  8
0
  6
Continuous
 62
     7
370
    25
100
AcDbCircle
 10
218.722937705
 20
166.7898890352
 30
0.0
 40
7.403671904254066
100
AcDbArc
 50
342.9486797798
 51
351.1444282848
  0
ARC
  5
133
330
1F
100
AcDbEntity
  8
0
  6
Continuous
 62
     7
370
    25
100
AcDbCircle
 10
222.5193497466
 20
164.2798179198
 30
0.0
 40
3.299286112126305
100
AcDbArc
 50
354.1006273552
 51
5.8993726448
  0
ARC
  5
134
330
1F
100
AcDbEntity
  8
0
  6
Continuous
 62
     7
370
    25
100
AcDbCircle
 10
218.722937705
 20
166.1116769249
 30
0.0
 40
7.403671904234987
100
AcDbArc
 50
342.9486797797
 51
351.1444282848
  0
SPLINE
  5
135
330
1F
100
AcDbEntity
  8
0
  6
Continuous
 62
     7
370
    25
100
AcDbSpline
210
0.0
220
0.0
230
1.0
 70
     8
 71
     3
 72
    11
 73
     7
 74
     0
 42
0.00000001
 43
0.00000001
 40
0.0
 40
0.0
 40
0.0
 40
0.0
 40
0.0714051685223774
 40
0.414134850803526
 40
0.7555345466479035
 40
1.0
 40
1.0
 40
1.0
 40
1.0
 10
226.0746082529257
 20
165.2911394906826
 30
0.0
 10
226.075559547021
 20
165.2932812161297
 30
0.0
 10
226.0810768512491
 20
165.3057027700156
 30
0.0
 10
226.0764831235387
 20
165.2459409148975
 30
0.0
 10
226.0623336313618
 20
165.1297955940577
 30
0.0
 10
226.0454143455894
 20
165.018404576311
 30
0.0
 10
226.038354391823
 20
164.9719241606553
 30
0.0
  0
SPLINE
  5
136
330
1F
100
AcDbEntity
  8
0
  6
Continuous
 62
     7
370
    25
100
AcDbSpline
210
0.0
220
0.0
230
1.0
 70
     8
 71
     3
 72
    11
 73
     7
 74
     0
 42
0.00000001
 43
0.00000001
 40
0.0
 40
0.0
 40
0.0
 40
0.0
 40
0.3067489698104707
 40
0.6136202235443585
 40
0.9177936117939343
 40
1.0
 40
1.0
 40
1.0
 40
1.0
 10
226.038354391823
 20
167.1993427199176
 30
0.0
 10
226.0480726594289
 20
167.1256958663153
 30
0.0
 10
226.067513068779
 20
166.9783728001654
 30
0.0
 10
226.0789414333352
 20
166.7245259667217
 30
0.0
 10
226.0796937571648
 20
166.5303643059261
 30
0.0
 10
226.071993744329
 20
166.4432697782906
 30
0.0
 10
226.070355485075
 20
166.4247394954296
 30
0.0
  0
ARC
  5
137
330
1F
100
AcDbEntity
  8
0
  6
Continuous
 62
     7
370
    25
100
AcDbCircle
 10
218.7923033699
 20
166.0726846411
 30
0.0
 40
7.333117607029314
100
AcDbArc
 50
8.837912545
 51
11.3659567697
  0
ARC
  5
138
330
1F
100
AcDbEntity
  8
0
  6
Continuous
 62
     7
370
    25
100
AcDbCircle
 10
42.7173154337
 20
164.2798179198
 30
0.0
 40
3.299286112127159
100
AcDbArc
 50
174.1006273552
 51
185.8993726448
  0
ARC
  5
139
330
1F
100
AcDbEntity
  8
0
  6
Continuous
 62
     7
370
    25
100
AcDbCircle
 10
46.5137274753
 20
166.7898890352
 30
0.0
 40
7.403671904245855
100
AcDbArc
 50
188.8555717152
 51
197.0513202202
  0
SPLINE
  5
13A
330
1F
100
AcDbEntity
  8
0
  6
Continuous
 62
     7
370
    25
100
AcDbSpline
210
0.0
220
0.0
230
1.0
 70
     8
 71
     3
 72
    12
 73
     8
 74
     0
 42
0.00000001
 43
0.00000001
 40
0.0
 40
0.0
 40
0.0
 40
0.0
 40
0.2133534395476214
 40
0.4267919313634498
 40
0.6383539739091488
 40
0.8490950351927615
 40
1.0
 40
1.0
 40
1.0
 40
1.0
 10
39.19831078848249
 20
166.6927462174434
 30
0.0
 10
39.18865164475513
 20
166.6388739261655
 30
0.0
 10
39.16932950673166
 20
166.5311078676934
 30
0.0
 10
39.15701643672355
 20
166.2994984470166
 30
0.0
 10
39.15935387702031
 20
166.0493407166581
 30
0.0
 10
39.17447139603411
 20
165.8229216845742
 30
0.0
 10
39.19129200841509
 20
165.7010076519875
 30
0.0
 10
39.19831078848249
 20
165.6501362709417
 30
0.0
  0
ARC
  5
13B
330
1F
100
AcDbEntity
  8
0
  6
Continuous
 62
     7
370
    25
100
AcDbCircle
 10
42.8828014763
 20
165.8487621814
 30
0.0
 40
3.779918078703109
100
AcDbArc
 50
155.7837213117
 51
167.0981823598
  0
ARC
  5
13C
330
1F
100
AcDbEntity
  8
0
  6
Continuous
 62
     7
370
    25
100
AcDbCircle
 10
46.4360573833
 20
167.8941990677
 30
0.0
 40
7.018032155409768
100
AcDbArc
 50
175.9555700063
 51
184.0444299937
  0
ARC
  5
13D
330
1F
100
AcDbEntity
  8
0
  6
Continuous
 62
     7
370
    25
100
AcDbCircle
 10
42.8828014763
 20
166.8387259855
 30
0.0
 40
3.779918078701665
100
AcDbArc
 50
155.7837213117
 51
167.0981823598
  0
SPLINE
  5
13E
330
1F
100
AcDbEntity
  8
0
  6
Continuous
 62
     7
370
    25
100
AcDbSpline
210
0.0
220
0.0
230
1.0
 70
     8
 71
     3
 72
    11
 73
     7
 74
     0
 42
0.00000001
 43
0.00000001
 40
0.0
 40
0.0
 40
0.0
 40
0.0
 40
0.1771553424640969
 40
0.480854306193254
 40
0.7833747449113244
 40
1.0
 40
1.0
 40
1.0
 40
1.0
 10
39.16676351236915
 20
167.6502768668281
 30
0.0
 10
39.16386040202347
 20
167.6260544267276
 30
0.0
 10
39.15598046404556
 20
167.5603072442446
 30
0.0
 10
39.15979949764331
 20
167.5406440442703
 30
0.0
 10
39.17439614818142
 20
167.5808071794715
 30
0.0
 10
39.19126985398602
 20
167.6527078460259
 30
0.0
 10
39.19831078848249
 20
167.68271002156
 30
0.0
  0
ARC
  5
13F
330
1F
100
AcDbEntity
  8
0
  6
Continuous
 62
     7
370
    25
100
AcDbCircle
 10
46.4463225751
 20
166.0723525191
 30
0.0
 40
7.335106118649699
100
AcDbArc
 50
168.3668500212
 51
171.1618771205
  0
SPLINE
  5
140
330
1F
100
AcDbEntity
  8
0
  6
Continuous
 62
     7
370
    25
100
AcDbSpline
210
0.0
220
0.0
230
1.0
 70
     8
 71
     3
 72
    11
 73
     7
 74
     0
 42
0.00000001
 43
0.00000001
 40
0.0
 40
0.0
 40
0.0
 40
0.0
 40
0.1769183548232171
 40
0.4807047869467062
 40
0.783312354631837
 40
1.0
 40
1.0
 40
1.0
 40
1.0
 10
39.1667516127282
 20
166.4247394954296
 30
0.0
 10
39.16385366932465
 20
166.4668805861017
 30
0.0
 10
39.15597966853045
 20
166.5813821257155
 30
0.0
 10
39.15980021490329
 20
166.8014763932388
 30
0.0
 10
39.17439602706435
 20
167.0263313504405
 30
0.0
 10
39.19126981832681
 20
167.1484048130833
 30
0.0
 10
39.19831078848249
 20
167.1993427199176
 30
0.0
  0
SPLINE
  5
141
330
1F
100
AcDbEntity
  8
0
  6
Continuous
 62
     7
370
    25
100
AcDbSpline
210
0.0
220
0.0
230
1.0
 70
     8
 71
     3
 72
    10
 73
     6
 74
     0
 42
0.00000001
 43
0.00000001
 40
0.0
 40
0.0
 40
0.0
 40
0.0
 40
0.345678615197162
 40
0.6914950334237407
 40
1.0
 40
1.0
 40
1.0
 40
1.0
 10
39.19831078848249
 20
164.9719241606553
 30
0.0
 10
39.18872033311727
 20
165.0358420753964
 30
0.0
 10
39.16953559920036
 20
165.1637033854316
 30
0.0
 10
39.15663676330431
 20
165.2781679479637
 30
0.0
 10
39.1599624313759
 20
165.2891422128762
 30
0.0
 10
39.16153044541473
 20
165.2943164518796
 30
0.0
  0
ARC
  5
142
330
1F
100
AcDbEntity
  8
0
  6
Continuous
 62
     7
370
    25
100
AcDbCircle
 10
46.5137274753
 20
166.1116769249
 30
0.0
 40
7.403671904243578
100
AcDbArc
 50
188.8555717152
 51
197.0513202202
  0
LINE
  5
143
330
1F
100
AcDbEntity
  8
0
  6
Continuous
 62
     7
370
    25
100
AcDbLine
 10
40.4183325902
 20
161.0958251588
 30
0.0
 11
40.4183325902
 21
171.7536538321
 31
0.0
  0
LINE
  5
144
330
1F
100
AcDbEntity
  8
0
  6
Continuous
 62
     7
370
    25
100
AcDbLine
 10
208.5770587934
 20
174.9208207928
 30
0.0
 11
208.5770587934
 21
158.419501061
 31
0.0
  0
SPLINE
  5
145
330
1F
100
AcDbEntity
  8
0
  6
Continuous
 62
     7
370
    25
100
AcDbSpline
210
0.0
220
0.0
230
1.0
 70
     8
 71
     3
 72
    11
 73
     7
 74
     0
 42
0.00000001
 43
0.00000001
 40
0.0
 40
0.0
 40
0.0
 40
0.0
 40
0.2500000000000168
 40
0.4999999999999941
 40
0.7499999999999969
 40
1.0
 40
1.0
 40
1.0
 40
1.0
 10
208.5770587933714
 20
158.419499521718
 30
0.0
 10
208.510687740634
 20
158.425391999121
 30
0.0
 10
208.3779456351592
 20
158.4371769539269
 30
0.0
 10
208.2094818943785
 20
158.5410986363588
 30
0.0
 10
208.0913945353435
 20
158.6912790408147
 30
0.0
 10
208.0760199052164
 20
158.8108380998468
 30
0.0
 10
208.0683325901527
 20
158.8706176293628
 30
0.0
  0
LINE
  5
146
330
1F
100
AcDbEntity
  8
0
  6
Continuous
 62
     7
370
    25
100
AcDbLine
 10
208.0683325902
 20
158.8706724796
 30
0.0
 11
208.0683325902
 21
174.4695955498
 31
0.0
  0
SPLINE
  5
147
330
1F
100
AcDbEntity
  8
0
  6
Continuous
 62
     7
370
    25
100
AcDbSpline
210
0.0
220
0.0
230
1.0
 70
     8
 71
     3
 72
    11
 73
     7
 74
     0
 42
0.00000001
 43
0.00000001
 40
0.0
 40
0.0
 40
0.0
 40
0.0
 40
0.250000000000024
 40
0.5
 40
0.7500000000000054
 40
1.0
 40
1.0
 40
1.0
 40
1.0
 10
208.5770587933714
 20
174.9208205075531
 30
0.0
 10
208.510687740634
 20
174.9149266344805
 30
0.0
 10
208.3779456351593
 20
174.9031388883355
 30
0.0
 10
208.2094818943785
 20
174.7991925914133
 30
0.0
 10
208.0913945353434
 20
174.6489766158039
 30
0.0
 10
208.0760199052164
 20
174.5293892384726
 30
0.0
 10
208.0683325901527
 20
174.469595549807
 30
0.0
  0
LWPOLYLINE
  5
148
330
1F
100
AcDbEntity
  8
0
  6
Continuous
 62
     7
370
    25
100
AcDbPolyline
 90
        3
 70
   128
 43
0.0
 10
208.5770587934
 20
158.419501061
 10
214.5685325902
 20
158.4857534722
 10
218.0563765473
 20
158.5245694385
  0
LWPOLYLINE
  5
149
330
1F
100
AcDbEntity
  8
0
  6
Continuous
 62
     7
370
    25
100
AcDbPolyline
 90
        3
 70
   128
 43
0.0
 10
217.1229563334
 20
174.8261582007
 10
214.5685325902
 20
174.8545680963
 10
208.5770587764
 20
174.9208205077
  0
LINE
  5
14A
330
1F
100
AcDbEntity
  8
0
  6
Continuous
 62
     7
370
    25
100
AcDbLine
 10
222.9183325902
 20
175.0696044385
 30
0.0
 11
222.9183325902
 21
158.27071713
 31
0.0
  0
LINE
  5
14B
330
1F
100
AcDbEntity
  8
0
  6
Continuous
 62
     7
370
    25
100
AcDbLine
 10
208.5770587934
 20
158.4194998076
 30
0.0
 11
208.5770587934
 21
154.924026871
 31
0.0
  0
ARC
  5
14C
330
1F
100
AcDbEntity
  8
0
  6
Continuous
 62
     7
370
    25
100
AcDbCircle
 10
208.5623938848
 20
155.4179132278
 30
0.0
 40
0.4941040304929408
100
AcDbArc
 50
180.7535768612
 51
271.7007770082
  0
LINE
  5
14D
330
1F
100
AcDbEntity
  8
0
  6
Continuous
 62
     7
370
    25
100
AcDbLine
 10
208.0683325902
 20
155.4114147626
 30
0.0
 11
208.0683325902
 21
158.8706712253
 31
0.0
  0
LINE
  5
14E
330
1F
100
AcDbEntity
  8
0
  6
Continuous
 62
     7
370
    25
100
AcDbLine
 10
208.5770587934
 20
178.4162946975
 30
0.0
 11
208.5770587934
 21
174.9208220468
 31
0.0
  0
ARC
  5
14F
330
1F
100
AcDbEntity
  8
0
  6
Continuous
 62
     7
370
    25
100
AcDbCircle
 10
208.5623938848
 20
177.9224083407
 30
0.0
 40
0.4941040304928672
100
AcDbArc
 50
88.2992229917
 51
179.2464231388
  0
LINE
  5
150
330
1F
100
AcDbEntity
  8
0
  6
Continuous
 62
     7
370
    25
100
AcDbLine
 10
208.0683325902
 20
174.4696503433
 30
0.0
 11
208.0683325902
 21
177.9289068059
 31
0.0
  0
LINE
  5
151
330
1F
100
AcDbEntity
  8
0
  6
Continuous
 62
     7
370
    25
100
AcDbLine
 10
218.0563765473
 20
158.5245694385
 30
0.0
 11
218.0117702141
 21
158.5237628214
 31
0.0
  0
LINE
  5
152
330
1F
100
AcDbEntity
  8
0
  6
Continuous
 62
     7
370
    25
100
AcDbLine
 10
217.9706602578
 20
158.5230212554
 30
0.0
 11
218.0117702141
 21
158.5237628214
 31
0.0
  0
LWPOLYLINE
  5
153
330
1F
100
AcDbEntity
  8
0
  6
Continuous
 62
     7
370
    25
100
AcDbPolyline
 90
        3
 70
   128
 43
0.0
 10
217.9706602578
 20
158.5230212554
 10
214.5683325902
 20
158.4854975518
 10
208.5770588103
 20
158.4194995219
  0
SPLINE
  5
154
330
1F
100
AcDbEntity
  8
0
  6
Continuous
 62
     7
370
    25
100
AcDbSpline
210
0.0
220
0.0
230
1.0
 70
     8
 71
     3
 72
    12
 73
     8
 74
     0
 42
0.00000001
 43
0.00000001
 40
0.0
 40
0.0
 40
0.0
 40
0.0
 40
0.1662426524176548
 40
0.3368059756191312
 40
0.60541810712546
 40
0.8801435087136193
 40
1.0
 40
1.0
 40
1.0
 40
1.0
 10
212.6595666200966
 20
154.993500402587
 30
0.0
 10
212.7590233273718
 20
155.14898557807
 30
0.0
 10
212.9605216362507
 20
155.4639970114252
 30
0.0
 10
213.7827693922732
 20
156.1269621164238
 30
0.0
 10
215.1445985592598
 20
156.9791570332292
 30
0.0
 10
216.7057047479187
 20
157.8217857118414
 30
0.0
 10
217.6759444400803
 20
158.3596438045364
 30
0.0
 10
217.9706602577832
 20
158.5230212553637
 30
0.0
  0
LINE
  5
155
330
1F
100
AcDbEntity
  8
0
  6
Continuous
 62
     7
370
    25
100
AcDbLine
 10
212.6595666201
 20
154.9935004026
 30
0.0
 11
208.5770587934
 21
154.924026871
 31
0.0
  0
LINE
  5
156
330
1F
100
AcDbEntity
  8
0
  6
Continuous
 62
     7
370
    25
100
AcDbLine
 10
217.0904221941
 20
174.8267452416
 30
0.0
 11
217.0522463902
 21
174.8274325444
 31
0.0
  0
LINE
  5
157
330
1F
100
AcDbEntity
  8
0
  6
Continuous
 62
     7
370
    25
100
AcDbLine
 10
217.0904221941
 20
174.8267452416
 30
0.0
 11
217.1229563334
 21
174.8261582007
 31
0.0
  0
LWPOLYLINE
  5
158
330
1F
100
AcDbEntity
  8
0
  6
Continuous
 62
     7
370
    25
100
AcDbPolyline
 90
        3
 70
   128
 43
0.0
 10
217.0522463902
 20
174.8274325444
 10
214.5683325902
 20
174.8548240167
 10
208.5770587934
 20
174.9208220468
  0
LINE
  5
159
330
1F
100
AcDbEntity
  8
0
  6
Continuous
 62
     7
370
    25
100
AcDbLine
 10
212.603237403
 20
178.300888999
 30
0.0
 11
212.603237403
 21
178.3477797409
 31
0.0
  0
SPLINE
  5
15A
330
1F
100
AcDbEntity
  8
0
  6
Continuous
 62
     7
370
    25
100
AcDbSpline
210
0.0
220
0.0
230
1.0
 70
     8
 71
     3
 72
    12
 73
     8
 74
     0
 42
0.00000001
 43
0.00000001
 40
0.0
 40
0.0
 40
0.0
 40
0.0
 40
0.0460732444350177
 40
0.2494607408078313
 40
0.4779405209378899
 40
0.7057893369168761
 40
1.0
 40
1.0
 40
1.0
 40
1.0
 10
217.0522463901698
 20
174.8274325443604
 30
0.0
 10
216.9502739491728
 20
174.8899379417762
 30
0.0
 10
216.3981504556996
 20
175.2283695615815
 30
0.0
 10
215.3541705003871
 20
175.8469116584066
 30
0.0
 10
214.0828922248754
 20
176.6546362099752
 30
0.0
 10
212.916129200298
 20
177.5267141235149
 30
0.0
 10
212.7160139195202
 20
178.0218508574892
 30
0.0
 10
212.6032374030273
 20
178.3008889990456
 30
0.0
  0
LINE
  5
15B
330
1F
100
AcDbEntity
  8
0
  6
Continuous
 62
     7
370
    25
100
AcDbLine
 10
212.603237403
 20
178.3477797409
 30
0.0
 11
208.5770587934
 21
178.4162946975
 31
0.0
  0
LINE
  5
15C
330
1F
100
AcDbEntity
  8
0
  6
Continuous
 62
     7
370
    25
100
AcDbLine
 10
208.0683325902
 20
155.1982711695
 30
0.0
 11
208.0683325902
 21
155.4114147626
 31
0.0
  0
LINE
  5
15D
330
1F
100
AcDbEntity
  8
0
  6
Continuous
 62
     7
370
    25
100
AcDbLine
 10
208.0683325902
 20
177.9289068059
 30
0.0
 11
208.0683325902
 21
178.142050399
 31
0.0
  0
LINE
  5
15E
330
1F
100
AcDbEntity
  8
0
  6
Continuous
 62
     7
370
    25
100
AcDbLine
 10
212.603237403
 20
154.7852133373
 30
0.0
 11
212.6595666201
 21
154.9935004026
 31
0.0
  0
LINE
  5
15F
330
1F
100
AcDbEntity
  8
0
  6
Continuous
 62
     7
370
    25
100
AcDbLine
 10
56.6596063869
 20
158.1740794869
 30
0.0
 11
56.6596063869
 21
174.6753992187
 31
0.0
  0
SPLINE
  5
160
330
1F
100
AcDbEntity
  8
0
  6
Continuous
 62
     7
370
    25
100
AcDbSpline
210
0.0
220
0.0
230
1.0
 70
     8
 71
     3
 72
    11
 73
     7
 74
     0
 42
0.00000001
 43
0.00000001
 40
0.0
 40
0.0
 40
0.0
 40
0.0
 40
0.2499999999999979
 40
0.4999999999999962
 40
0.7499999999999943
 40
1.0
 40
1.0
 40
1.0
 40
1.0
 10
56.65960638693409
 20
174.6754007579696
 30
0.0
 10
56.72597743967147
 20
174.6695082805666
 30
0.0
 10
56.85871954514622
 20
174.6577233257607
 30
0.0
 10
57.02718328592693
 20
174.5538016433289
 30
0.0
 10
57.14527064496203
 20
174.4036212388728
 30
0.0
 10
57.16064527508917
 20
174.2840621798408
 30
0.0
 10
57.16833259015274
 20
174.2242826503249
 30
0.0
  0
LINE
  5
161
330
1F
100
AcDbEntity
  8
0
  6
Continuous
 62
     7
370
    25
100
AcDbLine
 10
57.1683325902
 20
174.2242278001
 30
0.0
 11
57.1683325902
 21
158.6253047299
 31
0.0
  0
SPLINE
  5
162
330
1F
100
AcDbEntity
  8
0
  6
Continuous
 62
     7
370
    25
100
AcDbSpline
210
0.0
220
0.0
230
1.0
 70
     8
 71
     3
 72
    11
 73
     7
 74
     0
 42
0.00000001
 43
0.00000001
 40
0.0
 40
0.0
 40
0.0
 40
0.0
 40
0.2500000000000009
 40
0.5000000000000018
 40
0.7500000000000026
 40
0.9999999999999999
 40
0.9999999999999999
 40
0.9999999999999999
 40
0.9999999999999999
 10
56.65960638693409
 20
158.1740797721345
 30
0.0
 10
56.72597743967146
 20
158.1799736452071
 30
0.0
 10
56.85871954514622
 20
158.1917613913521
 30
0.0
 10
57.02718328592693
 20
158.2957076882743
 30
0.0
 10
57.14527064496203
 20
158.4459236638838
 30
0.0
 10
57.16064527508916
 20
158.565511041215
 30
0.0
 10
57.16833259015274
 20
158.6253047298806
 30
0.0
  0
LWPOLYLINE
  5
163
330
1F
100
AcDbEntity
  8
0
  6
Continuous
 62
     7
370
    25
100
AcDbPolyline
 90
        3
 70
   128
 43
0.0
 10
56.6596063869
 20
174.6753992187
 10
50.6681325902
 20
174.6091468075
 10
47.180288633
 20
174.5703308412
  0
LWPOLYLINE
  5
164
330
1F
100
AcDbEntity
  8
0
  6
Continuous
 62
     7
370
    25
100
AcDbPolyline
 90
        3
 70
   128
 43
0.0
 10
48.1137088469
 20
158.268742079
 10
50.6681325902
 20
158.2403321834
 10
56.6596064039
 20
158.1740797719
  0
LINE
  5
165
330
1F
100
AcDbEntity
  8
0
  6
Continuous
 62
     7
370
    25
100
AcDbLine
 10
42.3183325902
 20
158.0252958412
 30
0.0
 11
42.3183325902
 21
174.8241831497
 31
0.0
  0
LINE
  5
166
330
1F
100
AcDbEntity
  8
0
  6
Continuous
 62
     7
370
    25
100
AcDbLine
 10
56.6596063869
 20
174.6754004721
 30
0.0
 11
56.6596063869
 21
178.1708734087
 31
0.0
  0
ARC
  5
167
330
1F
100
AcDbEntity
  8
0
  6
Continuous
 62
     7
370
    25
100
AcDbCircle
 10
56.6742712955
 20
177.6769870519
 30
0.0
 40
0.4941040304929176
100
AcDbArc
 50
0.7535768612
 51
91.7007770082
  0
LINE
  5
168
330
1F
100
AcDbEntity
  8
0
  6
Continuous
 62
     7
370
    25
100
AcDbLine
 10
57.1683325902
 20
177.6834855171
 30
0.0
 11
57.1683325902
 21
174.2242290544
 31
0.0
  0
LINE
  5
169
330
1F
100
AcDbEntity
  8
0
  6
Continuous
 62
     7
370
    25
100
AcDbLine
 10
56.6596063869
 20
154.6786055822
 30
0.0
 11
56.6596063869
 21
158.1740782329
 31
0.0
  0
ARC
  5
16A
330
1F
100
AcDbEntity
  8
0
  6
Continuous
 62
     7
370
    25
100
AcDbCircle
 10
56.6742712955
 20
155.172491939
 30
0.0
 40
0.4941040304928842
100
AcDbArc
 50
268.2992229918
 51
359.2464231388
  0
LINE
  5
16B
330
1F
100
AcDbEntity
  8
0
  6
Continuous
 62
     7
370
    25
100
AcDbLine
 10
57.1683325902
 20
158.6252499364
 30
0.0
 11
57.1683325902
 21
155.1659934738
 31
0.0
  0
SPLINE
  5
16C
330
1F
100
AcDbEntity
  8
0
  6
Continuous
 62
     7
370
    25
100
AcDbSpline
210
0.0
220
0.0
230
1.0
 70
     8
 71
     3
 72
    12
 73
     8
 74
     0
 42
0.00000001
 43
0.00000001
 40
0.0
 40
0.0
 40
0.0
 40
0.0
 40
0.166242652417655
 40
0.3368059756191314
 40
0.6054181071254596
 40
0.880143508713619
 40
0.9999999999999999
 40
0.9999999999999999
 40
0.9999999999999999
 40
0.9999999999999999
 10
52.57709856020888
 20
178.1013998771006
 30
0.0
 10
52.47764185293364
 20
177.9459147016176
 30
0.0
 10
52.27614354405474
 20
177.6309032682624
 30
0.0
 10
51.45389578803225
 20
176.9679381632639
 30
0.0
 10
50.09206662104567
 20
176.1157432464584
 30
0.0
 10
48.53096043238676
 20
175.2731145678463
 30
0.0
 10
47.56072074022516
 20
174.7352564751512
 30
0.0
 10
47.26600492252228
 20
174.5718790243239
 30
0.0
  0
LINE
  5
16D
330
1F
100
AcDbEntity
  8
0
  6
Continuous
 62
     7
370
    25
100
AcDbLine
 10
52.5770985602
 20
178.1013998771
 30
0.0
 11
56.6596063869
 21
178.1708734087
 31
0.0
  0
LWPOLYLINE
  5
16E
330
1F
100
AcDbEntity
  8
0
  6
Continuous
 62
     7
370
    25
100
AcDbPolyline
 90
        3
 70
   128
 43
0.0
 10
47.2660049225
 20
174.5718790243
 10
50.6683325902
 20
174.6094027279
 10
56.65960637
 20
174.6754007578
  0
LINE
  5
16F
330
1F
100
AcDbEntity
  8
0
  6
Continuous
 62
     7
370
    25
100
AcDbLine
 10
47.180288633
 20
174.5703308412
 30
0.0
 11
47.2248949662
 21
174.5711374582
 31
0.0
  0
LINE
  5
170
330
1F
100
AcDbEntity
  8
0
  6
Continuous
 62
     7
370
    25
100
AcDbLine
 10
47.2660049225
 20
174.5718790243
 30
0.0
 11
47.2248949662
 21
174.5711374582
 31
0.0
  0
LINE
  5
171
330
1F
100
AcDbEntity
  8
0
  6
Continuous
 62
     7
370
    25
100
AcDbLine
 10
48.1462429862
 20
158.2681550381
 30
0.0
 11
48.1844187901
 21
158.2674677353
 31
0.0
  0
LINE
  5
172
330
1F
100
AcDbEntity
  8
0
  6
Continuous
 62
     7
370
    25
100
AcDbLine
 10
48.1462429862
 20
158.2681550381
 30
0.0
 11
48.1137088469
 21
158.268742079
 31
0.0
  0
LWPOLYLINE
  5
173
330
1F
100
AcDbEntity
  8
0
  6
Continuous
 62
     7
370
    25
100
AcDbPolyline
 90
        3
 70
   128
 43
0.0
 10
48.1844187901
 20
158.2674677353
 10
50.6683325902
 20
158.240076263
 10
56.6596063869
 20
158.1740782329
  0
LINE
  5
174
330
1F
100
AcDbEntity
  8
0
  6
Continuous
 62
     7
370
    25
100
AcDbLine
 10
52.6334277773
 20
154.7940112806
 30
0.0
 11
52.6334277773
 21
154.7471205388
 31
0.0
  0
SPLINE
  5
175
330
1F
100
AcDbEntity
  8
0
  6
Continuous
 62
     7
370
    25
100
AcDbSpline
210
0.0
220
0.0
230
1.0
 70
     8
 71
     3
 72
    12
 73
     8
 74
     0
 42
0.00000001
 43
0.00000001
 40
0.0
 40
0.0
 40
0.0
 40
0.0
 40
0.0460732444350187
 40
0.249460740807831
 40
0.4779405209378897
 40
0.7057893369168756
 40
1.0
 40
1.0
 40
1.0
 40
1.0
 10
48.18441879013566
 20
158.2674677353272
 30
0.0
 10
48.28639123113273
 20
158.2049623379114
 30
0.0
 10
48.8385147246059
 20
157.866530718106
 30
0.0
 10
49.88249467991829
 20
157.2479886212811
 30
0.0
 10
51.15377295543007
 20
156.4402640697123
 30
0.0
 10
52.32053598000743
 20
155.5681861561729
 30
0.0
 10
52.52065126078529
 20
155.0730494221985
 30
0.0
 10
52.63342777727817
 20
154.7940112806421
 30
0.0
  0
LINE
  5
176
330
1F
100
AcDbEntity
  8
0
  6
Continuous
 62
     7
370
    25
100
AcDbLine
 10
52.6334277773
 20
154.7471205388
 30
0.0
 11
56.6596063869
 21
154.6786055822
 31
0.0
  0
LINE
  5
177
330
1F
100
AcDbEntity
  8
0
  6
Continuous
 62
     7
370
    25
100
AcDbLine
 10
57.1683325902
 20
177.8966291102
 30
0.0
 11
57.1683325902
 21
177.6834855171
 31
0.0
  0
LINE
  5
178
330
1F
100
AcDbEntity
  8
0
  6
Continuous
 62
     7
370
    25
100
AcDbLine
 10
57.1683325902
 20
155.1659934738
 30
0.0
 11
57.1683325902
 21
154.9528498807
 31
0.0
  0
LINE
  5
179
330
1F
100
AcDbEntity
  8
0
  6
Continuous
 62
     7
370
    25
100
AcDbLine
 10
52.6334277773
 20
178.3096869424
 30
0.0
 11
52.5770985602
 21
178.1013998771
 31
0.0
  0
LINE
  5
17A
330
1F
100
AcDbEntity
  8
0
  6
Continuous
 62
     7
370
    25
100
AcDbLine
 10
199.4183325902
 20
168.6268988656
 30
0.0
 11
199.4183325902
 21
166.0305967035
 31
0.0
  0
SPLINE
  5
17B
330
1F
100
AcDbEntity
  8
0
  6
Continuous
 62
     7
370
    25
100
AcDbSpline
210
0.0
220
0.0
230
1.0
 70
     8
 71
     3
 72
    13
 73
     9
 74
     0
 42
0.00000001
 43
0.00000001
 40
0.0
 40
0.0
 40
0.0
 40
0.0
 40
0.0295448902054259
 40
0.2606471239688192
 40
0.4913152552054726
 40
0.7308682638478787
 40
0.9709134921287392
 40
1.0
 40
1.0
 40
1.0
 40
1.0
 10
199.4183325901527
 20
168.6268988656185
 30
0.0
 10
199.4462574079687
 20
168.6884441727256
 30
0.0
 10
199.6926121380236
 20
169.2314012519268
 30
0.0
 10
200.054700821921
 20
170.286847417684
 30
0.0
 10
200.2664483921151
 20
171.8451826377678
 30
0.0
 10
200.071607757263
 20
173.4259932341967
 30
0.0
 10
199.7002626010417
 20
174.5199965131499
 30
0.0
 10
199.4458304365964
 20
175.0806081961425
 30
0.0
 10
199.4183325901527
 20
175.1411965026842
 30
0.0
  0
LINE
  5
17C
330
1F
100
AcDbEntity
  8
0
  6
Continuous
 62
     7
370
    25
100
AcDbLine
 10
199.4183325902
 20
176.2396226314
 30
0.0
 11
199.4183325902
 21
175.1411965027
 31
0.0
  0
SPLINE
  5
17D
330
1F
100
AcDbEntity
  8
0
  6
Continuous
 62
     7
370
    25
100
AcDbSpline
210
0.0
220
0.0
230
1.0
 70
     8
 71
     3
 72
     9
 73
     5
 74
     0
 42
0.00000001
 43
0.00000001
 40
0.0
 40
0.0
 40
0.0
 40
0.0
 40
0.6141669735876238
 40
1.0
 40
1.0
 40
1.0
 40
1.0
 10
199.4183325901527
 20
176.2396226314413
 30
0.0
 10
199.6408839905728
 20
176.1842283991603
 30
0.0
 10
200.0032470123421
 20
176.0940343075479
 30
0.0
 10
200.0824874658261
 20
175.9988288209214
 30
0.0
 10
200.1130610498081
 20
175.9620953998852
 30
0.0
  0
SPLINE
  5
17E
330
1F
100
AcDbEntity
  8
0
  6
Continuous
 62
     7
370
    25
100
AcDbSpline
210
0.0
220
0.0
230
1.0
 70
     8
 71
     3
 72
    11
 73
     7
 74
     0
 42
0.00000001
 43
0.00000001
 40
0.0
 40
0.0
 40
0.0
 40
0.0
 40
0.2431641197380933
 40
0.4936284730588935
 40
0.7421706076863281
 40
0.9999999999999999
 40
0.9999999999999999
 40
0.9999999999999999
 40
0.9999999999999999
 10
199.4183325901527
 20
156.609856359418
 30
0.0
 10
199.6284729133615
 20
156.6653784766941
 30
0.0
 10
200.0550623583231
 20
156.7780895872047
 30
0.0
 10
200.2654467884661
 20
156.9568858433387
 30
0.0
 10
200.0747600947992
 20
157.1394545149514
 30
0.0
 10
199.6398009244044
 20
157.255203658631
 30
0.0
 10
199.4183325901527
 20
157.3141396962792
 30
0.0
  0
LINE
  5
17F
330
1F
100
AcDbEntity
  8
0
  6
Continuous
 62
     7
370
    25
100
AcDbLine
 10
199.4183325902
 20
158.8120157296
 30
0.0
 11
199.4183325902
 21
157.3141396963
 31
0.0
  0
SPLINE
  5
180
330
1F
100
AcDbEntity
  8
0
  6
Continuous
 62
     7
370
    25
100
AcDbSpline
210
0.0
220
0.0
230
1.0
 70
     8
 71
     3
 72
    11
 73
     7
 74
     0
 42
0.00000001
 43
0.00000001
 40
0.0
 40
0.0
 40
0.0
 40
0.0
 40
0.2431641197380922
 40
0.4936284730588946
 40
0.7421706076863281
 40
1.0
 40
1.0
 40
1.0
 40
1.0
 10
199.4183325901527
 20
158.8120157296069
 30
0.0
 10
199.6284729133615
 20
159.3810919499641
 30
0.0
 10
200.0550623583231
 20
160.5363291042435
 30
0.0
 10
200.2654467884661
 20
162.3689086715659
 30
0.0
 10
200.0747600947991
 20
164.2401537662073
 30
0.0
 10
199.6398009244044
 20
165.4265293661726
 30
0.0
 10
199.4183325901527
 20
166.0305967035338
 30
0.0
  0
LINE
  5
181
330
1F
100
AcDbEntity
  8
0
  6
Continuous
 62
     7
370
    25
100
AcDbLine
 10
201.4183325902
 20
171.1657176593
 30
0.0
 11
201.4183325902
 21
158.1747394954
 31
0.0
  0
LINE
  5
182
330
1F
100
AcDbEntity
  8
0
  6
Continuous
 62
     7
370
    25
100
AcDbLine
 10
201.4183325902
 20
174.6747394954
 30
0.0
 11
201.4183325902
 21
171.1657176593
 31
0.0
  0
LWPOLYLINE
  5
183
330
1F
100
AcDbEntity
  8
0
  6
Continuous
 62
     7
370
    25
100
AcDbPolyline
 90
       69
 70
   128
 43
0.0
 10
194.3045580266
 20
175.7980873898
 10
192.8971460484
 20
175.8090479904
 10
192.9097164672
 20
175.7634553546
 10
192.9187449232
 20
175.7111244369
 10
192.9667232399
 20
175.1777109084
 10
192.9959734536
 20
174.6655554221
 10
193.0295911766
 20
173.9180474247
 10
193.0838907485
 20
172.3456792808
 10
193.1021711399
 20
171.7079354952
 10
193.1220316415
 20
170.982563797
 10
193.180473153
 20
168.7348681023
 10
193.2141357543
 20
167.3798263711
 10
193.2393362708
 20
166.3379416621
 10
193.243488864
 20
166.1628225661
 10
193.2485730671
 20
165.9436317394
 10
193.2581270105
 20
165.532385667
 10
193.2721506944
 20
164.9319904379
 10
193.2885086944
 20
164.2396396072
 10
193.3043375848
 20
163.5954439743
 10
193.3292068683
 20
162.6301863477
 10
193.363116545
 20
161.3997055849
 10
193.3972246259
 20
160.2762699625
 10
193.4495411171
 20
158.7908403386
 10
193.4665078605
 20
158.3853852025
 10
193.4801995716
 20
158.0915386857
 10
193.4940284127
 20
157.8394190513
 10
193.5310393312
 20
157.3352892226
 10
193.565390106
 20
157.0798549784
 10
193.5745864601
 20
157.0466167167
 10
193.5936798858
 20
157.0259789281
 10
193.6108211455
 20
157.0658113615
 10
193.6380961093
 20
157.2498994226
 10
193.6623897683
 20
157.5318131576
 10
193.6836014554
 20
157.855897372
 10
193.7145733165
 20
158.4537132572
 10
193.7463999259
 20
159.2182281628
 10
193.7681914977
 20
159.8304574938
 10
193.7922694724
 20
160.6009060495
 10
193.8192690934
 20
161.5636491907
 10
193.8361713771
 20
162.1922638202
 10
193.8551461683
 20
162.9127656104
 10
193.8654616
 20
163.3093493641
 10
193.8844102353
 20
164.050447605
 10
193.9110298572
 20
165.116749608
 10
193.9309096612
 20
165.9304834968
 10
193.955098387
 20
166.9410865989
 10
193.9805927525
 20
168.0268093651
 10
194.0028723729
 20
168.9779986015
 10
194.026996752
 20
169.9345012182
 10
194.0660451778
 20
171.364070816
 10
194.1008152827
 20
172.5193772607
 10
194.1262970669
 20
173.2833751237
 10
194.1424905304
 20
173.7312503131
 10
194.1576210263
 20
174.1238564264
 10
194.1745175825
 20
174.5188527639
 10
194.1901349658
 20
174.8408425807
 10
194.2114847432
 20
175.1982422645
 10
194.2487777477
 20
175.6282600023
 10
194.3082504871
 20
175.8093293722
 10
194.3461901032
 20
175.5745160498
 10
194.3986673103
 20
174.8271094172
 10
194.4332054817
 20
174.1002023477
 10
194.4646336379
 20
173.2822952256
 10
194.4905455581
 20
172.4929956114
 10
194.5106476331
 20
171.8031679624
 10
194.5500013764
 20
170.3574917259
 10
194.5805447995
 20
169.1765686996
 10
194.6183325902
 20
167.66192507
 10
194.6183325902
 20
167.66192507
  0
LINE
  5
184
330
1F
100
AcDbEntity
  8
0
  6
Continuous
 62
     7
370
    25
100
AcDbLine
 10
194.6183325902
 20
157.1065115833
 30
0.0
 11
194.6183325902
 21
167.6619250697
 31
0.0
  0
SPLINE
  5
185
330
1F
100
AcDbEntity
  8
0
  6
Continuous
 62
     7
370
    25
100
AcDbSpline
210
0.0
220
0.0
230
1.0
 70
     8
 71
     3
 72
    34
 73
    30
 74
     0
 42
0.00000001
 43
0.00000001
 40
0.0
 40
0.0
 40
0.0
 40
0.0
 40
0.0240627438545457
 40
0.0648469446524981
 40
0.105071637711005
 40
0.1442798589272175
 40
0.1789786064051025
 40
0.2193638686901742
 40
0.248763853507998
 40
0.2772163712194397
 40
0.3280196823067519
 40
0.3790575502672419
 40
0.411530699371349
 40
0.4572171359745891
 40
0.4999118577763659
 40
0.526544578817995
 40
0.535368307615885
 40
0.5610567775321228
 40
0.5867454154378839
 40
0.6124342234039568
 40
0.6893442401493822
 40
0.7249704735769124
 40
0.7567024583022005
 40
0.7845390749573979
 40
0.8445935157236459
 40
0.86811907108126
 40
0.9018678836039931
 40
0.9458317549565175
 40
1.0
 40
1.0
 40
1.0
 40
1.0
 10
193.9334782693762
 20
175.8090781848146
 30
0.0
 10
193.9389899475334
 20
175.8165745242056
 30
0.0
 10
193.953843427692
 20
175.8367764890575
 30
0.0
 10
193.9770533765632
 20
175.7316226882135
 30
0.0
 10
194.0034944290739
 20
175.485767994424
 30
0.0
 10
194.0296209497511
 20
175.1213845451063
 30
0.0
 10
194.0562526087796
 20
174.6440874362175
 30
0.0
 10
194.0806121693899
 20
174.1070899469355
 30
0.0
 10
194.1034531694439
 20
173.5215950862564
 30
0.0
 10
194.1288336302179
 20
172.8051018540602
 30
0.0
 10
194.1574030198083
 20
171.8403918755601
 30
0.0
 10
194.1870649597292
 20
170.7309764446707
 30
0.0
 10
194.2169621556335
 20
169.5957703919025
 30
0.0
 10
194.2452367251742
 20
168.4848197861626
 30
0.0
 10
194.2721356206374
 20
167.3958179922934
 30
0.0
 10
194.2903627326326
 20
166.6493267606017
 30
0.0
 10
194.3041628457269
 20
166.0652744940949
 30
0.0
 10
194.3170813330269
 20
165.4906442252087
 30
0.0
 10
194.3342294719906
 20
164.7607827290208
 30
0.0
 10
194.3629177954297
 20
163.5634575211509
 30
0.0
 10
194.3949043468227
 20
162.3201654110177
 30
0.0
 10
194.4286178855241
 20
161.1406649298407
 30
0.0
 10
194.4506681159673
 20
160.4144756181162
 30
0.0
 10
194.4782408539803
 20
159.5691468024499
 30
0.0
 10
194.5032741104953
 20
158.8808393922855
 30
0.0
 10
194.5291474158738
 20
158.2752224115749
 30
0.0
 10
194.5523627144495
 20
157.8272503167661
 30
0.0
 10
194.582798349691
 20
157.3661828205625
 30
0.0
 10
194.605694225893
 20
157.1988681284498
 30
0.0
 10
194.6183325901527
 20
157.1065115832677
 30
0.0
  0
SPLINE
  5
186
330
1F
100
AcDbEntity
  8
0
  6
Continuous
 62
     7
370
    25
100
AcDbSpline
210
0.0
220
0.0
230
1.0
 70
     8
 71
     3
 72
     9
 73
     5
 74
     0
 42
0.00000001
 43
0.00000001
 40
0.0
 40
0.0
 40
0.0
 40
0.0
 40
0.97638139255599
 40
1.0
 40
1.0
 40
1.0
 40
1.0
 10
193.9683325901527
 20
158.1641519967916
 30
0.0
 10
193.9892727606508
 20
157.9220114242065
 30
0.0
 10
194.0107194726199
 20
157.6740134856639
 30
0.0
 10
194.030764826509
 20
157.794115602053
 30
0.0
 10
194.0312382698536
 20
157.7969522467932
 30
0.0
  0
SPLINE
  5
187
330
1F
100
AcDbEntity
  8
0
  6
Continuous
 62
     7
370
    25
100
AcDbSpline
210
0.0
220
0.0
230
1.0
 70
     8
 71
     3
 72
    13
 73
     9
 74
     0
 42
0.00000001
 43
0.00000001
 40
0.0
 40
0.0
 40
0.0
 40
0.0
 40
0.1633117204154805
 40
0.3537060974034397
 40
0.542209649589676
 40
0.7300371885093455
 40
0.9206669352019216
 40
1.0
 40
1.0
 40
1.0
 40
1.0
 10
194.7461610134125
 20
175.0082953357256
 30
0.0
 10
194.7656888452181
 20
174.9308262183127
 30
0.0
 10
194.8079828897677
 20
174.7630409600366
 30
0.0
 10
194.8779298033323
 20
173.5088854759809
 30
0.0
 10
194.9477831723426
 20
171.5857527264248
 30
0.0
 10
195.0163512432194
 20
169.1429094133134
 30
0.0
 10
195.0761273867755
 20
166.9512060023259
 30
0.0
 10
195.1087468252994
 20
165.6713720716155
 30
0.0
 10
195.1183325901527
 20
165.2952715724571
 30
0.0
  0
SPLINE
  5
188
330
1F
100
AcDbEntity
  8
0
  6
Continuous
 62
     7
370
    25
100
AcDbSpline
210
0.0
220
0.0
230
1.0
 70
    24
 71
     3
 72
    10
 73
     6
 74
     0
 42
0.00000001
 43
0.00000001
 40
0.0
 40
0.0
 40
0.0
 40
0.0
 40
0.3187287177375316
 40
0.8180873955881224
 40
1.0
 40
1.0
 40
1.0
 40
1.0
 10
195.1183325901527
 20
165.2952715724571
 30
0.0
 10
195.1183325901527
 20
164.6729678325251
 30
0.0
 10
195.1183325901528
 20
163.075688335781
 30
0.0
 10
195.1183325901528
 20
161.2690376688995
 30
0.0
 10
195.1183325901528
 20
160.2640573601106
 30
0.0
 10
195.1183325901527
 20
159.9957081868601
 30
0.0
  0
SPLINE
  5
189
330
1F
100
AcDbEntity
  8
0
  6
Continuous
 62
     7
370
    25
100
AcDbSpline
210
0.0
220
0.0
230
1.0
 70
     8
 71
     3
 72
    13
 73
     9
 74
     0
 42
0.00000001
 43
0.00000001
 40
0.0
 40
0.0
 40
0.0
 40
0.0
 40
0.2187316754180408
 40
0.3931473777464116
 40
0.571425411379405
 40
0.7494200729434982
 40
0.8738925945231115
 40
1.0
 40
1.0
 40
1.0
 40
1.0
 10
195.1183325901527
 20
159.9957081868601
 30
0.0
 10
195.0806047832462
 20
160.4309517392834
 30
0.0
 10
195.0127929844974
 20
161.2132566386043
 30
0.0
 10
194.9139795558846
 20
162.6074845730582
 30
0.0
 10
194.8249680196334
 20
164.0085793739626
 30
0.0
 10
194.7502550926962
 20
165.3561877395496
 30
0.0
 10
194.6805870137907
 20
166.5817411492658
 30
0.0
 10
194.6391741294628
 20
167.3003010386201
 30
0.0
 10
194.6183325901693
 20
167.6619250696854
 30
0.0
  0
LINE
  5
18A
330
1F
100
AcDbEntity
  8
0
  6
Continuous
 62
     7
370
    25
100
AcDbLine
 10
194.6183325902
 20
157.1065115833
 30
0.0
 11
194.6372635089
 21
157.0863275984
 31
0.0
  0
SPLINE
  5
18B
330
1F
100
AcDbEntity
  8
0
  6
Continuous
 62
     7
370
    25
100
AcDbSpline
210
0.0
220
0.0
230
1.0
 70
     8
 71
     3
 72
     9
 73
     5
 74
     0
 42
0.00000001
 43
0.00000001
 40
0.0
 40
0.0
 40
0.0
 40
0.0
 40
0.2575807037701713
 40
1.0
 40
1.0
 40
1.0
 40
1.0
 10
195.0845933291685
 20
175.3272571705799
 30
0.0
 10
195.0875869832757
 20
175.3330828417676
 30
0.0
 10
195.0992091819242
 20
175.3556997191286
 30
0.0
 10
195.1101843864975
 20
175.187862538033
 30
0.0
 10
195.1183325901527
 20
175.0632569761629
 30
0.0
  0
SPLINE
  5
18C
330
1F
100
AcDbEntity
  8
0
  6
Continuous
 62
     7
370
    25
100
AcDbSpline
210
0.0
220
0.0
230
1.0
 70
    24
 71
     3
 72
    10
 73
     6
 74
     0
 42
0.00000001
 43
0.00000001
 40
0.0
 40
0.0
 40
0.0
 40
0.0
 40
0.3294562546722
 40
0.8318642056942901
 40
1.0
 40
1.0
 40
1.0
 40
1.0
 10
195.1183325901527
 20
175.0632569761629
 30
0.0
 10
195.1183325901528
 20
174.8394965264768
 30
0.0
 10
195.1183325901528
 20
174.2745101099067
 30
0.0
 10
195.1183325901527
 20
172.9943585845487
 30
0.0
 10
195.1183325901527
 20
171.9437862186363
 30
0.0
 10
195.1183325901527
 20
171.6803599762037
 30
0.0
  0
SPLINE
  5
18D
330
1F
100
AcDbEntity
  8
0
  6
Continuous
 62
     7
370
    25
100
AcDbSpline
210
0.0
220
0.0
230
1.0
 70
     8
 71
     3
 72
    11
 73
     7
 74
     0
 42
0.00000001
 43
0.00000001
 40
0.0
 40
0.0
 40
0.0
 40
0.0
 40
0.1123950113901299
 40
0.4199943621869238
 40
0.7261447176194223
 40
1.0
 40
1.0
 40
1.0
 40
1.0
 10
193.9683325901527
 20
162.2496505674681
 30
0.0
 10
193.9770533954951
 20
161.9503752363422
 30
0.0
 10
194.0096410435784
 20
160.8320520095383
 30
0.0
 10
194.0647101629688
 20
159.3801229632574
 30
0.0
 10
194.1306900606496
 20
158.0905338556478
 30
0.0
 10
194.1761150929715
 20
157.9213263741794
 30
0.0
 10
194.1975629621691
 20
157.8414334221158
 30
0.0
  0
SPLINE
  5
18E
330
1F
100
AcDbEntity
  8
0
  6
Continuous
 62
     7
370
    25
100
AcDbSpline
210
0.0
220
0.0
230
1.0
 70
     8
 71
     3
 72
    11
 73
     7
 74
     0
 42
0.00000001
 43
0.00000001
 40
0.0
 40
0.0
 40
0.0
 40
0.0
 40
0.0058314992650533
 40
0.3431453499632174
 40
0.6876241808559885
 40
1.0
 40
1.0
 40
1.0
 40
1.0
 10
194.912930332568
 20
175.0538339230596
 30
0.0
 10
194.9133386654228
 20
175.0562036047022
 30
0.0
 10
194.9373663663583
 20
175.1956437725907
 30
0.0
 10
194.9808249567857
 20
174.6959466186956
 30
0.0
 10
195.0524281797102
 20
173.5927658502208
 30
0.0
 10
195.097092085596
 20
172.296714259759
 30
0.0
 10
195.1183325901527
 20
171.6803599762037
 30
0.0
  0
LINE
  5
18F
330
1F
100
AcDbEntity
  8
0
  6
Continuous
 62
     7
370
    25
100
AcDbLine
 10
196.8683325902
 20
158.8120157296
 30
0.0
 11
196.6183325902
 21
159.4475937479
 31
0.0
  0
LINE
  5
190
330
1F
100
AcDbEntity
  8
0
  6
Continuous
 62
     7
370
    25
100
AcDbLine
 10
196.6183325902
 20
165.3950186852
 30
0.0
 11
196.8683325902
 21
166.0305967035
 31
0.0
  0
LINE
  5
191
330
1F
100
AcDbEntity
  8
0
  6
Continuous
 62
     7
370
    25
100
AcDbLine
 10
199.4183325902
 20
166.0305967035
 30
0.0
 11
196.8683325902
 21
166.0305967035
 31
0.0
  0
LINE
  5
192
330
1F
100
AcDbEntity
  8
0
  6
Continuous
 62
     7
370
    25
100
AcDbLine
 10
196.8683325902
 20
158.8120157296
 30
0.0
 11
199.4183325902
 21
158.8120157296
 31
0.0
  0
LINE
  5
193
330
1F
100
AcDbEntity
  8
0
  6
Continuous
 62
     7
370
    25
100
AcDbLine
 10
196.6183325902
 20
165.3950186852
 30
0.0
 11
196.6183325902
 21
159.4475937479
 31
0.0
  0
LINE
  5
194
330
1F
100
AcDbEntity
  8
0
  6
Continuous
 62
     7
370
    25
100
AcDbLine
 10
195.1183325902
 20
159.9957081869
 30
0.0
 11
195.1183325902
 21
157.5247394954
 31
0.0
  0
SPLINE
  5
195
330
1F
100
AcDbEntity
  8
0
  6
Continuous
 62
     7
370
    25
100
AcDbSpline
210
0.0
220
0.0
230
1.0
 70
    24
 71
     3
 72
    11
 73
     7
 74
     0
 42
0.00000001
 43
0.00000001
 40
0.0
 40
0.0
 40
0.0
 40
0.0
 40
0.0521773337626324
 40
0.261547743229521
 40
0.6847281688108003
 40
0.9999999999999999
 40
0.9999999999999999
 40
0.9999999999999999
 40
0.9999999999999999
 10
195.1183325901527
 20
171.6803599762037
 30
0.0
 10
195.1183325901527
 20
171.5860992656577
 30
0.0
 10
195.1183325901527
 20
171.1136014521302
 30
0.0
 10
195.1183325901528
 20
169.7754699967321
 30
0.0
 10
195.1183325901527
 20
167.6776216492115
 30
0.0
 10
195.1183325901527
 20
166.0080652532834
 30
0.0
 10
195.1183325901528
 20
165.295271572457
 30
0.0
  0
LINE
  5
196
330
1F
100
AcDbEntity
  8
0
  6
Continuous
 62
     7
370
    25
100
AcDbLine
 10
196.8683325902
 20
168.6268988656
 30
0.0
 11
196.6183325902
 21
169.2004664959
 31
0.0
  0
LINE
  5
197
330
1F
100
AcDbEntity
  8
0
  6
Continuous
 62
     7
370
    25
100
AcDbLine
 10
196.8683325902
 20
168.6268988656
 30
0.0
 11
196.8683325902
 21
166.0305967035
 31
0.0
  0
LINE
  5
198
330
1F
100
AcDbEntity
  8
0
  6
Continuous
 62
     7
370
    25
100
AcDbLine
 10
196.6183325902
 20
165.3950186852
 30
0.0
 11
196.6183325902
 21
169.2004664959
 31
0.0
  0
LINE
  5
199
330
1F
100
AcDbEntity
  8
0
  6
Continuous
 62
     7
370
    25
100
AcDbLine
 10
196.8683325902
 20
168.6268988656
 30
0.0
 11
199.4183325902
 21
168.6268988656
 31
0.0
  0
LINE
  5
19A
330
1F
100
AcDbEntity
  8
0
  6
Continuous
 62
     7
370
    25
100
AcDbLine
 10
196.6183325902
 20
174.5676288724
 30
0.0
 11
196.8683325902
 21
175.1411965027
 31
0.0
  0
LINE
  5
19B
330
1F
100
AcDbEntity
  8
0
  6
Continuous
 62
     7
370
    25
100
AcDbLine
 10
199.4183325902
 20
175.1411965027
 30
0.0
 11
196.8683325902
 21
175.1411965027
 31
0.0
  0
LINE
  5
19C
330
1F
100
AcDbEntity
  8
0
  6
Continuous
 62
     7
370
    25
100
AcDbLine
 10
196.6183325902
 20
174.5676288724
 30
0.0
 11
196.6183325902
 21
169.2004664959
 31
0.0
  0
LINE
  5
19D
330
1F
100
AcDbEntity
  8
0
  6
Continuous
 62
     7
370
    25
100
AcDbLine
 10
196.6183325902
 20
157.2521293082
 30
0.0
 11
196.8683325902
 21
157.3141396963
 31
0.0
  0
LINE
  5
19E
330
1F
100
AcDbEntity
  8
0
  6
Continuous
 62
     7
370
    25
100
AcDbLine
 10
196.8683325902
 20
158.8120157296
 30
0.0
 11
196.8683325902
 21
157.3141396963
 31
0.0
  0
LINE
  5
19F
330
1F
100
AcDbEntity
  8
0
  6
Continuous
 62
     7
370
    25
100
AcDbLine
 10
196.6183325902
 20
157.2521293082
 30
0.0
 11
196.6183325902
 21
159.4475937479
 31
0.0
  0
LINE
  5
1A0
330
1F
100
AcDbEntity
  8
0
  6
Continuous
 62
     7
370
    25
100
AcDbLine
 10
199.4183325902
 20
157.3141396963
 30
0.0
 11
196.8683325902
 21
157.3141396963
 31
0.0
  0
LINE
  5
1A1
330
1F
100
AcDbEntity
  8
0
  6
Continuous
 62
     7
370
    25
100
AcDbLine
 10
196.8683325902
 20
176.2396226314
 30
0.0
 11
196.6183325902
 21
176.1776122434
 31
0.0
  0
LINE
  5
1A2
330
1F
100
AcDbEntity
  8
0
  6
Continuous
 62
     7
370
    25
100
AcDbLine
 10
196.8683325902
 20
176.2396226314
 30
0.0
 11
196.8683325902
 21
175.1411965027
 31
0.0
  0
LINE
  5
1A3
330
1F
100
AcDbEntity
  8
0
  6
Continuous
 62
     7
370
    25
100
AcDbLine
 10
196.6183325902
 20
174.5676288724
 30
0.0
 11
196.6183325902
 21
176.1776122434
 31
0.0
  0
LINE
  5
1A4
330
1F
100
AcDbEntity
  8
0
  6
Continuous
 62
     7
370
    25
100
AcDbLine
 10
196.8683325902
 20
176.2396226314
 30
0.0
 11
199.4183325902
 21
176.2396226314
 31
0.0
  0
LINE
  5
1A5
330
1F
100
AcDbEntity
  8
0
  6
Continuous
 62
     7
370
    25
100
AcDbLine
 10
196.8683325902
 20
156.6098563594
 30
0.0
 11
196.6183325902
 21
156.6718667475
 31
0.0
  0
LINE
  5
1A6
330
1F
100
AcDbEntity
  8
0
  6
Continuous
 62
     7
370
    25
100
AcDbLine
 10
196.8683325902
 20
156.6098563594
 30
0.0
 11
199.4183325902
 21
156.6098563594
 31
0.0
  0
LINE
  5
1A7
330
1F
100
AcDbEntity
  8
0
  6
Continuous
 62
     7
370
    25
100
AcDbLine
 10
196.6183325902
 20
157.2521293082
 30
0.0
 11
196.6183325902
 21
156.6718667475
 31
0.0
  0
LINE
  5
1A8
330
1F
100
AcDbEntity
  8
0
  6
Continuous
 62
     7
370
    25
100
AcDbLine
 10
67.0683325902
 20
175.1411965027
 30
0.0
 11
67.0683325902
 21
176.2396226314
 31
0.0
  0
SPLINE
  5
1A9
330
1F
100
AcDbEntity
  8
0
  6
Continuous
 62
     7
370
    25
100
AcDbSpline
210
0.0
220
0.0
230
1.0
 70
     8
 71
     3
 72
    13
 73
     9
 74
     0
 42
0.00000001
 43
0.00000001
 40
0.0
 40
0.0
 40
0.0
 40
0.0
 40
0.0295448902054257
 40
0.2606471239688184
 40
0.4913152552054746
 40
0.7308682638478782
 40
0.9709134921287369
 40
1.0
 40
1.0
 40
1.0
 40
1.0
 10
67.06833259015274
 20
175.1411965026842
 30
0.0
 10
67.04040777233686
 20
175.0796511955771
 30
0.0
 10
66.79405304228183
 20
174.536694116376
 30
0.0
 10
66.43196435838445
 20
173.4812479506187
 30
0.0
 10
66.22021678819031
 20
171.9229127305351
 30
0.0
 10
66.41505742304246
 20
170.3421021341061
 30
0.0
 10
66.78640257926389
 20
169.2480988551526
 30
0.0
 10
67.04083474370903
 20
168.6874871721602
 30
0.0
 10
67.06833259015274
 20
168.6268988656185
 30
0.0
  0
LINE
  5
1AA
330
1F
100
AcDbEntity
  8
0
  6
Continuous
 62
     7
370
    25
100
AcDbLine
 10
67.0683325902
 20
166.0305967035
 30
0.0
 11
67.0683325902
 21
168.6268988656
 31
0.0
  0
SPLINE
  5
1AB
330
1F
100
AcDbEntity
  8
0
  6
Continuous
 62
     7
370
    25
100
AcDbSpline
210
0.0
220
0.0
230
1.0
 70
     8
 71
     3
 72
    11
 73
     7
 74
     0
 42
0.00000001
 43
0.00000001
 40
0.0
 40
0.0
 40
0.0
 40
0.0
 40
0.243164119738092
 40
0.4936284730588945
 40
0.7421706076863281
 40
1.0
 40
1.0
 40
1.0
 40
1.0
 10
67.06833259015272
 20
166.0305967035338
 30
0.0
 10
66.85819226694395
 20
165.4615204831765
 30
0.0
 10
66.43160282198235
 20
164.3062833288971
 30
0.0
 10
66.22121839183937
 20
162.4737037615746
 30
0.0
 10
66.41190508550635
 20
160.6024586669334
 30
0.0
 10
66.84686425590105
 20
159.416083066968
 30
0.0
 10
67.06833259015274
 20
158.8120157296069
 30
0.0
  0
LINE
  5
1AC
330
1F
100
AcDbEntity
  8
0
  6
Continuous
 62
     7
370
    25
100
AcDbLine
 10
67.0683325902
 20
157.3141396963
 30
0.0
 11
67.0683325902
 21
158.8120157296
 31
0.0
  0
SPLINE
  5
1AD
330
1F
100
AcDbEntity
  8
0
  6
Continuous
 62
     7
370
    25
100
AcDbSpline
210
0.0
220
0.0
230
1.0
 70
     8
 71
     3
 72
    11
 73
     7
 74
     0
 42
0.00000001
 43
0.00000001
 40
0.0
 40
0.0
 40
0.0
 40
0.0
 40
0.2431641197380907
 40
0.4936284730588919
 40
0.7421706076863273
 40
1.0
 40
1.0
 40
1.0
 40
1.0
 10
67.06833259015272
 20
157.3141396962792
 30
0.0
 10
66.85819226694395
 20
157.258617579003
 30
0.0
 10
66.43160282198235
 20
157.1459064684925
 30
0.0
 10
66.22121839183937
 20
156.9671102123586
 30
0.0
 10
66.41190508550635
 20
156.7845415407458
 30
0.0
 10
66.84686425590105
 20
156.6687923970662
 30
0.0
 10
67.06833259015274
 20
156.609856359418
 30
0.0
  0
SPLINE
  5
1AE
330
1F
100
AcDbEntity
  8
0
  6
Continuous
 62
     7
370
    25
100
AcDbSpline
210
0.0
220
0.0
230
1.0
 70
     8
 71
     3
 72
     9
 73
     5
 74
     0
 42
0.00000001
 43
0.00000001
 40
0.0
 40
0.0
 40
0.0
 40
0.0
 40
0.3487394647221094
 40
1.0
 40
1.0
 40
1.0
 40
1.0
 10
66.37494410557095
 20
175.9621198197871
 30
0.0
 10
66.3992859400855
 20
175.9953331738874
 30
0.0
 10
66.4690854235881
 20
176.0905714748543
 30
0.0
 10
66.83198828098837
 20
176.1808365501726
 30
0.0
 10
67.06833259015274
 20
176.2396226314413
 30
0.0
  0
LINE
  5
1AF
330
1F
100
AcDbEntity
  8
0
  6
Continuous
 62
     7
370
    25
100
AcDbLine
 10
65.0683325902
 20
171.1657176593
 30
0.0
 11
65.0683325902
 21
174.6747394954
 31
0.0
  0
LINE
  5
1B0
330
1F
100
AcDbEntity
  8
0
  6
Continuous
 62
     7
370
    25
100
AcDbLine
 10
65.0683325902
 20
158.1747394954
 30
0.0
 11
65.0683325902
 21
171.1657176593
 31
0.0
  0
SPLINE
  5
1B1
330
1F
100
AcDbEntity
  8
0
  6
Continuous
 62
     7
370
    25
100
AcDbSpline
210
0.0
220
0.0
230
1.0
 70
     8
 71
     3
 72
    27
 73
    23
 74
     0
 42
0.00000001
 43
0.00000001
 40
0.0
 40
0.0
 40
0.0
 40
0.0
 40
0.0136139090399478
 40
0.0776727084403657
 40
0.1348261364597257
 40
0.1770440798320013
 40
0.2043098191732025
 40
0.2303999875176522
 40
0.2595714286585741
 40
0.2865528382490246
 40
0.3220521810161566
 40
0.3830134828479141
 40
0.4812574504364836
 40
0.5465783976780292
 40
0.6342111976224546
 40
0.690740177653238
 40
0.7424867965677212
 40
0.7860227414525571
 40
0.8208210581933933
 40
0.8874577604484434
 40
0.9380042021573733
 40
1.0
 40
1.0
 40
1.0
 40
1.0
 10
72.46779409075528
 20
157.0368836792916
 30
0.0
 10
72.46509130213695
 20
157.0337351381912
 30
0.0
 10
72.44967082946363
 20
157.0157714721946
 30
0.0
 10
72.4219262863948
 20
157.1808421299313
 30
0.0
 10
72.3888493351404
 20
157.5538558974156
 30
0.0
 10
72.36330909032962
 20
157.9821423789702
 30
0.0
 10
72.34431162209906
 20
158.3694911382009
 30
0.0
 10
72.32848019652046
 20
158.7460310493042
 30
0.0
 10
72.3125221681197
 20
159.1624896625453
 30
0.0
 10
72.29504307439599
 20
159.6705628889275
 30
0.0
 10
72.27004641607796
 20
160.4168758105629
 30
0.0
 10
72.23029213779468
 20
161.7307952534631
 30
0.0
 10
72.18428561477789
 20
163.4618338457851
 30
0.0
 10
72.13653947364978
 20
165.5213781466835
 30
0.0
 10
72.09442966614473
 20
167.2854298424121
 30
0.0
 10
72.05438889456724
 20
168.8930136650942
 30
0.0
 10
72.02360904825738
 20
170.0907896708211
 30
0.0
 10
71.99763878068624
 20
171.0621054799967
 30
0.0
 10
71.97004554129579
 20
172.081794753397
 30
0.0
 10
71.93999768457864
 20
173.0501315693317
 30
0.0
 10
71.9038505578902
 20
174.0377840065551
 30
0.0
 10
71.88094854928984
 20
174.5095259349597
 30
0.0
 10
71.86833259015275
 20
174.7693929621648
 30
0.0
  0
LINE
  5
1B2
330
1F
100
AcDbEntity
  8
0
  6
Continuous
 62
     7
370
    25
100
AcDbLine
 10
71.8683325902
 20
175.8247394954
 30
0.0
 11
71.8683325902
 21
174.7693929623
 31
0.0
  0
SPLINE
  5
1B3
330
1F
100
AcDbEntity
  8
0
  6
Continuous
 62
     7
370
    25
100
AcDbSpline
210
0.0
220
0.0
230
1.0
 70
     8
 71
     3
 72
    35
 73
    31
 74
     0
 42
0.00000001
 43
0.00000001
 40
0.0
 40
0.0
 40
0.0
 40
0.0
 40
0.0240674770331332
 40
0.0679877929768137
 40
0.1125749483174371
 40
0.1439040808921705
 40
0.1776893127437589
 40
0.2210914069396794
 40
0.25679880758231
 40
0.2935583688291123
 40
0.3694549076630431
 40
0.3999481985346628
 40
0.4395535899128757
 40
0.4786156453284778
 40
0.5166906085772273
 40
0.5503864380236242
 40
0.589604421640268
 40
0.618154641638251
 40
0.6457847797213725
 40
0.695119693230898
 40
0.7446823840802002
 40
0.7762169429139683
 40
0.8205828779315806
 40
0.8620435694165093
 40
0.8879065094688606
 40
0.8964752009135436
 40
0.9214211820786599
 40
0.946367326377801
 40
0.9713136358219019
 40
0.9999999999999999
 40
0.9999999999999999
 40
0.9999999999999999
 40
0.9999999999999999
 10
72.82054829917753
 20
157.0335222632431
 30
0.0
 10
72.81486203564809
 20
157.0354122149647
 30
0.0
 10
72.79879900971815
 20
157.0407511063742
 30
0.0
 10
72.77160746410223
 20
157.2131475962638
 30
0.0
 10
72.74275498833555
 20
157.5403959824519
 30
0.0
 10
72.71659742016689
 20
157.9647547529086
 30
0.0
 10
72.69164029524408
 20
158.4819308924233
 30
0.0
 10
72.66641815272449
 20
159.1349900585593
 30
0.0
 10
72.63943846741194
 20
159.9140179010908
 30
0.0
 10
72.60317897346553
 20
161.0256388098923
 30
0.0
 10
72.56886560043657
 20
162.2551324080299
 30
0.0
 10
72.53447652458145
 20
163.5993600275214
 30
0.0
 10
72.5096019111606
 20
164.6421149094375
 30
0.0
 10
72.48317332216774
 20
165.7837225814848
 30
0.0
 10
72.45704363866497
 20
166.8765164465167
 30
0.0
 10
72.43041275130615
 20
167.9640010113355
 30
0.0
 10
72.40605297489286
 20
168.9405826917381
 30
0.0
 10
72.383212018724
 20
169.8304910761915
 30
0.0
 10
72.35783154623208
 20
170.7814619480337
 30
0.0
 10
72.32926216102406
 20
171.8563878470404
 30
0.0
 10
72.29960022287007
 20
172.8492901826267
 30
0.0
 10
72.26970301815301
 20
173.6938993912148
 30
0.0
 10
72.24142849068998
 20
174.3795041995142
 30
0.0
 10
72.21452945702471
 20
174.9061869660267
 30
0.0
 10
72.19630261357503
 20
175.1922976703532
 30
0.0
 10
72.1825020164637
 20
175.3862534756709
 30
0.0
 10
72.16958797911967
 20
175.5500260642893
 30
0.0
 10
72.15242074553763
 20
175.69657172159
 30
0.0
 10
72.1343997309475
 20
175.8177450313078
 30
0.0
 10
72.12161082574384
 20
175.7823541405744
 30
0.0
 10
72.11477045834586
 20
175.763424709845
 30
0.0
  0
SPLINE
  5
1B4
330
1F
100
AcDbEntity
  8
0
  6
Continuous
 62
     7
370
    25
100
AcDbSpline
210
0.0
220
0.0
230
1.0
 70
     8
 71
     3
 72
    18
 73
    14
 74
     0
 42
0.00000001
 43
0.00000001
 40
0.0
 40
0.0
 40
0.0
 40
0.0
 40
0.0774554087960548
 40
0.1860661841307256
 40
0.2602328912561668
 40
0.3356194784643641
 40
0.411497808879659
 40
0.5187351849825098
 40
0.6282504212506469
 40
0.7366780512135038
 40
0.8447168369584802
 40
0.9543674583636138
 40
1.0
 40
1.0
 40
1.0
 40
1.0
 10
72.01649112459768
 20
157.8854483064485
 30
0.0
 10
71.99949303396829
 20
157.9202109656871
 30
0.0
 10
71.95865960593432
 20
158.0037190828775
 30
0.0
 10
71.90183766967127
 20
158.9814822700224
 30
0.0
 10
71.84879940046467
 20
160.3307807203508
 30
0.0
 10
71.7986387908556
 20
161.8096188101808
 30
0.0
 10
71.7413766085351
 20
163.7466692781493
 30
0.0
 10
71.68191794800066
 20
166.1644737668877
 30
0.0
 10
71.60866778764479
 20
168.8752406929531
 30
0.0
 10
71.53889999133052
 20
171.355507915926
 30
0.0
 10
71.47030893284206
 20
173.3481125853745
 30
0.0
 10
71.41053824562442
 20
174.4419158093489
 30
0.0
 10
71.37791845768704
 20
174.7663220044859
 30
0.0
 10
71.36833259015273
 20
174.8616541635992
 30
0.0
  0
SPLINE
  5
1B5
330
1F
100
AcDbEntity
  8
0
  6
Continuous
 62
     7
370
    25
100
AcDbSpline
210
0.0
220
0.0
230
1.0
 70
     8
 71
     3
 72
    11
 73
     7
 74
     0
 42
0.00000001
 43
0.00000001
 40
0.0
 40
0.0
 40
0.0
 40
0.0
 40
0.1701587585696631
 40
0.5148066094740514
 40
0.7558205066443099
 40
1.0
 40
1.0
 40
1.0
 40
1.0
 10
71.61673719523573
 20
175.541086706499
 30
0.0
 10
71.63151035980059
 20
175.5623449187532
 30
0.0
 10
71.6762058125928
 20
175.6266605512021
 30
0.0
 10
71.7363045791117
 20
175.4681946644805
 30
0.0
 10
71.80610088347595
 20
175.1790837528609
 30
0.0
 10
71.84749865602816
 20
174.9065492672215
 30
0.0
 10
71.86833259013613
 20
174.7693929622825
 30
0.0
  0
SPLINE
  5
1B6
330
1F
100
AcDbEntity
  8
0
  6
Continuous
 62
     7
370
    25
100
AcDbSpline
210
0.0
220
0.0
230
1.0
 70
     8
 71
     3
 72
    16
 73
    12
 74
     0
 42
0.00000001
 43
0.00000001
 40
0.0
 40
0.0
 40
0.0
 40
0.0
 40
0.0792140638713505
 40
0.1934397168971934
 40
0.3076653699220776
 40
0.4218677295428677
 40
0.5346865681724856
 40
0.6475054053740941
 40
0.760324242022115
 40
0.87828045029795
 40
0.9999999999999999
 40
0.9999999999999999
 40
0.9999999999999999
 40
0.9999999999999999
 10
71.577335651199
 20
157.3422851852214
 30
0.0
 10
71.5718659257809
 20
157.3488421840979
 30
0.0
 10
71.55850892722948
 20
157.3648542903373
 30
0.0
 10
71.53657423737016
 20
157.6784368206677
 30
0.0
 10
71.51233307977077
 20
158.2335479786274
 30
0.0
 10
71.48945293236196
 20
159.0193352178551
 30
0.0
 10
71.4665528105815
 20
160.0010797057388
 30
0.0
 10
71.44239511343095
 20
161.1534567265825
 30
0.0
 10
71.41767781013158
 20
162.4675974288831
 30
0.0
 10
71.39265147896471
 20
163.9275311650578
 30
0.0
 10
71.37652330024923
 20
164.9744026112302
 30
0.0
 10
71.36833259015273
 20
165.5060572186844
 30
0.0
  0
SPLINE
  5
1B7
330
1F
100
AcDbEntity
  8
0
  6
Continuous
 62
     7
370
    25
100
AcDbSpline
210
0.0
220
0.0
230
1.0
 70
    24
 71
     3
 72
    10
 73
     6
 74
     0
 42
0.00000001
 43
0.00000001
 40
0.0
 40
0.0
 40
0.0
 40
0.0
 40
0.3294562546722003
 40
0.831864205694292
 40
1.0
 40
1.0
 40
1.0
 40
1.0
 10
71.36833259015273
 20
165.5060572186844
 30
0.0
 10
71.36833259015273
 20
166.1547850962925
 30
0.0
 10
71.36833259015272
 20
167.7927977093936
 30
0.0
 10
71.36833259015273
 20
169.7066612456661
 30
0.0
 10
71.36833259015273
 20
170.809625715621
 30
0.0
 10
71.36833259015273
 20
171.0861890398471
 30
0.0
  0
SPLINE
  5
1B8
330
1F
100
AcDbEntity
  8
0
  6
Continuous
 62
     7
370
    25
100
AcDbSpline
210
0.0
220
0.0
230
1.0
 70
     8
 71
     3
 72
    15
 73
    11
 74
     0
 42
0.00000001
 43
0.00000001
 40
0.0
 40
0.0
 40
0.0
 40
0.0
 40
0.1319746667032354
 40
0.1608073069995045
 40
0.3024203969717298
 40
0.4436898895822917
 40
0.5869603891290426
 40
0.7271016041552263
 40
0.8702195989016372
 40
1.0
 40
1.0
 40
1.0
 40
1.0
 10
71.8649694677401
 20
157.8100745263645
 30
0.0
 10
71.84300991783645
 20
157.8192604092401
 30
0.0
 10
71.81625284262546
 20
157.8304531413344
 30
0.0
 10
71.7650801228654
 20
158.327400697763
 30
0.0
 10
71.71422849153065
 20
159.1870033128204
 30
0.0
 10
71.64544519925762
 20
161.0710497104694
 30
0.0
 10
71.57170864530265
 20
163.4711837108657
 30
0.0
 10
71.50557330736014
 20
166.1585087858723
 30
0.0
 10
71.43429705067321
 20
168.819339579479
 30
0.0
 10
71.38959244840595
 20
170.3556002071857
 30
0.0
 10
71.36833259015273
 20
171.0861890398471
 30
0.0
  0
LINE
  5
1B9
330
1F
100
AcDbEntity
  8
0
  6
Continuous
 62
     7
370
    25
100
AcDbLine
 10
69.6183325902
 20
166.0305967035
 30
0.0
 11
69.8683325902
 21
165.3950186852
 31
0.0
  0
LINE
  5
1BA
330
1F
100
AcDbEntity
  8
0
  6
Continuous
 62
     7
370
    25
100
AcDbLine
 10
69.8683325902
 20
159.4475937479
 30
0.0
 11
69.6183325902
 21
158.8120157296
 31
0.0
  0
LINE
  5
1BB
330
1F
100
AcDbEntity
  8
0
  6
Continuous
 62
     7
370
    25
100
AcDbLine
 10
67.0683325902
 20
158.8120157296
 30
0.0
 11
69.6183325902
 21
158.8120157296
 31
0.0
  0
LINE
  5
1BC
330
1F
100
AcDbEntity
  8
0
  6
Continuous
 62
     7
370
    25
100
AcDbLine
 10
69.6183325902
 20
166.0305967035
 30
0.0
 11
67.0683325902
 21
166.0305967035
 31
0.0
  0
LINE
  5
1BD
330
1F
100
AcDbEntity
  8
0
  6
Continuous
 62
     7
370
    25
100
AcDbLine
 10
69.8683325902
 20
159.4475937479
 30
0.0
 11
69.8683325902
 21
165.3950186852
 31
0.0
  0
LINE
  5
1BE
330
1F
100
AcDbEntity
  8
0
  6
Continuous
 62
     7
370
    25
100
AcDbLine
 10
71.3683325902
 20
157.5247394954
 30
0.0
 11
71.3683325902
 21
165.5060572187
 31
0.0
  0
SPLINE
  5
1BF
330
1F
100
AcDbEntity
  8
0
  6
Continuous
 62
     7
370
    25
100
AcDbSpline
210
0.0
220
0.0
230
1.0
 70
    24
 71
     3
 72
    11
 73
     7
 74
     0
 42
0.00000001
 43
0.00000001
 40
0.0
 40
0.0
 40
0.0
 40
0.0
 40
0.0521773337626352
 40
0.2615477432295232
 40
0.6847281688108031
 40
1.0
 40
1.0
 40
1.0
 40
1.0
 10
71.36833259015273
 20
171.0861890398471
 30
0.0
 10
71.36833259015273
 20
171.1844115735323
 30
0.0
 10
71.36833259015272
 20
171.6767686981128
 30
0.0
 10
71.36833259015273
 20
172.8616583445716
 30
0.0
 10
71.36833259015273
 20
174.1847646089876
 30
0.0
 10
71.36833259015273
 20
174.6591303607996
 30
0.0
 10
71.36833259015273
 20
174.8616541635992
 30
0.0
  0
LINE
  5
1C0
330
1F
100
AcDbEntity
  8
0
  6
Continuous
 62
     7
370
    25
100
AcDbLine
 10
69.6183325902
 20
166.0305967035
 30
0.0
 11
69.6183325902
 21
168.6268988656
 31
0.0
  0
LINE
  5
1C1
330
1F
100
AcDbEntity
  8
0
  6
Continuous
 62
     7
370
    25
100
AcDbLine
 10
69.8683325902
 20
169.2004664959
 30
0.0
 11
69.6183325902
 21
168.6268988656
 31
0.0
  0
LINE
  5
1C2
330
1F
100
AcDbEntity
  8
0
  6
Continuous
 62
     7
370
    25
100
AcDbLine
 10
69.8683325902
 20
169.2004664959
 30
0.0
 11
69.8683325902
 21
165.3950186852
 31
0.0
  0
LINE
  5
1C3
330
1F
100
AcDbEntity
  8
0
  6
Continuous
 62
     7
370
    25
100
AcDbLine
 10
67.0683325902
 20
168.6268988656
 30
0.0
 11
69.6183325902
 21
168.6268988656
 31
0.0
  0
LINE
  5
1C4
330
1F
100
AcDbEntity
  8
0
  6
Continuous
 62
     7
370
    25
100
AcDbLine
 10
69.6183325902
 20
175.1411965027
 30
0.0
 11
69.8683325902
 21
174.5676288724
 31
0.0
  0
LINE
  5
1C5
330
1F
100
AcDbEntity
  8
0
  6
Continuous
 62
     7
370
    25
100
AcDbLine
 10
69.6183325902
 20
175.1411965027
 30
0.0
 11
67.0683325902
 21
175.1411965027
 31
0.0
  0
LINE
  5
1C6
330
1F
100
AcDbEntity
  8
0
  6
Continuous
 62
     7
370
    25
100
AcDbLine
 10
69.8683325902
 20
169.2004664959
 30
0.0
 11
69.8683325902
 21
174.5676288724
 31
0.0
  0
LINE
  5
1C7
330
1F
100
AcDbEntity
  8
0
  6
Continuous
 62
     7
370
    25
100
AcDbLine
 10
69.6183325902
 20
157.3141396963
 30
0.0
 11
69.8683325902
 21
157.2521293082
 31
0.0
  0
LINE
  5
1C8
330
1F
100
AcDbEntity
  8
0
  6
Continuous
 62
     7
370
    25
100
AcDbLine
 10
69.6183325902
 20
157.3141396963
 30
0.0
 11
69.6183325902
 21
158.8120157296
 31
0.0
  0
LINE
  5
1C9
330
1F
100
AcDbEntity
  8
0
  6
Continuous
 62
     7
370
    25
100
AcDbLine
 10
69.8683325902
 20
159.4475937479
 30
0.0
 11
69.8683325902
 21
157.2521293082
 31
0.0
  0
LINE
  5
1CA
330
1F
100
AcDbEntity
  8
0
  6
Continuous
 62
     7
370
    25
100
AcDbLine
 10
69.6183325902
 20
157.3141396963
 30
0.0
 11
67.0683325902
 21
157.3141396963
 31
0.0
  0
LINE
  5
1CB
330
1F
100
AcDbEntity
  8
0
  6
Continuous
 62
     7
370
    25
100
AcDbLine
 10
69.6183325902
 20
175.1411965027
 30
0.0
 11
69.6183325902
 21
176.2396226314
 31
0.0
  0
LINE
  5
1CC
330
1F
100
AcDbEntity
  8
0
  6
Continuous
 62
     7
370
    25
100
AcDbLine
 10
69.8683325902
 20
176.1776122434
 30
0.0
 11
69.6183325902
 21
176.2396226314
 31
0.0
  0
LINE
  5
1CD
330
1F
100
AcDbEntity
  8
0
  6
Continuous
 62
     7
370
    25
100
AcDbLine
 10
69.8683325902
 20
176.1776122434
 30
0.0
 11
69.8683325902
 21
174.5676288724
 31
0.0
  0
LINE
  5
1CE
330
1F
100
AcDbEntity
  8
0
  6
Continuous
 62
     7
370
    25
100
AcDbLine
 10
67.0683325902
 20
176.2396226314
 30
0.0
 11
69.6183325902
 21
176.2396226314
 31
0.0
  0
LINE
  5
1CF
330
1F
100
AcDbEntity
  8
0
  6
Continuous
 62
     7
370
    25
100
AcDbLine
 10
69.8683325902
 20
156.6718667475
 30
0.0
 11
69.6183325902
 21
156.6098563594
 31
0.0
  0
LINE
  5
1D0
330
1F
100
AcDbEntity
  8
0
  6
Continuous
 62
     7
370
    25
100
AcDbLine
 10
67.0683325902
 20
156.6098563594
 30
0.0
 11
69.6183325902
 21
156.6098563594
 31
0.0
  0
LINE
  5
1D1
330
1F
100
AcDbEntity
  8
0
  6
Continuous
 62
     7
370
    25
100
AcDbLine
 10
69.8683325902
 20
156.6718667475
 30
0.0
 11
69.8683325902
 21
157.2521293082
 31
0.0
  0
SPLINE
  5
1D2
330
1F
100
AcDbEntity
  8
0
  6
Continuous
 62
     7
370
    25
100
AcDbSpline
210
0.0
220
0.0
230
1.0
 70
     8
 71
     3
 72
     9
 73
     5
 74
     0
 42
0.00000001
 43
0.00000001
 40
0.0
 40
0.0
 40
0.0
 40
0.0
 40
0.5841917497409228
 40
1.0
 40
1.0
 40
1.0
 40
1.0
 10
178.2683325901527
 20
168.7134717964316
 30
0.0
 10
178.2421646263321
 20
169.1869299208229
 30
0.0
 10
178.1973711765235
 20
169.9973797852743
 30
0.0
 10
177.9547567590095
 20
170.6633439523897
 30
0.0
 10
177.8538756825754
 20
170.9402573474532
 30
0.0
  0
LINE
  5
1D3
330
1F
100
AcDbEntity
  8
0
  6
Continuous
 62
     7
370
    25
100
AcDbLine
 10
178.2683325902
 20
168.7134717964
 30
0.0
 11
178.2683325902
 21
167.2655192067
 31
0.0
  0
SPLINE
  5
1D4
330
1F
100
AcDbEntity
  8
0
  6
Continuous
 62
     7
370
    25
100
AcDbSpline
210
0.0
220
0.0
230
1.0
 70
     8
 71
     3
 72
     9
 73
     5
 74
     0
 42
0.00000001
 43
0.00000001
 40
0.0
 40
0.0
 40
0.0
 40
0.0
 40
0.5850553834536185
 40
1.0
 40
1.0
 40
1.0
 40
1.0
 10
177.8538756825754
 20
164.9209406669477
 30
0.0
 10
177.9904298165997
 20
165.3556720965591
 30
0.0
 10
178.2238335897917
 20
166.098732398039
 30
0.0
 10
178.2552828775169
 20
166.923348990843
 30
0.0
 10
178.2683325901527
 20
167.2655192067419
 30
0.0
  0
SPLINE
  5
1D5
330
1F
100
AcDbEntity
  8
0
  6
Continuous
 62
     7
370
    25
100
AcDbSpline
210
0.0
220
0.0
230
1.0
 70
     8
 71
     3
 72
    11
 73
     7
 74
     0
 42
0.00000001
 43
0.00000001
 40
0.0
 40
0.0
 40
0.0
 40
0.0
 40
0.2328716322111435
 40
0.4710265024313177
 40
0.7311421212560258
 40
1.0
 40
1.0
 40
1.0
 40
1.0
 10
177.8538756825754
 20
154.232582369919
 30
0.0
 10
177.5834789479026
 20
155.0431924817533
 30
0.0
 10
177.0365508957718
 20
156.6828032930287
 30
0.0
 10
176.7353265777881
 20
159.3378170593794
 30
0.0
 10
176.9429783431979
 20
162.1374093744101
 30
0.0
 10
177.5469161749782
 20
163.9829300284242
 30
0.0
 10
177.8538756825754
 20
164.9209406669477
 30
0.0
  0
SPLINE
  5
1D6
330
1F
100
AcDbEntity
  8
0
  6
Continuous
 62
     7
370
    25
100
AcDbSpline
210
0.0
220
0.0
230
1.0
 70
     8
 71
     3
 72
     9
 73
     5
 74
     0
 42
0.00000001
 43
0.00000001
 40
0.0
 40
0.0
 40
0.0
 40
0.0
 40
0.5841917497409231
 40
0.9999999999999999
 40
0.9999999999999999
 40
0.9999999999999999
 40
0.9999999999999999
 10
178.2683325901527
 20
152.3691458321428
 30
0.0
 10
178.2421646263321
 20
152.6915866187549
 30
0.0
 10
178.1973711765234
 20
153.2435300290395
 30
0.0
 10
177.9547567590095
 20
153.9421079195826
 30
0.0
 10
177.8538756825754
 20
154.2325823699191
 30
0.0
  0
LINE
  5
1D7
330
1F
100
AcDbEntity
  8
0
  6
Continuous
 62
     7
370
    25
100
AcDbLine
 10
178.2683325902
 20
152.3691458321
 30
0.0
 11
178.2683325902
 21
151.5337833257
 31
0.0
  0
SPLINE
  5
1D8
330
1F
100
AcDbEntity
  8
0
  6
Continuous
 62
     7
370
    25
100
AcDbSpline
210
0.0
220
0.0
230
1.0
 70
     8
 71
     3
 72
     9
 73
     5
 74
     0
 42
0.00000001
 43
0.00000001
 40
0.0
 40
0.0
 40
0.0
 40
0.0
 40
0.5850553834536119
 40
0.9999999999999999
 40
0.9999999999999999
 40
0.9999999999999999
 40
0.9999999999999999
 10
177.8538756825754
 20
150.7598778733444
 30
0.0
 10
177.9904298165997
 20
150.8325633990384
 30
0.0
 10
178.2238335897916
 20
150.9568003990724
 30
0.0
 10
178.2552828775169
 20
151.3645781452281
 30
0.0
 10
178.2683325901527
 20
151.5337833257429
 30
0.0
  0
SPLINE
  5
1D9
330
1F
100
AcDbEntity
  8
0
  6
Continuous
 62
     7
370
    25
100
AcDbSpline
210
0.0
220
0.0
230
1.0
 70
     8
 71
     3
 72
    11
 73
     7
 74
     0
 42
0.00000001
 43
0.00000001
 40
0.0
 40
0.0
 40
0.0
 40
0.0
 40
0.2379053903768123
 40
0.4814905141302427
 40
0.7366519444347667
 40
1.0
 40
1.0
 40
1.0
 40
1.0
 10
177.8538756825755
 20
149.7170645178955
 30
0.0
 10
177.5782902476025
 20
149.7978868486688
 30
0.0
 10
177.020540074049
 20
149.9614610557753
 30
0.0
 10
176.7339768493926
 20
150.222708541914
 30
0.0
 10
176.9588572555906
 20
150.4938315662572
 30
0.0
 10
177.5524123725089
 20
150.6702672039465
 30
0.0
 10
177.8538756825754
 20
150.7598778733444
 30
0.0
  0
LINE
  5
1DA
330
1F
100
AcDbEntity
  8
0
  6
Continuous
 62
     7
370
    25
100
AcDbLine
 10
177.9746796738
 20
149.7214074448
 30
0.0
 11
177.8538756826
 21
149.7170645179
 31
0.0
  0
SPLINE
  5
1DB
330
1F
100
AcDbEntity
  8
0
  6
Continuous
 62
     7
370
    25
100
AcDbSpline
210
0.0
220
0.0
230
1.0
 70
     8
 71
     3
 72
     9
 73
     5
 74
     0
 42
0.00000001
 43
0.00000001
 40
0.0
 40
0.0
 40
0.0
 40
0.0
 40
0.6721061852891761
 40
0.9999999999999999
 40
0.9999999999999999
 40
0.9999999999999999
 40
0.9999999999999999
 10
177.8538756825754
 20
183.1324144729637
 30
0.0
 10
177.5370694355872
 20
183.0456982389342
 30
0.0
 10
177.065706049976
 20
182.9166766112101
 30
0.0
 10
176.9831783664723
 20
182.7817956094128
 30
0.0
 10
176.9561180495091
 20
182.7375689632014
 30
0.0
  0
SPLINE
  5
1DC
330
1F
100
AcDbEntity
  8
0
  6
Continuous
 62
     7
370
    25
100
AcDbSpline
210
0.0
220
0.0
230
1.0
 70
     8
 71
     3
 72
     9
 73
     5
 74
     0
 42
0.00000001
 43
0.00000001
 40
0.0
 40
0.0
 40
0.0
 40
0.0
 40
0.584191749740928
 40
1.0
 40
1.0
 40
1.0
 40
1.0
 10
178.2683325901527
 20
182.7690654597184
 30
0.0
 10
178.2421646263321
 20
182.9200827974975
 30
0.0
 10
178.1973711765235
 20
183.1785892516646
 30
0.0
 10
177.9547567590095
 20
183.1459755282367
 30
0.0
 10
177.8538756825754
 20
183.1324144729637
 30
0.0
  0
LINE
  5
1DD
330
1F
100
AcDbEntity
  8
0
  6
Continuous
 62
     7
370
    25
100
AcDbLine
 10
178.2683325902
 20
182.7690654597
 30
0.0
 11
178.2683325902
 21
182.1564753764
 31
0.0
  0
SPLINE
  5
1DE
330
1F
100
AcDbEntity
  8
0
  6
Continuous
 62
     7
370
    25
100
AcDbSpline
210
0.0
220
0.0
230
1.0
 70
     8
 71
     3
 72
     9
 73
     5
 74
     0
 42
0.00000001
 43
0.00000001
 40
0.0
 40
0.0
 40
0.0
 40
0.0
 40
0.5850553834536214
 40
1.0
 40
1.0
 40
1.0
 40
1.0
 10
177.8538756825754
 20
180.585802289033
 30
0.0
 10
177.9904298165997
 20
180.9478481929504
 30
0.0
 10
178.2238335897916
 20
181.5666714943962
 30
0.0
 10
178.2552828775169
 20
181.9835103410445
 30
0.0
 10
178.2683325901527
 20
182.1564753764287
 30
0.0
  0
SPLINE
  5
1DF
330
1F
100
AcDbEntity
  8
0
  6
Continuous
 62
     7
370
    25
100
AcDbSpline
210
0.0
220
0.0
230
1.0
 70
     8
 71
     3
 72
    11
 73
     7
 74
     0
 42
0.00000001
 43
0.00000001
 40
0.0
 40
0.0
 40
0.0
 40
0.0
 40
0.232871632211144
 40
0.4710265024313168
 40
0.7311421212560267
 40
0.9999999999999999
 40
0.9999999999999999
 40
0.9999999999999999
 40
0.9999999999999999
 10
177.8538756825754
 20
170.9402573474532
 30
0.0
 10
177.5834789479026
 20
171.6717800047699
 30
0.0
 10
177.0365508957718
 20
173.1514216230017
 30
0.0
 10
176.7353265777882
 20
175.5473980575649
 30
0.0
 10
176.9429783431979
 20
178.0738471849523
 30
0.0
 10
177.5469161749782
 20
179.7393089812559
 30
0.0
 10
177.8538756825754
 20
180.585802289033
 30
0.0
  0
LINE
  5
1E0
330
1F
100
AcDbEntity
  8
0
  6
Continuous
 62
     7
370
    25
100
AcDbLine
 10
176.7683325902
 20
150.2247394954
 30
0.0
 11
176.7683325902
 21
182.6247394954
 31
0.0
  0
SPLINE
  5
1E1
330
1F
100
AcDbEntity
  8
0
  6
Continuous
 62
     7
370
    25
100
AcDbSpline
210
0.0
220
0.0
230
1.0
 70
     8
 71
     3
 72
     9
 73
     5
 74
     0
 42
0.00000001
 43
0.00000001
 40
0.0
 40
0.0
 40
0.0
 40
0.0
 40
0.5850553834534032
 40
1.0
 40
1.0
 40
1.0
 40
1.0
 10
185.1327894977306
 20
183.1324144729636
 30
0.0
 10
184.9962353637062
 20
183.1419518038433
 30
0.0
 10
184.7628315905139
 20
183.1582533902393
 30
0.0
 10
184.7313823027886
 20
182.8831981506421
 30
0.0
 10
184.7183325901528
 20
182.7690654597184
 30
0.0
  0
SPLINE
  5
1E2
330
1F
100
AcDbEntity
  8
0
  6
Continuous
 62
     7
370
    25
100
AcDbSpline
210
0.0
220
0.0
230
1.0
 70
     8
 71
     3
 72
     9
 73
     5
 74
     0
 42
0.00000001
 43
0.00000001
 40
0.0
 40
0.0
 40
0.0
 40
0.0
 40
0.307597899551815
 40
1.0
 40
1.0
 40
1.0
 40
1.0
 10
186.0350736026011
 20
182.7376066800214
 30
0.0
 10
186.0101854818044
 20
182.7790905155115
 30
0.0
 10
185.9292742635125
 20
182.9139543606501
 30
0.0
 10
185.4586504291584
 20
183.0430372259193
 30
0.0
 10
185.1327894977306
 20
183.1324144729636
 30
0.0
  0
LINE
  5
1E3
330
1F
100
AcDbEntity
  8
0
  6
Continuous
 62
     7
370
    25
100
AcDbLine
 10
185.1327894977
 20
149.7170645179
 30
0.0
 11
185.0249792256
 21
149.7395793163
 31
0.0
  0
SPLINE
  5
1E4
330
1F
100
AcDbEntity
  8
0
  6
Continuous
 62
     7
370
    25
100
AcDbSpline
210
0.0
220
0.0
230
1.0
 70
     8
 71
     3
 72
    11
 73
     7
 74
     0
 42
0.00000001
 43
0.00000001
 40
0.0
 40
0.0
 40
0.0
 40
0.0
 40
0.2556279644380969
 40
0.5185037642963868
 40
0.7560467972580112
 40
1.0
 40
1.0
 40
1.0
 40
1.0
 10
185.1327894977301
 20
150.7598778733444
 30
0.0
 10
185.4264154578321
 20
150.6729397081888
 30
0.0
 10
186.0219925729676
 20
150.4965984147263
 30
0.0
 10
186.2538815345943
 20
150.2275851664177
 30
0.0
 10
185.9709110761335
 20
149.9636143646668
 30
0.0
 10
185.4146319425692
 20
149.7999739827981
 30
0.0
 10
185.1327894977301
 20
149.7170645178955
 30
0.0
  0
SPLINE
  5
1E5
330
1F
100
AcDbEntity
  8
0
  6
Continuous
 62
     7
370
    25
100
AcDbSpline
210
0.0
220
0.0
230
1.0
 70
     8
 71
     3
 72
     9
 73
     5
 74
     0
 42
0.00000001
 43
0.00000001
 40
0.0
 40
0.0
 40
0.0
 40
0.0
 40
0.5841917497409203
 40
1.0
 40
1.0
 40
1.0
 40
1.0
 10
184.7183325901528
 20
151.5337833257429
 30
0.0
 10
184.7445005539734
 20
151.3041350495291
 30
0.0
 10
184.789294003782
 20
150.9110307711554
 30
0.0
 10
185.031908421296
 20
150.8042699172167
 30
0.0
 10
185.1327894977301
 20
150.7598778733444
 30
0.0
  0
LINE
  5
1E6
330
1F
100
AcDbEntity
  8
0
  6
Continuous
 62
     7
370
    25
100
AcDbLine
 10
184.7183325902
 20
151.5337833257
 30
0.0
 11
184.7183325902
 21
152.3691458321
 31
0.0
  0
SPLINE
  5
1E7
330
1F
100
AcDbEntity
  8
0
  6
Continuous
 62
     7
370
    25
100
AcDbSpline
210
0.0
220
0.0
230
1.0
 70
     8
 71
     3
 72
     9
 73
     5
 74
     0
 42
0.00000001
 43
0.00000001
 40
0.0
 40
0.0
 40
0.0
 40
0.0
 40
0.5850553834536283
 40
1.0
 40
1.0
 40
1.0
 40
1.0
 10
185.1327894977301
 20
154.2325823699191
 30
0.0
 10
184.9962353637058
 20
153.8245672556044
 30
0.0
 10
184.7628315905138
 20
153.1271715459776
 30
0.0
 10
184.7313823027886
 20
152.5914433591847
 30
0.0
 10
184.7183325901528
 20
152.3691458321428
 30
0.0
  0
SPLINE
  5
1E8
330
1F
100
AcDbEntity
  8
0
  6
Continuous
 62
     7
370
    25
100
AcDbSpline
210
0.0
220
0.0
230
1.0
 70
     8
 71
     3
 72
    11
 73
     7
 74
     0
 42
0.00000001
 43
0.00000001
 40
0.0
 40
0.0
 40
0.0
 40
0.0
 40
0.2328716322111486
 40
0.4710265024313228
 40
0.7311421212560311
 40
1.0
 40
1.0
 40
1.0
 40
1.0
 10
185.1327894977301
 20
164.9209406669477
 30
0.0
 10
185.4031862324029
 20
164.1103305551135
 30
0.0
 10
185.9501142845337
 20
162.4707197438381
 30
0.0
 10
186.2513386025173
 20
159.8157059774875
 30
0.0
 10
186.0436868371077
 20
157.0161136624565
 30
0.0
 10
185.4397490053273
 20
155.1705930084426
 30
0.0
 10
185.1327894977301
 20
154.2325823699191
 30
0.0
  0
SPLINE
  5
1E9
330
1F
100
AcDbEntity
  8
0
  6
Continuous
 62
     7
370
    25
100
AcDbSpline
210
0.0
220
0.0
230
1.0
 70
     8
 71
     3
 72
     9
 73
     5
 74
     0
 42
0.00000001
 43
0.00000001
 40
0.0
 40
0.0
 40
0.0
 40
0.0
 40
0.5841917497409231
 40
1.0
 40
1.0
 40
1.0
 40
1.0
 10
184.7183325901528
 20
167.2655192067419
 30
0.0
 10
184.7445005539734
 20
166.7820289618519
 30
0.0
 10
184.789294003782
 20
165.9544064473192
 30
0.0
 10
185.031908421296
 20
165.2244588854355
 30
0.0
 10
185.1327894977301
 20
164.9209406669477
 30
0.0
  0
LINE
  5
1EA
330
1F
100
AcDbEntity
  8
0
  6
Continuous
 62
     7
370
    25
100
AcDbLine
 10
184.7183325902
 20
167.2655192067
 30
0.0
 11
184.7183325902
 21
168.7134717964
 31
0.0
  0
SPLINE
  5
1EB
330
1F
100
AcDbEntity
  8
0
  6
Continuous
 62
     7
370
    25
100
AcDbSpline
210
0.0
220
0.0
230
1.0
 70
     8
 71
     3
 72
     9
 73
     5
 74
     0
 42
0.00000001
 43
0.00000001
 40
0.0
 40
0.0
 40
0.0
 40
0.0
 40
0.5850553834536216
 40
1.0
 40
1.0
 40
1.0
 40
1.0
 10
185.1327894977301
 20
170.9402573474532
 30
0.0
 10
184.9962353637058
 20
170.5417795640182
 30
0.0
 10
184.7628315905139
 20
169.860685440787
 30
0.0
 10
184.7313823027885
 20
169.0499020143972
 30
0.0
 10
184.7183325901528
 20
168.7134717964316
 30
0.0
  0
SPLINE
  5
1EC
330
1F
100
AcDbEntity
  8
0
  6
Continuous
 62
     7
370
    25
100
AcDbSpline
210
0.0
220
0.0
230
1.0
 70
     8
 71
     3
 72
    11
 73
     7
 74
     0
 42
0.00000001
 43
0.00000001
 40
0.0
 40
0.0
 40
0.0
 40
0.0
 40
0.2328716322111493
 40
0.471026502431325
 40
0.731142121256032
 40
0.9999999999999999
 40
0.9999999999999999
 40
0.9999999999999999
 40
0.9999999999999999
 10
185.1327894977301
 20
180.585802289033
 30
0.0
 10
185.4031862324029
 20
179.8542796317163
 30
0.0
 10
185.9501142845337
 20
178.3746380134844
 30
0.0
 10
186.2513386025173
 20
175.9786615789212
 30
0.0
 10
186.0436868371076
 20
173.452212451534
 30
0.0
 10
185.4397490053273
 20
171.7867506552302
 30
0.0
 10
185.1327894977301
 20
170.9402573474532
 30
0.0
  0
SPLINE
  5
1ED
330
1F
100
AcDbEntity
  8
0
  6
Continuous
 62
     7
370
    25
100
AcDbSpline
210
0.0
220
0.0
230
1.0
 70
     8
 71
     3
 72
     9
 73
     5
 74
     0
 42
0.00000001
 43
0.00000001
 40
0.0
 40
0.0
 40
0.0
 40
0.0
 40
0.5841917497409299
 40
1.0
 40
1.0
 40
1.0
 40
1.0
 10
184.7183325901528
 20
182.1564753764287
 30
0.0
 10
184.7445005539734
 20
181.9026334077526
 30
0.0
 10
184.789294003782
 20
181.4681151715935
 30
0.0
 10
185.031908421296
 20
180.8449284636484
 30
0.0
 10
185.1327894977301
 20
180.585802289033
 30
0.0
  0
LINE
  5
1EE
330
1F
100
AcDbEntity
  8
0
  6
Continuous
 62
     7
370
    25
100
AcDbLine
 10
184.7183325902
 20
182.1564753764
 30
0.0
 11
184.7183325902
 21
182.7690654597
 31
0.0
  0
LINE
  5
1EF
330
1F
100
AcDbEntity
  8
0
  6
Continuous
 62
     7
370
    25
100
AcDbLine
 10
186.2183325902
 20
182.6247394954
 30
0.0
 11
186.2183325902
 21
150.2247394954
 31
0.0
  0
LINE
  5
1F0
330
1F
100
AcDbEntity
  8
0
  6
Continuous
 62
     7
370
    25
100
AcDbLine
 10
177.8538756826
 20
154.2325823699
 30
0.0
 11
185.1327894977
 21
154.2325823699
 31
0.0
  0
LINE
  5
1F1
330
1F
100
AcDbEntity
  8
0
  6
Continuous
 62
     7
370
    25
100
AcDbLine
 10
185.1327894977
 20
164.9209406669
 30
0.0
 11
177.8538756826
 21
164.9209406669
 31
0.0
  0
LINE
  5
1F2
330
1F
100
AcDbEntity
  8
0
  6
Continuous
 62
     7
370
    25
100
AcDbLine
 10
178.2683325902
 20
167.2655192067
 30
0.0
 11
184.7183325902
 21
167.2655192067
 31
0.0
  0
LINE
  5
1F3
330
1F
100
AcDbEntity
  8
0
  6
Continuous
 62
     7
370
    25
100
AcDbLine
 10
177.8538756826
 20
170.9402573475
 30
0.0
 11
185.1327894977
 21
170.9402573475
 31
0.0
  0
LINE
  5
1F4
330
1F
100
AcDbEntity
  8
0
  6
Continuous
 62
     7
370
    25
100
AcDbLine
 10
185.1327894977
 20
180.585802289
 30
0.0
 11
177.8538756826
 21
180.585802289
 31
0.0
  0
LINE
  5
1F5
330
1F
100
AcDbEntity
  8
0
  6
Continuous
 62
     7
370
    25
100
AcDbLine
 10
184.7183325902
 20
168.7134717964
 30
0.0
 11
178.2683325902
 21
168.7134717964
 31
0.0
  0
LINE
  5
1F6
330
1F
100
AcDbEntity
  8
0
  6
Continuous
 62
     7
370
    25
100
AcDbLine
 10
193.9683325902
 20
155.8497394954
 30
0.0
 11
193.9683325902
 21
176.9997394954
 31
0.0
  0
LINE
  5
1F7
330
1F
100
AcDbEntity
  8
0
  6
Continuous
 62
     7
370
    25
100
AcDbLine
 10
184.7183325902
 20
152.3691458321
 30
0.0
 11
178.2683325902
 21
152.3691458321
 31
0.0
  0
LINE
  5
1F8
330
1F
100
AcDbEntity
  8
0
  6
Continuous
 62
     7
370
    25
100
AcDbLine
 10
178.2683325902
 20
151.5337833257
 30
0.0
 11
184.7183325902
 21
151.5337833257
 31
0.0
  0
LINE
  5
1F9
330
1F
100
AcDbEntity
  8
0
  6
Continuous
 62
     7
370
    25
100
AcDbLine
 10
178.2683325902
 20
182.1564753764
 30
0.0
 11
184.7183325902
 21
182.1564753764
 31
0.0
  0
LINE
  5
1FA
330
1F
100
AcDbEntity
  8
0
  6
Continuous
 62
     7
370
    25
100
AcDbLine
 10
185.1327894977
 20
150.7598778733
 30
0.0
 11
177.8538756826
 21
150.7598778733
 31
0.0
  0
LINE
  5
1FB
330
1F
100
AcDbEntity
  8
0
  6
Continuous
 62
     7
370
    25
100
AcDbLine
 10
184.7183325902
 20
182.7690654597
 30
0.0
 11
178.2683325902
 21
182.7690654597
 31
0.0
  0
LINE
  5
1FC
330
1F
100
AcDbEntity
  8
0
  6
Continuous
 62
     7
370
    25
100
AcDbLine
 10
177.8538756826
 20
149.7170645179
 30
0.0
 11
185.1327894977
 21
149.7170645179
 31
0.0
  0
SPLINE
  5
1FD
330
1F
100
AcDbEntity
  8
0
  6
Continuous
 62
     7
370
    25
100
AcDbSpline
210
0.0
220
0.0
230
1.0
 70
     8
 71
     3
 72
     9
 73
     5
 74
     0
 42
0.00000001
 43
0.00000001
 40
0.0
 40
0.0
 40
0.0
 40
0.0
 40
0.58419174974093
 40
1.0
 40
1.0
 40
1.0
 40
1.0
 10
88.21833259015273
 20
182.1564753764287
 30
0.0
 10
88.24450055397337
 20
181.9026334077525
 30
0.0
 10
88.28929400378202
 20
181.4681151715935
 30
0.0
 10
88.531908421296
 20
180.8449284636484
 30
0.0
 10
88.6327894977301
 20
180.585802289033
 30
0.0
  0
LINE
  5
1FE
330
1F
100
AcDbEntity
  8
0
  6
Continuous
 62
     7
370
    25
100
AcDbLine
 10
88.2183325902
 20
182.1564753764
 30
0.0
 11
88.2183325902
 21
182.7690654597
 31
0.0
  0
SPLINE
  5
1FF
330
1F
100
AcDbEntity
  8
0
  6
Continuous
 62
     7
370
    25
100
AcDbSpline
210
0.0
220
0.0
230
1.0
 70
     8
 71
     3
 72
     9
 73
     5
 74
     0
 42
0.00000001
 43
0.00000001
 40
0.0
 40
0.0
 40
0.0
 40
0.0
 40
0.5850553834536204
 40
1.0
 40
1.0
 40
1.0
 40
1.0
 10
88.6327894977301
 20
183.1324144729637
 30
0.0
 10
88.49623536370576
 20
183.1419518038433
 30
0.0
 10
88.26283159051384
 20
183.1582533902391
 30
0.0
 10
88.23138230278856
 20
182.883198150642
 30
0.0
 10
88.21833259015273
 20
182.7690654597184
 30
0.0
  0
SPLINE
  5
200
330
1F
100
AcDbEntity
  8
0
  6
Continuous
 62
     7
370
    25
100
AcDbSpline
210
0.0
220
0.0
230
1.0
 70
     8
 71
     3
 72
     9
 73
     5
 74
     0
 42
0.00000001
 43
0.00000001
 40
0.0
 40
0.0
 40
0.0
 40
0.0
 40
0.2910559175694165
 40
1.0
 40
1.0
 40
1.0
 40
1.0
 10
89.53221594550047
 20
182.7387692532803
 30
0.0
 10
89.51092700350179
 20
182.7779162175584
 30
0.0
 10
89.43778318228534
 20
182.9124160229738
 30
0.0
 10
88.96673577188072
 20
183.0411495797073
 30
0.0
 10
88.6327894977301
 20
183.1324144729637
 30
0.0
  0
LINE
  5
201
330
1F
100
AcDbEntity
  8
0
  6
Continuous
 62
     7
370
    25
100
AcDbLine
 10
88.6327894977
 20
149.7170645179
 30
0.0
 11
88.5249792256
 21
149.7395793163
 31
0.0
  0
SPLINE
  5
202
330
1F
100
AcDbEntity
  8
0
  6
Continuous
 62
     7
370
    25
100
AcDbSpline
210
0.0
220
0.0
230
1.0
 70
     8
 71
     3
 72
    11
 73
     7
 74
     0
 42
0.00000001
 43
0.00000001
 40
0.0
 40
0.0
 40
0.0
 40
0.0
 40
0.2328716322111446
 40
0.4710265024313178
 40
0.7311421212560256
 40
0.9999999999999999
 40
0.9999999999999999
 40
0.9999999999999999
 40
0.9999999999999999
 10
88.6327894977301
 20
150.7598778733444
 30
0.0
 10
88.90318623240287
 20
150.6807904188269
 30
0.0
 10
89.45011428453368
 20
150.5208212257834
 30
0.0
 10
89.7513386025173
 20
150.2617838939958
 30
0.0
 10
89.54368683710759
 20
149.9886407063524
 30
0.0
 10
88.93974900532733
 20
149.808581848642
 30
0.0
 10
88.6327894977301
 20
149.7170645178956
 30
0.0
  0
SPLINE
  5
203
330
1F
100
AcDbEntity
  8
0
  6
Continuous
 62
     7
370
    25
100
AcDbSpline
210
0.0
220
0.0
230
1.0
 70
     8
 71
     3
 72
     9
 73
     5
 74
     0
 42
0.00000001
 43
0.00000001
 40
0.0
 40
0.0
 40
0.0
 40
0.0
 40
0.5841917497409196
 40
1.0
 40
1.0
 40
1.0
 40
1.0
 10
88.21833259015273
 20
151.5337833257429
 30
0.0
 10
88.24450055397337
 20
151.3041350495291
 30
0.0
 10
88.28929400378202
 20
150.9110307711553
 30
0.0
 10
88.531908421296
 20
150.8042699172167
 30
0.0
 10
88.6327894977301
 20
150.7598778733444
 30
0.0
  0
LINE
  5
204
330
1F
100
AcDbEntity
  8
0
  6
Continuous
 62
     7
370
    25
100
AcDbLine
 10
88.2183325902
 20
151.5337833257
 30
0.0
 11
88.2183325902
 21
152.3691458321
 31
0.0
  0
SPLINE
  5
205
330
1F
100
AcDbEntity
  8
0
  6
Continuous
 62
     7
370
    25
100
AcDbSpline
210
0.0
220
0.0
230
1.0
 70
     8
 71
     3
 72
     9
 73
     5
 74
     0
 42
0.00000001
 43
0.00000001
 40
0.0
 40
0.0
 40
0.0
 40
0.0
 40
0.5850553834536147
 40
1.0
 40
1.0
 40
1.0
 40
1.0
 10
88.6327894977301
 20
154.2325823699191
 30
0.0
 10
88.49623536370576
 20
153.8245672556044
 30
0.0
 10
88.26283159051384
 20
153.1271715459776
 30
0.0
 10
88.23138230278856
 20
152.5914433591847
 30
0.0
 10
88.21833259015273
 20
152.3691458321428
 30
0.0
  0
SPLINE
  5
206
330
1F
100
AcDbEntity
  8
0
  6
Continuous
 62
     7
370
    25
100
AcDbSpline
210
0.0
220
0.0
230
1.0
 70
     8
 71
     3
 72
    11
 73
     7
 74
     0
 42
0.00000001
 43
0.00000001
 40
0.0
 40
0.0
 40
0.0
 40
0.0
 40
0.2556279644380998
 40
0.5185037642963946
 40
0.7560467972580156
 40
0.9999999999999999
 40
0.9999999999999999
 40
0.9999999999999999
 40
0.9999999999999999
 10
88.6327894977301
 20
164.9209406669477
 30
0.0
 10
88.92641545783208
 20
164.029864374135
 30
0.0
 10
89.52199257296763
 20
162.2224470474967
 30
0.0
 10
89.75388153459427
 20
159.4651847152229
 30
0.0
 10
89.4709110761335
 20
156.7596051459499
 30
0.0
 10
88.91463194256922
 20
155.0823663340994
 30
0.0
 10
88.6327894977301
 20
154.2325823699191
 30
0.0
  0
SPLINE
  5
207
330
1F
100
AcDbEntity
  8
0
  6
Continuous
 62
     7
370
    25
100
AcDbSpline
210
0.0
220
0.0
230
1.0
 70
     8
 71
     3
 72
     9
 73
     5
 74
     0
 42
0.00000001
 43
0.00000001
 40
0.0
 40
0.0
 40
0.0
 40
0.0
 40
0.5841917497409213
 40
1.0
 40
1.0
 40
1.0
 40
1.0
 10
88.21833259015273
 20
167.2655192067419
 30
0.0
 10
88.24450055397337
 20
166.782028961852
 30
0.0
 10
88.28929400378202
 20
165.9544064473192
 30
0.0
 10
88.531908421296
 20
165.2244588854355
 30
0.0
 10
88.6327894977301
 20
164.9209406669477
 30
0.0
  0
LINE
  5
208
330
1F
100
AcDbEntity
  8
0
  6
Continuous
 62
     7
370
    25
100
AcDbLine
 10
88.2183325902
 20
167.2655192067
 30
0.0
 11
88.2183325902
 21
168.7134717964
 31
0.0
  0
SPLINE
  5
209
330
1F
100
AcDbEntity
  8
0
  6
Continuous
 62
     7
370
    25
100
AcDbSpline
210
0.0
220
0.0
230
1.0
 70
     8
 71
     3
 72
     9
 73
     5
 74
     0
 42
0.00000001
 43
0.00000001
 40
0.0
 40
0.0
 40
0.0
 40
0.0
 40
0.5850553834536213
 40
1.0
 40
1.0
 40
1.0
 40
1.0
 10
88.6327894977301
 20
170.9402573474532
 30
0.0
 10
88.49623536370576
 20
170.5417795640182
 30
0.0
 10
88.26283159051384
 20
169.860685440787
 30
0.0
 10
88.23138230278855
 20
169.0499020143971
 30
0.0
 10
88.21833259015273
 20
168.7134717964316
 30
0.0
  0
SPLINE
  5
20A
330
1F
100
AcDbEntity
  8
0
  6
Continuous
 62
     7
370
    25
100
AcDbSpline
210
0.0
220
0.0
230
1.0
 70
     8
 71
     3
 72
    11
 73
     7
 74
     0
 42
0.00000001
 43
0.00000001
 40
0.0
 40
0.0
 40
0.0
 40
0.0
 40
0.2328716322111442
 40
0.4710265024313156
 40
0.7311421212560256
 40
1.0
 40
1.0
 40
1.0
 40
1.0
 10
88.6327894977301
 20
180.585802289033
 30
0.0
 10
88.90318623240287
 20
179.8542796317163
 30
0.0
 10
89.45011428453367
 20
178.3746380134844
 30
0.0
 10
89.75133860251728
 20
175.9786615789213
 30
0.0
 10
89.54368683710759
 20
173.452212451534
 30
0.0
 10
88.93974900532733
 20
171.7867506552302
 30
0.0
 10
88.6327894977301
 20
170.9402573474532
 30
0.0
  0
LINE
  5
20B
330
1F
100
AcDbEntity
  8
0
  6
Continuous
 62
     7
370
    25
100
AcDbLine
 10
89.7183325902
 20
182.6247394954
 30
0.0
 11
89.7183325902
 21
150.2247394954
 31
0.0
  0
SPLINE
  5
20C
330
1F
100
AcDbEntity
  8
0
  6
Continuous
 62
     7
370
    25
100
AcDbSpline
210
0.0
220
0.0
230
1.0
 70
     8
 71
     3
 72
     9
 73
     5
 74
     0
 42
0.00000001
 43
0.00000001
 40
0.0
 40
0.0
 40
0.0
 40
0.0
 40
0.5850553834534132
 40
1.0
 40
1.0
 40
1.0
 40
1.0
 10
81.35387568257484
 20
164.9209406669463
 30
0.0
 10
81.49042981659929
 20
165.3556720965578
 30
0.0
 10
81.72383358979152
 20
166.0987323980379
 30
0.0
 10
81.75528287751688
 20
166.9233489908426
 30
0.0
 10
81.76833259015274
 20
167.2655192067419
 30
0.0
  0
SPLINE
  5
20D
330
1F
100
AcDbEntity
  8
0
  6
Continuous
 62
     7
370
    25
100
AcDbSpline
210
0.0
220
0.0
230
1.0
 70
     8
 71
     3
 72
    11
 73
     7
 74
     0
 42
0.00000001
 43
0.00000001
 40
0.0
 40
0.0
 40
0.0
 40
0.0
 40
0.2379053903768481
 40
0.4814905141303178
 40
0.7366519444348049
 40
1.0
 40
1.0
 40
1.0
 40
1.0
 10
81.35387568257548
 20
154.2325823699188
 30
0.0
 10
81.07829024760244
 20
155.0609741671587
 30
0.0
 10
80.52054007404897
 20
156.7375347180676
 30
0.0
 10
80.23397684939265
 20
159.4152015521746
 30
0.0
 10
80.4588572555906
 20
162.1940881205238
 30
0.0
 10
81.05241237250846
 20
164.002472432189
 30
0.0
 10
81.35387568257484
 20
164.9209406669463
 30
0.0
  0
SPLINE
  5
20E
330
1F
100
AcDbEntity
  8
0
  6
Continuous
 62
     7
370
    25
100
AcDbSpline
210
0.0
220
0.0
230
1.0
 70
     8
 71
     3
 72
     9
 73
     5
 74
     0
 42
0.00000001
 43
0.00000001
 40
0.0
 40
0.0
 40
0.0
 40
0.0
 40
0.5841917497409912
 40
1.0
 40
1.0
 40
1.0
 40
1.0
 10
81.76833259015274
 20
152.3691458321428
 30
0.0
 10
81.74216462633208
 20
152.691586618755
 30
0.0
 10
81.69737117652343
 20
153.2435300290394
 30
0.0
 10
81.45475675900954
 20
153.9421079195824
 30
0.0
 10
81.35387568257548
 20
154.2325823699188
 30
0.0
  0
LINE
  5
20F
330
1F
100
AcDbEntity
  8
0
  6
Continuous
 62
     7
370
    25
100
AcDbLine
 10
81.7683325902
 20
152.3691458321
 30
0.0
 11
81.7683325902
 21
151.5337833257
 31
0.0
  0
SPLINE
  5
210
330
1F
100
AcDbEntity
  8
0
  6
Continuous
 62
     7
370
    25
100
AcDbSpline
210
0.0
220
0.0
230
1.0
 70
     8
 71
     3
 72
     9
 73
     5
 74
     0
 42
0.00000001
 43
0.00000001
 40
0.0
 40
0.0
 40
0.0
 40
0.0
 40
0.5850553834536258
 40
1.0
 40
1.0
 40
1.0
 40
1.0
 10
81.35387568257538
 20
150.7598778733444
 30
0.0
 10
81.49042981659971
 20
150.8325633990384
 30
0.0
 10
81.72383358979162
 20
150.9568003990724
 30
0.0
 10
81.7552828775169
 20
151.3645781452282
 30
0.0
 10
81.76833259015274
 20
151.5337833257429
 30
0.0
  0
SPLINE
  5
211
330
1F
100
AcDbEntity
  8
0
  6
Continuous
 62
     7
370
    25
100
AcDbSpline
210
0.0
220
0.0
230
1.0
 70
     8
 71
     3
 72
    11
 73
     7
 74
     0
 42
0.00000001
 43
0.00000001
 40
0.0
 40
0.0
 40
0.0
 40
0.0
 40
0.2328716322111468
 40
0.4710265024313223
 40
0.7311421212560304
 40
1.0
 40
1.0
 40
1.0
 40
1.0
 10
81.35387568257538
 20
149.7170645178956
 30
0.0
 10
81.0834789479026
 20
149.796151972413
 30
0.0
 10
80.53655089577178
 20
149.9561211654566
 30
0.0
 10
80.23532657778819
 20
150.2151584972441
 30
0.0
 10
80.44297834319788
 20
150.4883016848875
 30
0.0
 10
81.04691617497814
 20
150.668360542598
 30
0.0
 10
81.35387568257538
 20
150.7598778733444
 30
0.0
  0
LINE
  5
212
330
1F
100
AcDbEntity
  8
0
  6
Continuous
 62
     7
370
    25
100
AcDbLine
 10
81.4746796738
 20
149.7214074448
 30
0.0
 11
81.3538756826
 21
149.7170645179
 31
0.0
  0
SPLINE
  5
213
330
1F
100
AcDbEntity
  8
0
  6
Continuous
 62
     7
370
    25
100
AcDbSpline
210
0.0
220
0.0
230
1.0
 70
     8
 71
     3
 72
     9
 73
     5
 74
     0
 42
0.00000001
 43
0.00000001
 40
0.0
 40
0.0
 40
0.0
 40
0.0
 40
0.6137694938147354
 40
1.0
 40
1.0
 40
1.0
 40
1.0
 10
81.35387568257538
 20
183.1324144729637
 30
0.0
 10
81.06876404416691
 20
183.0534831172391
 30
0.0
 10
80.60423845063106
 20
182.9248821415958
 30
0.0
 10
80.48584939434774
 20
182.7905537048504
 30
0.0
 10
80.44012392921263
 20
182.7386719647312
 30
0.0
  0
SPLINE
  5
214
330
1F
100
AcDbEntity
  8
0
  6
Continuous
 62
     7
370
    25
100
AcDbSpline
210
0.0
220
0.0
230
1.0
 70
     8
 71
     3
 72
     9
 73
     5
 74
     0
 42
0.00000001
 43
0.00000001
 40
0.0
 40
0.0
 40
0.0
 40
0.0
 40
0.5841917497409274
 40
1.0
 40
1.0
 40
1.0
 40
1.0
 10
81.76833259015274
 20
182.7690654597184
 30
0.0
 10
81.74216462633208
 20
182.9200827974975
 30
0.0
 10
81.69737117652345
 20
183.1785892516645
 30
0.0
 10
81.45475675900948
 20
183.1459755282367
 30
0.0
 10
81.35387568257538
 20
183.1324144729637
 30
0.0
  0
LINE
  5
215
330
1F
100
AcDbEntity
  8
0
  6
Continuous
 62
     7
370
    25
100
AcDbLine
 10
81.7683325902
 20
182.7690654597
 30
0.0
 11
81.7683325902
 21
182.1564753764
 31
0.0
  0
SPLINE
  5
216
330
1F
100
AcDbEntity
  8
0
  6
Continuous
 62
     7
370
    25
100
AcDbSpline
210
0.0
220
0.0
230
1.0
 70
     8
 71
     3
 72
     9
 73
     5
 74
     0
 42
0.00000001
 43
0.00000001
 40
0.0
 40
0.0
 40
0.0
 40
0.0
 40
0.585055383453621
 40
1.0
 40
1.0
 40
1.0
 40
1.0
 10
81.35387568257538
 20
180.585802289033
 30
0.0
 10
81.49042981659971
 20
180.9478481929503
 30
0.0
 10
81.72383358979162
 20
181.5666714943961
 30
0.0
 10
81.7552828775169
 20
181.9835103410445
 30
0.0
 10
81.76833259015274
 20
182.1564753764287
 30
0.0
  0
SPLINE
  5
217
330
1F
100
AcDbEntity
  8
0
  6
Continuous
 62
     7
370
    25
100
AcDbSpline
210
0.0
220
0.0
230
1.0
 70
     8
 71
     3
 72
    11
 73
     7
 74
     0
 42
0.00000001
 43
0.00000001
 40
0.0
 40
0.0
 40
0.0
 40
0.0
 40
0.2328716322111492
 40
0.471026502431325
 40
0.7311421212560301
 40
0.9999999999999999
 40
0.9999999999999999
 40
0.9999999999999999
 40
0.9999999999999999
 10
81.35387568257538
 20
170.9402573474532
 30
0.0
 10
81.0834789479026
 20
171.67178000477
 30
0.0
 10
80.53655089577177
 20
173.1514216230018
 30
0.0
 10
80.2353265777882
 20
175.5473980575649
 30
0.0
 10
80.44297834319788
 20
178.0738471849522
 30
0.0
 10
81.04691617497814
 20
179.7393089812559
 30
0.0
 10
81.35387568257538
 20
180.585802289033
 30
0.0
  0
SPLINE
  5
218
330
1F
100
AcDbEntity
  8
0
  6
Continuous
 62
     7
370
    25
100
AcDbSpline
210
0.0
220
0.0
230
1.0
 70
     8
 71
     3
 72
     9
 73
     5
 74
     0
 42
0.00000001
 43
0.00000001
 40
0.0
 40
0.0
 40
0.0
 40
0.0
 40
0.5841917497409277
 40
1.0
 40
1.0
 40
1.0
 40
1.0
 10
81.76833259015274
 20
168.7134717964316
 30
0.0
 10
81.74216462633208
 20
169.1869299208228
 30
0.0
 10
81.69737117652343
 20
169.9973797852743
 30
0.0
 10
81.45475675900948
 20
170.6633439523897
 30
0.0
 10
81.35387568257538
 20
170.9402573474532
 30
0.0
  0
LINE
  5
219
330
1F
100
AcDbEntity
  8
0
  6
Continuous
 62
     7
370
    25
100
AcDbLine
 10
81.7683325902
 20
168.7134717964
 30
0.0
 11
81.7683325902
 21
167.2655192067
 31
0.0
  0
LINE
  5
21A
330
1F
100
AcDbEntity
  8
0
  6
Continuous
 62
     7
370
    25
100
AcDbLine
 10
80.2683325902
 20
159.5978322199
 30
0.0
 11
80.2683325902
 21
182.6247394954
 31
0.0
  0
LINE
  5
21B
330
1F
100
AcDbEntity
  8
0
  6
Continuous
 62
     7
370
    25
100
AcDbLine
 10
80.2683325902
 20
150.2247394954
 30
0.0
 11
80.2683325902
 21
159.5978322199
 31
0.0
  0
LINE
  5
21C
330
1F
100
AcDbEntity
  8
0
  6
Continuous
 62
     7
370
    25
100
AcDbLine
 10
72.5183325902
 20
176.9997394954
 30
0.0
 11
72.5183325902
 21
155.8497394954
 31
0.0
  0
LINE
  5
21D
330
1F
100
AcDbEntity
  8
0
  6
Continuous
 62
     7
370
    25
100
AcDbLine
 10
88.6327894977
 20
180.585802289
 30
0.0
 11
81.3538756826
 21
180.585802289
 31
0.0
  0
LINE
  5
21E
330
1F
100
AcDbEntity
  8
0
  6
Continuous
 62
     7
370
    25
100
AcDbLine
 10
81.3538756826
 20
170.9402573475
 30
0.0
 11
88.6327894977
 21
170.9402573475
 31
0.0
  0
LINE
  5
21F
330
1F
100
AcDbEntity
  8
0
  6
Continuous
 62
     7
370
    25
100
AcDbLine
 10
88.2183325902
 20
168.7134717964
 30
0.0
 11
81.7683325902
 21
168.7134717964
 31
0.0
  0
LINE
  5
220
330
1F
100
AcDbEntity
  8
0
  6
Continuous
 62
     7
370
    25
100
AcDbLine
 10
81.7683325902
 20
167.2655192067
 30
0.0
 11
88.2183325902
 21
167.2655192067
 31
0.0
  0
LINE
  5
221
330
1F
100
AcDbEntity
  8
0
  6
Continuous
 62
     7
370
    25
100
AcDbLine
 10
88.6327894977
 20
164.9209406669
 30
0.0
 11
81.3538756826
 21
164.9209406669
 31
0.0
  0
LINE
  5
222
330
1F
100
AcDbEntity
  8
0
  6
Continuous
 62
     7
370
    25
100
AcDbLine
 10
81.3538756826
 20
154.2325823699
 30
0.0
 11
88.6327894977
 21
154.2325823699
 31
0.0
  0
LINE
  5
223
330
1F
100
AcDbEntity
  8
0
  6
Continuous
 62
     7
370
    25
100
AcDbLine
 10
88.2183325902
 20
152.3691458321
 30
0.0
 11
81.7683325902
 21
152.3691458321
 31
0.0
  0
LINE
  5
224
330
1F
100
AcDbEntity
  8
0
  6
Continuous
 62
     7
370
    25
100
AcDbLine
 10
81.7683325902
 20
151.5337833257
 30
0.0
 11
88.2183325902
 21
151.5337833257
 31
0.0
  0
LINE
  5
225
330
1F
100
AcDbEntity
  8
0
  6
Continuous
 62
     7
370
    25
100
AcDbLine
 10
81.7683325902
 20
182.1564753764
 30
0.0
 11
88.2183325902
 21
182.1564753764
 31
0.0
  0
LINE
  5
226
330
1F
100
AcDbEntity
  8
0
  6
Continuous
 62
     7
370
    25
100
AcDbLine
 10
88.6327894977
 20
150.7598778733
 30
0.0
 11
81.3538756826
 21
150.7598778733
 31
0.0
  0
LINE
  5
227
330
1F
100
AcDbEntity
  8
0
  6
Continuous
 62
     7
370
    25
100
AcDbLine
 10
88.2183325902
 20
182.7690654597
 30
0.0
 11
81.7683325902
 21
182.7690654597
 31
0.0
  0
LINE
  5
228
330
1F
100
AcDbEntity
  8
0
  6
Continuous
 62
     7
370
    25
100
AcDbLine
 10
81.3538756826
 20
149.7170645179
 30
0.0
 11
88.6327894977
 21
149.7170645179
 31
0.0
  0
SPLINE
  5
229
330
1F
100
AcDbEntity
  8
0
  6
Continuous
 62
     7
370
    25
100
AcDbSpline
210
0.0
220
0.0
230
1.0
 70
     8
 71
     3
 72
    12
 73
     8
 74
     0
 42
0.00000001
 43
0.00000001
 40
0.0
 40
0.0
 40
0.0
 40
0.0
 40
0.1961211259854505
 40
0.3920122454189702
 40
0.7062105609801961
 40
0.7780407016783263
 40
1.0
 40
1.0
 40
1.0
 40
1.0
 10
151.1003729127671
 20
171.8844643724172
 30
0.0
 10
151.4151947733464
 20
171.2133556296199
 30
0.0
 10
152.044469278337
 20
169.871925205629
 30
0.0
 10
152.6054600556756
 20
167.2275400197774
 30
0.0
 10
152.4876863487053
 20
164.972597671304
 30
0.0
 10
151.9276752501805
 20
162.7336297661426
 30
0.0
 10
151.4564134282683
 20
161.7261615660977
 30
0.0
 10
151.1003729127671
 20
160.9650146184422
 30
0.0
  0
SPLINE
  5
22A
330
1F
100
AcDbEntity
  8
0
  6
Continuous
 62
     7
370
    25
100
AcDbSpline
210
0.0
220
0.0
230
1.0
 70
     8
 71
     3
 72
    12
 73
     8
 74
     0
 42
0.00000001
 43
0.00000001
 40
0.0
 40
0.0
 40
0.0
 40
0.0
 40
0.1961211259854504
 40
0.3920122454189701
 40
0.706210560980196
 40
0.7780407016783261
 40
1.0
 40
1.0
 40
1.0
 40
1.0
 10
114.1362922675384
 20
171.8844643724172
 30
0.0
 10
113.8214704069591
 20
171.2133556296199
 30
0.0
 10
113.1921959019685
 20
169.8719252056289
 30
0.0
 10
112.6312051246298
 20
167.2275400197774
 30
0.0
 10
112.7489788316002
 20
164.972597671304
 30
0.0
 10
113.308989930125
 20
162.7336297661426
 30
0.0
 10
113.7802517520372
 20
161.7261615660977
 30
0.0
 10
114.1362922675384
 20
160.9650146184422
 30
0.0
  0
SPLINE
  5
22B
330
1F
100
AcDbEntity
  8
0
  6
Continuous
 62
     7
370
    25
100
AcDbSpline
210
0.0
220
0.0
230
1.0
 70
     8
 71
     3
 72
    10
 73
     6
 74
     0
 42
0.00000001
 43
0.00000001
 40
0.0
 40
0.0
 40
0.0
 40
0.0
 40
0.4174866340693339
 40
0.8391571006300924
 40
0.9999999999999999
 40
0.9999999999999999
 40
0.9999999999999999
 40
0.9999999999999999
 10
120.2316414418546
 20
175.7800915991893
 30
0.0
 10
119.4341819308791
 20
175.1418220164211
 30
0.0
 10
117.831271187181
 20
173.8588864472618
 30
0.0
 10
115.8046474455559
 20
172.5984910314586
 30
0.0
 10
114.4972807955663
 20
172.0389611102919
 30
0.0
 10
114.1362922675384
 20
171.8844643724172
 30
0.0
  0
SPLINE
  5
22C
330
1F
100
AcDbEntity
  8
0
  6
Continuous
 62
     7
370
    25
100
AcDbSpline
210
0.0
220
0.0
230
1.0
 70
     8
 71
     3
 72
     9
 73
     5
 74
     0
 42
0.00000001
 43
0.00000001
 40
0.0
 40
0.0
 40
0.0
 40
0.0
 40
0.4100126263040273
 40
1.0
 40
1.0
 40
1.0
 40
1.0
 10
151.1003729127671
 20
160.9650146184422
 30
0.0
 10
150.2014418101201
 20
160.5449482963685
 30
0.0
 10
148.008994443925
 20
159.5204278423026
 30
0.0
 10
146.1196896889499
 20
157.9788807261547
 30
0.0
 10
145.0050237384508
 20
157.06938739167
 30
0.0
  0
LINE
  5
22D
330
1F
100
AcDbEntity
  8
0
  6
Continuous
 62
     7
370
    25
100
AcDbLine
 10
144.7437713988
 20
151.4247394954
 30
0.0
 11
140.5183325902
 21
151.4247394954
 31
0.0
  0
LWPOLYLINE
  5
22E
330
1F
100
AcDbEntity
  8
0
  6
Continuous
 62
     7
370
    25
100
AcDbPolyline
 90
        9
 70
   128
 43
0.0
 10
151.1003729128
 20
160.9650146184
 10
150.6585209288
 20
158.9413396177
 10
150.0842212779
 20
157.0852387213
 10
149.390334124
 20
155.4382751827
 10
148.5923975273
 20
154.037329089
 10
147.7082795041
 20
152.9137715136
 10
146.7577779122
 20
152.0927620307
 10
145.7621771216
 20
151.5926853226
 10
144.7437713988
 20
151.4247394954
  0
LINE
  5
22F
330
1F
100
AcDbEntity
  8
0
  6
Continuous
 62
     7
370
    25
100
AcDbLine
 10
120.4928937816
 20
151.4247394954
 30
0.0
 11
124.7183325902
 21
151.4247394954
 31
0.0
  0
LWPOLYLINE
  5
230
330
1F
100
AcDbEntity
  8
0
  6
Continuous
 62
     7
370
    25
100
AcDbPolyline
 90
        9
 70
   128
 43
0.0
 10
114.1362922675
 20
160.9650146184
 10
114.5781442515
 20
158.9413396177
 10
115.1524439024
 20
157.0852387213
 10
115.8463310563
 20
155.4382751827
 10
116.644267653
 20
154.037329089
 10
117.5283856762
 20
152.9137715136
 10
118.4788872681
 20
152.0927620307
 10
119.4744880587
 20
151.5926853226
 10
120.4928937816
 20
151.4247394954
  0
LINE
  5
231
330
1F
100
AcDbEntity
  8
0
  6
Continuous
 62
     7
370
    25
100
AcDbLine
 10
144.7437713988
 20
181.4247394954
 30
0.0
 11
135.1891955742
 21
181.4247394954
 31
0.0
  0
LWPOLYLINE
  5
232
330
1F
100
AcDbEntity
  8
0
  6
Continuous
 62
     7
370
    25
100
AcDbPolyline
 90
        9
 70
   128
 43
0.0
 10
144.7437713988
 20
181.4247394954
 10
145.7621771216
 20
181.2567936682
 10
146.7577779122
 20
180.7567169601
 10
147.7082795041
 20
179.9357074772
 10
148.5923975273
 20
178.8121499019
 10
149.390334124
 20
177.4112038082
 10
150.0842212779
 20
175.7642402695
 10
150.6585209288
 20
173.9081393731
 10
151.1003729128
 20
171.8844643724
  0
LWPOLYLINE
  5
233
330
1F
100
AcDbEntity
  8
0
  6
Continuous
 62
     7
370
    25
100
AcDbPolyline
 90
        9
 70
   128
 43
0.0
 10
120.4928937816
 20
181.4247394954
 10
119.4744880587
 20
181.2567936682
 10
118.4788872681
 20
180.7567169601
 10
117.5283856762
 20
179.9357074772
 10
116.644267653
 20
178.8121499019
 10
115.8463310563
 20
177.4112038082
 10
115.1524439024
 20
175.7642402695
 10
114.5781442515
 20
173.9081393731
 10
114.1362922675
 20
171.8844643724
  0
LINE
  5
234
330
1F
100
AcDbEntity
  8
0
  6
Continuous
 62
     7
370
    25
100
AcDbLine
 10
120.4928937816
 20
181.4247394954
 30
0.0
 11
129.5725894314
 21
181.4247394954
 31
0.0
  0
LINE
  5
235
330
1F
100
AcDbEntity
  8
0
  6
Continuous
 62
     7
370
    25
100
AcDbLine
 10
135.1891955742
 20
181.4247394954
 30
0.0
 11
134.7979061406
 21
181.4247394954
 31
0.0
  0
LINE
  5
236
330
1F
100
AcDbEntity
  8
0
  6
Continuous
 62
     7
370
    25
100
AcDbLine
 10
153.3073015908
 20
181.4247394954
 30
0.0
 11
144.7437713988
 21
181.4247394954
 31
0.0
  0
LWPOLYLINE
  5
237
330
1F
100
AcDbEntity
  8
0
  6
Continuous
 62
     7
370
    25
100
AcDbPolyline
 90
       21
 70
   128
 43
0.0
 10
153.3073015908
 20
181.4247394954
 10
154.3749256278
 20
181.2400646044
 10
155.4162612178
 20
180.6905872399
 10
156.4056672225
 20
179.7898373583
 10
157.3187811825
 20
178.5599944111
 10
158.1331192017
 20
177.0313412132
 10
158.8286295752
 20
175.2415182798
 10
159.3881865296
 20
173.2345969915
 10
159.7980119154
 20
171.0599944111
 10
160.0480144717
 20
168.771256471
 10
160.1320383056
 20
166.4247394954
 10
160.0480144717
 20
164.0782225198
 10
159.7980119154
 20
161.7894845798
 10
159.3881865296
 20
159.6148819993
 10
158.8286295752
 20
157.607960711
 10
158.1331192017
 20
155.8181377776
 10
157.3187811825
 20
154.2894845798
 10
156.4056672225
 20
153.0596416326
 10
155.4162612178
 20
152.158891751
 10
154.3749256278
 20
151.6094143865
 10
153.3073015908
 20
151.4247394954
  0
LINE
  5
238
330
1F
100
AcDbEntity
  8
0
  6
Continuous
 62
     7
370
    25
100
AcDbLine
 10
153.3073015908
 20
151.4247394954
 30
0.0
 11
144.7437713988
 21
151.4247394954
 31
0.0
  0
LINE
  5
239
330
1F
100
AcDbEntity
  8
0
  6
Continuous
 62
     7
370
    25
100
AcDbLine
 10
111.9293635895
 20
151.4247394954
 30
0.0
 11
120.4928937816
 21
151.4247394954
 31
0.0
  0
LWPOLYLINE
  5
23A
330
1F
100
AcDbEntity
  8
0
  6
Continuous
 62
     7
370
    25
100
AcDbPolyline
 90
       21
 70
   128
 43
0.0
 10
111.9293635895
 20
181.4247394954
 10
110.8617395525
 20
181.2400646044
 10
109.8204039625
 20
180.6905872399
 10
108.8309979578
 20
179.7898373583
 10
107.9178839978
 20
178.5599944111
 10
107.1035459787
 20
177.0313412132
 10
106.4080356051
 20
175.2415182798
 10
105.8484786507
 20
173.2345969915
 10
105.4386532649
 20
171.0599944111
 10
105.1886507087
 20
168.771256471
 10
105.1046268747
 20
166.4247394954
 10
105.1886507087
 20
164.0782225198
 10
105.4386532649
 20
161.7894845798
 10
105.8484786507
 20
159.6148819993
 10
106.4080356051
 20
157.607960711
 10
107.1035459787
 20
155.8181377776
 10
107.9178839978
 20
154.2894845798
 10
108.8309979578
 20
153.0596416326
 10
109.8204039625
 20
152.158891751
 10
110.8617395525
 20
151.6094143865
 10
111.9293635895
 20
151.4247394954
  0
LINE
  5
23B
330
1F
100
AcDbEntity
  8
0
  6
Continuous
 62
     7
370
    25
100
AcDbLine
 10
111.9293635895
 20
181.4247394954
 30
0.0
 11
120.4928937816
 21
181.4247394954
 31
0.0
  0
LINE
  5
23C
330
1F
100
AcDbEntity
  8
0
  6
Continuous
 62
     7
370
    25
100
AcDbLine
 10
96.0049779216
 20
151.4247394954
 30
0.0
 11
111.9293635895
 21
151.4247394954
 31
0.0
  0
LINE
  5
23D
330
1F
100
AcDbEntity
  8
0
  6
Continuous
 62
     7
370
    25
100
AcDbLine
 10
96.0049779216
 20
181.4247394954
 30
0.0
 11
96.0049779216
 21
151.4247394954
 31
0.0
  0
LINE
  5
23E
330
1F
100
AcDbEntity
  8
0
  6
Continuous
 62
     7
370
    25
100
AcDbLine
 10
96.0049779216
 20
181.4247394954
 30
0.0
 11
111.9293635895
 21
181.4247394954
 31
0.0
  0
LINE
  5
23F
330
1F
100
AcDbEntity
  8
0
  6
Continuous
 62
     7
370
    25
100
AcDbLine
 10
169.2316872587
 20
181.4247394954
 30
0.0
 11
153.3073015908
 21
181.4247394954
 31
0.0
  0
LINE
  5
240
330
1F
100
AcDbEntity
  8
0
  6
Continuous
 62
     7
370
    25
100
AcDbLine
 10
169.2316872587
 20
181.4247394954
 30
0.0
 11
169.2316872587
 21
151.4247394954
 31
0.0
  0
LINE
  5
241
330
1F
100
AcDbEntity
  8
0
  6
Continuous
 62
     7
370
    25
100
AcDbLine
 10
169.2316872587
 20
151.4247394954
 30
0.0
 11
153.3073015908
 21
151.4247394954
 31
0.0
  0
LINE
  5
242
330
1F
100
AcDbEntity
  8
0
  6
Continuous
 62
     7
370
    25
100
AcDbLine
 10
173.8183325902
 20
181.4247394954
 30
0.0
 11
169.2316872587
 21
181.4247394954
 31
0.0
  0
LINE
  5
243
330
1F
100
AcDbEntity
  8
0
  6
Continuous
 62
     7
370
    25
100
AcDbLine
 10
173.8183325902
 20
151.4247394954
 30
0.0
 11
169.2316872587
 21
151.4247394954
 31
0.0
  0
LINE
  5
244
330
1F
100
AcDbEntity
  8
0
  6
Continuous
 62
     7
370
    25
100
AcDbLine
 10
173.8183325902
 20
151.4247394954
 30
0.0
 11
173.8183325902
 21
181.4247394954
 31
0.0
  0
LINE
  5
245
330
1F
100
AcDbEntity
  8
0
  6
Continuous
 62
     7
370
    25
100
AcDbLine
 10
91.4183325902
 20
181.4247394954
 30
0.0
 11
96.0049779216
 21
181.4247394954
 31
0.0
  0
LINE
  5
246
330
1F
100
AcDbEntity
  8
0
  6
Continuous
 62
     7
370
    25
100
AcDbLine
 10
91.4183325902
 20
151.4247394954
 30
0.0
 11
96.0049779216
 21
151.4247394954
 31
0.0
  0
LINE
  5
247
330
1F
100
AcDbEntity
  8
0
  6
Continuous
 62
     7
370
    25
100
AcDbLine
 10
91.4183325902
 20
151.4247394954
 30
0.0
 11
91.4183325902
 21
181.4247394954
 31
0.0
  0
SPLINE
  5
248
330
1F
100
AcDbEntity
  8
0
  6
Continuous
 62
     7
370
    25
100
AcDbSpline
210
0.0
220
0.0
230
1.0
 70
     8
 71
     3
 72
    14
 73
    10
 74
     0
 42
0.00000001
 43
0.00000001
 40
0.0
 40
0.0
 40
0.0
 40
0.0
 40
0.0918965940499282
 40
0.2423760614181678
 40
0.3954689234315533
 40
0.5459483907997938
 40
0.6951332188673912
 40
0.8469312509612343
 40
1.0
 40
1.0
 40
1.0
 40
1.0
 10
176.7683325901528
 20
164.1458469965496
 30
0.0
 10
176.7558022377197
 20
164.9036903785481
 30
0.0
 10
176.7227535975354
 20
166.9024923580951
 30
0.0
 10
176.6698638905174
 20
170.224668550738
 30
0.0
 10
176.6043514504237
 20
173.7570295821163
 30
0.0
 10
176.5435059494871
 20
176.789011306452
 30
0.0
 10
176.4828382220371
 20
179.0960186364381
 30
0.0
 10
176.4174273163794
 20
180.6305661395217
 30
0.0
 10
176.3764211409829
 20
180.8264096113682
 30
0.0
 10
176.3558325942495
 20
180.9247394954296
 30
0.0
  0
SPLINE
  5
249
330
1F
100
AcDbEntity
  8
0
  6
Continuous
 62
     7
370
    25
100
AcDbSpline
210
0.0
220
0.0
230
1.0
 70
     8
 71
     3
 72
    20
 73
    16
 74
     0
 42
0.00000001
 43
0.00000001
 40
0.0
 40
0.0
 40
0.0
 40
0.0
 40
0.0086573631120547
 40
0.0907937671802662
 40
0.1743566438584473
 40
0.2564930479266592
 40
0.3386294519948714
 40
0.4221923286730525
 40
0.5043287327412647
 40
0.5864651368094769
 40
0.6700280134876573
 40
0.75216441755587
 40
0.8335941669649458
 40
0.9164502849382267
 40
1.0
 40
1.0
 40
1.0
 40
1.0
 10
175.6123048995953
 20
151.9762186969358
 30
0.0
 10
175.6101460897504
 20
151.9575854598503
 30
0.0
 10
175.5875056534062
 20
151.7621700928535
 30
0.0
 10
175.5448989713261
 20
152.3205771692671
 30
0.0
 10
175.4793408085492
 20
153.7056047279248
 30
0.0
 10
175.4183397333908
 20
156.0597816592011
 30
0.0
 10
175.357295575412
 20
159.0893027358843
 30
0.0
 10
175.2918681575452
 20
162.6292975644425
 30
0.0
 10
175.2308325597362
 20
166.4245912557128
 30
0.0
 10
175.1697971702056
 20
170.2207795342774
 30
0.0
 10
175.1043691202693
 20
173.7580595281468
 30
0.0
 10
175.0435012987954
 20
176.788740225338
 30
0.0
 10
174.9828394815496
 20
179.0960920513304
 30
0.0
 10
174.9174269961291
 20
180.6305474726598
 30
0.0
 10
174.8764210339365
 20
180.8264033718148
 30
0.0
 10
174.8558325942495
 20
180.9247394954296
 30
0.0
  0
LINE
  5
24A
330
1F
100
AcDbEntity
  8
0
  6
Continuous
 62
     7
370
    25
100
AcDbLine
 10
174.1123048996
 20
151.9762186969
 30
0.0
 11
174.1058325942
 21
151.9247394954
 31
0.0
  0
SPLINE
  5
24B
330
1F
100
AcDbEntity
  8
0
  6
Continuous
 62
     7
370
    25
100
AcDbSpline
210
0.0
220
0.0
230
1.0
 70
     8
 71
     3
 72
    20
 73
    16
 74
     0
 42
0.00000001
 43
0.00000001
 40
0.0
 40
0.0
 40
0.0
 40
0.0
 40
0.0835700848942301
 40
0.1686020731605481
 40
0.2521824120265455
 40
0.3213733646032418
 40
0.3919050975709867
 40
0.4621151944062689
 40
0.5046504537112819
 40
0.5882307925772794
 40
0.673262780843598
 40
0.756843119709595
 40
0.8404234585755923
 40
0.925455446841911
 40
0.9999999999999999
 40
0.9999999999999999
 40
0.9999999999999999
 40
0.9999999999999999
 10
176.0745750586968
 20
152.7366948725724
 30
0.0
 10
176.0543475829397
 20
152.8265200596818
 30
0.0
 10
176.0135387893174
 20
153.0077417586647
 30
0.0
 10
175.9481422908611
 20
154.4448225517013
 30
0.0
 10
175.8904812479636
 20
156.5085795161077
 30
0.0
 10
175.8367775623102
 20
158.9950746675781
 30
0.0
 10
175.783034409029
 20
161.6801733130654
 30
0.0
 10
175.7365411612629
 20
164.2238929952883
 30
0.0
 10
175.6899291379916
 20
167.0054445186881
 30
0.0
 10
175.6384506542516
 20
170.0091146863002
 30
0.0
 10
175.5731441586897
 20
173.3470057165858
 30
0.0
 10
175.5120726082681
 20
176.2174643085432
 30
0.0
 10
175.4510613082527
 20
178.4013168676268
 30
0.0
 10
175.3879183795517
 20
179.8017933071988
 30
0.0
 10
175.3492736137757
 20
179.9798286188161
 30
0.0
 10
175.3312211057381
 20
180.062995998134
 30
0.0
  0
SPLINE
  5
24C
330
1F
100
AcDbEntity
  8
0
  6
Continuous
 62
     7
370
    25
100
AcDbSpline
210
0.0
220
0.0
230
1.0
 70
     8
 71
     3
 72
    21
 73
    17
 74
     0
 42
0.00000001
 43
0.00000001
 40
0.0
 40
0.0
 40
0.0
 40
0.0
 40
0.0744253596644122
 40
0.1594654728433944
 40
0.2430537979151432
 40
0.3266421229868914
 40
0.4116822361658743
 40
0.4952705612376231
 40
0.5788588863093712
 40
0.6638989994883541
 40
0.7474873245601027
 40
0.8166848884187203
 40
0.887223360781626
 40
0.9574401662793351
 40
0.9999794898814968
 40
1.0
 40
1.0
 40
1.0
 40
1.0
 10
176.4428512840248
 20
152.7871797329699
 30
0.0
 10
176.424829064436
 20
152.8702526539327
 30
0.0
 10
176.386214245759
 20
153.0482465888168
 30
0.0
 10
176.3231055628646
 20
154.4481927843484
 30
0.0
 10
176.2620857940076
 20
156.6320627427386
 30
0.0
 10
176.2010467030915
 20
159.502248702011
 30
0.0
 10
176.1356175024764
 20
162.8412245505553
 30
0.0
 10
176.0745841681632
 20
166.4247685069783
 30
0.0
 10
176.0135413233338
 20
170.0081373863461
 30
0.0
 10
175.9481409846305
 20
173.3476445476414
 30
0.0
 10
175.8904861093976
 20
176.0522527288073
 30
0.0
 10
175.8367626521622
 20
178.0439281605256
 30
0.0
 10
175.783091538375
 20
179.4012827881637
 30
0.0
 10
175.7363643859076
 20
179.9462136117582
 30
0.0
 10
175.7099944076557
 20
180.1910437296754
 30
0.0
 10
175.6995725474596
 20
180.1127652758261
 30
0.0
 10
175.6995675250342
 20
180.1127275524559
 30
0.0
  0
SPLINE
  5
24D
330
1F
100
AcDbEntity
  8
0
  6
Continuous
 62
     7
370
    25
100
AcDbSpline
210
0.0
220
0.0
230
1.0
 70
     8
 71
     3
 72
    18
 73
    14
 74
     0
 42
0.00000001
 43
0.00000001
 40
0.0
 40
0.0
 40
0.0
 40
0.0
 40
0.062508350000668
 40
0.164864942035536
 40
0.2689991730679212
 40
0.3713557651027891
 40
0.472831736246613
 40
0.5760852167264459
 40
0.6802030526311144
 40
0.7825596446659819
 40
0.8866938756983671
 40
0.9890504677332341
 40
1.0
 40
1.0
 40
1.0
 40
1.0
 10
176.7683325901527
 20
154.7711767200753
 30
0.0
 10
176.7558022353871
 20
155.2137401189584
 30
0.0
 10
176.7227535912924
 20
156.3809951993296
 30
0.0
 10
176.6698639115264
 20
159.1120969669186
 30
0.0
 10
176.6043513525912
 20
162.6232122970431
 30
0.0
 10
176.5435062875108
 20
166.4155479936438
 30
0.0
 10
176.4828369477781
 20
170.1871648224489
 30
0.0
 10
176.417432173672
 20
173.7317295725397
 30
0.0
 10
176.3561627002865
 20
176.7764311927437
 30
0.0
 10
176.2948272270573
 20
179.1437879844924
 30
0.0
 10
176.2292655702045
 20
180.5290884319131
 30
0.0
 10
176.1866276190584
 20
181.0873220191657
 30
0.0
 10
176.1639547774479
 20
180.8914234601596
 30
0.0
 10
176.16176374839
 20
180.8724924658636
 30
0.0
  0
LINE
  5
24E
330
1F
100
AcDbEntity
  8
0
  6
Continuous
 62
     7
370
    25
100
AcDbLine
 10
90.2870825881
 20
152.7366383079
 30
0.0
 11
90.6620825881
 21
152.7366383079
 31
0.0
  0
LINE
  5
24F
330
1F
100
AcDbEntity
  8
0
  6
Continuous
 62
     7
370
    25
100
AcDbLine
 10
89.8183325902
 20
151.9247394954
 30
0.0
 11
90.2870825881
 21
152.7366383079
 31
0.0
  0
SPLINE
  5
250
330
1F
100
AcDbEntity
  8
0
  6
Continuous
 62
     7
370
    25
100
AcDbSpline
210
0.0
220
0.0
230
1.0
 70
     8
 71
     3
 72
    18
 73
    14
 74
     0
 42
0.00000001
 43
0.00000001
 40
0.0
 40
0.0
 40
0.0
 40
0.0
 40
0.0569447277585363
 40
0.1507614687560893
 40
0.2445782097536427
 40
0.3400242771492498
 40
0.4338410181468031
 40
0.5276577591443564
 40
0.6231038265399629
 40
0.7169205675375168
 40
0.809930162935223
 40
0.9045689658892273
 40
1.0
 40
1.0
 40
1.0
 40
1.0
 10
89.71833259015273
 20
153.0041919604292
 30
0.0
 10
89.73128008617631
 20
153.266464625242
 30
0.0
 10
89.76555865056787
 20
153.9608328963383
 30
0.0
 10
89.81834548985616
 20
156.0806435920625
 30
0.0
 10
89.87936412738578
 20
159.0836014071308
 30
0.0
 10
89.94479847301376
 20
162.6308070779378
 30
0.0
 10
90.00583223501128
 20
166.4241899431174
 30
0.0
 10
90.0668681154704
 20
170.2208892104499
 30
0.0
 10
90.13229603213038
 20
173.758030482104
 30
0.0
 10
90.19316388885483
 20
176.7887478702372
 30
0.0
 10
90.2538256967668
 20
179.0960899809189
 30
0.0
 10
90.31923818468218
 20
180.6305479990937
 30
0.0
 10
90.36024414653798
 20
180.8264035477797
 30
0.0
 10
90.380832586056
 20
180.9247394954296
 30
0.0
  0
LINE
  5
251
330
1F
100
AcDbEntity
  8
0
  6
Continuous
 62
     7
370
    25
100
AcDbLine
 10
91.1243602807
 20
151.9762186969
 30
0.0
 11
91.1308325861
 21
151.9247394954
 31
0.0
  0
LINE
  5
252
330
1F
100
AcDbEntity
  8
0
  6
Continuous
 62
     7
370
    25
100
AcDbLine
 10
90.6620825881
 20
152.7366383079
 30
0.0
 11
91.1308325861
 21
151.9247394954
 31
0.0
  0
LINE
  5
253
330
1F
100
AcDbEntity
  8
0
  6
Continuous
 62
     7
370
    25
100
AcDbLine
 10
175.4183325902
 20
151.9247394954
 30
0.0
 11
174.9495825922
 21
152.7366383079
 31
0.0
  0
LINE
  5
254
330
1F
100
AcDbEntity
  8
0
  6
Continuous
 62
     7
370
    25
100
AcDbLine
 10
174.9495825922
 20
152.7366383079
 30
0.0
 11
174.5745825922
 21
152.7366383079
 31
0.0
  0
LINE
  5
255
330
1F
100
AcDbEntity
  8
0
  6
Continuous
 62
     7
370
    25
100
AcDbLine
 10
174.5745825922
 20
152.7366383079
 30
0.0
 11
174.1058325942
 21
151.9247394954
 31
0.0
  0
SPLINE
  5
256
330
1F
100
AcDbEntity
  8
0
  6
Continuous
 62
     7
370
    25
100
AcDbSpline
210
0.0
220
0.0
230
1.0
 70
     8
 71
     3
 72
    11
 73
     7
 74
     0
 42
0.00000001
 43
0.00000001
 40
0.0
 40
0.0
 40
0.0
 40
0.0
 40
0.0338029119390439
 40
0.3659139339879695
 40
0.7037931638778603
 40
1.0
 40
1.0
 40
1.0
 40
1.0
 10
89.71833259015273
 20
175.816973925411
 30
0.0
 10
89.72041722898051
 20
175.9134394459625
 30
0.0
 10
89.74298328470358
 20
176.9576713210992
 30
0.0
 10
89.7855033254967
 20
178.3617014320357
 30
0.0
 10
89.8487685108732
 20
179.8103471142232
 30
0.0
 10
89.8873984790686
 20
179.9825521654643
 30
0.0
 10
89.90544407456736
 20
180.062995998134
 30
0.0
  0
ARC
  5
257
330
1F
100
AcDbEntity
  8
0
  6
Continuous
 62
     7
370
    25
100
AcDbCircle
 10
132.6183325902
 20
166.4247394954
 30
0.0
 40
28.25
100
AcDbArc
 50
32.0712506327
 51
90.0
  0
ARC
  5
258
330
1F
100
AcDbEntity
  8
0
  6
Continuous
 62
     7
370
    25
100
AcDbCircle
 10
132.6183325902
 20
166.4247394954
 30
0.0
 40
28.25000000000001
100
AcDbArc
 50
286.2390790814
 51
327.9287493673
  0
ARC
  5
259
330
1F
100
AcDbEntity
  8
0
  6
Continuous
 62
     7
370
    25
100
AcDbCircle
 10
132.6183325902
 20
166.4247394954
 30
0.0
 40
28.25
100
AcDbArc
 50
212.0712506327
 51
253.7609209186
  0
ARC
  5
25A
330
1F
100
AcDbEntity
  8
0
  6
Continuous
 62
     7
370
    25
100
AcDbCircle
 10
132.6183325902
 20
166.4247394954
 30
0.0
 40
28.25000000000001
100
AcDbArc
 50
90.0
 51
147.9287493673
  0
ARC
  5
25B
330
1F
100
AcDbEntity
  8
0
  6
Continuous
 62
     7
370
    25
100
AcDbCircle
 10
132.6561577403
 20
-46.9839153982
 30
0.0
 40
11.51156068270991
100
AcDbArc
 50
133.5946937535
 51
356.3477284925
  0
ARC
  5
25C
330
1F
100
AcDbEntity
  8
0
  6
Continuous
 62
     7
370
    25
100
AcDbCircle
 10
132.7976272462
 20
-46.9932499636
 30
0.0
 40
11.36978388018192
100
AcDbArc
 50
356.3492597238
 51
47.2301808293
  0
LINE
  5
25D
330
1F
100
AcDbEntity
  8
0
  6
Continuous
 62
     7
370
    25
100
AcDbLine
 10
144.1443387735
 20
-49.634654475
 30
0.0
 11
144.1683325902
 21
-48.8986243966
 31
0.0
  0
ARC
  5
25E
330
1F
100
AcDbEntity
  8
0
  6
Continuous
 62
     7
370
    25
100
AcDbCircle
 10
132.6212470742
 20
-48.7991376423
 30
0.0
 40
11.55334283614262
100
AcDbArc
 50
180.4933846131
 51
355.852852733
  0
ARC
  5
25F
330
1F
100
AcDbEntity
  8
0
  6
Continuous
 62
     7
370
    25
100
AcDbCircle
 10
132.6537868144
 20
-46.9708185414
 30
0.0
 40
10.76480237216178
100
AcDbArc
 50
137.4906209186
 51
356.2790753317
  0
ARC
  5
260
330
1F
100
AcDbEntity
  8
0
  6
Continuous
 62
     7
370
    25
100
AcDbCircle
 10
132.8000994343
 20
-46.988272649
 30
0.0
 40
10.61766842219265
100
AcDbArc
 50
356.3218251123
 51
43.3708999106
  0
ARC
  5
261
330
1F
100
AcDbEntity
  8
0
  6
Continuous
 62
     7
370
    25
100
AcDbCircle
 10
132.6183325902
 20
-49.2430411689
 30
0.0
 40
11.11119944789602
100
AcDbArc
 50
251.3894551427
 51
288.6105448573
  0
ARC
  5
262
330
1F
100
AcDbEntity
  8
0
  6
Continuous
 62
     7
370
    25
100
AcDbCircle
 10
132.6183325902
 20
166.4247394954
 30
0.0
 40
9.725000000000025
100
AcDbArc
 50
182.3675813795
 51
215.6748758017
  0
ARC
  5
263
330
1F
100
AcDbEntity
  8
0
  6
Continuous
 62
     7
370
    25
100
AcDbCircle
 10
132.6183325902
 20
166.4247394954
 30
0.0
 40
9.725000000000035
100
AcDbArc
 50
324.3251241983
 51
182.3675813795
  0
ARC
  5
264
330
1F
100
AcDbEntity
  8
0
  6
Continuous
 62
     7
370
    25
100
AcDbCircle
 10
132.6183325902
 20
166.4247394954
 30
0.0
 40
9.925000000000034
100
AcDbArc
 50
322.7469493593
 51
182.3675813795
  0
ARC
  5
265
330
1F
100
AcDbEntity
  8
0
  6
Continuous
 62
     7
370
    25
100
AcDbCircle
 10
132.6183325902
 20
166.4247394954
 30
0.0
 40
9.925000000000024
100
AcDbArc
 50
182.3675813795
 51
217.2530506407
  0
ARC
  5
266
330
1F
100
AcDbEntity
  8
0
  6
Continuous
 62
     7
370
    25
100
AcDbCircle
 10
132.6183325902
 20
166.4247394954
 30
0.0
 40
14.22500000000004
100
AcDbArc
 50
303.7355336397
 51
182.3675813795
  0
ARC
  5
267
330
1F
100
AcDbEntity
  8
0
  6
Continuous
 62
     7
370
    25
100
AcDbCircle
 10
132.6183325902
 20
166.4247394954
 30
0.0
 40
14.22500000000003
100
AcDbArc
 50
182.3675813795
 51
236.2644663603
  0
LINE
  5
268
330
1F
100
AcDbEntity
  8
0
  6
Continuous
 62
     7
370
    25
100
AcDbLine
 10
123.2052803412
 20
155.7596060055
 30
0.0
 11
123.0447655134
 21
155.577740228
 31
0.0
  0
LINE
  5
269
330
1F
100
AcDbEntity
  8
0
  6
Continuous
 62
     7
370
    25
100
AcDbLine
 10
146.5137849569
 20
170.4530124758
 30
0.0
 11
146.280807413
 21
170.3854725987
 31
0.0
  0
SPLINE
  5
26A
330
1F
100
AcDbEntity
  8
0
  6
Continuous
 62
     7
370
    25
100
AcDbSpline
210
0.0
220
0.0
230
1.0
 70
     8
 71
     3
 72
    11
 73
     7
 74
     0
 42
0.00000001
 43
0.00000001
 40
0.0
 40
0.0
 40
0.0
 40
0.0
 40
0.1446702591042553
 40
0.3907520209323682
 40
0.5962314811354866
 40
1.0
 40
1.0
 40
1.0
 40
1.0
 10
146.7988930489844
 20
163.5572868358589
 30
0.0
 10
146.8232753644608
 20
163.8898655453494
 30
0.0
 10
146.8891316026843
 20
164.788155239839
 30
0.0
 10
146.9030267276191
 20
166.1640998387915
 30
0.0
 10
146.8337234015923
 20
168.1366901851277
 30
0.0
 10
146.6413061495088
 20
169.5297718154441
 30
0.0
 10
146.5137849569122
 20
170.4530124758253
 30
0.0
  0
LINE
  5
26B
330
1F
100
AcDbEntity
  8
0
  6
Continuous
 62
     7
370
    25
100
AcDbLine
 10
146.5611352517
 20
163.6053638657
 30
0.0
 11
146.798893049
 21
163.5572868359
 31
0.0
  0
LINE
  5
26C
330
1F
100
AcDbEntity
  8
0
  6
Continuous
 62
     7
370
    25
100
AcDbLine
 10
136.0774720391
 20
180.4726907323
 30
0.0
 11
136.0194745165
 21
180.2371563222
 31
0.0
  0
SPLINE
  5
26D
330
1F
100
AcDbEntity
  8
0
  6
Continuous
 62
     7
370
    25
100
AcDbSpline
210
0.0
220
0.0
230
1.0
 70
     8
 71
     3
 72
    11
 73
     7
 74
     0
 42
0.00000001
 43
0.00000001
 40
0.0
 40
0.0
 40
0.0
 40
0.0
 40
0.1446702591042563
 40
0.3907520209323671
 40
0.5962314811354599
 40
1.0
 40
1.0
 40
1.0
 40
1.0
 10
142.1918996669064
 20
177.2717387628936
 30
0.0
 10
141.9160692134679
 20
177.4591438222446
 30
0.0
 10
141.1710556371939
 20
177.9653218447886
 30
0.0
 10
139.9864002227684
 20
178.6653276754472
 30
0.0
 10
138.2434352085681
 20
179.5916044077093
 30
0.0
 10
136.9407825011268
 20
180.1215069944368
 30
0.0
 10
136.0774720391316
 20
180.4726907323179
 30
0.0
  0
LINE
  5
26E
330
1F
100
AcDbEntity
  8
0
  6
Continuous
 62
     7
370
    25
100
AcDbLine
 10
142.1918996669
 20
177.2717387629
 30
0.0
 11
142.0313848391
 21
177.0898729854
 31
0.0
  0
LINE
  5
26F
330
1F
100
AcDbEntity
  8
0
  6
Continuous
 62
     7
370
    25
100
AcDbLine
 10
122.1820196724
 20
176.4444177519
 30
0.0
 11
122.3569996937
 21
176.2764232189
 31
0.0
  0
SPLINE
  5
270
330
1F
100
AcDbEntity
  8
0
  6
Continuous
 62
     7
370
    25
100
AcDbSpline
210
0.0
220
0.0
230
1.0
 70
     8
 71
     3
 72
    11
 73
     7
 74
     0
 42
0.00000001
 43
0.00000001
 40
0.0
 40
0.0
 40
0.0
 40
0.0
 40
0.1446702591042555
 40
0.3907520209323609
 40
0.5962314811354639
 40
1.0
 40
1.0
 40
1.0
 40
1.0
 10
128.0113392080748
 20
180.1391914224648
 30
0.0
 10
127.7111264391599
 20
179.9940177723252
 30
0.0
 10
126.9002566246623
 20
179.6019061003796
 30
0.0
 10
125.7017060853021
 20
178.9259673320855
 30
0.0
 10
124.0280443971286
 20
177.8796537180117
 30
0.0
 10
122.9178089417708
 20
177.0164746744226
 30
0.0
 10
122.1820196723722
 20
176.4444177519225
 30
0.0
  0
LINE
  5
271
330
1F
100
AcDbEntity
  8
0
  6
Continuous
 62
     7
370
    25
100
AcDbLine
 10
128.0113392081
 20
180.1391914225
 30
0.0
 11
128.0885821776
 21
179.9092486151
 31
0.0
  0
LINE
  5
272
330
1F
100
AcDbEntity
  8
0
  6
Continuous
 62
     7
370
    25
100
AcDbLine
 10
118.9558577673
 20
162.4640063921
 30
0.0
 11
118.7228802234
 21
162.396466515
 31
0.0
  0
SPLINE
  5
273
330
1F
100
AcDbEntity
  8
0
  6
Continuous
 62
     7
370
    25
100
AcDbSpline
210
0.0
220
0.0
230
1.0
 70
     8
 71
     3
 72
    11
 73
     7
 74
     0
 42
0.00000001
 43
0.00000001
 40
0.0
 40
0.0
 40
0.0
 40
0.0
 40
0.1446702591042534
 40
0.3907520209323634
 40
0.5962314811354792
 40
1.0
 40
1.0
 40
1.0
 40
1.0
 10
118.4377721313211
 20
169.292192155001
 30
0.0
 10
118.4133898158447
 20
168.9596134455105
 30
0.0
 10
118.3475335776212
 20
168.0613237510209
 30
0.0
 10
118.3336384526864
 20
166.6853791520682
 30
0.0
 10
118.4029417787132
 20
164.7127888057322
 30
0.0
 10
118.5953590307968
 20
163.3197071754157
 30
0.0
 10
118.7228802233934
 20
162.3964665150344
 30
0.0
  0
LINE
  5
274
330
1F
100
AcDbEntity
  8
0
  6
Continuous
 62
     7
370
    25
100
AcDbLine
 10
118.4377721313
 20
169.292192155
 30
0.0
 11
118.6755299286
 21
169.2441151252
 31
0.0
  0
LINE
  5
275
330
1F
100
AcDbEntity
  8
0
  6
Continuous
 62
     7
370
    25
100
AcDbLine
 10
142.8796654866
 20
156.5730557719
 30
0.0
 11
143.0546455079
 21
156.4050612389
 31
0.0
  0
SPLINE
  5
276
330
1F
100
AcDbEntity
  8
0
  6
Continuous
 62
     7
370
    25
100
AcDbSpline
210
0.0
220
0.0
230
1.0
 70
     8
 71
     3
 72
     9
 73
     5
 74
     0
 42
0.00000001
 43
0.00000001
 40
0.0
 40
0.0
 40
0.0
 40
0.0
 40
0.5862283062032706
 40
1.0
 40
1.0
 40
1.0
 40
1.0
 10
146.5137849569122
 20
170.4530124758253
 30
0.0
 10
146.457364792489
 20
170.7809728099627
 30
0.0
 10
146.3611221446567
 20
171.3404141243229
 30
0.0
 10
146.2431623174777
 20
171.896880957217
 30
0.0
 10
146.1943538799858
 20
172.1271311812052
 30
0.0
  0
SPLINE
  5
277
330
1F
100
AcDbEntity
  8
0
  6
Continuous
 62
     7
370
    25
100
AcDbSpline
210
0.0
220
0.0
230
1.0
 70
     8
 71
     3
 72
     9
 73
     5
 74
     0
 42
0.00000001
 43
0.00000001
 40
0.0
 40
0.0
 40
0.0
 40
0.0
 40
0.5863847898283623
 40
1.0
 40
1.0
 40
1.0
 40
1.0
 10
143.5695458405507
 20
176.2683441880366
 30
0.0
 10
143.3035559375838
 20
176.4696195629882
 30
0.0
 10
142.8499461107587
 20
176.8128675094612
 30
0.0
 10
142.3844400528744
 20
177.1374758258762
 30
0.0
 10
142.1918996669064
 20
177.2717387628936
 30
0.0
  0
ARC
  5
278
330
1F
100
AcDbEntity
  8
0
  6
Continuous
 62
     7
370
    25
100
AcDbCircle
 10
132.6183325902
 20
166.4247394954
 30
0.0
 40
14.72500000000002
100
AcDbArc
 50
22.7840658168
 51
41.9510969422
  0
SPLINE
  5
279
330
1F
100
AcDbEntity
  8
0
  6
Continuous
 62
     7
370
    25
100
AcDbSpline
210
0.0
220
0.0
230
1.0
 70
     8
 71
     3
 72
     9
 73
     5
 74
     0
 42
0.00000001
 43
0.00000001
 40
0.0
 40
0.0
 40
0.0
 40
0.0
 40
0.586228306203293
 40
1.0
 40
1.0
 40
1.0
 40
1.0
 10
143.0546455079333
 20
156.4050612389374
 30
0.0
 10
143.3104574065184
 20
156.6179027016823
 30
0.0
 10
143.7468264727647
 20
156.9809719368125
 30
0.0
 10
144.1697609728249
 20
157.3613615602227
 30
0.0
 10
144.3447592972799
 20
157.5187560190037
 30
0.0
  0
SPLINE
  5
27A
330
1F
100
AcDbEntity
  8
0
  6
Continuous
 62
     7
370
    25
100
AcDbSpline
210
0.0
220
0.0
230
1.0
 70
     8
 71
     3
 72
     9
 73
     5
 74
     0
 42
0.00000001
 43
0.00000001
 40
0.0
 40
0.0
 40
0.0
 40
0.0
 40
0.5863847898283553
 40
1.0
 40
1.0
 40
1.0
 40
1.0
 10
146.6187509439608
 20
161.8625129646279
 30
0.0
 10
146.6600655803417
 20
162.1935046652231
 30
0.0
 10
146.7305221083717
 20
162.7579662718964
 30
0.0
 10
146.7788881277245
 20
163.3234105018473
 30
0.0
 10
146.7988930489844
 20
163.5572868358588
 30
0.0
  0
ARC
  5
27B
330
1F
100
AcDbEntity
  8
0
  6
Continuous
 62
     7
370
    25
100
AcDbCircle
 10
132.6183325902
 20
166.4247394954
 30
0.0
 40
14.72500000000001
100
AcDbArc
 50
322.7840658168
 51
341.9510969422
  0
SPLINE
  5
27C
330
1F
100
AcDbEntity
  8
0
  6
Continuous
 62
     7
370
    25
100
AcDbSpline
210
0.0
220
0.0
230
1.0
 70
     8
 71
     3
 72
     9
 73
     5
 74
     0
 42
0.00000001
 43
0.00000001
 40
0.0
 40
0.0
 40
0.0
 40
0.0
 40
0.5862283062032704
 40
1.0
 40
1.0
 40
1.0
 40
1.0
 10
136.0774720391316
 20
180.4726907323179
 30
0.0
 10
135.7652399761234
 20
180.5878096037104
 30
0.0
 10
135.2326282620448
 20
180.7841816829402
 30
0.0
 10
134.6917339348055
 20
180.9602588924242
 30
0.0
 10
134.4679271728587
 20
181.0331146576314
 30
0.0
  0
SPLINE
  5
27D
330
1F
100
AcDbEntity
  8
0
  6
Continuous
 62
     7
370
    25
100
AcDbSpline
210
0.0
220
0.0
230
1.0
 70
     8
 71
     3
 72
     9
 73
     5
 74
     0
 42
0.00000001
 43
0.00000001
 40
0.0
 40
0.0
 40
0.0
 40
0.0
 40
0.5863847898283622
 40
1.0
 40
1.0
 40
1.0
 40
1.0
 10
129.5691274867426
 20
180.8305707188386
 30
0.0
 10
129.2618229473948
 20
180.7008543931949
 30
0.0
 10
128.7377565925398
 20
180.4796407329947
 30
0.0
 10
128.2238845153026
 20
180.2388048194588
 30
0.0
 10
128.0113392080748
 20
180.1391914224648
 30
0.0
  0
ARC
  5
27E
330
1F
100
AcDbEntity
  8
0
  6
Continuous
 62
     7
370
    25
100
AcDbCircle
 10
132.6183325902
 20
166.4247394954
 30
0.0
 40
14.725
100
AcDbArc
 50
82.7840658168
 51
101.9510969422
  0
SPLINE
  5
27F
330
1F
100
AcDbEntity
  8
0
  6
Continuous
 62
     7
370
    25
100
AcDbSpline
210
0.0
220
0.0
230
1.0
 70
     8
 71
     3
 72
     9
 73
     5
 74
     0
 42
0.00000001
 43
0.00000001
 40
0.0
 40
0.0
 40
0.0
 40
0.0
 40
0.5862283062032677
 40
1.0
 40
1.0
 40
1.0
 40
1.0
 10
122.1820196723722
 20
176.4444177519225
 30
0.0
 10
121.9262077737871
 20
176.2315762891776
 30
0.0
 10
121.4898387075408
 20
175.8685070540473
 30
0.0
 10
121.0669042074806
 20
175.4881174306372
 30
0.0
 10
120.8919058830256
 20
175.3307229718561
 30
0.0
  0
SPLINE
  5
280
330
1F
100
AcDbEntity
  8
0
  6
Continuous
 62
     7
370
    25
100
AcDbSpline
210
0.0
220
0.0
230
1.0
 70
     8
 71
     3
 72
     9
 73
     5
 74
     0
 42
0.00000001
 43
0.00000001
 40
0.0
 40
0.0
 40
0.0
 40
0.0
 40
0.5863847898283551
 40
1.0
 40
1.0
 40
1.0
 40
1.0
 10
118.6179142363447
 20
170.9869660262319
 30
0.0
 10
118.5765995999638
 20
170.6559743256366
 30
0.0
 10
118.5061430719338
 20
170.0915127189634
 30
0.0
 10
118.457777052581
 20
169.5260684890125
 30
0.0
 10
118.4377721313211
 20
169.292192155001
 30
0.0
  0
ARC
  5
281
330
1F
100
AcDbEntity
  8
0
  6
Continuous
 62
     7
370
    25
100
AcDbCircle
 10
132.6183325902
 20
166.4247394954
 30
0.0
 40
14.72500000000002
100
AcDbArc
 50
142.7840658168
 51
161.9510969422
  0
SPLINE
  5
282
330
1F
100
AcDbEntity
  8
0
  6
Continuous
 62
     7
370
    25
100
AcDbSpline
210
0.0
220
0.0
230
1.0
 70
     8
 71
     3
 72
     9
 73
     5
 74
     0
 42
0.00000001
 43
0.00000001
 40
0.0
 40
0.0
 40
0.0
 40
0.0
 40
0.5863847898283611
 40
1.0
 40
1.0
 40
1.0
 40
1.0
 10
121.6671193397548
 20
156.5811348028232
 30
0.0
 10
121.9331092427217
 20
156.3798594278716
 30
0.0
 10
122.3867190695467
 20
156.0366114813986
 30
0.0
 10
122.8522251274311
 20
155.7120031649836
 30
0.0
 10
123.0447655133991
 20
155.5777402279661
 30
0.0
  0
ARC
  5
283
330
1F
100
AcDbEntity
  8
0
  6
Continuous
 62
     7
370
    25
100
AcDbCircle
 10
132.6183325902
 20
166.4247394954
 30
0.0
 40
14.72500000000001
100
AcDbArc
 50
202.7840658168
 51
221.9510969422
  0
SPLINE
  5
284
330
1F
100
AcDbEntity
  8
0
  6
Continuous
 62
     7
370
    25
100
AcDbSpline
210
0.0
220
0.0
230
1.0
 70
     8
 71
     3
 72
     9
 73
     5
 74
     0
 42
0.00000001
 43
0.00000001
 40
0.0
 40
0.0
 40
0.0
 40
0.0
 40
0.586228306203283
 40
0.9999999999999999
 40
0.9999999999999999
 40
0.9999999999999999
 40
0.9999999999999999
 10
118.7228802233933
 20
162.3964665150345
 30
0.0
 10
118.7793003878165
 20
162.0685061808971
 30
0.0
 10
118.8755430356487
 20
161.509064866537
 30
0.0
 10
118.9935028628278
 20
160.9525980336429
 30
0.0
 10
119.0423113003197
 20
160.7223478096546
 30
0.0
  0
ARC
  5
285
330
1F
100
AcDbEntity
  8
0
  6
Continuous
 62
     7
370
    25
100
AcDbCircle
 10
118.6695128316
 20
162.7819704362
 30
0.0
 40
0.3891803588377871
100
AcDbArc
 50
239.2550497425
 51
277.8816701874
  0
SPLINE
  5
286
330
1F
100
AcDbEntity
  8
0
  6
Continuous
 62
     7
370
    25
100
AcDbSpline
210
0.0
220
0.0
230
1.0
 70
    24
 71
     3
 72
    12
 73
     8
 74
     0
 42
0.00000001
 43
0.00000001
 40
0.0
 40
0.0
 40
0.0
 40
0.0
 40
0.3013828945620964
 40
0.4108442493795578
 40
0.6247185195336494
 40
0.6986171054378628
 40
1.0
 40
1.0
 40
1.0
 40
1.0
 10
118.4705570835565
 20
162.4474888043506
 30
0.0
 10
118.4425017861852
 20
163.1260441971963
 30
0.0
 10
118.4042568897509
 20
164.0510488542828
 30
0.0
 10
118.3458234081314
 20
165.4643418075204
 30
0.0
 10
118.3085980986879
 20
166.3646863712922
 30
0.0
 10
118.2535103400872
 20
167.6970584785514
 30
0.0
 10
118.2185767379732
 20
168.5419749944009
 30
0.0
 10
118.1905220892078
 20
169.2205146998338
 30
0.0
  0
ARC
  5
287
330
1F
100
AcDbEntity
  8
0
  6
Continuous
 62
     7
370
    25
100
AcDbCircle
 10
118.416410288
 20
168.9035985069
 30
0.0
 40
0.3891803587970012
100
AcDbArc
 50
86.8534925694
 51
125.4801130186
  0
LINE
  5
288
330
1F
100
AcDbEntity
  8
0
  6
Continuous
 62
     7
370
    25
100
AcDbLine
 10
124.7183325902
 20
154.4194286837
 30
0.0
 11
122.9832149894
 21
155.3277766828
 31
0.0
  0
ARC
  5
289
330
1F
100
AcDbEntity
  8
0
  6
Continuous
 62
     7
370
    25
100
AcDbCircle
 10
123.3706165627
 20
155.3649435049
 30
0.0
 40
0.3891803587964021
100
AcDbArc
 50
146.8534925694
 51
185.4801130186
  0
SPLINE
  5
28A
330
1F
100
AcDbEntity
  8
0
  6
Continuous
 62
     7
370
    25
100
AcDbSpline
210
0.0
220
0.0
230
1.0
 70
    24
 71
     3
 72
    10
 73
     6
 74
     0
 42
0.00000001
 43
0.00000001
 40
0.0
 40
0.0
 40
0.0
 40
0.0
 40
0.6588579034621722
 40
0.8981530991963108
 40
1.0
 40
1.0
 40
1.0
 40
1.0
 10
143.1366204791448
 20
156.1610318452179
 30
0.0
 10
142.5629944944619
 20
155.7974528422203
 30
0.0
 10
141.7810292888916
 20
155.3018230461307
 30
0.0
 10
140.9062565219639
 20
154.7473694144234
 30
0.0
 10
140.6075195686999
 20
154.5580221977239
 30
0.0
 10
140.5183325901527
 20
154.5014931812455
 30
0.0
  0
ARC
  5
28B
330
1F
100
AcDbEntity
  8
0
  6
Continuous
 62
     7
370
    25
100
AcDbCircle
 10
142.7474730149
 20
156.1660917614
 30
0.0
 40
0.3891803587980491
100
AcDbArc
 50
359.2550497404
 51
37.8816701894
  0
ARC
  5
28C
330
1F
100
AcDbEntity
  8
0
  6
Continuous
 62
     7
370
    25
100
AcDbCircle
 10
136.438011924
 20
180.3261562888
 30
0.0
 40
0.3891803588385397
100
AcDbArc
 50
119.2550497425
 51
157.8816701873
  0
SPLINE
  5
28D
330
1F
100
AcDbEntity
  8
0
  6
Continuous
 62
     7
370
    25
100
AcDbSpline
210
0.0
220
0.0
230
1.0
 70
    24
 71
     3
 72
    12
 73
     8
 74
     0
 42
0.00000001
 43
0.00000001
 40
0.0
 40
0.0
 40
0.0
 40
0.0
 40
0.3013828945621493
 40
0.4108442493795586
 40
0.6247185195336381
 40
0.6986171054378644
 40
0.9999999999999999
 40
0.9999999999999999
 40
0.9999999999999999
 40
0.9999999999999999
 10
136.2478202077571
 20
180.6656978367212
 30
0.0
 10
136.8494940645221
 20
180.3507167405324
 30
0.0
 10
137.669694044395
 20
179.9213354638664
 30
0.0
 10
138.9228583856982
 20
179.2652938667618
 30
0.0
 10
139.7211923048053
 20
178.8473596485177
 30
0.0
 10
140.9026042762859
 20
178.2288809932739
 30
0.0
 10
141.6517902441456
 20
177.8366761222256
 30
0.0
 10
142.2534501909097
 20
177.5217023080341
 30
0.0
  0
ARC
  5
28E
330
1F
100
AcDbEntity
  8
0
  6
Continuous
 62
     7
370
    25
100
AcDbCircle
 10
141.8660486176
 20
177.4845354859
 30
0.0
 40
0.3891803587967173
100
AcDbArc
 50
326.8534925694
 51
5.4801130186
  0
ARC
  5
28F
330
1F
100
AcDbEntity
  8
0
  6
Continuous
 62
     7
370
    25
100
AcDbCircle
 10
122.4891921654
 20
176.6833872295
 30
0.0
 40
0.3891803588380731
100
AcDbArc
 50
179.2550497425
 51
217.8816701874
  0
SPLINE
  5
290
330
1F
100
AcDbEntity
  8
0
  6
Continuous
 62
     7
370
    25
100
AcDbSpline
210
0.0
220
0.0
230
1.0
 70
    24
 71
     3
 72
    12
 73
     8
 74
     0
 42
0.00000001
 43
0.00000001
 40
0.0
 40
0.0
 40
0.0
 40
0.0
 40
0.3013828945621501
 40
0.4108442493795775
 40
0.6247185195336591
 40
0.6986171054378612
 40
1.0
 40
1.0
 40
1.0
 40
1.0
 10
122.1000447011608
 20
176.688447145642
 30
0.0
 10
122.6736632605546
 20
177.0520214422991
 30
0.0
 10
123.4556183439933
 20
177.5476448227196
 30
0.0
 10
124.6503492036768
 20
178.3048961788525
 30
0.0
 10
125.4114578133405
 20
178.7873065243801
 30
0.0
 10
126.5377820262204
 20
179.5011999763953
 30
0.0
 10
127.2520343919661
 20
179.9539116211966
 30
0.0
 10
127.8256396899647
 20
180.3174775124381
 30
0.0
  0
ARC
  5
291
330
1F
100
AcDbEntity
  8
0
  6
Continuous
 62
     7
370
    25
100
AcDbCircle
 10
127.6641263154
 20
179.9633944974
 30
0.0
 40
0.3891803587970714
100
AcDbArc
 50
26.8534925694
 51
65.4801130186
  0
SPLINE
  5
292
330
1F
100
AcDbEntity
  8
0
  6
Continuous
 62
     7
370
    25
100
AcDbSpline
210
0.0
220
0.0
230
1.0
 70
    24
 71
     3
 72
    12
 73
     8
 74
     0
 42
0.00000001
 43
0.00000001
 40
0.0
 40
0.0
 40
0.0
 40
0.0
 40
0.3013828945621546
 40
0.4108442493795564
 40
0.6247185195336475
 40
0.6986171054378579
 40
1.0
 40
1.0
 40
1.0
 40
1.0
 10
146.7661080967491
 20
170.4019901865091
 30
0.0
 10
146.7941633941203
 20
169.7234347936633
 30
0.0
 10
146.8324082905546
 20
168.7984301365769
 30
0.0
 10
146.8908417721742
 20
167.3851371833393
 30
0.0
 10
146.9280670816177
 20
166.4847926195675
 30
0.0
 10
146.9831548402182
 20
165.1524205123085
 30
0.0
 10
147.0180884423323
 20
164.307503996459
 30
0.0
 10
147.0461430910976
 20
163.628964291026
 30
0.0
  0
ARC
  5
293
330
1F
100
AcDbEntity
  8
0
  6
Continuous
 62
     7
370
    25
100
AcDbCircle
 10
146.8202548923
 20
163.9458804839
 30
0.0
 40
0.3891803587965312
100
AcDbArc
 50
266.8534925694
 51
305.4801130186
  0
ARC
  5
294
330
1F
100
AcDbEntity
  8
0
  6
Continuous
 62
     7
370
    25
100
AcDbCircle
 10
146.5671523487
 20
170.0675085547
 30
0.0
 40
0.3891803587978003
100
AcDbArc
 50
59.2550497404
 51
97.8816701894
  0
LINE
  5
295
330
1F
100
AcDbEntity
  8
0
  6
Continuous
 62
     7
370
    25
100
AcDbLine
 10
142.2534501909
 20
177.521702308
 30
0.0
 11
143.8014445332
 21
176.7113148376
 31
0.0
  0
LINE
  5
296
330
1F
100
AcDbEntity
  8
0
  6
Continuous
 62
     7
370
    25
100
AcDbLine
 10
143.8014445332
 20
176.7113148376
 30
0.0
 11
143.5695458406
 21
176.268344188
 31
0.0
  0
LINE
  5
297
330
1F
100
AcDbEntity
  8
0
  6
Continuous
 62
     7
370
    25
100
AcDbLine
 10
127.82563969
 20
180.3174775124
 30
0.0
 11
129.3014529974
 21
181.2528862025
 31
0.0
  0
LINE
  5
298
330
1F
100
AcDbEntity
  8
0
  6
Continuous
 62
     7
370
    25
100
AcDbLine
 10
129.3014529974
 20
181.2528862025
 30
0.0
 11
129.5691274867
 21
180.8305707188
 31
0.0
  0
LINE
  5
299
330
1F
100
AcDbEntity
  8
0
  6
Continuous
 62
     7
370
    25
100
AcDbLine
 10
147.0461430911
 20
163.628964291
 30
0.0
 11
147.1183241259
 21
161.8831681305
 31
0.0
  0
LINE
  5
29A
330
1F
100
AcDbEntity
  8
0
  6
Continuous
 62
     7
370
    25
100
AcDbLine
 10
147.1183241259
 20
161.8831681305
 30
0.0
 11
146.618750944
 21
161.8625129646
 31
0.0
  0
LINE
  5
29B
330
1F
100
AcDbEntity
  8
0
  6
Continuous
 62
     7
370
    25
100
AcDbLine
 10
118.1905220892
 20
169.2205146998
 30
0.0
 11
118.1183410544
 21
170.9663108604
 31
0.0
  0
LINE
  5
29C
330
1F
100
AcDbEntity
  8
0
  6
Continuous
 62
     7
370
    25
100
AcDbLine
 10
118.6179142363
 20
170.9869660262
 30
0.0
 11
118.1183410544
 21
170.9663108604
 31
0.0
  0
LINE
  5
29D
330
1F
100
AcDbEntity
  8
0
  6
Continuous
 62
     7
370
    25
100
AcDbLine
 10
122.9832149894
 20
155.3277766828
 30
0.0
 11
121.4352206471
 21
156.1381641533
 31
0.0
  0
LINE
  5
29E
330
1F
100
AcDbEntity
  8
0
  6
Continuous
 62
     7
370
    25
100
AcDbLine
 10
121.4352206471
 20
156.1381641533
 30
0.0
 11
121.6671193398
 21
156.5811348028
 31
0.0
  0
LINE
  5
29F
330
1F
100
AcDbEntity
  8
0
  6
Continuous
 62
     7
370
    25
100
AcDbLine
 10
146.6939270619
 20
172.1477863471
 30
0.0
 11
146.7661080967
 21
170.4019901865
 31
0.0
  0
LINE
  5
2A0
330
1F
100
AcDbEntity
  8
0
  6
Continuous
 62
     7
370
    25
100
AcDbLine
 10
146.19435388
 20
172.1271311812
 30
0.0
 11
146.6939270619
 21
172.1477863471
 31
0.0
  0
LINE
  5
2A1
330
1F
100
AcDbEntity
  8
0
  6
Continuous
 62
     7
370
    25
100
AcDbLine
 10
134.4679271729
 20
181.0331146576
 30
0.0
 11
134.6998258655
 21
181.4760853072
 31
0.0
  0
LINE
  5
2A2
330
1F
100
AcDbEntity
  8
0
  6
Continuous
 62
     7
370
    25
100
AcDbLine
 10
134.6998258655
 20
181.4760853072
 30
0.0
 11
136.2478202078
 21
180.6656978367
 31
0.0
  0
LINE
  5
2A3
330
1F
100
AcDbEntity
  8
0
  6
Continuous
 62
     7
370
    25
100
AcDbLine
 10
144.6124337866
 20
157.0964405353
 30
0.0
 11
143.1366204791
 21
156.1610318452
 31
0.0
  0
LINE
  5
2A4
330
1F
100
AcDbEntity
  8
0
  6
Continuous
 62
     7
370
    25
100
AcDbLine
 10
144.3447592973
 20
157.518756019
 30
0.0
 11
144.6124337866
 21
157.0964405353
 31
0.0
  0
LINE
  5
2A5
330
1F
100
AcDbEntity
  8
0
  6
Continuous
 62
     7
370
    25
100
AcDbLine
 10
120.891905883
 20
175.3307229719
 30
0.0
 11
120.6242313937
 21
175.7530384555
 31
0.0
  0
LINE
  5
2A6
330
1F
100
AcDbEntity
  8
0
  6
Continuous
 62
     7
370
    25
100
AcDbLine
 10
120.6242313937
 20
175.7530384555
 30
0.0
 11
122.1000447012
 21
176.6884471456
 31
0.0
  0
LINE
  5
2A7
330
1F
100
AcDbEntity
  8
0
  6
Continuous
 62
     7
370
    25
100
AcDbLine
 10
119.0423113003
 20
160.7223478097
 30
0.0
 11
118.5427381184
 21
160.7016926438
 31
0.0
  0
LINE
  5
2A8
330
1F
100
AcDbEntity
  8
0
  6
Continuous
 62
     7
370
    25
100
AcDbLine
 10
118.5427381184
 20
160.7016926438
 30
0.0
 11
118.4705570836
 21
162.4474888044
 31
0.0
  0
ARC
  5
2A9
330
1F
100
AcDbEntity
  8
0
  6
Continuous
 62
     7
370
    25
100
AcDbCircle
 10
145.2713735339
 20
175.3774237228
 30
0.0
 40
0.5000000000000089
100
AcDbArc
 50
35.2813916209
 51
62.3675813795
  0
LINE
  5
2AA
330
1F
100
AcDbEntity
  8
0
  6
Continuous
 62
     7
370
    25
100
AcDbLine
 10
145.2713735339
 20
175.3774237228
 30
0.0
 11
145.679536145
 21
175.6662199882
 31
0.0
  0
LINE
  5
2AB
330
1F
100
AcDbEntity
  8
0
  6
Continuous
 62
     7
370
    25
100
AcDbLine
 10
145.5032722266
 20
175.8203943724
 30
0.0
 11
145.2713735339
 21
175.3774237228
 31
0.0
  0
LINE
  5
2AC
330
1F
100
AcDbEntity
  8
0
  6
Continuous
 62
     7
370
    25
100
AcDbLine
 10
134.4679271729
 20
181.0331146576
 30
0.0
 11
132.7660994795
 21
181.9240351229
 31
0.0
  0
LINE
  5
2AD
330
1F
100
AcDbEntity
  8
0
  6
Continuous
 62
     7
370
    25
100
AcDbLine
 10
131.1916010891
 20
181.8589365016
 30
0.0
 11
129.5691274867
 21
180.8305707188
 31
0.0
  0
ARC
  5
2AE
330
1F
100
AcDbEntity
  8
0
  6
Continuous
 62
     7
370
    25
100
AcDbCircle
 10
132.6183325902
 20
166.4247394954
 30
0.0
 40
15.5
100
AcDbArc
 50
89.453771138
 51
95.2813916209
  0
LINE
  5
2AF
330
1F
100
AcDbEntity
  8
0
  6
Continuous
 62
     7
370
    25
100
AcDbLine
 10
146.19435388
 20
172.1271311812
 30
0.0
 11
146.1149997889
 21
174.0464174291
 31
0.0
  0
LINE
  5
2B0
330
1F
100
AcDbEntity
  8
0
  6
Continuous
 62
     7
370
    25
100
AcDbLine
 10
145.2713735339
 20
175.3774237228
 30
0.0
 11
143.5695458406
 21
176.268344188
 31
0.0
  0
ARC
  5
2B1
330
1F
100
AcDbEntity
  8
0
  6
Continuous
 62
     7
370
    25
100
AcDbCircle
 10
132.6183325902
 20
166.4247394954
 30
0.0
 40
15.50000000000001
100
AcDbArc
 50
29.453771138
 51
35.2813916209
  0
ARC
  5
2B2
330
1F
100
AcDbEntity
  8
0
  6
Continuous
 62
     7
370
    25
100
AcDbCircle
 10
132.7660994795
 20
181.9240351229
 30
0.0
 40
0.4999999999999908
100
AcDbArc
 50
62.3675813795
 51
89.453771138
  0
LINE
  5
2B3
330
1F
100
AcDbEntity
  8
0
  6
Continuous
 62
     7
370
    25
100
AcDbLine
 10
132.7660994795
 20
181.9240351229
 30
0.0
 11
132.9979981721
 21
182.3670057724
 31
0.0
  0
LINE
  5
2B4
330
1F
100
AcDbEntity
  8
0
  6
Continuous
 62
     7
370
    25
100
AcDbLine
 10
132.7660994795
 20
181.9240351229
 30
0.0
 11
132.7708661533
 21
182.4240124012
 31
0.0
  0
LINE
  5
2B5
330
1F
100
AcDbEntity
  8
0
  6
Continuous
 62
     7
370
    25
100
AcDbLine
 10
143.8014445332
 20
176.7113148376
 30
0.0
 11
145.5032722266
 21
175.8203943724
 31
0.0
  0
LINE
  5
2B6
330
1F
100
AcDbEntity
  8
0
  6
Continuous
 62
     7
370
    25
100
AcDbLine
 10
147.1183241259
 20
161.8831681305
 30
0.0
 11
147.197678217
 21
159.9638818825
 31
0.0
  0
LINE
  5
2B7
330
1F
100
AcDbEntity
  8
0
  6
Continuous
 62
     7
370
    25
100
AcDbLine
 10
147.197678217
 20
159.9638818825
 30
0.0
 11
146.698105035
 21
159.9432267167
 31
0.0
  0
LINE
  5
2B8
330
1F
100
AcDbEntity
  8
0
  6
Continuous
 62
     7
370
    25
100
AcDbLine
 10
146.698105035
 20
159.9432267167
 30
0.0
 11
146.618750944
 21
161.8625129646
 31
0.0
  0
LINE
  5
2B9
330
1F
100
AcDbEntity
  8
0
  6
Continuous
 62
     7
370
    25
100
AcDbLine
 10
131.1916010891
 20
181.8589365016
 30
0.0
 11
131.1455774923
 21
182.3568138243
 31
0.0
  0
ARC
  5
2BA
330
1F
100
AcDbEntity
  8
0
  6
Continuous
 62
     7
370
    25
100
AcDbCircle
 10
132.6183325902
 20
166.4247394954
 30
0.0
 40
15.99999999999999
100
AcDbArc
 50
89.453771138
 51
95.2813916209
  0
LINE
  5
2BB
330
1F
100
AcDbEntity
  8
0
  6
Continuous
 62
     7
370
    25
100
AcDbLine
 10
129.3014529974
 20
181.2528862025
 30
0.0
 11
130.9239265997
 21
182.2812519852
 31
0.0
  0
LINE
  5
2BC
330
1F
100
AcDbEntity
  8
0
  6
Continuous
 62
     7
370
    25
100
AcDbLine
 10
130.9239265997
 20
182.2812519852
 30
0.0
 11
131.1916010891
 21
181.8589365016
 31
0.0
  0
LINE
  5
2BD
330
1F
100
AcDbEntity
  8
0
  6
Continuous
 62
     7
370
    25
100
AcDbLine
 10
144.3447592973
 20
157.518756019
 30
0.0
 11
145.9672328996
 21
158.5471218017
 31
0.0
  0
ARC
  5
2BE
330
1F
100
AcDbEntity
  8
0
  6
Continuous
 62
     7
370
    25
100
AcDbCircle
 10
132.6183325902
 20
166.4247394954
 30
0.0
 40
15.50000000000002
100
AcDbArc
 50
329.453771138
 51
335.2813916209
  0
ARC
  5
2BF
330
1F
100
AcDbEntity
  8
0
  6
Continuous
 62
     7
370
    25
100
AcDbCircle
 10
132.6183325902
 20
166.4247394954
 30
0.0
 40
15.99999999999999
100
AcDbArc
 50
29.453771138
 51
35.2813916209
  0
LINE
  5
2C0
330
1F
100
AcDbEntity
  8
0
  6
Continuous
 62
     7
370
    25
100
AcDbLine
 10
146.5503761502
 20
174.2922780077
 30
0.0
 11
146.1149997889
 21
174.0464174291
 31
0.0
  0
ARC
  5
2C1
330
1F
100
AcDbEntity
  8
0
  6
Continuous
 62
     7
370
    25
100
AcDbCircle
 10
146.1149997889
 20
174.0464174291
 30
0.0
 40
0.500000000000017
100
AcDbArc
 50
2.3675813795
 51
29.453771138
  0
LINE
  5
2C2
330
1F
100
AcDbEntity
  8
0
  6
Continuous
 62
     7
370
    25
100
AcDbLine
 10
146.1149997889
 20
174.0464174291
 30
0.0
 11
146.6145729709
 21
174.067072595
 31
0.0
  0
LINE
  5
2C3
330
1F
100
AcDbEntity
  8
0
  6
Continuous
 62
     7
370
    25
100
AcDbLine
 10
146.6145729709
 20
174.067072595
 30
0.0
 11
146.6939270619
 21
172.1477863471
 31
0.0
  0
ARC
  5
2C4
330
1F
100
AcDbEntity
  8
0
  6
Continuous
 62
     7
370
    25
100
AcDbCircle
 10
131.1916010891
 20
181.8589365016
 30
0.0
 40
0.5000000000000219
100
AcDbArc
 50
95.2813916209
 51
122.3675813795
  0
LINE
  5
2C5
330
1F
100
AcDbEntity
  8
0
  6
Continuous
 62
     7
370
    25
100
AcDbLine
 10
132.9979981721
 20
182.3670057724
 30
0.0
 11
134.6998258655
 21
181.4760853072
 31
0.0
  0
LINE
  5
2C6
330
1F
100
AcDbEntity
  8
0
  6
Continuous
 62
     7
370
    25
100
AcDbLine
 10
147.1522912429
 20
159.7341456593
 30
0.0
 11
146.698105035
 21
159.9432267167
 31
0.0
  0
ARC
  5
2C7
330
1F
100
AcDbEntity
  8
0
  6
Continuous
 62
     7
370
    25
100
AcDbCircle
 10
146.698105035
 20
159.9432267167
 30
0.0
 40
0.4999999999999922
100
AcDbArc
 50
335.2813916209
 51
2.3675813795
  0
LINE
  5
2C8
330
1F
100
AcDbEntity
  8
0
  6
Continuous
 62
     7
370
    25
100
AcDbLine
 10
120.891905883
 20
175.3307229719
 30
0.0
 11
119.2694322807
 21
174.3023571891
 31
0.0
  0
LINE
  5
2C9
330
1F
100
AcDbEntity
  8
0
  6
Continuous
 62
     7
370
    25
100
AcDbLine
 10
119.2694322807
 20
174.3023571891
 30
0.0
 11
119.0017577914
 21
174.7246726728
 31
0.0
  0
LINE
  5
2CA
330
1F
100
AcDbEntity
  8
0
  6
Continuous
 62
     7
370
    25
100
AcDbLine
 10
119.0017577914
 20
174.7246726728
 30
0.0
 11
120.6242313937
 21
175.7530384555
 31
0.0
  0
LINE
  5
2CB
330
1F
100
AcDbEntity
  8
0
  6
Continuous
 62
     7
370
    25
100
AcDbLine
 10
118.5385601453
 20
172.9062522742
 30
0.0
 11
118.6179142363
 21
170.9869660262
 31
0.0
  0
ARC
  5
2CC
330
1F
100
AcDbEntity
  8
0
  6
Continuous
 62
     7
370
    25
100
AcDbCircle
 10
132.6183325902
 20
166.4247394954
 30
0.0
 40
15.50000000000004
100
AcDbArc
 50
149.453771138
 51
155.2813916209
  0
LINE
  5
2CD
330
1F
100
AcDbEntity
  8
0
  6
Continuous
 62
     7
370
    25
100
AcDbLine
 10
118.1183410544
 20
170.9663108604
 30
0.0
 11
118.0389869633
 21
172.8855971083
 31
0.0
  0
LINE
  5
2CE
330
1F
100
AcDbEntity
  8
0
  6
Continuous
 62
     7
370
    25
100
AcDbLine
 10
118.5385601453
 20
172.9062522742
 30
0.0
 11
118.0389869633
 21
172.8855971083
 31
0.0
  0
ARC
  5
2CF
330
1F
100
AcDbEntity
  8
0
  6
Continuous
 62
     7
370
    25
100
AcDbCircle
 10
132.6183325902
 20
166.4247394954
 30
0.0
 40
16.00000000000001
100
AcDbArc
 50
329.453771138
 51
335.2813916209
  0
LINE
  5
2D0
330
1F
100
AcDbEntity
  8
0
  6
Continuous
 62
     7
370
    25
100
AcDbLine
 10
146.397842587
 20
158.2930051019
 30
0.0
 11
145.9672328996
 21
158.5471218017
 31
0.0
  0
LINE
  5
2D1
330
1F
100
AcDbEntity
  8
0
  6
Continuous
 62
     7
370
    25
100
AcDbLine
 10
118.5385601453
 20
172.9062522742
 30
0.0
 11
118.0843739374
 21
173.1153333316
 31
0.0
  0
ARC
  5
2D2
330
1F
100
AcDbEntity
  8
0
  6
Continuous
 62
     7
370
    25
100
AcDbCircle
 10
132.6183325902
 20
166.4247394954
 30
0.0
 40
16.00000000000001
100
AcDbArc
 50
149.453771138
 51
155.2813916209
  0
LINE
  5
2D3
330
1F
100
AcDbEntity
  8
0
  6
Continuous
 62
     7
370
    25
100
AcDbLine
 10
119.2694322807
 20
174.3023571891
 30
0.0
 11
118.8388225933
 21
174.5564738889
 31
0.0
  0
LINE
  5
2D4
330
1F
100
AcDbEntity
  8
0
  6
Continuous
 62
     7
370
    25
100
AcDbLine
 10
145.9672328996
 20
158.5471218017
 30
0.0
 11
146.2349073889
 21
158.124806318
 31
0.0
  0
LINE
  5
2D5
330
1F
100
AcDbEntity
  8
0
  6
Continuous
 62
     7
370
    25
100
AcDbLine
 10
146.2349073889
 20
158.124806318
 30
0.0
 11
144.6124337866
 21
157.0964405353
 31
0.0
  0
ARC
  5
2D6
330
1F
100
AcDbEntity
  8
0
  6
Continuous
 62
     7
370
    25
100
AcDbCircle
 10
145.9672328996
 20
158.5471218017
 30
0.0
 40
0.5000000000000219
100
AcDbArc
 50
302.3675813795
 51
329.453771138
  0
LINE
  5
2D7
330
1F
100
AcDbEntity
  8
0
  6
Continuous
 62
     7
370
    25
100
AcDbLine
 10
119.9652916464
 20
157.4720552681
 30
0.0
 11
121.6671193398
 21
156.5811348028
 31
0.0
  0
ARC
  5
2D8
330
1F
100
AcDbEntity
  8
0
  6
Continuous
 62
     7
370
    25
100
AcDbCircle
 10
132.6183325902
 20
166.4247394954
 30
0.0
 40
15.50000000000002
100
AcDbArc
 50
209.453771138
 51
215.2813916209
  0
LINE
  5
2D9
330
1F
100
AcDbEntity
  8
0
  6
Continuous
 62
     7
370
    25
100
AcDbLine
 10
119.0423113003
 20
160.7223478097
 30
0.0
 11
119.1216653914
 21
158.8030615617
 31
0.0
  0
ARC
  5
2DA
330
1F
100
AcDbEntity
  8
0
  6
Continuous
 62
     7
370
    25
100
AcDbCircle
 10
119.2694322807
 20
174.3023571891
 30
0.0
 40
0.4999999999999815
100
AcDbArc
 50
122.3675813795
 51
149.453771138
  0
ARC
  5
2DB
330
1F
100
AcDbEntity
  8
0
  6
Continuous
 62
     7
370
    25
100
AcDbCircle
 10
118.5385601453
 20
172.9062522742
 30
0.0
 40
0.4999999999999977
100
AcDbArc
 50
155.2813916209
 51
182.3675813795
  0
LINE
  5
2DC
330
1F
100
AcDbEntity
  8
0
  6
Continuous
 62
     7
370
    25
100
AcDbLine
 10
119.1216653914
 20
158.8030615617
 30
0.0
 11
118.6220922094
 21
158.7824063959
 31
0.0
  0
LINE
  5
2DD
330
1F
100
AcDbEntity
  8
0
  6
Continuous
 62
     7
370
    25
100
AcDbLine
 10
118.6220922094
 20
158.7824063959
 30
0.0
 11
118.5427381184
 21
160.7016926438
 31
0.0
  0
LINE
  5
2DE
330
1F
100
AcDbEntity
  8
0
  6
Continuous
 62
     7
370
    25
100
AcDbLine
 10
121.4352206471
 20
156.1381641533
 30
0.0
 11
119.7333929537
 21
157.0290846185
 31
0.0
  0
LINE
  5
2DF
330
1F
100
AcDbEntity
  8
0
  6
Continuous
 62
     7
370
    25
100
AcDbLine
 10
119.7333929537
 20
157.0290846185
 30
0.0
 11
119.9652916464
 21
157.4720552681
 31
0.0
  0
LINE
  5
2E0
330
1F
100
AcDbEntity
  8
0
  6
Continuous
 62
     7
370
    25
100
AcDbLine
 10
119.5571290353
 20
157.1832590027
 30
0.0
 11
119.9652916464
 21
157.4720552681
 31
0.0
  0
ARC
  5
2E1
330
1F
100
AcDbEntity
  8
0
  6
Continuous
 62
     7
370
    25
100
AcDbCircle
 10
132.6183325902
 20
166.4247394954
 30
0.0
 40
16.00000000000001
100
AcDbArc
 50
209.453771138
 51
215.2813916209
  0
LINE
  5
2E2
330
1F
100
AcDbEntity
  8
0
  6
Continuous
 62
     7
370
    25
100
AcDbLine
 10
119.1216653914
 20
158.8030615617
 30
0.0
 11
118.6862890301
 21
158.5572009832
 31
0.0
  0
ARC
  5
2E3
330
1F
100
AcDbEntity
  8
0
  6
Continuous
 62
     7
370
    25
100
AcDbCircle
 10
119.1216653914
 20
158.8030615617
 30
0.0
 40
0.5000000000000124
100
AcDbArc
 50
182.3675813795
 51
209.453771138
  0
ARC
  5
2E4
330
1F
100
AcDbEntity
  8
0
  6
Continuous
 62
     7
370
    25
100
AcDbCircle
 10
119.9652916464
 20
157.4720552681
 30
0.0
 40
0.4999999999999925
100
AcDbArc
 50
215.2813916209
 51
242.3675813795
  0
ARC
  5
2E5
330
1F
100
AcDbEntity
  8
0
  6
Continuous
 62
     7
370
    25
100
AcDbCircle
 10
132.6183325902
 20
166.4247394954
 30
0.0
 40
9.57499999999998
100
AcDbArc
 50
325.5951096848
 51
119.4063269879
  0
ARC
  5
2E6
330
1F
100
AcDbEntity
  8
0
  6
Continuous
 62
     7
370
    25
100
AcDbCircle
 10
132.6183325902
 20
166.4247394954
 30
0.0
 40
9.574999999999976
100
AcDbArc
 50
119.4063269879
 51
214.4048903152
  0
ARC
  5
2E7
330
1F
100
AcDbEntity
  8
0
  6
Continuous
 62
     7
370
    25
100
AcDbCircle
 10
132.6183325902
 20
166.4247394954
 30
0.0
 40
8.049999999999997
100
AcDbArc
 50
29.4063269879
 51
191.0780164461
  0
ARC
  5
2E8
330
1F
100
AcDbEntity
  8
0
  6
Continuous
 62
     7
370
    25
100
AcDbCircle
 10
132.6183325902
 20
166.4247394954
 30
0.0
 40
8.050000000000026
100
AcDbArc
 50
348.9219835539
 51
29.4063269879
  0
ARC
  5
2E9
330
1F
100
AcDbEntity
  8
0
  6
Continuous
 62
     7
370
    25
100
AcDbCircle
 10
132.6183325902
 20
166.4247394954
 30
0.0
 40
8.250000000000028
100
AcDbArc
 50
343.2508741362
 51
119.4063269879
  0
ARC
  5
2EA
330
1F
100
AcDbEntity
  8
0
  6
Continuous
 62
     7
370
    25
100
AcDbCircle
 10
132.6183325902
 20
166.4247394954
 30
0.0
 40
8.250000000000007
100
AcDbArc
 50
119.4063269879
 51
196.7491258638
  0
ARC
  5
2EB
330
1F
100
AcDbEntity
  8
0
  6
Continuous
 62
     8
370
    25
100
AcDbCircle
 10
132.6655147838
 20
-46.3582700886
 30
0.0
 40
7.852911808525782
100
AcDbArc
 50
269.6557510264
 51
359.7196557283
  0
ARC
  5
2EC
330
1F
100
AcDbEntity
  8
0
  6
Continuous
 62
     8
370
    25
100
AcDbCircle
 10
132.5711503965
 20
-46.3582700886
 30
0.0
 40
7.85291180852584
100
AcDbArc
 50
180.2803442717
 51
270.3442489736
  0
ARC
  5
2ED
330
1F
100
AcDbEntity
  8
0
  6
Continuous
 62
     8
370
    25
100
AcDbCircle
 10
132.7139068344
 20
-46.8423872193
 30
0.0
 40
9.721901268305038
100
AcDbArc
 50
269.4367265329
 51
36.6048083592
  0
ARC
  5
2EE
330
1F
100
AcDbEntity
  8
0
  6
Continuous
 62
     8
370
    25
100
AcDbCircle
 10
132.5227583459
 20
-46.8423872193
 30
0.0
 40
9.721901268305048
100
AcDbArc
 50
143.3951916408
 51
270.5632734671
  0
LINE
  5
2EF
330
1F
100
AcDbEntity
  8
0
  6
Continuous
 62
     8
370
    25
100
AcDbLine
 10
142.9247180096
 20
-49.1375443628
 30
0.0
 11
143.18041096
 21
-49.2136200816
 31
0.0
  0
LINE
  5
2F0
330
1F
100
AcDbEntity
  8
0
  6
Continuous
 62
     8
370
    25
100
AcDbLine
 10
224.5233375797
 20
160.4996117243
 30
0.0
 11
224.5233375797
 21
172.3498672666
 31
0.0
  0
LINE
  5
2F1
330
1F
100
AcDbEntity
  8
0
  6
Continuous
 62
     8
370
    25
100
AcDbLine
 10
225.2777017945
 20
168.7970312797
 30
0.0
 11
225.2777017945
 21
162.2273061292
 31
0.0
  0
LINE
  5
2F2
330
1F
100
AcDbEntity
  8
0
  6
Continuous
 62
     8
370
    25
100
AcDbLine
 10
225.2777017945
 20
170.6221728617
 30
0.0
 11
225.2777017945
 21
168.7970312797
 31
0.0
  0
LINE
  5
2F3
330
1F
100
AcDbEntity
  8
0
  6
Continuous
 62
     8
370
    25
100
AcDbLine
 10
225.8154525182
 20
167.6827100216
 30
0.0
 11
226.0383543918
 21
167.6827100216
 31
0.0
  0
LINE
  5
2F4
330
1F
100
AcDbEntity
  8
0
  6
Continuous
 62
     8
370
    25
100
AcDbLine
 10
226.0383543918
 20
164.9719241607
 30
0.0
 11
225.8999126941
 21
164.9719241607
 31
0.0
  0
LINE
  5
2F5
330
1F
100
AcDbEntity
  8
0
  6
Continuous
 62
     8
370
    25
100
AcDbLine
 10
225.8841114697
 20
167.1993427199
 30
0.0
 11
226.0383543918
 21
167.1993427199
 31
0.0
  0
LINE
  5
2F6
330
1F
100
AcDbEntity
  8
0
  6
Continuous
 62
     8
370
    25
100
AcDbLine
 10
39.9589633858
 20
168.7970312797
 30
0.0
 11
39.9589633858
 21
170.6221728617
 31
0.0
  0
LINE
  5
2F7
330
1F
100
AcDbEntity
  8
0
  6
Continuous
 62
     8
370
    25
100
AcDbLine
 10
39.9589633858
 20
162.2273061292
 30
0.0
 11
39.9589633858
 21
168.7970312797
 31
0.0
  0
LINE
  5
2F8
330
1F
100
AcDbEntity
  8
0
  6
Continuous
 62
     8
370
    25
100
AcDbLine
 10
39.1983107885
 20
167.6827100216
 30
0.0
 11
39.4212126621
 21
167.6827100216
 31
0.0
  0
LINE
  5
2F9
330
1F
100
AcDbEntity
  8
0
  6
Continuous
 62
     8
370
    25
100
AcDbLine
 10
39.3367524862
 20
164.9719241607
 30
0.0
 11
39.1983107885
 21
164.9719241607
 31
0.0
  0
LINE
  5
2FA
330
1F
100
AcDbEntity
  8
0
  6
Continuous
 62
     8
370
    25
100
AcDbLine
 10
39.1983107885
 20
167.1993427199
 30
0.0
 11
39.3525537106
 21
167.1993427199
 31
0.0
  0
LINE
  5
2FB
330
1F
100
AcDbEntity
  8
0
  6
Continuous
 62
     8
370
    25
100
AcDbLine
 10
40.7133276006
 20
160.9142149479
 30
0.0
 11
40.7133276006
 21
160.4996117243
 31
0.0
  0
LINE
  5
2FC
330
1F
100
AcDbEntity
  8
0
  6
Continuous
 62
     8
370
    25
100
AcDbLine
 10
40.7133276006
 20
172.3498672666
 30
0.0
 11
40.7133276006
 21
160.9142149479
 31
0.0
  0
LINE
  5
2FD
330
1F
100
AcDbEntity
  8
0
  6
Continuous
 62
     8
370
    25
100
AcDbLine
 10
218.0563765473
 20
158.5245694385
 30
0.0
 11
218.0563765473
 21
157.69450274
 31
0.0
  0
LINE
  5
2FE
330
1F
100
AcDbEntity
  8
0
  6
Continuous
 62
     8
370
    25
100
AcDbLine
 10
217.1229563334
 20
175.6621117389
 30
0.0
 11
217.1229563334
 21
174.8261582007
 31
0.0
  0
LINE
  5
2FF
330
1F
100
AcDbEntity
  8
0
  6
Continuous
 62
     8
370
    25
100
AcDbLine
 10
222.4270587934
 20
157.7707932824
 30
0.0
 11
222.4270587934
 21
175.5695282861
 31
0.0
  0
ARC
  5
300
330
1F
100
AcDbEntity
  8
0
  6
Continuous
 62
     8
370
    25
100
AcDbCircle
 10
212.5831741037
 20
176.3037965229
 30
0.0
 40
1.99719325415662
100
AcDbArc
 50
21.0122086051
 51
89.4244113789
  0
SPLINE
  5
301
330
1F
100
AcDbEntity
  8
0
  6
Continuous
 62
     8
370
    25
100
AcDbSpline
210
0.0
220
0.0
230
1.0
 70
     8
 71
     3
 72
    11
 73
     7
 74
     0
 42
0.00000001
 43
0.00000001
 40
0.0
 40
0.0
 40
0.0
 40
0.0
 40
0.2826501073666249
 40
0.8581489095904482
 40
0.8613649112870387
 40
1.0
 40
1.0
 40
1.0
 40
1.0
 10
215.827450004202
 20
176.0000597557659
 30
0.0
 10
215.9397194010116
 20
175.9391322540169
 30
0.0
 10
216.280578498325
 20
175.75415136129
 30
0.0
 10
216.6584324758412
 20
175.3571199913647
 30
0.0
 10
216.9688115691918
 20
174.982924387257
 30
0.0
 10
217.030314063923
 20
174.9039394541009
 30
0.0
 10
217.0904221941354
 20
174.8267452416104
 30
0.0
  0
SPLINE
  5
302
330
1F
100
AcDbEntity
  8
0
  6
Continuous
 62
     8
370
    25
100
AcDbSpline
210
0.0
220
0.0
230
1.0
 70
     8
 71
     3
 72
     9
 73
     5
 74
     0
 42
0.00000001
 43
0.00000001
 40
0.0
 40
0.0
 40
0.0
 40
0.0
 40
0.3530215453708969
 40
1.0
 40
1.0
 40
1.0
 40
1.0
 10
218.0117702141189
 20
158.5237628214377
 30
0.0
 10
217.8196727017846
 20
158.3304518160774
 30
0.0
 10
217.2755203268001
 20
157.7828619936005
 30
0.0
 10
216.7552830869923
 20
157.478640429441
 30
0.0
 10
216.418700801541
 20
157.2818156319963
 30
0.0
  0
ARC
  5
303
330
1F
100
AcDbEntity
  8
0
  6
Continuous
 62
     8
370
    25
100
AcDbCircle
 10
212.68886018
 20
156.9289081617
 30
0.0
 40
1.935629434209538
100
AcDbArc
 50
269.1328601458
 51
335.5788705465
  0
ARC
  5
304
330
1F
100
AcDbEntity
  8
0
  6
Continuous
 62
     8
370
    25
100
AcDbCircle
 10
212.5829881372
 20
176.3517763298
 30
0.0
 40
1.996106121819756
100
AcDbArc
 50
19.5637302954
 51
89.4187596751
  0
LINE
  5
305
330
1F
100
AcDbEntity
  8
0
  6
Continuous
 62
     8
370
    25
100
AcDbLine
 10
208.5770587934
 20
154.924026871
 30
0.0
 11
208.5770587934
 21
154.6983473219
 31
0.0
  0
LINE
  5
306
330
1F
100
AcDbEntity
  8
0
  6
Continuous
 62
     8
370
    25
100
AcDbLine
 10
208.5770587934
 20
178.6419742466
 30
0.0
 11
208.5770587934
 21
178.4162946975
 31
0.0
  0
LINE
  5
307
330
1F
100
AcDbEntity
  8
0
  6
Continuous
 62
     8
370
    25
100
AcDbLine
 10
212.603237403
 20
154.768624531
 30
0.0
 11
212.603237403
 21
154.7852133373
 31
0.0
  0
LINE
  5
308
330
1F
100
AcDbEntity
  8
0
  6
Continuous
 62
     8
370
    25
100
AcDbLine
 10
212.603237403
 20
178.3477797409
 30
0.0
 11
212.603237403
 21
178.5716970375
 31
0.0
  0
ARC
  5
309
330
1F
100
AcDbEntity
  8
0
  6
Continuous
 62
     8
370
    25
100
AcDbCircle
 10
212.5692570425
 20
156.7851369661
 30
0.0
 40
2.00021228519052
100
AcDbArc
 50
270.9734091321
 51
332.2807513659
  0
LINE
  5
30A
330
1F
100
AcDbEntity
  8
0
  6
Continuous
 62
     8
370
    25
100
AcDbLine
 10
47.180288633
 20
174.5703308412
 30
0.0
 11
47.180288633
 21
175.4003975397
 31
0.0
  0
LINE
  5
30B
330
1F
100
AcDbEntity
  8
0
  6
Continuous
 62
     8
370
    25
100
AcDbLine
 10
48.1137088469
 20
157.4327885408
 30
0.0
 11
48.1137088469
 21
158.268742079
 31
0.0
  0
LINE
  5
30C
330
1F
100
AcDbEntity
  8
0
  6
Continuous
 62
     8
370
    25
100
AcDbLine
 10
42.8096063869
 20
175.3241069973
 30
0.0
 11
42.8096063869
 21
157.5253719936
 31
0.0
  0
ARC
  5
30D
330
1F
100
AcDbEntity
  8
0
  6
Continuous
 62
     8
370
    25
100
AcDbCircle
 10
52.6534910766
 20
156.7911037568
 30
0.0
 40
1.997193254156563
100
AcDbArc
 50
201.0122086051
 51
269.4244113789
  0
SPLINE
  5
30E
330
1F
100
AcDbEntity
  8
0
  6
Continuous
 62
     8
370
    25
100
AcDbSpline
210
0.0
220
0.0
230
1.0
 70
     8
 71
     3
 72
    11
 73
     7
 74
     0
 42
0.00000001
 43
0.00000001
 40
0.0
 40
0.0
 40
0.0
 40
0.0
 40
0.2826501073666268
 40
0.8581489095904486
 40
0.8613649112870395
 40
1.0
 40
1.0
 40
1.0
 40
1.0
 10
49.4092151761035
 20
157.0948405239217
 30
0.0
 10
49.29694577929394
 20
157.1557680256707
 30
0.0
 10
48.95608668198068
 20
157.3407489183975
 30
0.0
 10
48.57823270446298
 20
157.7377802883245
 30
0.0
 10
48.26785361111402
 20
158.1119758924303
 30
0.0
 10
48.20635111638271
 20
158.1909608255866
 30
0.0
 10
48.14624298617004
 20
158.2681550380772
 30
0.0
  0
SPLINE
  5
30F
330
1F
100
AcDbEntity
  8
0
  6
Continuous
 62
     8
370
    25
100
AcDbSpline
210
0.0
220
0.0
230
1.0
 70
     8
 71
     3
 72
     9
 73
     5
 74
     0
 42
0.00000001
 43
0.00000001
 40
0.0
 40
0.0
 40
0.0
 40
0.0
 40
0.3530215453708971
 40
1.0
 40
1.0
 40
1.0
 40
1.0
 10
47.22489496618657
 20
174.57113745825
 30
0.0
 10
47.41699247852085
 20
174.7644484636102
 30
0.0
 10
47.96114485350542
 20
175.3120382860872
 30
0.0
 10
48.48138209331317
 20
175.6162598502466
 30
0.0
 10
48.8179643787645
 20
175.8130846476913
 30
0.0
  0
ARC
  5
310
330
1F
100
AcDbEntity
  8
0
  6
Continuous
 62
     8
370
    25
100
AcDbCircle
 10
52.5478050003
 20
176.165992118
 30
0.0
 40
1.935629434209778
100
AcDbArc
 50
89.1328601458
 51
155.5788705464
  0
ARC
  5
311
330
1F
100
AcDbEntity
  8
0
  6
Continuous
 62
     8
370
    25
100
AcDbCircle
 10
52.6536770431
 20
156.7431239499
 30
0.0
 40
1.996106121819871
100
AcDbArc
 50
199.5637302954
 51
269.4187596751
  0
LINE
  5
312
330
1F
100
AcDbEntity
  8
0
  6
Continuous
 62
     8
370
    25
100
AcDbLine
 10
56.6596063869
 20
178.1708734087
 30
0.0
 11
56.6596063869
 21
178.3965529577
 31
0.0
  0
LINE
  5
313
330
1F
100
AcDbEntity
  8
0
  6
Continuous
 62
     8
370
    25
100
AcDbLine
 10
56.6596063869
 20
154.4529260331
 30
0.0
 11
56.6596063869
 21
154.6786055822
 31
0.0
  0
LINE
  5
314
330
1F
100
AcDbEntity
  8
0
  6
Continuous
 62
     8
370
    25
100
AcDbLine
 10
52.6334277773
 20
154.7471205388
 30
0.0
 11
52.6334277773
 21
154.5232032422
 31
0.0
  0
LINE
  5
315
330
1F
100
AcDbEntity
  8
0
  6
Continuous
 62
     8
370
    25
100
AcDbLine
 10
52.6334277773
 20
178.3262757487
 30
0.0
 11
52.6334277773
 21
178.3096869424
 31
0.0
  0
ARC
  5
316
330
1F
100
AcDbEntity
  8
0
  6
Continuous
 62
     8
370
    25
100
AcDbCircle
 10
52.6674081378
 20
176.3097633136
 30
0.0
 40
2.000212285190474
100
AcDbArc
 50
90.9734091321
 51
152.2807513659
  0
SPLINE
  5
317
330
1F
100
AcDbEntity
  8
0
  6
Continuous
 62
     8
370
    25
100
AcDbSpline
210
0.0
220
0.0
230
1.0
 70
     8
 71
     3
 72
     9
 73
     5
 74
     0
 42
0.00000001
 43
0.00000001
 40
0.0
 40
0.0
 40
0.0
 40
0.0
 40
0.5990487405209016
 40
1.0
 40
1.0
 40
1.0
 40
1.0
 10
142.3625029529357
 20
155.6703761115212
 30
0.0
 10
142.5305579893714
 20
155.8028210526239
 30
0.0
 10
142.8110944884377
 20
156.0239131477139
 30
0.0
 10
143.0459325308586
 20
156.2955593569855
 30
0.0
 10
143.1400911397409
 20
156.4044762467258
 30
0.0
  0
ARC
  5
318
330
1F
100
AcDbEntity
  8
0
  6
Continuous
 62
     8
370
    25
100
AcDbCircle
 10
147.9017497217
 20
181.9373414343
 30
0.0
 40
10.54947996540518
100
AcDbArc
 50
262.7677236859
 51
287.6500232438
  0
ARC
  5
319
330
1F
100
AcDbEntity
  8
0
  6
Continuous
 62
     8
370
    25
100
AcDbCircle
 10
147.3612105183
 20
147.6006084061
 30
0.0
 40
13.87763268070618
100
AcDbArc
 50
74.3691692462
 51
90.933396377
  0
ARC
  5
31A
330
1F
100
AcDbEntity
  8
0
  6
Continuous
 62
     8
370
    25
100
AcDbCircle
 10
117.8754546621
 20
185.2488705847
 30
0.0
 40
13.87763268070694
100
AcDbArc
 50
254.3691692462
 51
270.933396377
  0
ARC
  5
31B
330
1F
100
AcDbEntity
  8
0
  6
Continuous
 62
     8
370
    25
100
AcDbCircle
 10
117.3349154586
 20
150.9121375565
 30
0.0
 40
10.54947996540497
100
AcDbArc
 50
82.7677236859
 51
107.6500232438
  0
LWPOLYLINE
  5
31C
330
1F
100
AcDbEntity
  8
0
  6
Continuous
 62
     8
370
    25
100
AcDbPolyline
 90
        3
 70
   128
 43
0.0
 10
120.5149912644
 20
175.6837992328
 10
120.4440514163
 20
175.7060142105
 10
120.2316414419
 20
175.7800915992
  0
SPLINE
  5
31D
330
1F
100
AcDbEntity
  8
0
  6
Continuous
 62
     8
370
    25
100
AcDbSpline
210
0.0
220
0.0
230
1.0
 70
     8
 71
     3
 72
    10
 73
     6
 74
     0
 42
0.00000001
 43
0.00000001
 40
0.0
 40
0.0
 40
0.0
 40
0.0
 40
0.2690419970047674
 40
0.7981687435934559
 40
0.9999999999999999
 40
0.9999999999999999
 40
0.9999999999999999
 40
0.9999999999999999
 10
146.1805415083266
 20
174.8757736409482
 30
0.0
 10
146.5913275746437
 20
174.5508486544037
 30
0.0
 10
147.8100094239023
 20
173.5868914612532
 30
0.0
 10
149.4327441569955
 20
172.6001651647747
 30
0.0
 10
150.7395415635586
 20
172.0393233490582
 30
0.0
 10
151.1003729127671
 20
171.8844643724172
 30
0.0
  0
LWPOLYLINE
  5
31E
330
1F
100
AcDbEntity
  8
0
  6
Continuous
 62
     8
370
    25
100
AcDbPolyline
 90
        3
 70
   128
 43
0.0
 10
145.0050237385
 20
157.0693873917
 10
144.792613764
 20
157.1434647804
 10
144.7216739159
 20
157.165679758
  0
SPLINE
  5
31F
330
1F
100
AcDbEntity
  8
0
  6
Continuous
 62
     8
370
    25
100
AcDbSpline
210
0.0
220
0.0
230
1.0
 70
     8
 71
     3
 72
     9
 73
     5
 74
     0
 42
0.00000001
 43
0.00000001
 40
0.0
 40
0.0
 40
0.0
 40
0.0
 40
0.508540846603281
 40
1.0
 40
1.0
 40
1.0
 40
1.0
 10
114.1362922675384
 20
160.9650146184422
 30
0.0
 10
115.0393054698306
 20
160.5519105454081
 30
0.0
 10
116.8150000051345
 20
159.7395784076983
 30
0.0
 10
118.3462848750178
 20
158.5103919287779
 30
0.0
 10
119.0988488407798
 20
157.9062969824809
 30
0.0
  0
SPLINE
  5
320
330
1F
100
AcDbEntity
  8
0
  6
Continuous
 62
     8
370
    25
100
AcDbSpline
210
0.0
220
0.0
230
1.0
 70
     8
 71
     3
 72
    10
 73
     6
 74
     0
 42
0.00000001
 43
0.00000001
 40
0.0
 40
0.0
 40
0.0
 40
0.0
 40
0.2235812237394957
 40
0.7309018650606209
 40
1.0
 40
1.0
 40
1.0
 40
1.0
 10
135.9994480572992
 20
180.7957226522161
 30
0.0
 10
136.6632153377808
 20
180.6414467239226
 30
0.0
 10
138.8331146484468
 20
180.1371084711946
 30
0.0
 10
141.6522565746458
 20
178.7271875197139
 30
0.0
 10
143.4354362664518
 20
177.1321883111902
 30
0.0
 10
144.053466566592
 20
176.5793792790456
 30
0.0
  0
SPLINE
  5
321
330
1F
100
AcDbEntity
  8
0
  6
Continuous
 62
     8
370
    25
100
AcDbSpline
210
0.0
220
0.0
230
1.0
 70
     8
 71
     3
 72
    10
 73
     6
 74
     0
 42
0.00000001
 43
0.00000001
 40
0.0
 40
0.0
 40
0.0
 40
0.0
 40
0.097452233232986
 40
0.6000722160634547
 40
1.0
 40
1.0
 40
1.0
 40
1.0
 10
128.1277126670595
 20
180.5089391874271
 30
0.0
 10
127.8362251047496
 20
180.4379531746758
 30
0.0
 10
126.0413602600204
 20
180.0008494514661
 30
0.0
 10
123.2335597985083
 20
178.4938336031833
 30
0.0
 10
121.1533866180205
 20
176.6133516363904
 30
0.0
 10
120.2316414418546
 20
175.7800915991893
 30
0.0
  0
SPLINE
  5
322
330
1F
100
AcDbEntity
  8
0
  6
Continuous
 62
     8
370
    25
100
AcDbSpline
210
0.0
220
0.0
230
1.0
 70
     8
 71
     3
 72
    10
 73
     6
 74
     0
 42
0.00000001
 43
0.00000001
 40
0.0
 40
0.0
 40
0.0
 40
0.0
 40
0.3191784214507695
 40
0.8957407084868505
 40
1.0
 40
1.0
 40
1.0
 40
1.0
 10
121.0436939901582
 20
156.3431315026371
 30
0.0
 10
121.3896871866425
 20
156.0252797098471
 30
0.0
 10
122.3606807442327
 20
155.1332620453275
 30
0.0
 10
123.5664106466591
 20
154.2505070900736
 30
0.0
 10
124.4754469713667
 20
153.8334231267351
 30
0.0
 10
124.6146544908693
 20
153.7695519453724
 30
0.0
  0
SPLINE
  5
323
330
1F
100
AcDbEntity
  8
0
  6
Continuous
 62
     8
370
    25
100
AcDbSpline
210
0.0
220
0.0
230
1.0
 70
     8
 71
     3
 72
    10
 73
     6
 74
     0
 42
0.00000001
 43
0.00000001
 40
0.0
 40
0.0
 40
0.0
 40
0.0
 40
0.4445016749631699
 40
0.8976202267333362
 40
1.0
 40
1.0
 40
1.0
 40
1.0
 10
145.0050237384508
 20
157.06938739167
 30
0.0
 10
144.3949469250086
 20
156.5030746887357
 30
0.0
 10
143.162966668349
 20
155.3594710412312
 30
0.0
 10
141.6376202564109
 20
154.2307572216277
 30
0.0
 10
140.6925174699765
 20
153.8000501024481
 30
0.0
 10
140.5183325901527
 20
153.7206696701074
 30
0.0
  0
ARC
  5
324
330
1F
100
AcDbEntity
  8
0
  6
Continuous
 62
     8
370
    25
100
AcDbCircle
 10
131.1166475217
 20
164.1070566991
 30
0.0
 40
12.95489440753197
100
AcDbArc
 50
215.43874522
 51
240.4033051406
  0
ARC
  5
325
330
1F
100
AcDbEntity
  8
0
  6
Continuous
 62
     8
370
    25
100
AcDbCircle
 10
134.0664720174
 20
164.1855232721
 30
0.0
 40
13.04957101302668
100
AcDbArc
 50
299.6309645688
 51
326.953760269
  0
ARC
  5
326
330
1F
100
AcDbEntity
  8
0
  6
Continuous
 62
     8
370
    25
100
AcDbCircle
 10
134.8767538098
 20
169.5654592289
 30
0.0
 40
11.86339531062653
100
AcDbArc
 50
34.3192740789
 51
88.490848185
  0
LINE
  5
327
330
1F
100
AcDbEntity
  8
0
  6
Continuous
 62
     8
370
    25
100
AcDbLine
 10
135.1891955742
 20
181.4247394954
 30
0.0
 11
134.629844064
 21
181.3474346532
 31
0.0
  0
ARC
  5
328
330
1F
100
AcDbEntity
  8
0
  6
Continuous
 62
     8
370
    25
100
AcDbCircle
 10
130.4240706317
 20
169.4427374429
 30
0.0
 40
12.00198610613525
100
AcDbArc
 50
94.1556406256
 51
148.1278604985
  0
ARC
  5
329
330
1F
100
AcDbEntity
  8
0
  6
Continuous
 62
     8
370
    25
100
AcDbCircle
 10
132.6183325902
 20
166.4247394954
 30
0.0
 40
15.79423749544211
100
AcDbArc
 50
71.7526233598
 51
87.4912479452
  0
ARC
  5
32A
330
1F
100
AcDbEntity
  8
0
  6
Continuous
 62
     8
370
    25
100
AcDbCircle
 10
132.6183325902
 20
166.4247394954
 30
0.0
 40
15.7942374954421
100
AcDbArc
 50
97.2439148137
 51
108.2473766402
  0
LWPOLYLINE
  5
32B
330
1F
100
AcDbEntity
  8
0
  6
Continuous
 62
     8
370
    25
100
AcDbPolyline
 90
        3
 70
   128
 43
0.0
 10
124.7183325902
 20
149.7557571253
 10
122.8432973801
 20
150.7814131261
 10
121.882179962
 20
151.4247394954
  0
ARC
  5
32C
330
1F
100
AcDbEntity
  8
0
  6
Continuous
 62
     8
370
    25
100
AcDbCircle
 10
132.6183325902
 20
166.4247394954
 30
0.0
 40
18.44627261143965
100
AcDbArc
 50
54.407052935
 51
125.592947065
  0
LWPOLYLINE
  5
32D
330
1F
100
AcDbEntity
  8
0
  6
Continuous
 62
     8
370
    25
100
AcDbPolyline
 90
        3
 70
   128
 43
0.0
 10
143.3544852183
 20
151.4247394954
 10
142.3933678003
 20
150.7814131261
 10
140.5183325902
 20
149.7557571253
  0
ARC
  5
32E
330
1F
100
AcDbEntity
  8
0
  6
Continuous
 62
     8
370
    25
100
AcDbCircle
 10
132.6183325902
 20
166.4247394954
 30
0.0
 40
27.1874316137987
100
AcDbArc
 50
286.8924101234
 51
326.5145280392
  0
ARC
  5
32F
330
1F
100
AcDbEntity
  8
0
  6
Continuous
 62
     8
370
    25
100
AcDbCircle
 10
132.6183325902
 20
166.4247394954
 30
0.0
 40
27.18743161379872
100
AcDbArc
 50
33.4854719608
 51
146.5145280392
  0
ARC
  5
330
330
1F
100
AcDbEntity
  8
0
  6
Continuous
 62
     8
370
    25
100
AcDbCircle
 10
132.6183325902
 20
166.4247394954
 30
0.0
 40
27.18743161379869
100
AcDbArc
 50
213.4854719608
 51
253.1075898766
  0
ARC
  5
331
330
1F
100
AcDbEntity
  8
0
  6
Continuous
 62
     8
370
    25
100
AcDbCircle
 10
132.6183325902
 20
166.4247394954
 30
0.0
 40
11.05993649053894
100
AcDbArc
 50
182.3675813795
 51
224.4149728023
  0
ARC
  5
332
330
1F
100
AcDbEntity
  8
0
  6
Continuous
 62
     8
370
    25
100
AcDbCircle
 10
132.6183325902
 20
166.4247394954
 30
0.0
 40
11.05993649053895
100
AcDbArc
 50
315.5850271977
 51
182.3675813795
  0
ARC
  5
333
330
1F
100
AcDbEntity
  8
0
  6
Continuous
 62
     8
370
    25
100
AcDbCircle
 10
132.6183325902
 20
166.4247394954
 30
0.0
 40
11.30993649053895
100
AcDbArc
 50
314.3068486059
 51
182.3675813795
  0
ARC
  5
334
330
1F
100
AcDbEntity
  8
0
  6
Continuous
 62
     8
370
    25
100
AcDbCircle
 10
132.6183325902
 20
166.4247394954
 30
0.0
 40
11.30993649053895
100
AcDbArc
 50
182.3675813795
 51
225.6931513941
  0
SPLINE
  5
335
330
1F
100
AcDbEntity
  8
0
  6
Continuous
 62
     8
370
    25
100
AcDbSpline
210
0.0
220
0.0
230
1.0
 70
     8
 71
     3
 72
     9
 73
     5
 74
     0
 42
0.00000001
 43
0.00000001
 40
0.0
 40
0.0
 40
0.0
 40
0.0
 40
0.5050734883508633
 40
1.0
 40
1.0
 40
1.0
 40
1.0
 10
123.0447655133991
 20
155.5777402279662
 30
0.0
 10
123.3197363233578
 20
155.3889415299208
 30
0.0
 10
123.8641537523075
 20
155.0151371184839
 30
0.0
 10
124.4355389215376
 20
154.683200159486
 30
0.0
 10
124.7183325901527
 20
154.5189157582818
 30
0.0
  0
SPLINE
  5
336
330
1F
100
AcDbEntity
  8
0
  6
Continuous
 62
     8
370
    25
100
AcDbSpline
210
0.0
220
0.0
230
1.0
 70
     8
 71
     3
 72
     9
 73
     5
 74
     0
 42
0.00000001
 43
0.00000001
 40
0.0
 40
0.0
 40
0.0
 40
0.0
 40
0.0775288618466624
 40
1.0
 40
1.0
 40
1.0
 40
1.0
 10
140.6128117950683
 20
154.6153047899669
 30
0.0
 10
140.6791040646313
 20
154.6569060265479
 30
0.0
 10
141.5341697522208
 20
155.1934963438839
 30
0.0
 10
142.3250662840528
 20
155.8237086113186
 30
0.0
 10
143.0546455079333
 20
156.4050612389374
 30
0.0
  0
ARC
  5
337
330
1F
100
AcDbEntity
  8
0
  6
Continuous
 62
     8
370
    25
100
AcDbCircle
 10
132.6183325902
 20
166.4247394954
 30
0.0
 40
9.374999999999998
100
AcDbArc
 50
119.4063269879
 51
212.5772063232
  0
ARC
  5
338
330
1F
100
AcDbEntity
  8
0
  6
Continuous
 62
     8
370
    25
100
AcDbCircle
 10
132.6183325902
 20
166.4247394954
 30
0.0
 40
9.374999999999998
100
AcDbArc
 50
327.4227936768
 51
119.4063269879
  0
ENDSEC
  0
SECTION
  2
OBJECTS
  0
DICTIONARY
  5
C
330
0
100
AcDbDictionary
281
     1
  3
ACAD_GROUP
350
D
  3
ACAD_LAYOUT
350
1A
  3
ACAD_MLINESTYLE
350
17
  3
ACAD_PLOTSETTINGS
350
19
  3
ACAD_PLOTSTYLENAME
350
E
  3
ACAD_SCALELIST
350
47
  3
DWGPROPS
350
339
  0
DICTIONARY
  5
D
102
{ACAD_REACTORS
330
C
102
}
330
C
100
AcDbDictionary
281
     1
  0
DICTIONARY
  5
1A
102
{ACAD_REACTORS
330
C
102
}
330
C
100
AcDbDictionary
281
     1
  3
Layout1
350
1E
  3
Layout2
350
26
  3
Model
350
22
  0
DICTIONARY
  5
17
102
{ACAD_REACTORS
330
C
102
}
330
C
100
AcDbDictionary
281
     1
  3
Standard
350
18
  0
DICTIONARY
  5
19
102
{ACAD_REACTORS
330
C
102
}
330
C
100
AcDbDictionary
281
     1
  0
ACDBDICTIONARYWDFLT
  5
E
102
{ACAD_REACTORS
330
C
102
}
330
C
100
AcDbDictionary
281
     1
  3
Normal
350
F
100
AcDbDictionaryWithDefault
340
F
  0
DICTIONARY
  5
47
102
{ACAD_REACTORS
330
C
102
}
330
C
100
AcDbDictionary
281
     1
  3
A0
350
48
  3
A1
350
49
  3
A2
350
4A
  3
A3
350
4B
  3
A4
350
4C
  3
A5
350
4D
  3
A6
350
4E
  3
A7
350
4F
  3
A8
350
50
  3
A9
350
51
  3
B0
350
52
  3
B1
350
53
  3
B2
350
54
  3
B3
350
55
  3
B4
350
56
  3
B5
350
57
  3
B6
350
58
  3
B7
350
59
  3
B8
350
5A
  3
B9
350
5B
  3
C0
350
5C
  3
C1
350
5D
  3
C2
350
5E
  3
C3
350
5F
  3
C4
350
60
  3
C5
350
61
  3
C6
350
62
  3
C7
350
63
  3
C8
350
64
  3
C9
350
65
  3
D0
350
66
  3
D1
350
67
  3
D2
350
68
  0
XRECORD
  5
339
102
{ACAD_REACTORS
330
C
102
}
330
C
100
AcDbXrecord
280
     1
  1
DWGPROPS COOKIE
  2

  3

  4

  6

  7

  8
DS-1
  9

300
=
301
=
302
=
303
=
304
=
305
=
306
=
307
=
308
=
309
=
 40
0.0
 41
2460383.499332916
 42
2460383.499333507
  1

 90
        0
  0
LAYOUT
  5
1E
102
{ACAD_REACTORS
330
1A
102
}
330
1A
100
AcDbPlotSettings
  1

  2
none_device
  4

  6

 40
0.0
 41
0.0
 42
0.0
 43
0.0
 44
0.0
 45
0.0
 46
0.0
 47
0.0
 48
0.0
 49
0.0
140
0.0
141
0.0
142
1.0
143
1.0
 70
   688
 72
     1
 73
     0
 74
     5
  7

 75
    16
147
1.0
148
0.0
149
0.0
100
AcDbLayout
  1
Layout1
 70
     1
 71
     1
 10
0.0
 20
0.0
 11
420.0
 21
297.0
 12
0.0
 22
0.0
 32
0.0
 14
1.0000000000E+20
 24
1.0000000000E+20
 34
1.0000000000E+20
 15
-1.0000000000E+20
 25
-1.0000000000E+20
 35
-1.0000000000E+20
146
0.0
 13
0.0
 23
0.0
 33
0.0
 16
1.0
 26
0.0
 36
0.0
 17
0.0
 27
1.0
 37
0.0
 76
     0
330
1B
  0
LAYOUT
  5
26
102
{ACAD_REACTORS
330
1A
102
}
330
1A
100
AcDbPlotSettings
  1

  2
none_device
  4

  6

 40
0.0
 41
0.0
 42
0.0
 43
0.0
 44
0.0
 45
0.0
 46
0.0
 47
0.0
 48
0.0
 49
0.0
140
0.0
141
0.0
142
1.0
143
1.0
 70
   688
 72
     1
 73
     0
 74
     5
  7

 75
    16
147
1.0
148
0.0
149
0.0
100
AcDbLayout
  1
Layout2
 70
     1
 71
     2
 10
0.0
 20
0.0
 11
0.0
 21
0.0
 12
0.0
 22
0.0
 32
0.0
 14
0.0
 24
0.0
 34
0.0
 15
0.0
 25
0.0
 35
0.0
146
0.0
 13
0.0
 23
0.0
 33
0.0
 16
1.0
 26
0.0
 36
0.0
 17
0.0
 27
1.0
 37
0.0
 76
     0
330
23
  0
LAYOUT
  5
22
102
{ACAD_REACTORS
330
1A
102
}
330
1A
100
AcDbPlotSettings
  1

  2
none_device
  4
Letter_(8.50_x_11.00_Inches)
  6

 40
6.35
 41
6.35
 42
6.35000508
 43
6.35000508
 44
215.9
 45
279.4
 46
0.0
 47
0.0
 48
0.0
 49
0.0
140
0.0
141
0.0
142
1.0
143
1.0
 70
  1712
 72
     1
 73
     0
 74
     0
  7

 75
     0
147
1.0
148
0.0
149
0.0
100
AcDbLayout
  1
Model
 70
     1
 71
     0
 10
0.0
 20
0.0
 11
279.4
 21
215.9
 12
0.0
 22
0.0
 32
0.0
 14
0.0
 24
0.0
 34
0.0
 15
279.4
 25
215.9
 35
0.0
146
0.0
 13
0.0
 23
0.0
 33
0.0
 16
1.0
 26
0.0
 36
0.0
 17
0.0
 27
1.0
 37
0.0
 76
     0
330
1F
331
29
  0
MLINESTYLE
  5
18
102
{ACAD_REACTORS
330
17
102
}
330
17
100
AcDbMlineStyle
  2
Standard
 70
     0
  3

 62
   256
 51
90.0
 52
90.0
 71
     2
 49
0.5
 62
   256
  6
BYLAYER
 49
-0.5
 62
   256
  6
BYLAYER
  0
ACDBPLACEHOLDER
  5
F
102
{ACAD_REACTORS
330
E
102
}
330
E
  0
SCALE
  5
48
102
{ACAD_REACTORS
330
47
102
}
330
47
100
AcDbScale
 70
     0
300
1:1
140
1.0
141
1.0
290
     1
  0
SCALE
  5
49
102
{ACAD_REACTORS
330
47
102
}
330
47
100
AcDbScale
 70
     0
300
1:2
140
1.0
141
2.0
290
     0
  0
SCALE
  5
4A
102
{ACAD_REACTORS
330
47
102
}
330
47
100
AcDbScale
 70
     0
300
1:4
140
1.0
141
4.0
290
     0
  0
SCALE
  5
4B
102
{ACAD_REACTORS
330
47
102
}
330
47
100
AcDbScale
 70
     0
300
1:5
140
1.0
141
5.0
290
     0
  0
SCALE
  5
4C
102
{ACAD_REACTORS
330
47
102
}
330
47
100
AcDbScale
 70
     0
300
1:8
140
1.0
141
8.0
290
     0
  0
SCALE
  5
4D
102
{ACAD_REACTORS
330
47
102
}
330
47
100
AcDbScale
 70
     0
300
1:10
140
1.0
141
10.0
290
     0
  0
SCALE
  5
4E
102
{ACAD_REACTORS
330
47
102
}
330
47
100
AcDbScale
 70
     0
300
1:16
140
1.0
141
16.0
290
     0
  0
SCALE
  5
4F
102
{ACAD_REACTORS
330
47
102
}
330
47
100
AcDbScale
 70
     0
300
1:20
140
1.0
141
20.0
290
     0
  0
SCALE
  5
50
102
{ACAD_REACTORS
330
47
102
}
330
47
100
AcDbScale
 70
     0
300
1:30
140
1.0
141
30.0
290
     0
  0
SCALE
  5
51
102
{ACAD_REACTORS
330
47
102
}
330
47
100
AcDbScale
 70
     0
300
1:40
140
1.0
141
40.0
290
     0
  0
SCALE
  5
52
102
{ACAD_REACTORS
330
47
102
}
330
47
100
AcDbScale
 70
     0
300
1:50
140
1.0
141
50.0
290
     0
  0
SCALE
  5
53
102
{ACAD_REACTORS
330
47
102
}
330
47
100
AcDbScale
 70
     0
300
1:100
140
1.0
141
100.0
290
     0
  0
SCALE
  5
54
102
{ACAD_REACTORS
330
47
102
}
330
47
100
AcDbScale
 70
     0
300
2:1
140
2.0
141
1.0
290
     0
  0
SCALE
  5
55
102
{ACAD_REACTORS
330
47
102
}
330
47
100
AcDbScale
 70
     0
300
4:1
140
4.0
141
1.0
290
     0
  0
SCALE
  5
56
102
{ACAD_REACTORS
330
47
102
}
330
47
100
AcDbScale
 70
     0
300
8:1
140
8.0
141
1.0
290
     0
  0
SCALE
  5
57
102
{ACAD_REACTORS
330
47
102
}
330
47
100
AcDbScale
 70
     0
300
10:1
140
10.0
141
1.0
290
     0
  0
SCALE
  5
58
102
{ACAD_REACTORS
330
47
102
}
330
47
100
AcDbScale
 70
     0
300
100:1
140
100.0
141
1.0
290
     0
  0
SCALE
  5
59
102
{ACAD_REACTORS
330
47
102
}
330
47
100
AcDbScale
 70
     0
300
1/128" = 1'-0"
140
0.0078125
141
12.0
290
     0
  0
SCALE
  5
5A
102
{ACAD_REACTORS
330
47
102
}
330
47
100
AcDbScale
 70
     0
300
1/64" = 1'-0"
140
0.015625
141
12.0
290
     0
  0
SCALE
  5
5B
102
{ACAD_REACTORS
330
47
102
}
330
47
100
AcDbScale
 70
     0
300
1/32" = 1'-0"
140
0.03125
141
12.0
290
     0
  0
SCALE
  5
5C
102
{ACAD_REACTORS
330
47
102
}
330
47
100
AcDbScale
 70
     0
300
1/16" = 1'-0"
140
0.0625
141
12.0
290
     0
  0
SCALE
  5
5D
102
{ACAD_REACTORS
330
47
102
}
330
47
100
AcDbScale
 70
     0
300
3/32" = 1'-0"
140
0.09375
141
12.0
290
     0
  0
SCALE
  5
5E
102
{ACAD_REACTORS
330
47
102
}
330
47
100
AcDbScale
 70
     0
300
1/8" = 1'-0"
140
0.125
141
12.0
290
     0
  0
SCALE
  5
5F
102
{ACAD_REACTORS
330
47
102
}
330
47
100
AcDbScale
 70
     0
300
3/16" = 1'-0"
140
0.1875
141
12.0
290
     0
  0
SCALE
  5
60
102
{ACAD_REACTORS
330
47
102
}
330
47
100
AcDbScale
 70
     0
300
1/4" = 1'-0"
140
0.25
141
12.0
290
     0
  0
SCALE
  5
61
102
{ACAD_REACTORS
330
47
102
}
330
47
100
AcDbScale
 70
     0
300
3/8" = 1'-0"
140
0.375
141
12.0
290
     0
  0
SCALE
  5
62
102
{ACAD_REACTORS
330
47
102
}
330
47
100
AcDbScale
 70
     0
300
1/2" = 1'-0"
140
0.5
141
12.0
290
     0
  0
SCALE
  5
63
102
{ACAD_REACTORS
330
47
102
}
330
47
100
AcDbScale
 70
     0
300
3/4" = 1'-0"
140
0.75
141
12.0
290
     0
  0
SCALE
  5
64
102
{ACAD_REACTORS
330
47
102
}
330
47
100
AcDbScale
 70
     0
300
1" = 1'-0"
140
1.0
141
12.0
290
     0
  0
SCALE
  5
65
102
{ACAD_REACTORS
330
47
102
}
330
47
100
AcDbScale
 70
     0
300
1-1/2" = 1'-0"
140
1.5
141
12.0
290
     0
  0
SCALE
  5
66
102
{ACAD_REACTORS
330
47
102
}
330
47
100
AcDbScale
 70
     0
300
3" = 1'-0"
140
3.0
141
12.0
290
     0
  0
SCALE
  5
67
102
{ACAD_REACTORS
330
47
102
}
330
47
100
AcDbScale
 70
     0
300
6" = 1'-0"
140
6.0
141
12.0
290
     0
  0
SCALE
  5
68
102
{ACAD_REACTORS
330
47
102
}
330
47
100
AcDbScale
 70
     0
300
1'-0" = 1'-0"
140
12.0
141
12.0
290
     0
  0
ENDSEC
  0
EOF
