  0
SECTION
  2
HEADER
  9
$ACADVER
  1
AC1015
  9
$ACADMAINTVER
 70
     6
  9
$DWGCODEPAGE
  3
ANSI_1252
  9
$INSBASE
 10
0.0
 20
0.0
 30
0.0
  9
$EXTMIN
 10
0.0
 20
0.0
 30
0.0
  9
$EXTMAX
 10
279.4
 20
215.9
 30
0.0
  9
$LIMMIN
 10
0.0
 20
0.0
  9
$LIMMAX
 10
279.4
 20
215.9
  9
$ORTHOMODE
 70
     0
  9
$REGENMODE
 70
     1
  9
$FILLMODE
 70
     1
  9
$QTEXTMODE
 70
     0
  9
$MIRRTEXT
 70
     1
  9
$LTSCALE
 40
1.0
  9
$ATTMODE
 70
     1
  9
$TEXTSIZE
 40
3.5277777778
  9
$TRACEWID
 40
1.0
  9
$TEXTSTYLE
  7
Standard
  9
$CLAYER
  8
0
  9
$CELTYPE
  6
ByLayer
  9
$CECOLOR
 62
   256
  9
$CELTSCALE
 40
1.0
  9
$DISPSILH
 70
     0
  9
$DIMSCALE
 40
1.0
  9
$DIMASZ
 40
3.556
  9
$DIMEXO
 40
1.0
  9
$DIMDLI
 40
3.75
  9
$DIMRND
 40
0.0
  9
$DIMDLE
 40
0.0
  9
$DIMEXE
 40
1.0
  9
$DIMTP
 40
0.0
  9
$DIMTM
 40
0.0
  9
$DIMTXT
 40
3.5277777778
  9
$DIMCEN
 40
2.5
  9
$DIMTSZ
 40
0.0
  9
$DIMTOL
 70
     0
  9
$DIMLIM
 70
     0
  9
$DIMTIH
 70
     1
  9
$DIMTOH
 70
     1
  9
$DIMSE1
 70
     0
  9
$DIMSE2
 70
     0
  9
$DIMTAD
 70
     1
  9
$DIMZIN
 70
     0
  9
$DIMBLK
  1

  9
$DIMASO
 70
     1
  9
$DIMSHO
 70
     1
  9
$DIMPOST
  1

  9
$DIMAPOST
  1

  9
$DIMALT
 70
     0
  9
$DIMALTD
 70
     3
  9
$DIMALTF
 40
0.0393700787
  9
$DIMLFAC
 40
2.0
  9
$DIMTOFL
 70
     1
  9
$DIMTVP
 40
0.0
  9
$DIMTIX
 70
     0
  9
$DIMSOXD
 70
     0
  9
$DIMSAH
 70
     0
  9
$DIMBLK1
  1

  9
$DIMBLK2
  1

  9
$DIMSTYLE
  2
ISO-25
  9
$DIMCLRD
 70
     0
  9
$DIMCLRE
 70
     0
  9
$DIMCLRT
 70
     0
  9
$DIMTFAC
 40
1.0
  9
$DIMGAP
 40
1.524
  9
$DIMJUST
 70
     0
  9
$DIMSD1
 70
     0
  9
$DIMSD2
 70
     0
  9
$DIMTOLJ
 70
     0
  9
$DIMTZIN
 70
     0
  9
$DIMALTZ
 70
     0
  9
$DIMALTTZ
 70
     0
  9
$DIMUPT
 70
     0
  9
$DIMDEC
 70
     2
  9
$DIMTDEC
 70
     2
  9
$DIMALTU
 70
     2
  9
$DIMALTTD
 70
     3
  9
$DIMTXSTY
  7
Standard
  9
$DIMAUNIT
 70
     0
  9
$DIMADEC
 70
     2
  9
$DIMALTRND
 40
0.0
  9
$DIMAZIN
 70
     0
  9
$DIMDSEP
 70
    44
  9
$DIMATFIT
 70
     3
  9
$DIMFRAC
 70
     0
  9
$DIMLDRBLK
  1

  9
$DIMLUNIT
 70
     2
  9
$DIMLWD
 70
    -2
  9
$DIMLWE
 70
    -2
  9
$DIMTMOVE
 70
     0
  9
$LUNITS
 70
     2
  9
$LUPREC
 70
     2
  9
$SKETCHINC
 40
1.0
  9
$FILLETRAD
 40
10.0
  9
$AUNITS
 70
     0
  9
$AUPREC
 70
     2
  9
$MENU
  1
.
  9
$ELEVATION
 40
0.0
  9
$PELEVATION
 40
0.0
  9
$THICKNESS
 40
0.0
  9
$LIMCHECK
 70
     0
  9
$CHAMFERA
 40
0.0
  9
$CHAMFERB
 40
0.0
  9
$CHAMFERC
 40
0.0
  9
$CHAMFERD
 40
0.0
  9
$SKPOLY
 70
     0
  9
$TDCREATE
 40
2460383.731046806
  9
$TDUCREATE
 40
2460383.501880139
  9
$TDUPDATE
 40
2460383.731047361
  9
$TDUUPDATE
 40
2460383.501880695
  9
$TDINDWG
 40
0.0000000116
  9
$TDUSRTIMER
 40
0.0000000116
  9
$USRTIMER
 70
     1
  9
$ANGBASE
 50
0.0
  9
$ANGDIR
 70
     0
  9
$PDMODE
 70
     0
  9
$PDSIZE
 40
-1.0
  9
$PLINEWID
 40
0.0
  9
$SPLFRAME
 70
     0
  9
$SPLINETYPE
 70
     6
  9
$SPLINESEGS
 70
     8
  9
$HANDSEED
  5
2C6
  9
$SURFTAB1
 70
     6
  9
$SURFTAB2
 70
     6
  9
$SURFTYPE
 70
     6
  9
$SURFU
 70
     6
  9
$SURFV
 70
     6
  9
$UCSBASE
  2

  9
$UCSNAME
  2

  9
$UCSORG
 10
0.0
 20
0.0
 30
0.0
  9
$UCSXDIR
 10
1.0
 20
0.0
 30
0.0
  9
$UCSYDIR
 10
0.0
 20
1.0
 30
0.0
  9
$UCSORTHOREF
  2

  9
$UCSORTHOVIEW
 70
     0
  9
$UCSORGTOP
 10
0.0
 20
0.0
 30
0.0
  9
$UCSORGBOTTOM
 10
0.0
 20
0.0
 30
0.0
  9
$UCSORGLEFT
 10
0.0
 20
0.0
 30
0.0
  9
$UCSORGRIGHT
 10
0.0
 20
0.0
 30
0.0
  9
$UCSORGFRONT
 10
0.0
 20
0.0
 30
0.0
  9
$UCSORGBACK
 10
0.0
 20
0.0
 30
0.0
  9
$PUCSBASE
  2

  9
$PUCSNAME
  2

  9
$PUCSORG
 10
0.0
 20
0.0
 30
0.0
  9
$PUCSXDIR
 10
1.0
 20
0.0
 30
0.0
  9
$PUCSYDIR
 10
0.0
 20
1.0
 30
0.0
  9
$PUCSORTHOREF
  2

  9
$PUCSORTHOVIEW
 70
     0
  9
$PUCSORGTOP
 10
0.0
 20
0.0
 30
0.0
  9
$PUCSORGBOTTOM
 10
0.0
 20
0.0
 30
0.0
  9
$PUCSORGLEFT
 10
0.0
 20
0.0
 30
0.0
  9
$PUCSORGRIGHT
 10
0.0
 20
0.0
 30
0.0
  9
$PUCSORGFRONT
 10
0.0
 20
0.0
 30
0.0
  9
$PUCSORGBACK
 10
0.0
 20
0.0
 30
0.0
  9
$USERI1
 70
     0
  9
$USERI2
 70
     0
  9
$USERI3
 70
     0
  9
$USERI4
 70
     0
  9
$USERI5
 70
     0
  9
$USERR1
 40
0.0
  9
$USERR2
 40
0.0
  9
$USERR3
 40
0.0
  9
$USERR4
 40
0.0
  9
$USERR5
 40
0.0
  9
$WORLDVIEW
 70
     1
  9
$SHADEDGE
 70
     3
  9
$SHADEDIF
 70
    70
  9
$TILEMODE
 70
     1
  9
$MAXACTVP
 70
    64
  9
$PINSBASE
 10
0.0
 20
0.0
 30
0.0
  9
$PLIMCHECK
 70
     0
  9
$PEXTMIN
 10
1.0000000000E+20
 20
1.0000000000E+20
 30
1.0000000000E+20
  9
$PEXTMAX
 10
-1.0000000000E+20
 20
-1.0000000000E+20
 30
-1.0000000000E+20
  9
$PLIMMIN
 10
0.0
 20
0.0
  9
$PLIMMAX
 10
420.0
 20
297.0
  9
$UNITMODE
 70
     0
  9
$VISRETAIN
 70
     1
  9
$PLINEGEN
 70
     0
  9
$PSLTSCALE
 70
     1
  9
$TREEDEPTH
 70
  3020
  9
$CMLSTYLE
  2
Standard
  9
$CMLJUST
 70
     0
  9
$CMLSCALE
 40
20.0
  9
$PROXYGRAPHICS
 70
     1
  9
$MEASUREMENT
 70
     1
  9
$CELWEIGHT
370
    -1
  9
$ENDCAPS
280
     0
  9
$JOINSTYLE
280
     0
  9
$LWDISPLAY
290
     1
  9
$INSUNITS
 70
     4
  9
$HYPERLINKBASE
  1

  9
$STYLESHEET
  1

  9
$XEDIT
290
     1
  9
$CEPSNTYPE
380
     0
  9
$PSTYLEMODE
290
     1
  9
$FINGERPRINTGUID
  2
{a32e73d2-94d5-4e3e-b0d7-955bd8510d7f}
  9
$VERSIONGUID
  2
{FAEB1C32-E019-11D5-929B-00C0DF256EC4}
  9
$EXTNAMES
290
     1
  9
$PSVPSCALE
 40
0.0
  9
$OLESTARTUP
290
     0
  0
ENDSEC
  0
SECTION
  2
CLASSES
  0
CLASS
  1
ACDBDICTIONARYWDFLT
  2
AcDbDictionaryWithDefault
  3
ObjectDBX Classes
 90
        0
280
     0
281
     0
  0
CLASS
  1
VISUALSTYLE
  2
AcDbVisualStyle
  3
ObjectDBX Classes
 90
     4095
280
     0
281
     0
  0
CLASS
  1
MATERIAL
  2
AcDbMaterial
  3
ObjectDBX Classes
 90
     1153
280
     0
281
     0
  0
CLASS
  1
SCALE
  2
AcDbScale
  3
ObjectDBX Classes
 90
     1153
280
     0
281
     0
  0
CLASS
  1
TABLESTYLE
  2
AcDbTableStyle
  3
ObjectDBX Classes
 90
     4095
280
     0
281
     0
  0
CLASS
  1
MLEADERSTYLE
  2
AcDbMLeaderStyle
  3
ACDB_MLEADERSTYLE_CLASS
 90
     4095
280
     0
281
     0
  0
CLASS
  1
SUN
  2
AcDbSun
  3
SCENEOE
 90
     1153
280
     0
281
     0
  0
CLASS
  1
ACDBPLACEHOLDER
  2
AcDbPlaceHolder
  3
ObjectDBX Classes
 90
        0
280
     0
281
     0
  0
CLASS
  1
LAYOUT
  2
AcDbLayout
  3
ObjectDBX Classes
 90
        0
280
     0
281
     0
  0
ENDSEC
  0
SECTION
  2
TABLES
  0
TABLE
  2
VPORT
  5
8
330
0
100
AcDbSymbolTable
 70
     1
  0
VPORT
  5
29
330
8
100
AcDbSymbolTableRecord
100
AcDbViewportTableRecord
  2
*Active
 70
     0
 10
0.0
 20
0.0
 11
1.0
 21
1.0
 12
139.7
 22
107.95
 13
0.0
 23
0.0
 14
10.0
 24
10.0
 15
10.0
 25
10.0
 16
0.0
 26
0.0
 36
1.0
 17
0.0
 27
0.0
 37
0.0
 40
215.9
 41
1.2941176471
 42
50.0
 43
0.0
 44
0.0
 50
0.0
 51
0.0
 71
     0
 72
  2000
 73
     1
 74
     3
 75
     0
 76
     0
 77
     0
 78
     0
281
     0
 65
     1
110
0.0
120
0.0
130
0.0
111
1.0
121
0.0
131
0.0
112
0.0
122
1.0
132
0.0
 79
     0
146
0.0
  0
ENDTAB
  0
TABLE
  2
LTYPE
  5
5
330
0
100
AcDbSymbolTable
 70
     6
  0
LTYPE
  5
14
330
5
100
AcDbSymbolTableRecord
100
AcDbLinetypeTableRecord
  2
ByBlock
 70
     0
  3

 72
    65
 73
     0
 40
0.0
  0
LTYPE
  5
15
330
5
100
AcDbSymbolTableRecord
100
AcDbLinetypeTableRecord
  2
ByLayer
 70
     0
  3

 72
    65
 73
     0
 40
0.0
  0
LTYPE
  5
16
330
5
100
AcDbSymbolTableRecord
100
AcDbLinetypeTableRecord
  2
Continuous
 70
     0
  3
Solid line
 72
    65
 73
     0
 40
0.0
  0
LTYPE
  5
6E
330
5
100
AcDbSymbolTableRecord
100
AcDbLinetypeTableRecord
  2
HIDDEN
 70
     0
  3
Hidden __ __ __ __ __ __ __ __ __ __ __ __ __ __
 72
    65
 73
     2
 40
1.905
 49
1.27
 74
     0
 49
-0.635
 74
     0
  0
LTYPE
  5
6F
330
5
100
AcDbSymbolTableRecord
100
AcDbLinetypeTableRecord
  2
PHANTOM
 70
     0
  3
Phantom ______  __  __  ______  __  __  ______
 72
    65
 73
     6
 40
12.7
 49
6.35
 74
     0
 49
-1.27
 74
     0
 49
1.27
 74
     0
 49
-1.27
 74
     0
 49
1.27
 74
     0
 49
-1.27
 74
     0
  0
LTYPE
  5
70
330
5
100
AcDbSymbolTableRecord
100
AcDbLinetypeTableRecord
  2
CENTER
 70
     0
  3
Center ____ _ ____ _ ____ _ ____ _ ____ _ ____
 72
    65
 73
     4
 40
10.16
 49
6.35
 74
     0
 49
-1.27
 74
     0
 49
1.27
 74
     0
 49
-1.27
 74
     0
  0
LTYPE
  5
71
330
5
100
AcDbSymbolTableRecord
100
AcDbLinetypeTableRecord
  2
CENTERX2
 70
     0
  3
Center (2x) ________  __  ________  __  _____
 72
    65
 73
     4
 40
20.32
 49
12.7
 74
     0
 49
-2.54
 74
     0
 49
2.54
 74
     0
 49
-2.54
 74
     0
  0
LTYPE
  5
72
330
5
100
AcDbSymbolTableRecord
100
AcDbLinetypeTableRecord
  2
DOT2
 70
     0
  3
Dot (.5x) ........................................
 72
    65
 73
     2
 40
0.635
 49
0.0
 74
     0
 49
-0.635
 74
     0
  0
ENDTAB
  0
TABLE
  2
LAYER
  5
2
330
0
100
AcDbSymbolTable
 70
     5
  0
LAYER
  5
10
330
2
100
AcDbSymbolTableRecord
100
AcDbLayerTableRecord
  2
0
 70
     0
 62
     7
  6
Continuous
370
    -3
390
F
  0
LAYER
  5
73
330
2
100
AcDbSymbolTableRecord
100
AcDbLayerTableRecord
  2
FORMAT
 70
     0
 62
     7
  6
Continuous
370
    -3
390
F
  0
LAYER
  5
74
330
2
100
AcDbSymbolTableRecord
100
AcDbLayerTableRecord
  2
OUT_LINE
 70
     0
 62
     7
  6
Continuous
370
    50
390
F
  0
LAYER
  5
75
330
2
100
AcDbSymbolTableRecord
100
AcDbLayerTableRecord
  2
WATERMARK
 70
     0
 62
   254
  6
Continuous
370
    -3
390
F
  0
LAYER
  5
76
330
2
100
AcDbSymbolTableRecord
100
AcDbLayerTableRecord
  2
LAYER3
 70
     0
 62
     7
  6
Continuous
370
    35
390
F
  0
ENDTAB
  0
TABLE
  2
STYLE
  5
3
330
0
100
AcDbSymbolTable
 70
     1
  0
STYLE
  5
11
330
3
100
AcDbSymbolTableRecord
100
AcDbTextStyleTableRecord
  2
Standard
 70
     0
 40
0.0
 41
1.0
 50
0.0
 71
     0
 42
3.5277777778
  3
txt
  4

  0
ENDTAB
  0
TABLE
  2
VIEW
  5
6
330
0
100
AcDbSymbolTable
 70
     0
  0
ENDTAB
  0
TABLE
  2
UCS
  5
7
330
0
100
AcDbSymbolTable
 70
     0
  0
ENDTAB
  0
TABLE
  2
APPID
  5
9
330
0
100
AcDbSymbolTable
 70
     1
  0
APPID
  5
12
330
9
100
AcDbSymbolTableRecord
100
AcDbRegAppTableRecord
  2
ACAD
 70
     0
  0
ENDTAB
  0
TABLE
  2
DIMSTYLE
  5
A
330
0
100
AcDbSymbolTable
 70
     1
100
AcDbDimStyleTable
  0
DIMSTYLE
105
27
330
A
100
AcDbSymbolTableRecord
100
AcDbDimStyleTableRecord
  2
ISO-25
 70
     0
 41
2.5
 42
0.625
 43
3.75
 44
1.25
 73
     0
 74
     0
 77
     1
 78
     8
140
2.5
141
2.5
143
0.0393700787
147
0.625
171
     3
172
     1
178
     0
271
     2
272
     2
274
     3
278
    44
283
     0
284
     8
340
11
  0
ENDTAB
  0
TABLE
  2
BLOCK_RECORD
  5
1
330
0
100
AcDbSymbolTable
 70
     4
  0
BLOCK_RECORD
  5
1F
330
1
100
AcDbSymbolTableRecord
100
AcDbBlockTableRecord
  2
*Model_Space
340
22
  0
BLOCK_RECORD
  5
1B
330
1
100
AcDbSymbolTableRecord
100
AcDbBlockTableRecord
  2
*Paper_Space
340
1E
  0
BLOCK_RECORD
  5
23
330
1
100
AcDbSymbolTableRecord
100
AcDbBlockTableRecord
  2
*Paper_Space0
340
26
  0
BLOCK_RECORD
  5
77
330
1
100
AcDbSymbolTableRecord
100
AcDbBlockTableRecord
  2
Block5
340
0
  0
BLOCK_RECORD
  5
85
330
1
100
AcDbSymbolTableRecord
100
AcDbBlockTableRecord
  2
Block2
340
0
  0
BLOCK_RECORD
  5
90
330
1
100
AcDbSymbolTableRecord
100
AcDbBlockTableRecord
  2
Block7
340
0
  0
ENDTAB
  0
ENDSEC
  0
SECTION
  2
BLOCKS
  0
BLOCK
  5
20
330
1F
100
AcDbEntity
  8
0
100
AcDbBlockBegin
  2
*Model_Space
 70
     0
 10
0.0
 20
0.0
 30
0.0
  3
*Model_Space
  1

  0
ENDBLK
  5
21
330
1F
100
AcDbEntity
  8
0
100
AcDbBlockEnd
  0
BLOCK
  5
1C
330
1B
100
AcDbEntity
 67
     1
  8
0
100
AcDbBlockBegin
  2
*Paper_Space
 70
     0
 10
0.0
 20
0.0
 30
0.0
  3
*Paper_Space
  1

  0
ENDBLK
  5
1D
330
1B
100
AcDbEntity
 67
     1
  8
0
100
AcDbBlockEnd
  0
BLOCK
  5
24
330
23
100
AcDbEntity
  8
0
100
AcDbBlockBegin
  2
*Paper_Space0
 70
     0
 10
0.0
 20
0.0
 30
0.0
  3
*Paper_Space0
  1

  0
ENDBLK
  5
25
330
23
100
AcDbEntity
  8
0
100
AcDbBlockEnd
  0
BLOCK
  5
78
330
77
100
AcDbEntity
  8
0
100
AcDbBlockBegin
  2
Block5
 70
     0
 10
0.0
 20
0.0
 30
0.0
  3
Block5
  1

  0
LINE
  5
7A
330
77
100
AcDbEntity
  8
LAYER3
100
AcDbLine
 10
251.0883122991
 20
64.4632252413
 30
0.0
 11
250.3611798328
 21
64.9733337839
 31
0.0
  0
LINE
  5
7B
330
77
100
AcDbEntity
  8
LAYER3
100
AcDbLine
 10
250.3611798328
 20
64.9733337839
 30
0.0
 11
251.0883122991
 21
65.4834423266
 31
0.0
  0
LINE
  5
7C
330
77
100
AcDbEntity
  8
LAYER3
100
AcDbLine
 10
250.3611798328
 20
65.6106440044
 30
0.0
 11
250.3611798328
 21
64.3360235634
 31
0.0
  0
LINE
  5
7D
330
77
100
AcDbEntity
  8
LAYER3
100
AcDbLine
 10
251.0883122991
 20
65.4834423266
 30
0.0
 11
251.0883122991
 21
64.4632252413
 31
0.0
  0
LINE
  5
7E
330
77
100
AcDbEntity
  8
LAYER3
  6
Continuous
 62
     7
370
    18
100
AcDbLine
 10
254.0738326611
 20
65.4834423266
 30
0.0
 11
254.0738326611
 21
64.4632252413
 31
0.0
  0
LINE
  5
7F
330
77
100
AcDbEntity
  8
LAYER3
100
AcDbLine
 10
251.0883122991
 20
64.9733337839
 30
0.0
 11
254.0738326611
 21
64.9733337839
 31
0.0
  0
LINE
  5
80
330
77
100
AcDbEntity
  8
LAYER3
100
AcDbLine
 10
254.0738326611
 20
64.9733337839
 30
0.0
 11
254.0738326611
 21
64.4632252413
 31
0.0
  0
LINE
  5
81
330
77
100
AcDbEntity
  8
LAYER3
100
AcDbLine
 10
254.0738326611
 20
65.4834423266
 30
0.0
 11
254.8009651274
 21
64.9733337839
 31
0.0
  0
LINE
  5
82
330
77
100
AcDbEntity
  8
LAYER3
100
AcDbLine
 10
254.8009651274
 20
64.9733337839
 30
0.0
 11
254.0738326611
 21
64.4632252413
 31
0.0
  0
LINE
  5
83
330
77
100
AcDbEntity
  8
LAYER3
100
AcDbLine
 10
254.0738326611
 20
65.4834423266
 30
0.0
 11
254.0738326611
 21
64.9733337839
 31
0.0
  0
LINE
  5
84
330
77
100
AcDbEntity
  8
LAYER3
100
AcDbLine
 10
254.8009651274
 20
65.6106440044
 30
0.0
 11
254.8009651274
 21
64.3360235634
 31
0.0
  0
ENDBLK
  5
79
330
77
100
AcDbEntity
  8
0
100
AcDbBlockEnd
  0
BLOCK
  5
86
330
85
100
AcDbEntity
  8
0
100
AcDbBlockBegin
  2
Block2
 70
     0
 10
0.0
 20
0.0
 30
0.0
  3
Block2
  1

  0
CIRCLE
  5
88
330
85
100
AcDbEntity
  8
FORMAT
100
AcDbCircle
 10
44.9757425281
 20
71.5551333392
 30
0.0
 40
3.500000000000012
  0
CIRCLE
  5
89
330
85
100
AcDbEntity
  8
FORMAT
100
AcDbCircle
 10
44.9757425281
 20
71.5551333392
 30
0.0
 40
1.664444312410222
  0
LINE
  5
8A
330
85
100
AcDbEntity
  8
FORMAT
100
AcDbLine
 10
50.8419693267
 20
74.6444962432
 30
0.0
 11
58.8419693267
 21
73.6204905773
 31
0.0
  0
LINE
  5
8B
330
85
100
AcDbEntity
  8
FORMAT
100
AcDbLine
 10
58.8419693267
 20
73.6204905773
 30
0.0
 11
58.8419693267
 21
69.4897761011
 31
0.0
  0
LINE
  5
8C
330
85
100
AcDbEntity
  8
FORMAT
100
AcDbLine
 10
58.8419693267
 20
69.4897761011
 30
0.0
 11
50.8419693267
 21
68.4657704351
 31
0.0
  0
LINE
  5
8D
330
85
100
AcDbEntity
  8
FORMAT
100
AcDbLine
 10
50.8419693267
 20
68.4657704351
 30
0.0
 11
50.8419693267
 21
74.6444962432
 31
0.0
  0
LINE
  5
8E
330
85
100
AcDbEntity
  8
FORMAT
  6
CENTERX2
100
AcDbLine
 10
58.8419693267
 20
71.5551333392
 30
0.0
 11
40.5246830005
 21
71.5551333392
 31
0.0
  0
LINE
  5
8F
330
85
100
AcDbEntity
  8
FORMAT
100
AcDbLine
 10
44.9757425281
 20
77.2283416432
 30
0.0
 11
44.9757425281
 21
65.8819250352
 31
0.0
  0
ENDBLK
  5
87
330
85
100
AcDbEntity
  8
0
100
AcDbBlockEnd
  0
BLOCK
  5
91
330
90
100
AcDbEntity
  8
0
100
AcDbBlockBegin
  2
Block7
 70
     0
 10
0.0
 20
0.0
 30
0.0
  3
Block7
  1

  0
LINE
  5
93
330
90
100
AcDbEntity
  8
FORMAT
100
AcDbLine
 10
221.8284763776
 20
80.2705155621
 30
0.0
 11
222.3963943455
 21
79.286852787
 31
0.0
  0
LINE
  5
94
330
90
100
AcDbEntity
  8
FORMAT
100
AcDbLine
 10
222.3963943455
 20
79.286852787
 30
0.0
 11
222.9643123135
 21
80.2705155621
 31
0.0
  0
LINE
  5
95
330
90
100
AcDbEntity
  8
FORMAT
100
AcDbLine
 10
221.8284763776
 20
80.2705155621
 30
0.0
 11
222.9643123135
 21
80.2705155621
 31
0.0
  0
LINE
  5
96
330
90
100
AcDbEntity
  8
FORMAT
100
AcDbLine
 10
222.9643123135
 20
80.2705155621
 30
0.0
 11
223.3725273771
 21
80.9775647926
 31
0.0
  0
LINE
  5
97
330
90
100
AcDbEntity
  8
FORMAT
100
AcDbLine
 10
223.3725273771
 20
80.9775647926
 30
0.0
 11
224.1023154201
 21
80.9775647926
 31
0.0
  0
ENDBLK
  5
92
330
90
100
AcDbEntity
  8
0
100
AcDbBlockEnd
  0
ENDSEC
  0
SECTION
  2
ENTITIES
  0
LINE
  5
98
330
1F
100
AcDbEntity
  8
0
  6
Continuous
 62
     7
370
    25
100
AcDbLine
 10
147.4611254171
 20
55.8411679343
 30
0.0
 11
147.4611254171
 21
58.1084134672
 31
0.0
  0
LINE
  5
99
330
1F
100
AcDbEntity
  8
0
  6
Continuous
 62
     7
370
    25
100
AcDbLine
 10
124.3611254171
 20
58.1084134672
 30
0.0
 11
124.3611254171
 21
55.8411679343
 31
0.0
  0
LINE
  5
9A
330
1F
100
AcDbEntity
  8
0
  6
Continuous
 62
     7
370
    25
100
AcDbLine
 10
128.9358759791
 20
46.7751369134
 30
0.0
 11
129.2680307142
 21
46.5272886342
 31
0.0
  0
LINE
  5
9B
330
1F
100
AcDbEntity
  8
0
  6
Continuous
 62
     7
370
    25
100
AcDbLine
 10
142.55422012
 20
46.5272886342
 30
0.0
 11
142.8863748551
 21
46.7751369134
 31
0.0
  0
LINE
  5
9C
330
1F
100
AcDbEntity
  8
0
  6
Continuous
 62
     7
370
    25
100
AcDbLine
 10
144.5111254171
 20
58.8030061778
 30
0.0
 11
144.5111254171
 21
144.0665244012
 31
0.0
  0
LINE
  5
9D
330
1F
100
AcDbEntity
  8
0
  6
Continuous
 62
     7
370
    25
100
AcDbLine
 10
127.3111254171
 20
144.0665244012
 30
0.0
 11
127.3111254171
 21
58.8030061778
 31
0.0
  0
LINE
  5
9E
330
1F
100
AcDbEntity
  8
0
  6
Continuous
 62
     7
370
    25
100
AcDbLine
 10
127.3111254171
 20
58.8030061778
 30
0.0
 11
127.3111254171
 21
58.6293580002
 31
0.0
  0
LINE
  5
9F
330
1F
100
AcDbEntity
  8
0
  6
Continuous
 62
     7
370
    25
100
AcDbLine
 10
144.5111254171
 20
58.6293580002
 30
0.0
 11
144.5111254171
 21
58.8030061778
 31
0.0
  0
LINE
  5
A0
330
1F
100
AcDbEntity
  8
0
  6
Continuous
 62
     7
370
    25
100
AcDbLine
 10
146.7111254171
 20
58.1084134672
 30
0.0
 11
146.7111254171
 21
58.1272774836
 31
0.0
  0
SPLINE
  5
A1
330
1F
100
AcDbEntity
  8
0
  6
Continuous
 62
     7
370
    25
100
AcDbSpline
210
0.0
220
0.0
230
1.0
 70
     8
 71
     3
 72
    53
 73
    49
 74
     0
 42
0.00000001
 43
0.00000001
 40
0.0
 40
0.0
 40
0.0
 40
0.0
 40
0.0029340190347438
 40
0.0263257253299389
 40
0.0516129414773055
 40
0.0778510482544307
 40
0.1023257132170833
 40
0.1196914597286767
 40
0.139694585969899
 40
0.1552814200938974
 40
0.1724002589700847
 40
0.1897659598614479
 40
0.2029849405058194
 40
0.2152962878061529
 40
0.2260242323370154
 40
0.2351127582513992
 40
0.2448648082971894
 40
0.2549656923276663
 40
0.2665941081588172
 40
0.2869310110531899
 40
0.3089107311927766
 40
0.3308131268882428
 40
0.3527383743573894
 40
0.3810430767455749
 40
0.4080121121079336
 40
0.4342309313067078
 40
0.4617938119951582
 40
0.4909073311445183
 40
0.5215662696471296
 40
0.5532943931553461
 40
0.5838848854757424
 40
0.613068814148765
 40
0.6340457227250966
 40
0.6542436200938516
 40
0.6736673172939599
 40
0.6935336162518526
 40
0.7173731021909328
 40
0.7453958930532939
 40
0.7664020054911335
 40
0.7892558706335724
 40
0.8139518513619065
 40
0.840481548684041
 40
0.8688380652689953
 40
0.8990117244543656
 40
0.9228397142402334
 40
0.9476884661026147
 40
0.9735603989779831
 40
0.9999999999999999
 40
0.9999999999999999
 40
0.9999999999999999
 40
0.9999999999999999
 10
229.2254761983659
 20
144.6492701837686
 30
0.0
 10
229.3758543782673
 20
144.6761076071142
 30
0.0
 10
230.7251348746864
 20
144.9169085791584
 30
0.0
 10
233.0968234507012
 20
145.4231314457076
 30
0.0
 10
236.3300283201586
 20
146.1894945156455
 30
0.0
 10
239.1994792911988
 20
147.0186959917862
 30
0.0
 10
241.479840236323
 20
147.8335874522277
 30
0.0
 10
243.2935660572129
 20
148.631419398599
 30
0.0
 10
244.8652278059626
 20
149.4997292973379
 30
0.0
 10
246.3200118710251
 20
150.5906431681177
 30
0.0
 10
247.5446222524361
 20
151.8579322778758
 30
0.0
 10
248.5346568999435
 20
153.4760266856987
 30
0.0
 10
249.0765819765527
 20
155.3160690629374
 30
0.0
 10
249.1517090910746
 20
156.9560232566834
 30
0.0
 10
248.9147787947643
 20
158.3604139616428
 30
0.0
 10
248.4845173333194
 20
159.568638130787
 30
0.0
 10
247.8935291182429
 20
160.6405038006988
 30
0.0
 10
247.1834929894757
 20
161.5701756961143
 30
0.0
 10
246.1709026126227
 20
162.5911109108415
 30
0.0
 10
244.7560995814525
 20
163.628886636794
 30
0.0
 10
242.8813737925822
 20
164.6296390562814
 30
0.0
 10
240.781097978385
 20
165.4890508359533
 30
0.0
 10
238.3043066345594
 20
166.3114691911055
 30
0.0
 10
235.2688575486213
 20
167.1356321503647
 30
0.0
 10
231.6472806043517
 20
167.9495213842955
 30
0.0
 10
227.6978546046714
 20
168.7075478816916
 30
0.0
 10
223.2403711939905
 20
169.447741950131
 30
0.0
 10
218.1611272421105
 20
170.179583285597
 30
0.0
 10
212.489980125103
 20
170.8921781248227
 30
0.0
 10
206.439325545884
 20
171.5560166360113
 30
0.0
 10
200.2930422337912
 20
172.1467662798073
 30
0.0
 10
194.7874416348712
 20
172.6152075969225
 30
0.0
 10
189.9878757561168
 20
172.9845763214951
 30
0.0
 10
185.8787294643196
 20
173.2753889433957
 30
0.0
 10
181.8950143783516
 20
173.5350293766475
 30
0.0
 10
177.7449946018118
 20
173.7842009194983
 30
0.0
 10
173.1650600864064
 20
174.0345214460829
 30
0.0
 10
168.7203877600456
 20
174.250882006675
 30
0.0
 10
164.5875392301661
 20
174.4300997367808
 30
0.0
 10
160.8877618827164
 20
174.5736741114254
 30
0.0
 10
157.2069806420254
 20
174.699253078447
 30
0.0
 10
153.6605435937506
 20
174.8030804614054
 30
0.0
 10
150.3917523613134
 20
174.882056511503
 30
0.0
 10
147.8083183574292
 20
174.930865126929
 30
0.0
 10
145.8745781611024
 20
174.9585451552638
 30
0.0
 10
144.5392868664386
 20
174.9720440043486
 30
0.0
 10
143.6561019878727
 20
174.9764790389962
 30
0.0
 10
143.5469942899081
 20
174.9761164214068
 30
0.0
 10
143.4918484398882
 20
174.9759331451067
 30
0.0
  0
SPLINE
  5
A2
330
1F
100
AcDbEntity
  8
0
  6
Continuous
 62
     7
370
    25
100
AcDbSpline
210
0.0
220
0.0
230
1.0
 70
     8
 71
     3
 72
    29
 73
    25
 74
     0
 42
0.00000001
 43
0.00000001
 40
0.0
 40
0.0
 40
0.0
 40
0.0
 40
0.0425096874469878
 40
0.1029130035586309
 40
0.1564214835106482
 40
0.2030602421115357
 40
0.2428475240688922
 40
0.2771620063270887
 40
0.3121406306030608
 40
0.3485195206395258
 40
0.399180903006758
 40
0.4522955739330161
 40
0.5078384064214724
 40
0.5648291983104878
 40
0.6194985016193457
 40
0.6714612205908103
 40
0.7207250753480926
 40
0.7677896381930781
 40
0.8164812810917992
 40
0.8545602960246405
 40
0.8938174996156225
 40
0.9332738740359405
 40
0.9727003818860678
 40
1.0
 40
1.0
 40
1.0
 40
1.0
 10
157.0005448490517
 20
162.6961988693251
 30
0.0
 10
158.0423444636806
 20
162.6629728052467
 30
0.0
 10
160.5644690401407
 20
162.5825348096719
 30
0.0
 10
165.0521857757419
 20
162.4036037232047
 30
0.0
 10
169.9535851251659
 20
162.1807074678249
 30
0.0
 10
174.4798451766139
 20
161.9477486562644
 30
0.0
 10
178.5202483514177
 20
161.7183294107297
 30
0.0
 10
182.2551581004814
 20
161.4880298529172
 30
0.0
 10
185.9336669564249
 20
161.2432693041116
 30
0.0
 10
190.2266505943021
 20
160.9344575359749
 30
0.0
 10
195.1858486510673
 20
160.543197568141
 30
0.0
 10
200.7894205216637
 20
160.0495460470338
 30
0.0
 10
206.5005219522536
 20
159.4834326114504
 30
0.0
 10
212.0567636679392
 20
158.8580061185121
 30
0.0
 10
217.2100382343039
 20
158.1976126098126
 30
0.0
 10
221.7924829044079
 20
157.5276481962024
 30
0.0
 10
225.7893621779569
 20
156.8573749248893
 30
0.0
 10
229.3221712530282
 20
156.1743583935057
 30
0.0
 10
232.1541877241464
 20
155.5340596119049
 30
0.0
 10
234.413054470931
 20
154.9368659760518
 30
0.0
 10
236.1793334215004
 20
154.3809897278595
 30
0.0
 10
237.4260242315583
 20
153.9066504566824
 30
0.0
 10
238.1126612134818
 20
153.5668661098141
 30
0.0
 10
238.1512037885122
 20
153.5683320932682
 30
0.0
 10
238.1669726880888
 20
153.5689318701604
 30
0.0
  0
SPLINE
  5
A3
330
1F
100
AcDbEntity
  8
0
  6
Continuous
 62
     7
370
    25
100
AcDbSpline
210
0.0
220
0.0
230
1.0
 70
     8
 71
     3
 72
    11
 73
     7
 74
     0
 42
0.00000001
 43
0.00000001
 40
0.0
 40
0.0
 40
0.0
 40
0.0
 40
0.148796589288583
 40
0.5457117644292924
 40
0.8906666088670064
 40
1.0
 40
1.0
 40
1.0
 40
1.0
 10
227.4223873150548
 20
156.5256950075257
 30
0.0
 10
227.0040074425516
 20
156.4430498140729
 30
0.0
 10
225.4695984919362
 20
156.1399484153358
 30
0.0
 10
222.5977036576513
 20
155.6650371343794
 30
0.0
 10
219.7575251627528
 20
155.2216903457463
 30
0.0
 10
218.1089612960052
 20
155.0004365597756
 30
0.0
 10
217.7122020054538
 20
154.9471874883115
 30
0.0
  0
SPLINE
  5
A4
330
1F
100
AcDbEntity
  8
0
  6
Continuous
 62
     7
370
    25
100
AcDbSpline
210
0.0
220
0.0
230
1.0
 70
     8
 71
     3
 72
    10
 73
     6
 74
     0
 42
0.00000001
 43
0.00000001
 40
0.0
 40
0.0
 40
0.0
 40
0.0
 40
0.2043186640539103
 40
0.9303791343889152
 40
1.0
 40
1.0
 40
1.0
 40
1.0
 10
211.3611254170944
 20
154.1344569175523
 30
0.0
 10
210.8631500650791
 20
154.0736683310104
 30
0.0
 10
208.5955849402761
 20
153.7968633078891
 30
0.0
 10
206.0254411214638
 20
153.5196165318444
 30
0.0
 10
203.9309951171929
 20
153.3213483616252
 30
0.0
 10
203.7477343855337
 20
153.3040002085266
 30
0.0
  0
SPLINE
  5
A5
330
1F
100
AcDbEntity
  8
0
  6
Continuous
 62
     7
370
    25
100
AcDbSpline
210
0.0
220
0.0
230
1.0
 70
     8
 71
     3
 72
     9
 73
     5
 74
     0
 42
0.00000001
 43
0.00000001
 40
0.0
 40
0.0
 40
0.0
 40
0.0
 40
0.8650457591379435
 40
1.0
 40
1.0
 40
1.0
 40
1.0
 10
199.9111254170944
 20
152.9393682015201
 30
0.0
 10
199.4625993206413
 20
152.8947549564439
 30
0.0
 10
198.9440994705293
 20
152.8431816788398
 30
0.0
 10
198.4143726652435
 20
152.7985003620421
 30
0.0
 10
198.3428837863719
 20
152.792470428853
 30
0.0
  0
ARC
  5
A6
330
1F
100
AcDbEntity
  8
0
  6
Continuous
 62
     7
370
    25
100
AcDbCircle
 10
143.1111254171
 20
168.9877412049
 30
0.0
 40
7.500000000000003
100
AcDbArc
 50
53.6832916761
 51
153.6853547003
  0
SPLINE
  5
A7
330
1F
100
AcDbEntity
  8
0
  6
Continuous
 62
     7
370
    25
100
AcDbSpline
210
0.0
220
0.0
230
1.0
 70
     8
 71
     3
 72
    52
 73
    48
 74
     0
 42
0.00000001
 43
0.00000001
 40
0.0
 40
0.0
 40
0.0
 40
0.0
 40
0.0021692124232678
 40
0.0267762707276502
 40
0.0533773230083715
 40
0.0809786709012334
 40
0.106724954653091
 40
0.1249929651828606
 40
0.146035384554755
 40
0.1624320565730226
 40
0.1804403310021609
 40
0.1987082935414311
 40
0.2126140866176452
 40
0.2255650888661231
 40
0.2368504202235597
 40
0.2464111544536263
 40
0.2566698872299223
 40
0.2672955781960749
 40
0.2795281662225199
 40
0.3009217041259605
 40
0.3240434143664783
 40
0.3470837826526817
 40
0.370148190011546
 40
0.3999235066628728
 40
0.428293759657663
 40
0.455874817856432
 40
0.4848697703228435
 40
0.5154959270517877
 40
0.5477477977688554
 40
0.5811244046398008
 40
0.6133042729481849
 40
0.6440044974356782
 40
0.6660712934987563
 40
0.6873186036311066
 40
0.7077514888365741
 40
0.7286499718535888
 40
0.7537280748806402
 40
0.7832068328600553
 40
0.8053043501160964
 40
0.8293456229049905
 40
0.855324721222878
 40
0.8832328096951355
 40
0.9130626326293639
 40
0.9448040105973095
 40
0.9698700201708613
 40
0.9960098270815844
 40
1.0
 40
1.0
 40
1.0
 40
1.0
 10
42.46321969441787
 20
143.4597873809451
 30
0.0
 10
42.35764118204038
 20
143.4409119555313
 30
0.0
 10
41.05440374889722
 20
143.2079179455586
 30
0.0
 10
38.72667766046782
 20
142.709761462783
 30
0.0
 10
35.49186097401659
 20
141.9435993662151
 30
0.0
 10
32.62286365764194
 20
141.1143413250256
 30
0.0
 10
30.34239434882931
 20
140.2994633761774
 30
0.0
 10
28.52868916054384
 20
139.5016288571791
 30
0.0
 10
26.95702208812731
 20
138.6333196222346
 30
0.0
 10
25.50223921315314
 20
137.5424056030657
 30
0.0
 10
24.27762851036937
 20
136.2751165333787
 30
0.0
 10
23.28759394849644
 20
134.6570221148782
 30
0.0
 10
22.74566885450803
 20
132.8169797398066
 30
0.0
 10
22.67054174381546
 20
131.1770255455831
 30
0.0
 10
22.90747203927808
 20
129.7726348407294
 30
0.0
 10
23.33773350090885
 20
128.5644106715621
 30
0.0
 10
23.92872171593485
 20
127.4925450016565
 30
0.0
 10
24.63875784471661
 20
126.5628731062392
 30
0.0
 10
25.65134822156435
 20
125.5419378915126
 30
0.0
 10
27.06615125273701
 20
124.5041621655598
 30
0.0
 10
28.94087704160653
 20
123.5034097460725
 30
0.0
 10
31.04115285580382
 20
122.6439979664005
 30
0.0
 10
33.51794419962942
 20
121.8215796112484
 30
0.0
 10
36.55339328556753
 20
120.9974166519892
 30
0.0
 10
40.17497022983694
 20
120.1835274180584
 30
0.0
 10
44.12439622951797
 20
119.4255009206623
 30
0.0
 10
48.58187964019641
 20
118.6853068522229
 30
0.0
 10
53.66112359208647
 20
117.9534655167567
 30
0.0
 10
59.33227070905453
 20
117.2408706775315
 30
0.0
 10
65.38292528842594
 20
116.5770321663408
 30
0.0
 10
71.52920859997532
 20
115.9862825225522
 30
0.0
 10
77.034809200641
 20
115.5178412054133
 30
0.0
 10
81.83437507470082
 20
115.1484724809045
 30
0.0
 10
85.94352138186981
 20
114.857659858795
 30
0.0
 10
89.92723641246265
 20
114.5980194262959
 30
0.0
 10
94.07725641269082
 20
114.3488478804042
 30
0.0
 10
98.65718986181143
 20
114.0985273683154
 30
0.0
 10
103.1018665827975
 20
113.8821667479799
 30
0.0
 10
107.234701801782
 20
113.7029491988312
 30
0.0
 10
110.9345309183713
 20
113.5593741204023
 30
0.0
 10
114.6150944491059
 20
113.433798113076
 30
0.0
 10
118.1624363004086
 20
113.3299584296176
 30
0.0
 10
121.4274963804798
 20
113.2510331033112
 30
0.0
 10
124.0248370899782
 20
113.2020354307891
 30
0.0
 10
125.915880968534
 20
113.1749358448736
 30
0.0
 10
126.9678166684264
 20
113.163910762871
 30
0.0
 10
127.2709772594432
 20
113.1621548686463
 30
0.0
 10
127.3111254170944
 20
113.1619223320956
 30
0.0
  0
SPLINE
  5
A8
330
1F
100
AcDbEntity
  8
0
  6
Continuous
 62
     7
370
    25
100
AcDbSpline
210
0.0
220
0.0
230
1.0
 70
     8
 71
     3
 72
    29
 73
    25
 74
     0
 42
0.00000001
 43
0.00000001
 40
0.0
 40
0.0
 40
0.0
 40
0.0
 40
0.041506505590771
 40
0.1019731074714535
 40
0.1555376493340072
 40
0.2022252723002159
 40
0.2420542401930275
 40
0.2764046744243714
 40
0.3114199465084395
 40
0.3478369514395989
 40
0.3985514127559705
 40
0.4517217329911297
 40
0.5073227588221867
 40
0.5643732611099872
 40
0.6190998425473585
 40
0.6711170039044945
 40
0.720432473393134
 40
0.7675463467271112
 40
0.8162890048393175
 40
0.854407915921898
 40
0.8937062500745695
 40
0.9332039637318604
 40
0.9726717795271546
 40
1.0
 40
1.0
 40
1.0
 40
1.0
 10
114.7429478759826
 20
125.4394607193515
 30
0.0
 10
113.7264716457883
 20
125.4718970187007
 30
0.0
 10
111.2291946915263
 20
125.5515864599686
 30
0.0
 10
106.7696734300168
 20
125.7294790019194
 30
0.0
 10
101.8687515717593
 20
125.9523338971172
 30
0.0
 10
97.34238742991124
 20
126.1853017249657
 30
0.0
 10
93.30200633683297
 20
126.4147190577862
 30
0.0
 10
89.56709174726707
 20
126.6450190348819
 30
0.0
 10
85.8885841531113
 20
126.8897794743918
 30
0.0
 10
81.59560013171644
 20
127.1985912757486
 30
0.0
 10
76.63640221773043
 20
127.5898512312151
 30
0.0
 10
71.03283030259306
 20
128.0835027561803
 30
0.0
 10
65.32172888472975
 20
128.6496161906613
 30
0.0
 10
59.76548716552579
 20
129.2750426839044
 30
0.0
 10
54.61221260006536
 20
129.9354361925256
 30
0.0
 10
50.02976792973632
 20
130.6054006061553
 30
0.0
 10
46.03288865624296
 20
131.2756738774636
 30
0.0
 10
42.50007958115765
 20
131.9586904088485
 30
0.0
 10
39.66806311004308
 20
132.5989891904489
 30
0.0
 10
37.40919636325779
 20
133.196182826302
 30
0.0
 10
35.6429174126886
 20
133.7520590744943
 30
0.0
 10
34.39622660263056
 20
134.2263983456715
 30
0.0
 10
33.70958962070713
 20
134.5661826925398
 30
0.0
 10
33.67104704567665
 20
134.5647167090856
 30
0.0
 10
33.65527814610009
 20
134.5641169321935
 30
0.0
  0
SPLINE
  5
A9
330
1F
100
AcDbEntity
  8
0
  6
Continuous
 62
     7
370
    25
100
AcDbSpline
210
0.0
220
0.0
230
1.0
 70
     8
 71
     3
 72
    11
 73
     7
 74
     0
 42
0.00000001
 43
0.00000001
 40
0.0
 40
0.0
 40
0.0
 40
0.0
 40
0.1469847948067657
 40
0.5390670048404279
 40
0.8798215696438761
 40
1.0
 40
1.0
 40
1.0
 40
1.0
 10
44.39986351913377
 20
131.6073537948282
 30
0.0
 10
44.81825637367447
 20
131.6899974861734
 30
0.0
 10
46.35271293593586
 20
131.9930933759284
 30
0.0
 10
49.22383049674374
 20
132.4680945925649
 30
0.0
 10
52.10748315745756
 20
132.9175902101935
 30
0.0
 10
53.80165616301644
 20
133.144745794669
 30
0.0
 10
54.24337557711324
 20
133.2039717599949
 30
0.0
  0
SPLINE
  5
AA
330
1F
100
AcDbEntity
  8
0
  6
Continuous
 62
     7
370
    25
100
AcDbSpline
210
0.0
220
0.0
230
1.0
 70
     8
 71
     3
 72
    10
 73
     6
 74
     0
 42
0.00000001
 43
0.00000001
 40
0.0
 40
0.0
 40
0.0
 40
0.0
 40
0.1784504878908836
 40
0.812586609373039
 40
1.0
 40
1.0
 40
1.0
 40
1.0
 10
60.46112541709442
 20
133.9985918848017
 30
0.0
 10
60.95902385566329
 20
134.0594152195913
 30
0.0
 10
63.22623874978119
 20
134.3363784712561
 30
0.0
 10
66.17440737802713
 20
134.6513496107367
 30
0.0
 10
68.65302239348715
 20
134.8845662936849
 30
0.0
 10
69.21844862435876
 20
134.9377681137309
 30
0.0
  0
SPLINE
  5
AB
330
1F
100
AcDbEntity
  8
0
  6
Continuous
 62
     7
370
    25
100
AcDbSpline
210
0.0
220
0.0
230
1.0
 70
     8
 71
     3
 72
     9
 73
     5
 74
     0
 42
0.00000001
 43
0.00000001
 40
0.0
 40
0.0
 40
0.0
 40
0.0
 40
0.0702442238240751
 40
1.0
 40
1.0
 40
1.0
 40
1.0
 10
73.16112541709442
 20
135.3124808258522
 30
0.0
 10
73.19576777603633
 20
135.3157856218913
 30
0.0
 10
73.68893799069576
 20
135.3628328502492
 30
0.0
 10
74.19272579555738
 20
135.4033621924662
 30
0.0
 10
74.66112541709441
 20
135.4410445824971
 30
0.0
  0
ARC
  5
AC
330
1F
100
AcDbEntity
  8
0
  6
Continuous
 62
     7
370
    25
100
AcDbCircle
 10
128.7111254171
 20
119.1453075974
 30
0.0
 40
7.5
100
AcDbArc
 50
233.6832916761
 51
259.241681771
  0
LINE
  5
AD
330
1F
100
AcDbEntity
  8
0
  6
Continuous
 62
     7
370
    25
100
AcDbLine
 10
226.2111254171
 20
136.9165244012
 30
0.0
 11
227.8161304066
 21
138.14139663
 31
0.0
  0
LINE
  5
AE
330
1F
100
AcDbEntity
  8
0
  6
Continuous
 62
     7
370
    25
100
AcDbLine
 10
227.8161304066
 20
149.9916521723
 30
0.0
 11
226.2111254171
 21
151.2165244012
 31
0.0
  0
ARC
  5
AF
330
1F
100
AcDbEntity
  8
0
  6
Continuous
 62
     7
370
    25
100
AcDbCircle
 10
227.3611254171
 20
138.7376100645
 30
0.0
 40
0.7500000000000187
100
AcDbArc
 50
307.3493490446
 51
0.0
  0
ARC
  5
B0
330
1F
100
AcDbEntity
  8
0
  6
Continuous
 62
     7
370
    25
100
AcDbCircle
 10
227.3611254171
 20
149.3954387378
 30
0.0
 40
0.7500000000000187
100
AcDbArc
 50
0.0
 51
52.6506509554
  0
ARC
  5
B1
330
1F
100
AcDbEntity
  8
0
  6
Continuous
 62
     7
370
    25
100
AcDbCircle
 10
43.7111254171
 20
148.0665244012
 30
0.0
 40
0.5000000000000083
100
AcDbArc
 50
90.0
 51
156.742337232
  0
ARC
  5
B2
330
1F
100
AcDbEntity
  8
0
  6
Continuous
 62
     7
370
    25
100
AcDbCircle
 10
43.7111254171
 20
140.0665244012
 30
0.0
 40
0.5000000000000083
100
AcDbArc
 50
203.257662768
 51
270.0
  0
ARC
  5
B3
330
1F
100
AcDbEntity
  8
0
  6
Continuous
 62
     7
370
    25
100
AcDbCircle
 10
53.017945497
 20
144.0665244012
 30
0.0
 40
10.63000000000001
100
AcDbArc
 50
186.6454578524
 51
203.257662768
  0
ARC
  5
B4
330
1F
100
AcDbEntity
  8
0
  6
Continuous
 62
     7
370
    25
100
AcDbCircle
 10
53.017945497
 20
144.0665244012
 30
0.0
 40
10.63000000000001
100
AcDbArc
 50
156.742337232
 51
173.3788698941
  0
LINE
  5
B5
330
1F
100
AcDbEntity
  8
0
  6
Continuous
 62
     7
370
    25
100
AcDbLine
 10
42.4543232724
 20
145.1932223049
 30
0.0
 11
42.7191944492
 21
145.1932223049
 31
0.0
  0
LINE
  5
B6
330
1F
100
AcDbEntity
  8
0
  6
Continuous
 62
     7
370
    25
100
AcDbLine
 10
42.5546815559
 20
142.9398264975
 30
0.0
 11
42.4543232724
 21
142.9398264975
 31
0.0
  0
ARC
  5
B7
330
1F
100
AcDbEntity
  8
0
  6
Continuous
 62
     7
370
    25
100
AcDbCircle
 10
228.1111254171
 20
140.0665244012
 30
0.0
 40
0.5000000000000148
100
AcDbArc
 50
270.0
 51
336.742337232
  0
ARC
  5
B8
330
1F
100
AcDbEntity
  8
0
  6
Continuous
 62
     7
370
    25
100
AcDbCircle
 10
228.1111254171
 20
148.0665244012
 30
0.0
 40
0.5000000000000036
100
AcDbArc
 50
23.257662768
 51
90.0
  0
ARC
  5
B9
330
1F
100
AcDbEntity
  8
0
  6
Continuous
 62
     7
370
    25
100
AcDbCircle
 10
218.8043053372
 20
144.0665244012
 30
0.0
 40
10.62999999999999
100
AcDbArc
 50
6.6431237694
 51
23.257662768
  0
ARC
  5
BA
330
1F
100
AcDbEntity
  8
0
  6
Continuous
 62
     7
370
    25
100
AcDbCircle
 10
218.8043053372
 20
144.0665244012
 30
0.0
 40
10.62999999999998
100
AcDbArc
 50
336.742337232
 51
353.3915325368
  0
LINE
  5
BB
330
1F
100
AcDbEntity
  8
0
  6
Continuous
 62
     7
370
    25
100
AcDbLine
 10
229.103056385
 20
145.1932223049
 30
0.0
 11
229.3674010799
 21
145.1932223049
 31
0.0
  0
LINE
  5
BC
330
1F
100
AcDbEntity
  8
0
  6
Continuous
 62
     7
370
    25
100
AcDbLine
 10
229.3674010799
 20
142.9398264975
 30
0.0
 11
229.2675692783
 21
142.9398264975
 31
0.0
  0
LINE
  5
BD
330
1F
100
AcDbEntity
  8
0
  6
Continuous
 62
     7
370
    25
100
AcDbLine
 10
45.6111254171
 20
151.2165244012
 30
0.0
 11
44.0061204276
 21
149.9916521723
 31
0.0
  0
LINE
  5
BE
330
1F
100
AcDbEntity
  8
0
  6
Continuous
 62
     7
370
    25
100
AcDbLine
 10
44.0061204276
 20
138.14139663
 30
0.0
 11
45.6111254171
 21
136.9165244012
 31
0.0
  0
ARC
  5
BF
330
1F
100
AcDbEntity
  8
0
  6
Continuous
 62
     7
370
    25
100
AcDbCircle
 10
44.4611254171
 20
149.3954387378
 30
0.0
 40
0.7500000000000071
100
AcDbArc
 50
127.3493490446
 51
180.0
  0
ARC
  5
C0
330
1F
100
AcDbEntity
  8
0
  6
Continuous
 62
     7
370
    25
100
AcDbCircle
 10
44.4611254171
 20
138.7376100645
 30
0.0
 40
0.7500000000000071
100
AcDbArc
 50
180.0
 51
232.6506509554
  0
LINE
  5
C1
330
1F
100
AcDbEntity
  8
0
  6
Continuous
 62
     7
370
    25
100
AcDbLine
 10
50.4730814599
 20
153.0421824454
 30
0.0
 11
46.1023992139
 21
152.965891903
 31
0.0
  0
LINE
  5
C2
330
1F
100
AcDbEntity
  8
0
  6
Continuous
 62
     7
370
    25
100
AcDbLine
 10
46.1023992139
 20
135.1671568993
 30
0.0
 11
51.4065016738
 21
135.0745734465
 31
0.0
  0
ARC
  5
C3
330
1F
100
AcDbEntity
  8
0
  6
Continuous
 62
     7
370
    25
100
AcDbCircle
 10
46.1111254171
 20
152.4659680554
 30
0.0
 40
0.5000000000000048
100
AcDbArc
 50
91.0
 51
180.0
  0
ARC
  5
C4
330
1F
100
AcDbEntity
  8
0
  6
Continuous
 62
     7
370
    25
100
AcDbCircle
 10
46.1111254171
 20
135.6670807469
 30
0.0
 40
0.5
100
AcDbArc
 50
180.0
 51
269.0
  0
SPLINE
  5
C5
330
1F
100
AcDbEntity
  8
0
  6
Continuous
 62
     7
370
    25
100
AcDbSpline
210
0.0
220
0.0
230
1.0
 70
     8
 71
     3
 72
    12
 73
     8
 74
     0
 42
0.00000001
 43
0.00000001
 40
0.0
 40
0.0
 40
0.0
 40
0.0
 40
0.1110213958485456
 40
0.4537544599013376
 40
0.7304995870470201
 40
0.9573202587385995
 40
1.0
 40
1.0
 40
1.0
 40
1.0
 10
52.68474948735037
 20
134.7075861338822
 30
0.0
 10
52.77885384417082
 20
134.6518112543453
 30
0.0
 10
53.16346683950436
 20
134.4238542903128
 30
0.0
 10
53.64384542690379
 20
134.0948132498647
 30
0.0
 10
54.03516945810462
 20
133.80034043233
 30
0.0
 10
54.17772630423909
 20
133.6363671088541
 30
0.0
 10
54.15507230037336
 20
133.6702930095622
 30
0.0
 10
54.15148467313031
 20
133.6756657236461
 30
0.0
  0
ARC
  5
C6
330
1F
100
AcDbEntity
  8
0
  6
Continuous
 62
     7
370
    25
100
AcDbCircle
 10
51.3611254171
 20
132.4749694391
 30
0.0
 40
2.600000000000009
100
AcDbArc
 50
59.4420525213
 51
89.0
  0
SPLINE
  5
C7
330
1F
100
AcDbEntity
  8
0
  6
Continuous
 62
     7
370
    25
100
AcDbSpline
210
0.0
220
0.0
230
1.0
 70
     8
 71
     3
 72
    13
 73
     9
 74
     0
 42
0.00000001
 43
0.00000001
 40
0.0
 40
0.0
 40
0.0
 40
0.0
 40
0.0257777025631144
 40
0.1889924819795181
 40
0.3912819398086748
 40
0.6391253350241791
 40
0.9333979274773957
 40
0.9999999999999999
 40
0.9999999999999999
 40
0.9999999999999999
 40
0.9999999999999999
 10
54.18901793490694
 20
154.8044128632864
 30
0.0
 10
54.19193312336878
 20
154.8084714704346
 30
0.0
 10
54.21330619575534
 20
154.83822766133
 30
0.0
 10
54.09522086914717
 20
154.7073740970584
 30
0.0
 10
53.79280652393366
 20
154.4775148704137
 30
0.0
 10
53.19772161290834
 20
154.0880771931601
 30
0.0
 10
52.60596352593577
 20
153.7439077310671
 30
0.0
 10
52.18147667468581
 20
153.517180586123
 30
0.0
 10
52.10313450551819
 20
153.4753364246565
 30
0.0
  0
ARC
  5
C8
330
1F
100
AcDbEntity
  8
0
  6
Continuous
 62
     7
370
    25
100
AcDbCircle
 10
50.4111254171
 20
156.5916417632
 30
0.0
 40
3.55000000000001
100
AcDbArc
 50
271.0
 51
298.1920130769
  0
ARC
  5
C9
330
1F
100
AcDbEntity
  8
0
  6
Continuous
 62
     7
370
    25
100
AcDbCircle
 10
59.9611254171
 20
132.5946347864
 30
0.0
 40
0.5
100
AcDbArc
 50
269.0
 51
0.0
  0
ARC
  5
CA
330
1F
100
AcDbEntity
  8
0
  6
Continuous
 62
     7
370
    25
100
AcDbCircle
 10
59.9611254171
 20
155.5384140159
 30
0.0
 40
0.5000000000000347
100
AcDbArc
 50
0.0
 51
91.0
  0
LINE
  5
CB
330
1F
100
AcDbEntity
  8
0
  6
Continuous
 62
     7
370
    25
100
AcDbLine
 10
55.9262206042
 20
132.1649881479
 30
0.0
 11
59.9523992139
 21
132.0947109389
 31
0.0
  0
LINE
  5
CC
330
1F
100
AcDbEntity
  8
0
  6
Continuous
 62
     7
370
    25
100
AcDbLine
 10
59.9523992139
 20
156.0383378635
 30
0.0
 11
55.9262206042
 21
155.9680606544
 31
0.0
  0
ARC
  5
CD
330
1F
100
AcDbEntity
  8
0
  6
Continuous
 62
     7
370
    25
100
AcDbCircle
 10
55.9611254171
 20
134.1646835382
 30
0.0
 40
1.999999999999998
100
AcDbArc
 50
194.5234270308
 51
269.0
  0
LINE
  5
CE
330
1F
100
AcDbEntity
  8
0
  6
Continuous
 62
     7
370
    25
100
AcDbLine
 10
45.6111254171
 20
148.8257230835
 30
0.0
 11
45.535659863
 21
148.5705841971
 31
0.0
  0
LINE
  5
CF
330
1F
100
AcDbEntity
  8
0
  6
Continuous
 62
     7
370
    25
100
AcDbLine
 10
45.5395091871
 20
139.563143341
 30
0.0
 11
45.6111254171
 21
139.3175577248
 31
0.0
  0
ARC
  5
D0
330
1F
100
AcDbEntity
  8
0
  6
Continuous
 62
     7
370
    25
100
AcDbCircle
 10
55.9611254171
 20
153.9683652641
 30
0.0
 40
1.999999999999998
100
AcDbArc
 50
91.0
 51
154.3886051651
  0
LINE
  5
D1
330
1F
100
AcDbEntity
  8
0
  6
Continuous
 62
     7
370
    25
100
AcDbLine
 10
221.3491693742
 20
135.3362876458
 30
0.0
 11
225.7198516203
 21
135.4125781882
 31
0.0
  0
LINE
  5
D2
330
1F
100
AcDbEntity
  8
0
  6
Continuous
 62
     7
370
    25
100
AcDbLine
 10
225.7198516203
 20
153.2113131918
 30
0.0
 11
220.4157491604
 21
153.3038966447
 31
0.0
  0
ARC
  5
D3
330
1F
100
AcDbEntity
  8
0
  6
Continuous
 62
     7
370
    25
100
AcDbCircle
 10
225.7111254171
 20
135.9125020357
 30
0.0
 40
0.5
100
AcDbArc
 50
271.0
 51
0.0
  0
ARC
  5
D4
330
1F
100
AcDbEntity
  8
0
  6
Continuous
 62
     7
370
    25
100
AcDbCircle
 10
225.7111254171
 20
152.7113893443
 30
0.0
 40
0.5000000000000043
100
AcDbArc
 50
0.0
 51
89.0
  0
SPLINE
  5
D5
330
1F
100
AcDbEntity
  8
0
  6
Continuous
 62
     7
370
    25
100
AcDbSpline
210
0.0
220
0.0
230
1.0
 70
     8
 71
     3
 72
    12
 73
     8
 74
     0
 42
0.00000001
 43
0.00000001
 40
0.0
 40
0.0
 40
0.0
 40
0.0
 40
0.1110213958485511
 40
0.4537544599013393
 40
0.730499587046987
 40
0.957320258738588
 40
1.0
 40
1.0
 40
1.0
 40
1.0
 10
219.1375013468385
 20
153.6708839572999
 30
0.0
 10
219.043396990018
 20
153.7266588368367
 30
0.0
 10
218.6587839946845
 20
153.9546158008693
 30
0.0
 10
218.1784054072851
 20
154.2836568413173
 30
0.0
 10
217.7870813760842
 20
154.578129658852
 30
0.0
 10
217.6445245299498
 20
154.742102982328
 30
0.0
 10
217.6671785338154
 20
154.7081770816199
 30
0.0
 10
217.6707661610585
 20
154.702804367536
 30
0.0
  0
ARC
  5
D6
330
1F
100
AcDbEntity
  8
0
  6
Continuous
 62
     7
370
    25
100
AcDbCircle
 10
220.4611254171
 20
155.9035006521
 30
0.0
 40
2.599999999999994
100
AcDbArc
 50
239.4420525213
 51
269.0
  0
SPLINE
  5
D7
330
1F
100
AcDbEntity
  8
0
  6
Continuous
 62
     7
370
    25
100
AcDbSpline
210
0.0
220
0.0
230
1.0
 70
     8
 71
     3
 72
    13
 73
     9
 74
     0
 42
0.00000001
 43
0.00000001
 40
0.0
 40
0.0
 40
0.0
 40
0.0
 40
0.0257777025631237
 40
0.1889924819795272
 40
0.3912819398086723
 40
0.6391253350241723
 40
0.9333979274773782
 40
1.0
 40
1.0
 40
1.0
 40
1.0
 10
217.6332328992819
 20
133.5740572278957
 30
0.0
 10
217.63031771082
 20
133.5699986207475
 30
0.0
 10
217.6089446384335
 20
133.5402424298521
 30
0.0
 10
217.7270299650416
 20
133.6710959941237
 30
0.0
 10
218.0294443102552
 20
133.9009552207684
 30
0.0
 10
218.6245292212804
 20
134.290392898022
 30
0.0
 10
219.216287308253
 20
134.6345623601149
 30
0.0
 10
219.640774159503
 20
134.861289505059
 30
0.0
 10
219.7191163286706
 20
134.9031336665255
 30
0.0
  0
ARC
  5
D8
330
1F
100
AcDbEntity
  8
0
  6
Continuous
 62
     7
370
    25
100
AcDbCircle
 10
221.4111254171
 20
131.786828328
 30
0.0
 40
3.550000000000013
100
AcDbArc
 50
91.0
 51
118.1920130769
  0
ARC
  5
D9
330
1F
100
AcDbEntity
  8
0
  6
Continuous
 62
     7
370
    25
100
AcDbCircle
 10
211.8611254171
 20
132.8400560753
 30
0.0
 40
0.5
100
AcDbArc
 50
180.0
 51
271.0
  0
ARC
  5
DA
330
1F
100
AcDbEntity
  8
0
  6
Continuous
 62
     7
370
    25
100
AcDbCircle
 10
211.8611254171
 20
155.7838353047
 30
0.0
 40
0.5
100
AcDbArc
 50
89.0
 51
180.0
  0
LINE
  5
DB
330
1F
100
AcDbEntity
  8
0
  6
Continuous
 62
     7
370
    25
100
AcDbLine
 10
211.8698516203
 20
132.3401322277
 30
0.0
 11
215.89603023
 21
132.4104094367
 31
0.0
  0
LINE
  5
DC
330
1F
100
AcDbEntity
  8
0
  6
Continuous
 62
     7
370
    25
100
AcDbLine
 10
215.89603023
 20
156.2134819433
 30
0.0
 11
211.8698516203
 21
156.2837591523
 31
0.0
  0
ARC
  5
DD
330
1F
100
AcDbEntity
  8
0
  6
Continuous
 62
     7
370
    25
100
AcDbCircle
 10
215.8611254171
 20
154.213786553
 30
0.0
 40
2.000000000000034
100
AcDbArc
 50
14.5234270308
 51
89.0
  0
SPLINE
  5
DE
330
1F
100
AcDbEntity
  8
0
  6
Continuous
 62
     7
370
    25
100
AcDbSpline
210
0.0
220
0.0
230
1.0
 70
     8
 71
     3
 72
     9
 73
     5
 74
     0
 42
0.00000001
 43
0.00000001
 40
0.0
 40
0.0
 40
0.0
 40
0.0
 40
0.662740395552226
 40
0.9999999999999999
 40
0.9999999999999999
 40
0.9999999999999999
 40
0.9999999999999999
 10
226.2111254170944
 20
139.5527470076482
 30
0.0
 10
226.2540980339359
 20
139.7072863142837
 30
0.0
 10
226.318938833033
 20
139.9404685794249
 30
0.0
 10
226.4371786093186
 20
140.290974218668
 30
0.0
 10
226.4770561094987
 20
140.4091856119158
 30
0.0
  0
LINE
  5
DF
330
1F
100
AcDbEntity
  8
0
  6
Continuous
 62
     7
370
    25
100
AcDbLine
 10
226.3516212827
 20
148.5791254343
 30
0.0
 11
226.2111254171
 21
149.0609123664
 31
0.0
  0
ARC
  5
E0
330
1F
100
AcDbEntity
  8
0
  6
Continuous
 62
     7
370
    25
100
AcDbCircle
 10
215.8611254171
 20
134.4101048271
 30
0.0
 40
2.000000000000026
100
AcDbArc
 50
271.0
 51
334.3886051651
  0
LINE
  5
E1
330
1F
100
AcDbEntity
  8
0
  6
Continuous
 62
     7
370
    25
100
AcDbLine
 10
211.3611254171
 20
149.7165244012
 30
0.0
 11
204.7111254171
 21
149.7165244012
 31
0.0
  0
LINE
  5
E2
330
1F
100
AcDbEntity
  8
0
  6
Continuous
 62
     7
370
    25
100
AcDbLine
 10
204.7111254171
 20
138.4165244012
 30
0.0
 11
211.3611254171
 21
138.4165244012
 31
0.0
  0
LINE
  5
E3
330
1F
100
AcDbEntity
  8
0
  6
Continuous
 62
     7
370
    25
100
AcDbLine
 10
203.4311198859
 20
134.5045187317
 30
0.0
 11
204.7111254171
 21
135.8165244012
 31
0.0
  0
LINE
  5
E4
330
1F
100
AcDbEntity
  8
0
  6
Continuous
 62
     7
370
    25
100
AcDbLine
 10
204.7111254171
 20
152.3165244012
 30
0.0
 11
203.4311198859
 21
153.6285300707
 31
0.0
  0
LINE
  5
E5
330
1F
100
AcDbEntity
  8
0
  6
Continuous
 62
     7
370
    25
100
AcDbLine
 10
197.5880807917
 20
153.4665244012
 30
0.0
 11
197.2611254171
 21
153.4665244012
 31
0.0
  0
SPLINE
  5
E6
330
1F
100
AcDbEntity
  8
0
  6
Continuous
 62
     7
370
    25
100
AcDbSpline
210
0.0
220
0.0
230
1.0
 70
     8
 71
     3
 72
     9
 73
     5
 74
     0
 42
0.00000001
 43
0.00000001
 40
0.0
 40
0.0
 40
0.0
 40
0.0
 40
0.4921597394042955
 40
0.9999999999999999
 40
0.9999999999999999
 40
0.9999999999999999
 40
0.9999999999999999
 10
196.8998515340587
 20
134.6879933651334
 30
0.0
 10
196.9710284745454
 20
134.8111811434401
 30
0.0
 10
197.1156500979495
 20
135.0614815407374
 30
0.0
 10
197.260300215366
 20
135.3117559392332
 30
0.0
 10
197.33375936869
 20
135.4388553549857
 30
0.0
  0
SPLINE
  5
E7
330
1F
100
AcDbEntity
  8
0
  6
Continuous
 62
     7
370
    25
100
AcDbSpline
210
0.0
220
0.0
230
1.0
 70
     8
 71
     3
 72
     9
 73
     5
 74
     0
 42
0.00000001
 43
0.00000001
 40
0.0
 40
0.0
 40
0.0
 40
0.0
 40
0.4981873554341621
 40
1.0
 40
1.0
 40
1.0
 40
1.0
 10
198.0393163100145
 20
152.6941910548906
 30
0.0
 10
197.9659417419762
 20
152.8211289878633
 30
0.0
 10
197.8186586621512
 20
153.0759285759864
 30
0.0
 10
197.6714244350596
 20
153.3307814134158
 30
0.0
 10
197.5975404381922
 20
153.4586697897414
 30
0.0
  0
SPLINE
  5
E8
330
1F
100
AcDbEntity
  8
0
  6
Continuous
 62
     7
370
    25
100
AcDbSpline
210
0.0
220
0.0
230
1.0
 70
     8
 71
     3
 72
     9
 73
     5
 74
     0
 42
0.00000001
 43
0.00000001
 40
0.0
 40
0.0
 40
0.0
 40
0.0
 40
0.5011659921197278
 40
1.0
 40
1.0
 40
1.0
 40
1.0
 10
197.4900641626616
 20
135.4389866396216
 30
0.0
 10
197.5638799418292
 20
135.3112813417926
 30
0.0
 10
197.7111680266719
 20
135.0564649738886
 30
0.0
 10
197.8584208714846
 20
134.8016060575109
 30
0.0
 10
197.9318755982343
 20
134.6744737628102
 30
0.0
  0
LINE
  5
E9
330
1F
100
AcDbEntity
  8
0
  6
Continuous
 62
     7
370
    25
100
AcDbLine
 10
198.3577116938
 20
152.9744822633
 30
0.0
 11
198.1956194115
 21
152.6940616397
 31
0.0
  0
LINE
  5
EA
330
1F
100
AcDbEntity
  8
0
  6
Continuous
 62
     7
370
    25
100
AcDbLine
 10
197.9513849279
 20
134.706783912
 30
0.0
 11
198.4111254171
 21
135.1665244012
 31
0.0
  0
LINE
  5
EB
330
1F
100
AcDbEntity
  8
0
  6
Continuous
 62
     7
370
    25
100
AcDbLine
 10
198.4111254171
 20
152.9665244012
 30
0.0
 11
198.392996949
 21
152.9846528692
 31
0.0
  0
SPLINE
  5
EC
330
1F
100
AcDbEntity
  8
0
  6
Continuous
 62
     7
370
    25
100
AcDbSpline
210
0.0
220
0.0
230
1.0
 70
     8
 71
     3
 72
     9
 73
     5
 74
     0
 42
0.00000001
 43
0.00000001
 40
0.0
 40
0.0
 40
0.0
 40
0.0
 40
0.5178081832965965
 40
0.9999999999999999
 40
0.9999999999999999
 40
0.9999999999999999
 40
0.9999999999999999
 10
197.3237888872813
 20
135.4303107223757
 30
0.0
 10
197.3533668534161
 20
135.4303219287605
 30
0.0
 10
197.4104883263649
 20
135.430343570722
 30
0.0
 10
197.4675589266336
 20
135.4303222763499
 30
0.0
 10
197.4950779030576
 20
135.430312008378
 30
0.0
  0
SPLINE
  5
ED
330
1F
100
AcDbEntity
  8
0
  6
Continuous
 62
     7
370
    25
100
AcDbSpline
210
0.0
220
0.0
230
1.0
 70
     8
 71
     3
 72
     9
 73
     5
 74
     0
 42
0.00000001
 43
0.00000001
 40
0.0
 40
0.0
 40
0.0
 40
0.0
 40
0.5105586537198662
 40
0.9999999999999999
 40
0.9999999999999999
 40
0.9999999999999999
 40
0.9999999999999999
 10
198.2057327267038
 20
152.7027380782199
 30
0.0
 10
198.1766114805577
 20
152.70271257903
 30
0.0
 10
198.1195734773155
 20
152.7026626353267
 30
0.0
 10
198.062373815043
 20
152.7027113584199
 30
0.0
 10
198.0343779353336
 20
152.7027352055163
 30
0.0
  0
LINE
  5
EE
330
1F
100
AcDbEntity
  8
0
  6
Continuous
 62
     7
370
    25
100
AcDbLine
 10
198.4111254171
 20
135.9415244012
 30
0.0
 11
199.9111254171
 21
135.9415244012
 31
0.0
  0
LINE
  5
EF
330
1F
100
AcDbEntity
  8
0
  6
Continuous
 62
     7
370
    25
100
AcDbLine
 10
199.9111254171
 20
152.1915244012
 30
0.0
 11
198.4111254171
 21
152.1915244012
 31
0.0
  0
LINE
  5
F0
330
1F
100
AcDbEntity
  8
0
  6
Continuous
 62
     7
370
    25
100
AcDbLine
 10
69.6417966017
 20
153.6292123654
 30
0.0
 11
68.3611254171
 21
152.3165244012
 31
0.0
  0
LINE
  5
F1
330
1F
100
AcDbEntity
  8
0
  6
Continuous
 62
     7
370
    25
100
AcDbLine
 10
68.3611254171
 20
135.8165244012
 30
0.0
 11
69.6417966017
 21
134.503836437
 31
0.0
  0
LINE
  5
F2
330
1F
100
AcDbEntity
  8
0
  6
Continuous
 62
     7
370
    25
100
AcDbLine
 10
75.7605869177
 20
134.6665244012
 30
0.0
 11
75.8111254171
 21
134.6665244012
 31
0.0
  0
LINE
  5
F3
330
1F
100
AcDbEntity
  8
0
  6
Continuous
 62
     7
370
    25
100
AcDbLine
 10
75.4075632853
 20
153.4665244012
 30
0.0
 11
75.1611254171
 21
153.4665244012
 31
0.0
  0
SPLINE
  5
F4
330
1F
100
AcDbEntity
  8
0
  6
Continuous
 62
     7
370
    25
100
AcDbSpline
210
0.0
220
0.0
230
1.0
 70
     8
 71
     3
 72
     9
 73
     5
 74
     0
 42
0.00000001
 43
0.00000001
 40
0.0
 40
0.0
 40
0.0
 40
0.0
 40
0.1888230383401776
 40
1.0
 40
1.0
 40
1.0
 40
1.0
 10
74.8752451582697
 20
153.1634641551648
 30
0.0
 10
74.8581722307321
 20
153.1339158251793
 30
0.0
 10
74.7677546223317
 20
152.9774289354161
 30
0.0
 10
74.67729328657607
 20
152.8209367921976
 30
0.0
 10
74.60391313509011
 20
152.693993970938
 30
0.0
  0
SPLINE
  5
F5
330
1F
100
AcDbEntity
  8
0
  6
Continuous
 62
     7
370
    25
100
AcDbSpline
210
0.0
220
0.0
230
1.0
 70
     8
 71
     3
 72
     9
 73
     5
 74
     0
 42
0.00000001
 43
0.00000001
 40
0.0
 40
0.0
 40
0.0
 40
0.0
 40
0.4987433617574211
 40
0.9999999999999999
 40
0.9999999999999999
 40
0.9999999999999999
 40
0.9999999999999999
 10
75.30946983850656
 20
135.4390528665453
 30
0.0
 10
75.38293296018597
 20
135.3119473111086
 30
0.0
 10
75.53022940022393
 20
135.0570956876428
 30
0.0
 10
75.67748124418253
 20
134.8022595592108
 30
0.0
 10
75.75129220846027
 20
134.6745212581702
 30
0.0
  0
SPLINE
  5
F6
330
1F
100
AcDbEntity
  8
0
  6
Continuous
 62
     7
370
    25
100
AcDbSpline
210
0.0
220
0.0
230
1.0
 70
     8
 71
     3
 72
     9
 73
     5
 74
     0
 42
0.00000001
 43
0.00000001
 40
0.0
 40
0.0
 40
0.0
 40
0.0
 40
0.5011130755725055
 40
1.0
 40
1.0
 40
1.0
 40
1.0
 10
75.8587212266763
 20
152.6942591577489
 30
0.0
 10
75.78491741056706
 20
152.8219527678582
 30
0.0
 10
75.63763764536654
 20
153.0767727203479
 30
0.0
 10
75.49041039106064
 20
153.3315876932263
 30
0.0
 10
75.41696063896805
 20
153.4587115513437
 30
0.0
  0
SPLINE
  5
F7
330
1F
100
AcDbEntity
  8
0
  6
Continuous
 62
     7
370
    25
100
AcDbSpline
210
0.0
220
0.0
230
1.0
 70
     8
 71
     3
 72
     9
 73
     5
 74
     0
 42
0.00000001
 43
0.00000001
 40
0.0
 40
0.0
 40
0.0
 40
0.0
 40
0.1964851983542813
 40
1.0
 40
1.0
 40
1.0
 40
1.0
 10
74.88246060990944
 20
134.9720957616459
 30
0.0
 10
74.90045791602289
 20
135.0031809133995
 30
0.0
 10
74.99205415973084
 20
135.1613869870068
 30
0.0
 10
75.0838872481154
 20
135.3205007604849
 30
0.0
 10
75.15767649391324
 20
135.4483510326202
 30
0.0
  0
LINE
  5
F8
330
1F
100
AcDbEntity
  8
0
  6
Continuous
 62
     7
370
    25
100
AcDbLine
 10
75.1611254171
 20
153.4665244012
 30
0.0
 11
74.8935013252
 21
153.1989003093
 31
0.0
  0
LINE
  5
F9
330
1F
100
AcDbEntity
  8
0
  6
Continuous
 62
     7
370
    25
100
AcDbLine
 10
74.6611254171
 20
135.1665244012
 30
0.0
 11
74.8568541027
 21
134.9707957155
 31
0.0
  0
SPLINE
  5
FA
330
1F
100
AcDbEntity
  8
0
  6
Continuous
 62
     7
370
    25
100
AcDbSpline
210
0.0
220
0.0
230
1.0
 70
     8
 71
     3
 72
     9
 73
     5
 74
     0
 42
0.00000001
 43
0.00000001
 40
0.0
 40
0.0
 40
0.0
 40
0.0
 40
0.5166266336148146
 40
1.0
 40
1.0
 40
1.0
 40
1.0
 10
76.02550645840734
 20
152.7027297952426
 30
0.0
 10
75.9959284490893
 20
152.7027320243436
 30
0.0
 10
75.93867625302836
 20
152.702736339067
 30
0.0
 10
75.88147507042181
 20
152.702732086939
 30
0.0
 10
75.85382554222406
 20
152.7027300315735
 30
0.0
  0
SPLINE
  5
FB
330
1F
100
AcDbEntity
  8
0
  6
Continuous
 62
     7
370
    25
100
AcDbSpline
210
0.0
220
0.0
230
1.0
 70
     8
 71
     3
 72
     9
 73
     5
 74
     0
 42
0.00000001
 43
0.00000001
 40
0.0
 40
0.0
 40
0.0
 40
0.0
 40
0.4973303336687868
 40
1.0
 40
1.0
 40
1.0
 40
1.0
 10
75.17413936599148
 20
135.5147645015335
 30
0.0
 10
75.20336873192545
 20
135.5134000216618
 30
0.0
 10
75.26214126992515
 20
135.5106564128784
 30
0.0
 10
75.32096124009931
 20
135.5133902729856
 30
0.0
 10
75.35052825488037
 20
135.5147645015335
 30
0.0
  0
LINE
  5
FC
330
1F
100
AcDbEntity
  8
0
  6
Continuous
 62
     7
370
    25
100
AcDbLine
 10
74.6611254171
 20
152.1915244012
 30
0.0
 11
73.1611254171
 21
152.1915244012
 31
0.0
  0
LINE
  5
FD
330
1F
100
AcDbEntity
  8
0
  6
Continuous
 62
     7
370
    25
100
AcDbLine
 10
73.1611254171
 20
135.9415244012
 30
0.0
 11
74.6611254171
 21
135.9415244012
 31
0.0
  0
LINE
  5
FE
330
1F
100
AcDbEntity
  8
0
  6
Continuous
 62
     7
370
    25
100
AcDbLine
 10
180.175108054
 20
160.3805070381
 30
0.0
 11
180.0611254171
 21
160.2665244012
 31
0.0
  0
LINE
  5
FF
330
1F
100
AcDbEntity
  8
0
  6
Continuous
 62
     7
370
    25
100
AcDbLine
 10
180.0611254171
 20
127.8665244012
 30
0.0
 11
180.175108054
 21
127.7525417642
 31
0.0
  0
LINE
  5
100
330
1F
100
AcDbEntity
  8
0
  6
Continuous
 62
     7
370
    25
100
AcDbLine
 10
189.3971427802
 20
127.7525417642
 30
0.0
 11
189.5111254171
 21
127.8665244012
 31
0.0
  0
LINE
  5
101
330
1F
100
AcDbEntity
  8
0
  6
Continuous
 62
     7
370
    25
100
AcDbLine
 10
189.5111254171
 20
160.2665244012
 30
0.0
 11
189.3971427802
 21
160.3805070381
 31
0.0
  0
ARC
  5
102
330
1F
100
AcDbEntity
  8
0
  6
Continuous
 62
     7
370
    25
100
AcDbCircle
 10
189.5111254171
 20
138.3255360291
 30
0.0
 40
9.134011627907007
100
AcDbArc
 50
270.0
 51
328.0464183091
  0
ARC
  5
103
330
1F
100
AcDbEntity
  8
0
  6
Continuous
 62
     7
370
    25
100
AcDbCircle
 10
189.5111254171
 20
149.8075127733
 30
0.0
 40
9.134011627906991
100
AcDbArc
 50
31.9535816909
 51
90.0
  0
LINE
  5
104
330
1F
100
AcDbEntity
  8
0
  6
Continuous
 62
     7
370
    25
100
AcDbLine
 10
188.3177720525
 20
160.7938091326
 30
0.0
 11
181.2674725007
 21
160.7938091326
 31
0.0
  0
LINE
  5
105
330
1F
100
AcDbEntity
  8
0
  6
Continuous
 62
     7
370
    25
100
AcDbLine
 10
181.2674725007
 20
127.3392396697
 30
0.0
 11
188.3177720525
 21
127.3392396697
 31
0.0
  0
LINE
  5
106
330
1F
100
AcDbEntity
  8
0
  6
Continuous
 62
     7
370
    25
100
AcDbLine
 10
92.8610522158
 20
127.7164511999
 30
0.0
 11
93.0111254171
 21
127.8665244012
 31
0.0
  0
LINE
  5
107
330
1F
100
AcDbEntity
  8
0
  6
Continuous
 62
     7
370
    25
100
AcDbLine
 10
93.0111254171
 20
160.2665244012
 30
0.0
 11
92.8610522158
 21
160.4165976024
 31
0.0
  0
LINE
  5
108
330
1F
100
AcDbEntity
  8
0
  6
Continuous
 62
     7
370
    25
100
AcDbLine
 10
83.7039873213
 20
160.4093863054
 30
0.0
 11
83.5611254171
 21
160.2665244012
 31
0.0
  0
LINE
  5
109
330
1F
100
AcDbEntity
  8
0
  6
Continuous
 62
     7
370
    25
100
AcDbLine
 10
83.5611254171
 20
127.8665244012
 30
0.0
 11
83.7039873213
 21
127.723662497
 31
0.0
  0
ARC
  5
10A
330
1F
100
AcDbEntity
  8
0
  6
Continuous
 62
     7
370
    25
100
AcDbCircle
 10
83.5611254171
 20
149.8075127733
 30
0.0
 40
9.13401162790698
100
AcDbArc
 50
90.0
 51
148.0464183091
  0
ARC
  5
10B
330
1F
100
AcDbEntity
  8
0
  6
Continuous
 62
     7
370
    25
100
AcDbCircle
 10
83.5611254171
 20
138.3255360291
 30
0.0
 40
9.134011627906995
100
AcDbArc
 50
211.9535816909
 51
270.0
  0
LINE
  5
10C
330
1F
100
AcDbEntity
  8
0
  6
Continuous
 62
     7
370
    25
100
AcDbLine
 10
91.8177720525
 20
160.7938091326
 30
0.0
 11
84.7674725007
 21
160.7938091326
 31
0.0
  0
LINE
  5
10D
330
1F
100
AcDbEntity
  8
0
  6
Continuous
 62
     7
370
    25
100
AcDbLine
 10
84.7674725007
 20
127.3392396697
 30
0.0
 11
91.8177720525
 21
127.3392396697
 31
0.0
  0
LINE
  5
10E
330
1F
100
AcDbEntity
  8
0
  6
Continuous
 62
     7
370
    25
100
AcDbLine
 10
60.4611254171
 20
138.4165244012
 30
0.0
 11
68.3611254171
 21
138.4165244012
 31
0.0
  0
LINE
  5
10F
330
1F
100
AcDbEntity
  8
0
  6
Continuous
 62
     7
370
    25
100
AcDbLine
 10
68.3611254171
 20
149.7165244012
 30
0.0
 11
60.4611254171
 21
149.7165244012
 31
0.0
  0
SPLINE
  5
110
330
1F
100
AcDbEntity
  8
0
  6
Continuous
 62
     7
370
    25
100
AcDbSpline
210
0.0
220
0.0
230
1.0
 70
     8
 71
     3
 72
     9
 73
     5
 74
     0
 42
0.00000001
 43
0.00000001
 40
0.0
 40
0.0
 40
0.0
 40
0.0
 40
0.4999956574115309
 40
0.9999999999999999
 40
0.9999999999999999
 40
0.9999999999999999
 40
0.9999999999999999
 10
180.1239431614542
 20
157.7489296257784
 30
0.0
 10
180.0457551262778
 20
157.884299366879
 30
0.0
 10
179.8893776977592
 20
158.1550412005211
 30
0.0
 10
179.7330044311299
 20
158.4257851145213
 30
0.0
 10
179.6548171187506
 20
158.5611582472508
 30
0.0
  0
SPLINE
  5
111
330
1F
100
AcDbEntity
  8
0
  6
Continuous
 62
     7
370
    25
100
AcDbSpline
210
0.0
220
0.0
230
1.0
 70
     8
 71
     3
 72
     9
 73
     5
 74
     0
 42
0.00000001
 43
0.00000001
 40
0.0
 40
0.0
 40
0.0
 40
0.0
 40
0.4999956574115287
 40
0.9999999999999999
 40
0.9999999999999999
 40
0.9999999999999999
 40
0.9999999999999999
 10
178.6239431614542
 20
157.7489296257784
 30
0.0
 10
178.5457551262777
 20
157.884299366879
 30
0.0
 10
178.3893776977591
 20
158.1550412005211
 30
0.0
 10
178.2330044311299
 20
158.4257851145213
 30
0.0
 10
178.1548171187506
 20
158.5611582472508
 30
0.0
  0
SPLINE
  5
112
330
1F
100
AcDbEntity
  8
0
  6
Continuous
 62
     7
370
    25
100
AcDbSpline
210
0.0
220
0.0
230
1.0
 70
     8
 71
     3
 72
     9
 73
     5
 74
     0
 42
0.00000001
 43
0.00000001
 40
0.0
 40
0.0
 40
0.0
 40
0.0
 40
0.5035355068673537
 40
0.9999999999999999
 40
0.9999999999999999
 40
0.9999999999999999
 40
0.9999999999999999
 10
178.9048171187506
 20
129.5718905551029
 30
0.0
 10
178.9830044286805
 20
129.7072636890568
 30
0.0
 10
179.1382810851697
 20
129.9761089484429
 30
0.0
 10
179.293561874362
 20
130.2449521420598
 30
0.0
 10
179.3706532726616
 20
130.378423241911
 30
0.0
  0
SPLINE
  5
113
330
1F
100
AcDbEntity
  8
0
  6
Continuous
 62
     7
370
    25
100
AcDbSpline
210
0.0
220
0.0
230
1.0
 70
     8
 71
     3
 72
     9
 73
     5
 74
     0
 42
0.00000001
 43
0.00000001
 40
0.0
 40
0.0
 40
0.0
 40
0.0
 40
0.5035355244945965
 40
1.0
 40
1.0
 40
1.0
 40
1.0
 10
177.4048171187506
 20
129.5718905551029
 30
0.0
 10
177.4830044286805
 20
129.7072636890568
 30
0.0
 10
177.6382810797339
 20
129.9761089390314
 30
0.0
 10
177.7935618634903
 20
130.244952123237
 30
0.0
 10
177.870653256354
 20
130.3784232136769
 30
0.0
  0
LINE
  5
114
330
1F
100
AcDbEntity
  8
0
  6
Continuous
 62
     7
370
    25
100
AcDbLine
 10
94.423625413
 20
129.5665244012
 30
0.0
 11
94.7111254171
 21
129.5665244012
 31
0.0
  0
LINE
  5
115
330
1F
100
AcDbEntity
  8
0
  6
Continuous
 62
     7
370
    25
100
AcDbLine
 10
93.0111254171
 20
129.5665244012
 30
0.0
 11
93.1111254171
 21
129.5665244012
 31
0.0
  0
LINE
  5
116
330
1F
100
AcDbEntity
  8
0
  6
Continuous
 62
     7
370
    25
100
AcDbLine
 10
94.7111254171
 20
158.5665244012
 30
0.0
 11
93.673625413
 21
158.5665244012
 31
0.0
  0
SPLINE
  5
117
330
1F
100
AcDbEntity
  8
0
  6
Continuous
 62
     7
370
    25
100
AcDbSpline
210
0.0
220
0.0
230
1.0
 70
     8
 71
     3
 72
     9
 73
     5
 74
     0
 42
0.00000001
 43
0.00000001
 40
0.0
 40
0.0
 40
0.0
 40
0.0
 40
0.5000043425884712
 40
0.9999999999999999
 40
0.9999999999999999
 40
0.9999999999999999
 40
0.9999999999999999
 10
93.66743371543821
 20
158.5611582472508
 30
0.0
 10
93.58924640305888
 20
158.4257851145213
 30
0.0
 10
93.43287313642968
 20
158.1550412005211
 30
0.0
 10
93.27649570791107
 20
157.884299366879
 30
0.0
 10
93.19830767273459
 20
157.7489296257784
 30
0.0
  0
SPLINE
  5
118
330
1F
100
AcDbEntity
  8
0
  6
Continuous
 62
     7
370
    25
100
AcDbSpline
210
0.0
220
0.0
230
1.0
 70
     8
 71
     3
 72
     9
 73
     5
 74
     0
 42
0.00000001
 43
0.00000001
 40
0.0
 40
0.0
 40
0.0
 40
0.0
 40
0.4964644755054036
 40
1.0
 40
1.0
 40
1.0
 40
1.0
 10
93.95159757783483
 20
130.3784232136769
 30
0.0
 10
94.02868897069852
 20
130.244952123237
 30
0.0
 10
94.18396975445492
 20
129.9761089390314
 30
0.0
 10
94.33924640550828
 20
129.7072636890568
 30
0.0
 10
94.41743371543822
 20
129.5718905551029
 30
0.0
  0
SPLINE
  5
119
330
1F
100
AcDbEntity
  8
0
  6
Continuous
 62
     7
370
    25
100
AcDbSpline
210
0.0
220
0.0
230
1.0
 70
     8
 71
     3
 72
     9
 73
     5
 74
     0
 42
0.00000001
 43
0.00000001
 40
0.0
 40
0.0
 40
0.0
 40
0.0
 40
0.5036319833775984
 40
1.0
 40
1.0
 40
1.0
 40
1.0
 10
179.4548404705693
 20
158.5609962953743
 30
0.0
 10
179.3766538524793
 20
158.4256243066625
 30
0.0
 10
179.2214083147244
 20
158.1568328216499
 30
0.0
 10
179.0661587378302
 20
157.8880438227277
 30
0.0
 10
178.9890978132657
 20
157.7546255604427
 30
0.0
  0
SPLINE
  5
11A
330
1F
100
AcDbEntity
  8
0
  6
Continuous
 62
     7
370
    25
100
AcDbSpline
210
0.0
220
0.0
230
1.0
 70
     8
 71
     3
 72
     9
 73
     5
 74
     0
 42
0.00000001
 43
0.00000001
 40
0.0
 40
0.0
 40
0.0
 40
0.0
 40
0.4999957547772969
 40
1.0
 40
1.0
 40
1.0
 40
1.0
 10
179.7357186276213
 20
130.3842737778328
 30
0.0
 10
179.8139059547092
 20
130.2489053414057
 30
0.0
 10
179.9702819365868
 20
129.9781661698554
 30
0.0
 10
180.1266538500194
 20
129.7074244941772
 30
0.0
 10
180.2048404705692
 20
129.5720525069794
 30
0.0
  0
LINE
  5
11B
330
1F
100
AcDbEntity
  8
0
  6
Continuous
 62
     7
370
    25
100
AcDbLine
 10
178.1486254212
 20
158.5665244012
 30
0.0
 11
177.1111254171
 21
158.5665244012
 31
0.0
  0
LINE
  5
11C
330
1F
100
AcDbEntity
  8
0
  6
Continuous
 62
     7
370
    25
100
AcDbLine
 10
179.6486254212
 20
158.5665244012
 30
0.0
 11
179.4611254171
 21
158.5665244012
 31
0.0
  0
LINE
  5
11D
330
1F
100
AcDbEntity
  8
0
  6
Continuous
 62
     7
370
    25
100
AcDbLine
 10
178.7111254171
 20
129.5665244012
 30
0.0
 11
178.8986254212
 21
129.5665244012
 31
0.0
  0
LINE
  5
11E
330
1F
100
AcDbEntity
  8
0
  6
Continuous
 62
     7
370
    25
100
AcDbLine
 10
177.1111254171
 20
129.5665244012
 30
0.0
 11
177.3986254212
 21
129.5665244012
 31
0.0
  0
LINE
  5
11F
330
1F
100
AcDbEntity
  8
0
  6
Continuous
 62
     7
370
    25
100
AcDbLine
 10
93.2015975615
 20
157.7546255604
 30
0.0
 11
92.8298899523
 21
157.7546255604
 31
0.0
  0
LINE
  5
120
330
1F
100
AcDbEntity
  8
0
  6
Continuous
 62
     7
370
    25
100
AcDbLine
 10
178.9923608818
 20
157.7546255604
 30
0.0
 11
178.6206532727
 21
157.7546255604
 31
0.0
  0
LINE
  5
121
330
1F
100
AcDbEntity
  8
0
  6
Continuous
 62
     7
370
    25
100
AcDbLine
 10
179.3673608818
 20
130.3784232419
 30
0.0
 11
179.7390978133
 21
130.3784232419
 31
0.0
  0
ARC
  5
122
330
1F
100
AcDbEntity
  8
0
  6
Continuous
 62
     7
370
    25
100
AcDbCircle
 10
135.6522296066
 20
58.090967557
 30
0.0
 40
11.29111766730503
100
AcDbArc
 50
137.6234698876
 51
179.9114722344
  0
LWPOLYLINE
  5
123
330
1F
100
AcDbEntity
  8
0
  6
Continuous
 62
     7
370
    25
100
AcDbPolyline
 90
       25
 70
   128
 43
0.0
 10
144.5111254171
 20
65.7011790572
 10
144.7589387351
 20
65.4198201262
 10
145.9137188308
 20
63.7956782408
 10
146.7645751872
 20
61.9987316932
 10
147.2856549644
 20
60.0835797949
 10
147.4611254171
 20
58.1084134672
 10
147.2856549644
 20
56.1332471395
 10
146.7645751872
 20
54.2180952412
 10
145.9137188308
 20
52.4211486935
 10
144.7589387351
 20
50.7970068082
 10
143.335322309
 20
49.3950183144
 10
141.6861254171
 20
48.2577819231
 10
139.8614580725
 20
47.4198519867
 10
137.9167618691
 20
46.9066885821
 10
135.9111254171
 20
46.7338839199
 10
133.905488965
 20
46.9066885821
 10
131.9607927617
 20
47.4198519867
 10
130.1361254171
 20
48.2577819231
 10
128.4869285252
 20
49.3950183144
 10
127.0633120991
 20
50.7970068082
 10
125.9085320034
 20
52.4211486935
 10
125.057675647
 20
54.2180952412
 10
124.5365958698
 20
56.1332471395
 10
124.3611254171
 20
58.1084134672
 10
124.3611254171
 20
58.1084134672
  0
LWPOLYLINE
  5
124
330
1F
100
AcDbEntity
  8
0
  6
Continuous
 62
     7
370
    25
100
AcDbPolyline
 90
       20
 70
   128
 43
0.0
 10
124.3611254171
 20
55.8411679343
 10
124.5365958698
 20
53.8660016066
 10
125.057675647
 20
51.9508497083
 10
125.9085320034
 20
50.1539031607
 10
127.0633120991
 20
48.5297612753
 10
128.4869285252
 20
47.1277727815
 10
130.1361254171
 20
45.9905363903
 10
131.9607927617
 20
45.1526064538
 10
133.905488965
 20
44.6394430493
 10
135.9111254171
 20
44.466638387
 10
137.9167618691
 20
44.6394430493
 10
139.8614580725
 20
45.1526064538
 10
141.6861254171
 20
45.9905363903
 10
143.335322309
 20
47.1277727815
 10
144.7589387351
 20
48.5297612753
 10
145.9137188308
 20
50.1539031607
 10
146.7645751872
 20
51.9508497083
 10
147.2856549644
 20
53.8660016066
 10
147.4611254171
 20
55.8411679343
 10
147.4611254171
 20
55.8411679343
  0
ARC
  5
125
330
1F
100
AcDbEntity
  8
0
  6
Continuous
 62
     7
370
    25
100
AcDbCircle
 10
135.6476468737
 20
58.0984928118
 30
0.0
 40
10.53652612703847
100
AcDbArc
 50
142.2979906667
 51
179.9460532093
  0
ARC
  5
126
330
1F
100
AcDbEntity
  8
0
  6
Continuous
 62
     7
370
    25
100
AcDbCircle
 10
135.8950606743
 20
58.2070816153
 30
0.0
 40
10.78438663230259
100
AcDbArc
 50
180.5242159361
 51
12.814557267
  0
ARC
  5
127
330
1F
100
AcDbEntity
  8
0
  6
Continuous
 62
     7
370
    25
100
AcDbCircle
 10
135.9111254171
 20
55.4569120254
 30
0.0
 40
11.12963975787035
100
AcDbArc
 50
233.3530039559
 51
306.6469960441
  0
ARC
  5
128
330
1F
100
AcDbEntity
  8
0
  6
Continuous
 62
     7
370
    25
100
AcDbCircle
 10
135.9111254171
 20
144.0665244012
 30
0.0
 40
8.600000000000023
100
AcDbArc
 50
0.0
 51
90.0
  0
ARC
  5
129
330
1F
100
AcDbEntity
  8
0
  6
Continuous
 62
     7
370
    25
100
AcDbCircle
 10
135.9111254171
 20
144.0665244012
 30
0.0
 40
8.600000000000023
100
AcDbArc
 50
90.0
 51
180.0
  0
ARC
  5
12A
330
1F
100
AcDbEntity
  8
0
  6
Continuous
 62
     7
370
    25
100
AcDbCircle
 10
136.0332541733
 20
58.664469524
 30
0.0
 40
8.477943951568552
100
AcDbArc
 50
287.3957651452
 51
359.7627080472
  0
ARC
  5
12B
330
1F
100
AcDbEntity
  8
0
  6
Continuous
 62
     7
370
    25
100
AcDbCircle
 10
135.8246954096
 20
58.6852788759
 30
0.0
 40
8.513753646964453
100
AcDbArc
 50
180.3763384918
 51
260.5964304734
  0
SPLINE
  5
12C
330
1F
100
AcDbEntity
  8
0
  6
Continuous
 62
     7
370
    25
100
AcDbSpline
210
0.0
220
0.0
230
1.0
 70
     8
 71
     3
 72
    10
 73
     6
 74
     0
 42
0.00000001
 43
0.00000001
 40
0.0
 40
0.0
 40
0.0
 40
0.0
 40
0.1203924806616949
 40
0.7397035313311148
 40
0.9999999999999999
 40
0.9999999999999999
 40
0.9999999999999999
 40
0.9999999999999999
 10
146.6540769078586
 20
59.08902539124661
 30
0.0
 10
146.6525499950732
 20
59.0839377484664
 30
0.0
 10
146.6431684890756
 20
59.05267875861932
 30
0.0
 10
146.6254801562291
 20
58.98437872104036
 30
0.0
 10
146.6083499717965
 20
58.9146392400575
 30
0.0
 10
146.60328074897
 20
58.89400169407531
 30
0.0
  0
SPLINE
  5
12D
330
1F
100
AcDbEntity
  8
0
  6
Continuous
 62
     7
370
    25
100
AcDbSpline
210
0.0
220
0.0
230
1.0
 70
     8
 71
     3
 72
     9
 73
     5
 74
     0
 42
0.00000001
 43
0.00000001
 40
0.0
 40
0.0
 40
0.0
 40
0.0
 40
0.4353595993595625
 40
1.0
 40
1.0
 40
1.0
 40
1.0
 10
146.6032807489663
 20
58.89400169407466
 30
0.0
 10
146.5947897936424
 20
58.4820747389984
 30
0.0
 10
146.5752864788278
 20
57.535898392635
 30
0.0
 10
146.3946392883043
 20
56.58357926949282
 30
0.0
 10
146.2926385862726
 20
56.04586141826426
 30
0.0
  0
SPLINE
  5
12E
330
1F
100
AcDbEntity
  8
0
  6
Continuous
 62
     7
370
    25
100
AcDbSpline
210
0.0
220
0.0
230
1.0
 70
     8
 71
     3
 72
    19
 73
    15
 74
     0
 42
0.00000001
 43
0.00000001
 40
0.0
 40
0.0
 40
0.0
 40
0.0
 40
0.0317521143353705
 40
0.1255457140904781
 40
0.2193361198954272
 40
0.3134221032091385
 40
0.4076669897042046
 40
0.5020274109710791
 40
0.5966513499298765
 40
0.6860860730786563
 40
0.7755206091254645
 40
0.8704343148980083
 40
0.9654707769252657
 40
0.9999999999999999
 40
0.9999999999999999
 40
0.9999999999999999
 40
0.9999999999999999
 10
146.2926401521289
 20
56.04586864412175
 30
0.0
 10
146.197629318019
 20
55.66007053543893
 30
0.0
 10
145.8219629013302
 20
54.13465088817514
 30
0.0
 10
144.4716685141701
 20
51.66337334350732
 30
0.0
 10
141.8155205216243
 20
49.22313701216196
 30
0.0
 10
138.4756124048593
 20
47.78100474975209
 30
0.0
 10
134.8371763736408
 20
47.5079063350237
 30
0.0
 10
131.3062443211644
 20
48.4327426754636
 30
0.0
 10
128.3365023891361
 20
50.42274397912368
 30
0.0
 10
126.2245036358861
 20
53.18745265387212
 30
0.0
 10
125.0797615210992
 20
56.47847275030826
 30
0.0
 10
125.1326853405979
 20
59.98617586706877
 30
0.0
 10
125.9436888444852
 20
62.7846986951964
 30
0.0
 10
127.0233863093987
 20
64.00834027766491
 30
0.0
 10
127.3111254170944
 20
64.3344404571323
 30
0.0
  0
ARC
  5
12F
330
1F
100
AcDbEntity
  8
0
  6
Continuous
 62
     7
370
    25
100
AcDbCircle
 10
136.1816961645
 20
58.1200909981
 30
0.0
 40
10.52924289011387
100
AcDbArc
 50
358.6611723649
 51
37.7138392888
  0
LINE
  5
130
330
1F
100
AcDbEntity
  8
0
  6
Continuous
 62
     7
370
    25
100
AcDbLine
 10
146.7080646265
 20
57.8740770916
 30
0.0
 11
146.6540769079
 21
59.0890253912
 31
0.0
  0
ELLIPSE
  5
131
330
1F
100
AcDbEntity
  8
0
  6
Continuous
 62
     7
370
    25
100
AcDbEllipse
 10
135.9111254171
 20
59.1912696847
 30
0.0
 11
-7.600099860430902
 21
8.462404065368917
 31
0.0
210
0.0
220
0.0
230
1.0
 40
0.9067436949
 41
3.721514450840327
 42
3.907970575270607
  0
LINE
  5
132
330
1F
100
AcDbEntity
  8
0
  6
Continuous
 62
     7
370
    25
100
AcDbLine
 10
146.6540769079
 20
59.0890253912
 30
0.0
 11
146.6010262212
 21
58.8442169961
 31
0.0
  0
ARC
  5
133
330
1F
100
AcDbEntity
  8
0
  6
Continuous
 62
     7
370
    25
100
AcDbCircle
 10
143.1111254171
 20
168.9877412049
 30
0.0
 40
6.000000000000004
100
AcDbArc
 50
86.4336695739
 51
147.2422545322
  0
ARC
  5
134
330
1F
100
AcDbEntity
  8
0
  6
Continuous
 62
     7
370
    25
100
AcDbCircle
 10
143.1111254171
 20
168.9877412049
 30
0.0
 40
6.499999999999989
100
AcDbArc
 50
67.8978634178
 51
149.6536377524
  0
LINE
  5
135
330
1F
100
AcDbEntity
  8
0
  6
Continuous
 62
     7
370
    25
100
AcDbLine
 10
149.4619783782
 20
179.9877412049
 30
0.0
 11
136.760272456
 21
179.9877412049
 31
0.0
  0
LINE
  5
136
330
1F
100
AcDbEntity
  8
0
  6
Continuous
 62
     7
370
    25
100
AcDbLine
 10
152.4399847905
 20
174.8296827936
 30
0.0
 11
149.4619783782
 21
179.9877412049
 31
0.0
  0
LINE
  5
137
330
1F
100
AcDbEntity
  8
0
  6
Continuous
 62
     7
370
    25
100
AcDbLine
 10
136.760272456
 20
179.9877412049
 30
0.0
 11
132.1891115767
 21
172.0702583124
 31
0.0
  0
LWPOLYLINE
  5
138
330
1F
100
AcDbEntity
  8
0
  6
Continuous
 62
     7
370
    25
100
AcDbPolyline
 90
        3
 70
   128
 43
0.0
 10
126.2654431294
 20
113.122962693
 10
126.4879944855
 20
113.0373055623
 10
127.3111254171
 20
112.7978671684
  0
LINE
  5
139
330
1F
100
AcDbEntity
  8
0
  6
Continuous
 62
     7
370
    25
100
AcDbLine
 10
122.360272456
 20
108.1453075974
 30
0.0
 11
127.3111254171
 21
108.1453075974
 31
0.0
  0
LINE
  5
13A
330
1F
100
AcDbEntity
  8
0
  6
Continuous
 62
     7
370
    25
100
AcDbLine
 10
119.3822660437
 20
113.3033660088
 30
0.0
 11
122.360272456
 21
108.1453075974
 31
0.0
  0
LINE
  5
13B
330
1F
100
AcDbEntity
  8
0
  6
Continuous
 62
     7
370
    25
100
AcDbLine
 10
228.1111254171
 20
139.110494017
 30
0.0
 11
228.1111254171
 21
138.7376100645
 31
0.0
  0
LINE
  5
13C
330
1F
100
AcDbEntity
  8
0
  6
Continuous
 62
     7
370
    25
100
AcDbLine
 10
228.1111254171
 20
149.3954387378
 30
0.0
 11
228.1111254171
 21
139.110494017
 31
0.0
  0
ARC
  5
13D
330
1F
100
AcDbEntity
  8
0
  6
Continuous
 62
     7
370
    25
100
AcDbCircle
 10
46.0101082606
 20
141.9216028256
 30
0.0
 40
3.299286112126425
100
AcDbArc
 50
174.1006273552
 51
185.8993726448
  0
ARC
  5
13E
330
1F
100
AcDbEntity
  8
0
  6
Continuous
 62
     7
370
    25
100
AcDbCircle
 10
49.8065203023
 20
144.4316739409
 30
0.0
 40
7.403671904243764
100
AcDbArc
 50
188.8555717152
 51
197.0513202202
  0
SPLINE
  5
13F
330
1F
100
AcDbEntity
  8
0
  6
Continuous
 62
     7
370
    25
100
AcDbSpline
210
0.0
220
0.0
230
1.0
 70
     8
 71
     3
 72
    12
 73
     8
 74
     0
 42
0.00000001
 43
0.00000001
 40
0.0
 40
0.0
 40
0.0
 40
0.0
 40
0.2133534395476112
 40
0.4267919313634459
 40
0.638353973909151
 40
0.8490950351927568
 40
1.0
 40
1.0
 40
1.0
 40
1.0
 10
42.49110361542416
 20
144.3345311231907
 30
0.0
 10
42.48144447169678
 20
144.2806588319127
 30
0.0
 10
42.46212233367336
 20
144.1728927734407
 30
0.0
 10
42.44980926366522
 20
143.9412833527638
 30
0.0
 10
42.45214670396197
 20
143.6911256224054
 30
0.0
 10
42.46726422297579
 20
143.4647065903214
 30
0.0
 10
42.48408483535675
 20
143.3427925577348
 30
0.0
 10
42.49110361542414
 20
143.2919211766889
 30
0.0
  0
ARC
  5
140
330
1F
100
AcDbEntity
  8
0
  6
Continuous
 62
     7
370
    25
100
AcDbCircle
 10
46.1755943032
 20
143.4905470871
 30
0.0
 40
3.779918078701266
100
AcDbArc
 50
155.7837213117
 51
167.0981823598
  0
ARC
  5
141
330
1F
100
AcDbEntity
  8
0
  6
Continuous
 62
     7
370
    25
100
AcDbCircle
 10
49.7288502103
 20
145.5359839735
 30
0.0
 40
7.018032155405833
100
AcDbArc
 50
175.9555700063
 51
184.0444299937
  0
ARC
  5
142
330
1F
100
AcDbEntity
  8
0
  6
Continuous
 62
     7
370
    25
100
AcDbCircle
 10
46.1755943032
 20
144.4805108912
 30
0.0
 40
3.779918078703118
100
AcDbArc
 50
155.7837213117
 51
167.0981823598
  0
SPLINE
  5
143
330
1F
100
AcDbEntity
  8
0
  6
Continuous
 62
     7
370
    25
100
AcDbSpline
210
0.0
220
0.0
230
1.0
 70
     8
 71
     3
 72
    11
 73
     7
 74
     0
 42
0.00000001
 43
0.00000001
 40
0.0
 40
0.0
 40
0.0
 40
0.0
 40
0.1771553424640977
 40
0.4808543061932556
 40
0.7833747449113184
 40
1.0
 40
1.0
 40
1.0
 40
1.0
 10
42.45955633931082
 20
145.2920617725753
 30
0.0
 10
42.45665322896514
 20
145.2678393324748
 30
0.0
 10
42.44877329098721
 20
145.2020921499919
 30
0.0
 10
42.45259232458502
 20
145.1824289500176
 30
0.0
 10
42.46718897512308
 20
145.2225920852188
 30
0.0
 10
42.48406268092769
 20
145.2944927517731
 30
0.0
 10
42.49110361542414
 20
145.3244949273073
 30
0.0
  0
ARC
  5
144
330
1F
100
AcDbEntity
  8
0
  6
Continuous
 62
     7
370
    25
100
AcDbCircle
 10
49.7391154021
 20
143.7141374248
 30
0.0
 40
7.335106118657155
100
AcDbArc
 50
168.3668500212
 51
171.1618771205
  0
SPLINE
  5
145
330
1F
100
AcDbEntity
  8
0
  6
Continuous
 62
     7
370
    25
100
AcDbSpline
210
0.0
220
0.0
230
1.0
 70
     8
 71
     3
 72
    11
 73
     7
 74
     0
 42
0.00000001
 43
0.00000001
 40
0.0
 40
0.0
 40
0.0
 40
0.0
 40
0.1769183548232303
 40
0.4807047869466887
 40
0.7833123546318377
 40
1.0
 40
1.0
 40
1.0
 40
1.0
 10
42.45954443966986
 20
144.0665244011769
 30
0.0
 10
42.45664649626631
 20
144.1086654918489
 30
0.0
 10
42.44877249547211
 20
144.2231670314628
 30
0.0
 10
42.45259304184498
 20
144.443261298986
 30
0.0
 10
42.46718885400603
 20
144.6681162561877
 30
0.0
 10
42.48406264526848
 20
144.7901897188306
 30
0.0
 10
42.49110361542416
 20
144.8411276256649
 30
0.0
  0
SPLINE
  5
146
330
1F
100
AcDbEntity
  8
0
  6
Continuous
 62
     7
370
    25
100
AcDbSpline
210
0.0
220
0.0
230
1.0
 70
     8
 71
     3
 72
    10
 73
     6
 74
     0
 42
0.00000001
 43
0.00000001
 40
0.0
 40
0.0
 40
0.0
 40
0.0
 40
0.3456786151971759
 40
0.691495033423728
 40
1.0
 40
1.0
 40
1.0
 40
1.0
 10
42.49110361542416
 20
142.6137090664025
 30
0.0
 10
42.48151316005895
 20
142.6776269811436
 30
0.0
 10
42.46232842614206
 20
142.8054882911788
 30
0.0
 10
42.44942959024593
 20
142.9199528537108
 30
0.0
 10
42.45275525831757
 20
142.9309271186234
 30
0.0
 10
42.4543232723564
 20
142.9361013576269
 30
0.0
  0
ARC
  5
147
330
1F
100
AcDbEntity
  8
0
  6
Continuous
 62
     7
370
    25
100
AcDbCircle
 10
49.8065203023
 20
143.7534618307
 30
0.0
 40
7.40367190424344
100
AcDbArc
 50
188.8555717152
 51
197.0513202202
  0
SPLINE
  5
148
330
1F
100
AcDbEntity
  8
0
  6
Continuous
 62
     7
370
    25
100
AcDbSpline
210
0.0
220
0.0
230
1.0
 70
     8
 71
     3
 72
    11
 73
     7
 74
     0
 42
0.00000001
 43
0.00000001
 40
0.0
 40
0.0
 40
0.0
 40
0.0
 40
0.3039812236456291
 40
0.6080836278666548
 40
0.9095125090057328
 40
1.0
 40
1.0
 40
1.0
 40
1.0
 10
229.3311472187647
 20
145.3244949273073
 30
0.0
 10
229.3408625818272
 20
145.2837079207391
 30
0.0
 10
229.3602971809326
 20
145.202117648069
 30
0.0
 10
229.3717690078841
 20
145.1849291486638
 30
0.0
 10
229.3724055315931
 20
145.2180956005624
 30
0.0
 10
229.3644755756057
 20
145.2793298351399
 30
0.0
 10
229.3626446701574
 20
145.2934678825497
 30
0.0
  0
ARC
  5
149
330
1F
100
AcDbEntity
  8
0
  6
Continuous
 62
     7
370
    25
100
AcDbCircle
 10
225.646656531
 20
144.4805108912
 30
0.0
 40
3.779918078704896
100
AcDbArc
 50
12.9018176402
 51
24.2162786883
  0
ARC
  5
14A
330
1F
100
AcDbEntity
  8
0
  6
Continuous
 62
     7
370
    25
100
AcDbCircle
 10
222.0934006239
 20
145.5359839735
 30
0.0
 40
7.018032155401396
100
AcDbArc
 50
355.9555700063
 51
4.0444299937
  0
ARC
  5
14B
330
1F
100
AcDbEntity
  8
0
  6
Continuous
 62
     7
370
    25
100
AcDbCircle
 10
225.646656531
 20
143.4905470871
 30
0.0
 40
3.779918078704045
100
AcDbArc
 50
12.9018176402
 51
24.2162786883
  0
SPLINE
  5
14C
330
1F
100
AcDbEntity
  8
0
  6
Continuous
 62
     7
370
    25
100
AcDbSpline
210
0.0
220
0.0
230
1.0
 70
     8
 71
     3
 72
    12
 73
     8
 74
     0
 42
0.00000001
 43
0.00000001
 40
0.0
 40
0.0
 40
0.0
 40
0.0
 40
0.2133534395476133
 40
0.4267919313634468
 40
0.6383539739091508
 40
0.8490950351927574
 40
1.0
 40
1.0
 40
1.0
 40
1.0
 10
229.3311472187647
 20
143.2919211766889
 30
0.0
 10
229.340806362492
 20
143.3653798469614
 30
0.0
 10
229.3601285005155
 20
143.5123264714334
 30
0.0
 10
229.3724415705236
 20
143.7689892029852
 30
0.0
 10
229.3701041302268
 20
144.0143905650218
 30
0.0
 10
229.354986611213
 20
144.2100723247822
 30
0.0
 10
229.3381659988321
 20
144.297888036108
 30
0.0
 10
229.3311472187647
 20
144.3345311231907
 30
0.0
  0
ARC
  5
14D
330
1F
100
AcDbEntity
  8
0
  6
Continuous
 62
     7
370
    25
100
AcDbCircle
 10
222.0157305319
 20
144.4316739409
 30
0.0
 40
7.403671904248116
100
AcDbArc
 50
342.9486797798
 51
351.1444282848
  0
ARC
  5
14E
330
1F
100
AcDbEntity
  8
0
  6
Continuous
 62
     7
370
    25
100
AcDbCircle
 10
225.8121425736
 20
141.9216028256
 30
0.0
 40
3.299286112123534
100
AcDbArc
 50
354.1006273552
 51
5.8993726448
  0
ARC
  5
14F
330
1F
100
AcDbEntity
  8
0
  6
Continuous
 62
     7
370
    25
100
AcDbCircle
 10
222.0157305319
 20
143.7534618307
 30
0.0
 40
7.403671904249237
100
AcDbArc
 50
342.9486797798
 51
351.1444282848
  0
SPLINE
  5
150
330
1F
100
AcDbEntity
  8
0
  6
Continuous
 62
     7
370
    25
100
AcDbSpline
210
0.0
220
0.0
230
1.0
 70
     8
 71
     3
 72
    11
 73
     7
 74
     0
 42
0.00000001
 43
0.00000001
 40
0.0
 40
0.0
 40
0.0
 40
0.0
 40
0.0714051685223689
 40
0.4141348508035128
 40
0.7555345466478937
 40
1.0
 40
1.0
 40
1.0
 40
1.0
 10
229.3674010798674
 20
142.9329243964298
 30
0.0
 10
229.3683523739626
 20
142.935066121877
 30
0.0
 10
229.3738696781909
 20
142.9474876757627
 30
0.0
 10
229.3692759504804
 20
142.8877258206448
 30
0.0
 10
229.3551264583035
 20
142.7715804998049
 30
0.0
 10
229.3382071725312
 20
142.6601894820582
 30
0.0
 10
229.3311472187647
 20
142.6137090664025
 30
0.0
  0
SPLINE
  5
151
330
1F
100
AcDbEntity
  8
0
  6
Continuous
 62
     7
370
    25
100
AcDbSpline
210
0.0
220
0.0
230
1.0
 70
     8
 71
     3
 72
    11
 73
     7
 74
     0
 42
0.00000001
 43
0.00000001
 40
0.0
 40
0.0
 40
0.0
 40
0.0
 40
0.3067489698104859
 40
0.6136202235443619
 40
0.917793611793932
 40
1.0
 40
1.0
 40
1.0
 40
1.0
 10
229.3311472187647
 20
144.8411276256649
 30
0.0
 10
229.3408654863706
 20
144.7674807720625
 30
0.0
 10
229.3603058957206
 20
144.6201577059126
 30
0.0
 10
229.371734260277
 20
144.366310872469
 30
0.0
 10
229.3724865841064
 20
144.1721492116734
 30
0.0
 10
229.3647865712707
 20
144.0850546840377
 30
0.0
 10
229.3631483120166
 20
144.0665244011769
 30
0.0
  0
ARC
  5
152
330
1F
100
AcDbEntity
  8
0
  6
Continuous
 62
     7
370
    25
100
AcDbCircle
 10
222.0850961968
 20
143.7144695469
 30
0.0
 40
7.333117607092155
100
AcDbArc
 50
8.837912545
 51
11.3659567697
  0
LINE
  5
153
330
1F
100
AcDbEntity
  8
0
  6
Continuous
 62
     7
370
    25
100
AcDbLine
 10
43.7111254171
 20
138.7376100645
 30
0.0
 11
43.7111254171
 21
149.3954387378
 31
0.0
  0
LINE
  5
154
330
1F
100
AcDbEntity
  8
0
  6
Continuous
 62
     7
370
    25
100
AcDbLine
 10
59.9523992139
 20
135.8158643926
 30
0.0
 11
59.9523992139
 21
152.3171841245
 31
0.0
  0
SPLINE
  5
155
330
1F
100
AcDbEntity
  8
0
  6
Continuous
 62
     7
370
    25
100
AcDbSpline
210
0.0
220
0.0
230
1.0
 70
     8
 71
     3
 72
    11
 73
     7
 74
     0
 42
0.00000001
 43
0.00000001
 40
0.0
 40
0.0
 40
0.0
 40
0.0
 40
0.2499999999999918
 40
0.4999999999999998
 40
0.7499999999999961
 40
1.0
 40
1.0
 40
1.0
 40
1.0
 10
59.95239921387576
 20
152.3171856637168
 30
0.0
 10
60.01877026661313
 20
152.3112931863139
 30
0.0
 10
60.15151237208789
 20
152.299508231508
 30
0.0
 10
60.31997611286863
 20
152.1955865490761
 30
0.0
 10
60.43806347190367
 20
152.0454061446201
 30
0.0
 10
60.45343810203082
 20
151.9258470855881
 30
0.0
 10
60.46112541709441
 20
151.8660675560721
 30
0.0
  0
LINE
  5
156
330
1F
100
AcDbEntity
  8
0
  6
Continuous
 62
     7
370
    25
100
AcDbLine
 10
60.4611254171
 20
151.8660127058
 30
0.0
 11
60.4611254171
 21
136.2670896356
 31
0.0
  0
SPLINE
  5
157
330
1F
100
AcDbEntity
  8
0
  6
Continuous
 62
     7
370
    25
100
AcDbSpline
210
0.0
220
0.0
230
1.0
 70
     8
 71
     3
 72
    11
 73
     7
 74
     0
 42
0.00000001
 43
0.00000001
 40
0.0
 40
0.0
 40
0.0
 40
0.0
 40
0.2499999999999896
 40
0.4999999999999997
 40
0.7499999999999998
 40
1.0
 40
1.0
 40
1.0
 40
1.0
 10
59.95239921387576
 20
135.8158646778818
 30
0.0
 10
60.01877026661315
 20
135.8217585509543
 30
0.0
 10
60.15151237208789
 20
135.8335462970993
 30
0.0
 10
60.3199761128686
 20
135.9374925940215
 30
0.0
 10
60.43806347190371
 20
136.087708569631
 30
0.0
 10
60.45343810203082
 20
136.2072959469622
 30
0.0
 10
60.46112541709441
 20
136.2670896356278
 30
0.0
  0
LWPOLYLINE
  5
158
330
1F
100
AcDbEntity
  8
0
  6
Continuous
 62
     7
370
    25
100
AcDbPolyline
 90
        3
 70
   128
 43
0.0
 10
59.9523992139
 20
152.3171841245
 10
53.9609254171
 20
152.2509317132
 10
50.4730814599
 20
152.2121157469
  0
LWPOLYLINE
  5
159
330
1F
100
AcDbEntity
  8
0
  6
Continuous
 62
     7
370
    25
100
AcDbPolyline
 90
        3
 70
   128
 43
0.0
 10
51.4065016738
 20
135.9105269847
 10
53.9609254171
 20
135.8821170891
 10
59.9523992308
 20
135.8158646777
  0
LINE
  5
15A
330
1F
100
AcDbEntity
  8
0
  6
Continuous
 62
     7
370
    25
100
AcDbLine
 10
45.6111254171
 20
135.6670807469
 30
0.0
 11
45.6111254171
 21
152.4659680554
 31
0.0
  0
LINE
  5
15B
330
1F
100
AcDbEntity
  8
0
  6
Continuous
 62
     7
370
    25
100
AcDbLine
 10
59.9523992139
 20
152.3171853778
 30
0.0
 11
59.9523992139
 21
155.8126583144
 31
0.0
  0
ARC
  5
15C
330
1F
100
AcDbEntity
  8
0
  6
Continuous
 62
     7
370
    25
100
AcDbCircle
 10
59.9670641224
 20
155.3187719576
 30
0.0
 40
0.4941040304928806
100
AcDbArc
 50
0.7535768612
 51
91.7007770082
  0
LINE
  5
15D
330
1F
100
AcDbEntity
  8
0
  6
Continuous
 62
     7
370
    25
100
AcDbLine
 10
60.4611254171
 20
155.3252704228
 30
0.0
 11
60.4611254171
 21
151.8660139602
 31
0.0
  0
LINE
  5
15E
330
1F
100
AcDbEntity
  8
0
  6
Continuous
 62
     7
370
    25
100
AcDbLine
 10
59.9523992139
 20
132.3203904879
 30
0.0
 11
59.9523992139
 21
135.8158631386
 31
0.0
  0
ARC
  5
15F
330
1F
100
AcDbEntity
  8
0
  6
Continuous
 62
     7
370
    25
100
AcDbCircle
 10
59.9670641224
 20
132.8142768447
 30
0.0
 40
0.494104030492912
100
AcDbArc
 50
268.2992229918
 51
359.2464231388
  0
LINE
  5
160
330
1F
100
AcDbEntity
  8
0
  6
Continuous
 62
     7
370
    25
100
AcDbLine
 10
60.4611254171
 20
136.2670348422
 30
0.0
 11
60.4611254171
 21
132.8077783795
 31
0.0
  0
SPLINE
  5
161
330
1F
100
AcDbEntity
  8
0
  6
Continuous
 62
     7
370
    25
100
AcDbSpline
210
0.0
220
0.0
230
1.0
 70
     8
 71
     3
 72
    12
 73
     8
 74
     0
 42
0.00000001
 43
0.00000001
 40
0.0
 40
0.0
 40
0.0
 40
0.0
 40
0.1662426524176548
 40
0.3368059756191302
 40
0.6054181071254584
 40
0.8801435087136187
 40
1.0
 40
1.0
 40
1.0
 40
1.0
 10
55.86989138715055
 20
155.7431847828478
 30
0.0
 10
55.77043467987533
 20
155.5876996073648
 30
0.0
 10
55.5689363709964
 20
155.2726881740096
 30
0.0
 10
54.74668861497389
 20
154.6097230690111
 30
0.0
 10
53.38485944798732
 20
153.7575281522057
 30
0.0
 10
51.82375325932846
 20
152.9148994735936
 30
0.0
 10
50.85351356716683
 20
152.3770413808984
 30
0.0
 10
50.55879774946395
 20
152.2136639300712
 30
0.0
  0
LINE
  5
162
330
1F
100
AcDbEntity
  8
0
  6
Continuous
 62
     7
370
    25
100
AcDbLine
 10
55.8698913872
 20
155.7431847828
 30
0.0
 11
59.9523992139
 21
155.8126583144
 31
0.0
  0
LWPOLYLINE
  5
163
330
1F
100
AcDbEntity
  8
0
  6
Continuous
 62
     7
370
    25
100
AcDbPolyline
 90
        3
 70
   128
 43
0.0
 10
50.5587977495
 20
152.2136639301
 10
53.9611254171
 20
152.2511876336
 10
59.9523991969
 20
152.3171856635
  0
LINE
  5
164
330
1F
100
AcDbEntity
  8
0
  6
Continuous
 62
     7
370
    25
100
AcDbLine
 10
51.4390358131
 20
135.9099399438
 30
0.0
 11
51.4772116171
 21
135.9092526411
 31
0.0
  0
LINE
  5
165
330
1F
100
AcDbEntity
  8
0
  6
Continuous
 62
     7
370
    25
100
AcDbLine
 10
51.4390358131
 20
135.9099399438
 30
0.0
 11
51.4065016738
 21
135.9105269847
 31
0.0
  0
LWPOLYLINE
  5
166
330
1F
100
AcDbEntity
  8
0
  6
Continuous
 62
     7
370
    25
100
AcDbPolyline
 90
        3
 70
   128
 43
0.0
 10
51.4772116171
 20
135.9092526411
 10
53.9611254171
 20
135.8818611687
 10
59.9523992139
 20
135.8158631386
  0
LINE
  5
167
330
1F
100
AcDbEntity
  8
0
  6
Continuous
 62
     7
370
    25
100
AcDbLine
 10
55.9262206042
 20
132.4357961864
 30
0.0
 11
55.9262206042
 21
132.3889054446
 31
0.0
  0
SPLINE
  5
168
330
1F
100
AcDbEntity
  8
0
  6
Continuous
 62
     7
370
    25
100
AcDbSpline
210
0.0
220
0.0
230
1.0
 70
     8
 71
     3
 72
    12
 73
     8
 74
     0
 42
0.00000001
 43
0.00000001
 40
0.0
 40
0.0
 40
0.0
 40
0.0
 40
0.0460732444350183
 40
0.249460740807831
 40
0.4779405209378896
 40
0.7057893369168761
 40
1.0
 40
1.0
 40
1.0
 40
1.0
 10
51.47721161707734
 20
135.9092526410744
 30
0.0
 10
51.57918405807439
 20
135.8467472436586
 30
0.0
 10
52.13130755154759
 20
135.5083156238534
 30
0.0
 10
53.17528750685995
 20
134.8897735270283
 30
0.0
 10
54.44656578237176
 20
134.0820489754596
 30
0.0
 10
55.61332880694906
 20
133.20997106192
 30
0.0
 10
55.81344408772696
 20
132.7148343279457
 30
0.0
 10
55.92622060421984
 20
132.4357961863893
 30
0.0
  0
LINE
  5
169
330
1F
100
AcDbEntity
  8
0
  6
Continuous
 62
     7
370
    25
100
AcDbLine
 10
55.9262206042
 20
132.3889054446
 30
0.0
 11
59.9523992139
 21
132.3203904879
 31
0.0
  0
LINE
  5
16A
330
1F
100
AcDbEntity
  8
0
  6
Continuous
 62
     7
370
    25
100
AcDbLine
 10
50.4730814599
 20
152.2121157469
 30
0.0
 11
50.5176877931
 21
152.212922364
 31
0.0
  0
LINE
  5
16B
330
1F
100
AcDbEntity
  8
0
  6
Continuous
 62
     7
370
    25
100
AcDbLine
 10
50.5587977495
 20
152.2136639301
 30
0.0
 11
50.5176877931
 21
152.212922364
 31
0.0
  0
LINE
  5
16C
330
1F
100
AcDbEntity
  8
0
  6
Continuous
 62
     7
370
    25
100
AcDbLine
 10
60.4611254171
 20
132.8077783795
 30
0.0
 11
60.4611254171
 21
132.5946347864
 31
0.0
  0
LINE
  5
16D
330
1F
100
AcDbEntity
  8
0
  6
Continuous
 62
     7
370
    25
100
AcDbLine
 10
60.4611254171
 20
155.5384140159
 30
0.0
 11
60.4611254171
 21
155.3252704228
 31
0.0
  0
LINE
  5
16E
330
1F
100
AcDbEntity
  8
0
  6
Continuous
 62
     7
370
    25
100
AcDbLine
 10
55.9262206042
 20
155.9514718481
 30
0.0
 11
55.8698913872
 21
155.7431847828
 31
0.0
  0
LINE
  5
16F
330
1F
100
AcDbEntity
  8
0
  6
Continuous
 62
     7
370
    25
100
AcDbLine
 10
211.8698516203
 20
152.5626056986
 30
0.0
 11
211.8698516203
 21
136.0612859667
 31
0.0
  0
SPLINE
  5
170
330
1F
100
AcDbEntity
  8
0
  6
Continuous
 62
     7
370
    25
100
AcDbSpline
210
0.0
220
0.0
230
1.0
 70
     8
 71
     3
 72
    11
 73
     7
 74
     0
 42
0.00000001
 43
0.00000001
 40
0.0
 40
0.0
 40
0.0
 40
0.0
 40
0.2499999999999913
 40
0.4999999999999988
 40
0.7499999999999947
 40
1.0
 40
1.0
 40
1.0
 40
1.0
 10
211.8698516203131
 20
136.0612844274653
 30
0.0
 10
211.8034805675757
 20
136.0671769048682
 30
0.0
 10
211.6707384621009
 20
136.0789618596741
 30
0.0
 10
211.5022747213202
 20
136.182883542106
 30
0.0
 10
211.3841873622851
 20
136.333063946562
 30
0.0
 10
211.368812732158
 20
136.452623005594
 30
0.0
 10
211.3611254170944
 20
136.51240253511
 30
0.0
  0
LINE
  5
171
330
1F
100
AcDbEntity
  8
0
  6
Continuous
 62
     7
370
    25
100
AcDbLine
 10
211.3611254171
 20
136.5124573854
 30
0.0
 11
211.3611254171
 21
152.1113804556
 31
0.0
  0
SPLINE
  5
172
330
1F
100
AcDbEntity
  8
0
  6
Continuous
 62
     7
370
    25
100
AcDbSpline
210
0.0
220
0.0
230
1.0
 70
     8
 71
     3
 72
    11
 73
     7
 74
     0
 42
0.00000001
 43
0.00000001
 40
0.0
 40
0.0
 40
0.0
 40
0.0
 40
0.2499999999999901
 40
0.5000000000000007
 40
0.7500000000000012
 40
1.0
 40
1.0
 40
1.0
 40
1.0
 10
211.8698516203131
 20
152.5626054133003
 30
0.0
 10
211.8034805675757
 20
152.5567115402278
 30
0.0
 10
211.6707384621009
 20
152.5449237940828
 30
0.0
 10
211.5022747213202
 20
152.4409774971606
 30
0.0
 10
211.3841873622852
 20
152.2907615215511
 30
0.0
 10
211.3688127321579
 20
152.1711741442199
 30
0.0
 10
211.3611254170944
 20
152.1113804555542
 30
0.0
  0
LWPOLYLINE
  5
173
330
1F
100
AcDbEntity
  8
0
  6
Continuous
 62
     7
370
    25
100
AcDbPolyline
 90
        3
 70
   128
 43
0.0
 10
211.8698516203
 20
136.0612859667
 10
217.8613254171
 20
136.127538378
 10
221.3491693742
 20
136.1663543443
  0
LWPOLYLINE
  5
174
330
1F
100
AcDbEntity
  8
0
  6
Continuous
 62
     7
370
    25
100
AcDbPolyline
 90
        3
 70
   128
 43
0.0
 10
220.4157491604
 20
152.4679431065
 10
217.8613254171
 20
152.496353002
 10
211.8698516034
 20
152.5626054135
  0
LINE
  5
175
330
1F
100
AcDbEntity
  8
0
  6
Continuous
 62
     7
370
    25
100
AcDbLine
 10
226.2111254171
 20
152.7113893443
 30
0.0
 11
226.2111254171
 21
135.9125020357
 31
0.0
  0
LINE
  5
176
330
1F
100
AcDbEntity
  8
0
  6
Continuous
 62
     7
370
    25
100
AcDbLine
 10
211.8698516203
 20
136.0612847133
 30
0.0
 11
211.8698516203
 21
132.5658117768
 31
0.0
  0
ARC
  5
177
330
1F
100
AcDbEntity
  8
0
  6
Continuous
 62
     7
370
    25
100
AcDbCircle
 10
211.8551867118
 20
133.0596981335
 30
0.0
 40
0.494104030492982
100
AcDbArc
 50
180.7535768612
 51
271.7007770082
  0
LINE
  5
178
330
1F
100
AcDbEntity
  8
0
  6
Continuous
 62
     7
370
    25
100
AcDbLine
 10
211.3611254171
 20
133.0531996683
 30
0.0
 11
211.3611254171
 21
136.512456131
 31
0.0
  0
LINE
  5
179
330
1F
100
AcDbEntity
  8
0
  6
Continuous
 62
     7
370
    25
100
AcDbLine
 10
211.8698516203
 20
156.0580796032
 30
0.0
 11
211.8698516203
 21
152.5626069525
 31
0.0
  0
ARC
  5
17A
330
1F
100
AcDbEntity
  8
0
  6
Continuous
 62
     7
370
    25
100
AcDbCircle
 10
211.8551867118
 20
155.5641932465
 30
0.0
 40
0.4941040304929408
100
AcDbArc
 50
88.2992229918
 51
179.2464231388
  0
LINE
  5
17B
330
1F
100
AcDbEntity
  8
0
  6
Continuous
 62
     7
370
    25
100
AcDbLine
 10
211.3611254171
 20
152.111435249
 30
0.0
 11
211.3611254171
 21
155.5706917117
 31
0.0
  0
SPLINE
  5
17C
330
1F
100
AcDbEntity
  8
0
  6
Continuous
 62
     7
370
    25
100
AcDbSpline
210
0.0
220
0.0
230
1.0
 70
     8
 71
     3
 72
    12
 73
     8
 74
     0
 42
0.00000001
 43
0.00000001
 40
0.0
 40
0.0
 40
0.0
 40
0.0
 40
0.1662426524176543
 40
0.3368059756191298
 40
0.6054181071254586
 40
0.880143508713619
 40
1.0
 40
1.0
 40
1.0
 40
1.0
 10
215.9523594470383
 20
132.6352853083343
 30
0.0
 10
216.0518161543135
 20
132.7907704838172
 30
0.0
 10
216.2533144631924
 20
133.1057819171725
 30
0.0
 10
217.0755622192149
 20
133.768747022171
 30
0.0
 10
218.4373913862015
 20
134.6209419389764
 30
0.0
 10
219.9984975748604
 20
135.4635706175885
 30
0.0
 10
220.968737267022
 20
136.0014287102837
 30
0.0
 10
221.2634530847249
 20
136.1648061611109
 30
0.0
  0
LINE
  5
17D
330
1F
100
AcDbEntity
  8
0
  6
Continuous
 62
     7
370
    25
100
AcDbLine
 10
215.952359447
 20
132.6352853083
 30
0.0
 11
211.8698516203
 21
132.5658117768
 31
0.0
  0
LWPOLYLINE
  5
17E
330
1F
100
AcDbEntity
  8
0
  6
Continuous
 62
     7
370
    25
100
AcDbPolyline
 90
        3
 70
   128
 43
0.0
 10
221.2634530847
 20
136.1648061611
 10
217.8611254171
 20
136.1272824575
 10
211.8698516372
 20
136.0612844277
  0
LINE
  5
17F
330
1F
100
AcDbEntity
  8
0
  6
Continuous
 62
     7
370
    25
100
AcDbLine
 10
221.3491693742
 20
136.1663543443
 30
0.0
 11
221.3045630411
 21
136.1655477272
 31
0.0
  0
LINE
  5
180
330
1F
100
AcDbEntity
  8
0
  6
Continuous
 62
     7
370
    25
100
AcDbLine
 10
221.2634530847
 20
136.1648061611
 30
0.0
 11
221.3045630411
 21
136.1655477272
 31
0.0
  0
LINE
  5
181
330
1F
100
AcDbEntity
  8
0
  6
Continuous
 62
     7
370
    25
100
AcDbLine
 10
215.89603023
 20
155.9426739048
 30
0.0
 11
215.89603023
 21
155.9895646466
 31
0.0
  0
SPLINE
  5
182
330
1F
100
AcDbEntity
  8
0
  6
Continuous
 62
     7
370
    25
100
AcDbSpline
210
0.0
220
0.0
230
1.0
 70
     8
 71
     3
 72
    12
 73
     8
 74
     0
 42
0.00000001
 43
0.00000001
 40
0.0
 40
0.0
 40
0.0
 40
0.0
 40
0.0460732444350173
 40
0.2494607408078301
 40
0.4779405209378887
 40
0.7057893369168754
 40
1.0
 40
1.0
 40
1.0
 40
1.0
 10
220.3450392171115
 20
152.4692174501077
 30
0.0
 10
220.2430667761144
 20
152.5317228475235
 30
0.0
 10
219.6909432826413
 20
152.8701544673287
 30
0.0
 10
218.6469633273289
 20
153.4886965641538
 30
0.0
 10
217.375685051817
 20
154.2964211157224
 30
0.0
 10
216.2089220272397
 20
155.1684990292621
 30
0.0
 10
216.0088067464619
 20
155.6636357632364
 30
0.0
 10
215.896030229969
 20
155.9426739047928
 30
0.0
  0
LWPOLYLINE
  5
183
330
1F
100
AcDbEntity
  8
0
  6
Continuous
 62
     7
370
    25
100
AcDbPolyline
 90
        3
 70
   128
 43
0.0
 10
220.3450392171
 20
152.4692174501
 10
217.8611254171
 20
152.4966089225
 10
211.8698516203
 20
152.5626069525
  0
LINE
  5
184
330
1F
100
AcDbEntity
  8
0
  6
Continuous
 62
     7
370
    25
100
AcDbLine
 10
215.89603023
 20
155.9895646466
 30
0.0
 11
211.8698516203
 21
156.0580796032
 31
0.0
  0
LINE
  5
185
330
1F
100
AcDbEntity
  8
0
  6
Continuous
 62
     7
370
    25
100
AcDbLine
 10
220.3832150211
 20
152.4685301474
 30
0.0
 11
220.3450392171
 21
152.4692174501
 31
0.0
  0
LINE
  5
186
330
1F
100
AcDbEntity
  8
0
  6
Continuous
 62
     7
370
    25
100
AcDbLine
 10
220.3832150211
 20
152.4685301474
 30
0.0
 11
220.4157491604
 21
152.4679431065
 31
0.0
  0
LINE
  5
187
330
1F
100
AcDbEntity
  8
0
  6
Continuous
 62
     7
370
    25
100
AcDbLine
 10
211.3611254171
 20
132.8400560753
 30
0.0
 11
211.3611254171
 21
133.0531996683
 31
0.0
  0
LINE
  5
188
330
1F
100
AcDbEntity
  8
0
  6
Continuous
 62
     7
370
    25
100
AcDbLine
 10
211.3611254171
 20
155.5706917117
 30
0.0
 11
211.3611254171
 21
155.7838353047
 31
0.0
  0
LINE
  5
189
330
1F
100
AcDbEntity
  8
0
  6
Continuous
 62
     7
370
    25
100
AcDbLine
 10
215.89603023
 20
132.4269982431
 30
0.0
 11
215.952359447
 21
132.6352853083
 31
0.0
  0
LINE
  5
18A
330
1F
100
AcDbEntity
  8
0
  6
Continuous
 62
     7
370
    25
100
AcDbLine
 10
202.7111254171
 20
146.2686837714
 30
0.0
 11
202.7111254171
 21
143.6723816093
 31
0.0
  0
SPLINE
  5
18B
330
1F
100
AcDbEntity
  8
0
  6
Continuous
 62
     7
370
    25
100
AcDbSpline
210
0.0
220
0.0
230
1.0
 70
     8
 71
     3
 72
    13
 73
     9
 74
     0
 42
0.00000001
 43
0.00000001
 40
0.0
 40
0.0
 40
0.0
 40
0.0
 40
0.0295448902054266
 40
0.2606471239688193
 40
0.491315255205473
 40
0.7308682638478775
 40
0.9709134921287355
 40
1.0
 40
1.0
 40
1.0
 40
1.0
 10
202.7111254170944
 20
146.2686837713657
 30
0.0
 10
202.7390502349103
 20
146.3302290784729
 30
0.0
 10
202.9854049649653
 20
146.8731861576739
 30
0.0
 10
203.3474936488627
 20
147.9286323234313
 30
0.0
 10
203.5592412190568
 20
149.4869675435149
 30
0.0
 10
203.3644005842047
 20
151.0677781399439
 30
0.0
 10
202.9930554279833
 20
152.1617814188972
 30
0.0
 10
202.7386232635381
 20
152.7223931018897
 30
0.0
 10
202.7111254170944
 20
152.7829814084314
 30
0.0
  0
LINE
  5
18C
330
1F
100
AcDbEntity
  8
0
  6
Continuous
 62
     7
370
    25
100
AcDbLine
 10
202.7111254171
 20
153.8814075372
 30
0.0
 11
202.7111254171
 21
152.7829814084
 31
0.0
  0
SPLINE
  5
18D
330
1F
100
AcDbEntity
  8
0
  6
Continuous
 62
     7
370
    25
100
AcDbSpline
210
0.0
220
0.0
230
1.0
 70
     8
 71
     3
 72
     9
 73
     5
 74
     0
 42
0.00000001
 43
0.00000001
 40
0.0
 40
0.0
 40
0.0
 40
0.0
 40
0.6141669735876237
 40
0.9999999999999999
 40
0.9999999999999999
 40
0.9999999999999999
 40
0.9999999999999999
 10
202.7111254170944
 20
153.8814075371886
 30
0.0
 10
202.9336768175145
 20
153.8260133049075
 30
0.0
 10
203.2960398392837
 20
153.7358192132951
 30
0.0
 10
203.3752802927677
 20
153.6406137266686
 30
0.0
 10
203.4058538767498
 20
153.6038803056325
 30
0.0
  0
SPLINE
  5
18E
330
1F
100
AcDbEntity
  8
0
  6
Continuous
 62
     7
370
    25
100
AcDbSpline
210
0.0
220
0.0
230
1.0
 70
     8
 71
     3
 72
    11
 73
     7
 74
     0
 42
0.00000001
 43
0.00000001
 40
0.0
 40
0.0
 40
0.0
 40
0.0
 40
0.243164119738092
 40
0.4936284730588932
 40
0.742170607686328
 40
1.0
 40
1.0
 40
1.0
 40
1.0
 10
202.7111254170944
 20
134.2516412651652
 30
0.0
 10
202.9212657403032
 20
134.3071633824413
 30
0.0
 10
203.3478551852648
 20
134.4198744929519
 30
0.0
 10
203.5582396154078
 20
134.5986707490858
 30
0.0
 10
203.3675529217408
 20
134.7812394206986
 30
0.0
 10
202.9325937513461
 20
134.8969885643783
 30
0.0
 10
202.7111254170944
 20
134.9559246020264
 30
0.0
  0
LINE
  5
18F
330
1F
100
AcDbEntity
  8
0
  6
Continuous
 62
     7
370
    25
100
AcDbLine
 10
202.7111254171
 20
136.4538006354
 30
0.0
 11
202.7111254171
 21
134.955924602
 31
0.0
  0
SPLINE
  5
190
330
1F
100
AcDbEntity
  8
0
  6
Continuous
 62
     7
370
    25
100
AcDbSpline
210
0.0
220
0.0
230
1.0
 70
     8
 71
     3
 72
    11
 73
     7
 74
     0
 42
0.00000001
 43
0.00000001
 40
0.0
 40
0.0
 40
0.0
 40
0.0
 40
0.2431641197380919
 40
0.4936284730588941
 40
0.7421706076863291
 40
1.0
 40
1.0
 40
1.0
 40
1.0
 10
202.7111254170944
 20
136.4538006353541
 30
0.0
 10
202.9212657403032
 20
137.0228768557113
 30
0.0
 10
203.3478551852648
 20
138.1781140099907
 30
0.0
 10
203.5582396154078
 20
140.0106935773132
 30
0.0
 10
203.3675529217408
 20
141.8819386719544
 30
0.0
 10
202.9325937513461
 20
143.0683142719198
 30
0.0
 10
202.7111254170944
 20
143.672381609281
 30
0.0
  0
LINE
  5
191
330
1F
100
AcDbEntity
  8
0
  6
Continuous
 62
     7
370
    25
100
AcDbLine
 10
204.7111254171
 20
148.8075025651
 30
0.0
 11
204.7111254171
 21
135.8165244012
 31
0.0
  0
LINE
  5
192
330
1F
100
AcDbEntity
  8
0
  6
Continuous
 62
     7
370
    25
100
AcDbLine
 10
204.7111254171
 20
152.3165244012
 30
0.0
 11
204.7111254171
 21
148.8075025651
 31
0.0
  0
LWPOLYLINE
  5
193
330
1F
100
AcDbEntity
  8
0
  6
Continuous
 62
     7
370
    25
100
AcDbPolyline
 90
       69
 70
   128
 43
0.0
 10
197.5973508535
 20
153.4398722955
 10
196.1899388753
 20
153.4508328962
 10
196.2025092942
 20
153.4052402603
 10
196.2115377501
 20
153.3529093426
 10
196.2595160668
 20
152.8194958142
 10
196.2887662806
 20
152.3073403279
 10
196.3223840035
 20
151.5598323304
 10
196.3766835754
 20
149.9874641866
 10
196.3949639669
 20
149.3497204009
 10
196.4148244684
 20
148.6243487028
 10
196.4732659799
 20
146.3766530081
 10
196.5069285813
 20
145.0216112769
 10
196.5321290977
 20
143.9797265678
 10
196.5362816909
 20
143.8046074719
 10
196.541365894
 20
143.5854166452
 10
196.5509198375
 20
143.1741705727
 10
196.5649435214
 20
142.5737753437
 10
196.5813015213
 20
141.8814245129
 10
196.5971304117
 20
141.2372288801
 10
196.6219996953
 20
140.2719712534
 10
196.6559093719
 20
139.0414904907
 10
196.6900174528
 20
137.9180548683
 10
196.742333944
 20
136.4326252443
 10
196.7593006875
 20
136.0271701082
 10
196.7729923986
 20
135.7333235915
 10
196.7868212396
 20
135.4812039571
 10
196.8238321581
 20
134.9770741283
 10
196.858182933
 20
134.7216398841
 10
196.8673792871
 20
134.6884016224
 10
196.8864727127
 20
134.6677638338
 10
196.9036139725
 20
134.7075962673
 10
196.9308889362
 20
134.8916843284
 10
196.9551825952
 20
135.1735980633
 10
196.9763942824
 20
135.4976822777
 10
197.0073661435
 20
136.0954981629
 10
197.0391927528
 20
136.8600130686
 10
197.0609843246
 20
137.4722423996
 10
197.0850622993
 20
138.2426909552
 10
197.1120619203
 20
139.2054340964
 10
197.1289642041
 20
139.8340487259
 10
197.1479389952
 20
140.5545505161
 10
197.1582544269
 20
140.9511342698
 10
197.1772030622
 20
141.6922325107
 10
197.2038226841
 20
142.7585345137
 10
197.2237024881
 20
143.5722684025
 10
197.2478912139
 20
144.5828715046
 10
197.2733855794
 20
145.6685942709
 10
197.2956651999
 20
146.6197835072
 10
197.3197895789
 20
147.576286124
 10
197.3588380047
 20
149.0058557218
 10
197.3936081096
 20
150.1611621665
 10
197.4190898938
 20
150.9251600295
 10
197.4352833573
 20
151.3730352189
 10
197.4504138532
 20
151.7656413321
 10
197.4673104094
 20
152.1606376696
 10
197.4829277927
 20
152.4826274865
 10
197.5042775701
 20
152.8400271703
 10
197.5415705746
 20
153.270044908
 10
197.601043314
 20
153.451114278
 10
197.6389829302
 20
153.2163009556
 10
197.6914601373
 20
152.4688943229
 10
197.7259983086
 20
151.7419872535
 10
197.7574264648
 20
150.9240801314
 10
197.783338385
 20
150.1347805171
 10
197.8034404601
 20
149.4449528681
 10
197.8427942034
 20
147.9992766316
 10
197.8733376264
 20
146.8183536054
 10
197.9111254171
 20
145.3037099757
 10
197.9111254171
 20
145.3037099757
  0
LINE
  5
194
330
1F
100
AcDbEntity
  8
0
  6
Continuous
 62
     7
370
    25
100
AcDbLine
 10
197.9111254171
 20
134.748296489
 30
0.0
 11
197.9111254171
 21
145.3037099754
 31
0.0
  0
SPLINE
  5
195
330
1F
100
AcDbEntity
  8
0
  6
Continuous
 62
     7
370
    25
100
AcDbSpline
210
0.0
220
0.0
230
1.0
 70
     8
 71
     3
 72
    34
 73
    30
 74
     0
 42
0.00000001
 43
0.00000001
 40
0.0
 40
0.0
 40
0.0
 40
0.0
 40
0.0107203951961484
 40
0.0520621697759947
 40
0.0928367874081195
 40
0.1325810366880715
 40
0.1677541617798289
 40
0.2086915438314886
 40
0.2384934651934101
 40
0.2673349663247638
 40
0.318832825637651
 40
0.3705684485253378
 40
0.4034855483800231
 40
0.4497965787901717
 40
0.4930749937141919
 40
0.5200718191566128
 40
0.5290161799575818
 40
0.5550558451171256
 40
0.581095680562831
 40
0.6071356883937956
 40
0.6850971664419627
 40
0.7212104574388013
 40
0.7533762602206925
 40
0.7815934401165542
 40
0.8424689042448504
 40
0.8663160849528521
 40
0.9005262882265266
 40
0.9450912036484979
 40
1.0
 40
1.0
 40
1.0
 40
1.0
 10
197.2354979948029
 20
153.4569003626525
 30
0.0
 10
197.2379158291113
 20
153.4594548144761
 30
0.0
 10
197.2496577190277
 20
153.4718601691382
 30
0.0
 10
197.2698299453036
 20
153.3707922650719
 30
0.0
 10
197.2962914812827
 20
153.128232585643
 30
0.0
 10
197.3224128039369
 20
152.7630129712661
 30
0.0
 10
197.3490457311892
 20
152.2859198715784
 30
0.0
 10
197.3734049371143
 20
151.7488653268679
 30
0.0
 10
197.3962460093455
 20
151.1633820767715
 30
0.0
 10
197.4216264506379
 20
150.4468857107086
 30
0.0
 10
197.4501958489392
 20
149.4821771334585
 30
0.0
 10
197.4798577863206
 20
148.3727612940877
 30
0.0
 10
197.5097549826866
 20
147.2375553155782
 30
0.0
 10
197.5380295520837
 20
146.1266046867337
 30
0.0
 10
197.5649284475842
 20
145.0376028988701
 30
0.0
 10
197.5831555595739
 20
144.2911116663008
 30
0.0
 10
197.5969556726688
 20
143.7070593998657
 30
0.0
 10
197.6098741599685
 20
143.1324291309472
 30
0.0
 10
197.6270222989323
 20
142.4025676347702
 30
0.0
 10
197.6557106223714
 20
141.2052424268961
 30
0.0
 10
197.6876971737644
 20
139.9619503167653
 30
0.0
 10
197.7214107124657
 20
138.7824498355879
 30
0.0
 10
197.7434609429091
 20
138.0562605238635
 30
0.0
 10
197.7710336809219
 20
137.2109317081972
 30
0.0
 10
197.7960669374369
 20
136.5226242980327
 30
0.0
 10
197.8219402428154
 20
135.9170073173222
 30
0.0
 10
197.8451555413911
 20
135.4690352225133
 30
0.0
 10
197.8755911766327
 20
135.0079677263097
 30
0.0
 10
197.8984870528346
 20
134.8406530341969
 30
0.0
 10
197.9111254170944
 20
134.7482964890149
 30
0.0
  0
SPLINE
  5
196
330
1F
100
AcDbEntity
  8
0
  6
Continuous
 62
     7
370
    25
100
AcDbSpline
210
0.0
220
0.0
230
1.0
 70
     8
 71
     3
 72
     9
 73
     5
 74
     0
 42
0.00000001
 43
0.00000001
 40
0.0
 40
0.0
 40
0.0
 40
0.0
 40
0.97638139255599
 40
1.0
 40
1.0
 40
1.0
 40
1.0
 10
197.2611254170944
 20
135.8059369025387
 30
0.0
 10
197.2820655875929
 20
135.5637963299531
 30
0.0
 10
197.3035122995622
 20
135.3157983914101
 30
0.0
 10
197.3235576534507
 20
135.4359005078003
 30
0.0
 10
197.3240310967952
 20
135.4387371525405
 30
0.0
  0
SPLINE
  5
197
330
1F
100
AcDbEntity
  8
0
  6
Continuous
 62
     7
370
    25
100
AcDbSpline
210
0.0
220
0.0
230
1.0
 70
     8
 71
     3
 72
    13
 73
     9
 74
     0
 42
0.00000001
 43
0.00000001
 40
0.0
 40
0.0
 40
0.0
 40
0.0
 40
0.1633117204154818
 40
0.3537060974034394
 40
0.5422096495896767
 40
0.7300371885093454
 40
0.9206669352019227
 40
1.0
 40
1.0
 40
1.0
 40
1.0
 10
198.0389538403542
 20
152.6500802414729
 30
0.0
 10
198.0584816721598
 20
152.5726111240599
 30
0.0
 10
198.1007757167094
 20
152.4048258657839
 30
0.0
 10
198.1707226302739
 20
151.1506703817281
 30
0.0
 10
198.2405759992843
 20
149.227537632172
 30
0.0
 10
198.3091440701611
 20
146.7846943190606
 30
0.0
 10
198.3689202137172
 20
144.5929909080731
 30
0.0
 10
198.4015396522411
 20
143.3131569773627
 30
0.0
 10
198.4111254170944
 20
142.9370564782043
 30
0.0
  0
SPLINE
  5
198
330
1F
100
AcDbEntity
  8
0
  6
Continuous
 62
     7
370
    25
100
AcDbSpline
210
0.0
220
0.0
230
1.0
 70
    24
 71
     3
 72
    10
 73
     6
 74
     0
 42
0.00000001
 43
0.00000001
 40
0.0
 40
0.0
 40
0.0
 40
0.0
 40
0.3187287177375316
 40
0.8180873955881237
 40
1.0
 40
1.0
 40
1.0
 40
1.0
 10
198.4111254170944
 20
142.9370564782043
 30
0.0
 10
198.4111254170944
 20
142.3147527382723
 30
0.0
 10
198.4111254170944
 20
140.7174732415282
 30
0.0
 10
198.4111254170944
 20
138.9108225746468
 30
0.0
 10
198.4111254170944
 20
137.9058422658578
 30
0.0
 10
198.4111254170944
 20
137.6374930926073
 30
0.0
  0
SPLINE
  5
199
330
1F
100
AcDbEntity
  8
0
  6
Continuous
 62
     7
370
    25
100
AcDbSpline
210
0.0
220
0.0
230
1.0
 70
     8
 71
     3
 72
    13
 73
     9
 74
     0
 42
0.00000001
 43
0.00000001
 40
0.0
 40
0.0
 40
0.0
 40
0.0
 40
0.2187316754180425
 40
0.393147377746412
 40
0.5714254113794046
 40
0.7494200729435005
 40
0.8738925945231121
 40
1.0
 40
1.0
 40
1.0
 40
1.0
 10
198.4111254170944
 20
137.6374930926073
 30
0.0
 10
198.3733976101879
 20
138.0727366450305
 30
0.0
 10
198.3055858114392
 20
138.8550415443515
 30
0.0
 10
198.2067723828262
 20
140.2492694788053
 30
0.0
 10
198.1177608465751
 20
141.6503642797099
 30
0.0
 10
198.0430479196379
 20
142.9979726452968
 30
0.0
 10
197.9733798407324
 20
144.2235260550131
 30
0.0
 10
197.9319669564045
 20
144.9420859443673
 30
0.0
 10
197.911125417111
 20
145.3037099754326
 30
0.0
  0
LINE
  5
19A
330
1F
100
AcDbEntity
  8
0
  6
Continuous
 62
     7
370
    25
100
AcDbLine
 10
197.9111254171
 20
134.748296489
 30
0.0
 11
197.9300563358
 21
134.7281125041
 31
0.0
  0
SPLINE
  5
19B
330
1F
100
AcDbEntity
  8
0
  6
Continuous
 62
     7
370
    25
100
AcDbSpline
210
0.0
220
0.0
230
1.0
 70
     8
 71
     3
 72
     9
 73
     5
 74
     0
 42
0.00000001
 43
0.00000001
 40
0.0
 40
0.0
 40
0.0
 40
0.0
 40
0.2575807037701688
 40
1.0
 40
1.0
 40
1.0
 40
1.0
 10
198.3773861561102
 20
152.9690420763272
 30
0.0
 10
198.3803798102174
 20
152.9748677475149
 30
0.0
 10
198.3920020088657
 20
152.9974846248758
 30
0.0
 10
198.4029772134391
 20
152.8296474437803
 30
0.0
 10
198.4111254170944
 20
152.7050418819101
 30
0.0
  0
SPLINE
  5
19C
330
1F
100
AcDbEntity
  8
0
  6
Continuous
 62
     7
370
    25
100
AcDbSpline
210
0.0
220
0.0
230
1.0
 70
    24
 71
     3
 72
    10
 73
     6
 74
     0
 42
0.00000001
 43
0.00000001
 40
0.0
 40
0.0
 40
0.0
 40
0.0
 40
0.3294562546722022
 40
0.8318642056942919
 40
1.0
 40
1.0
 40
1.0
 40
1.0
 10
198.4111254170944
 20
152.7050418819101
 30
0.0
 10
198.4111254170944
 20
152.4812814322241
 30
0.0
 10
198.4111254170944
 20
151.9162950156539
 30
0.0
 10
198.4111254170944
 20
150.636143490296
 30
0.0
 10
198.4111254170944
 20
149.5855711243834
 30
0.0
 10
198.4111254170944
 20
149.3221448819509
 30
0.0
  0
SPLINE
  5
19D
330
1F
100
AcDbEntity
  8
0
  6
Continuous
 62
     7
370
    25
100
AcDbSpline
210
0.0
220
0.0
230
1.0
 70
     8
 71
     3
 72
    11
 73
     7
 74
     0
 42
0.00000001
 43
0.00000001
 40
0.0
 40
0.0
 40
0.0
 40
0.0
 40
0.1123950113901282
 40
0.4199943621869227
 40
0.7261447176194212
 40
1.0
 40
1.0
 40
1.0
 40
1.0
 10
197.2611254170944
 20
139.8914354732153
 30
0.0
 10
197.2698462224367
 20
139.5921601420895
 30
0.0
 10
197.3024338705201
 20
138.4738369152854
 30
0.0
 10
197.3575029899106
 20
137.0219078690046
 30
0.0
 10
197.4234828875913
 20
135.7323187613951
 30
0.0
 10
197.4689079199132
 20
135.5631112799267
 30
0.0
 10
197.4903557891108
 20
135.4832183278631
 30
0.0
  0
SPLINE
  5
19E
330
1F
100
AcDbEntity
  8
0
  6
Continuous
 62
     7
370
    25
100
AcDbSpline
210
0.0
220
0.0
230
1.0
 70
     8
 71
     3
 72
    11
 73
     7
 74
     0
 42
0.00000001
 43
0.00000001
 40
0.0
 40
0.0
 40
0.0
 40
0.0
 40
0.0058314992650543
 40
0.3431453499632174
 40
0.6876241808559869
 40
1.0
 40
1.0
 40
1.0
 40
1.0
 10
198.2057231595097
 20
152.6956188288068
 30
0.0
 10
198.2061314923644
 20
152.6979885104494
 30
0.0
 10
198.2301591933008
 20
152.837428678337
 30
0.0
 10
198.273617783727
 20
152.3377315244432
 30
0.0
 10
198.3452210066519
 20
151.234550755968
 30
0.0
 10
198.3898849125377
 20
149.9384991655062
 30
0.0
 10
198.4111254170944
 20
149.3221448819509
 30
0.0
  0
LINE
  5
19F
330
1F
100
AcDbEntity
  8
0
  6
Continuous
 62
     7
370
    25
100
AcDbLine
 10
200.1611254171
 20
136.4538006354
 30
0.0
 11
199.9111254171
 21
137.0893786537
 31
0.0
  0
LINE
  5
1A0
330
1F
100
AcDbEntity
  8
0
  6
Continuous
 62
     7
370
    25
100
AcDbLine
 10
199.9111254171
 20
143.0368035909
 30
0.0
 11
200.1611254171
 21
143.6723816093
 31
0.0
  0
LINE
  5
1A1
330
1F
100
AcDbEntity
  8
0
  6
Continuous
 62
     7
370
    25
100
AcDbLine
 10
202.7111254171
 20
143.6723816093
 30
0.0
 11
200.1611254171
 21
143.6723816093
 31
0.0
  0
LINE
  5
1A2
330
1F
100
AcDbEntity
  8
0
  6
Continuous
 62
     7
370
    25
100
AcDbLine
 10
200.1611254171
 20
136.4538006354
 30
0.0
 11
202.7111254171
 21
136.4538006354
 31
0.0
  0
LINE
  5
1A3
330
1F
100
AcDbEntity
  8
0
  6
Continuous
 62
     7
370
    25
100
AcDbLine
 10
199.9111254171
 20
143.0368035909
 30
0.0
 11
199.9111254171
 21
137.0893786537
 31
0.0
  0
LINE
  5
1A4
330
1F
100
AcDbEntity
  8
0
  6
Continuous
 62
     7
370
    25
100
AcDbLine
 10
198.4111254171
 20
137.6374930926
 30
0.0
 11
198.4111254171
 21
135.1665244012
 31
0.0
  0
SPLINE
  5
1A5
330
1F
100
AcDbEntity
  8
0
  6
Continuous
 62
     7
370
    25
100
AcDbSpline
210
0.0
220
0.0
230
1.0
 70
    24
 71
     3
 72
    11
 73
     7
 74
     0
 42
0.00000001
 43
0.00000001
 40
0.0
 40
0.0
 40
0.0
 40
0.0
 40
0.0521773337626343
 40
0.2615477432295206
 40
0.6847281688108012
 40
1.0
 40
1.0
 40
1.0
 40
1.0
 10
198.4111254170944
 20
149.3221448819509
 30
0.0
 10
198.4111254170944
 20
149.2278841714049
 30
0.0
 10
198.4111254170945
 20
148.7553863578774
 30
0.0
 10
198.4111254170944
 20
147.4172549024793
 30
0.0
 10
198.4111254170944
 20
145.3194065549586
 30
0.0
 10
198.4111254170944
 20
143.6498501590306
 30
0.0
 10
198.4111254170944
 20
142.9370564782043
 30
0.0
  0
LINE
  5
1A6
330
1F
100
AcDbEntity
  8
0
  6
Continuous
 62
     7
370
    25
100
AcDbLine
 10
200.1611254171
 20
146.2686837714
 30
0.0
 11
199.9111254171
 21
146.8422514016
 31
0.0
  0
LINE
  5
1A7
330
1F
100
AcDbEntity
  8
0
  6
Continuous
 62
     7
370
    25
100
AcDbLine
 10
200.1611254171
 20
146.2686837714
 30
0.0
 11
200.1611254171
 21
143.6723816093
 31
0.0
  0
LINE
  5
1A8
330
1F
100
AcDbEntity
  8
0
  6
Continuous
 62
     7
370
    25
100
AcDbLine
 10
199.9111254171
 20
143.0368035909
 30
0.0
 11
199.9111254171
 21
146.8422514016
 31
0.0
  0
LINE
  5
1A9
330
1F
100
AcDbEntity
  8
0
  6
Continuous
 62
     7
370
    25
100
AcDbLine
 10
200.1611254171
 20
146.2686837714
 30
0.0
 11
202.7111254171
 21
146.2686837714
 31
0.0
  0
LINE
  5
1AA
330
1F
100
AcDbEntity
  8
0
  6
Continuous
 62
     7
370
    25
100
AcDbLine
 10
199.9111254171
 20
152.2094137782
 30
0.0
 11
200.1611254171
 21
152.7829814084
 31
0.0
  0
LINE
  5
1AB
330
1F
100
AcDbEntity
  8
0
  6
Continuous
 62
     7
370
    25
100
AcDbLine
 10
202.7111254171
 20
152.7829814084
 30
0.0
 11
200.1611254171
 21
152.7829814084
 31
0.0
  0
LINE
  5
1AC
330
1F
100
AcDbEntity
  8
0
  6
Continuous
 62
     7
370
    25
100
AcDbLine
 10
199.9111254171
 20
152.2094137782
 30
0.0
 11
199.9111254171
 21
146.8422514016
 31
0.0
  0
LINE
  5
1AD
330
1F
100
AcDbEntity
  8
0
  6
Continuous
 62
     7
370
    25
100
AcDbLine
 10
199.9111254171
 20
134.8939142139
 30
0.0
 11
200.1611254171
 21
134.955924602
 31
0.0
  0
LINE
  5
1AE
330
1F
100
AcDbEntity
  8
0
  6
Continuous
 62
     7
370
    25
100
AcDbLine
 10
200.1611254171
 20
136.4538006354
 30
0.0
 11
200.1611254171
 21
134.955924602
 31
0.0
  0
LINE
  5
1AF
330
1F
100
AcDbEntity
  8
0
  6
Continuous
 62
     7
370
    25
100
AcDbLine
 10
199.9111254171
 20
134.8939142139
 30
0.0
 11
199.9111254171
 21
137.0893786537
 31
0.0
  0
LINE
  5
1B0
330
1F
100
AcDbEntity
  8
0
  6
Continuous
 62
     7
370
    25
100
AcDbLine
 10
202.7111254171
 20
134.955924602
 30
0.0
 11
200.1611254171
 21
134.955924602
 31
0.0
  0
LINE
  5
1B1
330
1F
100
AcDbEntity
  8
0
  6
Continuous
 62
     7
370
    25
100
AcDbLine
 10
200.1611254171
 20
153.8814075372
 30
0.0
 11
199.9111254171
 21
153.8193971491
 31
0.0
  0
LINE
  5
1B2
330
1F
100
AcDbEntity
  8
0
  6
Continuous
 62
     7
370
    25
100
AcDbLine
 10
200.1611254171
 20
153.8814075372
 30
0.0
 11
200.1611254171
 21
152.7829814084
 31
0.0
  0
LINE
  5
1B3
330
1F
100
AcDbEntity
  8
0
  6
Continuous
 62
     7
370
    25
100
AcDbLine
 10
199.9111254171
 20
152.2094137782
 30
0.0
 11
199.9111254171
 21
153.8193971491
 31
0.0
  0
LINE
  5
1B4
330
1F
100
AcDbEntity
  8
0
  6
Continuous
 62
     7
370
    25
100
AcDbLine
 10
200.1611254171
 20
153.8814075372
 30
0.0
 11
202.7111254171
 21
153.8814075372
 31
0.0
  0
LINE
  5
1B5
330
1F
100
AcDbEntity
  8
0
  6
Continuous
 62
     7
370
    25
100
AcDbLine
 10
200.1611254171
 20
134.2516412652
 30
0.0
 11
199.9111254171
 21
134.3136516532
 31
0.0
  0
LINE
  5
1B6
330
1F
100
AcDbEntity
  8
0
  6
Continuous
 62
     7
370
    25
100
AcDbLine
 10
200.1611254171
 20
134.2516412652
 30
0.0
 11
202.7111254171
 21
134.2516412652
 31
0.0
  0
LINE
  5
1B7
330
1F
100
AcDbEntity
  8
0
  6
Continuous
 62
     7
370
    25
100
AcDbLine
 10
199.9111254171
 20
134.8939142139
 30
0.0
 11
199.9111254171
 21
134.3136516532
 31
0.0
  0
LINE
  5
1B8
330
1F
100
AcDbEntity
  8
0
  6
Continuous
 62
     7
370
    25
100
AcDbLine
 10
70.3611254171
 20
152.7829814084
 30
0.0
 11
70.3611254171
 21
153.8814075372
 31
0.0
  0
SPLINE
  5
1B9
330
1F
100
AcDbEntity
  8
0
  6
Continuous
 62
     7
370
    25
100
AcDbSpline
210
0.0
220
0.0
230
1.0
 70
     8
 71
     3
 72
    13
 73
     9
 74
     0
 42
0.00000001
 43
0.00000001
 40
0.0
 40
0.0
 40
0.0
 40
0.0
 40
0.0295448902054266
 40
0.2606471239688194
 40
0.4913152552054734
 40
0.7308682638478785
 40
0.9709134921287365
 40
1.0
 40
1.0
 40
1.0
 40
1.0
 10
70.36112541709441
 20
152.7829814084314
 30
0.0
 10
70.33320059927854
 20
152.7214361013243
 30
0.0
 10
70.0868458692235
 20
152.1784790221232
 30
0.0
 10
69.72475718532611
 20
151.1230328563659
 30
0.0
 10
69.513009615132
 20
149.5646976362823
 30
0.0
 10
69.7078502499841
 20
147.9838870398533
 30
0.0
 10
70.07919540620563
 20
146.8898837608999
 30
0.0
 10
70.33362757065069
 20
146.3292720779074
 30
0.0
 10
70.3611254170944
 20
146.2686837713657
 30
0.0
  0
LINE
  5
1BA
330
1F
100
AcDbEntity
  8
0
  6
Continuous
 62
     7
370
    25
100
AcDbLine
 10
70.3611254171
 20
143.6723816093
 30
0.0
 11
70.3611254171
 21
146.2686837714
 31
0.0
  0
SPLINE
  5
1BB
330
1F
100
AcDbEntity
  8
0
  6
Continuous
 62
     7
370
    25
100
AcDbSpline
210
0.0
220
0.0
230
1.0
 70
     8
 71
     3
 72
    11
 73
     7
 74
     0
 42
0.00000001
 43
0.00000001
 40
0.0
 40
0.0
 40
0.0
 40
0.0
 40
0.2431641197380918
 40
0.4936284730588935
 40
0.7421706076863281
 40
1.0
 40
1.0
 40
1.0
 40
1.0
 10
70.3611254170944
 20
143.672381609281
 30
0.0
 10
70.15098509388562
 20
143.1033053889237
 30
0.0
 10
69.724395648924
 20
141.9480682346444
 30
0.0
 10
69.51401121878102
 20
140.1154886673218
 30
0.0
 10
69.70469791244803
 20
138.2442435726806
 30
0.0
 10
70.13965708284273
 20
137.0578679727153
 30
0.0
 10
70.36112541709441
 20
136.4538006353541
 30
0.0
  0
LINE
  5
1BC
330
1F
100
AcDbEntity
  8
0
  6
Continuous
 62
     7
370
    25
100
AcDbLine
 10
70.3611254171
 20
134.955924602
 30
0.0
 11
70.3611254171
 21
136.4538006354
 31
0.0
  0
SPLINE
  5
1BD
330
1F
100
AcDbEntity
  8
0
  6
Continuous
 62
     7
370
    25
100
AcDbSpline
210
0.0
220
0.0
230
1.0
 70
     8
 71
     3
 72
    11
 73
     7
 74
     0
 42
0.00000001
 43
0.00000001
 40
0.0
 40
0.0
 40
0.0
 40
0.0
 40
0.2431641197380915
 40
0.493628473058893
 40
0.7421706076863287
 40
1.0
 40
1.0
 40
1.0
 40
1.0
 10
70.36112541709439
 20
134.9559246020264
 30
0.0
 10
70.15098509388562
 20
134.9004024847503
 30
0.0
 10
69.724395648924
 20
134.7876913742397
 30
0.0
 10
69.51401121878105
 20
134.6088951181058
 30
0.0
 10
69.70469791244803
 20
134.426326446493
 30
0.0
 10
70.13965708284273
 20
134.3105773028134
 30
0.0
 10
70.36112541709441
 20
134.2516412651652
 30
0.0
  0
SPLINE
  5
1BE
330
1F
100
AcDbEntity
  8
0
  6
Continuous
 62
     7
370
    25
100
AcDbSpline
210
0.0
220
0.0
230
1.0
 70
     8
 71
     3
 72
     9
 73
     5
 74
     0
 42
0.00000001
 43
0.00000001
 40
0.0
 40
0.0
 40
0.0
 40
0.0
 40
0.3487394647221058
 40
1.0
 40
1.0
 40
1.0
 40
1.0
 10
69.66773693251261
 20
153.6039047255343
 30
0.0
 10
69.69207876702717
 20
153.6371180796346
 30
0.0
 10
69.76187825052978
 20
153.7323563806015
 30
0.0
 10
70.12478110793002
 20
153.8226214559198
 30
0.0
 10
70.3611254170944
 20
153.8814075371886
 30
0.0
  0
LINE
  5
1BF
330
1F
100
AcDbEntity
  8
0
  6
Continuous
 62
     7
370
    25
100
AcDbLine
 10
68.3611254171
 20
148.8075025651
 30
0.0
 11
68.3611254171
 21
152.3165244012
 31
0.0
  0
LINE
  5
1C0
330
1F
100
AcDbEntity
  8
0
  6
Continuous
 62
     7
370
    25
100
AcDbLine
 10
68.3611254171
 20
135.8165244012
 30
0.0
 11
68.3611254171
 21
148.8075025651
 31
0.0
  0
SPLINE
  5
1C1
330
1F
100
AcDbEntity
  8
0
  6
Continuous
 62
     7
370
    25
100
AcDbSpline
210
0.0
220
0.0
230
1.0
 70
     8
 71
     3
 72
    27
 73
    23
 74
     0
 42
0.00000001
 43
0.00000001
 40
0.0
 40
0.0
 40
0.0
 40
0.0
 40
0.0136139090399478
 40
0.0776727084403656
 40
0.1348261364597263
 40
0.1770440798320018
 40
0.204309819173203
 40
0.230399987517652
 40
0.2595714286585745
 40
0.286552838249025
 40
0.3220521810161566
 40
0.3830134828479145
 40
0.481257450436484
 40
0.5465783976780292
 40
0.6342111976224554
 40
0.6907401776532384
 40
0.7424867965677214
 40
0.7860227414525577
 40
0.8208210581933937
 40
0.8874577604484439
 40
0.9380042021573735
 40
1.0
 40
1.0
 40
1.0
 40
1.0
 10
75.76058691769695
 20
134.6786685850388
 30
0.0
 10
75.75788412907862
 20
134.6755200439384
 30
0.0
 10
75.74246365640532
 20
134.6575563779418
 30
0.0
 10
75.71471911333649
 20
134.8226270356786
 30
0.0
 10
75.68164216208206
 20
135.1956408031628
 30
0.0
 10
75.65610191727129
 20
135.6239272847174
 30
0.0
 10
75.63710444904073
 20
136.0112760439481
 30
0.0
 10
75.62127302346211
 20
136.3878159550513
 30
0.0
 10
75.60531499506139
 20
136.8042745682926
 30
0.0
 10
75.58783590133763
 20
137.3123477946747
 30
0.0
 10
75.56283924301962
 20
138.0586607163101
 30
0.0
 10
75.52308496473634
 20
139.3725801592103
 30
0.0
 10
75.47707844171958
 20
141.1036187515323
 30
0.0
 10
75.42933230059143
 20
143.1631630524307
 30
0.0
 10
75.38722249308641
 20
144.9272147481594
 30
0.0
 10
75.34718172150892
 20
146.5347985708414
 30
0.0
 10
75.31640187519906
 20
147.7325745765683
 30
0.0
 10
75.29043160762791
 20
148.7038903857439
 30
0.0
 10
75.26283836823748
 20
149.7235796591443
 30
0.0
 10
75.23279051152032
 20
150.6919164750789
 30
0.0
 10
75.19664338483184
 20
151.6795689123024
 30
0.0
 10
75.1737413762315
 20
152.151310840707
 30
0.0
 10
75.16112541709442
 20
152.411177867912
 30
0.0
  0
LINE
  5
1C2
330
1F
100
AcDbEntity
  8
0
  6
Continuous
 62
     7
370
    25
100
AcDbLine
 10
75.1611254171
 20
153.4665244012
 30
0.0
 11
75.1611254171
 21
152.411177868
 31
0.0
  0
SPLINE
  5
1C3
330
1F
100
AcDbEntity
  8
0
  6
Continuous
 62
     7
370
    25
100
AcDbSpline
210
0.0
220
0.0
230
1.0
 70
     8
 71
     3
 72
    35
 73
    31
 74
     0
 42
0.00000001
 43
0.00000001
 40
0.0
 40
0.0
 40
0.0
 40
0.0
 40
0.0240674770331327
 40
0.067987792976814
 40
0.1125749483174375
 40
0.1439040808921704
 40
0.1776893127437586
 40
0.2210914069396794
 40
0.2567988075823096
 40
0.2935583688291123
 40
0.3694549076630427
 40
0.3999481985346628
 40
0.4395535899128755
 40
0.4786156453284776
 40
0.5166906085772273
 40
0.5503864380236244
 40
0.5896044216402686
 40
0.6181546416382511
 40
0.6457847797213725
 40
0.6951196932308986
 40
0.7446823840802009
 40
0.7762169429139685
 40
0.820582877931581
 40
0.8620435694165106
 40
0.8879065094688615
 40
0.8964752009135439
 40
0.9214211820786606
 40
0.9463673263778021
 40
0.9713136358219022
 40
1.0
 40
1.0
 40
1.0
 40
1.0
 10
76.1133411261192
 20
134.6753071689903
 30
0.0
 10
76.10765486258977
 20
134.6771971207119
 30
0.0
 10
76.09159183665984
 20
134.6825360121214
 30
0.0
 10
76.0644002910439
 20
134.854932502011
 30
0.0
 10
76.03554781527721
 20
135.1821808881992
 30
0.0
 10
76.0093902471086
 20
135.6065396586559
 30
0.0
 10
75.98443312218573
 20
136.1237157981705
 30
0.0
 10
75.95921097966615
 20
136.7767749643066
 30
0.0
 10
75.93223129435361
 20
137.555802806838
 30
0.0
 10
75.8959718004072
 20
138.6674237156396
 30
0.0
 10
75.86165842737825
 20
139.8969173137771
 30
0.0
 10
75.82726935152311
 20
141.2411449332686
 30
0.0
 10
75.80239473810227
 20
142.2838998151848
 30
0.0
 10
75.77596614910942
 20
143.425507487232
 30
0.0
 10
75.74983646560662
 20
144.5183013522639
 30
0.0
 10
75.72320557824783
 20
145.6057859170828
 30
0.0
 10
75.69884580183454
 20
146.5823675974853
 30
0.0
 10
75.67600484566564
 20
147.4722759819387
 30
0.0
 10
75.65062437317374
 20
148.423246853781
 30
0.0
 10
75.62205498796571
 20
149.4981727527877
 30
0.0
 10
75.59239304981176
 20
150.4910750883739
 30
0.0
 10
75.56249584509466
 20
151.3356842969621
 30
0.0
 10
75.53422131763169
 20
152.0212891052614
 30
0.0
 10
75.50732228396636
 20
152.547971871774
 30
0.0
 10
75.48909544051673
 20
152.8340825761004
 30
0.0
 10
75.47529484340535
 20
153.0280383814181
 30
0.0
 10
75.46238080606132
 20
153.1918109700365
 30
0.0
 10
75.44521357247929
 20
153.3383566273373
 30
0.0
 10
75.42719255788917
 20
153.459529937055
 30
0.0
 10
75.41440365268551
 20
153.4241390463216
 30
0.0
 10
75.40756328528752
 20
153.4052096155922
 30
0.0
  0
SPLINE
  5
1C4
330
1F
100
AcDbEntity
  8
0
  6
Continuous
 62
     7
370
    25
100
AcDbSpline
210
0.0
220
0.0
230
1.0
 70
     8
 71
     3
 72
    18
 73
    14
 74
     0
 42
0.00000001
 43
0.00000001
 40
0.0
 40
0.0
 40
0.0
 40
0.0
 40
0.0774554087960547
 40
0.1860661841307256
 40
0.2602328912561668
 40
0.3356194784643637
 40
0.4114978088796587
 40
0.5187351849825095
 40
0.6282504212506469
 40
0.7366780512135036
 40
0.8447168369584799
 40
0.9543674583636134
 40
0.9999999999999999
 40
0.9999999999999999
 40
0.9999999999999999
 40
0.9999999999999999
 10
75.30928395153936
 20
135.5272332121958
 30
0.0
 10
75.29228586090998
 20
135.5619958714344
 30
0.0
 10
75.25145243287598
 20
135.6455039886247
 30
0.0
 10
75.19463049661292
 20
136.6232671757696
 30
0.0
 10
75.14159222740635
 20
137.9725656260981
 30
0.0
 10
75.09143161779726
 20
139.451403715928
 30
0.0
 10
75.0341694354768
 20
141.3884541838965
 30
0.0
 10
74.97471077494231
 20
143.806258672635
 30
0.0
 10
74.9014606145865
 20
146.5170255987003
 30
0.0
 10
74.83169281827217
 20
148.9972928216733
 30
0.0
 10
74.76310175978377
 20
150.9898974911218
 30
0.0
 10
74.70333107256609
 20
152.0837007150961
 30
0.0
 10
74.6707112846287
 20
152.4081069102332
 30
0.0
 10
74.66112541709441
 20
152.5034390693465
 30
0.0
  0
SPLINE
  5
1C5
330
1F
100
AcDbEntity
  8
0
  6
Continuous
 62
     7
370
    25
100
AcDbSpline
210
0.0
220
0.0
230
1.0
 70
     8
 71
     3
 72
    11
 73
     7
 74
     0
 42
0.00000001
 43
0.00000001
 40
0.0
 40
0.0
 40
0.0
 40
0.0
 40
0.170158758569659
 40
0.5148066094740512
 40
0.7558205066443097
 40
0.9999999999999999
 40
0.9999999999999999
 40
0.9999999999999999
 40
0.9999999999999999
 10
74.9095300221774
 20
153.1828716122462
 30
0.0
 10
74.92430318674226
 20
153.2041298245005
 30
0.0
 10
74.96899863953446
 20
153.2684454569493
 30
0.0
 10
75.02909740605338
 20
153.1099795702279
 30
0.0
 10
75.09889371041763
 20
152.8208686586081
 30
0.0
 10
75.14029148296983
 20
152.5483341729688
 30
0.0
 10
75.16112541707781
 20
152.4111778680297
 30
0.0
  0
SPLINE
  5
1C6
330
1F
100
AcDbEntity
  8
0
  6
Continuous
 62
     7
370
    25
100
AcDbSpline
210
0.0
220
0.0
230
1.0
 70
     8
 71
     3
 72
    16
 73
    12
 74
     0
 42
0.00000001
 43
0.00000001
 40
0.0
 40
0.0
 40
0.0
 40
0.0
 40
0.07921406387135
 40
0.1934397168971926
 40
0.3076653699220779
 40
0.4218677295428687
 40
0.5346865681724862
 40
0.6475054053740946
 40
0.7603242420221167
 40
0.8782804502979503
 40
1.0
 40
1.0
 40
1.0
 40
1.0
 10
74.87012847814066
 20
134.9840700909686
 30
0.0
 10
74.86465875272256
 20
134.9906270898451
 30
0.0
 10
74.85130175417115
 20
135.0066391960845
 30
0.0
 10
74.82936706431184
 20
135.320221726415
 30
0.0
 10
74.8051259067124
 20
135.8753328843746
 30
0.0
 10
74.78224575930365
 20
136.6611201236023
 30
0.0
 10
74.75934563752315
 20
137.642864611486
 30
0.0
 10
74.73518794037263
 20
138.7952416323297
 30
0.0
 10
74.71047063707326
 20
140.1093823346303
 30
0.0
 10
74.68544430590637
 20
141.569316070805
 30
0.0
 10
74.66931612719091
 20
142.6161875169774
 30
0.0
 10
74.66112541709441
 20
143.1478421244317
 30
0.0
  0
SPLINE
  5
1C7
330
1F
100
AcDbEntity
  8
0
  6
Continuous
 62
     7
370
    25
100
AcDbSpline
210
0.0
220
0.0
230
1.0
 70
    24
 71
     3
 72
    10
 73
     6
 74
     0
 42
0.00000001
 43
0.00000001
 40
0.0
 40
0.0
 40
0.0
 40
0.0
 40
0.3294562546722015
 40
0.8318642056942915
 40
1.0
 40
1.0
 40
1.0
 40
1.0
 10
74.66112541709441
 20
143.1478421244317
 30
0.0
 10
74.66112541709441
 20
143.7965700020397
 30
0.0
 10
74.66112541709441
 20
145.434582615141
 30
0.0
 10
74.6611254170944
 20
147.3484461514133
 30
0.0
 10
74.66112541709441
 20
148.4514106213682
 30
0.0
 10
74.66112541709441
 20
148.7279739455943
 30
0.0
  0
SPLINE
  5
1C8
330
1F
100
AcDbEntity
  8
0
  6
Continuous
 62
     7
370
    25
100
AcDbSpline
210
0.0
220
0.0
230
1.0
 70
     8
 71
     3
 72
    15
 73
    11
 74
     0
 42
0.00000001
 43
0.00000001
 40
0.0
 40
0.0
 40
0.0
 40
0.0
 40
0.1319746667032352
 40
0.1608073069995043
 40
0.3024203969717293
 40
0.4436898895822913
 40
0.5869603891290428
 40
0.7271016041552255
 40
0.8702195989016371
 40
1.0
 40
1.0
 40
1.0
 40
1.0
 10
75.15776229468177
 20
135.4518594321117
 30
0.0
 10
75.13580274477813
 20
135.4610453149873
 30
0.0
 10
75.10904566956714
 20
135.4722380470816
 30
0.0
 10
75.05787294980706
 20
135.9691856035102
 30
0.0
 10
75.00702131847231
 20
136.8287882185676
 30
0.0
 10
74.93823802619931
 20
138.7128346162167
 30
0.0
 10
74.8645014722443
 20
141.1129686166129
 30
0.0
 10
74.79836613430183
 20
143.8002936916196
 30
0.0
 10
74.7270898776149
 20
146.4611244852263
 30
0.0
 10
74.6823852753476
 20
147.997385112933
 30
0.0
 10
74.66112541709441
 20
148.7279739455943
 30
0.0
  0
LINE
  5
1C9
330
1F
100
AcDbEntity
  8
0
  6
Continuous
 62
     7
370
    25
100
AcDbLine
 10
72.9111254171
 20
143.6723816093
 30
0.0
 11
73.1611254171
 21
143.0368035909
 31
0.0
  0
LINE
  5
1CA
330
1F
100
AcDbEntity
  8
0
  6
Continuous
 62
     7
370
    25
100
AcDbLine
 10
73.1611254171
 20
137.0893786537
 30
0.0
 11
72.9111254171
 21
136.4538006354
 31
0.0
  0
LINE
  5
1CB
330
1F
100
AcDbEntity
  8
0
  6
Continuous
 62
     7
370
    25
100
AcDbLine
 10
70.3611254171
 20
136.4538006354
 30
0.0
 11
72.9111254171
 21
136.4538006354
 31
0.0
  0
LINE
  5
1CC
330
1F
100
AcDbEntity
  8
0
  6
Continuous
 62
     7
370
    25
100
AcDbLine
 10
72.9111254171
 20
143.6723816093
 30
0.0
 11
70.3611254171
 21
143.6723816093
 31
0.0
  0
LINE
  5
1CD
330
1F
100
AcDbEntity
  8
0
  6
Continuous
 62
     7
370
    25
100
AcDbLine
 10
73.1611254171
 20
137.0893786537
 30
0.0
 11
73.1611254171
 21
143.0368035909
 31
0.0
  0
LINE
  5
1CE
330
1F
100
AcDbEntity
  8
0
  6
Continuous
 62
     7
370
    25
100
AcDbLine
 10
74.6611254171
 20
135.1665244012
 30
0.0
 11
74.6611254171
 21
143.1478421244
 31
0.0
  0
SPLINE
  5
1CF
330
1F
100
AcDbEntity
  8
0
  6
Continuous
 62
     7
370
    25
100
AcDbSpline
210
0.0
220
0.0
230
1.0
 70
    24
 71
     3
 72
    11
 73
     7
 74
     0
 42
0.00000001
 43
0.00000001
 40
0.0
 40
0.0
 40
0.0
 40
0.0
 40
0.0521773337626345
 40
0.2615477432295213
 40
0.6847281688108021
 40
0.9999999999999999
 40
0.9999999999999999
 40
0.9999999999999999
 40
0.9999999999999999
 10
74.66112541709441
 20
148.7279739455943
 30
0.0
 10
74.6611254170944
 20
148.8261964792795
 30
0.0
 10
74.66112541709437
 20
149.31855360386
 30
0.0
 10
74.66112541709444
 20
150.503443250319
 30
0.0
 10
74.6611254170944
 20
151.8265495147348
 30
0.0
 10
74.66112541709441
 20
152.3009152665467
 30
0.0
 10
74.66112541709441
 20
152.5034390693465
 30
0.0
  0
LINE
  5
1D0
330
1F
100
AcDbEntity
  8
0
  6
Continuous
 62
     7
370
    25
100
AcDbLine
 10
72.9111254171
 20
143.6723816093
 30
0.0
 11
72.9111254171
 21
146.2686837714
 31
0.0
  0
LINE
  5
1D1
330
1F
100
AcDbEntity
  8
0
  6
Continuous
 62
     7
370
    25
100
AcDbLine
 10
73.1611254171
 20
146.8422514016
 30
0.0
 11
72.9111254171
 21
146.2686837714
 31
0.0
  0
LINE
  5
1D2
330
1F
100
AcDbEntity
  8
0
  6
Continuous
 62
     7
370
    25
100
AcDbLine
 10
73.1611254171
 20
146.8422514016
 30
0.0
 11
73.1611254171
 21
143.0368035909
 31
0.0
  0
LINE
  5
1D3
330
1F
100
AcDbEntity
  8
0
  6
Continuous
 62
     7
370
    25
100
AcDbLine
 10
70.3611254171
 20
146.2686837714
 30
0.0
 11
72.9111254171
 21
146.2686837714
 31
0.0
  0
LINE
  5
1D4
330
1F
100
AcDbEntity
  8
0
  6
Continuous
 62
     7
370
    25
100
AcDbLine
 10
72.9111254171
 20
152.7829814084
 30
0.0
 11
73.1611254171
 21
152.2094137782
 31
0.0
  0
LINE
  5
1D5
330
1F
100
AcDbEntity
  8
0
  6
Continuous
 62
     7
370
    25
100
AcDbLine
 10
72.9111254171
 20
152.7829814084
 30
0.0
 11
70.3611254171
 21
152.7829814084
 31
0.0
  0
LINE
  5
1D6
330
1F
100
AcDbEntity
  8
0
  6
Continuous
 62
     7
370
    25
100
AcDbLine
 10
73.1611254171
 20
146.8422514016
 30
0.0
 11
73.1611254171
 21
152.2094137782
 31
0.0
  0
LINE
  5
1D7
330
1F
100
AcDbEntity
  8
0
  6
Continuous
 62
     7
370
    25
100
AcDbLine
 10
72.9111254171
 20
134.955924602
 30
0.0
 11
73.1611254171
 21
134.8939142139
 31
0.0
  0
LINE
  5
1D8
330
1F
100
AcDbEntity
  8
0
  6
Continuous
 62
     7
370
    25
100
AcDbLine
 10
72.9111254171
 20
134.955924602
 30
0.0
 11
72.9111254171
 21
136.4538006354
 31
0.0
  0
LINE
  5
1D9
330
1F
100
AcDbEntity
  8
0
  6
Continuous
 62
     7
370
    25
100
AcDbLine
 10
73.1611254171
 20
137.0893786537
 30
0.0
 11
73.1611254171
 21
134.8939142139
 31
0.0
  0
LINE
  5
1DA
330
1F
100
AcDbEntity
  8
0
  6
Continuous
 62
     7
370
    25
100
AcDbLine
 10
72.9111254171
 20
134.955924602
 30
0.0
 11
70.3611254171
 21
134.955924602
 31
0.0
  0
LINE
  5
1DB
330
1F
100
AcDbEntity
  8
0
  6
Continuous
 62
     7
370
    25
100
AcDbLine
 10
72.9111254171
 20
152.7829814084
 30
0.0
 11
72.9111254171
 21
153.8814075372
 31
0.0
  0
LINE
  5
1DC
330
1F
100
AcDbEntity
  8
0
  6
Continuous
 62
     7
370
    25
100
AcDbLine
 10
73.1611254171
 20
153.8193971491
 30
0.0
 11
72.9111254171
 21
153.8814075372
 31
0.0
  0
LINE
  5
1DD
330
1F
100
AcDbEntity
  8
0
  6
Continuous
 62
     7
370
    25
100
AcDbLine
 10
73.1611254171
 20
153.8193971491
 30
0.0
 11
73.1611254171
 21
152.2094137782
 31
0.0
  0
LINE
  5
1DE
330
1F
100
AcDbEntity
  8
0
  6
Continuous
 62
     7
370
    25
100
AcDbLine
 10
70.3611254171
 20
153.8814075372
 30
0.0
 11
72.9111254171
 21
153.8814075372
 31
0.0
  0
LINE
  5
1DF
330
1F
100
AcDbEntity
  8
0
  6
Continuous
 62
     7
370
    25
100
AcDbLine
 10
73.1611254171
 20
134.3136516532
 30
0.0
 11
72.9111254171
 21
134.2516412652
 31
0.0
  0
LINE
  5
1E0
330
1F
100
AcDbEntity
  8
0
  6
Continuous
 62
     7
370
    25
100
AcDbLine
 10
70.3611254171
 20
134.2516412652
 30
0.0
 11
72.9111254171
 21
134.2516412652
 31
0.0
  0
LINE
  5
1E1
330
1F
100
AcDbEntity
  8
0
  6
Continuous
 62
     7
370
    25
100
AcDbLine
 10
73.1611254171
 20
134.3136516532
 30
0.0
 11
73.1611254171
 21
134.8939142139
 31
0.0
  0
SPLINE
  5
1E2
330
1F
100
AcDbEntity
  8
0
  6
Continuous
 62
     7
370
    25
100
AcDbSpline
210
0.0
220
0.0
230
1.0
 70
     8
 71
     3
 72
     9
 73
     5
 74
     0
 42
0.00000001
 43
0.00000001
 40
0.0
 40
0.0
 40
0.0
 40
0.0
 40
0.5841917497409234
 40
0.9999999999999999
 40
0.9999999999999999
 40
0.9999999999999999
 40
0.9999999999999999
 10
181.5611254170944
 20
146.3552567021788
 30
0.0
 10
181.5349574532738
 20
146.8287148265701
 30
0.0
 10
181.4901640034651
 20
147.6391646910216
 30
0.0
 10
181.2475495859512
 20
148.3051288581369
 30
0.0
 10
181.146668509517
 20
148.5820422532004
 30
0.0
  0
LINE
  5
1E3
330
1F
100
AcDbEntity
  8
0
  6
Continuous
 62
     7
370
    25
100
AcDbLine
 10
181.5611254171
 20
146.3552567022
 30
0.0
 11
181.5611254171
 21
144.9073041125
 31
0.0
  0
SPLINE
  5
1E4
330
1F
100
AcDbEntity
  8
0
  6
Continuous
 62
     7
370
    25
100
AcDbSpline
210
0.0
220
0.0
230
1.0
 70
     8
 71
     3
 72
     9
 73
     5
 74
     0
 42
0.00000001
 43
0.00000001
 40
0.0
 40
0.0
 40
0.0
 40
0.0
 40
0.5850553834536164
 40
1.0
 40
1.0
 40
1.0
 40
1.0
 10
181.146668509517
 20
142.562725572695
 30
0.0
 10
181.2832226435414
 20
142.9974570023064
 30
0.0
 10
181.5166264167333
 20
143.7405173037862
 30
0.0
 10
181.5480757044586
 20
144.5651338965902
 30
0.0
 10
181.5611254170944
 20
144.9073041124891
 30
0.0
  0
SPLINE
  5
1E5
330
1F
100
AcDbEntity
  8
0
  6
Continuous
 62
     7
370
    25
100
AcDbSpline
210
0.0
220
0.0
230
1.0
 70
     8
 71
     3
 72
    11
 73
     7
 74
     0
 42
0.00000001
 43
0.00000001
 40
0.0
 40
0.0
 40
0.0
 40
0.0
 40
0.232871632211145
 40
0.4710265024313184
 40
0.731142121256027
 40
0.9999999999999999
 40
0.9999999999999999
 40
0.9999999999999999
 40
0.9999999999999999
 10
181.146668509517
 20
131.8743672756663
 30
0.0
 10
180.8762717748443
 20
132.6849773875005
 30
0.0
 10
180.3293437227134
 20
134.3245881987759
 30
0.0
 10
180.0281194047298
 20
136.9796019651266
 30
0.0
 10
180.2357711701396
 20
139.7791942801574
 30
0.0
 10
180.8397090019198
 20
141.6247149341714
 30
0.0
 10
181.146668509517
 20
142.562725572695
 30
0.0
  0
SPLINE
  5
1E6
330
1F
100
AcDbEntity
  8
0
  6
Continuous
 62
     7
370
    25
100
AcDbSpline
210
0.0
220
0.0
230
1.0
 70
     8
 71
     3
 72
     9
 73
     5
 74
     0
 42
0.00000001
 43
0.00000001
 40
0.0
 40
0.0
 40
0.0
 40
0.0
 40
0.5841917497409213
 40
1.0
 40
1.0
 40
1.0
 40
1.0
 10
181.5611254170944
 20
130.0109307378901
 30
0.0
 10
181.5349574532738
 20
130.3333715245022
 30
0.0
 10
181.4901640034651
 20
130.8853149347867
 30
0.0
 10
181.2475495859512
 20
131.5838928253299
 30
0.0
 10
181.146668509517
 20
131.8743672756663
 30
0.0
  0
LINE
  5
1E7
330
1F
100
AcDbEntity
  8
0
  6
Continuous
 62
     7
370
    25
100
AcDbLine
 10
181.5611254171
 20
130.0109307379
 30
0.0
 11
181.5611254171
 21
129.1755682315
 31
0.0
  0
SPLINE
  5
1E8
330
1F
100
AcDbEntity
  8
0
  6
Continuous
 62
     7
370
    25
100
AcDbSpline
210
0.0
220
0.0
230
1.0
 70
     8
 71
     3
 72
     9
 73
     5
 74
     0
 42
0.00000001
 43
0.00000001
 40
0.0
 40
0.0
 40
0.0
 40
0.0
 40
0.5850553834536157
 40
1.0
 40
1.0
 40
1.0
 40
1.0
 10
181.146668509517
 20
128.4016627790916
 30
0.0
 10
181.2832226435414
 20
128.4743483047856
 30
0.0
 10
181.5166264167333
 20
128.5985853048197
 30
0.0
 10
181.5480757044586
 20
129.0063630509754
 30
0.0
 10
181.5611254170944
 20
129.1755682314901
 30
0.0
  0
SPLINE
  5
1E9
330
1F
100
AcDbEntity
  8
0
  6
Continuous
 62
     7
370
    25
100
AcDbSpline
210
0.0
220
0.0
230
1.0
 70
     8
 71
     3
 72
    11
 73
     7
 74
     0
 42
0.00000001
 43
0.00000001
 40
0.0
 40
0.0
 40
0.0
 40
0.0
 40
0.2379053903768113
 40
0.4814905141302429
 40
0.7366519444347657
 40
1.0
 40
1.0
 40
1.0
 40
1.0
 10
181.1466685095172
 20
127.3588494236428
 30
0.0
 10
180.8710830745441
 20
127.4396717544161
 30
0.0
 10
180.3133329009906
 20
127.6032459615225
 30
0.0
 10
180.0267696763343
 20
127.8644934476613
 30
0.0
 10
180.2516500825324
 20
128.1356164720044
 30
0.0
 10
180.8452051994505
 20
128.3120521096938
 30
0.0
 10
181.146668509517
 20
128.4016627790916
 30
0.0
  0
LINE
  5
1EA
330
1F
100
AcDbEntity
  8
0
  6
Continuous
 62
     7
370
    25
100
AcDbLine
 10
181.2674725007
 20
127.3631923505
 30
0.0
 11
181.1466685095
 21
127.3588494236
 31
0.0
  0
SPLINE
  5
1EB
330
1F
100
AcDbEntity
  8
0
  6
Continuous
 62
     7
370
    25
100
AcDbSpline
210
0.0
220
0.0
230
1.0
 70
     8
 71
     3
 72
     9
 73
     5
 74
     0
 42
0.00000001
 43
0.00000001
 40
0.0
 40
0.0
 40
0.0
 40
0.0
 40
0.6721061852891725
 40
1.0
 40
1.0
 40
1.0
 40
1.0
 10
181.146668509517
 20
160.774199378711
 30
0.0
 10
180.8298622625289
 20
160.6874831446815
 30
0.0
 10
180.3584988769177
 20
160.5584615169574
 30
0.0
 10
180.2759711934141
 20
160.42358051516
 30
0.0
 10
180.2489108764508
 20
160.3793538689486
 30
0.0
  0
SPLINE
  5
1EC
330
1F
100
AcDbEntity
  8
0
  6
Continuous
 62
     7
370
    25
100
AcDbSpline
210
0.0
220
0.0
230
1.0
 70
     8
 71
     3
 72
     9
 73
     5
 74
     0
 42
0.00000001
 43
0.00000001
 40
0.0
 40
0.0
 40
0.0
 40
0.0
 40
0.5841917497409217
 40
1.0
 40
1.0
 40
1.0
 40
1.0
 10
181.5611254170944
 20
160.4108503654656
 30
0.0
 10
181.5349574532738
 20
160.5618677032448
 30
0.0
 10
181.4901640034651
 20
160.8203741574118
 30
0.0
 10
181.2475495859512
 20
160.7877604339839
 30
0.0
 10
181.146668509517
 20
160.774199378711
 30
0.0
  0
LINE
  5
1ED
330
1F
100
AcDbEntity
  8
0
  6
Continuous
 62
     7
370
    25
100
AcDbLine
 10
181.5611254171
 20
160.4108503655
 30
0.0
 11
181.5611254171
 21
159.7982602822
 31
0.0
  0
SPLINE
  5
1EE
330
1F
100
AcDbEntity
  8
0
  6
Continuous
 62
     7
370
    25
100
AcDbSpline
210
0.0
220
0.0
230
1.0
 70
     8
 71
     3
 72
     9
 73
     5
 74
     0
 42
0.00000001
 43
0.00000001
 40
0.0
 40
0.0
 40
0.0
 40
0.0
 40
0.5850553834536191
 40
1.0
 40
1.0
 40
1.0
 40
1.0
 10
181.146668509517
 20
158.2275871947802
 30
0.0
 10
181.2832226435414
 20
158.5896330986976
 30
0.0
 10
181.5166264167333
 20
159.2084564001433
 30
0.0
 10
181.5480757044586
 20
159.6252952467918
 30
0.0
 10
181.5611254170944
 20
159.7982602821759
 30
0.0
  0
SPLINE
  5
1EF
330
1F
100
AcDbEntity
  8
0
  6
Continuous
 62
     7
370
    25
100
AcDbSpline
210
0.0
220
0.0
230
1.0
 70
     8
 71
     3
 72
    11
 73
     7
 74
     0
 42
0.00000001
 43
0.00000001
 40
0.0
 40
0.0
 40
0.0
 40
0.0
 40
0.2328716322111445
 40
0.4710265024313174
 40
0.7311421212560267
 40
1.0
 40
1.0
 40
1.0
 40
1.0
 10
181.146668509517
 20
148.5820422532004
 30
0.0
 10
180.8762717748443
 20
149.3135649105172
 30
0.0
 10
180.3293437227135
 20
150.793206528749
 30
0.0
 10
180.0281194047298
 20
153.1891829633121
 30
0.0
 10
180.2357711701396
 20
155.7156320906994
 30
0.0
 10
180.8397090019198
 20
157.3810938870031
 30
0.0
 10
181.146668509517
 20
158.2275871947802
 30
0.0
  0
LINE
  5
1F0
330
1F
100
AcDbEntity
  8
0
  6
Continuous
 62
     7
370
    25
100
AcDbLine
 10
180.0611254171
 20
127.8665244012
 30
0.0
 11
180.0611254171
 21
160.2665244012
 31
0.0
  0
SPLINE
  5
1F1
330
1F
100
AcDbEntity
  8
0
  6
Continuous
 62
     7
370
    25
100
AcDbSpline
210
0.0
220
0.0
230
1.0
 70
     8
 71
     3
 72
     9
 73
     5
 74
     0
 42
0.00000001
 43
0.00000001
 40
0.0
 40
0.0
 40
0.0
 40
0.0
 40
0.5850553834534123
 40
1.0
 40
1.0
 40
1.0
 40
1.0
 10
188.4255823246723
 20
160.7741993787108
 30
0.0
 10
188.2890281906479
 20
160.7837367095906
 30
0.0
 10
188.0556244174556
 20
160.8000382959865
 30
0.0
 10
188.0241751297303
 20
160.5249830563894
 30
0.0
 10
188.0111254170944
 20
160.4108503654656
 30
0.0
  0
SPLINE
  5
1F2
330
1F
100
AcDbEntity
  8
0
  6
Continuous
 62
     7
370
    25
100
AcDbSpline
210
0.0
220
0.0
230
1.0
 70
     8
 71
     3
 72
     9
 73
     5
 74
     0
 42
0.00000001
 43
0.00000001
 40
0.0
 40
0.0
 40
0.0
 40
0.0
 40
0.3075978995518112
 40
1.0
 40
1.0
 40
1.0
 40
1.0
 10
189.3278664295428
 20
160.3793915857686
 30
0.0
 10
189.3029783087461
 20
160.4208754212587
 30
0.0
 10
189.2220670904543
 20
160.5557392663973
 30
0.0
 10
188.7514432561001
 20
160.6848221316666
 30
0.0
 10
188.4255823246723
 20
160.7741993787108
 30
0.0
  0
LINE
  5
1F3
330
1F
100
AcDbEntity
  8
0
  6
Continuous
 62
     7
370
    25
100
AcDbLine
 10
188.4255823247
 20
127.3588494236
 30
0.0
 11
188.3177720525
 21
127.381364222
 31
0.0
  0
SPLINE
  5
1F4
330
1F
100
AcDbEntity
  8
0
  6
Continuous
 62
     7
370
    25
100
AcDbSpline
210
0.0
220
0.0
230
1.0
 70
     8
 71
     3
 72
    11
 73
     7
 74
     0
 42
0.00000001
 43
0.00000001
 40
0.0
 40
0.0
 40
0.0
 40
0.0
 40
0.2556279644380967
 40
0.5185037642963866
 40
0.7560467972580099
 40
1.0
 40
1.0
 40
1.0
 40
1.0
 10
188.4255823246718
 20
128.4016627790916
 30
0.0
 10
188.7192082847737
 20
128.314724613936
 30
0.0
 10
189.3147853999093
 20
128.1383833204736
 30
0.0
 10
189.5466743615359
 20
127.8693700721649
 30
0.0
 10
189.2637039030751
 20
127.605399270414
 30
0.0
 10
188.7074247695109
 20
127.4417588885453
 30
0.0
 10
188.4255823246718
 20
127.3588494236428
 30
0.0
  0
SPLINE
  5
1F5
330
1F
100
AcDbEntity
  8
0
  6
Continuous
 62
     7
370
    25
100
AcDbSpline
210
0.0
220
0.0
230
1.0
 70
     8
 71
     3
 72
     9
 73
     5
 74
     0
 42
0.00000001
 43
0.00000001
 40
0.0
 40
0.0
 40
0.0
 40
0.0
 40
0.5841917497409268
 40
0.9999999999999999
 40
0.9999999999999999
 40
0.9999999999999999
 40
0.9999999999999999
 10
188.0111254170944
 20
129.1755682314901
 30
0.0
 10
188.037293380915
 20
128.9459199552763
 30
0.0
 10
188.0820868307237
 20
128.5528156769026
 30
0.0
 10
188.3247012482377
 20
128.446054822964
 30
0.0
 10
188.4255823246718
 20
128.4016627790916
 30
0.0
  0
LINE
  5
1F6
330
1F
100
AcDbEntity
  8
0
  6
Continuous
 62
     7
370
    25
100
AcDbLine
 10
188.0111254171
 20
129.1755682315
 30
0.0
 11
188.0111254171
 21
130.0109307379
 31
0.0
  0
SPLINE
  5
1F7
330
1F
100
AcDbEntity
  8
0
  6
Continuous
 62
     7
370
    25
100
AcDbSpline
210
0.0
220
0.0
230
1.0
 70
     8
 71
     3
 72
     9
 73
     5
 74
     0
 42
0.00000001
 43
0.00000001
 40
0.0
 40
0.0
 40
0.0
 40
0.0
 40
0.5850553834536173
 40
1.0
 40
1.0
 40
1.0
 40
1.0
 10
188.4255823246718
 20
131.8743672756663
 30
0.0
 10
188.2890281906474
 20
131.4663521613517
 30
0.0
 10
188.0556244174555
 20
130.7689564517248
 30
0.0
 10
188.0241751297303
 20
130.2332282649319
 30
0.0
 10
188.0111254170944
 20
130.0109307378901
 30
0.0
  0
SPLINE
  5
1F8
330
1F
100
AcDbEntity
  8
0
  6
Continuous
 62
     7
370
    25
100
AcDbSpline
210
0.0
220
0.0
230
1.0
 70
     8
 71
     3
 72
    11
 73
     7
 74
     0
 42
0.00000001
 43
0.00000001
 40
0.0
 40
0.0
 40
0.0
 40
0.0
 40
0.2328716322111473
 40
0.4710265024313233
 40
0.7311421212560294
 40
1.0
 40
1.0
 40
1.0
 40
1.0
 10
188.4255823246718
 20
142.562725572695
 30
0.0
 10
188.6959790593446
 20
141.7521154608607
 30
0.0
 10
189.2429071114754
 20
140.1125046495853
 30
0.0
 10
189.544131429459
 20
137.4574908832347
 30
0.0
 10
189.3364796640493
 20
134.6578985682039
 30
0.0
 10
188.732541832269
 20
132.8123779141898
 30
0.0
 10
188.4255823246718
 20
131.8743672756663
 30
0.0
  0
SPLINE
  5
1F9
330
1F
100
AcDbEntity
  8
0
  6
Continuous
 62
     7
370
    25
100
AcDbSpline
210
0.0
220
0.0
230
1.0
 70
     8
 71
     3
 72
     9
 73
     5
 74
     0
 42
0.00000001
 43
0.00000001
 40
0.0
 40
0.0
 40
0.0
 40
0.0
 40
0.5841917497409242
 40
1.0
 40
1.0
 40
1.0
 40
1.0
 10
188.0111254170944
 20
144.9073041124891
 30
0.0
 10
188.0372933809151
 20
144.4238138675992
 30
0.0
 10
188.0820868307237
 20
143.5961913530664
 30
0.0
 10
188.3247012482377
 20
142.8662437911827
 30
0.0
 10
188.4255823246718
 20
142.562725572695
 30
0.0
  0
LINE
  5
1FA
330
1F
100
AcDbEntity
  8
0
  6
Continuous
 62
     7
370
    25
100
AcDbLine
 10
188.0111254171
 20
144.9073041125
 30
0.0
 11
188.0111254171
 21
146.3552567022
 31
0.0
  0
SPLINE
  5
1FB
330
1F
100
AcDbEntity
  8
0
  6
Continuous
 62
     7
370
    25
100
AcDbSpline
210
0.0
220
0.0
230
1.0
 70
     8
 71
     3
 72
     9
 73
     5
 74
     0
 42
0.00000001
 43
0.00000001
 40
0.0
 40
0.0
 40
0.0
 40
0.0
 40
0.5850553834536175
 40
1.0
 40
1.0
 40
1.0
 40
1.0
 10
188.4255823246718
 20
148.5820422532004
 30
0.0
 10
188.2890281906474
 20
148.1835644697654
 30
0.0
 10
188.0556244174555
 20
147.5024703465343
 30
0.0
 10
188.0241751297303
 20
146.6916869201444
 30
0.0
 10
188.0111254170944
 20
146.3552567021788
 30
0.0
  0
SPLINE
  5
1FC
330
1F
100
AcDbEntity
  8
0
  6
Continuous
 62
     7
370
    25
100
AcDbSpline
210
0.0
220
0.0
230
1.0
 70
     8
 71
     3
 72
    11
 73
     7
 74
     0
 42
0.00000001
 43
0.00000001
 40
0.0
 40
0.0
 40
0.0
 40
0.0
 40
0.2328716322111489
 40
0.4710265024313259
 40
0.7311421212560307
 40
1.0
 40
1.0
 40
1.0
 40
1.0
 10
188.4255823246718
 20
158.2275871947802
 30
0.0
 10
188.6959790593446
 20
157.4960645374634
 30
0.0
 10
189.2429071114754
 20
156.0164229192316
 30
0.0
 10
189.544131429459
 20
153.6204464846684
 30
0.0
 10
189.3364796640493
 20
151.0939973572811
 30
0.0
 10
188.732541832269
 20
149.4285355609775
 30
0.0
 10
188.4255823246718
 20
148.5820422532004
 30
0.0
  0
SPLINE
  5
1FD
330
1F
100
AcDbEntity
  8
0
  6
Continuous
 62
     7
370
    25
100
AcDbSpline
210
0.0
220
0.0
230
1.0
 70
     8
 71
     3
 72
     9
 73
     5
 74
     0
 42
0.00000001
 43
0.00000001
 40
0.0
 40
0.0
 40
0.0
 40
0.0
 40
0.5841917497409261
 40
1.0
 40
1.0
 40
1.0
 40
1.0
 10
188.0111254170944
 20
159.7982602821759
 30
0.0
 10
188.0372933809151
 20
159.5444183134998
 30
0.0
 10
188.0820868307237
 20
159.1099000773407
 30
0.0
 10
188.3247012482377
 20
158.4867133693956
 30
0.0
 10
188.4255823246718
 20
158.2275871947802
 30
0.0
  0
LINE
  5
1FE
330
1F
100
AcDbEntity
  8
0
  6
Continuous
 62
     7
370
    25
100
AcDbLine
 10
188.0111254171
 20
159.7982602822
 30
0.0
 11
188.0111254171
 21
160.4108503655
 31
0.0
  0
LINE
  5
1FF
330
1F
100
AcDbEntity
  8
0
  6
Continuous
 62
     7
370
    25
100
AcDbLine
 10
189.5111254171
 20
160.2665244012
 30
0.0
 11
189.5111254171
 21
127.8665244012
 31
0.0
  0
LINE
  5
200
330
1F
100
AcDbEntity
  8
0
  6
Continuous
 62
     7
370
    25
100
AcDbLine
 10
181.1466685095
 20
131.8743672757
 30
0.0
 11
188.4255823247
 21
131.8743672757
 31
0.0
  0
LINE
  5
201
330
1F
100
AcDbEntity
  8
0
  6
Continuous
 62
     7
370
    25
100
AcDbLine
 10
188.4255823247
 20
142.5627255727
 30
0.0
 11
181.1466685095
 21
142.5627255727
 31
0.0
  0
LINE
  5
202
330
1F
100
AcDbEntity
  8
0
  6
Continuous
 62
     7
370
    25
100
AcDbLine
 10
181.5611254171
 20
144.9073041125
 30
0.0
 11
188.0111254171
 21
144.9073041125
 31
0.0
  0
LINE
  5
203
330
1F
100
AcDbEntity
  8
0
  6
Continuous
 62
     7
370
    25
100
AcDbLine
 10
181.1466685095
 20
148.5820422532
 30
0.0
 11
188.4255823247
 21
148.5820422532
 31
0.0
  0
LINE
  5
204
330
1F
100
AcDbEntity
  8
0
  6
Continuous
 62
     7
370
    25
100
AcDbLine
 10
188.4255823247
 20
158.2275871948
 30
0.0
 11
181.1466685095
 21
158.2275871948
 31
0.0
  0
LINE
  5
205
330
1F
100
AcDbEntity
  8
0
  6
Continuous
 62
     7
370
    25
100
AcDbLine
 10
188.0111254171
 20
146.3552567022
 30
0.0
 11
181.5611254171
 21
146.3552567022
 31
0.0
  0
LINE
  5
206
330
1F
100
AcDbEntity
  8
0
  6
Continuous
 62
     7
370
    25
100
AcDbLine
 10
197.2611254171
 20
133.4915244012
 30
0.0
 11
197.2611254171
 21
154.6415244012
 31
0.0
  0
LINE
  5
207
330
1F
100
AcDbEntity
  8
0
  6
Continuous
 62
     7
370
    25
100
AcDbLine
 10
188.0111254171
 20
130.0109307379
 30
0.0
 11
181.5611254171
 21
130.0109307379
 31
0.0
  0
LINE
  5
208
330
1F
100
AcDbEntity
  8
0
  6
Continuous
 62
     7
370
    25
100
AcDbLine
 10
181.5611254171
 20
129.1755682315
 30
0.0
 11
188.0111254171
 21
129.1755682315
 31
0.0
  0
LINE
  5
209
330
1F
100
AcDbEntity
  8
0
  6
Continuous
 62
     7
370
    25
100
AcDbLine
 10
181.5611254171
 20
159.7982602822
 30
0.0
 11
188.0111254171
 21
159.7982602822
 31
0.0
  0
LINE
  5
20A
330
1F
100
AcDbEntity
  8
0
  6
Continuous
 62
     7
370
    25
100
AcDbLine
 10
188.4255823247
 20
128.4016627791
 30
0.0
 11
181.1466685095
 21
128.4016627791
 31
0.0
  0
LINE
  5
20B
330
1F
100
AcDbEntity
  8
0
  6
Continuous
 62
     7
370
    25
100
AcDbLine
 10
188.0111254171
 20
160.4108503655
 30
0.0
 11
181.5611254171
 21
160.4108503655
 31
0.0
  0
LINE
  5
20C
330
1F
100
AcDbEntity
  8
0
  6
Continuous
 62
     7
370
    25
100
AcDbLine
 10
181.1466685095
 20
127.3588494236
 30
0.0
 11
188.4255823247
 21
127.3588494236
 31
0.0
  0
SPLINE
  5
20D
330
1F
100
AcDbEntity
  8
0
  6
Continuous
 62
     7
370
    25
100
AcDbSpline
210
0.0
220
0.0
230
1.0
 70
     8
 71
     3
 72
     9
 73
     5
 74
     0
 42
0.00000001
 43
0.00000001
 40
0.0
 40
0.0
 40
0.0
 40
0.0
 40
0.5841917497409228
 40
1.0
 40
1.0
 40
1.0
 40
1.0
 10
91.5111254170944
 20
159.7982602821759
 30
0.0
 10
91.53729338091505
 20
159.5444183134998
 30
0.0
 10
91.5820868307237
 20
159.1099000773408
 30
0.0
 10
91.82470124823766
 20
158.4867133693956
 30
0.0
 10
91.92558232467177
 20
158.2275871947802
 30
0.0
  0
LINE
  5
20E
330
1F
100
AcDbEntity
  8
0
  6
Continuous
 62
     7
370
    25
100
AcDbLine
 10
91.5111254171
 20
159.7982602822
 30
0.0
 11
91.5111254171
 21
160.4108503655
 31
0.0
  0
SPLINE
  5
20F
330
1F
100
AcDbEntity
  8
0
  6
Continuous
 62
     7
370
    25
100
AcDbSpline
210
0.0
220
0.0
230
1.0
 70
     8
 71
     3
 72
     9
 73
     5
 74
     0
 42
0.00000001
 43
0.00000001
 40
0.0
 40
0.0
 40
0.0
 40
0.0
 40
0.5850553834536181
 40
1.0
 40
1.0
 40
1.0
 40
1.0
 10
91.92558232467177
 20
160.774199378711
 30
0.0
 10
91.78902819064744
 20
160.7837367095906
 30
0.0
 10
91.5556244174555
 20
160.8000382959863
 30
0.0
 10
91.52417512973022
 20
160.5249830563892
 30
0.0
 10
91.51112541709439
 20
160.4108503654656
 30
0.0
  0
SPLINE
  5
210
330
1F
100
AcDbEntity
  8
0
  6
Continuous
 62
     7
370
    25
100
AcDbSpline
210
0.0
220
0.0
230
1.0
 70
     8
 71
     3
 72
     9
 73
     5
 74
     0
 42
0.00000001
 43
0.00000001
 40
0.0
 40
0.0
 40
0.0
 40
0.0
 40
0.2910559175694166
 40
1.0
 40
1.0
 40
1.0
 40
1.0
 10
92.82500877244213
 20
160.3805541590275
 30
0.0
 10
92.80371983044344
 20
160.4197011233056
 30
0.0
 10
92.73057600922701
 20
160.5542009287211
 30
0.0
 10
92.25952859882236
 20
160.6829344854545
 30
0.0
 10
91.92558232467177
 20
160.774199378711
 30
0.0
  0
LINE
  5
211
330
1F
100
AcDbEntity
  8
0
  6
Continuous
 62
     7
370
    25
100
AcDbLine
 10
91.9255823247
 20
127.3588494236
 30
0.0
 11
91.8177720525
 21
127.381364222
 31
0.0
  0
SPLINE
  5
212
330
1F
100
AcDbEntity
  8
0
  6
Continuous
 62
     7
370
    25
100
AcDbSpline
210
0.0
220
0.0
230
1.0
 70
     8
 71
     3
 72
    11
 73
     7
 74
     0
 42
0.00000001
 43
0.00000001
 40
0.0
 40
0.0
 40
0.0
 40
0.0
 40
0.2328716322111456
 40
0.4710265024313186
 40
0.7311421212560271
 40
1.0
 40
1.0
 40
1.0
 40
1.0
 10
91.92558232467177
 20
128.4016627790916
 30
0.0
 10
92.19597905934454
 20
128.3225753245742
 30
0.0
 10
92.74290711147535
 20
128.1626061315306
 30
0.0
 10
93.04413142945897
 20
127.9035687997431
 30
0.0
 10
92.83647966404926
 20
127.6304256120996
 30
0.0
 10
92.232541832269
 20
127.4503667543892
 30
0.0
 10
91.92558232467177
 20
127.3588494236428
 30
0.0
  0
SPLINE
  5
213
330
1F
100
AcDbEntity
  8
0
  6
Continuous
 62
     7
370
    25
100
AcDbSpline
210
0.0
220
0.0
230
1.0
 70
     8
 71
     3
 72
     9
 73
     5
 74
     0
 42
0.00000001
 43
0.00000001
 40
0.0
 40
0.0
 40
0.0
 40
0.0
 40
0.5841917497409185
 40
1.0
 40
1.0
 40
1.0
 40
1.0
 10
91.51112541709439
 20
129.1755682314901
 30
0.0
 10
91.53729338091505
 20
128.9459199552763
 30
0.0
 10
91.5820868307237
 20
128.5528156769026
 30
0.0
 10
91.82470124823766
 20
128.446054822964
 30
0.0
 10
91.92558232467175
 20
128.4016627790916
 30
0.0
  0
LINE
  5
214
330
1F
100
AcDbEntity
  8
0
  6
Continuous
 62
     7
370
    25
100
AcDbLine
 10
91.5111254171
 20
129.1755682315
 30
0.0
 11
91.5111254171
 21
130.0109307379
 31
0.0
  0
SPLINE
  5
215
330
1F
100
AcDbEntity
  8
0
  6
Continuous
 62
     7
370
    25
100
AcDbSpline
210
0.0
220
0.0
230
1.0
 70
     8
 71
     3
 72
     9
 73
     5
 74
     0
 42
0.00000001
 43
0.00000001
 40
0.0
 40
0.0
 40
0.0
 40
0.0
 40
0.5850553834536176
 40
1.0
 40
1.0
 40
1.0
 40
1.0
 10
91.92558232467177
 20
131.8743672756663
 30
0.0
 10
91.78902819064744
 20
131.4663521613517
 30
0.0
 10
91.55562441745552
 20
130.7689564517249
 30
0.0
 10
91.52417512973021
 20
130.2332282649319
 30
0.0
 10
91.51112541709439
 20
130.0109307378901
 30
0.0
  0
SPLINE
  5
216
330
1F
100
AcDbEntity
  8
0
  6
Continuous
 62
     7
370
    25
100
AcDbSpline
210
0.0
220
0.0
230
1.0
 70
     8
 71
     3
 72
    11
 73
     7
 74
     0
 42
0.00000001
 43
0.00000001
 40
0.0
 40
0.0
 40
0.0
 40
0.0
 40
0.2556279644380999
 40
0.5185037642963934
 40
0.7560467972580139
 40
1.0
 40
1.0
 40
1.0
 40
1.0
 10
91.92558232467177
 20
142.562725572695
 30
0.0
 10
92.21920828477373
 20
141.6716492798822
 30
0.0
 10
92.81478539990931
 20
139.8642319532439
 30
0.0
 10
93.04667436153598
 20
137.10696962097
 30
0.0
 10
92.76370390307514
 20
134.4013900516972
 30
0.0
 10
92.20742476951088
 20
132.7241512398466
 30
0.0
 10
91.92558232467177
 20
131.8743672756663
 30
0.0
  0
SPLINE
  5
217
330
1F
100
AcDbEntity
  8
0
  6
Continuous
 62
     7
370
    25
100
AcDbSpline
210
0.0
220
0.0
230
1.0
 70
     8
 71
     3
 72
     9
 73
     5
 74
     0
 42
0.00000001
 43
0.00000001
 40
0.0
 40
0.0
 40
0.0
 40
0.0
 40
0.5841917497409215
 40
1.0
 40
1.0
 40
1.0
 40
1.0
 10
91.51112541709439
 20
144.9073041124891
 30
0.0
 10
91.53729338091505
 20
144.4238138675992
 30
0.0
 10
91.5820868307237
 20
143.5961913530664
 30
0.0
 10
91.82470124823766
 20
142.8662437911827
 30
0.0
 10
91.92558232467175
 20
142.562725572695
 30
0.0
  0
LINE
  5
218
330
1F
100
AcDbEntity
  8
0
  6
Continuous
 62
     7
370
    25
100
AcDbLine
 10
91.5111254171
 20
144.9073041125
 30
0.0
 11
91.5111254171
 21
146.3552567022
 31
0.0
  0
SPLINE
  5
219
330
1F
100
AcDbEntity
  8
0
  6
Continuous
 62
     7
370
    25
100
AcDbSpline
210
0.0
220
0.0
230
1.0
 70
     8
 71
     3
 72
     9
 73
     5
 74
     0
 42
0.00000001
 43
0.00000001
 40
0.0
 40
0.0
 40
0.0
 40
0.0
 40
0.5850553834536164
 40
1.0
 40
1.0
 40
1.0
 40
1.0
 10
91.92558232467177
 20
148.5820422532004
 30
0.0
 10
91.78902819064744
 20
148.1835644697654
 30
0.0
 10
91.55562441745552
 20
147.5024703465343
 30
0.0
 10
91.52417512973021
 20
146.6916869201444
 30
0.0
 10
91.51112541709439
 20
146.3552567021788
 30
0.0
  0
SPLINE
  5
21A
330
1F
100
AcDbEntity
  8
0
  6
Continuous
 62
     7
370
    25
100
AcDbSpline
210
0.0
220
0.0
230
1.0
 70
     8
 71
     3
 72
    11
 73
     7
 74
     0
 42
0.00000001
 43
0.00000001
 40
0.0
 40
0.0
 40
0.0
 40
0.0
 40
0.2328716322111445
 40
0.4710265024313167
 40
0.7311421212560263
 40
1.0
 40
1.0
 40
1.0
 40
1.0
 10
91.92558232467177
 20
158.2275871947802
 30
0.0
 10
92.19597905934454
 20
157.4960645374634
 30
0.0
 10
92.74290711147538
 20
156.0164229192316
 30
0.0
 10
93.04413142945894
 20
153.6204464846685
 30
0.0
 10
92.83647966404928
 20
151.0939973572812
 30
0.0
 10
92.232541832269
 20
149.4285355609775
 30
0.0
 10
91.92558232467177
 20
148.5820422532004
 30
0.0
  0
LINE
  5
21B
330
1F
100
AcDbEntity
  8
0
  6
Continuous
 62
     7
370
    25
100
AcDbLine
 10
93.0111254171
 20
160.2665244012
 30
0.0
 11
93.0111254171
 21
127.8665244012
 31
0.0
  0
SPLINE
  5
21C
330
1F
100
AcDbEntity
  8
0
  6
Continuous
 62
     7
370
    25
100
AcDbSpline
210
0.0
220
0.0
230
1.0
 70
     8
 71
     3
 72
     9
 73
     5
 74
     0
 42
0.00000001
 43
0.00000001
 40
0.0
 40
0.0
 40
0.0
 40
0.0
 40
0.5850553834534112
 40
1.0
 40
1.0
 40
1.0
 40
1.0
 10
84.6466685095165
 20
142.5627255726935
 30
0.0
 10
84.78322264354097
 20
142.997457002305
 30
0.0
 10
85.0166264167332
 20
143.7405173037852
 30
0.0
 10
85.04807570445855
 20
144.5651338965898
 30
0.0
 10
85.0611254170944
 20
144.9073041124891
 30
0.0
  0
SPLINE
  5
21D
330
1F
100
AcDbEntity
  8
0
  6
Continuous
 62
     7
370
    25
100
AcDbSpline
210
0.0
220
0.0
230
1.0
 70
     8
 71
     3
 72
    11
 73
     7
 74
     0
 42
0.00000001
 43
0.00000001
 40
0.0
 40
0.0
 40
0.0
 40
0.0
 40
0.2379053903768483
 40
0.4814905141303177
 40
0.7366519444348059
 40
1.0
 40
1.0
 40
1.0
 40
1.0
 10
84.64666850951714
 20
131.874367275666
 30
0.0
 10
84.3710830745441
 20
132.702759072906
 30
0.0
 10
83.81333290099063
 20
134.3793196238148
 30
0.0
 10
83.52676967633433
 20
137.0569864579219
 30
0.0
 10
83.75165008253227
 20
139.8358730262709
 30
0.0
 10
84.34520519945013
 20
141.6442573379362
 30
0.0
 10
84.6466685095165
 20
142.5627255726935
 30
0.0
  0
SPLINE
  5
21E
330
1F
100
AcDbEntity
  8
0
  6
Continuous
 62
     7
370
    25
100
AcDbSpline
210
0.0
220
0.0
230
1.0
 70
     8
 71
     3
 72
     9
 73
     5
 74
     0
 42
0.00000001
 43
0.00000001
 40
0.0
 40
0.0
 40
0.0
 40
0.0
 40
0.5841917497409935
 40
1.0
 40
1.0
 40
1.0
 40
1.0
 10
85.0611254170944
 20
130.0109307378901
 30
0.0
 10
85.03495745327376
 20
130.3333715245022
 30
0.0
 10
84.99016400346511
 20
130.8853149347866
 30
0.0
 10
84.7475495859512
 20
131.5838928253297
 30
0.0
 10
84.64666850951714
 20
131.874367275666
 30
0.0
  0
LINE
  5
21F
330
1F
100
AcDbEntity
  8
0
  6
Continuous
 62
     7
370
    25
100
AcDbLine
 10
85.0611254171
 20
130.0109307379
 30
0.0
 11
85.0611254171
 21
129.1755682315
 31
0.0
  0
SPLINE
  5
220
330
1F
100
AcDbEntity
  8
0
  6
Continuous
 62
     7
370
    25
100
AcDbSpline
210
0.0
220
0.0
230
1.0
 70
     8
 71
     3
 72
     9
 73
     5
 74
     0
 42
0.00000001
 43
0.00000001
 40
0.0
 40
0.0
 40
0.0
 40
0.0
 40
0.5850553834536193
 40
1.0
 40
1.0
 40
1.0
 40
1.0
 10
84.64666850951704
 20
128.4016627790916
 30
0.0
 10
84.78322264354138
 20
128.4743483047857
 30
0.0
 10
85.0166264167333
 20
128.5985853048197
 30
0.0
 10
85.04807570445857
 20
129.0063630509754
 30
0.0
 10
85.0611254170944
 20
129.1755682314901
 30
0.0
  0
SPLINE
  5
221
330
1F
100
AcDbEntity
  8
0
  6
Continuous
 62
     7
370
    25
100
AcDbSpline
210
0.0
220
0.0
230
1.0
 70
     8
 71
     3
 72
    11
 73
     7
 74
     0
 42
0.00000001
 43
0.00000001
 40
0.0
 40
0.0
 40
0.0
 40
0.0
 40
0.2328716322111473
 40
0.4710265024313225
 40
0.7311421212560294
 40
1.0
 40
1.0
 40
1.0
 40
1.0
 10
84.64666850951704
 20
127.3588494236428
 30
0.0
 10
84.37627177484427
 20
127.4379368781602
 30
0.0
 10
83.82934372271345
 20
127.5979060712038
 30
0.0
 10
83.5281194047299
 20
127.8569434029913
 30
0.0
 10
83.73577117013953
 20
128.1300865906348
 30
0.0
 10
84.3397090019198
 20
128.3101454483452
 30
0.0
 10
84.64666850951704
 20
128.4016627790916
 30
0.0
  0
LINE
  5
222
330
1F
100
AcDbEntity
  8
0
  6
Continuous
 62
     7
370
    25
100
AcDbLine
 10
84.7674725007
 20
127.3631923505
 30
0.0
 11
84.6466685095
 21
127.3588494236
 31
0.0
  0
SPLINE
  5
223
330
1F
100
AcDbEntity
  8
0
  6
Continuous
 62
     7
370
    25
100
AcDbSpline
210
0.0
220
0.0
230
1.0
 70
     8
 71
     3
 72
     9
 73
     5
 74
     0
 42
0.00000001
 43
0.00000001
 40
0.0
 40
0.0
 40
0.0
 40
0.0
 40
0.6137694938147381
 40
1.0
 40
1.0
 40
1.0
 40
1.0
 10
84.64666850951704
 20
160.774199378711
 30
0.0
 10
84.36155687110858
 20
160.6952680229863
 30
0.0
 10
83.89703127757275
 20
160.566667047343
 30
0.0
 10
83.77864222128939
 20
160.4323386105977
 30
0.0
 10
83.7329167561543
 20
160.3804568704784
 30
0.0
  0
SPLINE
  5
224
330
1F
100
AcDbEntity
  8
0
  6
Continuous
 62
     7
370
    25
100
AcDbSpline
210
0.0
220
0.0
230
1.0
 70
     8
 71
     3
 72
     9
 73
     5
 74
     0
 42
0.00000001
 43
0.00000001
 40
0.0
 40
0.0
 40
0.0
 40
0.0
 40
0.5841917497409246
 40
1.0
 40
1.0
 40
1.0
 40
1.0
 10
85.0611254170944
 20
160.4108503654656
 30
0.0
 10
85.03495745327378
 20
160.5618677032448
 30
0.0
 10
84.99016400346513
 20
160.8203741574118
 30
0.0
 10
84.74754958595115
 20
160.7877604339839
 30
0.0
 10
84.64666850951704
 20
160.774199378711
 30
0.0
  0
LINE
  5
225
330
1F
100
AcDbEntity
  8
0
  6
Continuous
 62
     7
370
    25
100
AcDbLine
 10
85.0611254171
 20
160.4108503655
 30
0.0
 11
85.0611254171
 21
159.7982602822
 31
0.0
  0
SPLINE
  5
226
330
1F
100
AcDbEntity
  8
0
  6
Continuous
 62
     7
370
    25
100
AcDbSpline
210
0.0
220
0.0
230
1.0
 70
     8
 71
     3
 72
     9
 73
     5
 74
     0
 42
0.00000001
 43
0.00000001
 40
0.0
 40
0.0
 40
0.0
 40
0.0
 40
0.5850553834536214
 40
1.0
 40
1.0
 40
1.0
 40
1.0
 10
84.64666850951704
 20
158.2275871947802
 30
0.0
 10
84.78322264354138
 20
158.5896330986976
 30
0.0
 10
85.0166264167333
 20
159.2084564001433
 30
0.0
 10
85.04807570445857
 20
159.6252952467918
 30
0.0
 10
85.0611254170944
 20
159.7982602821759
 30
0.0
  0
SPLINE
  5
227
330
1F
100
AcDbEntity
  8
0
  6
Continuous
 62
     7
370
    25
100
AcDbSpline
210
0.0
220
0.0
230
1.0
 70
     8
 71
     3
 72
    11
 73
     7
 74
     0
 42
0.00000001
 43
0.00000001
 40
0.0
 40
0.0
 40
0.0
 40
0.0
 40
0.2328716322111489
 40
0.471026502431326
 40
0.7311421212560306
 40
1.0
 40
1.0
 40
1.0
 40
1.0
 10
84.64666850951704
 20
148.5820422532004
 30
0.0
 10
84.37627177484427
 20
149.3135649105172
 30
0.0
 10
83.82934372271345
 20
150.793206528749
 30
0.0
 10
83.52811940472985
 20
153.1891829633122
 30
0.0
 10
83.73577117013957
 20
155.7156320906995
 30
0.0
 10
84.33970900191981
 20
157.3810938870031
 30
0.0
 10
84.64666850951704
 20
158.2275871947802
 30
0.0
  0
SPLINE
  5
228
330
1F
100
AcDbEntity
  8
0
  6
Continuous
 62
     7
370
    25
100
AcDbSpline
210
0.0
220
0.0
230
1.0
 70
     8
 71
     3
 72
     9
 73
     5
 74
     0
 42
0.00000001
 43
0.00000001
 40
0.0
 40
0.0
 40
0.0
 40
0.0
 40
0.5841917497409261
 40
1.0
 40
1.0
 40
1.0
 40
1.0
 10
85.0611254170944
 20
146.3552567021788
 30
0.0
 10
85.03495745327376
 20
146.8287148265701
 30
0.0
 10
84.99016400346513
 20
147.6391646910216
 30
0.0
 10
84.74754958595113
 20
148.3051288581369
 30
0.0
 10
84.64666850951704
 20
148.5820422532004
 30
0.0
  0
LINE
  5
229
330
1F
100
AcDbEntity
  8
0
  6
Continuous
 62
     7
370
    25
100
AcDbLine
 10
85.0611254171
 20
146.3552567022
 30
0.0
 11
85.0611254171
 21
144.9073041125
 31
0.0
  0
LINE
  5
22A
330
1F
100
AcDbEntity
  8
0
  6
Continuous
 62
     7
370
    25
100
AcDbLine
 10
83.5611254171
 20
137.2396171256
 30
0.0
 11
83.5611254171
 21
160.2665244012
 31
0.0
  0
LINE
  5
22B
330
1F
100
AcDbEntity
  8
0
  6
Continuous
 62
     7
370
    25
100
AcDbLine
 10
83.5611254171
 20
127.8665244012
 30
0.0
 11
83.5611254171
 21
137.2396171256
 31
0.0
  0
LINE
  5
22C
330
1F
100
AcDbEntity
  8
0
  6
Continuous
 62
     7
370
    25
100
AcDbLine
 10
75.8111254171
 20
154.6415244012
 30
0.0
 11
75.8111254171
 21
133.4915244012
 31
0.0
  0
LINE
  5
22D
330
1F
100
AcDbEntity
  8
0
  6
Continuous
 62
     7
370
    25
100
AcDbLine
 10
91.9255823247
 20
158.2275871948
 30
0.0
 11
84.6466685095
 21
158.2275871948
 31
0.0
  0
LINE
  5
22E
330
1F
100
AcDbEntity
  8
0
  6
Continuous
 62
     7
370
    25
100
AcDbLine
 10
84.6466685095
 20
148.5820422532
 30
0.0
 11
91.9255823247
 21
148.5820422532
 31
0.0
  0
LINE
  5
22F
330
1F
100
AcDbEntity
  8
0
  6
Continuous
 62
     7
370
    25
100
AcDbLine
 10
91.5111254171
 20
146.3552567022
 30
0.0
 11
85.0611254171
 21
146.3552567022
 31
0.0
  0
LINE
  5
230
330
1F
100
AcDbEntity
  8
0
  6
Continuous
 62
     7
370
    25
100
AcDbLine
 10
85.0611254171
 20
144.9073041125
 30
0.0
 11
91.5111254171
 21
144.9073041125
 31
0.0
  0
LINE
  5
231
330
1F
100
AcDbEntity
  8
0
  6
Continuous
 62
     7
370
    25
100
AcDbLine
 10
91.9255823247
 20
142.5627255727
 30
0.0
 11
84.6466685095
 21
142.5627255727
 31
0.0
  0
LINE
  5
232
330
1F
100
AcDbEntity
  8
0
  6
Continuous
 62
     7
370
    25
100
AcDbLine
 10
84.6466685095
 20
131.8743672757
 30
0.0
 11
91.9255823247
 21
131.8743672757
 31
0.0
  0
LINE
  5
233
330
1F
100
AcDbEntity
  8
0
  6
Continuous
 62
     7
370
    25
100
AcDbLine
 10
91.5111254171
 20
130.0109307379
 30
0.0
 11
85.0611254171
 21
130.0109307379
 31
0.0
  0
LINE
  5
234
330
1F
100
AcDbEntity
  8
0
  6
Continuous
 62
     7
370
    25
100
AcDbLine
 10
85.0611254171
 20
129.1755682315
 30
0.0
 11
91.5111254171
 21
129.1755682315
 31
0.0
  0
LINE
  5
235
330
1F
100
AcDbEntity
  8
0
  6
Continuous
 62
     7
370
    25
100
AcDbLine
 10
85.0611254171
 20
159.7982602822
 30
0.0
 11
91.5111254171
 21
159.7982602822
 31
0.0
  0
LINE
  5
236
330
1F
100
AcDbEntity
  8
0
  6
Continuous
 62
     7
370
    25
100
AcDbLine
 10
91.9255823247
 20
128.4016627791
 30
0.0
 11
84.6466685095
 21
128.4016627791
 31
0.0
  0
LINE
  5
237
330
1F
100
AcDbEntity
  8
0
  6
Continuous
 62
     7
370
    25
100
AcDbLine
 10
91.5111254171
 20
160.4108503655
 30
0.0
 11
85.0611254171
 21
160.4108503655
 31
0.0
  0
LINE
  5
238
330
1F
100
AcDbEntity
  8
0
  6
Continuous
 62
     7
370
    25
100
AcDbLine
 10
84.6466685095
 20
127.3588494236
 30
0.0
 11
91.9255823247
 21
127.3588494236
 31
0.0
  0
ARC
  5
239
330
1F
100
AcDbEntity
  8
0
  6
Continuous
 62
     7
370
    25
100
AcDbCircle
 10
135.9111254171
 20
144.0665244012
 30
0.0
 40
14.00000000000001
100
AcDbArc
 50
307.9000373354
 51
232.0999626646
  0
SPLINE
  5
23A
330
1F
100
AcDbEntity
  8
0
  6
Continuous
 62
     7
370
    25
100
AcDbSpline
210
0.0
220
0.0
230
1.0
 70
     8
 71
     3
 72
    10
 73
     6
 74
     0
 42
0.00000001
 43
0.00000001
 40
0.0
 40
0.0
 40
0.0
 40
0.0
 40
0.5
 40
0.5
 40
1.0
 40
1.0
 40
1.0
 40
1.0
 10
124.6946754682633
 20
134.8280455729848
 30
0.0
 10
124.2191262643813
 20
135.4169940610642
 30
0.0
 10
123.7967903772402
 20
136.0347912331416
 30
0.0
 10
123.0537683362523
 20
137.3239676436848
 30
0.0
 10
122.7332799827652
 20
137.9964647400871
 30
0.0
 10
122.4688229052479
 20
138.6827214872595
 30
0.0
  0
SPLINE
  5
23B
330
1F
100
AcDbEntity
  8
0
  6
Continuous
 62
     7
370
    25
100
AcDbSpline
210
0.0
220
0.0
230
1.0
 70
     8
 71
     3
 72
    18
 73
    14
 74
     0
 42
0.00000001
 43
0.00000001
 40
0.0
 40
0.0
 40
0.0
 40
0.0
 40
0.125
 40
0.125
 40
0.2500000000000001
 40
0.2500000000000001
 40
0.5000000000000001
 40
0.5000000000000001
 40
0.6250000000000001
 40
0.6250000000000001
 40
0.75
 40
0.75
 40
1.0
 40
1.0
 40
1.0
 40
1.0
 10
122.4688229052479
 20
138.6827214872595
 30
0.0
 10
122.3093158545357
 20
139.0966366329626
 30
0.0
 10
122.1668287660772
 20
139.5210653191041
 30
0.0
 10
121.9181087494124
 20
140.392360381416
 30
0.0
 10
121.8114263451007
 20
140.8417653972466
 30
0.0
 10
121.554354643468
 20
142.207544105901
 30
0.0
 10
121.4668344012203
 20
143.1332597097262
 30
0.0
 10
121.4676290629944
 20
144.5457913809944
 30
0.0
 10
121.4905355042548
 20
145.0228454012025
 30
0.0
 10
121.5800203771688
 20
145.9591354084848
 30
0.0
 10
121.6459786982763
 20
146.4171210303452
 30
0.0
 10
121.9021614351453
 20
147.763179738633
 30
0.0
 10
122.1502245381679
 20
148.6235758395836
 30
0.0
 10
122.4688229052479
 20
149.4503273150943
 30
0.0
  0
SPLINE
  5
23C
330
1F
100
AcDbEntity
  8
0
  6
Continuous
 62
     7
370
    25
100
AcDbSpline
210
0.0
220
0.0
230
1.0
 70
     8
 71
     3
 72
    10
 73
     6
 74
     0
 42
0.00000001
 43
0.00000001
 40
0.0
 40
0.0
 40
0.0
 40
0.0
 40
0.5000000000000002
 40
0.5000000000000002
 40
1.0
 40
1.0
 40
1.0
 40
1.0
 10
122.4688229052479
 20
149.4503273150943
 30
0.0
 10
122.7340620353136
 20
150.1386134609237
 30
0.0
 10
123.0544494059899
 20
150.8102329622905
 30
0.0
 10
123.7958209069735
 20
152.096605366176
 30
0.0
 10
124.2176349883431
 20
152.7142078561285
 30
0.0
 10
124.6946754682633
 20
153.3050032293689
 30
0.0
  0
SPLINE
  5
23D
330
1F
100
AcDbEntity
  8
0
  6
Continuous
 62
     7
370
    25
100
AcDbSpline
210
0.0
220
0.0
230
1.0
 70
     8
 71
     3
 72
    20
 73
    16
 74
     0
 42
0.00000001
 43
0.00000001
 40
0.0
 40
0.0
 40
0.0
 40
0.0
 40
0.2499999999999991
 40
0.2499999999999991
 40
0.3749999999999992
 40
0.3749999999999992
 40
0.4999999999999993
 40
0.4999999999999993
 40
0.6249999999999994
 40
0.6249999999999994
 40
0.7499999999999996
 40
0.7499999999999996
 40
0.8749999999999998
 40
0.8749999999999998
 40
1.0
 40
1.0
 40
1.0
 40
1.0
 10
124.6946754682633
 20
153.3050032293689
 30
0.0
 10
125.3702529421071
 20
154.1416786533898
 30
0.0
 10
126.123517334631
 20
154.8873730711448
 30
0.0
 10
127.3607219128704
 20
155.8747892659637
 30
0.0
 10
127.7911682419353
 20
156.1819003709895
 30
0.0
 10
128.6882585449955
 20
156.7508516324446
 30
0.0
 10
129.149381265614
 20
157.0091024809278
 30
0.0
 10
130.0916582762761
 20
157.4726712493346
 30
0.0
 10
130.5733805905377
 20
157.6783272110927
 30
0.0
 10
131.556284084731
 20
158.0374842774908
 30
0.0
 10
132.0590336675515
 20
158.1911384382147
 30
0.0
 10
133.0640562616702
 20
158.4416607117983
 30
0.0
 10
133.568284380122
 20
158.5392815116706
 30
0.0
 10
134.5716236273195
 20
158.6819257434402
 30
0.0
 10
135.0718639660252
 20
158.7266479988124
 30
0.0
 10
135.5558610667622
 20
158.7481889184196
 30
0.0
  0
SPLINE
  5
23E
330
1F
100
AcDbEntity
  8
0
  6
Continuous
 62
     7
370
    25
100
AcDbSpline
210
0.0
220
0.0
230
1.0
 70
     8
 71
     3
 72
    10
 73
     6
 74
     0
 42
0.00000001
 43
0.00000001
 40
0.0
 40
0.0
 40
0.0
 40
0.0
 40
0.5
 40
0.5
 40
1.0
 40
1.0
 40
1.0
 40
1.0
 10
136.2663897674267
 20
158.7481889184196
 30
0.0
 10
136.1578774072327
 20
158.7530184019512
 30
0.0
 10
136.036627228742
 20
158.7561448539545
 30
0.0
 10
135.7846893271519
 20
158.7561299486247
 30
0.0
 10
135.6644005728863
 20
158.7530196101161
 30
0.0
 10
135.5558610667621
 20
158.7481889184196
 30
0.0
  0
SPLINE
  5
23F
330
1F
100
AcDbEntity
  8
0
  6
Continuous
 62
     7
370
    25
100
AcDbSpline
210
0.0
220
0.0
230
1.0
 70
     8
 71
     3
 72
    20
 73
    16
 74
     0
 42
0.00000001
 43
0.00000001
 40
0.0
 40
0.0
 40
0.0
 40
0.0
 40
0.2499999999999991
 40
0.2499999999999991
 40
0.3749999999999992
 40
0.3749999999999992
 40
0.4999999999999993
 40
0.4999999999999993
 40
0.6249999999999994
 40
0.6249999999999994
 40
0.7499999999999996
 40
0.7499999999999996
 40
0.8749999999999998
 40
0.8749999999999998
 40
1.0
 40
1.0
 40
1.0
 40
1.0
 10
147.1275753659255
 20
153.3050032293689
 30
0.0
 10
146.4519978920817
 20
154.1416786533898
 30
0.0
 10
145.6987334995578
 20
154.8873730711448
 30
0.0
 10
144.4615289213184
 20
155.8747892659637
 30
0.0
 10
144.0310825922535
 20
156.1819003709895
 30
0.0
 10
143.1339922891933
 20
156.7508516324446
 30
0.0
 10
142.6728695685748
 20
157.0091024809278
 30
0.0
 10
141.7305925579127
 20
157.4726712493346
 30
0.0
 10
141.2488702436511
 20
157.6783272110927
 30
0.0
 10
140.2659667494578
 20
158.0374842774908
 30
0.0
 10
139.7632171666374
 20
158.1911384382147
 30
0.0
 10
138.7581945725186
 20
158.4416607117983
 30
0.0
 10
138.2539664540669
 20
158.5392815116706
 30
0.0
 10
137.2506272068693
 20
158.6819257434402
 30
0.0
 10
136.7503868681636
 20
158.7266479988124
 30
0.0
 10
136.2663897674267
 20
158.7481889184196
 30
0.0
  0
SPLINE
  5
240
330
1F
100
AcDbEntity
  8
0
  6
Continuous
 62
     7
370
    25
100
AcDbSpline
210
0.0
220
0.0
230
1.0
 70
     8
 71
     3
 72
    10
 73
     6
 74
     0
 42
0.00000001
 43
0.00000001
 40
0.0
 40
0.0
 40
0.0
 40
0.0
 40
0.5000000000000002
 40
0.5000000000000002
 40
1.0
 40
1.0
 40
1.0
 40
1.0
 10
149.3534279289409
 20
149.4503273150943
 30
0.0
 10
149.0881887988752
 20
150.1386134609237
 30
0.0
 10
148.767801428199
 20
150.8102329622905
 30
0.0
 10
148.0264299272153
 20
152.096605366176
 30
0.0
 10
147.6046158458457
 20
152.7142078561285
 30
0.0
 10
147.1275753659255
 20
153.3050032293689
 30
0.0
  0
SPLINE
  5
241
330
1F
100
AcDbEntity
  8
0
  6
Continuous
 62
     7
370
    25
100
AcDbSpline
210
0.0
220
0.0
230
1.0
 70
     8
 71
     3
 72
    18
 73
    14
 74
     0
 42
0.00000001
 43
0.00000001
 40
0.0
 40
0.0
 40
0.0
 40
0.0
 40
0.125
 40
0.125
 40
0.2500000000000001
 40
0.2500000000000001
 40
0.5000000000000001
 40
0.5000000000000001
 40
0.6250000000000001
 40
0.6250000000000001
 40
0.75
 40
0.75
 40
1.0
 40
1.0
 40
1.0
 40
1.0
 10
149.3534279289409
 20
138.6827214872595
 30
0.0
 10
149.5129349796532
 20
139.0966366329626
 30
0.0
 10
149.6554220681116
 20
139.5210653191041
 30
0.0
 10
149.9041420847765
 20
140.392360381416
 30
0.0
 10
150.0108244890882
 20
140.8417653972466
 30
0.0
 10
150.2678961907208
 20
142.207544105901
 30
0.0
 10
150.3554164329685
 20
143.1332597097262
 30
0.0
 10
150.3546217711944
 20
144.5457913809944
 30
0.0
 10
150.331715329934
 20
145.0228454012025
 30
0.0
 10
150.24223045702
 20
145.9591354084848
 30
0.0
 10
150.1762721359125
 20
146.4171210303452
 30
0.0
 10
149.9200893990435
 20
147.763179738633
 30
0.0
 10
149.6720262960209
 20
148.6235758395836
 30
0.0
 10
149.3534279289409
 20
149.4503273150943
 30
0.0
  0
SPLINE
  5
242
330
1F
100
AcDbEntity
  8
0
  6
Continuous
 62
     7
370
    25
100
AcDbSpline
210
0.0
220
0.0
230
1.0
 70
     8
 71
     3
 72
    10
 73
     6
 74
     0
 42
0.00000001
 43
0.00000001
 40
0.0
 40
0.0
 40
0.0
 40
0.0
 40
0.5
 40
0.5
 40
1.0
 40
1.0
 40
1.0
 40
1.0
 10
147.1275753659255
 20
134.8280455729848
 30
0.0
 10
147.6031245698075
 20
135.4169940610642
 30
0.0
 10
148.0254604569487
 20
136.0347912331416
 30
0.0
 10
148.7684824979366
 20
137.3239676436848
 30
0.0
 10
149.0889708514236
 20
137.9964647400871
 30
0.0
 10
149.3534279289409
 20
138.6827214872595
 30
0.0
  0
LWPOLYLINE
  5
243
330
1F
100
AcDbEntity
  8
0
  6
Continuous
 62
     7
370
    25
100
AcDbPolyline
 90
        9
 70
   128
 43
0.0
 10
149.3534279289
 20
149.4503273151
 10
149.5601579
 20
149.2473492491
 10
149.9027273338
 20
149.1030561671
 10
150.3760060605
 20
149.019608939
 10
150.9729064652
 20
148.998257234
 10
151.6844896287
 20
149.0393208059
 10
152.5000991933
 20
149.1421847047
 10
153.4075209472
 20
149.3053084855
 10
154.3931657397
 20
149.5262492782
  0
SPLINE
  5
244
330
1F
100
AcDbEntity
  8
0
  6
Continuous
 62
     7
370
    25
100
AcDbSpline
210
0.0
220
0.0
230
1.0
 70
     8
 71
     3
 72
    22
 73
    18
 74
     0
 42
0.00000001
 43
0.00000001
 40
0.0
 40
0.0
 40
0.0
 40
0.0
 40
0.2500000000000001
 40
0.2500000000000001
 40
0.3750000000000001
 40
0.3750000000000001
 40
0.4375000000000001
 40
0.4375000000000001
 40
0.5000000000000001
 40
0.5000000000000001
 40
0.6250000000000001
 40
0.6250000000000001
 40
0.7500000000000002
 40
0.7500000000000002
 40
0.8750000000000002
 40
0.8750000000000002
 40
1.0
 40
1.0
 40
1.0
 40
1.0
 10
154.3931657397087
 20
149.5262492781644
 30
0.0
 10
154.840499031057
 20
148.6885687025972
 30
0.0
 10
155.188591173702
 20
147.8164650568749
 30
0.0
 10
155.5480980163004
 20
146.4518892120046
 30
0.0
 10
155.640662287413
 20
145.9875696423147
 30
0.0
 10
155.7348903299683
 20
145.2756107258349
 30
0.0
 10
155.7587297139725
 20
145.0359356841494
 30
0.0
 10
155.7904969714486
 20
144.5594582675108
 30
0.0
 10
155.7985746403058
 20
144.3216542115723
 30
0.0
 10
155.7997261219493
 20
143.6095272758687
 30
0.0
 10
155.7697696333915
 20
143.1364867784195
 30
0.0
 10
155.6489231090375
 20
142.1937986692772
 30
0.0
 10
155.5573865736202
 20
141.7220305456889
 30
0.0
 10
155.3159355776038
 20
140.7947042851231
 30
0.0
 10
155.1664795703281
 20
140.3401440224417
 30
0.0
 10
154.8172826013995
 20
139.4566309463854
 30
0.0
 10
154.617201490091
 20
139.0263310009596
 30
0.0
 10
154.3931657397087
 20
138.6067995241894
 30
0.0
  0
LWPOLYLINE
  5
245
330
1F
100
AcDbEntity
  8
0
  6
Continuous
 62
     7
370
    25
100
AcDbPolyline
 90
        9
 70
   128
 43
0.0
 10
149.3534279289
 20
138.6827214873
 10
149.5601579
 20
138.8856995533
 10
149.9027273338
 20
139.0299926353
 10
150.3760060605
 20
139.1134398634
 10
150.9729064652
 20
139.1347915683
 10
151.6844896287
 20
139.0937279964
 10
152.5000991933
 20
138.9908640977
 10
153.4075209472
 20
138.8277403168
 10
154.3931657397
 20
138.6067995242
  0
SPLINE
  5
246
330
1F
100
AcDbEntity
  8
0
  6
Continuous
 62
     7
370
    25
100
AcDbSpline
210
0.0
220
0.0
230
1.0
 70
     8
 71
     3
 72
    22
 73
    18
 74
     0
 42
0.00000001
 43
0.00000001
 40
0.0
 40
0.0
 40
0.0
 40
0.0
 40
0.2500000000000001
 40
0.2500000000000001
 40
0.3750000000000001
 40
0.3750000000000001
 40
0.4375000000000001
 40
0.4375000000000001
 40
0.5000000000000001
 40
0.5000000000000001
 40
0.6250000000000001
 40
0.6250000000000001
 40
0.7500000000000002
 40
0.7500000000000002
 40
0.8750000000000002
 40
0.8750000000000002
 40
1.0
 40
1.0
 40
1.0
 40
1.0
 10
117.4290850944801
 20
149.5262492781644
 30
0.0
 10
116.9817518031318
 20
148.6885687025972
 30
0.0
 10
116.6336596604868
 20
147.8164650568749
 30
0.0
 10
116.2741528178884
 20
146.4518892120046
 30
0.0
 10
116.1815885467759
 20
145.9875696423147
 30
0.0
 10
116.0873605042205
 20
145.2756107258349
 30
0.0
 10
116.0635211202163
 20
145.0359356841494
 30
0.0
 10
116.0317538627402
 20
144.5594582675108
 30
0.0
 10
116.023676193883
 20
144.3216542115723
 30
0.0
 10
116.0225247122395
 20
143.6095272758687
 30
0.0
 10
116.0524812007973
 20
143.1364867784195
 30
0.0
 10
116.1733277251513
 20
142.1937986692772
 30
0.0
 10
116.2648642605686
 20
141.7220305456889
 30
0.0
 10
116.506315256585
 20
140.7947042851231
 30
0.0
 10
116.6557712638607
 20
140.3401440224417
 30
0.0
 10
117.0049682327893
 20
139.4566309463854
 30
0.0
 10
117.2050493440979
 20
139.0263310009596
 30
0.0
 10
117.4290850944801
 20
138.6067995241894
 30
0.0
  0
LWPOLYLINE
  5
247
330
1F
100
AcDbEntity
  8
0
  6
Continuous
 62
     7
370
    25
100
AcDbPolyline
 90
        9
 70
   128
 43
0.0
 10
122.4688229052
 20
149.4503273151
 10
122.2620929342
 20
149.2473492491
 10
121.9195235004
 20
149.1030561671
 10
121.4462447737
 20
149.019608939
 10
120.849344369
 20
148.998257234
 10
120.1377612055
 20
149.0393208059
 10
119.3221516409
 20
149.1421847047
 10
118.414729887
 20
149.3053084855
 10
117.4290850945
 20
149.5262492782
  0
LWPOLYLINE
  5
248
330
1F
100
AcDbEntity
  8
0
  6
Continuous
 62
     7
370
    25
100
AcDbPolyline
 90
        9
 70
   128
 43
0.0
 10
122.4688229052
 20
138.6827214873
 10
122.2620929342
 20
138.8856995533
 10
121.9195235004
 20
139.0299926353
 10
121.4462447737
 20
139.1134398634
 10
120.849344369
 20
139.1347915683
 10
120.1377612055
 20
139.0937279964
 10
119.3221516409
 20
138.9908640977
 10
118.414729887
 20
138.8277403168
 10
117.4290850945
 20
138.6067995242
  0
SPLINE
  5
249
330
1F
100
AcDbEntity
  8
0
  6
Continuous
 62
     7
370
    25
100
AcDbSpline
210
0.0
220
0.0
230
1.0
 70
     8
 71
     3
 72
    14
 73
    10
 74
     0
 42
0.00000001
 43
0.00000001
 40
0.0
 40
0.0
 40
0.0
 40
0.0
 40
0.2500000000000001
 40
0.2500000000000001
 40
0.5000000000000002
 40
0.5000000000000002
 40
0.7500000000000001
 40
0.7500000000000001
 40
1.0
 40
1.0
 40
1.0
 40
1.0
 10
123.5244342687963
 20
153.4218765049366
 30
0.0
 10
123.0413498188944
 20
153.0384789721966
 30
0.0
 10
122.5638708083016
 20
152.6557522806981
 30
0.0
 10
121.6029754941706
 20
151.9168651128289
 30
0.0
 10
121.1193529745963
 20
151.5609724322225
 30
0.0
 10
120.1260864022608
 20
150.8947827787877
 30
0.0
 10
119.6162831343828
 20
150.5845476583208
 30
0.0
 10
118.5540282272089
 20
150.0161841010363
 30
0.0
 10
118.0011128070271
 20
149.7579560625261
 30
0.0
 10
117.4290850944801
 20
149.5262492781644
 30
0.0
  0
ARC
  5
24A
330
1F
100
AcDbEntity
  8
0
  6
Continuous
 62
     7
370
    25
100
AcDbCircle
 10
124.2373019332
 20
154.6425593023
 30
0.0
 40
1.413593576233975
100
AcDbArc
 50
239.7154597792
 51
288.8779787662
  0
ARC
  5
24B
330
1F
100
AcDbEntity
  8
0
  6
Continuous
 62
     7
370
    25
100
AcDbCircle
 10
147.584948901
 20
154.6425593023
 30
0.0
 40
1.413593576233961
100
AcDbArc
 50
251.1220212338
 51
300.2845402208
  0
SPLINE
  5
24C
330
1F
100
AcDbEntity
  8
0
  6
Continuous
 62
     7
370
    25
100
AcDbSpline
210
0.0
220
0.0
230
1.0
 70
     8
 71
     3
 72
    14
 73
    10
 74
     0
 42
0.00000001
 43
0.00000001
 40
0.0
 40
0.0
 40
0.0
 40
0.0
 40
0.2500000000000001
 40
0.2500000000000001
 40
0.5000000000000002
 40
0.5000000000000002
 40
0.7500000000000001
 40
0.7500000000000001
 40
1.0
 40
1.0
 40
1.0
 40
1.0
 10
148.2978165653925
 20
153.4218765049366
 30
0.0
 10
148.7809010152944
 20
153.0384789721966
 30
0.0
 10
149.2583800258872
 20
152.6557522806981
 30
0.0
 10
150.2192753400182
 20
151.9168651128289
 30
0.0
 10
150.7028978595925
 20
151.5609724322225
 30
0.0
 10
151.696164431928
 20
150.8947827787877
 30
0.0
 10
152.2059676998061
 20
150.5845476583208
 30
0.0
 10
153.2682226069799
 20
150.0161841010363
 30
0.0
 10
153.8211380271617
 20
149.7579560625261
 30
0.0
 10
154.3931657397087
 20
149.5262492781644
 30
0.0
  0
SPLINE
  5
24D
330
1F
100
AcDbEntity
  8
0
  6
Continuous
 62
     7
370
    25
100
AcDbSpline
210
0.0
220
0.0
230
1.0
 70
     8
 71
     3
 72
    14
 73
    10
 74
     0
 42
0.00000001
 43
0.00000001
 40
0.0
 40
0.0
 40
0.0
 40
0.0
 40
0.25
 40
0.25
 40
0.5
 40
0.5
 40
0.75
 40
0.75
 40
1.0
 40
1.0
 40
1.0
 40
1.0
 10
117.4290850944801
 20
138.6067995241894
 30
0.0
 10
117.9995031630431
 20
138.3757447457066
 30
0.0
 10
118.5474475915696
 20
138.1200238149755
 30
0.0
 10
119.607283619752
 20
137.5536729678674
 30
0.0
 10
120.1202280650968
 20
137.2420268883002
 30
0.0
 10
121.1171917340053
 20
136.5736929340501
 30
0.0
 10
121.6017763321681
 20
136.2170911396138
 30
0.0
 10
122.5637171516893
 20
135.477429310304
 30
0.0
 10
123.0412789330198
 20
135.0946260883734
 30
0.0
 10
123.5244342687963
 20
134.7111722974172
 30
0.0
  0
ARC
  5
24E
330
1F
100
AcDbEntity
  8
0
  6
Continuous
 62
     7
370
    25
100
AcDbCircle
 10
124.2373019332
 20
133.4904895001
 30
0.0
 40
1.413593576234087
100
AcDbArc
 50
71.1220212338
 51
120.2845402208
  0
SPLINE
  5
24F
330
1F
100
AcDbEntity
  8
0
  6
Continuous
 62
     7
370
    25
100
AcDbSpline
210
0.0
220
0.0
230
1.0
 70
     8
 71
     3
 72
    14
 73
    10
 74
     0
 42
0.00000001
 43
0.00000001
 40
0.0
 40
0.0
 40
0.0
 40
0.0
 40
0.25
 40
0.25
 40
0.5
 40
0.5
 40
0.75
 40
0.75
 40
1.0
 40
1.0
 40
1.0
 40
1.0
 10
154.3931657397087
 20
138.6067995241894
 30
0.0
 10
153.8227476711457
 20
138.3757447457066
 30
0.0
 10
153.2748032426192
 20
138.1200238149755
 30
0.0
 10
152.2149672144368
 20
137.5536729678674
 30
0.0
 10
151.702022769092
 20
137.2420268883002
 30
0.0
 10
150.7050591001835
 20
136.5736929340501
 30
0.0
 10
150.2204745020207
 20
136.2170911396138
 30
0.0
 10
149.2585336824995
 20
135.477429310304
 30
0.0
 10
148.7809719011691
 20
135.0946260883734
 30
0.0
 10
148.2978165653925
 20
134.7111722974172
 30
0.0
  0
ARC
  5
250
330
1F
100
AcDbEntity
  8
0
  6
Continuous
 62
     7
370
    25
100
AcDbCircle
 10
147.584948901
 20
133.4904895001
 30
0.0
 40
1.413593576234033
100
AcDbArc
 50
59.7154597792
 51
108.8779787662
  0
SPLINE
  5
251
330
1F
100
AcDbEntity
  8
0
  6
Continuous
 62
     7
370
    25
100
AcDbSpline
210
0.0
220
0.0
230
1.0
 70
     8
 71
     3
 72
    22
 73
    18
 74
     0
 42
0.00000001
 43
0.00000001
 40
0.0
 40
0.0
 40
0.0
 40
0.0
 40
0.0625
 40
0.0625
 40
0.1249999999999999
 40
0.1249999999999999
 40
0.2499999999999999
 40
0.2499999999999999
 40
0.3749999999999999
 40
0.3749999999999999
 40
0.5
 40
0.5
 40
0.6249999999999999
 40
0.6249999999999999
 40
0.7499999999999999
 40
0.7499999999999999
 40
1.0
 40
1.0
 40
1.0
 40
1.0
 10
135.3141009913643
 20
158.7937312190718
 30
0.0
 10
135.0448823562226
 20
158.7849410059818
 30
0.0
 10
134.7743098114114
 20
158.7697304476289
 30
0.0
 10
134.2331918337323
 20
158.7257891120695
 30
0.0
 10
133.9625793249292
 20
158.6970811347248
 30
0.0
 10
133.152175667762
 20
158.5904487136562
 30
0.0
 10
132.6138690223943
 20
158.4920441764494
 30
0.0
 10
131.5442664715589
 20
158.2397905991849
 30
0.0
 10
131.0122530995929
 20
158.0857558264719
 30
0.0
 10
129.9588046049188
 20
157.7215743694275
 30
0.0
 10
129.4443354656171
 20
157.5139220725659
 30
0.0
 10
128.4390002589829
 20
157.0495977948767
 30
0.0
 10
127.9481384830761
 20
156.7929114945485
 30
0.0
 10
126.9893938563343
 20
156.231629694393
 30
0.0
 10
126.5199223696904
 20
155.9258227967363
 30
0.0
 10
125.1572488284817
 20
154.9464773802898
 30
0.0
 10
124.3152201185754
 20
154.2146019967528
 30
0.0
 10
123.5244342687944
 20
153.421876504938
 30
0.0
  0
ARC
  5
252
330
1F
100
AcDbEntity
  8
0
  6
Continuous
 62
     7
370
    25
100
AcDbCircle
 10
135.6455723789
 20
159.8888785727
 30
0.0
 40
1.144211958953161
100
AcDbArc
 50
253.1603603342
 51
265.5031405033
  0
ARC
  5
253
330
1F
100
AcDbEntity
  8
0
  6
Continuous
 62
     7
370
    25
100
AcDbCircle
 10
136.1766784553
 20
159.8888785727
 30
0.0
 40
1.144211958953161
100
AcDbArc
 50
274.4968594967
 51
286.8396396658
  0
SPLINE
  5
254
330
1F
100
AcDbEntity
  8
0
  6
Continuous
 62
     7
370
    25
100
AcDbSpline
210
0.0
220
0.0
230
1.0
 70
     8
 71
     3
 72
    22
 73
    18
 74
     0
 42
0.00000001
 43
0.00000001
 40
0.0
 40
0.0
 40
0.0
 40
0.0
 40
0.0625
 40
0.0625
 40
0.1249999999999999
 40
0.1249999999999999
 40
0.2499999999999999
 40
0.2499999999999999
 40
0.3749999999999999
 40
0.3749999999999999
 40
0.5
 40
0.5
 40
0.6249999999999999
 40
0.6249999999999999
 40
0.7499999999999999
 40
0.7499999999999999
 40
1.0
 40
1.0
 40
1.0
 40
1.0
 10
136.5081498428245
 20
158.7937312190718
 30
0.0
 10
136.7773684779662
 20
158.7849410059818
 30
0.0
 10
137.0479410227774
 20
158.7697304476289
 30
0.0
 10
137.5890590004565
 20
158.7257891120695
 30
0.0
 10
137.8596715092596
 20
158.6970811347248
 30
0.0
 10
138.6700751664268
 20
158.5904487136562
 30
0.0
 10
139.2083818117945
 20
158.4920441764494
 30
0.0
 10
140.2779843626299
 20
158.2397905991849
 30
0.0
 10
140.809997734596
 20
158.0857558264719
 30
0.0
 10
141.86344622927
 20
157.7215743694275
 30
0.0
 10
142.3779153685717
 20
157.5139220725659
 30
0.0
 10
143.3832505752059
 20
157.0495977948767
 30
0.0
 10
143.8741123511127
 20
156.7929114945485
 30
0.0
 10
144.8328569778545
 20
156.231629694393
 30
0.0
 10
145.3023284644984
 20
155.9258227967363
 30
0.0
 10
146.6650020057071
 20
154.9464773802898
 30
0.0
 10
147.5070307156134
 20
154.2146019967528
 30
0.0
 10
148.2978165653944
 20
153.421876504938
 30
0.0
  0
ARC
  5
255
330
1F
100
AcDbEntity
  8
0
  6
Continuous
 62
     7
370
    25
100
AcDbCircle
 10
138.1474679574
 20
147.1278060537
 30
0.0
 40
11.94340402517801
100
AcDbArc
 50
31.8023960484
 51
88.3950039333
  0
SPLINE
  5
256
330
1F
100
AcDbEntity
  8
0
  6
Continuous
 62
     7
370
    25
100
AcDbSpline
210
0.0
220
0.0
230
1.0
 70
     8
 71
     3
 72
     8
 73
     4
 74
     0
 42
0.00000001
 43
0.00000001
 40
0.0
 40
0.0
 40
0.0
 40
0.0
 40
1.0
 40
1.0
 40
1.0
 40
1.0
 10
138.4819884011612
 20
159.0665244011769
 30
0.0
 10
137.7034065360619
 20
159.0665244011769
 30
0.0
 10
137.0511190943583
 20
158.9796467340518
 30
0.0
 10
136.5081498428245
 20
158.7937312190718
 30
0.0
  0
ARC
  5
257
330
1F
100
AcDbEntity
  8
0
  6
Continuous
 62
     7
370
    25
100
AcDbCircle
 10
133.6747828767
 20
147.1278060537
 30
0.0
 40
11.94340402517792
100
AcDbArc
 50
91.6049960667
 51
148.1976039516
  0
SPLINE
  5
258
330
1F
100
AcDbEntity
  8
0
  6
Continuous
 62
     7
370
    25
100
AcDbSpline
210
0.0
220
0.0
230
1.0
 70
     8
 71
     3
 72
     8
 73
     4
 74
     0
 42
0.00000001
 43
0.00000001
 40
0.0
 40
0.0
 40
0.0
 40
0.0
 40
1.0
 40
1.0
 40
1.0
 40
1.0
 10
133.3402624330276
 20
159.0665244011769
 30
0.0
 10
134.1188442981269
 20
159.0665244011769
 30
0.0
 10
134.7711317398305
 20
158.9796467340518
 30
0.0
 10
135.3141009913643
 20
158.7937312190718
 30
0.0
  0
LWPOLYLINE
  5
259
330
1F
100
AcDbEntity
  8
0
  6
Continuous
 62
     7
370
    25
100
AcDbPolyline
 90
        9
 70
   128
 43
0.0
 10
123.7856866085
 20
159.0665244012
 10
122.7672808857
 20
158.898578574
 10
121.7716800951
 20
158.3985018659
 10
120.8211785031
 20
157.577492383
 10
119.93706048
 20
156.4539348076
 10
119.1391238833
 20
155.0529887139
 10
118.4452367294
 20
153.4060251753
 10
117.8709370784
 20
151.5499242789
 10
117.4290850945
 20
149.5262492782
  0
LINE
  5
25A
330
1F
100
AcDbEntity
  8
0
  6
Continuous
 62
     7
370
    25
100
AcDbLine
 10
123.7856866085
 20
159.0665244012
 30
0.0
 11
133.340262433
 21
159.0665244012
 31
0.0
  0
LINE
  5
25B
330
1F
100
AcDbEntity
  8
0
  6
Continuous
 62
     7
370
    25
100
AcDbLine
 10
123.7856866085
 20
129.0665244012
 30
0.0
 11
127.3111254171
 21
129.0665244012
 31
0.0
  0
LWPOLYLINE
  5
25C
330
1F
100
AcDbEntity
  8
0
  6
Continuous
 62
     7
370
    25
100
AcDbPolyline
 90
        9
 70
   128
 43
0.0
 10
117.4290850945
 20
138.6067995242
 10
117.8709370784
 20
136.5831245235
 10
118.4452367294
 20
134.7270236271
 10
119.1391238833
 20
133.0800600885
 10
119.93706048
 20
131.6791139947
 10
120.8211785031
 20
130.5555564194
 10
121.7716800951
 20
129.7345469365
 10
122.7672808857
 20
129.2344702284
 10
123.7856866085
 20
129.0665244012
  0
LINE
  5
25D
330
1F
100
AcDbEntity
  8
0
  6
Continuous
 62
     7
370
    25
100
AcDbLine
 10
148.0365642257
 20
159.0665244012
 30
0.0
 11
138.4819884012
 21
159.0665244012
 31
0.0
  0
LWPOLYLINE
  5
25E
330
1F
100
AcDbEntity
  8
0
  6
Continuous
 62
     7
370
    25
100
AcDbPolyline
 90
        9
 70
   128
 43
0.0
 10
148.0365642257
 20
159.0665244012
 10
149.0549699485
 20
158.898578574
 10
150.0505707391
 20
158.3985018659
 10
151.0010723311
 20
157.577492383
 10
151.8851903542
 20
156.4539348076
 10
152.6831269509
 20
155.0529887139
 10
153.3770141048
 20
153.4060251753
 10
153.9513137558
 20
151.5499242789
 10
154.3931657397
 20
149.5262492782
  0
LINE
  5
25F
330
1F
100
AcDbEntity
  8
0
  6
Continuous
 62
     7
370
    25
100
AcDbLine
 10
148.0365642257
 20
129.0665244012
 30
0.0
 11
144.5111254171
 21
129.0665244012
 31
0.0
  0
LWPOLYLINE
  5
260
330
1F
100
AcDbEntity
  8
0
  6
Continuous
 62
     7
370
    25
100
AcDbPolyline
 90
        9
 70
   128
 43
0.0
 10
154.3931657397
 20
138.6067995242
 10
153.9513137558
 20
136.5831245235
 10
153.3770141048
 20
134.7270236271
 10
152.6831269509
 20
133.0800600885
 10
151.8851903542
 20
131.6791139947
 10
151.0010723311
 20
130.5555564194
 10
150.0505707391
 20
129.7345469365
 10
149.0549699485
 20
129.2344702284
 10
148.0365642257
 20
129.0665244012
  0
SPLINE
  5
261
330
1F
100
AcDbEntity
  8
0
  6
Continuous
 62
     7
370
    25
100
AcDbSpline
210
0.0
220
0.0
230
1.0
 70
     8
 71
     3
 72
    10
 73
     6
 74
     0
 42
0.00000001
 43
0.00000001
 40
0.0
 40
0.0
 40
0.0
 40
0.0
 40
0.5
 40
0.5
 40
1.0
 40
1.0
 40
1.0
 40
1.0
 10
135.3141009913643
 20
158.7937312190718
 30
0.0
 10
135.5090981959382
 20
158.7996266586697
 30
0.0
 10
135.7078076486902
 20
158.8027913392861
 30
0.0
 10
136.1142892568967
 20
158.8027929363024
 30
0.0
 10
136.3131464742086
 20
158.79962684503
 30
0.0
 10
136.5081498428245
 20
158.7937312190718
 30
0.0
  0
LINE
  5
262
330
1F
100
AcDbEntity
  8
0
  6
Continuous
 62
     7
370
    25
100
AcDbLine
 10
138.4819884012
 20
159.0665244012
 30
0.0
 11
133.340262433
 21
159.0665244012
 31
0.0
  0
LINE
  5
263
330
1F
100
AcDbEntity
  8
0
  6
Continuous
 62
     7
370
    25
100
AcDbLine
 10
115.2221564165
 20
129.0665244012
 30
0.0
 11
123.7856866085
 21
129.0665244012
 31
0.0
  0
LWPOLYLINE
  5
264
330
1F
100
AcDbEntity
  8
0
  6
Continuous
 62
     7
370
    25
100
AcDbPolyline
 90
       21
 70
   128
 43
0.0
 10
115.2221564165
 20
159.0665244012
 10
114.1545323794
 20
158.8818495101
 10
113.1131967895
 20
158.3323721456
 10
112.1237907847
 20
157.431622264
 10
111.2106768247
 20
156.2017793168
 10
110.3963388056
 20
154.673126119
 10
109.700828432
 20
152.8833031856
 10
109.1412714777
 20
150.8763818973
 10
108.7314460918
 20
148.7017793168
 10
108.4814435356
 20
146.4130413768
 10
108.3974197016
 20
144.0665244012
 10
108.4814435356
 20
141.7200074256
 10
108.7314460918
 20
139.4312694856
 10
109.1412714777
 20
137.2566669051
 10
109.700828432
 20
135.2497456168
 10
110.3963388056
 20
133.4599226834
 10
111.2106768247
 20
131.9312694856
 10
112.1237907847
 20
130.7014265384
 10
113.1131967895
 20
129.8006766567
 10
114.1545323794
 20
129.2511992922
 10
115.2221564165
 20
129.0665244012
  0
LINE
  5
265
330
1F
100
AcDbEntity
  8
0
  6
Continuous
 62
     7
370
    25
100
AcDbLine
 10
115.2221564165
 20
159.0665244012
 30
0.0
 11
123.7856866085
 21
159.0665244012
 31
0.0
  0
LINE
  5
266
330
1F
100
AcDbEntity
  8
0
  6
Continuous
 62
     7
370
    25
100
AcDbLine
 10
156.6000944177
 20
159.0665244012
 30
0.0
 11
148.0365642257
 21
159.0665244012
 31
0.0
  0
LWPOLYLINE
  5
267
330
1F
100
AcDbEntity
  8
0
  6
Continuous
 62
     7
370
    25
100
AcDbPolyline
 90
       21
 70
   128
 43
0.0
 10
156.6000944177
 20
159.0665244012
 10
157.6677184547
 20
158.8818495101
 10
158.7090540447
 20
158.3323721456
 10
159.6984600495
 20
157.431622264
 10
160.6115740095
 20
156.2017793168
 10
161.4259120286
 20
154.673126119
 10
162.1214224022
 20
152.8833031856
 10
162.6809793565
 20
150.8763818973
 10
163.0908047424
 20
148.7017793168
 10
163.3408072986
 20
146.4130413768
 10
163.4248311326
 20
144.0665244012
 10
163.3408072986
 20
141.7200074256
 10
163.0908047424
 20
139.4312694856
 10
162.6809793565
 20
137.2566669051
 10
162.1214224022
 20
135.2497456168
 10
161.4259120286
 20
133.4599226834
 10
160.6115740095
 20
131.9312694856
 10
159.6984600495
 20
130.7014265384
 10
158.7090540447
 20
129.8006766567
 10
157.6677184547
 20
129.2511992922
 10
156.6000944177
 20
129.0665244012
  0
LINE
  5
268
330
1F
100
AcDbEntity
  8
0
  6
Continuous
 62
     7
370
    25
100
AcDbLine
 10
156.6000944177
 20
129.0665244012
 30
0.0
 11
148.0365642257
 21
129.0665244012
 31
0.0
  0
LINE
  5
269
330
1F
100
AcDbEntity
  8
0
  6
Continuous
 62
     7
370
    25
100
AcDbLine
 10
172.5244800857
 20
159.0665244012
 30
0.0
 11
156.6000944177
 21
159.0665244012
 31
0.0
  0
LINE
  5
26A
330
1F
100
AcDbEntity
  8
0
  6
Continuous
 62
     7
370
    25
100
AcDbLine
 10
172.5244800857
 20
159.0665244012
 30
0.0
 11
172.5244800857
 21
129.0665244012
 31
0.0
  0
LINE
  5
26B
330
1F
100
AcDbEntity
  8
0
  6
Continuous
 62
     7
370
    25
100
AcDbLine
 10
172.5244800857
 20
129.0665244012
 30
0.0
 11
156.6000944177
 21
129.0665244012
 31
0.0
  0
LINE
  5
26C
330
1F
100
AcDbEntity
  8
0
  6
Continuous
 62
     7
370
    25
100
AcDbLine
 10
99.2977707485
 20
129.0665244012
 30
0.0
 11
115.2221564165
 21
129.0665244012
 31
0.0
  0
LINE
  5
26D
330
1F
100
AcDbEntity
  8
0
  6
Continuous
 62
     7
370
    25
100
AcDbLine
 10
99.2977707485
 20
159.0665244012
 30
0.0
 11
99.2977707485
 21
129.0665244012
 31
0.0
  0
LINE
  5
26E
330
1F
100
AcDbEntity
  8
0
  6
Continuous
 62
     7
370
    25
100
AcDbLine
 10
99.2977707485
 20
159.0665244012
 30
0.0
 11
115.2221564165
 21
159.0665244012
 31
0.0
  0
LINE
  5
26F
330
1F
100
AcDbEntity
  8
0
  6
Continuous
 62
     7
370
    25
100
AcDbLine
 10
94.7111254171
 20
159.0665244012
 30
0.0
 11
99.2977707485
 21
159.0665244012
 31
0.0
  0
LINE
  5
270
330
1F
100
AcDbEntity
  8
0
  6
Continuous
 62
     7
370
    25
100
AcDbLine
 10
94.7111254171
 20
129.0665244012
 30
0.0
 11
99.2977707485
 21
129.0665244012
 31
0.0
  0
LINE
  5
271
330
1F
100
AcDbEntity
  8
0
  6
Continuous
 62
     7
370
    25
100
AcDbLine
 10
94.7111254171
 20
129.0665244012
 30
0.0
 11
94.7111254171
 21
159.0665244012
 31
0.0
  0
LINE
  5
272
330
1F
100
AcDbEntity
  8
0
  6
Continuous
 62
     7
370
    25
100
AcDbLine
 10
177.1111254171
 20
159.0665244012
 30
0.0
 11
172.5244800857
 21
159.0665244012
 31
0.0
  0
LINE
  5
273
330
1F
100
AcDbEntity
  8
0
  6
Continuous
 62
     7
370
    25
100
AcDbLine
 10
177.1111254171
 20
129.0665244012
 30
0.0
 11
172.5244800857
 21
129.0665244012
 31
0.0
  0
LINE
  5
274
330
1F
100
AcDbEntity
  8
0
  6
Continuous
 62
     7
370
    25
100
AcDbLine
 10
177.1111254171
 20
129.0665244012
 30
0.0
 11
177.1111254171
 21
159.0665244012
 31
0.0
  0
SPLINE
  5
275
330
1F
100
AcDbEntity
  8
0
  6
Continuous
 62
     7
370
    25
100
AcDbSpline
210
0.0
220
0.0
230
1.0
 70
     8
 71
     3
 72
    14
 73
    10
 74
     0
 42
0.00000001
 43
0.00000001
 40
0.0
 40
0.0
 40
0.0
 40
0.0
 40
0.0918965940499276
 40
0.2423760614181666
 40
0.3954689234315532
 40
0.545948390799793
 40
0.6951332188673903
 40
0.8469312509612344
 40
0.9999999999999999
 40
0.9999999999999999
 40
0.9999999999999999
 40
0.9999999999999999
 10
180.0611254170944
 20
141.7876319022968
 30
0.0
 10
180.0485950646613
 20
142.5454752842953
 30
0.0
 10
180.0155464244771
 20
144.5442772638424
 30
0.0
 10
179.9626567174591
 20
147.8664534564853
 30
0.0
 10
179.8971442773654
 20
151.3988144878635
 30
0.0
 10
179.8362987764287
 20
154.4307962121993
 30
0.0
 10
179.7756310489788
 20
156.7378035421854
 30
0.0
 10
179.7102201433211
 20
158.2723510452689
 30
0.0
 10
179.6692139679245
 20
158.4681945171154
 30
0.0
 10
179.6486254211912
 20
158.5665244011768
 30
0.0
  0
SPLINE
  5
276
330
1F
100
AcDbEntity
  8
0
  6
Continuous
 62
     7
370
    25
100
AcDbSpline
210
0.0
220
0.0
230
1.0
 70
     8
 71
     3
 72
    20
 73
    16
 74
     0
 42
0.00000001
 43
0.00000001
 40
0.0
 40
0.0
 40
0.0
 40
0.0
 40
0.0086573631120543
 40
0.0907937671802663
 40
0.1743566438584473
 40
0.2564930479266593
 40
0.3386294519948715
 40
0.4221923286730523
 40
0.5043287327412644
 40
0.5864651368094763
 40
0.6700280134876573
 40
0.7521644175558696
 40
0.8335941669649454
 40
0.9164502849382269
 40
1.0
 40
1.0
 40
1.0
 40
1.0
 10
178.905097726537
 20
129.6180036026831
 30
0.0
 10
178.9029389166921
 20
129.5993703655975
 30
0.0
 10
178.8802984803478
 20
129.403954998601
 30
0.0
 10
178.8376917982678
 20
129.9623620750143
 30
0.0
 10
178.7721336354908
 20
131.347389633672
 30
0.0
 10
178.7111325603324
 20
133.7015665649484
 30
0.0
 10
178.6500884023536
 20
136.7310876416316
 30
0.0
 10
178.5846609844868
 20
140.2710824701897
 30
0.0
 10
178.5236253866779
 20
144.06637616146
 30
0.0
 10
178.4625899971473
 20
147.8625644400247
 30
0.0
 10
178.397161947211
 20
151.399844433894
 30
0.0
 10
178.3362941257371
 20
154.4305251310852
 30
0.0
 10
178.2756323084912
 20
156.7378769570776
 30
0.0
 10
178.2102198230707
 20
158.2723323784071
 30
0.0
 10
178.1692138608782
 20
158.468188277562
 30
0.0
 10
178.1486254211912
 20
158.5665244011768
 30
0.0
  0
LINE
  5
277
330
1F
100
AcDbEntity
  8
0
  6
Continuous
 62
     7
370
    25
100
AcDbLine
 10
177.4050977265
 20
129.6180036027
 30
0.0
 11
177.3986254212
 21
129.5665244012
 31
0.0
  0
SPLINE
  5
278
330
1F
100
AcDbEntity
  8
0
  6
Continuous
 62
     7
370
    25
100
AcDbSpline
210
0.0
220
0.0
230
1.0
 70
     8
 71
     3
 72
    20
 73
    16
 74
     0
 42
0.00000001
 43
0.00000001
 40
0.0
 40
0.0
 40
0.0
 40
0.0
 40
0.0835700848942303
 40
0.1686020731605486
 40
0.2521824120265458
 40
0.3213733646032422
 40
0.3919050975709871
 40
0.462115194406269
 40
0.504650453711282
 40
0.5882307925772794
 40
0.6732627808435979
 40
0.7568431197095947
 40
0.840423458575592
 40
0.9254554468419106
 40
0.9999999999999999
 40
0.9999999999999999
 40
0.9999999999999999
 40
0.9999999999999999
 10
179.3673678856385
 20
130.3784797783196
 30
0.0
 10
179.3471404098814
 20
130.468304965429
 30
0.0
 10
179.3063316162591
 20
130.6495266644119
 30
0.0
 10
179.2409351178028
 20
132.0866074574485
 30
0.0
 10
179.1832740749053
 20
134.1503644218549
 30
0.0
 10
179.1295703892519
 20
136.6368595733254
 30
0.0
 10
179.0758272359707
 20
139.3219582188126
 30
0.0
 10
179.0293339882046
 20
141.8656779010356
 30
0.0
 10
178.9827219649333
 20
144.6472294244353
 30
0.0
 10
178.9312434811932
 20
147.6508995920474
 30
0.0
 10
178.8659369856314
 20
150.988790622333
 30
0.0
 10
178.8048654352097
 20
153.8592492142904
 30
0.0
 10
178.7438541351943
 20
156.043101773374
 30
0.0
 10
178.6807112064934
 20
157.443578212946
 30
0.0
 10
178.6420664407173
 20
157.6216135245633
 30
0.0
 10
178.6240139326798
 20
157.7047809038812
 30
0.0
  0
LINE
  5
279
330
1F
100
AcDbEntity
  8
0
  6
Continuous
 62
     7
370
    25
100
AcDbLine
 10
93.579875415
 20
130.3784232137
 30
0.0
 11
93.954875415
 21
130.3784232137
 31
0.0
  0
LINE
  5
27A
330
1F
100
AcDbEntity
  8
0
  6
Continuous
 62
     7
370
    25
100
AcDbLine
 10
93.1111254171
 20
129.5665244012
 30
0.0
 11
93.579875415
 21
130.3784232137
 31
0.0
  0
SPLINE
  5
27B
330
1F
100
AcDbEntity
  8
0
  6
Continuous
 62
     7
370
    25
100
AcDbSpline
210
0.0
220
0.0
230
1.0
 70
     8
 71
     3
 72
    18
 73
    14
 74
     0
 42
0.00000001
 43
0.00000001
 40
0.0
 40
0.0
 40
0.0
 40
0.0
 40
0.0569447277585363
 40
0.1507614687560893
 40
0.2445782097536427
 40
0.3400242771492495
 40
0.4338410181468028
 40
0.5276577591443558
 40
0.6231038265399628
 40
0.7169205675375162
 40
0.8099301629352225
 40
0.9045689658892275
 40
1.0
 40
1.0
 40
1.0
 40
1.0
 10
93.0111254170944
 20
130.6459768661764
 30
0.0
 10
93.02407291311798
 20
130.9082495309892
 30
0.0
 10
93.05835147750952
 20
131.6026178020856
 30
0.0
 10
93.11113831679782
 20
133.7224284978098
 30
0.0
 10
93.17215695432745
 20
136.7253863128781
 30
0.0
 10
93.23759129995543
 20
140.2725919836851
 30
0.0
 10
93.29862506195293
 20
144.0659748488646
 30
0.0
 10
93.35966094241208
 20
147.8626741161972
 30
0.0
 10
93.42508885907206
 20
151.3998153878512
 30
0.0
 10
93.4859567157965
 20
154.4305327759845
 30
0.0
 10
93.54661852370846
 20
156.7378748866661
 30
0.0
 10
93.61203101162386
 20
158.2723329048409
 30
0.0
 10
93.65303697347966
 20
158.4681884535269
 30
0.0
 10
93.67362541299768
 20
158.5665244011768
 30
0.0
  0
LINE
  5
27C
330
1F
100
AcDbEntity
  8
0
  6
Continuous
 62
     7
370
    25
100
AcDbLine
 10
94.4171531077
 20
129.6180036027
 30
0.0
 11
94.423625413
 21
129.5665244012
 31
0.0
  0
LINE
  5
27D
330
1F
100
AcDbEntity
  8
0
  6
Continuous
 62
     7
370
    25
100
AcDbLine
 10
93.954875415
 20
130.3784232137
 30
0.0
 11
94.423625413
 21
129.5665244012
 31
0.0
  0
SPLINE
  5
27E
330
1F
100
AcDbEntity
  8
0
  6
Continuous
 62
     7
370
    25
100
AcDbSpline
210
0.0
220
0.0
230
1.0
 70
     8
 71
     3
 72
    11
 73
     7
 74
     0
 42
0.00000001
 43
0.00000001
 40
0.0
 40
0.0
 40
0.0
 40
0.0
 40
0.0338029119390425
 40
0.3659139339879673
 40
0.7037931638778587
 40
0.9999999999999999
 40
0.9999999999999999
 40
0.9999999999999999
 40
0.9999999999999999
 10
93.0111254170944
 20
153.4587588311582
 30
0.0
 10
93.01321005592217
 20
153.5552243517097
 30
0.0
 10
93.0357761116452
 20
154.5994562268465
 30
0.0
 10
93.07829615243838
 20
156.0034863377828
 30
0.0
 10
93.14156133781488
 20
157.4521320199705
 30
0.0
 10
93.18019130601027
 20
157.6243370712116
 30
0.0
 10
93.19823690150902
 20
157.7047809038812
 30
0.0
  0
SPLINE
  5
27F
330
1F
100
AcDbEntity
  8
0
  6
Continuous
 62
     7
370
    25
100
AcDbSpline
210
0.0
220
0.0
230
1.0
 70
     8
 71
     3
 72
    21
 73
    17
 74
     0
 42
0.00000001
 43
0.00000001
 40
0.0
 40
0.0
 40
0.0
 40
0.0
 40
0.0744253596644119
 40
0.1594654728433945
 40
0.2430537979151431
 40
0.3266421229868915
 40
0.4116822361658743
 40
0.4952705612376228
 40
0.5788588863093712
 40
0.6638989994883542
 40
0.7474873245601026
 40
0.8166848884187198
 40
0.8872233607816257
 40
0.957440166279335
 40
0.9999794898814968
 40
1.0
 40
1.0
 40
1.0
 40
1.0
 10
179.7356441109664
 20
130.4289646387171
 30
0.0
 10
179.7176218913776
 20
130.51203755968
 30
0.0
 10
179.6790070727006
 20
130.690031494564
 30
0.0
 10
179.6158983898063
 20
132.0899776900955
 30
0.0
 10
179.5548786209493
 20
134.2738476484858
 30
0.0
 10
179.4938395300332
 20
137.1440336077582
 30
0.0
 10
179.428410329418
 20
140.4830094563026
 30
0.0
 10
179.3673769951048
 20
144.0665534127255
 30
0.0
 10
179.3063341502755
 20
147.6499222920934
 30
0.0
 10
179.2409338115721
 20
150.9894294533887
 30
0.0
 10
179.1832789363396
 20
153.6940376345543
 30
0.0
 10
179.1295554791031
 20
155.6857130662733
 30
0.0
 10
179.0758843653198
 20
157.043067693909
 30
0.0
 10
179.0291572128395
 20
157.5879985175115
 30
0.0
 10
179.00278723461
 20
157.8328286354149
 30
0.0
 10
178.9923653744013
 20
157.7545501815734
 30
0.0
 10
178.9923603519759
 20
157.7545124582032
 30
0.0
  0
SPLINE
  5
280
330
1F
100
AcDbEntity
  8
0
  6
Continuous
 62
     7
370
    25
100
AcDbSpline
210
0.0
220
0.0
230
1.0
 70
     8
 71
     3
 72
    18
 73
    14
 74
     0
 42
0.00000001
 43
0.00000001
 40
0.0
 40
0.0
 40
0.0
 40
0.0
 40
0.0625083500006682
 40
0.1648649420355359
 40
0.2689991730679214
 40
0.3713557651027889
 40
0.4728317362466123
 40
0.5760852167264459
 40
0.6802030526311135
 40
0.7825596446659812
 40
0.8866938756983663
 40
0.9890504677332339
 40
1.0
 40
1.0
 40
1.0
 40
1.0
 10
180.0611254170944
 20
132.4129616258226
 30
0.0
 10
180.0485950623288
 20
132.8555250247056
 30
0.0
 10
180.0155464182342
 20
134.0227801050767
 30
0.0
 10
179.9626567384681
 20
136.7538818726658
 30
0.0
 10
179.8971441795329
 20
140.2649972027903
 30
0.0
 10
179.8362991144524
 20
144.057332899391
 30
0.0
 10
179.7756297747198
 20
147.8289497281961
 30
0.0
 10
179.7102250006137
 20
151.373514478287
 30
0.0
 10
179.6489555272282
 20
154.4182160984909
 30
0.0
 10
179.5876200539989
 20
156.7855728902397
 30
0.0
 10
179.5220583971463
 20
158.1708733376604
 30
0.0
 10
179.4794204460001
 20
158.7291069249127
 30
0.0
 10
179.4567476043896
 20
158.5332083659068
 30
0.0
 10
179.4545565753316
 20
158.5142773716108
 30
0.0
  0
LINE
  5
281
330
1F
100
AcDbEntity
  8
0
  6
Continuous
 62
     7
370
    25
100
AcDbLine
 10
178.7111254171
 20
129.5665244012
 30
0.0
 11
178.2423754191
 21
130.3784232137
 31
0.0
  0
LINE
  5
282
330
1F
100
AcDbEntity
  8
0
  6
Continuous
 62
     7
370
    25
100
AcDbLine
 10
178.2423754191
 20
130.3784232137
 30
0.0
 11
177.8673754191
 21
130.3784232137
 31
0.0
  0
LINE
  5
283
330
1F
100
AcDbEntity
  8
0
  6
Continuous
 62
     7
370
    25
100
AcDbLine
 10
177.8673754191
 20
130.3784232137
 30
0.0
 11
177.3986254212
 21
129.5665244012
 31
0.0
  0
ARC
  5
284
330
1F
100
AcDbEntity
  8
0
  6
Continuous
 62
     7
370
    25
100
AcDbCircle
 10
136.0040676407
 20
159.1572119932
 30
0.0
 40
0.0907001248970495
100
AcDbArc
 50
238.6525055215
 51
269.0475002895
  0
ARC
  5
285
330
1F
100
AcDbEntity
  8
0
  6
Continuous
 62
     7
370
    25
100
AcDbCircle
 10
135.8181831935
 20
159.1572119932
 30
0.0
 40
0.0907001248971412
100
AcDbArc
 50
270.9524997105
 51
301.3474944785
  0
SPLINE
  5
286
330
1F
100
AcDbEntity
  8
0
  6
Continuous
 62
     7
370
    25
100
AcDbSpline
210
0.0
220
0.0
230
1.0
 70
     8
 71
     3
 72
     8
 73
     4
 74
     0
 42
0.00000001
 43
0.00000001
 40
0.0
 40
0.0
 40
0.0
 40
0.0
 40
1.0
 40
1.0
 40
1.0
 40
1.0
 10
135.8653678676732
 20
159.0797515569516
 30
0.0
 10
135.8958729006207
 20
159.0796587487819
 30
0.0
 10
135.9263779335681
 20
159.0796587487819
 30
0.0
 10
135.9568829665156
 20
159.0797515569516
 30
0.0
  0
ARC
  5
287
330
1F
100
AcDbEntity
  8
0
  6
Continuous
 62
     7
370
    25
100
AcDbCircle
 10
135.9111254171
 20
144.0665244012
 30
0.0
 40
28.25
100
AcDbArc
 50
32.0712506327
 51
90.0
  0
ARC
  5
288
330
1F
100
AcDbEntity
  8
0
  6
Continuous
 62
     7
370
    25
100
AcDbCircle
 10
135.9111254171
 20
144.0665244012
 30
0.0
 40
28.25000000000002
100
AcDbArc
 50
287.7235605749
 51
327.9287493673
  0
ARC
  5
289
330
1F
100
AcDbEntity
  8
0
  6
Continuous
 62
     7
370
    25
100
AcDbCircle
 10
135.9111254171
 20
144.0665244012
 30
0.0
 40
28.25000000000001
100
AcDbArc
 50
212.0712506327
 51
252.2764394251
  0
ARC
  5
28A
330
1F
100
AcDbEntity
  8
0
  6
Continuous
 62
     7
370
    25
100
AcDbCircle
 10
135.9111254171
 20
144.0665244012
 30
0.0
 40
28.25
100
AcDbArc
 50
90.0
 51
147.9287493673
  0
ARC
  5
28B
330
1F
100
AcDbEntity
  8
0
  6
Continuous
 62
     8
370
    25
100
AcDbCircle
 10
135.9781529702
 20
58.8666057098
 30
0.0
 40
8.533209459508697
100
AcDbArc
 50
269.5499424436
 51
359.5729603829
  0
ARC
  5
28C
330
1F
100
AcDbEntity
  8
0
  6
Continuous
 62
     8
370
    25
100
AcDbCircle
 10
135.844097864
 20
58.8666057098
 30
0.0
 40
8.533209459508713
100
AcDbArc
 50
180.4270396171
 51
270.4500575564
  0
ARC
  5
28D
330
1F
100
AcDbEntity
  8
0
  6
Continuous
 62
     8
370
    25
100
AcDbCircle
 10
135.9110370426
 20
58.885549571
 30
0.0
 40
8.725597937695571
100
AcDbArc
 50
260.2519572101
 51
287.7275728924
  0
ARC
  5
28E
330
1F
100
AcDbEntity
  8
0
  6
Continuous
 62
     8
370
    25
100
AcDbCircle
 10
136.0456803989
 20
58.2918441024
 30
0.0
 40
9.911851171780775
100
AcDbArc
 50
269.2221766407
 51
31.3425196411
  0
ARC
  5
28F
330
1F
100
AcDbEntity
  8
0
  6
Continuous
 62
     8
370
    25
100
AcDbCircle
 10
135.7765704353
 20
58.2918441024
 30
0.0
 40
9.911851171780825
100
AcDbArc
 50
148.6574803589
 51
270.7778233593
  0
LINE
  5
290
330
1F
100
AcDbEntity
  8
0
  6
Continuous
 62
     8
370
    25
100
AcDbLine
 10
146.1592858016
 20
55.9867647334
 30
0.0
 11
146.4732633877
 21
55.8885920218
 31
0.0
  0
LINE
  5
291
330
1F
100
AcDbEntity
  8
0
  6
Continuous
 62
     8
370
    25
100
AcDbLine
 10
227.8161304066
 20
138.14139663
 30
0.0
 11
227.8161304066
 21
149.9916521723
 31
0.0
  0
LINE
  5
292
330
1F
100
AcDbEntity
  8
0
  6
Continuous
 62
     8
370
    25
100
AcDbLine
 10
43.2517562128
 20
146.4388161854
 30
0.0
 11
43.2517562128
 21
148.2639577674
 31
0.0
  0
LINE
  5
293
330
1F
100
AcDbEntity
  8
0
  6
Continuous
 62
     8
370
    25
100
AcDbLine
 10
43.2517562128
 20
139.8690910349
 30
0.0
 11
43.2517562128
 21
146.4388161854
 31
0.0
  0
LINE
  5
294
330
1F
100
AcDbEntity
  8
0
  6
Continuous
 62
     8
370
    25
100
AcDbLine
 10
42.4911036154
 20
145.3244949273
 30
0.0
 11
42.714005489
 21
145.3244949273
 31
0.0
  0
LINE
  5
295
330
1F
100
AcDbEntity
  8
0
  6
Continuous
 62
     8
370
    25
100
AcDbLine
 10
42.6295453131
 20
142.6137090664
 30
0.0
 11
42.4911036154
 21
142.6137090664
 31
0.0
  0
LINE
  5
296
330
1F
100
AcDbEntity
  8
0
  6
Continuous
 62
     8
370
    25
100
AcDbLine
 10
42.4911036154
 20
144.8411276257
 30
0.0
 11
42.6453465375
 21
144.8411276257
 31
0.0
  0
LINE
  5
297
330
1F
100
AcDbEntity
  8
0
  6
Continuous
 62
     8
370
    25
100
AcDbLine
 10
228.5704946214
 20
146.4388161854
 30
0.0
 11
228.5704946214
 21
139.8690910349
 31
0.0
  0
LINE
  5
298
330
1F
100
AcDbEntity
  8
0
  6
Continuous
 62
     8
370
    25
100
AcDbLine
 10
228.5704946214
 20
148.2639577674
 30
0.0
 11
228.5704946214
 21
146.4388161854
 31
0.0
  0
LINE
  5
299
330
1F
100
AcDbEntity
  8
0
  6
Continuous
 62
     8
370
    25
100
AcDbLine
 10
229.1082453451
 20
145.3244949273
 30
0.0
 11
229.3311472188
 21
145.3244949273
 31
0.0
  0
LINE
  5
29A
330
1F
100
AcDbEntity
  8
0
  6
Continuous
 62
     8
370
    25
100
AcDbLine
 10
229.3311472188
 20
142.6137090664
 30
0.0
 11
229.1927055211
 21
142.6137090664
 31
0.0
  0
LINE
  5
29B
330
1F
100
AcDbEntity
  8
0
  6
Continuous
 62
     8
370
    25
100
AcDbLine
 10
229.1769042966
 20
144.8411276257
 30
0.0
 11
229.3311472188
 21
144.8411276257
 31
0.0
  0
LINE
  5
29C
330
1F
100
AcDbEntity
  8
0
  6
Continuous
 62
     8
370
    25
100
AcDbLine
 10
44.0061204276
 20
138.5559998536
 30
0.0
 11
44.0061204276
 21
138.14139663
 31
0.0
  0
LINE
  5
29D
330
1F
100
AcDbEntity
  8
0
  6
Continuous
 62
     8
370
    25
100
AcDbLine
 10
44.0061204276
 20
149.9916521723
 30
0.0
 11
44.0061204276
 21
138.5559998536
 31
0.0
  0
LINE
  5
29E
330
1F
100
AcDbEntity
  8
0
  6
Continuous
 62
     8
370
    25
100
AcDbLine
 10
50.4730814599
 20
152.2121157469
 30
0.0
 11
50.4730814599
 21
153.0421824454
 31
0.0
  0
LINE
  5
29F
330
1F
100
AcDbEntity
  8
0
  6
Continuous
 62
     8
370
    25
100
AcDbLine
 10
51.4065016738
 20
135.0745734465
 30
0.0
 11
51.4065016738
 21
135.9105269847
 31
0.0
  0
LINE
  5
2A0
330
1F
100
AcDbEntity
  8
0
  6
Continuous
 62
     8
370
    25
100
AcDbLine
 10
46.1023992139
 20
152.965891903
 30
0.0
 11
46.1023992139
 21
135.1671568993
 31
0.0
  0
ARC
  5
2A1
330
1F
100
AcDbEntity
  8
0
  6
Continuous
 62
     8
370
    25
100
AcDbCircle
 10
55.9462839036
 20
134.4328886626
 30
0.0
 40
1.99719325415663
100
AcDbArc
 50
201.0122086051
 51
269.4244113789
  0
SPLINE
  5
2A2
330
1F
100
AcDbEntity
  8
0
  6
Continuous
 62
     8
370
    25
100
AcDbSpline
210
0.0
220
0.0
230
1.0
 70
     8
 71
     3
 72
    11
 73
     7
 74
     0
 42
0.00000001
 43
0.00000001
 40
0.0
 40
0.0
 40
0.0
 40
0.0
 40
0.2826501073666217
 40
0.8581489095904445
 40
0.8613649112870351
 40
1.0
 40
1.0
 40
1.0
 40
1.0
 10
52.70200800304517
 20
134.7366254296689
 30
0.0
 10
52.58973860623554
 20
134.7975529314179
 30
0.0
 10
52.248879508922
 20
134.9825338241446
 30
0.0
 10
51.87102553140615
 20
135.3795651940716
 30
0.0
 10
51.56064643805529
 20
135.7537607981775
 30
0.0
 10
51.49914394332418
 20
135.8327457313338
 30
0.0
 10
51.43903581311171
 20
135.9099399438245
 30
0.0
  0
SPLINE
  5
2A3
330
1F
100
AcDbEntity
  8
0
  6
Continuous
 62
     8
370
    25
100
AcDbSpline
210
0.0
220
0.0
230
1.0
 70
     8
 71
     3
 72
     9
 73
     5
 74
     0
 42
0.00000001
 43
0.00000001
 40
0.0
 40
0.0
 40
0.0
 40
0.0
 40
0.3530215453709022
 40
1.0
 40
1.0
 40
1.0
 40
1.0
 10
50.51768779312823
 20
152.2129223639972
 30
0.0
 10
50.70978530546252
 20
152.4062333693574
 30
0.0
 10
51.2539376804471
 20
152.9538231918344
 30
0.0
 10
51.77417492025484
 20
153.2580447559939
 30
0.0
 10
52.11075720570616
 20
153.4548695534386
 30
0.0
  0
ARC
  5
2A4
330
1F
100
AcDbEntity
  8
0
  6
Continuous
 62
     8
370
    25
100
AcDbCircle
 10
55.8405978272
 20
153.8077770238
 30
0.0
 40
1.935629434209693
100
AcDbArc
 50
89.1328601458
 51
155.5788705464
  0
ARC
  5
2A5
330
1F
100
AcDbEntity
  8
0
  6
Continuous
 62
     8
370
    25
100
AcDbCircle
 10
55.9464698701
 20
134.3849088556
 30
0.0
 40
1.996106121819842
100
AcDbArc
 50
199.5637302954
 51
269.4187596751
  0
LINE
  5
2A6
330
1F
100
AcDbEntity
  8
0
  6
Continuous
 62
     8
370
    25
100
AcDbLine
 10
59.9523992139
 20
132.0947109389
 30
0.0
 11
59.9523992139
 21
132.3203904879
 31
0.0
  0
LINE
  5
2A7
330
1F
100
AcDbEntity
  8
0
  6
Continuous
 62
     8
370
    25
100
AcDbLine
 10
59.9523992139
 20
155.8126583144
 30
0.0
 11
59.9523992139
 21
156.0383378635
 31
0.0
  0
LINE
  5
2A8
330
1F
100
AcDbEntity
  8
0
  6
Continuous
 62
     8
370
    25
100
AcDbLine
 10
55.9262206042
 20
132.3889054446
 30
0.0
 11
55.9262206042
 21
132.1649881479
 31
0.0
  0
LINE
  5
2A9
330
1F
100
AcDbEntity
  8
0
  6
Continuous
 62
     8
370
    25
100
AcDbLine
 10
55.9262206042
 20
155.9680606544
 30
0.0
 11
55.9262206042
 21
155.9514718481
 31
0.0
  0
ARC
  5
2AA
330
1F
100
AcDbEntity
  8
0
  6
Continuous
 62
     8
370
    25
100
AcDbCircle
 10
55.9602009647
 20
153.9515482193
 30
0.0
 40
2.00021228519055
100
AcDbArc
 50
90.9734091321
 51
152.2807513659
  0
LINE
  5
2AB
330
1F
100
AcDbEntity
  8
0
  6
Continuous
 62
     8
370
    25
100
AcDbLine
 10
221.3491693742
 20
136.1663543443
 30
0.0
 11
221.3491693742
 21
135.3362876458
 31
0.0
  0
LINE
  5
2AC
330
1F
100
AcDbEntity
  8
0
  6
Continuous
 62
     8
370
    25
100
AcDbLine
 10
220.4157491604
 20
153.3038966447
 30
0.0
 11
220.4157491604
 21
152.4679431065
 31
0.0
  0
LINE
  5
2AD
330
1F
100
AcDbEntity
  8
0
  6
Continuous
 62
     8
370
    25
100
AcDbLine
 10
225.7198516203
 20
135.4125781882
 30
0.0
 11
225.7198516203
 21
153.2113131918
 31
0.0
  0
ARC
  5
2AE
330
1F
100
AcDbEntity
  8
0
  6
Continuous
 62
     8
370
    25
100
AcDbCircle
 10
215.8759669306
 20
153.9455814286
 30
0.0
 40
1.997193254156522
100
AcDbArc
 50
21.0122086051
 51
89.4244113789
  0
SPLINE
  5
2AF
330
1F
100
AcDbEntity
  8
0
  6
Continuous
 62
     8
370
    25
100
AcDbSpline
210
0.0
220
0.0
230
1.0
 70
     8
 71
     3
 72
    11
 73
     7
 74
     0
 42
0.00000001
 43
0.00000001
 40
0.0
 40
0.0
 40
0.0
 40
0.0
 40
0.2826501073666229
 40
0.8581489095904449
 40
0.8613649112870354
 40
1.0
 40
1.0
 40
1.0
 40
1.0
 10
219.1202428311437
 20
153.6418446615131
 30
0.0
 10
219.2325122279532
 20
153.5809171597642
 30
0.0
 10
219.5733713252665
 20
153.3959362670374
 30
0.0
 10
219.9512253027838
 20
152.9989048971105
 30
0.0
 10
220.2616043961332
 20
152.6247092930046
 30
0.0
 10
220.3231068908645
 20
152.5457243598483
 30
0.0
 10
220.3832150210771
 20
152.4685301473576
 30
0.0
  0
SPLINE
  5
2B0
330
1F
100
AcDbEntity
  8
0
  6
Continuous
 62
     8
370
    25
100
AcDbSpline
210
0.0
220
0.0
230
1.0
 70
     8
 71
     3
 72
     9
 73
     5
 74
     0
 42
0.00000001
 43
0.00000001
 40
0.0
 40
0.0
 40
0.0
 40
0.0
 40
0.3530215453708999
 40
1.0
 40
1.0
 40
1.0
 40
1.0
 10
221.3045630410606
 20
136.1655477271849
 30
0.0
 10
221.1124655287263
 20
135.9722367218247
 30
0.0
 10
220.5683131537417
 20
135.4246468993477
 30
0.0
 10
220.048075913934
 20
135.1204253351882
 30
0.0
 10
219.7114936284826
 20
134.9236005377435
 30
0.0
  0
ARC
  5
2B1
330
1F
100
AcDbEntity
  8
0
  6
Continuous
 62
     8
370
    25
100
AcDbCircle
 10
215.981653007
 20
134.5706930674
 30
0.0
 40
1.935629434209552
100
AcDbArc
 50
269.1328601458
 51
335.5788705465
  0
ARC
  5
2B2
330
1F
100
AcDbEntity
  8
0
  6
Continuous
 62
     8
370
    25
100
AcDbCircle
 10
215.8757809641
 20
153.9935612356
 30
0.0
 40
1.996106121819842
100
AcDbArc
 50
19.5637302954
 51
89.4187596751
  0
LINE
  5
2B3
330
1F
100
AcDbEntity
  8
0
  6
Continuous
 62
     8
370
    25
100
AcDbLine
 10
211.8698516203
 20
132.5658117768
 30
0.0
 11
211.8698516203
 21
132.3401322277
 31
0.0
  0
LINE
  5
2B4
330
1F
100
AcDbEntity
  8
0
  6
Continuous
 62
     8
370
    25
100
AcDbLine
 10
211.8698516203
 20
156.2837591523
 30
0.0
 11
211.8698516203
 21
156.0580796032
 31
0.0
  0
LINE
  5
2B5
330
1F
100
AcDbEntity
  8
0
  6
Continuous
 62
     8
370
    25
100
AcDbLine
 10
215.89603023
 20
132.4104094367
 30
0.0
 11
215.89603023
 21
132.4269982431
 31
0.0
  0
LINE
  5
2B6
330
1F
100
AcDbEntity
  8
0
  6
Continuous
 62
     8
370
    25
100
AcDbLine
 10
215.89603023
 20
155.9895646466
 30
0.0
 11
215.89603023
 21
156.2134819433
 31
0.0
  0
ARC
  5
2B7
330
1F
100
AcDbEntity
  8
0
  6
Continuous
 62
     8
370
    25
100
AcDbCircle
 10
215.8620498695
 20
134.4269218719
 30
0.0
 40
2.000212285190808
100
AcDbArc
 50
270.9734091321
 51
332.2807513659
  0
SPLINE
  5
2B8
330
1F
100
AcDbEntity
  8
0
  6
Continuous
 62
     8
370
    25
100
AcDbSpline
210
0.0
220
0.0
230
1.0
 70
     8
 71
     3
 72
    11
 73
     7
 74
     0
 42
0.00000001
 43
0.00000001
 40
0.0
 40
0.0
 40
0.0
 40
0.0
 40
0.5932149667367632
 40
0.9339069723143171
 40
0.9764081078334942
 40
1.0
 40
1.0
 40
1.0
 40
1.0
 10
144.5111254170944
 20
132.3375619963364
 30
0.0
 10
145.0725264794499
 20
132.7809815838259
 30
0.0
 10
145.9563483581909
 20
133.4790635062952
 30
0.0
 10
146.7449546347534
 20
134.3639154832158
 30
0.0
 10
147.0591426336117
 20
134.7435907469558
 30
0.0
 10
147.1095739266192
 20
134.8058294729772
 30
0.0
 10
147.1275753659255
 20
134.8280455729848
 30
0.0
  0
SPLINE
  5
2B9
330
1F
100
AcDbEntity
  8
0
  6
Continuous
 62
     8
370
    25
100
AcDbSpline
210
0.0
220
0.0
230
1.0
 70
     8
 71
     3
 72
    11
 73
     7
 74
     0
 42
0.00000001
 43
0.00000001
 40
0.0
 40
0.0
 40
0.0
 40
0.0
 40
0.593214966736752
 40
0.9339069723143154
 40
0.9764081078334936
 40
1.0
 40
1.0
 40
1.0
 40
1.0
 10
127.3111254170944
 20
132.3375619963365
 30
0.0
 10
126.7497243547388
 20
132.7809815838259
 30
0.0
 10
125.8659024759979
 20
133.4790635062952
 30
0.0
 10
125.0772961994355
 20
134.3639154832158
 30
0.0
 10
124.7631082005772
 20
134.7435907469558
 30
0.0
 10
124.7126769075696
 20
134.8058294729772
 30
0.0
 10
124.6946754682633
 20
134.8280455729848
 30
0.0
  0
SPLINE
  5
2BA
330
1F
100
AcDbEntity
  8
0
  6
Continuous
 62
     8
370
    25
100
AcDbSpline
210
0.0
220
0.0
230
1.0
 70
     8
 71
     3
 72
     9
 73
     5
 74
     0
 42
0.00000001
 43
0.00000001
 40
0.0
 40
0.0
 40
0.0
 40
0.0
 40
0.5176554380816863
 40
1.0
 40
1.0
 40
1.0
 40
1.0
 10
148.2978165653925
 20
134.7111722974172
 30
0.0
 10
147.6937543401913
 20
134.1333222963749
 30
0.0
 10
146.5268348397613
 20
133.0170392274985
 30
0.0
 10
145.1670231775804
 20
132.149296307495
 30
0.0
 10
144.5111254170944
 20
131.7307452288881
 30
0.0
  0
SPLINE
  5
2BB
330
1F
100
AcDbEntity
  8
0
  6
Continuous
 62
     8
370
    25
100
AcDbSpline
210
0.0
220
0.0
230
1.0
 70
     8
 71
     3
 72
     9
 73
     5
 74
     0
 42
0.00000001
 43
0.00000001
 40
0.0
 40
0.0
 40
0.0
 40
0.0
 40
0.5176554380816969
 40
0.9999999999999999
 40
0.9999999999999999
 40
0.9999999999999999
 40
0.9999999999999999
 10
123.5244342687963
 20
134.7111722974172
 30
0.0
 10
124.1284964939975
 20
134.1333222963749
 30
0.0
 10
125.2954159944275
 20
133.0170392274986
 30
0.0
 10
126.6552276566084
 20
132.149296307495
 30
0.0
 10
127.3111254170944
 20
131.7307452288882
 30
0.0
  0
ARC
  5
2BC
330
1F
100
AcDbEntity
  8
0
  6
Continuous
 62
     8
370
    25
100
AcDbCircle
 10
137.1301891978
 20
142.0451633962
 30
0.0
 40
13.36051370486633
100
AcDbArc
 50
303.534846696
 51
326.7063404568
  0
ARC
  5
2BD
330
1F
100
AcDbEntity
  8
0
  6
Continuous
 62
     8
370
    25
100
AcDbCircle
 10
134.6920616364
 20
142.0451633962
 30
0.0
 40
13.36051370486611
100
AcDbArc
 50
213.2936595432
 51
236.465153304
  0
ARC
  5
2BE
330
1F
100
AcDbEntity
  8
0
  6
Continuous
 62
     8
370
    25
100
AcDbCircle
 10
135.9111254171
 20
144.0665244012
 30
0.0
 40
15.79423749544207
100
AcDbArc
 50
71.7526233598
 51
108.2473766402
  0
LWPOLYLINE
  5
2BF
330
1F
100
AcDbEntity
  8
0
  6
Continuous
 62
     8
370
    25
100
AcDbPolyline
 90
        3
 70
   128
 43
0.0
 10
127.3111254171
 20
127.7476710942
 10
126.136090207
 20
128.4231980319
 10
125.1749727889
 20
129.0665244012
  0
ARC
  5
2C0
330
1F
100
AcDbEntity
  8
0
  6
Continuous
 62
     8
370
    25
100
AcDbCircle
 10
135.9111254171
 20
144.0665244012
 30
0.0
 40
18.44627261143961
100
AcDbArc
 50
54.407052935
 51
125.592947065
  0
LWPOLYLINE
  5
2C1
330
1F
100
AcDbEntity
  8
0
  6
Continuous
 62
     8
370
    25
100
AcDbPolyline
 90
        3
 70
   128
 43
0.0
 10
146.6472780453
 20
129.0665244012
 10
145.6861606272
 20
128.4231980319
 10
144.5111254171
 20
127.7476710942
  0
ARC
  5
2C2
330
1F
100
AcDbEntity
  8
0
  6
Continuous
 62
     8
370
    25
100
AcDbCircle
 10
135.9111254171
 20
144.0665244012
 30
0.0
 40
27.18743161379872
100
AcDbArc
 50
288.4406785204
 51
326.5145280392
  0
ARC
  5
2C3
330
1F
100
AcDbEntity
  8
0
  6
Continuous
 62
     8
370
    25
100
AcDbCircle
 10
135.9111254171
 20
144.0665244012
 30
0.0
 40
27.1874316137987
100
AcDbArc
 50
33.4854719608
 51
146.5145280392
  0
ARC
  5
2C4
330
1F
100
AcDbEntity
  8
0
  6
Continuous
 62
     8
370
    25
100
AcDbCircle
 10
135.9111254171
 20
144.0665244012
 30
0.0
 40
27.1874316137987
100
AcDbArc
 50
213.4854719608
 51
251.5593214796
  0
ENDSEC
  0
SECTION
  2
OBJECTS
  0
DICTIONARY
  5
C
330
0
100
AcDbDictionary
281
     1
  3
ACAD_GROUP
350
D
  3
ACAD_LAYOUT
350
1A
  3
ACAD_MLINESTYLE
350
17
  3
ACAD_PLOTSETTINGS
350
19
  3
ACAD_PLOTSTYLENAME
350
E
  3
ACAD_SCALELIST
350
47
  3
DWGPROPS
350
2C5
  0
DICTIONARY
  5
D
102
{ACAD_REACTORS
330
C
102
}
330
C
100
AcDbDictionary
281
     1
  0
DICTIONARY
  5
1A
102
{ACAD_REACTORS
330
C
102
}
330
C
100
AcDbDictionary
281
     1
  3
Layout1
350
1E
  3
Layout2
350
26
  3
Model
350
22
  0
DICTIONARY
  5
17
102
{ACAD_REACTORS
330
C
102
}
330
C
100
AcDbDictionary
281
     1
  3
Standard
350
18
  0
DICTIONARY
  5
19
102
{ACAD_REACTORS
330
C
102
}
330
C
100
AcDbDictionary
281
     1
  0
ACDBDICTIONARYWDFLT
  5
E
102
{ACAD_REACTORS
330
C
102
}
330
C
100
AcDbDictionary
281
     1
  3
Normal
350
F
100
AcDbDictionaryWithDefault
340
F
  0
DICTIONARY
  5
47
102
{ACAD_REACTORS
330
C
102
}
330
C
100
AcDbDictionary
281
     1
  3
A0
350
48
  3
A1
350
49
  3
A2
350
4A
  3
A3
350
4B
  3
A4
350
4C
  3
A5
350
4D
  3
A6
350
4E
  3
A7
350
4F
  3
A8
350
50
  3
A9
350
51
  3
B0
350
52
  3
B1
350
53
  3
B2
350
54
  3
B3
350
55
  3
B4
350
56
  3
B5
350
57
  3
B6
350
58
  3
B7
350
59
  3
B8
350
5A
  3
B9
350
5B
  3
C0
350
5C
  3
C1
350
5D
  3
C2
350
5E
  3
C3
350
5F
  3
C4
350
60
  3
C5
350
61
  3
C6
350
62
  3
C7
350
63
  3
C8
350
64
  3
C9
350
65
  3
D0
350
66
  3
D1
350
67
  3
D2
350
68
  0
XRECORD
  5
2C5
102
{ACAD_REACTORS
330
C
102
}
330
C
100
AcDbXrecord
280
     1
  1
DWGPROPS COOKIE
  2

  3

  4

  6

  7

  8
DS-1
  9

300
=
301
=
302
=
303
=
304
=
305
=
306
=
307
=
308
=
309
=
 40
0.0
 41
2460383.501880139
 42
2460383.501880695
  1

 90
        0
  0
LAYOUT
  5
1E
102
{ACAD_REACTORS
330
1A
102
}
330
1A
100
AcDbPlotSettings
  1

  2
none_device
  4

  6

 40
0.0
 41
0.0
 42
0.0
 43
0.0
 44
0.0
 45
0.0
 46
0.0
 47
0.0
 48
0.0
 49
0.0
140
0.0
141
0.0
142
1.0
143
1.0
 70
   688
 72
     1
 73
     0
 74
     5
  7

 75
    16
147
1.0
148
0.0
149
0.0
100
AcDbLayout
  1
Layout1
 70
     1
 71
     1
 10
0.0
 20
0.0
 11
420.0
 21
297.0
 12
0.0
 22
0.0
 32
0.0
 14
1.0000000000E+20
 24
1.0000000000E+20
 34
1.0000000000E+20
 15
-1.0000000000E+20
 25
-1.0000000000E+20
 35
-1.0000000000E+20
146
0.0
 13
0.0
 23
0.0
 33
0.0
 16
1.0
 26
0.0
 36
0.0
 17
0.0
 27
1.0
 37
0.0
 76
     0
330
1B
  0
LAYOUT
  5
26
102
{ACAD_REACTORS
330
1A
102
}
330
1A
100
AcDbPlotSettings
  1

  2
none_device
  4

  6

 40
0.0
 41
0.0
 42
0.0
 43
0.0
 44
0.0
 45
0.0
 46
0.0
 47
0.0
 48
0.0
 49
0.0
140
0.0
141
0.0
142
1.0
143
1.0
 70
   688
 72
     1
 73
     0
 74
     5
  7

 75
    16
147
1.0
148
0.0
149
0.0
100
AcDbLayout
  1
Layout2
 70
     1
 71
     2
 10
0.0
 20
0.0
 11
0.0
 21
0.0
 12
0.0
 22
0.0
 32
0.0
 14
0.0
 24
0.0
 34
0.0
 15
0.0
 25
0.0
 35
0.0
146
0.0
 13
0.0
 23
0.0
 33
0.0
 16
1.0
 26
0.0
 36
0.0
 17
0.0
 27
1.0
 37
0.0
 76
     0
330
23
  0
LAYOUT
  5
22
102
{ACAD_REACTORS
330
1A
102
}
330
1A
100
AcDbPlotSettings
  1

  2
none_device
  4
Letter_(8.50_x_11.00_Inches)
  6

 40
6.35
 41
6.35
 42
6.35000508
 43
6.35000508
 44
215.9
 45
279.4
 46
0.0
 47
0.0
 48
0.0
 49
0.0
140
0.0
141
0.0
142
1.0
143
1.0
 70
  1712
 72
     1
 73
     0
 74
     0
  7

 75
     0
147
1.0
148
0.0
149
0.0
100
AcDbLayout
  1
Model
 70
     1
 71
     0
 10
0.0
 20
0.0
 11
279.4
 21
215.9
 12
0.0
 22
0.0
 32
0.0
 14
0.0
 24
0.0
 34
0.0
 15
279.4
 25
215.9
 35
0.0
146
0.0
 13
0.0
 23
0.0
 33
0.0
 16
1.0
 26
0.0
 36
0.0
 17
0.0
 27
1.0
 37
0.0
 76
     0
330
1F
331
29
  0
MLINESTYLE
  5
18
102
{ACAD_REACTORS
330
17
102
}
330
17
100
AcDbMlineStyle
  2
Standard
 70
     0
  3

 62
   256
 51
90.0
 52
90.0
 71
     2
 49
0.5
 62
   256
  6
BYLAYER
 49
-0.5
 62
   256
  6
BYLAYER
  0
ACDBPLACEHOLDER
  5
F
102
{ACAD_REACTORS
330
E
102
}
330
E
  0
SCALE
  5
48
102
{ACAD_REACTORS
330
47
102
}
330
47
100
AcDbScale
 70
     0
300
1:1
140
1.0
141
1.0
290
     1
  0
SCALE
  5
49
102
{ACAD_REACTORS
330
47
102
}
330
47
100
AcDbScale
 70
     0
300
1:2
140
1.0
141
2.0
290
     0
  0
SCALE
  5
4A
102
{ACAD_REACTORS
330
47
102
}
330
47
100
AcDbScale
 70
     0
300
1:4
140
1.0
141
4.0
290
     0
  0
SCALE
  5
4B
102
{ACAD_REACTORS
330
47
102
}
330
47
100
AcDbScale
 70
     0
300
1:5
140
1.0
141
5.0
290
     0
  0
SCALE
  5
4C
102
{ACAD_REACTORS
330
47
102
}
330
47
100
AcDbScale
 70
     0
300
1:8
140
1.0
141
8.0
290
     0
  0
SCALE
  5
4D
102
{ACAD_REACTORS
330
47
102
}
330
47
100
AcDbScale
 70
     0
300
1:10
140
1.0
141
10.0
290
     0
  0
SCALE
  5
4E
102
{ACAD_REACTORS
330
47
102
}
330
47
100
AcDbScale
 70
     0
300
1:16
140
1.0
141
16.0
290
     0
  0
SCALE
  5
4F
102
{ACAD_REACTORS
330
47
102
}
330
47
100
AcDbScale
 70
     0
300
1:20
140
1.0
141
20.0
290
     0
  0
SCALE
  5
50
102
{ACAD_REACTORS
330
47
102
}
330
47
100
AcDbScale
 70
     0
300
1:30
140
1.0
141
30.0
290
     0
  0
SCALE
  5
51
102
{ACAD_REACTORS
330
47
102
}
330
47
100
AcDbScale
 70
     0
300
1:40
140
1.0
141
40.0
290
     0
  0
SCALE
  5
52
102
{ACAD_REACTORS
330
47
102
}
330
47
100
AcDbScale
 70
     0
300
1:50
140
1.0
141
50.0
290
     0
  0
SCALE
  5
53
102
{ACAD_REACTORS
330
47
102
}
330
47
100
AcDbScale
 70
     0
300
1:100
140
1.0
141
100.0
290
     0
  0
SCALE
  5
54
102
{ACAD_REACTORS
330
47
102
}
330
47
100
AcDbScale
 70
     0
300
2:1
140
2.0
141
1.0
290
     0
  0
SCALE
  5
55
102
{ACAD_REACTORS
330
47
102
}
330
47
100
AcDbScale
 70
     0
300
4:1
140
4.0
141
1.0
290
     0
  0
SCALE
  5
56
102
{ACAD_REACTORS
330
47
102
}
330
47
100
AcDbScale
 70
     0
300
8:1
140
8.0
141
1.0
290
     0
  0
SCALE
  5
57
102
{ACAD_REACTORS
330
47
102
}
330
47
100
AcDbScale
 70
     0
300
10:1
140
10.0
141
1.0
290
     0
  0
SCALE
  5
58
102
{ACAD_REACTORS
330
47
102
}
330
47
100
AcDbScale
 70
     0
300
100:1
140
100.0
141
1.0
290
     0
  0
SCALE
  5
59
102
{ACAD_REACTORS
330
47
102
}
330
47
100
AcDbScale
 70
     0
300
1/128" = 1'-0"
140
0.0078125
141
12.0
290
     0
  0
SCALE
  5
5A
102
{ACAD_REACTORS
330
47
102
}
330
47
100
AcDbScale
 70
     0
300
1/64" = 1'-0"
140
0.015625
141
12.0
290
     0
  0
SCALE
  5
5B
102
{ACAD_REACTORS
330
47
102
}
330
47
100
AcDbScale
 70
     0
300
1/32" = 1'-0"
140
0.03125
141
12.0
290
     0
  0
SCALE
  5
5C
102
{ACAD_REACTORS
330
47
102
}
330
47
100
AcDbScale
 70
     0
300
1/16" = 1'-0"
140
0.0625
141
12.0
290
     0
  0
SCALE
  5
5D
102
{ACAD_REACTORS
330
47
102
}
330
47
100
AcDbScale
 70
     0
300
3/32" = 1'-0"
140
0.09375
141
12.0
290
     0
  0
SCALE
  5
5E
102
{ACAD_REACTORS
330
47
102
}
330
47
100
AcDbScale
 70
     0
300
1/8" = 1'-0"
140
0.125
141
12.0
290
     0
  0
SCALE
  5
5F
102
{ACAD_REACTORS
330
47
102
}
330
47
100
AcDbScale
 70
     0
300
3/16" = 1'-0"
140
0.1875
141
12.0
290
     0
  0
SCALE
  5
60
102
{ACAD_REACTORS
330
47
102
}
330
47
100
AcDbScale
 70
     0
300
1/4" = 1'-0"
140
0.25
141
12.0
290
     0
  0
SCALE
  5
61
102
{ACAD_REACTORS
330
47
102
}
330
47
100
AcDbScale
 70
     0
300
3/8" = 1'-0"
140
0.375
141
12.0
290
     0
  0
SCALE
  5
62
102
{ACAD_REACTORS
330
47
102
}
330
47
100
AcDbScale
 70
     0
300
1/2" = 1'-0"
140
0.5
141
12.0
290
     0
  0
SCALE
  5
63
102
{ACAD_REACTORS
330
47
102
}
330
47
100
AcDbScale
 70
     0
300
3/4" = 1'-0"
140
0.75
141
12.0
290
     0
  0
SCALE
  5
64
102
{ACAD_REACTORS
330
47
102
}
330
47
100
AcDbScale
 70
     0
300
1" = 1'-0"
140
1.0
141
12.0
290
     0
  0
SCALE
  5
65
102
{ACAD_REACTORS
330
47
102
}
330
47
100
AcDbScale
 70
     0
300
1-1/2" = 1'-0"
140
1.5
141
12.0
290
     0
  0
SCALE
  5
66
102
{ACAD_REACTORS
330
47
102
}
330
47
100
AcDbScale
 70
     0
300
3" = 1'-0"
140
3.0
141
12.0
290
     0
  0
SCALE
  5
67
102
{ACAD_REACTORS
330
47
102
}
330
47
100
AcDbScale
 70
     0
300
6" = 1'-0"
140
6.0
141
12.0
290
     0
  0
SCALE
  5
68
102
{ACAD_REACTORS
330
47
102
}
330
47
100
AcDbScale
 70
     0
300
1'-0" = 1'-0"
140
12.0
141
12.0
290
     0
  0
ENDSEC
  0
EOF
