  0
SECTION
  2
HEADER
  9
$ACADVER
  1
AC1015
  9
$ACADMAINTVER
 70
     6
  9
$DWGCODEPAGE
  3
ANSI_1252
  9
$INSBASE
 10
0.0
 20
0.0
 30
0.0
  9
$EXTMIN
 10
0.0
 20
0.0
 30
0.0
  9
$EXTMAX
 10
279.4
 20
215.9
 30
0.0
  9
$LIMMIN
 10
0.0
 20
0.0
  9
$LIMMAX
 10
279.4
 20
215.9
  9
$ORTHOMODE
 70
     0
  9
$REGENMODE
 70
     1
  9
$FILLMODE
 70
     1
  9
$QTEXTMODE
 70
     0
  9
$MIRRTEXT
 70
     1
  9
$LTSCALE
 40
1.0
  9
$ATTMODE
 70
     1
  9
$TEXTSIZE
 40
3.5277777778
  9
$TRACEWID
 40
1.0
  9
$TEXTSTYLE
  7
Standard
  9
$CLAYER
  8
0
  9
$CELTYPE
  6
ByLayer
  9
$CECOLOR
 62
   256
  9
$CELTSCALE
 40
1.0
  9
$DISPSILH
 70
     0
  9
$DIMSCALE
 40
1.0
  9
$DIMASZ
 40
3.556
  9
$DIMEXO
 40
1.0
  9
$DIMDLI
 40
3.75
  9
$DIMRND
 40
0.0
  9
$DIMDLE
 40
0.0
  9
$DIMEXE
 40
1.0
  9
$DIMTP
 40
0.0
  9
$DIMTM
 40
0.0
  9
$DIMTXT
 40
3.5277777778
  9
$DIMCEN
 40
2.5
  9
$DIMTSZ
 40
0.0
  9
$DIMTOL
 70
     0
  9
$DIMLIM
 70
     0
  9
$DIMTIH
 70
     1
  9
$DIMTOH
 70
     1
  9
$DIMSE1
 70
     0
  9
$DIMSE2
 70
     0
  9
$DIMTAD
 70
     1
  9
$DIMZIN
 70
     0
  9
$DIMBLK
  1

  9
$DIMASO
 70
     1
  9
$DIMSHO
 70
     1
  9
$DIMPOST
  1

  9
$DIMAPOST
  1

  9
$DIMALT
 70
     0
  9
$DIMALTD
 70
     3
  9
$DIMALTF
 40
0.0393700787
  9
$DIMLFAC
 40
2.0
  9
$DIMTOFL
 70
     1
  9
$DIMTVP
 40
0.0
  9
$DIMTIX
 70
     0
  9
$DIMSOXD
 70
     0
  9
$DIMSAH
 70
     0
  9
$DIMBLK1
  1

  9
$DIMBLK2
  1

  9
$DIMSTYLE
  2
ISO-25
  9
$DIMCLRD
 70
     0
  9
$DIMCLRE
 70
     0
  9
$DIMCLRT
 70
     0
  9
$DIMTFAC
 40
1.0
  9
$DIMGAP
 40
1.524
  9
$DIMJUST
 70
     0
  9
$DIMSD1
 70
     0
  9
$DIMSD2
 70
     0
  9
$DIMTOLJ
 70
     0
  9
$DIMTZIN
 70
     0
  9
$DIMALTZ
 70
     0
  9
$DIMALTTZ
 70
     0
  9
$DIMUPT
 70
     0
  9
$DIMDEC
 70
     2
  9
$DIMTDEC
 70
     2
  9
$DIMALTU
 70
     2
  9
$DIMALTTD
 70
     3
  9
$DIMTXSTY
  7
Standard
  9
$DIMAUNIT
 70
     0
  9
$DIMADEC
 70
     2
  9
$DIMALTRND
 40
0.0
  9
$DIMAZIN
 70
     0
  9
$DIMDSEP
 70
    44
  9
$DIMATFIT
 70
     3
  9
$DIMFRAC
 70
     0
  9
$DIMLDRBLK
  1

  9
$DIMLUNIT
 70
     2
  9
$DIMLWD
 70
    -2
  9
$DIMLWE
 70
    -2
  9
$DIMTMOVE
 70
     0
  9
$LUNITS
 70
     2
  9
$LUPREC
 70
     2
  9
$SKETCHINC
 40
1.0
  9
$FILLETRAD
 40
10.0
  9
$AUNITS
 70
     0
  9
$AUPREC
 70
     2
  9
$MENU
  1
.
  9
$ELEVATION
 40
0.0
  9
$PELEVATION
 40
0.0
  9
$THICKNESS
 40
0.0
  9
$LIMCHECK
 70
     0
  9
$CHAMFERA
 40
0.0
  9
$CHAMFERB
 40
0.0
  9
$CHAMFERC
 40
0.0
  9
$CHAMFERD
 40
0.0
  9
$SKPOLY
 70
     0
  9
$TDCREATE
 40
2460383.732145903
  9
$TDUCREATE
 40
2460383.502979236
  9
$TDUPDATE
 40
2460383.732146424
  9
$TDUUPDATE
 40
2460383.502979757
  9
$TDINDWG
 40
0.0000000116
  9
$TDUSRTIMER
 40
0.0000000116
  9
$USRTIMER
 70
     1
  9
$ANGBASE
 50
0.0
  9
$ANGDIR
 70
     0
  9
$PDMODE
 70
     0
  9
$PDSIZE
 40
-1.0
  9
$PLINEWID
 40
0.0
  9
$SPLFRAME
 70
     0
  9
$SPLINETYPE
 70
     6
  9
$SPLINESEGS
 70
     8
  9
$HANDSEED
  5
2DC
  9
$SURFTAB1
 70
     6
  9
$SURFTAB2
 70
     6
  9
$SURFTYPE
 70
     6
  9
$SURFU
 70
     6
  9
$SURFV
 70
     6
  9
$UCSBASE
  2

  9
$UCSNAME
  2

  9
$UCSORG
 10
0.0
 20
0.0
 30
0.0
  9
$UCSXDIR
 10
1.0
 20
0.0
 30
0.0
  9
$UCSYDIR
 10
0.0
 20
1.0
 30
0.0
  9
$UCSORTHOREF
  2

  9
$UCSORTHOVIEW
 70
     0
  9
$UCSORGTOP
 10
0.0
 20
0.0
 30
0.0
  9
$UCSORGBOTTOM
 10
0.0
 20
0.0
 30
0.0
  9
$UCSORGLEFT
 10
0.0
 20
0.0
 30
0.0
  9
$UCSORGRIGHT
 10
0.0
 20
0.0
 30
0.0
  9
$UCSORGFRONT
 10
0.0
 20
0.0
 30
0.0
  9
$UCSORGBACK
 10
0.0
 20
0.0
 30
0.0
  9
$PUCSBASE
  2

  9
$PUCSNAME
  2

  9
$PUCSORG
 10
0.0
 20
0.0
 30
0.0
  9
$PUCSXDIR
 10
1.0
 20
0.0
 30
0.0
  9
$PUCSYDIR
 10
0.0
 20
1.0
 30
0.0
  9
$PUCSORTHOREF
  2

  9
$PUCSORTHOVIEW
 70
     0
  9
$PUCSORGTOP
 10
0.0
 20
0.0
 30
0.0
  9
$PUCSORGBOTTOM
 10
0.0
 20
0.0
 30
0.0
  9
$PUCSORGLEFT
 10
0.0
 20
0.0
 30
0.0
  9
$PUCSORGRIGHT
 10
0.0
 20
0.0
 30
0.0
  9
$PUCSORGFRONT
 10
0.0
 20
0.0
 30
0.0
  9
$PUCSORGBACK
 10
0.0
 20
0.0
 30
0.0
  9
$USERI1
 70
     0
  9
$USERI2
 70
     0
  9
$USERI3
 70
     0
  9
$USERI4
 70
     0
  9
$USERI5
 70
     0
  9
$USERR1
 40
0.0
  9
$USERR2
 40
0.0
  9
$USERR3
 40
0.0
  9
$USERR4
 40
0.0
  9
$USERR5
 40
0.0
  9
$WORLDVIEW
 70
     1
  9
$SHADEDGE
 70
     3
  9
$SHADEDIF
 70
    70
  9
$TILEMODE
 70
     1
  9
$MAXACTVP
 70
    64
  9
$PINSBASE
 10
0.0
 20
0.0
 30
0.0
  9
$PLIMCHECK
 70
     0
  9
$PEXTMIN
 10
1.0000000000E+20
 20
1.0000000000E+20
 30
1.0000000000E+20
  9
$PEXTMAX
 10
-1.0000000000E+20
 20
-1.0000000000E+20
 30
-1.0000000000E+20
  9
$PLIMMIN
 10
0.0
 20
0.0
  9
$PLIMMAX
 10
420.0
 20
297.0
  9
$UNITMODE
 70
     0
  9
$VISRETAIN
 70
     1
  9
$PLINEGEN
 70
     0
  9
$PSLTSCALE
 70
     1
  9
$TREEDEPTH
 70
  3020
  9
$CMLSTYLE
  2
Standard
  9
$CMLJUST
 70
     0
  9
$CMLSCALE
 40
20.0
  9
$PROXYGRAPHICS
 70
     1
  9
$MEASUREMENT
 70
     1
  9
$CELWEIGHT
370
    -1
  9
$ENDCAPS
280
     0
  9
$JOINSTYLE
280
     0
  9
$LWDISPLAY
290
     1
  9
$INSUNITS
 70
     4
  9
$HYPERLINKBASE
  1

  9
$STYLESHEET
  1

  9
$XEDIT
290
     1
  9
$CEPSNTYPE
380
     0
  9
$PSTYLEMODE
290
     1
  9
$FINGERPRINTGUID
  2
{f01dd6f3-867d-4f5b-9dce-d7aa0e1c09cf}
  9
$VERSIONGUID
  2
{FAEB1C32-E019-11D5-929B-00C0DF256EC4}
  9
$EXTNAMES
290
     1
  9
$PSVPSCALE
 40
0.0
  9
$OLESTARTUP
290
     0
  0
ENDSEC
  0
SECTION
  2
CLASSES
  0
CLASS
  1
ACDBDICTIONARYWDFLT
  2
AcDbDictionaryWithDefault
  3
ObjectDBX Classes
 90
        0
280
     0
281
     0
  0
CLASS
  1
VISUALSTYLE
  2
AcDbVisualStyle
  3
ObjectDBX Classes
 90
     4095
280
     0
281
     0
  0
CLASS
  1
MATERIAL
  2
AcDbMaterial
  3
ObjectDBX Classes
 90
     1153
280
     0
281
     0
  0
CLASS
  1
SCALE
  2
AcDbScale
  3
ObjectDBX Classes
 90
     1153
280
     0
281
     0
  0
CLASS
  1
TABLESTYLE
  2
AcDbTableStyle
  3
ObjectDBX Classes
 90
     4095
280
     0
281
     0
  0
CLASS
  1
MLEADERSTYLE
  2
AcDbMLeaderStyle
  3
ACDB_MLEADERSTYLE_CLASS
 90
     4095
280
     0
281
     0
  0
CLASS
  1
SUN
  2
AcDbSun
  3
SCENEOE
 90
     1153
280
     0
281
     0
  0
CLASS
  1
ACDBPLACEHOLDER
  2
AcDbPlaceHolder
  3
ObjectDBX Classes
 90
        0
280
     0
281
     0
  0
CLASS
  1
LAYOUT
  2
AcDbLayout
  3
ObjectDBX Classes
 90
        0
280
     0
281
     0
  0
ENDSEC
  0
SECTION
  2
TABLES
  0
TABLE
  2
VPORT
  5
8
330
0
100
AcDbSymbolTable
 70
     1
  0
VPORT
  5
29
330
8
100
AcDbSymbolTableRecord
100
AcDbViewportTableRecord
  2
*Active
 70
     0
 10
0.0
 20
0.0
 11
1.0
 21
1.0
 12
139.7
 22
107.95
 13
0.0
 23
0.0
 14
10.0
 24
10.0
 15
10.0
 25
10.0
 16
0.0
 26
0.0
 36
1.0
 17
0.0
 27
0.0
 37
0.0
 40
215.9
 41
1.2941176471
 42
50.0
 43
0.0
 44
0.0
 50
0.0
 51
0.0
 71
     0
 72
  2000
 73
     1
 74
     3
 75
     0
 76
     0
 77
     0
 78
     0
281
     0
 65
     1
110
0.0
120
0.0
130
0.0
111
1.0
121
0.0
131
0.0
112
0.0
122
1.0
132
0.0
 79
     0
146
0.0
  0
ENDTAB
  0
TABLE
  2
LTYPE
  5
5
330
0
100
AcDbSymbolTable
 70
     6
  0
LTYPE
  5
14
330
5
100
AcDbSymbolTableRecord
100
AcDbLinetypeTableRecord
  2
ByBlock
 70
     0
  3

 72
    65
 73
     0
 40
0.0
  0
LTYPE
  5
15
330
5
100
AcDbSymbolTableRecord
100
AcDbLinetypeTableRecord
  2
ByLayer
 70
     0
  3

 72
    65
 73
     0
 40
0.0
  0
LTYPE
  5
16
330
5
100
AcDbSymbolTableRecord
100
AcDbLinetypeTableRecord
  2
Continuous
 70
     0
  3
Solid line
 72
    65
 73
     0
 40
0.0
  0
LTYPE
  5
6E
330
5
100
AcDbSymbolTableRecord
100
AcDbLinetypeTableRecord
  2
HIDDEN
 70
     0
  3
Hidden __ __ __ __ __ __ __ __ __ __ __ __ __ __
 72
    65
 73
     2
 40
1.905
 49
1.27
 74
     0
 49
-0.635
 74
     0
  0
LTYPE
  5
6F
330
5
100
AcDbSymbolTableRecord
100
AcDbLinetypeTableRecord
  2
PHANTOM
 70
     0
  3
Phantom ______  __  __  ______  __  __  ______
 72
    65
 73
     6
 40
12.7
 49
6.35
 74
     0
 49
-1.27
 74
     0
 49
1.27
 74
     0
 49
-1.27
 74
     0
 49
1.27
 74
     0
 49
-1.27
 74
     0
  0
LTYPE
  5
70
330
5
100
AcDbSymbolTableRecord
100
AcDbLinetypeTableRecord
  2
CENTER
 70
     0
  3
Center ____ _ ____ _ ____ _ ____ _ ____ _ ____
 72
    65
 73
     4
 40
10.16
 49
6.35
 74
     0
 49
-1.27
 74
     0
 49
1.27
 74
     0
 49
-1.27
 74
     0
  0
LTYPE
  5
71
330
5
100
AcDbSymbolTableRecord
100
AcDbLinetypeTableRecord
  2
CENTERX2
 70
     0
  3
Center (2x) ________  __  ________  __  _____
 72
    65
 73
     4
 40
20.32
 49
12.7
 74
     0
 49
-2.54
 74
     0
 49
2.54
 74
     0
 49
-2.54
 74
     0
  0
LTYPE
  5
72
330
5
100
AcDbSymbolTableRecord
100
AcDbLinetypeTableRecord
  2
DOT2
 70
     0
  3
Dot (.5x) ........................................
 72
    65
 73
     2
 40
0.635
 49
0.0
 74
     0
 49
-0.635
 74
     0
  0
ENDTAB
  0
TABLE
  2
LAYER
  5
2
330
0
100
AcDbSymbolTable
 70
     4
  0
LAYER
  5
10
330
2
100
AcDbSymbolTableRecord
100
AcDbLayerTableRecord
  2
0
 70
     0
 62
     7
  6
Continuous
370
    -3
390
F
  0
LAYER
  5
73
330
2
100
AcDbSymbolTableRecord
100
AcDbLayerTableRecord
  2
FORMAT
 70
     0
 62
     7
  6
Continuous
370
    -3
390
F
  0
LAYER
  5
74
330
2
100
AcDbSymbolTableRecord
100
AcDbLayerTableRecord
  2
OUT_LINE
 70
     0
 62
     7
  6
Continuous
370
    50
390
F
  0
LAYER
  5
75
330
2
100
AcDbSymbolTableRecord
100
AcDbLayerTableRecord
  2
WATERMARK
 70
     0
 62
   254
  6
Continuous
370
    -3
390
F
  0
ENDTAB
  0
TABLE
  2
STYLE
  5
3
330
0
100
AcDbSymbolTable
 70
     1
  0
STYLE
  5
11
330
3
100
AcDbSymbolTableRecord
100
AcDbTextStyleTableRecord
  2
Standard
 70
     0
 40
0.0
 41
1.0
 50
0.0
 71
     0
 42
3.5277777778
  3
txt
  4

  0
ENDTAB
  0
TABLE
  2
VIEW
  5
6
330
0
100
AcDbSymbolTable
 70
     0
  0
ENDTAB
  0
TABLE
  2
UCS
  5
7
330
0
100
AcDbSymbolTable
 70
     0
  0
ENDTAB
  0
TABLE
  2
APPID
  5
9
330
0
100
AcDbSymbolTable
 70
     1
  0
APPID
  5
12
330
9
100
AcDbSymbolTableRecord
100
AcDbRegAppTableRecord
  2
ACAD
 70
     0
  0
ENDTAB
  0
TABLE
  2
DIMSTYLE
  5
A
330
0
100
AcDbSymbolTable
 70
     1
100
AcDbDimStyleTable
  0
DIMSTYLE
105
27
330
A
100
AcDbSymbolTableRecord
100
AcDbDimStyleTableRecord
  2
ISO-25
 70
     0
 41
2.5
 42
0.625
 43
3.75
 44
1.25
 73
     0
 74
     0
 77
     1
 78
     8
140
2.5
141
2.5
143
0.0393700787
147
0.625
171
     3
172
     1
178
     0
271
     2
272
     2
274
     3
278
    44
283
     0
284
     8
340
11
  0
ENDTAB
  0
TABLE
  2
BLOCK_RECORD
  5
1
330
0
100
AcDbSymbolTable
 70
     7
  0
BLOCK_RECORD
  5
1F
330
1
100
AcDbSymbolTableRecord
100
AcDbBlockTableRecord
  2
*Model_Space
340
22
  0
BLOCK_RECORD
  5
1B
330
1
100
AcDbSymbolTableRecord
100
AcDbBlockTableRecord
  2
*Paper_Space
340
1E
  0
BLOCK_RECORD
  5
23
330
1
100
AcDbSymbolTableRecord
100
AcDbBlockTableRecord
  2
*Paper_Space0
340
26
  0
BLOCK_RECORD
  5
76
330
1
100
AcDbSymbolTableRecord
100
AcDbBlockTableRecord
  2
Block6
340
0
  0
BLOCK_RECORD
  5
7B
330
1
100
AcDbSymbolTableRecord
100
AcDbBlockTableRecord
  2
Block4
340
0
  0
BLOCK_RECORD
  5
7F
330
1
100
AcDbSymbolTableRecord
100
AcDbBlockTableRecord
  2
Block5
340
0
  0
BLOCK_RECORD
  5
8D
330
1
100
AcDbSymbolTableRecord
100
AcDbBlockTableRecord
  2
Block2
340
0
  0
BLOCK_RECORD
  5
98
330
1
100
AcDbSymbolTableRecord
100
AcDbBlockTableRecord
  2
Block3
340
0
  0
BLOCK_RECORD
  5
A5
330
1
100
AcDbSymbolTableRecord
100
AcDbBlockTableRecord
  2
Block7
340
0
  0
ENDTAB
  0
ENDSEC
  0
SECTION
  2
BLOCKS
  0
BLOCK
  5
20
330
1F
100
AcDbEntity
  8
0
100
AcDbBlockBegin
  2
*Model_Space
 70
     0
 10
0.0
 20
0.0
 30
0.0
  3
*Model_Space
  1

  0
ENDBLK
  5
21
330
1F
100
AcDbEntity
  8
0
100
AcDbBlockEnd
  0
BLOCK
  5
1C
330
1B
100
AcDbEntity
 67
     1
  8
0
100
AcDbBlockBegin
  2
*Paper_Space
 70
     0
 10
0.0
 20
0.0
 30
0.0
  3
*Paper_Space
  1

  0
ENDBLK
  5
1D
330
1B
100
AcDbEntity
 67
     1
  8
0
100
AcDbBlockEnd
  0
BLOCK
  5
24
330
23
100
AcDbEntity
  8
0
100
AcDbBlockBegin
  2
*Paper_Space0
 70
     0
 10
0.0
 20
0.0
 30
0.0
  3
*Paper_Space0
  1

  0
ENDBLK
  5
25
330
23
100
AcDbEntity
  8
0
100
AcDbBlockEnd
  0
BLOCK
  5
77
330
76
100
AcDbEntity
  8
0
100
AcDbBlockBegin
  2
Block6
 70
     0
 10
0.0
 20
0.0
 30
0.0
  3
Block6
  1

  0
LINE
  5
79
330
76
100
AcDbEntity
  8
FORMAT
100
AcDbLine
 10
253.5616893058
 20
55.3714964458
 30
0.0
 11
250.6928867464
 21
53.8486167051
 31
0.0
  0
LINE
  5
7A
330
76
100
AcDbEntity
  8
FORMAT
100
AcDbLine
 10
250.6928867464
 20
53.8486167051
 30
0.0
 11
253.5616893058
 21
53.8486167051
 31
0.0
  0
ENDBLK
  5
78
330
76
100
AcDbEntity
  8
0
100
AcDbBlockEnd
  0
BLOCK
  5
7C
330
7B
100
AcDbEntity
  8
0
100
AcDbBlockBegin
  2
Block4
 70
     0
 10
0.0
 20
0.0
 30
0.0
  3
Block4
  1

  0
LINE
  5
7E
330
7B
100
AcDbEntity
  8
FORMAT
100
AcDbLine
 10
250.0093082872
 20
64.7263291389
 30
0.0
 11
290.0093082872
 21
64.7263291389
 31
0.0
  0
ENDBLK
  5
7D
330
7B
100
AcDbEntity
  8
0
100
AcDbBlockEnd
  0
BLOCK
  5
80
330
7F
100
AcDbEntity
  8
0
100
AcDbBlockBegin
  2
Block5
 70
     0
 10
0.0
 20
0.0
 30
0.0
  3
Block5
  1

  0
LINE
  5
82
330
7F
100
AcDbEntity
  8
FORMAT
100
AcDbLine
 10
251.0883122991
 20
64.4632252413
 30
0.0
 11
250.3611798328
 21
64.9733337839
 31
0.0
  0
LINE
  5
83
330
7F
100
AcDbEntity
  8
FORMAT
100
AcDbLine
 10
250.3611798328
 20
64.9733337839
 30
0.0
 11
251.0883122991
 21
65.4834423266
 31
0.0
  0
LINE
  5
84
330
7F
100
AcDbEntity
  8
FORMAT
100
AcDbLine
 10
250.3611798328
 20
65.6106440044
 30
0.0
 11
250.3611798328
 21
64.3360235634
 31
0.0
  0
LINE
  5
85
330
7F
100
AcDbEntity
  8
FORMAT
100
AcDbLine
 10
251.0883122991
 20
65.4834423266
 30
0.0
 11
251.0883122991
 21
64.4632252413
 31
0.0
  0
LINE
  5
86
330
7F
100
AcDbEntity
  8
FORMAT
  6
Continuous
 62
     7
370
    18
100
AcDbLine
 10
254.0738326611
 20
65.4834423266
 30
0.0
 11
254.0738326611
 21
64.4632252413
 31
0.0
  0
LINE
  5
87
330
7F
100
AcDbEntity
  8
FORMAT
100
AcDbLine
 10
251.0883122991
 20
64.9733337839
 30
0.0
 11
254.0738326611
 21
64.9733337839
 31
0.0
  0
LINE
  5
88
330
7F
100
AcDbEntity
  8
FORMAT
100
AcDbLine
 10
254.0738326611
 20
64.9733337839
 30
0.0
 11
254.0738326611
 21
64.4632252413
 31
0.0
  0
LINE
  5
89
330
7F
100
AcDbEntity
  8
FORMAT
  6
Continuous
 62
     7
370
    18
100
AcDbLine
 10
254.0738326611
 20
64.4632252413
 30
0.0
 11
254.8009651274
 21
64.9733337839
 31
0.0
  0
LINE
  5
8A
330
7F
100
AcDbEntity
  8
FORMAT
  6
Continuous
 62
     7
370
    18
100
AcDbLine
 10
254.8009651274
 20
64.9733337839
 30
0.0
 11
254.0738326611
 21
65.4834423266
 31
0.0
  0
LINE
  5
8B
330
7F
100
AcDbEntity
  8
FORMAT
100
AcDbLine
 10
254.0738326611
 20
65.4834423266
 30
0.0
 11
254.0738326611
 21
64.9733337839
 31
0.0
  0
LINE
  5
8C
330
7F
100
AcDbEntity
  8
FORMAT
100
AcDbLine
 10
254.8009651274
 20
65.6106440044
 30
0.0
 11
254.8009651274
 21
64.3360235634
 31
0.0
  0
ENDBLK
  5
81
330
7F
100
AcDbEntity
  8
0
100
AcDbBlockEnd
  0
BLOCK
  5
8E
330
8D
100
AcDbEntity
  8
0
100
AcDbBlockBegin
  2
Block2
 70
     0
 10
0.0
 20
0.0
 30
0.0
  3
Block2
  1

  0
CIRCLE
  5
90
330
8D
100
AcDbEntity
  8
FORMAT
100
AcDbCircle
 10
48.741006851
 20
68.2700462855
 30
0.0
 40
7.000000000000013
  0
CIRCLE
  5
91
330
8D
100
AcDbEntity
  8
FORMAT
100
AcDbCircle
 10
48.741006851
 20
68.2700462855
 30
0.0
 40
3.32888862482043
  0
LINE
  5
92
330
8D
100
AcDbEntity
  8
FORMAT
100
AcDbLine
 10
60.4734604481
 20
71.6747664277
 30
0.0
 11
76.4734604481
 21
75.1747664277
 31
0.0
  0
LINE
  5
93
330
8D
100
AcDbEntity
  8
FORMAT
100
AcDbLine
 10
76.4734604481
 20
75.1747664277
 30
0.0
 11
76.4734604481
 21
61.3653261433
 31
0.0
  0
LINE
  5
94
330
8D
100
AcDbEntity
  8
FORMAT
100
AcDbLine
 10
76.4734604481
 20
61.3653261433
 30
0.0
 11
60.4734604481
 21
64.8653261433
 31
0.0
  0
LINE
  5
95
330
8D
100
AcDbEntity
  8
FORMAT
100
AcDbLine
 10
60.4734604481
 20
64.8653261433
 30
0.0
 11
60.4734604481
 21
71.6747664277
 31
0.0
  0
LINE
  5
96
330
8D
100
AcDbEntity
  8
FORMAT
  6
CENTERX2
100
AcDbLine
 10
76.4734604481
 20
68.2700462855
 30
0.0
 11
39.8388877958
 21
68.2700462855
 31
0.0
  0
LINE
  5
97
330
8D
100
AcDbEntity
  8
FORMAT
100
AcDbLine
 10
48.741006851
 20
76.8424572275
 30
0.0
 11
48.741006851
 21
59.6976353435
 31
0.0
  0
ENDBLK
  5
8F
330
8D
100
AcDbEntity
  8
0
100
AcDbBlockEnd
  0
BLOCK
  5
99
330
98
100
AcDbEntity
  8
0
100
AcDbBlockBegin
  2
Block3
 70
     0
 10
0.0
 20
0.0
 30
0.0
  3
Block3
  1

  0
ARC
  5
9B
330
98
100
AcDbEntity
  8
FORMAT
100
AcDbCircle
 10
253.5616893058
 20
61.9516976285
 30
0.0
 40
0.5251511718353873
100
AcDbArc
 50
349.3356822367
 51
90.0
  0
LINE
  5
9C
330
98
100
AcDbEntity
  8
FORMAT
100
AcDbLine
 10
250.6928867464
 20
62.4768488003
 30
0.0
 11
250.6928867464
 21
61.2321831396
 31
0.0
  0
LINE
  5
9D
330
98
100
AcDbEntity
  8
FORMAT
100
AcDbLine
 10
250.6928867464
 20
61.2321831396
 30
0.0
 11
251.7250485138
 21
61.2321831396
 31
0.0
  0
LINE
  5
9E
330
98
100
AcDbEntity
  8
FORMAT
100
AcDbLine
 10
251.7250485138
 20
61.2321831396
 30
0.0
 11
251.7250485138
 21
61.85451597
 31
0.0
  0
LINE
  5
9F
330
98
100
AcDbEntity
  8
FORMAT
100
AcDbLine
 10
251.7250485138
 20
61.85451597
 30
0.0
 11
251.2089676301
 21
62.4768488003
 31
0.0
  0
LINE
  5
A0
330
98
100
AcDbEntity
  8
FORMAT
100
AcDbLine
 10
251.2089676301
 20
62.4768488003
 30
0.0
 11
250.6928867464
 21
62.4768488003
 31
0.0
  0
LINE
  5
A1
330
98
100
AcDbEntity
  8
0
  6
Continuous
 62
     7
370
    18
100
AcDbLine
 10
253.0456084221
 20
61.2321831396
 30
0.0
 11
254.0777701895
 21
61.2321831396
 31
0.0
  0
LINE
  5
A2
330
98
100
AcDbEntity
  8
0
  6
Continuous
 62
     7
370
    18
100
AcDbLine
 10
254.0777701895
 20
61.2321831396
 30
0.0
 11
254.0777701895
 21
61.85451597
 31
0.0
  0
LINE
  5
A3
330
98
100
AcDbEntity
  8
0
  6
Continuous
 62
     7
370
    18
100
AcDbLine
 10
253.0456084221
 20
62.4768488003
 30
0.0
 11
253.0456084221
 21
61.2321831396
 31
0.0
  0
LINE
  5
A4
330
98
100
AcDbEntity
  8
0
  6
Continuous
 62
     7
370
    18
100
AcDbLine
 10
253.5616893058
 20
62.4768488003
 30
0.0
 11
253.0456084221
 21
62.4768488003
 31
0.0
  0
ENDBLK
  5
9A
330
98
100
AcDbEntity
  8
0
100
AcDbBlockEnd
  0
BLOCK
  5
A6
330
A5
100
AcDbEntity
  8
0
100
AcDbBlockBegin
  2
Block7
 70
     0
 10
0.0
 20
0.0
 30
0.0
  3
Block7
  1

  0
LINE
  5
A8
330
A5
100
AcDbEntity
  8
FORMAT
100
AcDbLine
 10
221.8284763776
 20
80.2705155621
 30
0.0
 11
222.3963943455
 21
79.286852787
 31
0.0
  0
LINE
  5
A9
330
A5
100
AcDbEntity
  8
FORMAT
100
AcDbLine
 10
222.3963943455
 20
79.286852787
 30
0.0
 11
222.9643123135
 21
80.2705155621
 31
0.0
  0
LINE
  5
AA
330
A5
100
AcDbEntity
  8
FORMAT
100
AcDbLine
 10
221.8284763776
 20
80.2705155621
 30
0.0
 11
222.9643123135
 21
80.2705155621
 31
0.0
  0
LINE
  5
AB
330
A5
100
AcDbEntity
  8
FORMAT
100
AcDbLine
 10
222.9643123135
 20
80.2705155621
 30
0.0
 11
223.3725273771
 21
80.9775647926
 31
0.0
  0
LINE
  5
AC
330
A5
100
AcDbEntity
  8
FORMAT
100
AcDbLine
 10
223.3725273771
 20
80.9775647926
 30
0.0
 11
224.1023154201
 21
80.9775647926
 31
0.0
  0
ENDBLK
  5
A7
330
A5
100
AcDbEntity
  8
0
100
AcDbBlockEnd
  0
ENDSEC
  0
SECTION
  2
ENTITIES
  0
LINE
  5
AD
330
1F
100
AcDbEntity
  8
0
  6
Continuous
 62
     7
370
    25
100
AcDbLine
 10
159.0565295579
 20
36.7903321461
 30
0.0
 11
159.0565295579
 21
39.057577679
 31
0.0
  0
LINE
  5
AE
330
1F
100
AcDbEntity
  8
0
  6
Continuous
 62
     7
370
    25
100
AcDbLine
 10
135.9565295579
 20
39.057577679
 30
0.0
 11
135.9565295579
 21
36.7903321461
 31
0.0
  0
LINE
  5
AF
330
1F
100
AcDbEntity
  8
0
  6
Continuous
 62
     7
370
    25
100
AcDbLine
 10
140.5312801199
 20
27.7243011252
 30
0.0
 11
140.863434855
 21
27.476452846
 31
0.0
  0
LINE
  5
B0
330
1F
100
AcDbEntity
  8
0
  6
Continuous
 62
     7
370
    25
100
AcDbLine
 10
154.1496242607
 20
27.476452846
 30
0.0
 11
154.4817789959
 21
27.7243011252
 31
0.0
  0
LINE
  5
B1
330
1F
100
AcDbEntity
  8
0
  6
Continuous
 62
     7
370
    25
100
AcDbLine
 10
156.1065295579
 20
39.7521703897
 30
0.0
 11
156.1065295579
 21
125.015688613
 31
0.0
  0
LINE
  5
B2
330
1F
100
AcDbEntity
  8
0
  6
Continuous
 62
     7
370
    25
100
AcDbLine
 10
138.9065295579
 20
125.015688613
 30
0.0
 11
138.9065295579
 21
39.7521703897
 31
0.0
  0
LINE
  5
B3
330
1F
100
AcDbEntity
  8
0
  6
Continuous
 62
     7
370
    25
100
AcDbLine
 10
138.9065295579
 20
39.7521703897
 30
0.0
 11
138.9065295579
 21
39.578522212
 31
0.0
  0
LINE
  5
B4
330
1F
100
AcDbEntity
  8
0
  6
Continuous
 62
     7
370
    25
100
AcDbLine
 10
156.1065295579
 20
39.578522212
 30
0.0
 11
156.1065295579
 21
39.7521703897
 31
0.0
  0
LINE
  5
B5
330
1F
100
AcDbEntity
  8
0
  6
Continuous
 62
     7
370
    25
100
AcDbLine
 10
158.3065295579
 20
39.057577679
 30
0.0
 11
158.3065295579
 21
39.0764416954
 31
0.0
  0
SPLINE
  5
B6
330
1F
100
AcDbEntity
  8
0
  6
Continuous
 62
     7
370
    25
100
AcDbSpline
210
0.0
220
0.0
230
1.0
 70
     8
 71
     3
 72
    52
 73
    48
 74
     0
 42
0.00000001
 43
0.00000001
 40
0.0
 40
0.0
 40
0.0
 40
0.0
 40
0.0021692124232678
 40
0.0267762707276502
 40
0.0533773230083715
 40
0.0809786709012334
 40
0.106724954653091
 40
0.1249929651828606
 40
0.146035384554755
 40
0.1624320565730226
 40
0.1804403310021609
 40
0.1987082935414311
 40
0.2126140866176452
 40
0.2255650888661231
 40
0.2368504202235597
 40
0.2464111544536263
 40
0.2566698872299223
 40
0.2672955781960749
 40
0.2795281662225199
 40
0.3009217041259605
 40
0.3240434143664783
 40
0.3470837826526817
 40
0.370148190011546
 40
0.3999235066628728
 40
0.428293759657663
 40
0.455874817856432
 40
0.4848697703228435
 40
0.5154959270517877
 40
0.5477477977688554
 40
0.5811244046398008
 40
0.6133042729481849
 40
0.6440044974356782
 40
0.6660712934987563
 40
0.6873186036311066
 40
0.7077514888365741
 40
0.7286499718535888
 40
0.7537280748806402
 40
0.7832068328600553
 40
0.8053043501160964
 40
0.8293456229049905
 40
0.855324721222878
 40
0.8832328096951355
 40
0.9130626326293639
 40
0.9448040105973095
 40
0.9698700201708613
 40
0.9960098270815844
 40
1.0
 40
1.0
 40
1.0
 40
1.0
 10
54.05862383519687
 20
124.4089515927563
 30
0.0
 10
53.95304532281938
 20
124.3900761673425
 30
0.0
 10
52.64980788967623
 20
124.1570821573697
 30
0.0
 10
50.32208180124682
 20
123.6589256745942
 30
0.0
 10
47.08726511479559
 20
122.8927635780262
 30
0.0
 10
44.21826779842095
 20
122.0635055368368
 30
0.0
 10
41.93779848960831
 20
121.2486275879885
 30
0.0
 10
40.12409330132284
 20
120.4507930689902
 30
0.0
 10
38.55242622890631
 20
119.5824838340458
 30
0.0
 10
37.09764335393215
 20
118.4915698148769
 30
0.0
 10
35.87303265114837
 20
117.2242807451899
 30
0.0
 10
34.88299808927545
 20
115.6061863266894
 30
0.0
 10
34.34107299528704
 20
113.7661439516177
 30
0.0
 10
34.26594588459446
 20
112.1261897573943
 30
0.0
 10
34.50287618005708
 20
110.7217990525405
 30
0.0
 10
34.93313764168786
 20
109.5135748833732
 30
0.0
 10
35.52412585671386
 20
108.4417092134676
 30
0.0
 10
36.23416198549562
 20
107.5120373180503
 30
0.0
 10
37.24675236234336
 20
106.4911021033238
 30
0.0
 10
38.66155539351601
 20
105.453326377371
 30
0.0
 10
40.53628118238553
 20
104.4525739578837
 30
0.0
 10
42.63655699658283
 20
103.5931621782117
 30
0.0
 10
45.11334834040842
 20
102.7707438230595
 30
0.0
 10
48.14879742634653
 20
101.9465808638003
 30
0.0
 10
51.77037437061595
 20
101.1326916298695
 30
0.0
 10
55.71980037029697
 20
100.3746651324735
 30
0.0
 10
60.17728378097541
 20
99.63447106403407
 30
0.0
 10
65.25652773286546
 20
98.90262972856783
 30
0.0
 10
70.92767484983354
 20
98.19003488934266
 30
0.0
 10
76.97832942920495
 20
97.52619637815198
 30
0.0
 10
83.12461274075432
 20
96.93544673436341
 30
0.0
 10
88.63021334142002
 20
96.46700541722451
 30
0.0
 10
93.42977921547983
 20
96.0976366927157
 30
0.0
 10
97.53892552264881
 20
95.80682407060617
 30
0.0
 10
101.5226405532416
 20
95.5471836381071
 30
0.0
 10
105.6726605534698
 20
95.2980120922154
 30
0.0
 10
110.2525940025904
 20
95.04769158012661
 30
0.0
 10
114.6972707235765
 20
94.83133095979103
 30
0.0
 10
118.830105942561
 20
94.65211341064241
 30
0.0
 10
122.5299350591503
 20
94.50853833221343
 30
0.0
 10
126.2104985898849
 20
94.3829623248872
 30
0.0
 10
129.7578404411876
 20
94.27912264142877
 30
0.0
 10
133.0229005212588
 20
94.20019731512232
 30
0.0
 10
135.6202412307572
 20
94.15119964260025
 30
0.0
 10
137.511285109313
 20
94.12410005668475
 30
0.0
 10
138.5632208092053
 20
94.1130749746822
 30
0.0
 10
138.8663814002222
 20
94.11131908045749
 30
0.0
 10
138.9065295578734
 20
94.11108654390677
 30
0.0
  0
SPLINE
  5
B7
330
1F
100
AcDbEntity
  8
0
  6
Continuous
 62
     7
370
    25
100
AcDbSpline
210
0.0
220
0.0
230
1.0
 70
     8
 71
     3
 72
    29
 73
    25
 74
     0
 42
0.00000001
 43
0.00000001
 40
0.0
 40
0.0
 40
0.0
 40
0.0
 40
0.041506505590771
 40
0.1019731074714535
 40
0.1555376493340072
 40
0.2022252723002159
 40
0.2420542401930275
 40
0.2764046744243714
 40
0.3114199465084395
 40
0.3478369514395989
 40
0.3985514127559705
 40
0.4517217329911297
 40
0.5073227588221867
 40
0.5643732611099872
 40
0.6190998425473585
 40
0.6711170039044945
 40
0.720432473393134
 40
0.7675463467271112
 40
0.8162890048393175
 40
0.854407915921898
 40
0.8937062500745695
 40
0.9332039637318604
 40
0.9726717795271546
 40
1.0
 40
1.0
 40
1.0
 40
1.0
 10
126.3383520167616
 20
106.3886249311627
 30
0.0
 10
125.3218757865673
 20
106.4210612305119
 30
0.0
 10
122.8245988323053
 20
106.5007506717798
 30
0.0
 10
118.3650775707958
 20
106.6786432137306
 30
0.0
 10
113.4641557125383
 20
106.9014981089284
 30
0.0
 10
108.9377915706903
 20
107.1344659367769
 30
0.0
 10
104.897410477612
 20
107.3638832695973
 30
0.0
 10
101.1624958880461
 20
107.594183246693
 30
0.0
 10
97.48398829389029
 20
107.8389436862029
 30
0.0
 10
93.19100427249543
 20
108.1477554875598
 30
0.0
 10
88.23180635850944
 20
108.5390154430263
 30
0.0
 10
82.62823444337205
 20
109.0326669679915
 30
0.0
 10
76.91713302550876
 20
109.5987804024725
 30
0.0
 10
71.3608913063048
 20
110.2242068957156
 30
0.0
 10
66.20761674084436
 20
110.8846004043368
 30
0.0
 10
61.62517207051532
 20
111.5545648179665
 30
0.0
 10
57.62829279702196
 20
112.2248380892748
 30
0.0
 10
54.09548372193665
 20
112.9078546206596
 30
0.0
 10
51.26346725082208
 20
113.54815340226
 30
0.0
 10
49.00460050403679
 20
114.1453470381132
 30
0.0
 10
47.23832155346761
 20
114.7012232863055
 30
0.0
 10
45.99163074340956
 20
115.1755625574827
 30
0.0
 10
45.30499376148614
 20
115.5153469043509
 30
0.0
 10
45.26645118645565
 20
115.5138809208968
 30
0.0
 10
45.25068228687909
 20
115.5132811440046
 30
0.0
  0
SPLINE
  5
B8
330
1F
100
AcDbEntity
  8
0
  6
Continuous
 62
     7
370
    25
100
AcDbSpline
210
0.0
220
0.0
230
1.0
 70
     8
 71
     3
 72
    11
 73
     7
 74
     0
 42
0.00000001
 43
0.00000001
 40
0.0
 40
0.0
 40
0.0
 40
0.0
 40
0.1469847948067657
 40
0.5390670048404279
 40
0.8798215696438761
 40
1.0
 40
1.0
 40
1.0
 40
1.0
 10
55.99526765991278
 20
112.5565180066394
 30
0.0
 10
56.41366051445347
 20
112.6391616979846
 30
0.0
 10
57.94811707671487
 20
112.9422575877396
 30
0.0
 10
60.81923463752274
 20
113.4172588043761
 30
0.0
 10
63.70288729823656
 20
113.8667544220047
 30
0.0
 10
65.39706030379544
 20
114.0939100064801
 30
0.0
 10
65.83877971789225
 20
114.153135971806
 30
0.0
  0
SPLINE
  5
B9
330
1F
100
AcDbEntity
  8
0
  6
Continuous
 62
     7
370
    25
100
AcDbSpline
210
0.0
220
0.0
230
1.0
 70
     8
 71
     3
 72
    10
 73
     6
 74
     0
 42
0.00000001
 43
0.00000001
 40
0.0
 40
0.0
 40
0.0
 40
0.0
 40
0.1784504878908836
 40
0.812586609373039
 40
1.0
 40
1.0
 40
1.0
 40
1.0
 10
72.05652955787342
 20
114.9477560966129
 30
0.0
 10
72.5544279964423
 20
115.0085794314025
 30
0.0
 10
74.82164289056018
 20
115.2855426830673
 30
0.0
 10
77.76981151880614
 20
115.6005138225479
 30
0.0
 10
80.24842653426616
 20
115.8337305054961
 30
0.0
 10
80.81385276513777
 20
115.8869323255421
 30
0.0
  0
SPLINE
  5
BA
330
1F
100
AcDbEntity
  8
0
  6
Continuous
 62
     7
370
    25
100
AcDbSpline
210
0.0
220
0.0
230
1.0
 70
     8
 71
     3
 72
     9
 73
     5
 74
     0
 42
0.00000001
 43
0.00000001
 40
0.0
 40
0.0
 40
0.0
 40
0.0
 40
0.0702442238240751
 40
1.0
 40
1.0
 40
1.0
 40
1.0
 10
84.75652955787342
 20
116.2616450376634
 30
0.0
 10
84.79117191681533
 20
116.2649498337024
 30
0.0
 10
85.28434213147476
 20
116.3119970620604
 30
0.0
 10
85.78812993633639
 20
116.3525264042774
 30
0.0
 10
86.2565295578734
 20
116.3902087943082
 30
0.0
  0
LINE
  5
BB
330
1F
100
AcDbEntity
  8
0
  6
Continuous
 62
     7
370
    25
100
AcDbLine
 10
86.8140622162
 20
116.4376069715
 30
0.0
 11
87.0012626668
 21
116.4535216627
 31
0.0
  0
ARC
  5
BC
330
1F
100
AcDbEntity
  8
0
  6
Continuous
 62
     7
370
    25
100
AcDbCircle
 10
140.3065295579
 20
100.0944718092
 30
0.0
 40
7.499999999999991
100
AcDbArc
 50
233.6832916761
 51
259.241681771
  0
SPLINE
  5
BD
330
1F
100
AcDbEntity
  8
0
  6
Continuous
 62
     7
370
    25
100
AcDbSpline
210
0.0
220
0.0
230
1.0
 70
     8
 71
     3
 72
    53
 73
    49
 74
     0
 42
0.00000001
 43
0.00000001
 40
0.0
 40
0.0
 40
0.0
 40
0.0
 40
0.0024413691190379
 40
0.0258446332472697
 40
0.0511443437983581
 40
0.0773954148138976
 40
0.1018821726990458
 40
0.1192564996192766
 40
0.139269509397441
 40
0.1548640449701538
 40
0.1719913422580112
 40
0.1893656235354709
 40
0.2025911356730681
 40
0.2149085660053428
 40
0.2256418112094503
 40
0.2347348277609745
 40
0.2444916962909221
 40
0.2545975711642932
 40
0.2662317325912104
 40
0.2865786839414405
 40
0.3085692642522503
 40
0.3304824819129616
 40
0.3524185626384059
 40
0.3807372503690982
 40
0.4077196111214026
 40
0.4339513850286061
 40
0.4615278845257482
 40
0.4906557886536641
 40
0.521329875725936
 40
0.5530736760877112
 40
0.5836792831585359
 40
0.6128776315994328
 40
0.6338649048581817
 40
0.6540727820002177
 40
0.673506076441603
 40
0.6933821913301299
 40
0.7172334563499957
 40
0.7452700932624877
 40
0.7662865848123612
 40
0.7891517420407312
 40
0.8138599250435953
 40
0.8404027306789196
 40
0.8687732582077553
 40
0.898961826186463
 40
0.9228015893728715
 40
0.947662618993941
 40
0.9735473351813404
 40
1.0
 40
1.0
 40
1.0
 40
1.0
 10
240.8965237199002
 20
125.6120226485078
 30
0.0
 10
241.0215179198743
 20
125.6343517911889
 30
0.0
 10
242.3447218676826
 20
125.8707308371998
 30
0.0
 10
244.6915311899678
 20
126.3723824900558
 30
0.0
 10
247.9256338379255
 20
127.1386336182712
 30
0.0
 10
250.7948321243205
 20
127.9678666010189
 30
0.0
 10
253.0752534277794
 20
128.7827505355329
 30
0.0
 10
254.8889677563543
 20
129.5805839148517
 30
0.0
 10
256.4606324703746
 20
130.4488934438586
 30
0.0
 10
257.9154158725606
 20
131.5398073972907
 30
0.0
 10
259.1400264329755
 20
132.8070964847294
 30
0.0
 10
260.1300610327846
 20
134.4251908984996
 30
0.0
 10
260.6719861190741
 20
136.2652332745313
 30
0.0
 10
260.7471132314631
 20
137.9051874685432
 30
0.0
 10
260.5101829356249
 20
139.3095781734438
 30
0.0
 10
260.0799214740765
 20
140.5178023426009
 30
0.0
 10
259.488933259028
 20
141.5896680125092
 30
0.0
 10
258.7788971302528
 20
142.5193399079257
 30
0.0
 10
257.7663067534027
 20
143.5402751226525
 30
0.0
 10
256.3515037222311
 20
144.5780508486052
 30
0.0
 10
254.4767779333613
 20
145.5788032680925
 30
0.0
 10
252.3765021191641
 20
146.4382150477645
 30
0.0
 10
249.8997107753384
 20
147.2606334029167
 30
0.0
 10
246.8642616894003
 20
148.0847963621759
 30
0.0
 10
243.2426847451308
 20
148.8986855961067
 30
0.0
 10
239.2932587454504
 20
149.6567120935027
 30
0.0
 10
234.8357753347696
 20
150.3969061619421
 30
0.0
 10
229.7565313828895
 20
151.1287474974082
 30
0.0
 10
224.085384265882
 20
151.8413423366339
 30
0.0
 10
218.0347296866631
 20
152.5051808478225
 30
0.0
 10
211.8884463745702
 20
153.0959304916184
 30
0.0
 10
206.3828457756503
 20
153.5643718087336
 30
0.0
 10
201.5832798968958
 20
153.9337405333062
 30
0.0
 10
197.4741336050986
 20
154.2245531552068
 30
0.0
 10
193.4904185191306
 20
154.4841935884587
 30
0.0
 10
189.3403987425908
 20
154.7333651313095
 30
0.0
 10
184.7604642271854
 20
154.983685657894
 30
0.0
 10
180.3157919008246
 20
155.2000462184861
 30
0.0
 10
176.1829433709451
 20
155.379263948592
 30
0.0
 10
172.4831660234954
 20
155.5228383232366
 30
0.0
 10
168.8023847828044
 20
155.6484172902581
 30
0.0
 10
165.2559477345296
 20
155.7522446732165
 30
0.0
 10
161.9871565020924
 20
155.8312207233141
 30
0.0
 10
159.4037224982082
 20
155.8800293387402
 30
0.0
 10
157.4699823018814
 20
155.9077093670749
 30
0.0
 10
156.1346910072176
 20
155.9212082161598
 30
0.0
 10
155.2515061286517
 20
155.9256432508074
 30
0.0
 10
155.1423984306871
 20
155.925280633218
 30
0.0
 10
155.0872525806672
 20
155.9250973569179
 30
0.0
  0
SPLINE
  5
BE
330
1F
100
AcDbEntity
  8
0
  6
Continuous
 62
     7
370
    25
100
AcDbSpline
210
0.0
220
0.0
230
1.0
 70
     8
 71
     3
 72
    29
 73
    25
 74
     0
 42
0.00000001
 43
0.00000001
 40
0.0
 40
0.0
 40
0.0
 40
0.0
 40
0.0425096874469878
 40
0.1029130035586309
 40
0.1564214835106482
 40
0.2030602421115357
 40
0.2428475240688922
 40
0.2771620063270887
 40
0.3121406306030608
 40
0.3485195206395258
 40
0.399180903006758
 40
0.4522955739330161
 40
0.5078384064214724
 40
0.5648291983104878
 40
0.6194985016193457
 40
0.6714612205908103
 40
0.7207250753480926
 40
0.7677896381930781
 40
0.8164812810917992
 40
0.8545602960246405
 40
0.8938174996156225
 40
0.9332738740359405
 40
0.9727003818860678
 40
1.0
 40
1.0
 40
1.0
 40
1.0
 10
168.5959489898307
 20
143.6453630811363
 30
0.0
 10
169.6377486044596
 20
143.6121370170578
 30
0.0
 10
172.1598731809196
 20
143.5316990214831
 30
0.0
 10
176.6475899165209
 20
143.3527679350158
 30
0.0
 10
181.5489892659449
 20
143.1298716796361
 30
0.0
 10
186.0752493173929
 20
142.8969128680756
 30
0.0
 10
190.1156524921967
 20
142.6674936225408
 30
0.0
 10
193.8505622412604
 20
142.4371940647284
 30
0.0
 10
197.5290710972039
 20
142.1924335159227
 30
0.0
 10
201.8220547350811
 20
141.8836217477861
 30
0.0
 10
206.7812527918462
 20
141.4923617799521
 30
0.0
 10
212.3848246624428
 20
140.998710258845
 30
0.0
 10
218.0959260930326
 20
140.4325968232616
 30
0.0
 10
223.6521678087182
 20
139.8071703303233
 30
0.0
 10
228.8054423750829
 20
139.1467768216238
 30
0.0
 10
233.3878870451869
 20
138.4768124080136
 30
0.0
 10
237.384766318736
 20
137.8065391367004
 30
0.0
 10
240.9175753938072
 20
137.1235226053168
 30
0.0
 10
243.7495918649254
 20
136.4832238237161
 30
0.0
 10
246.00845861171
 20
135.886030187863
 30
0.0
 10
247.7747375622794
 20
135.3301539396707
 30
0.0
 10
249.0214283723373
 20
134.8558146684935
 30
0.0
 10
249.7080653542608
 20
134.5160303216253
 30
0.0
 10
249.7466079292912
 20
134.5174963050794
 30
0.0
 10
249.7623768288678
 20
134.5180960819716
 30
0.0
  0
SPLINE
  5
BF
330
1F
100
AcDbEntity
  8
0
  6
Continuous
 62
     7
370
    25
100
AcDbSpline
210
0.0
220
0.0
230
1.0
 70
     8
 71
     3
 72
    11
 73
     7
 74
     0
 42
0.00000001
 43
0.00000001
 40
0.0
 40
0.0
 40
0.0
 40
0.0
 40
0.148796589288583
 40
0.5457117644292924
 40
0.8906666088670064
 40
1.0
 40
1.0
 40
1.0
 40
1.0
 10
239.0177914558338
 20
137.4748592193368
 30
0.0
 10
238.5994115833306
 20
137.3922140258841
 30
0.0
 10
237.0650026327152
 20
137.089112627147
 30
0.0
 10
234.1931077984303
 20
136.6142013461906
 30
0.0
 10
231.3529293035318
 20
136.1708545575575
 30
0.0
 10
229.7043654367841
 20
135.9496007715867
 30
0.0
 10
229.3076061462328
 20
135.8963517001227
 30
0.0
  0
SPLINE
  5
C0
330
1F
100
AcDbEntity
  8
0
  6
Continuous
 62
     7
370
    25
100
AcDbSpline
210
0.0
220
0.0
230
1.0
 70
     8
 71
     3
 72
    10
 73
     6
 74
     0
 42
0.00000001
 43
0.00000001
 40
0.0
 40
0.0
 40
0.0
 40
0.0
 40
0.2043186640539103
 40
0.9303791343889152
 40
1.0
 40
1.0
 40
1.0
 40
1.0
 10
222.9565295578734
 20
135.0836211293634
 30
0.0
 10
222.4585542058581
 20
135.0228325428216
 30
0.0
 10
220.1909890810551
 20
134.7460275197002
 30
0.0
 10
217.6208452622429
 20
134.4687807436556
 30
0.0
 10
215.5263992579719
 20
134.2705125734364
 30
0.0
 10
215.3431385263128
 20
134.2531644203377
 30
0.0
  0
SPLINE
  5
C1
330
1F
100
AcDbEntity
  8
0
  6
Continuous
 62
     7
370
    25
100
AcDbSpline
210
0.0
220
0.0
230
1.0
 70
     8
 71
     3
 72
     9
 73
     5
 74
     0
 42
0.00000001
 43
0.00000001
 40
0.0
 40
0.0
 40
0.0
 40
0.0
 40
0.9038974203370165
 40
1.0
 40
1.0
 40
1.0
 40
1.0
 10
211.5065295578734
 20
133.8885324133313
 30
0.0
 10
211.0581292349961
 20
133.8438419588478
 30
0.0
 10
210.5620548876325
 20
133.7944000050618
 30
0.0
 10
210.0552361463338
 20
133.7515537792131
 30
0.0
 10
210.0065295578734
 20
133.7474361463802
 30
0.0
  0
ARC
  5
C2
330
1F
100
AcDbEntity
  8
0
  6
Continuous
 62
     7
370
    25
100
AcDbCircle
 10
154.7065295579
 20
149.9369054167
 30
0.0
 40
7.499999999999987
100
AcDbArc
 50
53.6832916761
 51
153.6853547003
  0
LINE
  5
C3
330
1F
100
AcDbEntity
  8
0
  6
Continuous
 62
     7
370
    25
100
AcDbLine
 10
237.8065295579
 20
117.865688613
 30
0.0
 11
239.4115345474
 21
119.0905608418
 31
0.0
  0
LINE
  5
C4
330
1F
100
AcDbEntity
  8
0
  6
Continuous
 62
     7
370
    25
100
AcDbLine
 10
239.4115345474
 20
130.9408163841
 30
0.0
 11
237.8065295579
 21
132.165688613
 31
0.0
  0
ARC
  5
C5
330
1F
100
AcDbEntity
  8
0
  6
Continuous
 62
     7
370
    25
100
AcDbCircle
 10
238.9565295579
 20
119.6867742764
 30
0.0
 40
0.7500000000000014
100
AcDbArc
 50
307.3493490446
 51
0.0
  0
ARC
  5
C6
330
1F
100
AcDbEntity
  8
0
  6
Continuous
 62
     7
370
    25
100
AcDbCircle
 10
238.9565295579
 20
130.3446029496
 30
0.0
 40
0.7500000000000014
100
AcDbArc
 50
0.0
 51
52.6506509554
  0
ARC
  5
C7
330
1F
100
AcDbEntity
  8
0
  6
Continuous
 62
     7
370
    25
100
AcDbCircle
 10
55.3065295579
 20
129.015688613
 30
0.0
 40
0.5000000000000083
100
AcDbArc
 50
90.0
 51
156.742337232
  0
ARC
  5
C8
330
1F
100
AcDbEntity
  8
0
  6
Continuous
 62
     7
370
    25
100
AcDbCircle
 10
55.3065295579
 20
121.015688613
 30
0.0
 40
0.5000000000000027
100
AcDbArc
 50
203.257662768
 51
270.0
  0
ARC
  5
C9
330
1F
100
AcDbEntity
  8
0
  6
Continuous
 62
     7
370
    25
100
AcDbCircle
 10
64.6133496378
 20
125.015688613
 30
0.0
 40
10.63000000000001
100
AcDbArc
 50
186.6454578524
 51
203.257662768
  0
ARC
  5
CA
330
1F
100
AcDbEntity
  8
0
  6
Continuous
 62
     7
370
    25
100
AcDbCircle
 10
64.6133496378
 20
125.015688613
 30
0.0
 40
10.63000000000001
100
AcDbArc
 50
156.742337232
 51
173.3788698941
  0
LINE
  5
CB
330
1F
100
AcDbEntity
  8
0
  6
Continuous
 62
     7
370
    25
100
AcDbLine
 10
54.0497274131
 20
126.1423865167
 30
0.0
 11
54.3145985899
 21
126.1423865167
 31
0.0
  0
LINE
  5
CC
330
1F
100
AcDbEntity
  8
0
  6
Continuous
 62
     7
370
    25
100
AcDbLine
 10
54.1500856967
 20
123.8889907093
 30
0.0
 11
54.0497274131
 21
123.8889907093
 31
0.0
  0
ARC
  5
CD
330
1F
100
AcDbEntity
  8
0
  6
Continuous
 62
     7
370
    25
100
AcDbCircle
 10
239.7065295579
 20
121.015688613
 30
0.0
 40
0.5000000000000148
100
AcDbArc
 50
270.0
 51
336.742337232
  0
ARC
  5
CE
330
1F
100
AcDbEntity
  8
0
  6
Continuous
 62
     7
370
    25
100
AcDbCircle
 10
239.7065295579
 20
129.015688613
 30
0.0
 40
0.5000000000000036
100
AcDbArc
 50
23.257662768
 51
90.0
  0
ARC
  5
CF
330
1F
100
AcDbEntity
  8
0
  6
Continuous
 62
     7
370
    25
100
AcDbCircle
 10
230.399709478
 20
125.015688613
 30
0.0
 40
10.63000000000003
100
AcDbArc
 50
6.6431237694
 51
23.257662768
  0
ARC
  5
D0
330
1F
100
AcDbEntity
  8
0
  6
Continuous
 62
     7
370
    25
100
AcDbCircle
 10
230.399709478
 20
125.015688613
 30
0.0
 40
10.63000000000003
100
AcDbArc
 50
336.742337232
 51
353.3915325368
  0
LINE
  5
D1
330
1F
100
AcDbEntity
  8
0
  6
Continuous
 62
     7
370
    25
100
AcDbLine
 10
240.6984605258
 20
126.1423865167
 30
0.0
 11
240.9628052206
 21
126.1423865167
 31
0.0
  0
LINE
  5
D2
330
1F
100
AcDbEntity
  8
0
  6
Continuous
 62
     7
370
    25
100
AcDbLine
 10
240.9628052206
 20
123.8889907093
 30
0.0
 11
240.8629734191
 21
123.8889907093
 31
0.0
  0
LINE
  5
D3
330
1F
100
AcDbEntity
  8
0
  6
Continuous
 62
     7
370
    25
100
AcDbLine
 10
57.2065295579
 20
132.165688613
 30
0.0
 11
55.6015245684
 21
130.9408163841
 31
0.0
  0
LINE
  5
D4
330
1F
100
AcDbEntity
  8
0
  6
Continuous
 62
     7
370
    25
100
AcDbLine
 10
55.6015245684
 20
119.0905608418
 30
0.0
 11
57.2065295579
 21
117.865688613
 31
0.0
  0
ARC
  5
D5
330
1F
100
AcDbEntity
  8
0
  6
Continuous
 62
     7
370
    25
100
AcDbCircle
 10
56.0565295579
 20
130.3446029496
 30
0.0
 40
0.7500000000000071
100
AcDbArc
 50
127.3493490446
 51
180.0
  0
ARC
  5
D6
330
1F
100
AcDbEntity
  8
0
  6
Continuous
 62
     7
370
    25
100
AcDbCircle
 10
56.0565295579
 20
119.6867742764
 30
0.0
 40
0.7500000000000071
100
AcDbArc
 50
180.0
 51
232.6506509554
  0
LINE
  5
D7
330
1F
100
AcDbEntity
  8
0
  6
Continuous
 62
     7
370
    25
100
AcDbLine
 10
62.0684856007
 20
133.9913466572
 30
0.0
 11
57.6978033547
 21
133.9150561148
 31
0.0
  0
LINE
  5
D8
330
1F
100
AcDbEntity
  8
0
  6
Continuous
 62
     7
370
    25
100
AcDbLine
 10
57.6978033547
 20
116.1163211112
 30
0.0
 11
63.0019058146
 21
116.0237376583
 31
0.0
  0
ARC
  5
D9
330
1F
100
AcDbEntity
  8
0
  6
Continuous
 62
     7
370
    25
100
AcDbCircle
 10
57.7065295579
 20
133.4151322672
 30
0.0
 40
0.5000000000000048
100
AcDbArc
 50
91.0
 51
180.0
  0
ARC
  5
DA
330
1F
100
AcDbEntity
  8
0
  6
Continuous
 62
     7
370
    25
100
AcDbCircle
 10
57.7065295579
 20
116.6162449587
 30
0.0
 40
0.5
100
AcDbArc
 50
180.0
 51
269.0
  0
SPLINE
  5
DB
330
1F
100
AcDbEntity
  8
0
  6
Continuous
 62
     7
370
    25
100
AcDbSpline
210
0.0
220
0.0
230
1.0
 70
     8
 71
     3
 72
    12
 73
     8
 74
     0
 42
0.00000001
 43
0.00000001
 40
0.0
 40
0.0
 40
0.0
 40
0.0
 40
0.1110213958485456
 40
0.4537544599013376
 40
0.7304995870470201
 40
0.9573202587385995
 40
1.0
 40
1.0
 40
1.0
 40
1.0
 10
64.28015362812937
 20
115.6567503456933
 30
0.0
 10
64.37425798494982
 20
115.6009754661565
 30
0.0
 10
64.75887098028336
 20
115.373018502124
 30
0.0
 10
65.23924956768279
 20
115.0439774616759
 30
0.0
 10
65.63057359888361
 20
114.7495046441412
 30
0.0
 10
65.7731304450181
 20
114.5855313206653
 30
0.0
 10
65.75047644115237
 20
114.6194572213734
 30
0.0
 10
65.74688881390932
 20
114.6248299354573
 30
0.0
  0
ARC
  5
DC
330
1F
100
AcDbEntity
  8
0
  6
Continuous
 62
     7
370
    25
100
AcDbCircle
 10
62.9565295579
 20
113.4241336509
 30
0.0
 40
2.600000000000001
100
AcDbArc
 50
59.4420525213
 51
89.0
  0
SPLINE
  5
DD
330
1F
100
AcDbEntity
  8
0
  6
Continuous
 62
     7
370
    25
100
AcDbSpline
210
0.0
220
0.0
230
1.0
 70
     8
 71
     3
 72
    13
 73
     9
 74
     0
 42
0.00000001
 43
0.00000001
 40
0.0
 40
0.0
 40
0.0
 40
0.0
 40
0.0257777025631144
 40
0.1889924819795181
 40
0.3912819398086748
 40
0.6391253350241791
 40
0.9333979274773957
 40
0.9999999999999999
 40
0.9999999999999999
 40
0.9999999999999999
 40
0.9999999999999999
 10
65.78442207568594
 20
135.7535770750976
 30
0.0
 10
65.7873372641478
 20
135.7576356822457
 30
0.0
 10
65.80871033653435
 20
135.7873918731412
 30
0.0
 10
65.69062500992618
 20
135.6565383088696
 30
0.0
 10
65.38821066471266
 20
135.4266790822248
 30
0.0
 10
64.79312575368735
 20
135.0372414049712
 30
0.0
 10
64.20136766671477
 20
134.6930719428783
 30
0.0
 10
63.77688081546481
 20
134.4663447979342
 30
0.0
 10
63.69853864629719
 20
134.4245006364677
 30
0.0
  0
ARC
  5
DE
330
1F
100
AcDbEntity
  8
0
  6
Continuous
 62
     7
370
    25
100
AcDbCircle
 10
62.0065295579
 20
137.540805975
 30
0.0
 40
3.55000000000001
100
AcDbArc
 50
271.0
 51
298.1920130769
  0
ARC
  5
DF
330
1F
100
AcDbEntity
  8
0
  6
Continuous
 62
     7
370
    25
100
AcDbCircle
 10
71.5565295579
 20
113.5437989983
 30
0.0
 40
0.5000000000000061
100
AcDbArc
 50
269.0
 51
360.0
  0
ARC
  5
E0
330
1F
100
AcDbEntity
  8
0
  6
Continuous
 62
     7
370
    25
100
AcDbCircle
 10
71.5565295579
 20
136.4875782277
 30
0.0
 40
0.5000000000000345
100
AcDbArc
 50
0.0
 51
91.0
  0
LINE
  5
E1
330
1F
100
AcDbEntity
  8
0
  6
Continuous
 62
     7
370
    25
100
AcDbLine
 10
67.521624745
 20
113.1141523597
 30
0.0
 11
71.5478033547
 21
113.0438751507
 31
0.0
  0
LINE
  5
E2
330
1F
100
AcDbEntity
  8
0
  6
Continuous
 62
     7
370
    25
100
AcDbLine
 10
71.5478033547
 20
136.9875020753
 30
0.0
 11
67.521624745
 21
136.9172248663
 31
0.0
  0
ARC
  5
E3
330
1F
100
AcDbEntity
  8
0
  6
Continuous
 62
     7
370
    25
100
AcDbCircle
 10
67.5565295579
 20
115.11384775
 30
0.0
 40
1.999999999999998
100
AcDbArc
 50
194.5234270308
 51
269.0
  0
LINE
  5
E4
330
1F
100
AcDbEntity
  8
0
  6
Continuous
 62
     7
370
    25
100
AcDbLine
 10
57.2065295579
 20
129.7748872953
 30
0.0
 11
57.1310640038
 21
129.5197484089
 31
0.0
  0
LINE
  5
E5
330
1F
100
AcDbEntity
  8
0
  6
Continuous
 62
     7
370
    25
100
AcDbLine
 10
57.1349133279
 20
120.5123075528
 30
0.0
 11
57.2065295579
 21
120.2667219366
 31
0.0
  0
ARC
  5
E6
330
1F
100
AcDbEntity
  8
0
  6
Continuous
 62
     7
370
    25
100
AcDbCircle
 10
67.5565295579
 20
134.9175294759
 30
0.0
 40
1.999999999999998
100
AcDbArc
 50
91.0
 51
154.3886051651
  0
LINE
  5
E7
330
1F
100
AcDbEntity
  8
0
  6
Continuous
 62
     7
370
    25
100
AcDbLine
 10
232.944573515
 20
116.2854518576
 30
0.0
 11
237.3152557611
 21
116.3617424
 31
0.0
  0
LINE
  5
E8
330
1F
100
AcDbEntity
  8
0
  6
Continuous
 62
     7
370
    25
100
AcDbLine
 10
237.3152557611
 20
134.1604774037
 30
0.0
 11
232.0111533011
 21
134.2530608565
 31
0.0
  0
ARC
  5
E9
330
1F
100
AcDbEntity
  8
0
  6
Continuous
 62
     7
370
    25
100
AcDbCircle
 10
237.3065295579
 20
116.8616662476
 30
0.0
 40
0.5000000000000053
100
AcDbArc
 50
271.0
 51
0.0
  0
ARC
  5
EA
330
1F
100
AcDbEntity
  8
0
  6
Continuous
 62
     7
370
    25
100
AcDbCircle
 10
237.3065295579
 20
133.6605535561
 30
0.0
 40
0.5000000000000053
100
AcDbArc
 50
0.0
 51
89.0
  0
SPLINE
  5
EB
330
1F
100
AcDbEntity
  8
0
  6
Continuous
 62
     7
370
    25
100
AcDbSpline
210
0.0
220
0.0
230
1.0
 70
     8
 71
     3
 72
    12
 73
     8
 74
     0
 42
0.00000001
 43
0.00000001
 40
0.0
 40
0.0
 40
0.0
 40
0.0
 40
0.1110213958485511
 40
0.4537544599013393
 40
0.730499587046987
 40
0.957320258738588
 40
1.0
 40
1.0
 40
1.0
 40
1.0
 10
230.7329054876175
 20
134.6200481691111
 30
0.0
 10
230.638801130797
 20
134.6758230486479
 30
0.0
 10
230.2541881354635
 20
134.9037800126804
 30
0.0
 10
229.7738095480641
 20
135.2328210531285
 30
0.0
 10
229.3824855168632
 20
135.5272938706632
 30
0.0
 10
229.2399286707287
 20
135.6912671941391
 30
0.0
 10
229.2625826745945
 20
135.657341293431
 30
0.0
 10
229.2661703018375
 20
135.6519685793471
 30
0.0
  0
ARC
  5
EC
330
1F
100
AcDbEntity
  8
0
  6
Continuous
 62
     7
370
    25
100
AcDbCircle
 10
232.0565295579
 20
136.8526648639
 30
0.0
 40
2.599999999999996
100
AcDbArc
 50
239.4420525213
 51
269.0
  0
SPLINE
  5
ED
330
1F
100
AcDbEntity
  8
0
  6
Continuous
 62
     7
370
    25
100
AcDbSpline
210
0.0
220
0.0
230
1.0
 70
     8
 71
     3
 72
    13
 73
     9
 74
     0
 42
0.00000001
 43
0.00000001
 40
0.0
 40
0.0
 40
0.0
 40
0.0
 40
0.0257777025631237
 40
0.1889924819795272
 40
0.3912819398086723
 40
0.6391253350241723
 40
0.9333979274773782
 40
1.0
 40
1.0
 40
1.0
 40
1.0
 10
229.2286370400609
 20
114.5232214397068
 30
0.0
 10
229.225721851599
 20
114.5191628325586
 30
0.0
 10
229.2043487792125
 20
114.4894066416633
 30
0.0
 10
229.3224341058207
 20
114.6202602059349
 30
0.0
 10
229.6248484510342
 20
114.8501194325796
 30
0.0
 10
230.2199333620594
 20
115.2395571098332
 30
0.0
 10
230.8116914490321
 20
115.5837265719261
 30
0.0
 10
231.236178300282
 20
115.8104537168702
 30
0.0
 10
231.3145204694496
 20
115.8522978783367
 30
0.0
  0
ARC
  5
EE
330
1F
100
AcDbEntity
  8
0
  6
Continuous
 62
     7
370
    25
100
AcDbCircle
 10
233.0065295579
 20
112.7359925398
 30
0.0
 40
3.550000000000001
100
AcDbArc
 50
91.0
 51
118.1920130769
  0
ARC
  5
EF
330
1F
100
AcDbEntity
  8
0
  6
Continuous
 62
     7
370
    25
100
AcDbCircle
 10
223.4565295579
 20
113.7892202871
 30
0.0
 40
0.5000000000000058
100
AcDbArc
 50
180.0
 51
271.0
  0
ARC
  5
F0
330
1F
100
AcDbEntity
  8
0
  6
Continuous
 62
     7
370
    25
100
AcDbCircle
 10
223.4565295579
 20
136.7329995165
 30
0.0
 40
0.5
100
AcDbArc
 50
89.0
 51
180.0
  0
LINE
  5
F1
330
1F
100
AcDbEntity
  8
0
  6
Continuous
 62
     7
370
    25
100
AcDbLine
 10
227.4914343707
 20
137.1626461551
 30
0.0
 11
223.4652557611
 21
137.2329233641
 31
0.0
  0
LINE
  5
F2
330
1F
100
AcDbEntity
  8
0
  6
Continuous
 62
     7
370
    25
100
AcDbLine
 10
223.4652557611
 20
113.2892964395
 30
0.0
 11
227.4914343707
 21
113.3595736486
 31
0.0
  0
ARC
  5
F3
330
1F
100
AcDbEntity
  8
0
  6
Continuous
 62
     7
370
    25
100
AcDbCircle
 10
227.4565295579
 20
135.1629507648
 30
0.0
 40
1.999999999999997
100
AcDbArc
 50
14.5234270308
 51
89.0
  0
SPLINE
  5
F4
330
1F
100
AcDbEntity
  8
0
  6
Continuous
 62
     7
370
    25
100
AcDbSpline
210
0.0
220
0.0
230
1.0
 70
     8
 71
     3
 72
     9
 73
     5
 74
     0
 42
0.00000001
 43
0.00000001
 40
0.0
 40
0.0
 40
0.0
 40
0.0
 40
0.662740395552226
 40
0.9999999999999999
 40
0.9999999999999999
 40
0.9999999999999999
 40
0.9999999999999999
 10
237.8065295578734
 20
120.5019112194594
 30
0.0
 10
237.849502174715
 20
120.6564505260949
 30
0.0
 10
237.914342973812
 20
120.8896327912361
 30
0.0
 10
238.0325827500976
 20
121.2401384304792
 30
0.0
 10
238.0724602502777
 20
121.358349823727
 30
0.0
  0
LINE
  5
F5
330
1F
100
AcDbEntity
  8
0
  6
Continuous
 62
     7
370
    25
100
AcDbLine
 10
237.9470254234
 20
129.5282896461
 30
0.0
 11
237.8065295579
 21
130.0100765782
 31
0.0
  0
ARC
  5
F6
330
1F
100
AcDbEntity
  8
0
  6
Continuous
 62
     7
370
    25
100
AcDbCircle
 10
227.4565295579
 20
115.3592690389
 30
0.0
 40
1.999999999999997
100
AcDbArc
 50
271.0
 51
334.3886051651
  0
LINE
  5
F7
330
1F
100
AcDbEntity
  8
0
  6
Continuous
 62
     7
370
    25
100
AcDbLine
 10
222.9565295579
 20
130.665688613
 30
0.0
 11
216.3065295579
 21
130.665688613
 31
0.0
  0
LINE
  5
F8
330
1F
100
AcDbEntity
  8
0
  6
Continuous
 62
     7
370
    25
100
AcDbLine
 10
216.3065295579
 20
119.365688613
 30
0.0
 11
222.9565295579
 21
119.365688613
 31
0.0
  0
LINE
  5
F9
330
1F
100
AcDbEntity
  8
0
  6
Continuous
 62
     7
370
    25
100
AcDbLine
 10
81.2372007425
 20
134.5783765772
 30
0.0
 11
79.9565295579
 21
133.265688613
 31
0.0
  0
LINE
  5
FA
330
1F
100
AcDbEntity
  8
0
  6
Continuous
 62
     7
370
    25
100
AcDbLine
 10
79.9565295579
 20
116.765688613
 30
0.0
 11
81.2372007425
 21
115.4530006488
 31
0.0
  0
LINE
  5
FB
330
1F
100
AcDbEntity
  8
0
  6
Continuous
 62
     7
370
    25
100
AcDbLine
 10
87.3559910585
 20
115.615688613
 30
0.0
 11
87.4065295579
 21
115.615688613
 31
0.0
  0
LINE
  5
FC
330
1F
100
AcDbEntity
  8
0
  6
Continuous
 62
     7
370
    25
100
AcDbLine
 10
87.0029674261
 20
134.415688613
 30
0.0
 11
86.7565295579
 21
134.415688613
 31
0.0
  0
SPLINE
  5
FD
330
1F
100
AcDbEntity
  8
0
  6
Continuous
 62
     7
370
    25
100
AcDbSpline
210
0.0
220
0.0
230
1.0
 70
     8
 71
     3
 72
     9
 73
     5
 74
     0
 42
0.00000001
 43
0.00000001
 40
0.0
 40
0.0
 40
0.0
 40
0.0
 40
0.1888230383401776
 40
1.0
 40
1.0
 40
1.0
 40
1.0
 10
86.47064929904872
 20
134.1126283669759
 30
0.0
 10
86.4535763715111
 20
134.0830800369905
 30
0.0
 10
86.36315876311069
 20
133.9265931472273
 30
0.0
 10
86.27269742735508
 20
133.7701010040088
 30
0.0
 10
86.19931727586912
 20
133.6431581827492
 30
0.0
  0
SPLINE
  5
FE
330
1F
100
AcDbEntity
  8
0
  6
Continuous
 62
     7
370
    25
100
AcDbSpline
210
0.0
220
0.0
230
1.0
 70
     8
 71
     3
 72
     9
 73
     5
 74
     0
 42
0.00000001
 43
0.00000001
 40
0.0
 40
0.0
 40
0.0
 40
0.0
 40
0.4987433617574211
 40
0.9999999999999999
 40
0.9999999999999999
 40
0.9999999999999999
 40
0.9999999999999999
 10
86.90487397928557
 20
116.3882170783564
 30
0.0
 10
86.97833710096498
 20
116.2611115229198
 30
0.0
 10
87.12563354100293
 20
116.006259899454
 30
0.0
 10
87.27288538496153
 20
115.751423771022
 30
0.0
 10
87.34669634923928
 20
115.6236854699814
 30
0.0
  0
SPLINE
  5
FF
330
1F
100
AcDbEntity
  8
0
  6
Continuous
 62
     7
370
    25
100
AcDbSpline
210
0.0
220
0.0
230
1.0
 70
     8
 71
     3
 72
     9
 73
     5
 74
     0
 42
0.00000001
 43
0.00000001
 40
0.0
 40
0.0
 40
0.0
 40
0.0
 40
0.5011130755725055
 40
1.0
 40
1.0
 40
1.0
 40
1.0
 10
87.45412536745529
 20
133.64342336956
 30
0.0
 10
87.38032155134606
 20
133.7711169796694
 30
0.0
 10
87.23304178614555
 20
134.025936932159
 30
0.0
 10
87.08581453183965
 20
134.2807519050374
 30
0.0
 10
87.01236477974706
 20
134.4078757631548
 30
0.0
  0
SPLINE
  5
100
330
1F
100
AcDbEntity
  8
0
  6
Continuous
 62
     7
370
    25
100
AcDbSpline
210
0.0
220
0.0
230
1.0
 70
     8
 71
     3
 72
     9
 73
     5
 74
     0
 42
0.00000001
 43
0.00000001
 40
0.0
 40
0.0
 40
0.0
 40
0.0
 40
0.1964851983542813
 40
1.0
 40
1.0
 40
1.0
 40
1.0
 10
86.47786475068844
 20
115.921259973457
 30
0.0
 10
86.49586205680188
 20
115.9523451252106
 30
0.0
 10
86.58745830050985
 20
116.110551198818
 30
0.0
 10
86.67929138889441
 20
116.269664972296
 30
0.0
 10
86.75308063469225
 20
116.3975152444314
 30
0.0
  0
LINE
  5
101
330
1F
100
AcDbEntity
  8
0
  6
Continuous
 62
     7
370
    25
100
AcDbLine
 10
86.7565295579
 20
134.415688613
 30
0.0
 11
86.4889054659
 21
134.1480645211
 31
0.0
  0
LINE
  5
102
330
1F
100
AcDbEntity
  8
0
  6
Continuous
 62
     7
370
    25
100
AcDbLine
 10
86.2565295579
 20
116.115688613
 30
0.0
 11
86.4522582435
 21
115.9199599274
 31
0.0
  0
SPLINE
  5
103
330
1F
100
AcDbEntity
  8
0
  6
Continuous
 62
     7
370
    25
100
AcDbSpline
210
0.0
220
0.0
230
1.0
 70
     8
 71
     3
 72
     9
 73
     5
 74
     0
 42
0.00000001
 43
0.00000001
 40
0.0
 40
0.0
 40
0.0
 40
0.0
 40
0.5166266336148146
 40
1.0
 40
1.0
 40
1.0
 40
1.0
 10
87.62091059918633
 20
133.6518940070538
 30
0.0
 10
87.59133258986832
 20
133.6518962361548
 30
0.0
 10
87.53408039380736
 20
133.6519005508782
 30
0.0
 10
87.47687921120081
 20
133.6518962987501
 30
0.0
 10
87.44922968300305
 20
133.6518942433847
 30
0.0
  0
SPLINE
  5
104
330
1F
100
AcDbEntity
  8
0
  6
Continuous
 62
     7
370
    25
100
AcDbSpline
210
0.0
220
0.0
230
1.0
 70
     8
 71
     3
 72
     9
 73
     5
 74
     0
 42
0.00000001
 43
0.00000001
 40
0.0
 40
0.0
 40
0.0
 40
0.0
 40
0.4973303336687868
 40
1.0
 40
1.0
 40
1.0
 40
1.0
 10
86.76954350677048
 20
116.4639287133447
 30
0.0
 10
86.79877287270446
 20
116.462564233473
 30
0.0
 10
86.85754541070416
 20
116.4598206246895
 30
0.0
 10
86.9163653808783
 20
116.4625544847968
 30
0.0
 10
86.94593239565937
 20
116.4639287133447
 30
0.0
  0
LINE
  5
105
330
1F
100
AcDbEntity
  8
0
  6
Continuous
 62
     7
370
    25
100
AcDbLine
 10
86.2565295579
 20
133.140688613
 30
0.0
 11
84.7565295579
 21
133.140688613
 31
0.0
  0
LINE
  5
106
330
1F
100
AcDbEntity
  8
0
  6
Continuous
 62
     7
370
    25
100
AcDbLine
 10
84.7565295579
 20
116.890688613
 30
0.0
 11
86.2565295579
 21
116.890688613
 31
0.0
  0
LINE
  5
107
330
1F
100
AcDbEntity
  8
0
  6
Continuous
 62
     7
370
    25
100
AcDbLine
 10
215.0265240267
 20
115.4536829435
 30
0.0
 11
216.3065295579
 21
116.765688613
 31
0.0
  0
LINE
  5
108
330
1F
100
AcDbEntity
  8
0
  6
Continuous
 62
     7
370
    25
100
AcDbLine
 10
216.3065295579
 20
133.265688613
 30
0.0
 11
215.0265240267
 21
134.5776942825
 31
0.0
  0
LINE
  5
109
330
1F
100
AcDbEntity
  8
0
  6
Continuous
 62
     7
370
    25
100
AcDbLine
 10
209.1834849325
 20
134.415688613
 30
0.0
 11
208.8565295579
 21
134.415688613
 31
0.0
  0
SPLINE
  5
10A
330
1F
100
AcDbEntity
  8
0
  6
Continuous
 62
     7
370
    25
100
AcDbSpline
210
0.0
220
0.0
230
1.0
 70
     8
 71
     3
 72
     9
 73
     5
 74
     0
 42
0.00000001
 43
0.00000001
 40
0.0
 40
0.0
 40
0.0
 40
0.0
 40
0.4921597394042955
 40
0.9999999999999999
 40
0.9999999999999999
 40
0.9999999999999999
 40
0.9999999999999999
 10
208.4952556748376
 20
115.6371575769446
 30
0.0
 10
208.5664326153244
 20
115.7603453552512
 30
0.0
 10
208.7110542387285
 20
116.0106457525486
 30
0.0
 10
208.855704356145
 20
116.2609201510444
 30
0.0
 10
208.929163509469
 20
116.3880195667969
 30
0.0
  0
SPLINE
  5
10B
330
1F
100
AcDbEntity
  8
0
  6
Continuous
 62
     7
370
    25
100
AcDbSpline
210
0.0
220
0.0
230
1.0
 70
     8
 71
     3
 72
     9
 73
     5
 74
     0
 42
0.00000001
 43
0.00000001
 40
0.0
 40
0.0
 40
0.0
 40
0.0
 40
0.4981873554341621
 40
1.0
 40
1.0
 40
1.0
 40
1.0
 10
209.6347204507935
 20
133.6433552667018
 30
0.0
 10
209.5613458827552
 20
133.7702931996745
 30
0.0
 10
209.4140628029302
 20
134.0250927877975
 30
0.0
 10
209.2668285758386
 20
134.279945625227
 30
0.0
 10
209.1929445789712
 20
134.4078340015525
 30
0.0
  0
SPLINE
  5
10C
330
1F
100
AcDbEntity
  8
0
  6
Continuous
 62
     7
370
    25
100
AcDbSpline
210
0.0
220
0.0
230
1.0
 70
     8
 71
     3
 72
     9
 73
     5
 74
     0
 42
0.00000001
 43
0.00000001
 40
0.0
 40
0.0
 40
0.0
 40
0.0
 40
0.5011659921197278
 40
1.0
 40
1.0
 40
1.0
 40
1.0
 10
209.0854683034406
 20
116.3881508514328
 30
0.0
 10
209.1592840826082
 20
116.2604455536038
 30
0.0
 10
209.3065721674509
 20
116.0056291856997
 30
0.0
 10
209.4538250122636
 20
115.7507702693221
 30
0.0
 10
209.5272797390133
 20
115.6236379746214
 30
0.0
  0
LINE
  5
10D
330
1F
100
AcDbEntity
  8
0
  6
Continuous
 62
     7
370
    25
100
AcDbLine
 10
209.9531158346
 20
133.9236464751
 30
0.0
 11
209.7910235522
 21
133.6432258515
 31
0.0
  0
LINE
  5
10E
330
1F
100
AcDbEntity
  8
0
  6
Continuous
 62
     7
370
    25
100
AcDbLine
 10
209.5467890687
 20
115.6559481238
 30
0.0
 11
210.0065295579
 21
116.115688613
 31
0.0
  0
LINE
  5
10F
330
1F
100
AcDbEntity
  8
0
  6
Continuous
 62
     7
370
    25
100
AcDbLine
 10
210.0065295579
 20
133.915688613
 30
0.0
 11
209.9884010898
 21
133.9338170811
 31
0.0
  0
SPLINE
  5
110
330
1F
100
AcDbEntity
  8
0
  6
Continuous
 62
     7
370
    25
100
AcDbSpline
210
0.0
220
0.0
230
1.0
 70
     8
 71
     3
 72
     9
 73
     5
 74
     0
 42
0.00000001
 43
0.00000001
 40
0.0
 40
0.0
 40
0.0
 40
0.0
 40
0.5178081832965965
 40
0.9999999999999999
 40
0.9999999999999999
 40
0.9999999999999999
 40
0.9999999999999999
 10
208.9191930280603
 20
116.3794749341869
 30
0.0
 10
208.9487709941951
 20
116.3794861405716
 30
0.0
 10
209.0058924671438
 20
116.3795077825331
 30
0.0
 10
209.0629630674126
 20
116.3794864881611
 30
0.0
 10
209.0904820438366
 20
116.3794762201892
 30
0.0
  0
SPLINE
  5
111
330
1F
100
AcDbEntity
  8
0
  6
Continuous
 62
     7
370
    25
100
AcDbSpline
210
0.0
220
0.0
230
1.0
 70
     8
 71
     3
 72
     9
 73
     5
 74
     0
 42
0.00000001
 43
0.00000001
 40
0.0
 40
0.0
 40
0.0
 40
0.0
 40
0.5105586537198662
 40
0.9999999999999999
 40
0.9999999999999999
 40
0.9999999999999999
 40
0.9999999999999999
 10
209.8011368674828
 20
133.651902290031
 30
0.0
 10
209.7720156213367
 20
133.6518767908411
 30
0.0
 10
209.7149776180945
 20
133.6518268471378
 30
0.0
 10
209.657777955822
 20
133.6518755702311
 30
0.0
 10
209.6297820761125
 20
133.6518994173274
 30
0.0
  0
LINE
  5
112
330
1F
100
AcDbEntity
  8
0
  6
Continuous
 62
     7
370
    25
100
AcDbLine
 10
210.0065295579
 20
116.890688613
 30
0.0
 11
211.5065295579
 21
116.890688613
 31
0.0
  0
LINE
  5
113
330
1F
100
AcDbEntity
  8
0
  6
Continuous
 62
     7
370
    25
100
AcDbLine
 10
211.5065295579
 20
133.140688613
 30
0.0
 11
210.0065295579
 21
133.140688613
 31
0.0
  0
LINE
  5
114
330
1F
100
AcDbEntity
  8
0
  6
Continuous
 62
     7
370
    25
100
AcDbLine
 10
104.4564563566
 20
108.6656154117
 30
0.0
 11
104.6065295579
 21
108.815688613
 31
0.0
  0
LINE
  5
115
330
1F
100
AcDbEntity
  8
0
  6
Continuous
 62
     7
370
    25
100
AcDbLine
 10
104.6065295579
 20
141.215688613
 30
0.0
 11
104.4564563566
 21
141.3657618142
 31
0.0
  0
LINE
  5
116
330
1F
100
AcDbEntity
  8
0
  6
Continuous
 62
     7
370
    25
100
AcDbLine
 10
95.2993914621
 20
141.3585505172
 30
0.0
 11
95.1565295579
 21
141.215688613
 31
0.0
  0
LINE
  5
117
330
1F
100
AcDbEntity
  8
0
  6
Continuous
 62
     7
370
    25
100
AcDbLine
 10
95.1565295579
 20
108.815688613
 30
0.0
 11
95.2993914621
 21
108.6728267088
 31
0.0
  0
ARC
  5
118
330
1F
100
AcDbEntity
  8
0
  6
Continuous
 62
     7
370
    25
100
AcDbCircle
 10
95.1565295579
 20
130.7566769851
 30
0.0
 40
9.134011627906972
100
AcDbArc
 50
90.0
 51
148.0464183091
  0
ARC
  5
119
330
1F
100
AcDbEntity
  8
0
  6
Continuous
 62
     7
370
    25
100
AcDbCircle
 10
95.1565295579
 20
119.2747002409
 30
0.0
 40
9.134011627907
100
AcDbArc
 50
211.9535816909
 51
270.0
  0
LINE
  5
11A
330
1F
100
AcDbEntity
  8
0
  6
Continuous
 62
     7
370
    25
100
AcDbLine
 10
103.4131761933
 20
141.7429733444
 30
0.0
 11
96.3628766415
 21
141.7429733444
 31
0.0
  0
LINE
  5
11B
330
1F
100
AcDbEntity
  8
0
  6
Continuous
 62
     7
370
    25
100
AcDbLine
 10
96.3628766415
 20
108.2884038815
 30
0.0
 11
103.4131761933
 21
108.2884038815
 31
0.0
  0
LINE
  5
11C
330
1F
100
AcDbEntity
  8
0
  6
Continuous
 62
     7
370
    25
100
AcDbLine
 10
191.7705121948
 20
141.3296712499
 30
0.0
 11
191.6565295579
 21
141.215688613
 31
0.0
  0
LINE
  5
11D
330
1F
100
AcDbEntity
  8
0
  6
Continuous
 62
     7
370
    25
100
AcDbLine
 10
191.6565295579
 20
108.815688613
 30
0.0
 11
191.7705121948
 21
108.701705976
 31
0.0
  0
LINE
  5
11E
330
1F
100
AcDbEntity
  8
0
  6
Continuous
 62
     7
370
    25
100
AcDbLine
 10
200.9925469209
 20
108.701705976
 30
0.0
 11
201.1065295579
 21
108.815688613
 31
0.0
  0
LINE
  5
11F
330
1F
100
AcDbEntity
  8
0
  6
Continuous
 62
     7
370
    25
100
AcDbLine
 10
201.1065295579
 20
141.215688613
 30
0.0
 11
200.9925469209
 21
141.3296712499
 31
0.0
  0
ARC
  5
120
330
1F
100
AcDbEntity
  8
0
  6
Continuous
 62
     7
370
    25
100
AcDbCircle
 10
201.1065295579
 20
119.2747002409
 30
0.0
 40
9.134011627906986
100
AcDbArc
 50
270.0
 51
328.0464183091
  0
ARC
  5
121
330
1F
100
AcDbEntity
  8
0
  6
Continuous
 62
     7
370
    25
100
AcDbCircle
 10
201.1065295579
 20
130.7566769851
 30
0.0
 40
9.134011627906972
100
AcDbArc
 50
31.9535816909
 51
90.0
  0
LINE
  5
122
330
1F
100
AcDbEntity
  8
0
  6
Continuous
 62
     7
370
    25
100
AcDbLine
 10
199.9131761933
 20
141.7429733444
 30
0.0
 11
192.8628766415
 21
141.7429733444
 31
0.0
  0
LINE
  5
123
330
1F
100
AcDbEntity
  8
0
  6
Continuous
 62
     7
370
    25
100
AcDbLine
 10
192.8628766415
 20
108.2884038815
 30
0.0
 11
199.9131761933
 21
108.2884038815
 31
0.0
  0
LINE
  5
124
330
1F
100
AcDbEntity
  8
0
  6
Continuous
 62
     7
370
    25
100
AcDbLine
 10
72.0565295579
 20
119.365688613
 30
0.0
 11
79.9565295579
 21
119.365688613
 31
0.0
  0
LINE
  5
125
330
1F
100
AcDbEntity
  8
0
  6
Continuous
 62
     7
370
    25
100
AcDbLine
 10
79.9565295579
 20
130.665688613
 30
0.0
 11
72.0565295579
 21
130.665688613
 31
0.0
  0
SPLINE
  5
126
330
1F
100
AcDbEntity
  8
0
  6
Continuous
 62
     7
370
    25
100
AcDbSpline
210
0.0
220
0.0
230
1.0
 70
     8
 71
     3
 72
     9
 73
     5
 74
     0
 42
0.00000001
 43
0.00000001
 40
0.0
 40
0.0
 40
0.0
 40
0.0
 40
0.5036319833775984
 40
1.0
 40
1.0
 40
1.0
 40
1.0
 10
191.0502446113483
 20
139.5101605071855
 30
0.0
 10
190.9720579932583
 20
139.3747885184736
 30
0.0
 10
190.8168124555034
 20
139.1059970334611
 30
0.0
 10
190.6615628786092
 20
138.8372080345388
 30
0.0
 10
190.5845019540448
 20
138.7037897722539
 30
0.0
  0
SPLINE
  5
127
330
1F
100
AcDbEntity
  8
0
  6
Continuous
 62
     7
370
    25
100
AcDbSpline
210
0.0
220
0.0
230
1.0
 70
     8
 71
     3
 72
     9
 73
     5
 74
     0
 42
0.00000001
 43
0.00000001
 40
0.0
 40
0.0
 40
0.0
 40
0.0
 40
0.4999957547772969
 40
1.0
 40
1.0
 40
1.0
 40
1.0
 10
191.3311227684003
 20
111.3334379896439
 30
0.0
 10
191.4093100954882
 20
111.1980695532169
 30
0.0
 10
191.5656860773658
 20
110.9273303816666
 30
0.0
 10
191.7220579907984
 20
110.6565887059884
 30
0.0
 10
191.8002446113482
 20
110.5212167187906
 30
0.0
  0
LINE
  5
128
330
1F
100
AcDbEntity
  8
0
  6
Continuous
 62
     7
370
    25
100
AcDbLine
 10
106.0190295538
 20
110.515688613
 30
0.0
 11
106.3065295579
 21
110.515688613
 31
0.0
  0
LINE
  5
129
330
1F
100
AcDbEntity
  8
0
  6
Continuous
 62
     7
370
    25
100
AcDbLine
 10
104.6065295579
 20
110.515688613
 30
0.0
 11
104.7065295579
 21
110.515688613
 31
0.0
  0
LINE
  5
12A
330
1F
100
AcDbEntity
  8
0
  6
Continuous
 62
     7
370
    25
100
AcDbLine
 10
106.3065295579
 20
139.515688613
 30
0.0
 11
105.2690295538
 21
139.515688613
 31
0.0
  0
SPLINE
  5
12B
330
1F
100
AcDbEntity
  8
0
  6
Continuous
 62
     7
370
    25
100
AcDbSpline
210
0.0
220
0.0
230
1.0
 70
     8
 71
     3
 72
     9
 73
     5
 74
     0
 42
0.00000001
 43
0.00000001
 40
0.0
 40
0.0
 40
0.0
 40
0.0
 40
0.4999956574115309
 40
0.9999999999999999
 40
0.9999999999999999
 40
0.9999999999999999
 40
0.9999999999999999
 10
191.7193473022332
 20
138.6980938375895
 30
0.0
 10
191.6411592670568
 20
138.8334635786902
 30
0.0
 10
191.4847818385381
 20
139.1042054123322
 30
0.0
 10
191.3284085719089
 20
139.3749493263325
 30
0.0
 10
191.2502212595296
 20
139.510322459062
 30
0.0
  0
SPLINE
  5
12C
330
1F
100
AcDbEntity
  8
0
  6
Continuous
 62
     7
370
    25
100
AcDbSpline
210
0.0
220
0.0
230
1.0
 70
     8
 71
     3
 72
     9
 73
     5
 74
     0
 42
0.00000001
 43
0.00000001
 40
0.0
 40
0.0
 40
0.0
 40
0.0
 40
0.4999956574115287
 40
0.9999999999999999
 40
0.9999999999999999
 40
0.9999999999999999
 40
0.9999999999999999
 10
190.2193473022332
 20
138.6980938375895
 30
0.0
 10
190.1411592670568
 20
138.8334635786902
 30
0.0
 10
189.9847818385381
 20
139.1042054123322
 30
0.0
 10
189.828408571909
 20
139.3749493263325
 30
0.0
 10
189.7502212595296
 20
139.510322459062
 30
0.0
  0
SPLINE
  5
12D
330
1F
100
AcDbEntity
  8
0
  6
Continuous
 62
     7
370
    25
100
AcDbSpline
210
0.0
220
0.0
230
1.0
 70
     8
 71
     3
 72
     9
 73
     5
 74
     0
 42
0.00000001
 43
0.00000001
 40
0.0
 40
0.0
 40
0.0
 40
0.0
 40
0.5035355068673537
 40
0.9999999999999999
 40
0.9999999999999999
 40
0.9999999999999999
 40
0.9999999999999999
 10
190.5002212595296
 20
110.5210547669141
 30
0.0
 10
190.5784085694595
 20
110.656427900868
 30
0.0
 10
190.7336852259487
 20
110.9252731602541
 30
0.0
 10
190.888966015141
 20
111.194116353871
 30
0.0
 10
190.9660574134406
 20
111.3275874537222
 30
0.0
  0
SPLINE
  5
12E
330
1F
100
AcDbEntity
  8
0
  6
Continuous
 62
     7
370
    25
100
AcDbSpline
210
0.0
220
0.0
230
1.0
 70
     8
 71
     3
 72
     9
 73
     5
 74
     0
 42
0.00000001
 43
0.00000001
 40
0.0
 40
0.0
 40
0.0
 40
0.0
 40
0.5035355244945965
 40
1.0
 40
1.0
 40
1.0
 40
1.0
 10
189.0002212595296
 20
110.5210547669141
 30
0.0
 10
189.0784085694595
 20
110.656427900868
 30
0.0
 10
189.2336852205129
 20
110.9252731508426
 30
0.0
 10
189.3889660042693
 20
111.1941163350482
 30
0.0
 10
189.466057397133
 20
111.327587425488
 30
0.0
  0
SPLINE
  5
12F
330
1F
100
AcDbEntity
  8
0
  6
Continuous
 62
     7
370
    25
100
AcDbSpline
210
0.0
220
0.0
230
1.0
 70
     8
 71
     3
 72
     9
 73
     5
 74
     0
 42
0.00000001
 43
0.00000001
 40
0.0
 40
0.0
 40
0.0
 40
0.0
 40
0.5000043425884712
 40
0.9999999999999999
 40
0.9999999999999999
 40
0.9999999999999999
 40
0.9999999999999999
 10
105.2628378562172
 20
139.510322459062
 30
0.0
 10
105.1846505438379
 20
139.3749493263325
 30
0.0
 10
105.0282772772087
 20
139.1042054123322
 30
0.0
 10
104.8718998486901
 20
138.8334635786902
 30
0.0
 10
104.7937118135136
 20
138.6980938375895
 30
0.0
  0
SPLINE
  5
130
330
1F
100
AcDbEntity
  8
0
  6
Continuous
 62
     7
370
    25
100
AcDbSpline
210
0.0
220
0.0
230
1.0
 70
     8
 71
     3
 72
     9
 73
     5
 74
     0
 42
0.00000001
 43
0.00000001
 40
0.0
 40
0.0
 40
0.0
 40
0.0
 40
0.4964644755054036
 40
1.0
 40
1.0
 40
1.0
 40
1.0
 10
105.5470017186138
 20
111.327587425488
 30
0.0
 10
105.6240931114775
 20
111.1941163350482
 30
0.0
 10
105.7793738952339
 20
110.9252731508426
 30
0.0
 10
105.9346505462873
 20
110.656427900868
 30
0.0
 10
106.0128378562172
 20
110.5210547669141
 30
0.0
  0
LINE
  5
131
330
1F
100
AcDbEntity
  8
0
  6
Continuous
 62
     7
370
    25
100
AcDbLine
 10
189.744029562
 20
139.515688613
 30
0.0
 11
188.7065295579
 21
139.515688613
 31
0.0
  0
LINE
  5
132
330
1F
100
AcDbEntity
  8
0
  6
Continuous
 62
     7
370
    25
100
AcDbLine
 10
191.244029562
 20
139.515688613
 30
0.0
 11
191.0565295579
 21
139.515688613
 31
0.0
  0
LINE
  5
133
330
1F
100
AcDbEntity
  8
0
  6
Continuous
 62
     7
370
    25
100
AcDbLine
 10
190.3065295579
 20
110.515688613
 30
0.0
 11
190.494029562
 21
110.515688613
 31
0.0
  0
LINE
  5
134
330
1F
100
AcDbEntity
  8
0
  6
Continuous
 62
     7
370
    25
100
AcDbLine
 10
188.7065295579
 20
110.515688613
 30
0.0
 11
188.994029562
 21
110.515688613
 31
0.0
  0
LINE
  5
135
330
1F
100
AcDbEntity
  8
0
  6
Continuous
 62
     7
370
    25
100
AcDbLine
 10
104.7970017023
 20
138.7037897723
 30
0.0
 11
104.4252940931
 21
138.7037897723
 31
0.0
  0
LINE
  5
136
330
1F
100
AcDbEntity
  8
0
  6
Continuous
 62
     7
370
    25
100
AcDbLine
 10
190.5877650226
 20
138.7037897723
 30
0.0
 11
190.2160574134
 21
138.7037897723
 31
0.0
  0
LINE
  5
137
330
1F
100
AcDbEntity
  8
0
  6
Continuous
 62
     7
370
    25
100
AcDbLine
 10
190.9627650226
 20
111.3275874537
 30
0.0
 11
191.334501954
 21
111.3275874537
 31
0.0
  0
ARC
  5
138
330
1F
100
AcDbEntity
  8
0
  6
Continuous
 62
     7
370
    25
100
AcDbCircle
 10
147.2476337473
 20
39.0401317689
 30
0.0
 40
11.2911176673057
100
AcDbArc
 50
137.6234698876
 51
179.9114722344
  0
LWPOLYLINE
  5
139
330
1F
100
AcDbEntity
  8
0
  6
Continuous
 62
     7
370
    25
100
AcDbPolyline
 90
       25
 70
   128
 43
0.0
 10
156.1065295579
 20
46.650343269
 10
156.3543428759
 20
46.368984338
 10
157.5091229716
 20
44.7448424526
 10
158.359979328
 20
42.947895905
 10
158.8810591052
 20
41.0327440067
 10
159.0565295579
 20
39.057577679
 10
158.8810591052
 20
37.0824113513
 10
158.359979328
 20
35.167259453
 10
157.5091229716
 20
33.3703129053
 10
156.3543428759
 20
31.74617102
 10
154.9307264498
 20
30.3441825262
 10
153.2815295579
 20
29.2069461349
 10
151.4568622133
 20
28.3690161985
 10
149.5121660099
 20
27.855852794
 10
147.5065295579
 20
27.6830481317
 10
145.5008931058
 20
27.855852794
 10
143.5561969025
 20
28.3690161985
 10
141.7315295579
 20
29.2069461349
 10
140.082332666
 20
30.3441825262
 10
138.6587162398
 20
31.74617102
 10
137.5039361442
 20
33.3703129053
 10
136.6530797878
 20
35.167259453
 10
136.1320000106
 20
37.0824113513
 10
135.9565295579
 20
39.057577679
 10
135.9565295579
 20
39.057577679
  0
LWPOLYLINE
  5
13A
330
1F
100
AcDbEntity
  8
0
  6
Continuous
 62
     7
370
    25
100
AcDbPolyline
 90
       20
 70
   128
 43
0.0
 10
135.9565295579
 20
36.7903321461
 10
136.1320000106
 20
34.8151658184
 10
136.6530797878
 20
32.9000139201
 10
137.5039361442
 20
31.1030673725
 10
138.6587162398
 20
29.4789254871
 10
140.082332666
 20
28.0769369933
 10
141.7315295579
 20
26.9397006021
 10
143.5561969025
 20
26.1017706656
 10
145.5008931058
 20
25.5886072611
 10
147.5065295579
 20
25.4158025988
 10
149.5121660099
 20
25.5886072611
 10
151.4568622133
 20
26.1017706656
 10
153.2815295579
 20
26.9397006021
 10
154.9307264498
 20
28.0769369933
 10
156.3543428759
 20
29.4789254871
 10
157.5091229716
 20
31.1030673725
 10
158.359979328
 20
32.9000139201
 10
158.8810591052
 20
34.8151658184
 10
159.0565295579
 20
36.7903321461
 10
159.0565295579
 20
36.7903321461
  0
ARC
  5
13B
330
1F
100
AcDbEntity
  8
0
  6
Continuous
 62
     7
370
    25
100
AcDbCircle
 10
147.2430510145
 20
39.0476570236
 30
0.0
 40
10.53652612703827
100
AcDbArc
 50
142.2979906667
 51
179.9460532093
  0
ARC
  5
13C
330
1F
100
AcDbEntity
  8
0
  6
Continuous
 62
     7
370
    25
100
AcDbCircle
 10
147.4904648151
 20
39.1562458271
 30
0.0
 40
10.78438663230259
100
AcDbArc
 50
180.5242159361
 51
12.814557267
  0
ARC
  5
13D
330
1F
100
AcDbEntity
  8
0
  6
Continuous
 62
     7
370
    25
100
AcDbCircle
 10
147.5065295579
 20
36.4060762372
 30
0.0
 40
11.1296397578703
100
AcDbArc
 50
233.3530039559
 51
306.6469960441
  0
ARC
  5
13E
330
1F
100
AcDbEntity
  8
0
  6
Continuous
 62
     7
370
    25
100
AcDbCircle
 10
147.5065295579
 20
125.015688613
 30
0.0
 40
8.600000000000037
100
AcDbArc
 50
0.0
 51
90.0
  0
ARC
  5
13F
330
1F
100
AcDbEntity
  8
0
  6
Continuous
 62
     7
370
    25
100
AcDbCircle
 10
147.5065295579
 20
125.015688613
 30
0.0
 40
8.600000000000037
100
AcDbArc
 50
90.0
 51
180.0
  0
ARC
  5
140
330
1F
100
AcDbEntity
  8
0
  6
Continuous
 62
     7
370
    25
100
AcDbCircle
 10
147.6286583141
 20
39.6136337358
 30
0.0
 40
8.477943951568589
100
AcDbArc
 50
287.3957651452
 51
359.7627080472
  0
ARC
  5
141
330
1F
100
AcDbEntity
  8
0
  6
Continuous
 62
     7
370
    25
100
AcDbCircle
 10
147.4200995504
 20
39.6344430878
 30
0.0
 40
8.513753646964446
100
AcDbArc
 50
180.3763384918
 51
260.5964304734
  0
SPLINE
  5
142
330
1F
100
AcDbEntity
  8
0
  6
Continuous
 62
     7
370
    25
100
AcDbSpline
210
0.0
220
0.0
230
1.0
 70
     8
 71
     3
 72
    10
 73
     6
 74
     0
 42
0.00000001
 43
0.00000001
 40
0.0
 40
0.0
 40
0.0
 40
0.0
 40
0.1203924806616949
 40
0.7397035313311148
 40
0.9999999999999999
 40
0.9999999999999999
 40
0.9999999999999999
 40
0.9999999999999999
 10
158.2494810486376
 20
40.03818960305777
 30
0.0
 10
158.2479541358522
 20
40.03310196027757
 30
0.0
 10
158.2385726298546
 20
40.00184297043048
 30
0.0
 10
158.2208842970081
 20
39.93354293285152
 30
0.0
 10
158.2037541125755
 20
39.86380345186867
 30
0.0
 10
158.198684889749
 20
39.84316590588648
 30
0.0
  0
SPLINE
  5
143
330
1F
100
AcDbEntity
  8
0
  6
Continuous
 62
     7
370
    25
100
AcDbSpline
210
0.0
220
0.0
230
1.0
 70
     8
 71
     3
 72
     9
 73
     5
 74
     0
 42
0.00000001
 43
0.00000001
 40
0.0
 40
0.0
 40
0.0
 40
0.0
 40
0.4353595993595625
 40
1.0
 40
1.0
 40
1.0
 40
1.0
 10
158.1986848897453
 20
39.84316590588583
 30
0.0
 10
158.1901939344214
 20
39.43123895080956
 30
0.0
 10
158.1706906196068
 20
38.48506260444616
 30
0.0
 10
157.9900434290833
 20
37.53274348130399
 30
0.0
 10
157.8880427270516
 20
36.99502563007542
 30
0.0
  0
SPLINE
  5
144
330
1F
100
AcDbEntity
  8
0
  6
Continuous
 62
     7
370
    25
100
AcDbSpline
210
0.0
220
0.0
230
1.0
 70
     8
 71
     3
 72
    19
 73
    15
 74
     0
 42
0.00000001
 43
0.00000001
 40
0.0
 40
0.0
 40
0.0
 40
0.0
 40
0.0317521143353705
 40
0.1255457140904781
 40
0.2193361198954272
 40
0.3134221032091385
 40
0.4076669897042046
 40
0.5020274109710791
 40
0.5966513499298765
 40
0.6860860730786563
 40
0.7755206091254645
 40
0.8704343148980083
 40
0.9654707769252657
 40
0.9999999999999999
 40
0.9999999999999999
 40
0.9999999999999999
 40
0.9999999999999999
 10
157.8880442929079
 20
36.99503285593292
 30
0.0
 10
157.793033458798
 20
36.6092347472501
 30
0.0
 10
157.4173670421092
 20
35.0838150999863
 30
0.0
 10
156.0670726549491
 20
32.61253755531848
 30
0.0
 10
153.4109246624033
 20
30.17230122397313
 30
0.0
 10
150.0710165456383
 20
28.73016896156326
 30
0.0
 10
146.4325805144198
 20
28.45707054683487
 30
0.0
 10
142.9016484619434
 20
29.38190688727477
 30
0.0
 10
139.9319065299151
 20
31.37190819093484
 30
0.0
 10
137.8199077766651
 20
34.13661686568329
 30
0.0
 10
136.6751656618782
 20
37.42763696211943
 30
0.0
 10
136.7280894813769
 20
40.93534007887993
 30
0.0
 10
137.5390929852642
 20
43.73386290700756
 30
0.0
 10
138.6187904501777
 20
44.95750448947608
 30
0.0
 10
138.9065295578734
 20
45.28360466894346
 30
0.0
  0
ARC
  5
145
330
1F
100
AcDbEntity
  8
0
  6
Continuous
 62
     7
370
    25
100
AcDbCircle
 10
147.7771003053
 20
39.0692552099
 30
0.0
 40
10.52924289011409
100
AcDbArc
 50
358.6611723649
 51
37.7138392888
  0
LINE
  5
146
330
1F
100
AcDbEntity
  8
0
  6
Continuous
 62
     7
370
    25
100
AcDbLine
 10
158.3034687672
 20
38.8232413034
 30
0.0
 11
158.2494810486
 21
40.0381896031
 31
0.0
  0
ELLIPSE
  5
147
330
1F
100
AcDbEntity
  8
0
  6
Continuous
 62
     7
370
    25
100
AcDbEllipse
 10
147.5065295579
 20
40.1404338965
 30
0.0
 11
-7.600099860430902
 21
8.462404065368917
 31
0.0
210
0.0
220
0.0
230
1.0
 40
0.9067436949
 41
3.721514450840326
 42
3.907970575270607
  0
LINE
  5
148
330
1F
100
AcDbEntity
  8
0
  6
Continuous
 62
     7
370
    25
100
AcDbLine
 10
158.2494810486
 20
40.0381896031
 30
0.0
 11
158.1964303619
 21
39.7933812079
 31
0.0
  0
LWPOLYLINE
  5
149
330
1F
100
AcDbEntity
  8
0
  6
Continuous
 62
     7
370
    25
100
AcDbPolyline
 90
        3
 70
   128
 43
0.0
 10
137.8608472701
 20
94.0721269048
 10
138.0833986263
 20
93.9864697741
 10
138.9065295579
 20
93.7470313802
  0
LINE
  5
14A
330
1F
100
AcDbEntity
  8
0
  6
Continuous
 62
     7
370
    25
100
AcDbLine
 10
133.9556765968
 20
89.0944718092
 30
0.0
 11
138.9065295579
 21
89.0944718092
 31
0.0
  0
LINE
  5
14B
330
1F
100
AcDbEntity
  8
0
  6
Continuous
 62
     7
370
    25
100
AcDbLine
 10
130.9776701845
 20
94.2525302206
 30
0.0
 11
133.9556765968
 21
89.0944718092
 31
0.0
  0
ARC
  5
14C
330
1F
100
AcDbEntity
  8
0
  6
Continuous
 62
     7
370
    25
100
AcDbCircle
 10
154.7065295579
 20
149.9369054167
 30
0.0
 40
5.999999999999985
100
AcDbArc
 50
86.4336695739
 51
147.2422545322
  0
ARC
  5
14D
330
1F
100
AcDbEntity
  8
0
  6
Continuous
 62
     7
370
    25
100
AcDbCircle
 10
154.7065295579
 20
149.9369054167
 30
0.0
 40
6.499999999999989
100
AcDbArc
 50
67.8978634178
 51
149.6536377524
  0
LINE
  5
14E
330
1F
100
AcDbEntity
  8
0
  6
Continuous
 62
     7
370
    25
100
AcDbLine
 10
161.057382519
 20
160.9369054167
 30
0.0
 11
148.3556765968
 21
160.9369054167
 31
0.0
  0
LINE
  5
14F
330
1F
100
AcDbEntity
  8
0
  6
Continuous
 62
     7
370
    25
100
AcDbLine
 10
164.0353889312
 20
155.7788470054
 30
0.0
 11
161.057382519
 21
160.9369054167
 31
0.0
  0
LINE
  5
150
330
1F
100
AcDbEntity
  8
0
  6
Continuous
 62
     7
370
    25
100
AcDbLine
 10
148.3556765968
 20
160.9369054167
 30
0.0
 11
143.7845157175
 21
153.0194225242
 31
0.0
  0
LINE
  5
151
330
1F
100
AcDbEntity
  8
0
  6
Continuous
 62
     7
370
    25
100
AcDbLine
 10
239.7065295579
 20
120.0596582288
 30
0.0
 11
239.7065295579
 21
119.6867742764
 31
0.0
  0
LINE
  5
152
330
1F
100
AcDbEntity
  8
0
  6
Continuous
 62
     7
370
    25
100
AcDbLine
 10
239.7065295579
 20
130.3446029496
 30
0.0
 11
239.7065295579
 21
120.0596582288
 31
0.0
  0
ARC
  5
153
330
1F
100
AcDbEntity
  8
0
  6
Continuous
 62
     7
370
    25
100
AcDbCircle
 10
57.6055124014
 20
122.8707670374
 30
0.0
 40
3.299286112126799
100
AcDbArc
 50
174.1006273552
 51
185.8993726448
  0
ARC
  5
154
330
1F
100
AcDbEntity
  8
0
  6
Continuous
 62
     7
370
    25
100
AcDbCircle
 10
61.401924443
 20
125.3808381528
 30
0.0
 40
7.403671904244288
100
AcDbArc
 50
188.8555717152
 51
197.0513202202
  0
SPLINE
  5
155
330
1F
100
AcDbEntity
  8
0
  6
Continuous
 62
     7
370
    25
100
AcDbSpline
210
0.0
220
0.0
230
1.0
 70
     8
 71
     3
 72
    12
 73
     8
 74
     0
 42
0.00000001
 43
0.00000001
 40
0.0
 40
0.0
 40
0.0
 40
0.0
 40
0.2133534395476112
 40
0.4267919313634459
 40
0.638353973909151
 40
0.8490950351927568
 40
1.0
 40
1.0
 40
1.0
 40
1.0
 10
54.08650775620316
 20
125.2836953350019
 30
0.0
 10
54.07684861247579
 20
125.2298230437239
 30
0.0
 10
54.05752647445236
 20
125.1220569852518
 30
0.0
 10
54.04521340444423
 20
124.8904475645749
 30
0.0
 10
54.04755084474097
 20
124.6402898342165
 30
0.0
 10
54.0626683637548
 20
124.4138708021325
 30
0.0
 10
54.07948897613575
 20
124.2919567695459
 30
0.0
 10
54.08650775620315
 20
124.2410853885001
 30
0.0
  0
ARC
  5
156
330
1F
100
AcDbEntity
  8
0
  6
Continuous
 62
     7
370
    25
100
AcDbCircle
 10
57.770998444
 20
124.4397112989
 30
0.0
 40
3.779918078700424
100
AcDbArc
 50
155.7837213117
 51
167.0981823598
  0
ARC
  5
157
330
1F
100
AcDbEntity
  8
0
  6
Continuous
 62
     7
370
    25
100
AcDbCircle
 10
61.324254351
 20
126.4851481853
 30
0.0
 40
7.018032155407215
100
AcDbArc
 50
175.9555700063
 51
184.0444299937
  0
ARC
  5
158
330
1F
100
AcDbEntity
  8
0
  6
Continuous
 62
     7
370
    25
100
AcDbCircle
 10
57.770998444
 20
125.429675103
 30
0.0
 40
3.779918078703808
100
AcDbArc
 50
155.7837213117
 51
167.0981823598
  0
SPLINE
  5
159
330
1F
100
AcDbEntity
  8
0
  6
Continuous
 62
     7
370
    25
100
AcDbSpline
210
0.0
220
0.0
230
1.0
 70
     8
 71
     3
 72
    11
 73
     7
 74
     0
 42
0.00000001
 43
0.00000001
 40
0.0
 40
0.0
 40
0.0
 40
0.0
 40
0.1771553424640977
 40
0.4808543061932556
 40
0.7833747449113184
 40
1.0
 40
1.0
 40
1.0
 40
1.0
 10
54.05496048008983
 20
126.2412259843865
 30
0.0
 10
54.05205736974414
 20
126.217003544286
 30
0.0
 10
54.04417743176622
 20
126.151256361803
 30
0.0
 10
54.04799646536403
 20
126.1315931618288
 30
0.0
 10
54.06259311590208
 20
126.1717562970299
 30
0.0
 10
54.0794668217067
 20
126.2436569635843
 30
0.0
 10
54.08650775620315
 20
126.2736591391185
 30
0.0
  0
ARC
  5
15A
330
1F
100
AcDbEntity
  8
0
  6
Continuous
 62
     7
370
    25
100
AcDbCircle
 10
61.3345195428
 20
124.6633016367
 30
0.0
 40
7.335106118651699
100
AcDbArc
 50
168.3668500212
 51
171.1618771205
  0
SPLINE
  5
15B
330
1F
100
AcDbEntity
  8
0
  6
Continuous
 62
     7
370
    25
100
AcDbSpline
210
0.0
220
0.0
230
1.0
 70
     8
 71
     3
 72
    11
 73
     7
 74
     0
 42
0.00000001
 43
0.00000001
 40
0.0
 40
0.0
 40
0.0
 40
0.0
 40
0.1769183548232303
 40
0.4807047869466887
 40
0.7833123546318377
 40
1.0
 40
1.0
 40
1.0
 40
1.0
 10
54.05494858044886
 20
125.015688612988
 30
0.0
 10
54.05205063704531
 20
125.0578297036601
 30
0.0
 10
54.04417663625111
 20
125.1723312432739
 30
0.0
 10
54.04799718262399
 20
125.3924255107972
 30
0.0
 10
54.06259299478503
 20
125.6172804679989
 30
0.0
 10
54.07946678604748
 20
125.7393539306417
 30
0.0
 10
54.08650775620316
 20
125.790291837476
 30
0.0
  0
SPLINE
  5
15C
330
1F
100
AcDbEntity
  8
0
  6
Continuous
 62
     7
370
    25
100
AcDbSpline
210
0.0
220
0.0
230
1.0
 70
     8
 71
     3
 72
    10
 73
     6
 74
     0
 42
0.00000001
 43
0.00000001
 40
0.0
 40
0.0
 40
0.0
 40
0.0
 40
0.3456786151971759
 40
0.691495033423728
 40
1.0
 40
1.0
 40
1.0
 40
1.0
 10
54.08650775620316
 20
123.5628732782137
 30
0.0
 10
54.07691730083796
 20
123.6267911929548
 30
0.0
 10
54.05773256692106
 20
123.75465250299
 30
0.0
 10
54.04483373102494
 20
123.869117065522
 30
0.0
 10
54.04815939909658
 20
123.8800913304345
 30
0.0
 10
54.04972741313541
 20
123.885265569438
 30
0.0
  0
ARC
  5
15D
330
1F
100
AcDbEntity
  8
0
  6
Continuous
 62
     7
370
    25
100
AcDbCircle
 10
61.401924443
 20
124.7026260425
 30
0.0
 40
7.403671904242803
100
AcDbArc
 50
188.8555717152
 51
197.0513202202
  0
SPLINE
  5
15E
330
1F
100
AcDbEntity
  8
0
  6
Continuous
 62
     7
370
    25
100
AcDbSpline
210
0.0
220
0.0
230
1.0
 70
     8
 71
     3
 72
    11
 73
     7
 74
     0
 42
0.00000001
 43
0.00000001
 40
0.0
 40
0.0
 40
0.0
 40
0.0
 40
0.3039812236456291
 40
0.6080836278666548
 40
0.9095125090057328
 40
1.0
 40
1.0
 40
1.0
 40
1.0
 10
240.9265513595437
 20
126.2736591391185
 30
0.0
 10
240.9362667226062
 20
126.2328721325502
 30
0.0
 10
240.9557013217116
 20
126.1512818598802
 30
0.0
 10
240.9671731486631
 20
126.1340933604749
 30
0.0
 10
240.9678096723721
 20
126.1672598123736
 30
0.0
 10
240.9598797163846
 20
126.2284940469511
 30
0.0
 10
240.9580488109364
 20
126.2426320943608
 30
0.0
  0
ARC
  5
15F
330
1F
100
AcDbEntity
  8
0
  6
Continuous
 62
     7
370
    25
100
AcDbCircle
 10
237.2420606717
 20
125.429675103
 30
0.0
 40
3.77991807869639
100
AcDbArc
 50
12.9018176402
 51
24.2162786883
  0
ARC
  5
160
330
1F
100
AcDbEntity
  8
0
  6
Continuous
 62
     7
370
    25
100
AcDbCircle
 10
233.6888047647
 20
126.4851481853
 30
0.0
 40
7.018032155398136
100
AcDbArc
 50
355.9555700063
 51
4.0444299937
  0
ARC
  5
161
330
1F
100
AcDbEntity
  8
0
  6
Continuous
 62
     7
370
    25
100
AcDbCircle
 10
237.2420606717
 20
124.4397112989
 30
0.0
 40
3.779918078696506
100
AcDbArc
 50
12.9018176402
 51
24.2162786883
  0
SPLINE
  5
162
330
1F
100
AcDbEntity
  8
0
  6
Continuous
 62
     7
370
    25
100
AcDbSpline
210
0.0
220
0.0
230
1.0
 70
     8
 71
     3
 72
    12
 73
     8
 74
     0
 42
0.00000001
 43
0.00000001
 40
0.0
 40
0.0
 40
0.0
 40
0.0
 40
0.2133534395476133
 40
0.4267919313634468
 40
0.6383539739091508
 40
0.8490950351927574
 40
1.0
 40
1.0
 40
1.0
 40
1.0
 10
240.9265513595437
 20
124.2410853885001
 30
0.0
 10
240.936210503271
 20
124.3145440587726
 30
0.0
 10
240.9555326412945
 20
124.4614906832445
 30
0.0
 10
240.9678457113026
 20
124.7181534147964
 30
0.0
 10
240.9655082710058
 20
124.9635547768329
 30
0.0
 10
240.950390751992
 20
125.1592365365934
 30
0.0
 10
240.9335701396111
 20
125.2470522479192
 30
0.0
 10
240.9265513595437
 20
125.2836953350019
 30
0.0
  0
ARC
  5
163
330
1F
100
AcDbEntity
  8
0
  6
Continuous
 62
     7
370
    25
100
AcDbCircle
 10
233.6111346727
 20
125.3808381527
 30
0.0
 40
7.403671904229922
100
AcDbArc
 50
342.9486797797
 51
351.1444282848
  0
ARC
  5
164
330
1F
100
AcDbEntity
  8
0
  6
Continuous
 62
     7
370
    25
100
AcDbCircle
 10
237.4075467144
 20
122.8707670374
 30
0.0
 40
3.299286112121356
100
AcDbArc
 50
354.1006273552
 51
5.8993726448
  0
ARC
  5
165
330
1F
100
AcDbEntity
  8
0
  6
Continuous
 62
     7
370
    25
100
AcDbCircle
 10
233.6111346727
 20
124.7026260425
 30
0.0
 40
7.403671904234784
100
AcDbArc
 50
342.9486797797
 51
351.1444282848
  0
SPLINE
  5
166
330
1F
100
AcDbEntity
  8
0
  6
Continuous
 62
     7
370
    25
100
AcDbSpline
210
0.0
220
0.0
230
1.0
 70
     8
 71
     3
 72
    11
 73
     7
 74
     0
 42
0.00000001
 43
0.00000001
 40
0.0
 40
0.0
 40
0.0
 40
0.0
 40
0.0714051685223689
 40
0.4141348508035128
 40
0.7555345466478937
 40
1.0
 40
1.0
 40
1.0
 40
1.0
 10
240.9628052206464
 20
123.8820886082409
 30
0.0
 10
240.9637565147417
 20
123.8842303336881
 30
0.0
 10
240.9692738189698
 20
123.8966518875739
 30
0.0
 10
240.9646800912594
 20
123.8368900324559
 30
0.0
 10
240.9505305990825
 20
123.7207447116161
 30
0.0
 10
240.9336113133101
 20
123.6093536938694
 30
0.0
 10
240.9265513595437
 20
123.5628732782137
 30
0.0
  0
SPLINE
  5
167
330
1F
100
AcDbEntity
  8
0
  6
Continuous
 62
     7
370
    25
100
AcDbSpline
210
0.0
220
0.0
230
1.0
 70
     8
 71
     3
 72
    11
 73
     7
 74
     0
 42
0.00000001
 43
0.00000001
 40
0.0
 40
0.0
 40
0.0
 40
0.0
 40
0.3067489698104859
 40
0.6136202235443619
 40
0.917793611793932
 40
1.0
 40
1.0
 40
1.0
 40
1.0
 10
240.9265513595437
 20
125.790291837476
 30
0.0
 10
240.9362696271496
 20
125.7166449838737
 30
0.0
 10
240.9557100364996
 20
125.5693219177237
 30
0.0
 10
240.9671384010559
 20
125.3154750842802
 30
0.0
 10
240.9678907248854
 20
125.1213134234845
 30
0.0
 10
240.9601907120497
 20
125.0342188958489
 30
0.0
 10
240.9585524527957
 20
125.015688612988
 30
0.0
  0
ARC
  5
168
330
1F
100
AcDbEntity
  8
0
  6
Continuous
 62
     7
370
    25
100
AcDbCircle
 10
233.6805003377
 20
124.6636337587
 30
0.0
 40
7.333117606985034
100
AcDbArc
 50
8.837912545
 51
11.3659567697
  0
LINE
  5
169
330
1F
100
AcDbEntity
  8
0
  6
Continuous
 62
     7
370
    25
100
AcDbLine
 10
55.3065295579
 20
119.6867742764
 30
0.0
 11
55.3065295579
 21
130.3446029496
 31
0.0
  0
LINE
  5
16A
330
1F
100
AcDbEntity
  8
0
  6
Continuous
 62
     7
370
    25
100
AcDbLine
 10
71.5478033547
 20
116.7650286044
 30
0.0
 11
71.5478033547
 21
133.2663483363
 31
0.0
  0
SPLINE
  5
16B
330
1F
100
AcDbEntity
  8
0
  6
Continuous
 62
     7
370
    25
100
AcDbSpline
210
0.0
220
0.0
230
1.0
 70
     8
 71
     3
 72
    11
 73
     7
 74
     0
 42
0.00000001
 43
0.00000001
 40
0.0
 40
0.0
 40
0.0
 40
0.0
 40
0.2499999999999918
 40
0.4999999999999998
 40
0.7499999999999961
 40
1.0
 40
1.0
 40
1.0
 40
1.0
 10
71.54780335465477
 20
133.266349875528
 30
0.0
 10
71.61417440739214
 20
133.260457398125
 30
0.0
 10
71.74691651286689
 20
133.2486724433191
 30
0.0
 10
71.91538025364763
 20
133.1447507608873
 30
0.0
 10
72.03346761268267
 20
132.9945703564312
 30
0.0
 10
72.04884224280983
 20
132.8750112973993
 30
0.0
 10
72.0565295578734
 20
132.8152317678833
 30
0.0
  0
LINE
  5
16C
330
1F
100
AcDbEntity
  8
0
  6
Continuous
 62
     7
370
    25
100
AcDbLine
 10
72.0565295579
 20
132.8151769176
 30
0.0
 11
72.0565295579
 21
117.2162538474
 31
0.0
  0
SPLINE
  5
16D
330
1F
100
AcDbEntity
  8
0
  6
Continuous
 62
     7
370
    25
100
AcDbSpline
210
0.0
220
0.0
230
1.0
 70
     8
 71
     3
 72
    11
 73
     7
 74
     0
 42
0.00000001
 43
0.00000001
 40
0.0
 40
0.0
 40
0.0
 40
0.0
 40
0.2499999999999896
 40
0.4999999999999997
 40
0.7499999999999998
 40
1.0
 40
1.0
 40
1.0
 40
1.0
 10
71.54780335465477
 20
116.765028889693
 30
0.0
 10
71.61417440739216
 20
116.7709227627655
 30
0.0
 10
71.74691651286689
 20
116.7827105089105
 30
0.0
 10
71.9153802536476
 20
116.8866568058327
 30
0.0
 10
72.03346761268271
 20
117.0368727814421
 30
0.0
 10
72.04884224280983
 20
117.1564601587734
 30
0.0
 10
72.0565295578734
 20
117.216253847439
 30
0.0
  0
LWPOLYLINE
  5
16E
330
1F
100
AcDbEntity
  8
0
  6
Continuous
 62
     7
370
    25
100
AcDbPolyline
 90
        3
 70
   128
 43
0.0
 10
71.5478033547
 20
133.2663483363
 10
65.5563295579
 20
133.200095925
 10
62.0684856007
 20
133.1612799587
  0
LWPOLYLINE
  5
16F
330
1F
100
AcDbEntity
  8
0
  6
Continuous
 62
     7
370
    25
100
AcDbPolyline
 90
        3
 70
   128
 43
0.0
 10
63.0019058146
 20
116.8596911965
 10
65.5563295579
 20
116.8312813009
 10
71.5478033716
 20
116.7650288895
  0
LINE
  5
170
330
1F
100
AcDbEntity
  8
0
  6
Continuous
 62
     7
370
    25
100
AcDbLine
 10
57.2065295579
 20
116.6162449587
 30
0.0
 11
57.2065295579
 21
133.4151322672
 31
0.0
  0
LINE
  5
171
330
1F
100
AcDbEntity
  8
0
  6
Continuous
 62
     7
370
    25
100
AcDbLine
 10
71.5478033547
 20
133.2663495897
 30
0.0
 11
71.5478033547
 21
136.7618225262
 31
0.0
  0
ARC
  5
172
330
1F
100
AcDbEntity
  8
0
  6
Continuous
 62
     7
370
    25
100
AcDbCircle
 10
71.5624682632
 20
136.2679361695
 30
0.0
 40
0.4941040304928668
100
AcDbArc
 50
0.7535768612
 51
91.7007770082
  0
LINE
  5
173
330
1F
100
AcDbEntity
  8
0
  6
Continuous
 62
     7
370
    25
100
AcDbLine
 10
72.0565295579
 20
136.2744346347
 30
0.0
 11
72.0565295579
 21
132.815178172
 31
0.0
  0
LINE
  5
174
330
1F
100
AcDbEntity
  8
0
  6
Continuous
 62
     7
370
    25
100
AcDbLine
 10
71.5478033547
 20
113.2695546997
 30
0.0
 11
71.5478033547
 21
116.7650273504
 31
0.0
  0
ARC
  5
175
330
1F
100
AcDbEntity
  8
0
  6
Continuous
 62
     7
370
    25
100
AcDbCircle
 10
71.5624682632
 20
113.7634410565
 30
0.0
 40
0.4941040304928422
100
AcDbArc
 50
268.2992229918
 51
359.2464231388
  0
LINE
  5
176
330
1F
100
AcDbEntity
  8
0
  6
Continuous
 62
     7
370
    25
100
AcDbLine
 10
72.0565295579
 20
117.216199054
 30
0.0
 11
72.0565295579
 21
113.7569425913
 31
0.0
  0
LINE
  5
177
330
1F
100
AcDbEntity
  8
0
  6
Continuous
 62
     7
370
    25
100
AcDbLine
 10
62.0684856007
 20
133.1612799587
 30
0.0
 11
62.1130919339
 21
133.1620865758
 31
0.0
  0
LINE
  5
178
330
1F
100
AcDbEntity
  8
0
  6
Continuous
 62
     7
370
    25
100
AcDbLine
 10
62.1542018902
 20
133.1628281419
 30
0.0
 11
62.1130919339
 21
133.1620865758
 31
0.0
  0
LWPOLYLINE
  5
179
330
1F
100
AcDbEntity
  8
0
  6
Continuous
 62
     7
370
    25
100
AcDbPolyline
 90
        3
 70
   128
 43
0.0
 10
62.1542018902
 20
133.1628281419
 10
65.5565295579
 20
133.2003518455
 10
71.5478033377
 20
133.2663498753
  0
LINE
  5
17A
330
1F
100
AcDbEntity
  8
0
  6
Continuous
 62
     7
370
    25
100
AcDbLine
 10
63.0344399539
 20
116.8591041556
 30
0.0
 11
63.0726157579
 21
116.8584168529
 31
0.0
  0
LINE
  5
17B
330
1F
100
AcDbEntity
  8
0
  6
Continuous
 62
     7
370
    25
100
AcDbLine
 10
63.0344399539
 20
116.8591041556
 30
0.0
 11
63.0019058146
 21
116.8596911965
 31
0.0
  0
LWPOLYLINE
  5
17C
330
1F
100
AcDbEntity
  8
0
  6
Continuous
 62
     7
370
    25
100
AcDbPolyline
 90
        3
 70
   128
 43
0.0
 10
63.0726157579
 20
116.8584168529
 10
65.5565295579
 20
116.8310253805
 10
71.5478033547
 20
116.7650273504
  0
LINE
  5
17D
330
1F
100
AcDbEntity
  8
0
  6
Continuous
 62
     7
370
    25
100
AcDbLine
 10
67.521624745
 20
113.3849603982
 30
0.0
 11
67.521624745
 21
113.3380696564
 31
0.0
  0
SPLINE
  5
17E
330
1F
100
AcDbEntity
  8
0
  6
Continuous
 62
     7
370
    25
100
AcDbSpline
210
0.0
220
0.0
230
1.0
 70
     8
 71
     3
 72
    12
 73
     8
 74
     0
 42
0.00000001
 43
0.00000001
 40
0.0
 40
0.0
 40
0.0
 40
0.0
 40
0.0460732444350183
 40
0.249460740807831
 40
0.4779405209378896
 40
0.7057893369168761
 40
1.0
 40
1.0
 40
1.0
 40
1.0
 10
63.07261575785635
 20
116.8584168528856
 30
0.0
 10
63.17458819885339
 20
116.7959114554698
 30
0.0
 10
63.72671169232659
 20
116.4574798356646
 30
0.0
 10
64.77069164763894
 20
115.8389377388394
 30
0.0
 10
66.04196992315076
 20
115.0312131872708
 30
0.0
 10
67.20873294772807
 20
114.1591352737312
 30
0.0
 10
67.40884822850596
 20
113.6639985397569
 30
0.0
 10
67.52162474499885
 20
113.3849603982005
 30
0.0
  0
LINE
  5
17F
330
1F
100
AcDbEntity
  8
0
  6
Continuous
 62
     7
370
    25
100
AcDbLine
 10
67.521624745
 20
113.3380696564
 30
0.0
 11
71.5478033547
 21
113.2695546997
 31
0.0
  0
SPLINE
  5
180
330
1F
100
AcDbEntity
  8
0
  6
Continuous
 62
     7
370
    25
100
AcDbSpline
210
0.0
220
0.0
230
1.0
 70
     8
 71
     3
 72
    12
 73
     8
 74
     0
 42
0.00000001
 43
0.00000001
 40
0.0
 40
0.0
 40
0.0
 40
0.0
 40
0.1662426524176548
 40
0.3368059756191302
 40
0.6054181071254584
 40
0.8801435087136187
 40
1.0
 40
1.0
 40
1.0
 40
1.0
 10
67.46529552792956
 20
136.692348994659
 30
0.0
 10
67.36583882065433
 20
136.536863819176
 30
0.0
 10
67.1643405117754
 20
136.2218523858208
 30
0.0
 10
66.3420927557529
 20
135.5588872808222
 30
0.0
 10
64.98026358876632
 20
134.7066923640168
 30
0.0
 10
63.41915740010747
 20
133.8640636854048
 30
0.0
 10
62.44891770794583
 20
133.3262055927096
 30
0.0
 10
62.15420189024295
 20
133.1628281418823
 30
0.0
  0
LINE
  5
181
330
1F
100
AcDbEntity
  8
0
  6
Continuous
 62
     7
370
    25
100
AcDbLine
 10
67.4652955279
 20
136.6923489947
 30
0.0
 11
71.5478033547
 21
136.7618225262
 31
0.0
  0
LINE
  5
182
330
1F
100
AcDbEntity
  8
0
  6
Continuous
 62
     7
370
    25
100
AcDbLine
 10
72.0565295579
 20
113.7569425913
 30
0.0
 11
72.0565295579
 21
113.5437989983
 31
0.0
  0
LINE
  5
183
330
1F
100
AcDbEntity
  8
0
  6
Continuous
 62
     7
370
    25
100
AcDbLine
 10
72.0565295579
 20
136.4875782277
 30
0.0
 11
72.0565295579
 21
136.2744346347
 31
0.0
  0
LINE
  5
184
330
1F
100
AcDbEntity
  8
0
  6
Continuous
 62
     7
370
    25
100
AcDbLine
 10
67.521624745
 20
136.9006360599
 30
0.0
 11
67.4652955279
 21
136.6923489947
 31
0.0
  0
LINE
  5
185
330
1F
100
AcDbEntity
  8
0
  6
Continuous
 62
     7
370
    25
100
AcDbLine
 10
223.4652557611
 20
133.5117699104
 30
0.0
 11
223.4652557611
 21
117.0104501785
 31
0.0
  0
SPLINE
  5
186
330
1F
100
AcDbEntity
  8
0
  6
Continuous
 62
     7
370
    25
100
AcDbSpline
210
0.0
220
0.0
230
1.0
 70
     8
 71
     3
 72
    11
 73
     7
 74
     0
 42
0.00000001
 43
0.00000001
 40
0.0
 40
0.0
 40
0.0
 40
0.0
 40
0.2499999999999913
 40
0.4999999999999988
 40
0.7499999999999947
 40
1.0
 40
1.0
 40
1.0
 40
1.0
 10
223.465255761092
 20
117.0104486392764
 30
0.0
 10
223.3988847083547
 20
117.0163411166794
 30
0.0
 10
223.2661426028799
 20
117.0281260714853
 30
0.0
 10
223.0976788620992
 20
117.1320477539171
 30
0.0
 10
222.9795915030641
 20
117.2822281583732
 30
0.0
 10
222.964216872937
 20
117.4017872174051
 30
0.0
 10
222.9565295578734
 20
117.4615667469211
 30
0.0
  0
LINE
  5
187
330
1F
100
AcDbEntity
  8
0
  6
Continuous
 62
     7
370
    25
100
AcDbLine
 10
222.9565295579
 20
117.4616215972
 30
0.0
 11
222.9565295579
 21
133.0605446674
 31
0.0
  0
SPLINE
  5
188
330
1F
100
AcDbEntity
  8
0
  6
Continuous
 62
     7
370
    25
100
AcDbSpline
210
0.0
220
0.0
230
1.0
 70
     8
 71
     3
 72
    11
 73
     7
 74
     0
 42
0.00000001
 43
0.00000001
 40
0.0
 40
0.0
 40
0.0
 40
0.0
 40
0.2499999999999901
 40
0.5000000000000007
 40
0.7500000000000012
 40
1.0
 40
1.0
 40
1.0
 40
1.0
 10
223.465255761092
 20
133.5117696251115
 30
0.0
 10
223.3988847083547
 20
133.5058757520389
 30
0.0
 10
223.26614260288
 20
133.494088005894
 30
0.0
 10
223.0976788620992
 20
133.3901417089718
 30
0.0
 10
222.9795915030641
 20
133.2399257333622
 30
0.0
 10
222.964216872937
 20
133.120338356031
 30
0.0
 10
222.9565295578734
 20
133.0605446673654
 30
0.0
  0
LWPOLYLINE
  5
189
330
1F
100
AcDbEntity
  8
0
  6
Continuous
 62
     7
370
    25
100
AcDbPolyline
 90
        3
 70
   128
 43
0.0
 10
223.4652557611
 20
117.0104501785
 10
229.4567295579
 20
117.0767025898
 10
232.944573515
 20
117.1155185561
  0
LWPOLYLINE
  5
18A
330
1F
100
AcDbEntity
  8
0
  6
Continuous
 62
     7
370
    25
100
AcDbPolyline
 90
        3
 70
   128
 43
0.0
 10
232.0111533011
 20
133.4171073183
 10
229.4567295579
 20
133.4455172139
 10
223.4652557441
 20
133.5117696253
  0
LINE
  5
18B
330
1F
100
AcDbEntity
  8
0
  6
Continuous
 62
     7
370
    25
100
AcDbLine
 10
237.8065295579
 20
133.6605535561
 30
0.0
 11
237.8065295579
 21
116.8616662476
 31
0.0
  0
LINE
  5
18C
330
1F
100
AcDbEntity
  8
0
  6
Continuous
 62
     7
370
    25
100
AcDbLine
 10
223.4652557611
 20
117.0104489251
 30
0.0
 11
223.4652557611
 21
113.5149759886
 31
0.0
  0
ARC
  5
18D
330
1F
100
AcDbEntity
  8
0
  6
Continuous
 62
     7
370
    25
100
AcDbCircle
 10
223.4505908526
 20
114.0088623453
 30
0.0
 40
0.4941040304928414
100
AcDbArc
 50
180.7535768612
 51
271.7007770082
  0
LINE
  5
18E
330
1F
100
AcDbEntity
  8
0
  6
Continuous
 62
     7
370
    25
100
AcDbLine
 10
222.9565295579
 20
114.0023638801
 30
0.0
 11
222.9565295579
 21
117.4616203428
 31
0.0
  0
LINE
  5
18F
330
1F
100
AcDbEntity
  8
0
  6
Continuous
 62
     7
370
    25
100
AcDbLine
 10
223.4652557611
 20
137.0072438151
 30
0.0
 11
223.4652557611
 21
133.5117711644
 31
0.0
  0
ARC
  5
190
330
1F
100
AcDbEntity
  8
0
  6
Continuous
 62
     7
370
    25
100
AcDbCircle
 10
223.4505908526
 20
136.5133574583
 30
0.0
 40
0.4941040304927721
100
AcDbArc
 50
88.2992229917
 51
179.2464231388
  0
LINE
  5
191
330
1F
100
AcDbEntity
  8
0
  6
Continuous
 62
     7
370
    25
100
AcDbLine
 10
222.9565295579
 20
133.0605994608
 30
0.0
 11
222.9565295579
 21
136.5198559235
 31
0.0
  0
LINE
  5
192
330
1F
100
AcDbEntity
  8
0
  6
Continuous
 62
     7
370
    25
100
AcDbLine
 10
232.944573515
 20
117.1155185561
 30
0.0
 11
232.8999671818
 21
117.114711939
 31
0.0
  0
LINE
  5
193
330
1F
100
AcDbEntity
  8
0
  6
Continuous
 62
     7
370
    25
100
AcDbLine
 10
232.8588572255
 20
117.1139703729
 30
0.0
 11
232.8999671818
 21
117.114711939
 31
0.0
  0
LWPOLYLINE
  5
194
330
1F
100
AcDbEntity
  8
0
  6
Continuous
 62
     7
370
    25
100
AcDbPolyline
 90
        3
 70
   128
 43
0.0
 10
232.8588572255
 20
117.1139703729
 10
229.4565295579
 20
117.0764466694
 10
223.465255778
 20
117.0104486395
  0
SPLINE
  5
195
330
1F
100
AcDbEntity
  8
0
  6
Continuous
 62
     7
370
    25
100
AcDbSpline
210
0.0
220
0.0
230
1.0
 70
     8
 71
     3
 72
    12
 73
     8
 74
     0
 42
0.00000001
 43
0.00000001
 40
0.0
 40
0.0
 40
0.0
 40
0.0
 40
0.1662426524176543
 40
0.3368059756191298
 40
0.6054181071254586
 40
0.880143508713619
 40
1.0
 40
1.0
 40
1.0
 40
1.0
 10
227.5477635878173
 20
113.5844495201454
 30
0.0
 10
227.6472202950925
 20
113.7399346956284
 30
0.0
 10
227.8487186039714
 20
114.0549461289836
 30
0.0
 10
228.6709663599939
 20
114.7179112339822
 30
0.0
 10
230.0327955269805
 20
115.5701061507876
 30
0.0
 10
231.5939017156394
 20
116.4127348293997
 30
0.0
 10
232.564141407801
 20
116.9505929220948
 30
0.0
 10
232.8588572255039
 20
117.1139703729221
 30
0.0
  0
LINE
  5
196
330
1F
100
AcDbEntity
  8
0
  6
Continuous
 62
     7
370
    25
100
AcDbLine
 10
227.5477635878
 20
113.5844495201
 30
0.0
 11
223.4652557611
 21
113.5149759886
 31
0.0
  0
LINE
  5
197
330
1F
100
AcDbEntity
  8
0
  6
Continuous
 62
     7
370
    25
100
AcDbLine
 10
227.4914343707
 20
136.8918381166
 30
0.0
 11
227.4914343707
 21
136.9387288584
 31
0.0
  0
SPLINE
  5
198
330
1F
100
AcDbEntity
  8
0
  6
Continuous
 62
     7
370
    25
100
AcDbSpline
210
0.0
220
0.0
230
1.0
 70
     8
 71
     3
 72
    12
 73
     8
 74
     0
 42
0.00000001
 43
0.00000001
 40
0.0
 40
0.0
 40
0.0
 40
0.0
 40
0.0460732444350173
 40
0.2494607408078301
 40
0.4779405209378887
 40
0.7057893369168754
 40
1.0
 40
1.0
 40
1.0
 40
1.0
 10
231.9404433578905
 20
133.4183816619189
 30
0.0
 10
231.8384709168934
 20
133.4808870593346
 30
0.0
 10
231.2863474234202
 20
133.8193186791399
 30
0.0
 10
230.2423674681079
 20
134.437860775965
 30
0.0
 10
228.9710891925961
 20
135.2455853275336
 30
0.0
 10
227.8043261680187
 20
136.1176632410732
 30
0.0
 10
227.6042108872409
 20
136.6127999750475
 30
0.0
 10
227.491434370748
 20
136.8918381166039
 30
0.0
  0
LWPOLYLINE
  5
199
330
1F
100
AcDbEntity
  8
0
  6
Continuous
 62
     7
370
    25
100
AcDbPolyline
 90
        3
 70
   128
 43
0.0
 10
231.9404433579
 20
133.4183816619
 10
229.4565295579
 20
133.4457731343
 10
223.4652557611
 20
133.5117711644
  0
LINE
  5
19A
330
1F
100
AcDbEntity
  8
0
  6
Continuous
 62
     7
370
    25
100
AcDbLine
 10
227.4914343707
 20
136.9387288584
 30
0.0
 11
223.4652557611
 21
137.0072438151
 31
0.0
  0
LINE
  5
19B
330
1F
100
AcDbEntity
  8
0
  6
Continuous
 62
     7
370
    25
100
AcDbLine
 10
231.9786191619
 20
133.4176943592
 30
0.0
 11
231.9404433579
 21
133.4183816619
 31
0.0
  0
LINE
  5
19C
330
1F
100
AcDbEntity
  8
0
  6
Continuous
 62
     7
370
    25
100
AcDbLine
 10
231.9786191619
 20
133.4176943592
 30
0.0
 11
232.0111533011
 21
133.4171073183
 31
0.0
  0
LINE
  5
19D
330
1F
100
AcDbEntity
  8
0
  6
Continuous
 62
     7
370
    25
100
AcDbLine
 10
222.9565295579
 20
113.7892202871
 30
0.0
 11
222.9565295579
 21
114.0023638801
 31
0.0
  0
LINE
  5
19E
330
1F
100
AcDbEntity
  8
0
  6
Continuous
 62
     7
370
    25
100
AcDbLine
 10
222.9565295579
 20
136.5198559235
 30
0.0
 11
222.9565295579
 21
136.7329995165
 31
0.0
  0
LINE
  5
19F
330
1F
100
AcDbEntity
  8
0
  6
Continuous
 62
     7
370
    25
100
AcDbLine
 10
227.4914343707
 20
113.3761624549
 30
0.0
 11
227.5477635878
 21
113.5844495201
 31
0.0
  0
LINE
  5
1A0
330
1F
100
AcDbEntity
  8
0
  6
Continuous
 62
     7
370
    25
100
AcDbLine
 10
81.9565295579
 20
133.7321456202
 30
0.0
 11
81.9565295579
 21
134.830571749
 31
0.0
  0
SPLINE
  5
1A1
330
1F
100
AcDbEntity
  8
0
  6
Continuous
 62
     7
370
    25
100
AcDbSpline
210
0.0
220
0.0
230
1.0
 70
     8
 71
     3
 72
    13
 73
     9
 74
     0
 42
0.00000001
 43
0.00000001
 40
0.0
 40
0.0
 40
0.0
 40
0.0
 40
0.0295448902054266
 40
0.2606471239688194
 40
0.4913152552054734
 40
0.7308682638478785
 40
0.9709134921287365
 40
1.0
 40
1.0
 40
1.0
 40
1.0
 10
81.95652955787341
 20
133.7321456202426
 30
0.0
 10
81.92860474005755
 20
133.6706003131354
 30
0.0
 10
81.68225001000249
 20
133.1276432339344
 30
0.0
 10
81.32016132610512
 20
132.072197068177
 30
0.0
 10
81.108413755911
 20
130.5138618480934
 30
0.0
 10
81.3032543907631
 20
128.9330512516644
 30
0.0
 10
81.67459954698462
 20
127.8390479727111
 30
0.0
 10
81.92903171142969
 20
127.2784362897186
 30
0.0
 10
81.9565295578734
 20
127.2178479831769
 30
0.0
  0
LINE
  5
1A2
330
1F
100
AcDbEntity
  8
0
  6
Continuous
 62
     7
370
    25
100
AcDbLine
 10
81.9565295579
 20
124.6215458211
 30
0.0
 11
81.9565295579
 21
127.2178479832
 31
0.0
  0
SPLINE
  5
1A3
330
1F
100
AcDbEntity
  8
0
  6
Continuous
 62
     7
370
    25
100
AcDbSpline
210
0.0
220
0.0
230
1.0
 70
     8
 71
     3
 72
    11
 73
     7
 74
     0
 42
0.00000001
 43
0.00000001
 40
0.0
 40
0.0
 40
0.0
 40
0.0
 40
0.2431641197380918
 40
0.4936284730588935
 40
0.7421706076863281
 40
1.0
 40
1.0
 40
1.0
 40
1.0
 10
81.9565295578734
 20
124.6215458210922
 30
0.0
 10
81.74638923466462
 20
124.0524696007349
 30
0.0
 10
81.31979978970301
 20
122.8972324464555
 30
0.0
 10
81.10941535956003
 20
121.064652879133
 30
0.0
 10
81.30010205322704
 20
119.1934077844918
 30
0.0
 10
81.73506122362173
 20
118.0070321845264
 30
0.0
 10
81.95652955787341
 20
117.4029648471652
 30
0.0
  0
LINE
  5
1A4
330
1F
100
AcDbEntity
  8
0
  6
Continuous
 62
     7
370
    25
100
AcDbLine
 10
81.9565295579
 20
115.9050888138
 30
0.0
 11
81.9565295579
 21
117.4029648472
 31
0.0
  0
SPLINE
  5
1A5
330
1F
100
AcDbEntity
  8
0
  6
Continuous
 62
     7
370
    25
100
AcDbSpline
210
0.0
220
0.0
230
1.0
 70
     8
 71
     3
 72
    11
 73
     7
 74
     0
 42
0.00000001
 43
0.00000001
 40
0.0
 40
0.0
 40
0.0
 40
0.0
 40
0.2431641197380915
 40
0.493628473058893
 40
0.7421706076863287
 40
1.0
 40
1.0
 40
1.0
 40
1.0
 10
81.95652955787338
 20
115.9050888138376
 30
0.0
 10
81.74638923466462
 20
115.8495666965615
 30
0.0
 10
81.31979978970301
 20
115.7368555860509
 30
0.0
 10
81.10941535956005
 20
115.558059329917
 30
0.0
 10
81.30010205322704
 20
115.3754906583042
 30
0.0
 10
81.73506122362173
 20
115.2597415146245
 30
0.0
 10
81.95652955787341
 20
115.2008054769764
 30
0.0
  0
SPLINE
  5
1A6
330
1F
100
AcDbEntity
  8
0
  6
Continuous
 62
     7
370
    25
100
AcDbSpline
210
0.0
220
0.0
230
1.0
 70
     8
 71
     3
 72
     9
 73
     5
 74
     0
 42
0.00000001
 43
0.00000001
 40
0.0
 40
0.0
 40
0.0
 40
0.0
 40
0.3487394647221058
 40
1.0
 40
1.0
 40
1.0
 40
1.0
 10
81.26314107329162
 20
134.5530689373455
 30
0.0
 10
81.28748290780617
 20
134.5862822914458
 30
0.0
 10
81.35728239130879
 20
134.6815205924127
 30
0.0
 10
81.72018524870903
 20
134.771785667731
 30
0.0
 10
81.9565295578734
 20
134.8305717489997
 30
0.0
  0
LINE
  5
1A7
330
1F
100
AcDbEntity
  8
0
  6
Continuous
 62
     7
370
    25
100
AcDbLine
 10
79.9565295579
 20
129.7566667769
 30
0.0
 11
79.9565295579
 21
133.265688613
 31
0.0
  0
LINE
  5
1A8
330
1F
100
AcDbEntity
  8
0
  6
Continuous
 62
     7
370
    25
100
AcDbLine
 10
79.9565295579
 20
116.765688613
 30
0.0
 11
79.9565295579
 21
129.7566667769
 31
0.0
  0
SPLINE
  5
1A9
330
1F
100
AcDbEntity
  8
0
  6
Continuous
 62
     7
370
    25
100
AcDbSpline
210
0.0
220
0.0
230
1.0
 70
     8
 71
     3
 72
    27
 73
    23
 74
     0
 42
0.00000001
 43
0.00000001
 40
0.0
 40
0.0
 40
0.0
 40
0.0
 40
0.0136139090399478
 40
0.0776727084403656
 40
0.1348261364597263
 40
0.1770440798320018
 40
0.204309819173203
 40
0.230399987517652
 40
0.2595714286585745
 40
0.286552838249025
 40
0.3220521810161566
 40
0.3830134828479145
 40
0.481257450436484
 40
0.5465783976780292
 40
0.6342111976224554
 40
0.6907401776532384
 40
0.7424867965677214
 40
0.7860227414525577
 40
0.8208210581933937
 40
0.8874577604484439
 40
0.9380042021573735
 40
1.0
 40
1.0
 40
1.0
 40
1.0
 10
87.35599105847595
 20
115.62783279685
 30
0.0
 10
87.35328826985763
 20
115.6246842557496
 30
0.0
 10
87.33786779718432
 20
115.6067205897529
 30
0.0
 10
87.3101232541155
 20
115.7717912474897
 30
0.0
 10
87.27704630286107
 20
116.144805014974
 30
0.0
 10
87.2515060580503
 20
116.5730914965286
 30
0.0
 10
87.23250858981973
 20
116.9604402557593
 30
0.0
 10
87.21667716424112
 20
117.3369801668625
 30
0.0
 10
87.20071913584039
 20
117.7534387801038
 30
0.0
 10
87.18324004211662
 20
118.2615120064859
 30
0.0
 10
87.15824338379863
 20
119.0078249281213
 30
0.0
 10
87.11848910551534
 20
120.3217443710215
 30
0.0
 10
87.07248258249858
 20
122.0527829633434
 30
0.0
 10
87.02473644137044
 20
124.1123272642419
 30
0.0
 10
86.98262663386541
 20
125.8763789599706
 30
0.0
 10
86.94258586228793
 20
127.4839627826526
 30
0.0
 10
86.91180601597806
 20
128.6817387883795
 30
0.0
 10
86.88583574840692
 20
129.6530545975551
 30
0.0
 10
86.85824250901648
 20
130.6727438709555
 30
0.0
 10
86.82819465229932
 20
131.64108068689
 30
0.0
 10
86.79204752561084
 20
132.6287331241135
 30
0.0
 10
86.76914551701051
 20
133.1004750525181
 30
0.0
 10
86.75652955787342
 20
133.3603420797232
 30
0.0
  0
LINE
  5
1AA
330
1F
100
AcDbEntity
  8
0
  6
Continuous
 62
     7
370
    25
100
AcDbLine
 10
86.7565295579
 20
134.415688613
 30
0.0
 11
86.7565295579
 21
133.3603420799
 31
0.0
  0
SPLINE
  5
1AB
330
1F
100
AcDbEntity
  8
0
  6
Continuous
 62
     7
370
    25
100
AcDbSpline
210
0.0
220
0.0
230
1.0
 70
     8
 71
     3
 72
    35
 73
    31
 74
     0
 42
0.00000001
 43
0.00000001
 40
0.0
 40
0.0
 40
0.0
 40
0.0
 40
0.0240674770331327
 40
0.067987792976814
 40
0.1125749483174375
 40
0.1439040808921704
 40
0.1776893127437586
 40
0.2210914069396794
 40
0.2567988075823096
 40
0.2935583688291123
 40
0.3694549076630427
 40
0.3999481985346628
 40
0.4395535899128755
 40
0.4786156453284776
 40
0.5166906085772273
 40
0.5503864380236244
 40
0.5896044216402686
 40
0.6181546416382511
 40
0.6457847797213725
 40
0.6951196932308986
 40
0.7446823840802009
 40
0.7762169429139685
 40
0.820582877931581
 40
0.8620435694165106
 40
0.8879065094688615
 40
0.8964752009135439
 40
0.9214211820786606
 40
0.9463673263778021
 40
0.9713136358219022
 40
1.0
 40
1.0
 40
1.0
 40
1.0
 10
87.7087452668982
 20
115.6244713808015
 30
0.0
 10
87.70305900336878
 20
115.6263613325231
 30
0.0
 10
87.68699597743884
 20
115.6317002239326
 30
0.0
 10
87.6598044318229
 20
115.8040967138221
 30
0.0
 10
87.63095195605622
 20
116.1313451000103
 30
0.0
 10
87.6047943878876
 20
116.555703870467
 30
0.0
 10
87.57983726296474
 20
117.0728800099817
 30
0.0
 10
87.55461512044516
 20
117.7259391761178
 30
0.0
 10
87.52763543513262
 20
118.5049670186492
 30
0.0
 10
87.49137594118619
 20
119.6165879274508
 30
0.0
 10
87.45706256815724
 20
120.8460815255883
 30
0.0
 10
87.42267349230212
 20
122.1903091450797
 30
0.0
 10
87.39779887888128
 20
123.233064026996
 30
0.0
 10
87.37137028988842
 20
124.3746716990432
 30
0.0
 10
87.34524060638563
 20
125.4674655640751
 30
0.0
 10
87.31860971902682
 20
126.5549501288939
 30
0.0
 10
87.29424994261353
 20
127.5315318092965
 30
0.0
 10
87.27140898644464
 20
128.4214401937499
 30
0.0
 10
87.24602851395275
 20
129.3724110655921
 30
0.0
 10
87.21745912874472
 20
130.4473369645989
 30
0.0
 10
87.18779719059076
 20
131.4402393001851
 30
0.0
 10
87.15789998587366
 20
132.2848485087733
 30
0.0
 10
87.12962545841069
 20
132.9704533170726
 30
0.0
 10
87.10272642474537
 20
133.4971360835852
 30
0.0
 10
87.08449958129574
 20
133.7832467879115
 30
0.0
 10
87.07069898418435
 20
133.9772025932293
 30
0.0
 10
87.05778494684033
 20
134.1409751818477
 30
0.0
 10
87.04061771325829
 20
134.2875208391485
 30
0.0
 10
87.02259669866817
 20
134.4086941488662
 30
0.0
 10
87.00980779346452
 20
134.3733032581328
 30
0.0
 10
87.00296742606653
 20
134.3543738274034
 30
0.0
  0
SPLINE
  5
1AC
330
1F
100
AcDbEntity
  8
0
  6
Continuous
 62
     7
370
    25
100
AcDbSpline
210
0.0
220
0.0
230
1.0
 70
     8
 71
     3
 72
    18
 73
    14
 74
     0
 42
0.00000001
 43
0.00000001
 40
0.0
 40
0.0
 40
0.0
 40
0.0
 40
0.0774554087960547
 40
0.1860661841307256
 40
0.2602328912561668
 40
0.3356194784643637
 40
0.4114978088796587
 40
0.5187351849825095
 40
0.6282504212506469
 40
0.7366780512135036
 40
0.8447168369584799
 40
0.9543674583636134
 40
0.9999999999999999
 40
0.9999999999999999
 40
0.9999999999999999
 40
0.9999999999999999
 10
86.90468809231835
 20
116.4763974240069
 30
0.0
 10
86.88769000168898
 20
116.5111600832455
 30
0.0
 10
86.84685657365499
 20
116.5946682004359
 30
0.0
 10
86.79003463739191
 20
117.5724313875808
 30
0.0
 10
86.73699636818536
 20
118.9217298379093
 30
0.0
 10
86.68683575857627
 20
120.4005679277391
 30
0.0
 10
86.62957357625581
 20
122.3376183957077
 30
0.0
 10
86.5701149157213
 20
124.7554228844461
 30
0.0
 10
86.4968647553655
 20
127.4661898105115
 30
0.0
 10
86.42709695905118
 20
129.9464570334844
 30
0.0
 10
86.35850590056276
 20
131.9390617029329
 30
0.0
 10
86.2987352133451
 20
133.0328649269073
 30
0.0
 10
86.2661154254077
 20
133.3572711220443
 30
0.0
 10
86.2565295578734
 20
133.4526032811576
 30
0.0
  0
SPLINE
  5
1AD
330
1F
100
AcDbEntity
  8
0
  6
Continuous
 62
     7
370
    25
100
AcDbSpline
210
0.0
220
0.0
230
1.0
 70
     8
 71
     3
 72
    11
 73
     7
 74
     0
 42
0.00000001
 43
0.00000001
 40
0.0
 40
0.0
 40
0.0
 40
0.0
 40
0.170158758569659
 40
0.5148066094740512
 40
0.7558205066443097
 40
0.9999999999999999
 40
0.9999999999999999
 40
0.9999999999999999
 40
0.9999999999999999
 10
86.5049341629564
 20
134.1320358240574
 30
0.0
 10
86.51970732752126
 20
134.1532940363116
 30
0.0
 10
86.56440278031347
 20
134.2176096687604
 30
0.0
 10
86.62450154683238
 20
134.059143782039
 30
0.0
 10
86.69429785119664
 20
133.7700328704193
 30
0.0
 10
86.73569562374882
 20
133.4974983847799
 30
0.0
 10
86.75652955785681
 20
133.3603420798409
 30
0.0
  0
SPLINE
  5
1AE
330
1F
100
AcDbEntity
  8
0
  6
Continuous
 62
     7
370
    25
100
AcDbSpline
210
0.0
220
0.0
230
1.0
 70
     8
 71
     3
 72
    16
 73
    12
 74
     0
 42
0.00000001
 43
0.00000001
 40
0.0
 40
0.0
 40
0.0
 40
0.0
 40
0.07921406387135
 40
0.1934397168971926
 40
0.3076653699220779
 40
0.4218677295428687
 40
0.5346865681724862
 40
0.6475054053740946
 40
0.7603242420221167
 40
0.8782804502979503
 40
1.0
 40
1.0
 40
1.0
 40
1.0
 10
86.46553261891967
 20
115.9332343027798
 30
0.0
 10
86.46006289350157
 20
115.9397913016563
 30
0.0
 10
86.44670589495016
 20
115.9558034078957
 30
0.0
 10
86.42477120509085
 20
116.2693859382261
 30
0.0
 10
86.4005300474914
 20
116.8244970961858
 30
0.0
 10
86.37764990008264
 20
117.6102843354135
 30
0.0
 10
86.35474977830215
 20
118.5920288232972
 30
0.0
 10
86.33059208115162
 20
119.7444058441409
 30
0.0
 10
86.30587477785225
 20
121.0585465464414
 30
0.0
 10
86.28084844668538
 20
122.5184802826162
 30
0.0
 10
86.2647202679699
 20
123.5653517287885
 30
0.0
 10
86.2565295578734
 20
124.0970063362428
 30
0.0
  0
SPLINE
  5
1AF
330
1F
100
AcDbEntity
  8
0
  6
Continuous
 62
     7
370
    25
100
AcDbSpline
210
0.0
220
0.0
230
1.0
 70
    24
 71
     3
 72
    10
 73
     6
 74
     0
 42
0.00000001
 43
0.00000001
 40
0.0
 40
0.0
 40
0.0
 40
0.0
 40
0.3294562546722015
 40
0.8318642056942915
 40
1.0
 40
1.0
 40
1.0
 40
1.0
 10
86.2565295578734
 20
124.0970063362428
 30
0.0
 10
86.2565295578734
 20
124.7457342138509
 30
0.0
 10
86.2565295578734
 20
126.3837468269521
 30
0.0
 10
86.25652955787339
 20
128.2976103632245
 30
0.0
 10
86.2565295578734
 20
129.4005748331794
 30
0.0
 10
86.2565295578734
 20
129.6771381574055
 30
0.0
  0
SPLINE
  5
1B0
330
1F
100
AcDbEntity
  8
0
  6
Continuous
 62
     7
370
    25
100
AcDbSpline
210
0.0
220
0.0
230
1.0
 70
     8
 71
     3
 72
    15
 73
    11
 74
     0
 42
0.00000001
 43
0.00000001
 40
0.0
 40
0.0
 40
0.0
 40
0.0
 40
0.1319746667032352
 40
0.1608073069995043
 40
0.3024203969717293
 40
0.4436898895822913
 40
0.5869603891290428
 40
0.7271016041552255
 40
0.8702195989016371
 40
1.0
 40
1.0
 40
1.0
 40
1.0
 10
86.75316643546077
 20
116.4010236439229
 30
0.0
 10
86.73120688555713
 20
116.4102095267985
 30
0.0
 10
86.70444981034613
 20
116.4214022588928
 30
0.0
 10
86.65327709058607
 20
116.9183498153214
 30
0.0
 10
86.60242545925131
 20
117.7779524303787
 30
0.0
 10
86.53364216697831
 20
119.6619988280278
 30
0.0
 10
86.4599056130233
 20
122.062132828424
 30
0.0
 10
86.39377027508083
 20
124.7494579034307
 30
0.0
 10
86.3224940183939
 20
127.4102886970374
 30
0.0
 10
86.2777894161266
 20
128.9465493247441
 30
0.0
 10
86.2565295578734
 20
129.6771381574055
 30
0.0
  0
LINE
  5
1B1
330
1F
100
AcDbEntity
  8
0
  6
Continuous
 62
     7
370
    25
100
AcDbLine
 10
84.5065295579
 20
124.6215458211
 30
0.0
 11
84.7565295579
 21
123.9859678028
 31
0.0
  0
LINE
  5
1B2
330
1F
100
AcDbEntity
  8
0
  6
Continuous
 62
     7
370
    25
100
AcDbLine
 10
84.7565295579
 20
118.0385428655
 30
0.0
 11
84.5065295579
 21
117.4029648472
 31
0.0
  0
LINE
  5
1B3
330
1F
100
AcDbEntity
  8
0
  6
Continuous
 62
     7
370
    25
100
AcDbLine
 10
81.9565295579
 20
117.4029648472
 30
0.0
 11
84.5065295579
 21
117.4029648472
 31
0.0
  0
LINE
  5
1B4
330
1F
100
AcDbEntity
  8
0
  6
Continuous
 62
     7
370
    25
100
AcDbLine
 10
84.5065295579
 20
124.6215458211
 30
0.0
 11
81.9565295579
 21
124.6215458211
 31
0.0
  0
LINE
  5
1B5
330
1F
100
AcDbEntity
  8
0
  6
Continuous
 62
     7
370
    25
100
AcDbLine
 10
84.7565295579
 20
118.0385428655
 30
0.0
 11
84.7565295579
 21
123.9859678028
 31
0.0
  0
LINE
  5
1B6
330
1F
100
AcDbEntity
  8
0
  6
Continuous
 62
     7
370
    25
100
AcDbLine
 10
86.2565295579
 20
116.115688613
 30
0.0
 11
86.2565295579
 21
124.0970063362
 31
0.0
  0
SPLINE
  5
1B7
330
1F
100
AcDbEntity
  8
0
  6
Continuous
 62
     7
370
    25
100
AcDbSpline
210
0.0
220
0.0
230
1.0
 70
    24
 71
     3
 72
    11
 73
     7
 74
     0
 42
0.00000001
 43
0.00000001
 40
0.0
 40
0.0
 40
0.0
 40
0.0
 40
0.0521773337626345
 40
0.2615477432295213
 40
0.6847281688108021
 40
0.9999999999999999
 40
0.9999999999999999
 40
0.9999999999999999
 40
0.9999999999999999
 10
86.2565295578734
 20
129.6771381574055
 30
0.0
 10
86.25652955787339
 20
129.7753606910907
 30
0.0
 10
86.25652955787336
 20
130.2677178156711
 30
0.0
 10
86.25652955787344
 20
131.4526074621301
 30
0.0
 10
86.25652955787339
 20
132.7757137265459
 30
0.0
 10
86.2565295578734
 20
133.2500794783579
 30
0.0
 10
86.2565295578734
 20
133.4526032811576
 30
0.0
  0
LINE
  5
1B8
330
1F
100
AcDbEntity
  8
0
  6
Continuous
 62
     7
370
    25
100
AcDbLine
 10
84.5065295579
 20
124.6215458211
 30
0.0
 11
84.5065295579
 21
127.2178479832
 31
0.0
  0
LINE
  5
1B9
330
1F
100
AcDbEntity
  8
0
  6
Continuous
 62
     7
370
    25
100
AcDbLine
 10
84.7565295579
 20
127.7914156134
 30
0.0
 11
84.5065295579
 21
127.2178479832
 31
0.0
  0
LINE
  5
1BA
330
1F
100
AcDbEntity
  8
0
  6
Continuous
 62
     7
370
    25
100
AcDbLine
 10
84.7565295579
 20
127.7914156134
 30
0.0
 11
84.7565295579
 21
123.9859678028
 31
0.0
  0
LINE
  5
1BB
330
1F
100
AcDbEntity
  8
0
  6
Continuous
 62
     7
370
    25
100
AcDbLine
 10
81.9565295579
 20
127.2178479832
 30
0.0
 11
84.5065295579
 21
127.2178479832
 31
0.0
  0
LINE
  5
1BC
330
1F
100
AcDbEntity
  8
0
  6
Continuous
 62
     7
370
    25
100
AcDbLine
 10
84.5065295579
 20
133.7321456202
 30
0.0
 11
84.7565295579
 21
133.15857799
 31
0.0
  0
LINE
  5
1BD
330
1F
100
AcDbEntity
  8
0
  6
Continuous
 62
     7
370
    25
100
AcDbLine
 10
84.5065295579
 20
133.7321456202
 30
0.0
 11
81.9565295579
 21
133.7321456202
 31
0.0
  0
LINE
  5
1BE
330
1F
100
AcDbEntity
  8
0
  6
Continuous
 62
     7
370
    25
100
AcDbLine
 10
84.7565295579
 20
127.7914156134
 30
0.0
 11
84.7565295579
 21
133.15857799
 31
0.0
  0
LINE
  5
1BF
330
1F
100
AcDbEntity
  8
0
  6
Continuous
 62
     7
370
    25
100
AcDbLine
 10
84.5065295579
 20
115.9050888138
 30
0.0
 11
84.7565295579
 21
115.8430784258
 31
0.0
  0
LINE
  5
1C0
330
1F
100
AcDbEntity
  8
0
  6
Continuous
 62
     7
370
    25
100
AcDbLine
 10
84.5065295579
 20
115.9050888138
 30
0.0
 11
84.5065295579
 21
117.4029648472
 31
0.0
  0
LINE
  5
1C1
330
1F
100
AcDbEntity
  8
0
  6
Continuous
 62
     7
370
    25
100
AcDbLine
 10
84.7565295579
 20
118.0385428655
 30
0.0
 11
84.7565295579
 21
115.8430784258
 31
0.0
  0
LINE
  5
1C2
330
1F
100
AcDbEntity
  8
0
  6
Continuous
 62
     7
370
    25
100
AcDbLine
 10
84.5065295579
 20
115.9050888138
 30
0.0
 11
81.9565295579
 21
115.9050888138
 31
0.0
  0
LINE
  5
1C3
330
1F
100
AcDbEntity
  8
0
  6
Continuous
 62
     7
370
    25
100
AcDbLine
 10
84.5065295579
 20
133.7321456202
 30
0.0
 11
84.5065295579
 21
134.830571749
 31
0.0
  0
LINE
  5
1C4
330
1F
100
AcDbEntity
  8
0
  6
Continuous
 62
     7
370
    25
100
AcDbLine
 10
84.7565295579
 20
134.7685613609
 30
0.0
 11
84.5065295579
 21
134.830571749
 31
0.0
  0
LINE
  5
1C5
330
1F
100
AcDbEntity
  8
0
  6
Continuous
 62
     7
370
    25
100
AcDbLine
 10
84.7565295579
 20
134.7685613609
 30
0.0
 11
84.7565295579
 21
133.15857799
 31
0.0
  0
LINE
  5
1C6
330
1F
100
AcDbEntity
  8
0
  6
Continuous
 62
     7
370
    25
100
AcDbLine
 10
81.9565295579
 20
134.830571749
 30
0.0
 11
84.5065295579
 21
134.830571749
 31
0.0
  0
LINE
  5
1C7
330
1F
100
AcDbEntity
  8
0
  6
Continuous
 62
     7
370
    25
100
AcDbLine
 10
84.7565295579
 20
115.2628158651
 30
0.0
 11
84.5065295579
 21
115.200805477
 31
0.0
  0
LINE
  5
1C8
330
1F
100
AcDbEntity
  8
0
  6
Continuous
 62
     7
370
    25
100
AcDbLine
 10
81.9565295579
 20
115.200805477
 30
0.0
 11
84.5065295579
 21
115.200805477
 31
0.0
  0
LINE
  5
1C9
330
1F
100
AcDbEntity
  8
0
  6
Continuous
 62
     7
370
    25
100
AcDbLine
 10
84.7565295579
 20
115.2628158651
 30
0.0
 11
84.7565295579
 21
115.8430784258
 31
0.0
  0
LINE
  5
1CA
330
1F
100
AcDbEntity
  8
0
  6
Continuous
 62
     7
370
    25
100
AcDbLine
 10
214.3065295579
 20
127.2178479832
 30
0.0
 11
214.3065295579
 21
124.6215458211
 31
0.0
  0
SPLINE
  5
1CB
330
1F
100
AcDbEntity
  8
0
  6
Continuous
 62
     7
370
    25
100
AcDbSpline
210
0.0
220
0.0
230
1.0
 70
     8
 71
     3
 72
    13
 73
     9
 74
     0
 42
0.00000001
 43
0.00000001
 40
0.0
 40
0.0
 40
0.0
 40
0.0
 40
0.0295448902054266
 40
0.2606471239688193
 40
0.491315255205473
 40
0.7308682638478775
 40
0.9709134921287355
 40
1.0
 40
1.0
 40
1.0
 40
1.0
 10
214.3065295578734
 20
127.2178479831769
 30
0.0
 10
214.3344543756893
 20
127.279393290284
 30
0.0
 10
214.5808091057443
 20
127.8223503694851
 30
0.0
 10
214.9428977896417
 20
128.8777965352424
 30
0.0
 10
215.1546453598359
 20
130.436131755326
 30
0.0
 10
214.9598047249837
 20
132.016942351755
 30
0.0
 10
214.5884595687623
 20
133.1109456307084
 30
0.0
 10
214.3340274043171
 20
133.6715573137009
 30
0.0
 10
214.3065295578734
 20
133.7321456202426
 30
0.0
  0
LINE
  5
1CC
330
1F
100
AcDbEntity
  8
0
  6
Continuous
 62
     7
370
    25
100
AcDbLine
 10
214.3065295579
 20
134.830571749
 30
0.0
 11
214.3065295579
 21
133.7321456202
 31
0.0
  0
SPLINE
  5
1CD
330
1F
100
AcDbEntity
  8
0
  6
Continuous
 62
     7
370
    25
100
AcDbSpline
210
0.0
220
0.0
230
1.0
 70
     8
 71
     3
 72
     9
 73
     5
 74
     0
 42
0.00000001
 43
0.00000001
 40
0.0
 40
0.0
 40
0.0
 40
0.0
 40
0.6141669735876237
 40
0.9999999999999999
 40
0.9999999999999999
 40
0.9999999999999999
 40
0.9999999999999999
 10
214.3065295578734
 20
134.8305717489997
 30
0.0
 10
214.5290809582935
 20
134.7751775167187
 30
0.0
 10
214.8914439800627
 20
134.6849834251063
 30
0.0
 10
214.9706844335468
 20
134.5897779384798
 30
0.0
 10
215.0012580175288
 20
134.5530445174437
 30
0.0
  0
SPLINE
  5
1CE
330
1F
100
AcDbEntity
  8
0
  6
Continuous
 62
     7
370
    25
100
AcDbSpline
210
0.0
220
0.0
230
1.0
 70
     8
 71
     3
 72
    11
 73
     7
 74
     0
 42
0.00000001
 43
0.00000001
 40
0.0
 40
0.0
 40
0.0
 40
0.0
 40
0.243164119738092
 40
0.4936284730588932
 40
0.742170607686328
 40
1.0
 40
1.0
 40
1.0
 40
1.0
 10
214.3065295578734
 20
115.2008054769764
 30
0.0
 10
214.5166698810822
 20
115.2563275942525
 30
0.0
 10
214.9432593260438
 20
115.3690387047631
 30
0.0
 10
215.1536437561868
 20
115.547834960897
 30
0.0
 10
214.9629570625198
 20
115.7304036325098
 30
0.0
 10
214.5279978921251
 20
115.8461527761895
 30
0.0
 10
214.3065295578734
 20
115.9050888138376
 30
0.0
  0
LINE
  5
1CF
330
1F
100
AcDbEntity
  8
0
  6
Continuous
 62
     7
370
    25
100
AcDbLine
 10
214.3065295579
 20
117.4029648472
 30
0.0
 11
214.3065295579
 21
115.9050888138
 31
0.0
  0
SPLINE
  5
1D0
330
1F
100
AcDbEntity
  8
0
  6
Continuous
 62
     7
370
    25
100
AcDbSpline
210
0.0
220
0.0
230
1.0
 70
     8
 71
     3
 72
    11
 73
     7
 74
     0
 42
0.00000001
 43
0.00000001
 40
0.0
 40
0.0
 40
0.0
 40
0.0
 40
0.2431641197380919
 40
0.4936284730588941
 40
0.7421706076863291
 40
1.0
 40
1.0
 40
1.0
 40
1.0
 10
214.3065295578734
 20
117.4029648471652
 30
0.0
 10
214.5166698810822
 20
117.9720410675225
 30
0.0
 10
214.9432593260438
 20
119.1272782218019
 30
0.0
 10
215.1536437561868
 20
120.9598577891244
 30
0.0
 10
214.9629570625198
 20
122.8311028837656
 30
0.0
 10
214.5279978921251
 20
124.017478483731
 30
0.0
 10
214.3065295578734
 20
124.6215458210922
 30
0.0
  0
LINE
  5
1D1
330
1F
100
AcDbEntity
  8
0
  6
Continuous
 62
     7
370
    25
100
AcDbLine
 10
216.3065295579
 20
129.7566667769
 30
0.0
 11
216.3065295579
 21
116.765688613
 31
0.0
  0
LINE
  5
1D2
330
1F
100
AcDbEntity
  8
0
  6
Continuous
 62
     7
370
    25
100
AcDbLine
 10
216.3065295579
 20
133.265688613
 30
0.0
 11
216.3065295579
 21
129.7566667769
 31
0.0
  0
LWPOLYLINE
  5
1D3
330
1F
100
AcDbEntity
  8
0
  6
Continuous
 62
     7
370
    25
100
AcDbPolyline
 90
       69
 70
   128
 43
0.0
 10
209.1927549943
 20
134.3890365074
 10
207.7853430161
 20
134.399997108
 10
207.797913435
 20
134.3544044722
 10
207.8069418909
 20
134.3020735544
 10
207.8549202076
 20
133.768660026
 10
207.8841704214
 20
133.2565045397
 10
207.9177881443
 20
132.5089965423
 10
207.9720877162
 20
130.9366283984
 10
207.9903681076
 20
130.2988846127
 10
208.0102286092
 20
129.5735129146
 10
208.0686701207
 20
127.3258172199
 10
208.102332722
 20
125.9707754887
 10
208.1275332385
 20
124.9288907796
 10
208.1316858317
 20
124.7537716837
 10
208.1367700348
 20
124.534580857
 10
208.1463239783
 20
124.1233347845
 10
208.1603476621
 20
123.5229395555
 10
208.1767056621
 20
122.8305887247
 10
208.1925345525
 20
122.1863930919
 10
208.217403836
 20
121.2211354652
 10
208.2513135127
 20
119.9906547025
 10
208.2854215936
 20
118.8672190801
 10
208.3377380848
 20
117.3817894561
 10
208.3547048283
 20
116.97633432
 10
208.3683965393
 20
116.6824878033
 10
208.3822253804
 20
116.4303681689
 10
208.4192362989
 20
115.9262383401
 10
208.4535870737
 20
115.6708040959
 10
208.4627834278
 20
115.6375658342
 10
208.4818768535
 20
115.6169280456
 10
208.4990181132
 20
115.6567604791
 10
208.526293077
 20
115.8408485402
 10
208.550586736
 20
116.1227622751
 10
208.5717984232
 20
116.4468464895
 10
208.6027702842
 20
117.0446623747
 10
208.6345968936
 20
117.8091772804
 10
208.6563884654
 20
118.4214066114
 10
208.6804664401
 20
119.191855167
 10
208.7074660611
 20
120.1545983082
 10
208.7243683449
 20
120.7832129377
 10
208.743343136
 20
121.5037147279
 10
208.7536585677
 20
121.9002984816
 10
208.772607203
 20
122.6413967226
 10
208.7992268249
 20
123.7076987255
 10
208.8191066289
 20
124.5214326143
 10
208.8432953547
 20
125.5320357164
 10
208.8687897202
 20
126.6177584827
 10
208.8910693406
 20
127.568947719
 10
208.9151937197
 20
128.5254503358
 10
208.9542421455
 20
129.9550199336
 10
208.9890122504
 20
131.1103263783
 10
209.0144940346
 20
131.8743242413
 10
209.0306874981
 20
132.3221994307
 10
209.045817994
 20
132.7148055439
 10
209.0627145502
 20
133.1098018814
 10
209.0783319335
 20
133.4317916983
 10
209.0996817109
 20
133.7891913821
 10
209.1369747154
 20
134.2192091198
 10
209.1964474548
 20
134.4002784898
 10
209.234387071
 20
134.1654651674
 10
209.2868642781
 20
133.4180585348
 10
209.3214024494
 20
132.6911514653
 10
209.3528306056
 20
131.8732443432
 10
209.3787425258
 20
131.0839447289
 10
209.3988446008
 20
130.3941170799
 10
209.4381983442
 20
128.9484408434
 10
209.4687417672
 20
127.7675178172
 10
209.5065295579
 20
126.2528741875
 10
209.5065295579
 20
126.2528741875
  0
LINE
  5
1D4
330
1F
100
AcDbEntity
  8
0
  6
Continuous
 62
     7
370
    25
100
AcDbLine
 10
209.5065295579
 20
115.6974607008
 30
0.0
 11
209.5065295579
 21
126.2528741872
 31
0.0
  0
SPLINE
  5
1D5
330
1F
100
AcDbEntity
  8
0
  6
Continuous
 62
     7
370
    25
100
AcDbSpline
210
0.0
220
0.0
230
1.0
 70
     8
 71
     3
 72
    34
 73
    30
 74
     0
 42
0.00000001
 43
0.00000001
 40
0.0
 40
0.0
 40
0.0
 40
0.0
 40
0.0107203951961484
 40
0.0520621697759947
 40
0.0928367874081195
 40
0.1325810366880715
 40
0.1677541617798289
 40
0.2086915438314886
 40
0.2384934651934101
 40
0.2673349663247638
 40
0.318832825637651
 40
0.3705684485253378
 40
0.4034855483800231
 40
0.4497965787901717
 40
0.4930749937141919
 40
0.5200718191566128
 40
0.5290161799575818
 40
0.5550558451171256
 40
0.581095680562831
 40
0.6071356883937956
 40
0.6850971664419627
 40
0.7212104574388013
 40
0.7533762602206925
 40
0.7815934401165542
 40
0.8424689042448504
 40
0.8663160849528521
 40
0.9005262882265266
 40
0.9450912036484979
 40
1.0
 40
1.0
 40
1.0
 40
1.0
 10
208.8309021355819
 20
134.4060645744637
 30
0.0
 10
208.8333199698903
 20
134.4086190262873
 30
0.0
 10
208.8450618598067
 20
134.4210243809494
 30
0.0
 10
208.8652340860826
 20
134.3199564768831
 30
0.0
 10
208.8916956220617
 20
134.0773967974542
 30
0.0
 10
208.9178169447159
 20
133.7121771830772
 30
0.0
 10
208.9444498719683
 20
133.2350840833895
 30
0.0
 10
208.9688090778933
 20
132.6980295386791
 30
0.0
 10
208.9916501501245
 20
132.1125462885827
 30
0.0
 10
209.0170305914168
 20
131.3960499225197
 30
0.0
 10
209.0455999897182
 20
130.4313413452697
 30
0.0
 10
209.0752619270996
 20
129.3219255058988
 30
0.0
 10
209.1051591234656
 20
128.1867195273894
 30
0.0
 10
209.1334336928627
 20
127.0757688985448
 30
0.0
 10
209.1603325883632
 20
125.9867671106813
 30
0.0
 10
209.1785597003529
 20
125.240275878112
 30
0.0
 10
209.1923598134478
 20
124.6562236116769
 30
0.0
 10
209.2052783007474
 20
124.0815933427584
 30
0.0
 10
209.2224264397113
 20
123.3517318465814
 30
0.0
 10
209.2511147631504
 20
122.1544066387072
 30
0.0
 10
209.2831013145434
 20
120.9111145285764
 30
0.0
 10
209.3168148532447
 20
119.731614047399
 30
0.0
 10
209.338865083688
 20
119.0054247356746
 30
0.0
 10
209.3664378217009
 20
118.1600959200084
 30
0.0
 10
209.3914710782159
 20
117.4717885098439
 30
0.0
 10
209.4173443835944
 20
116.8661715291333
 30
0.0
 10
209.4405596821701
 20
116.4181994343245
 30
0.0
 10
209.4709953174117
 20
115.9571319381209
 30
0.0
 10
209.4938911936136
 20
115.7898172460081
 30
0.0
 10
209.5065295578734
 20
115.6974607008261
 30
0.0
  0
SPLINE
  5
1D6
330
1F
100
AcDbEntity
  8
0
  6
Continuous
 62
     7
370
    25
100
AcDbSpline
210
0.0
220
0.0
230
1.0
 70
     8
 71
     3
 72
     9
 73
     5
 74
     0
 42
0.00000001
 43
0.00000001
 40
0.0
 40
0.0
 40
0.0
 40
0.0
 40
0.97638139255599
 40
1.0
 40
1.0
 40
1.0
 40
1.0
 10
208.8565295578734
 20
116.7551011143499
 30
0.0
 10
208.8774697283718
 20
116.5129605417643
 30
0.0
 10
208.8989164403412
 20
116.2649626032212
 30
0.0
 10
208.9189617942297
 20
116.3850647196115
 30
0.0
 10
208.9194352375742
 20
116.3879013643517
 30
0.0
  0
SPLINE
  5
1D7
330
1F
100
AcDbEntity
  8
0
  6
Continuous
 62
     7
370
    25
100
AcDbSpline
210
0.0
220
0.0
230
1.0
 70
     8
 71
     3
 72
    13
 73
     9
 74
     0
 42
0.00000001
 43
0.00000001
 40
0.0
 40
0.0
 40
0.0
 40
0.0
 40
0.1633117204154818
 40
0.3537060974034394
 40
0.5422096495896767
 40
0.7300371885093454
 40
0.9206669352019227
 40
1.0
 40
1.0
 40
1.0
 40
1.0
 10
209.6343579811332
 20
133.5992444532841
 30
0.0
 10
209.6538858129389
 20
133.5217753358711
 30
0.0
 10
209.6961798574884
 20
133.353990077595
 30
0.0
 10
209.7661267710529
 20
132.0998345935393
 30
0.0
 10
209.8359801400634
 20
130.1767018439831
 30
0.0
 10
209.9045482109401
 20
127.7338585308718
 30
0.0
 10
209.9643243544962
 20
125.5421551198843
 30
0.0
 10
209.9969437930201
 20
124.2623211891738
 30
0.0
 10
210.0065295578734
 20
123.8862206900155
 30
0.0
  0
SPLINE
  5
1D8
330
1F
100
AcDbEntity
  8
0
  6
Continuous
 62
     7
370
    25
100
AcDbSpline
210
0.0
220
0.0
230
1.0
 70
    24
 71
     3
 72
    10
 73
     6
 74
     0
 42
0.00000001
 43
0.00000001
 40
0.0
 40
0.0
 40
0.0
 40
0.0
 40
0.3187287177375316
 40
0.8180873955881237
 40
1.0
 40
1.0
 40
1.0
 40
1.0
 10
210.0065295578734
 20
123.8862206900155
 30
0.0
 10
210.0065295578734
 20
123.2639169500835
 30
0.0
 10
210.0065295578734
 20
121.6666374533394
 30
0.0
 10
210.0065295578734
 20
119.859986786458
 30
0.0
 10
210.0065295578734
 20
118.855006477669
 30
0.0
 10
210.0065295578734
 20
118.5866573044185
 30
0.0
  0
SPLINE
  5
1D9
330
1F
100
AcDbEntity
  8
0
  6
Continuous
 62
     7
370
    25
100
AcDbSpline
210
0.0
220
0.0
230
1.0
 70
     8
 71
     3
 72
    13
 73
     9
 74
     0
 42
0.00000001
 43
0.00000001
 40
0.0
 40
0.0
 40
0.0
 40
0.0
 40
0.2187316754180425
 40
0.393147377746412
 40
0.5714254113794046
 40
0.7494200729435005
 40
0.8738925945231121
 40
1.0
 40
1.0
 40
1.0
 40
1.0
 10
210.0065295578734
 20
118.5866573044185
 30
0.0
 10
209.9688017509669
 20
119.0219008568417
 30
0.0
 10
209.9009899522181
 20
119.8042057561627
 30
0.0
 10
209.8021765236053
 20
121.1984336906165
 30
0.0
 10
209.7131649873541
 20
122.599528491521
 30
0.0
 10
209.6384520604169
 20
123.947136857108
 30
0.0
 10
209.5687839815114
 20
125.1726902668243
 30
0.0
 10
209.5273710971835
 20
125.8912501561785
 30
0.0
 10
209.50652955789
 20
126.2528741872438
 30
0.0
  0
LINE
  5
1DA
330
1F
100
AcDbEntity
  8
0
  6
Continuous
 62
     7
370
    25
100
AcDbLine
 10
209.5065295579
 20
115.6974607008
 30
0.0
 11
209.5254604766
 21
115.6772767159
 31
0.0
  0
SPLINE
  5
1DB
330
1F
100
AcDbEntity
  8
0
  6
Continuous
 62
     7
370
    25
100
AcDbSpline
210
0.0
220
0.0
230
1.0
 70
     8
 71
     3
 72
     9
 73
     5
 74
     0
 42
0.00000001
 43
0.00000001
 40
0.0
 40
0.0
 40
0.0
 40
0.0
 40
0.2575807037701688
 40
1.0
 40
1.0
 40
1.0
 40
1.0
 10
209.9727902968893
 20
133.9182062881383
 30
0.0
 10
209.9757839509965
 20
133.9240319593261
 30
0.0
 10
209.9874061496448
 20
133.946648836687
 30
0.0
 10
209.9983813542181
 20
133.7788116555914
 30
0.0
 10
210.0065295578734
 20
133.6542060937213
 30
0.0
  0
SPLINE
  5
1DC
330
1F
100
AcDbEntity
  8
0
  6
Continuous
 62
     7
370
    25
100
AcDbSpline
210
0.0
220
0.0
230
1.0
 70
    24
 71
     3
 72
    10
 73
     6
 74
     0
 42
0.00000001
 43
0.00000001
 40
0.0
 40
0.0
 40
0.0
 40
0.0
 40
0.3294562546722022
 40
0.8318642056942919
 40
1.0
 40
1.0
 40
1.0
 40
1.0
 10
210.0065295578734
 20
133.6542060937213
 30
0.0
 10
210.0065295578734
 20
133.4304456440352
 30
0.0
 10
210.0065295578734
 20
132.8654592274651
 30
0.0
 10
210.0065295578734
 20
131.5853077021071
 30
0.0
 10
210.0065295578734
 20
130.5347353361946
 30
0.0
 10
210.0065295578734
 20
130.2713090937621
 30
0.0
  0
SPLINE
  5
1DD
330
1F
100
AcDbEntity
  8
0
  6
Continuous
 62
     7
370
    25
100
AcDbSpline
210
0.0
220
0.0
230
1.0
 70
     8
 71
     3
 72
    11
 73
     7
 74
     0
 42
0.00000001
 43
0.00000001
 40
0.0
 40
0.0
 40
0.0
 40
0.0
 40
0.1123950113901282
 40
0.4199943621869227
 40
0.7261447176194212
 40
1.0
 40
1.0
 40
1.0
 40
1.0
 10
208.8565295578734
 20
120.8405996850265
 30
0.0
 10
208.8652503632158
 20
120.5413243539006
 30
0.0
 10
208.8978380112991
 20
119.4230011270966
 30
0.0
 10
208.9529071306895
 20
117.9710720808157
 30
0.0
 10
209.0188870283703
 20
116.6814829732062
 30
0.0
 10
209.0643120606922
 20
116.5122754917378
 30
0.0
 10
209.0857599298897
 20
116.4323825396742
 30
0.0
  0
SPLINE
  5
1DE
330
1F
100
AcDbEntity
  8
0
  6
Continuous
 62
     7
370
    25
100
AcDbSpline
210
0.0
220
0.0
230
1.0
 70
     8
 71
     3
 72
    11
 73
     7
 74
     0
 42
0.00000001
 43
0.00000001
 40
0.0
 40
0.0
 40
0.0
 40
0.0
 40
0.0058314992650543
 40
0.3431453499632174
 40
0.6876241808559869
 40
1.0
 40
1.0
 40
1.0
 40
1.0
 10
209.8011273002887
 20
133.644783040618
 30
0.0
 10
209.8015356331434
 20
133.6471527222606
 30
0.0
 10
209.8255633340798
 20
133.7865928901482
 30
0.0
 10
209.869021924506
 20
133.2868957362544
 30
0.0
 10
209.9406251474309
 20
132.1837149677792
 30
0.0
 10
209.9852890533166
 20
130.8876633773174
 30
0.0
 10
210.0065295578734
 20
130.2713090937621
 30
0.0
  0
LINE
  5
1DF
330
1F
100
AcDbEntity
  8
0
  6
Continuous
 62
     7
370
    25
100
AcDbLine
 10
211.7565295579
 20
117.4029648472
 30
0.0
 11
211.5065295579
 21
118.0385428655
 31
0.0
  0
LINE
  5
1E0
330
1F
100
AcDbEntity
  8
0
  6
Continuous
 62
     7
370
    25
100
AcDbLine
 10
211.5065295579
 20
123.9859678028
 30
0.0
 11
211.7565295579
 21
124.6215458211
 31
0.0
  0
LINE
  5
1E1
330
1F
100
AcDbEntity
  8
0
  6
Continuous
 62
     7
370
    25
100
AcDbLine
 10
214.3065295579
 20
124.6215458211
 30
0.0
 11
211.7565295579
 21
124.6215458211
 31
0.0
  0
LINE
  5
1E2
330
1F
100
AcDbEntity
  8
0
  6
Continuous
 62
     7
370
    25
100
AcDbLine
 10
211.7565295579
 20
117.4029648472
 30
0.0
 11
214.3065295579
 21
117.4029648472
 31
0.0
  0
LINE
  5
1E3
330
1F
100
AcDbEntity
  8
0
  6
Continuous
 62
     7
370
    25
100
AcDbLine
 10
211.5065295579
 20
123.9859678028
 30
0.0
 11
211.5065295579
 21
118.0385428655
 31
0.0
  0
LINE
  5
1E4
330
1F
100
AcDbEntity
  8
0
  6
Continuous
 62
     7
370
    25
100
AcDbLine
 10
210.0065295579
 20
118.5866573044
 30
0.0
 11
210.0065295579
 21
116.115688613
 31
0.0
  0
SPLINE
  5
1E5
330
1F
100
AcDbEntity
  8
0
  6
Continuous
 62
     7
370
    25
100
AcDbSpline
210
0.0
220
0.0
230
1.0
 70
    24
 71
     3
 72
    11
 73
     7
 74
     0
 42
0.00000001
 43
0.00000001
 40
0.0
 40
0.0
 40
0.0
 40
0.0
 40
0.0521773337626343
 40
0.2615477432295206
 40
0.6847281688108012
 40
1.0
 40
1.0
 40
1.0
 40
1.0
 10
210.0065295578734
 20
130.2713090937621
 30
0.0
 10
210.0065295578734
 20
130.177048383216
 30
0.0
 10
210.0065295578735
 20
129.7045505696886
 30
0.0
 10
210.0065295578734
 20
128.3664191142904
 30
0.0
 10
210.0065295578734
 20
126.2685707667698
 30
0.0
 10
210.0065295578734
 20
124.5990143708417
 30
0.0
 10
210.0065295578734
 20
123.8862206900155
 30
0.0
  0
LINE
  5
1E6
330
1F
100
AcDbEntity
  8
0
  6
Continuous
 62
     7
370
    25
100
AcDbLine
 10
211.7565295579
 20
127.2178479832
 30
0.0
 11
211.5065295579
 21
127.7914156134
 31
0.0
  0
LINE
  5
1E7
330
1F
100
AcDbEntity
  8
0
  6
Continuous
 62
     7
370
    25
100
AcDbLine
 10
211.7565295579
 20
127.2178479832
 30
0.0
 11
211.7565295579
 21
124.6215458211
 31
0.0
  0
LINE
  5
1E8
330
1F
100
AcDbEntity
  8
0
  6
Continuous
 62
     7
370
    25
100
AcDbLine
 10
211.5065295579
 20
123.9859678028
 30
0.0
 11
211.5065295579
 21
127.7914156134
 31
0.0
  0
LINE
  5
1E9
330
1F
100
AcDbEntity
  8
0
  6
Continuous
 62
     7
370
    25
100
AcDbLine
 10
211.7565295579
 20
127.2178479832
 30
0.0
 11
214.3065295579
 21
127.2178479832
 31
0.0
  0
LINE
  5
1EA
330
1F
100
AcDbEntity
  8
0
  6
Continuous
 62
     7
370
    25
100
AcDbLine
 10
211.5065295579
 20
133.15857799
 30
0.0
 11
211.7565295579
 21
133.7321456202
 31
0.0
  0
LINE
  5
1EB
330
1F
100
AcDbEntity
  8
0
  6
Continuous
 62
     7
370
    25
100
AcDbLine
 10
214.3065295579
 20
133.7321456202
 30
0.0
 11
211.7565295579
 21
133.7321456202
 31
0.0
  0
LINE
  5
1EC
330
1F
100
AcDbEntity
  8
0
  6
Continuous
 62
     7
370
    25
100
AcDbLine
 10
211.5065295579
 20
133.15857799
 30
0.0
 11
211.5065295579
 21
127.7914156134
 31
0.0
  0
LINE
  5
1ED
330
1F
100
AcDbEntity
  8
0
  6
Continuous
 62
     7
370
    25
100
AcDbLine
 10
211.5065295579
 20
115.8430784258
 30
0.0
 11
211.7565295579
 21
115.9050888138
 31
0.0
  0
LINE
  5
1EE
330
1F
100
AcDbEntity
  8
0
  6
Continuous
 62
     7
370
    25
100
AcDbLine
 10
211.7565295579
 20
117.4029648472
 30
0.0
 11
211.7565295579
 21
115.9050888138
 31
0.0
  0
LINE
  5
1EF
330
1F
100
AcDbEntity
  8
0
  6
Continuous
 62
     7
370
    25
100
AcDbLine
 10
211.5065295579
 20
115.8430784258
 30
0.0
 11
211.5065295579
 21
118.0385428655
 31
0.0
  0
LINE
  5
1F0
330
1F
100
AcDbEntity
  8
0
  6
Continuous
 62
     7
370
    25
100
AcDbLine
 10
214.3065295579
 20
115.9050888138
 30
0.0
 11
211.7565295579
 21
115.9050888138
 31
0.0
  0
LINE
  5
1F1
330
1F
100
AcDbEntity
  8
0
  6
Continuous
 62
     7
370
    25
100
AcDbLine
 10
211.7565295579
 20
134.830571749
 30
0.0
 11
211.5065295579
 21
134.7685613609
 31
0.0
  0
LINE
  5
1F2
330
1F
100
AcDbEntity
  8
0
  6
Continuous
 62
     7
370
    25
100
AcDbLine
 10
211.7565295579
 20
134.830571749
 30
0.0
 11
211.7565295579
 21
133.7321456202
 31
0.0
  0
LINE
  5
1F3
330
1F
100
AcDbEntity
  8
0
  6
Continuous
 62
     7
370
    25
100
AcDbLine
 10
211.5065295579
 20
133.15857799
 30
0.0
 11
211.5065295579
 21
134.7685613609
 31
0.0
  0
LINE
  5
1F4
330
1F
100
AcDbEntity
  8
0
  6
Continuous
 62
     7
370
    25
100
AcDbLine
 10
211.7565295579
 20
134.830571749
 30
0.0
 11
214.3065295579
 21
134.830571749
 31
0.0
  0
LINE
  5
1F5
330
1F
100
AcDbEntity
  8
0
  6
Continuous
 62
     7
370
    25
100
AcDbLine
 10
211.7565295579
 20
115.200805477
 30
0.0
 11
211.5065295579
 21
115.2628158651
 31
0.0
  0
LINE
  5
1F6
330
1F
100
AcDbEntity
  8
0
  6
Continuous
 62
     7
370
    25
100
AcDbLine
 10
211.7565295579
 20
115.200805477
 30
0.0
 11
214.3065295579
 21
115.200805477
 31
0.0
  0
LINE
  5
1F7
330
1F
100
AcDbEntity
  8
0
  6
Continuous
 62
     7
370
    25
100
AcDbLine
 10
211.5065295579
 20
115.8430784258
 30
0.0
 11
211.5065295579
 21
115.2628158651
 31
0.0
  0
SPLINE
  5
1F8
330
1F
100
AcDbEntity
  8
0
  6
Continuous
 62
     7
370
    25
100
AcDbSpline
210
0.0
220
0.0
230
1.0
 70
     8
 71
     3
 72
     9
 73
     5
 74
     0
 42
0.00000001
 43
0.00000001
 40
0.0
 40
0.0
 40
0.0
 40
0.0
 40
0.5841917497409228
 40
1.0
 40
1.0
 40
1.0
 40
1.0
 10
103.1065295578734
 20
140.7474244939871
 30
0.0
 10
103.132697521694
 20
140.493582525311
 30
0.0
 10
103.1774909715027
 20
140.0590642891519
 30
0.0
 10
103.4201053890167
 20
139.4358775812068
 30
0.0
 10
103.5209864654508
 20
139.1767514065914
 30
0.0
  0
LINE
  5
1F9
330
1F
100
AcDbEntity
  8
0
  6
Continuous
 62
     7
370
    25
100
AcDbLine
 10
103.1065295579
 20
140.747424494
 30
0.0
 11
103.1065295579
 21
141.3600145773
 31
0.0
  0
SPLINE
  5
1FA
330
1F
100
AcDbEntity
  8
0
  6
Continuous
 62
     7
370
    25
100
AcDbSpline
210
0.0
220
0.0
230
1.0
 70
     8
 71
     3
 72
     9
 73
     5
 74
     0
 42
0.00000001
 43
0.00000001
 40
0.0
 40
0.0
 40
0.0
 40
0.0
 40
0.5850553834536181
 40
1.0
 40
1.0
 40
1.0
 40
1.0
 10
103.5209864654508
 20
141.7233635905221
 30
0.0
 10
103.3844323314264
 20
141.7329009214018
 30
0.0
 10
103.1510285582345
 20
141.7492025077974
 30
0.0
 10
103.1195792705092
 20
141.4741472682004
 30
0.0
 10
103.1065295578734
 20
141.3600145772768
 30
0.0
  0
SPLINE
  5
1FB
330
1F
100
AcDbEntity
  8
0
  6
Continuous
 62
     7
370
    25
100
AcDbSpline
210
0.0
220
0.0
230
1.0
 70
     8
 71
     3
 72
     9
 73
     5
 74
     0
 42
0.00000001
 43
0.00000001
 40
0.0
 40
0.0
 40
0.0
 40
0.0
 40
0.2910559175694166
 40
1.0
 40
1.0
 40
1.0
 40
1.0
 10
104.4204129132211
 20
141.3297183708386
 30
0.0
 10
104.3991239712225
 20
141.3688653351167
 30
0.0
 10
104.325980150006
 20
141.5033651405322
 30
0.0
 10
103.8549327396014
 20
141.6320986972657
 30
0.0
 10
103.5209864654508
 20
141.7233635905221
 30
0.0
  0
LINE
  5
1FC
330
1F
100
AcDbEntity
  8
0
  6
Continuous
 62
     7
370
    25
100
AcDbLine
 10
103.5209864655
 20
108.3080136355
 30
0.0
 11
103.4131761933
 21
108.3305284338
 31
0.0
  0
SPLINE
  5
1FD
330
1F
100
AcDbEntity
  8
0
  6
Continuous
 62
     7
370
    25
100
AcDbSpline
210
0.0
220
0.0
230
1.0
 70
     8
 71
     3
 72
    11
 73
     7
 74
     0
 42
0.00000001
 43
0.00000001
 40
0.0
 40
0.0
 40
0.0
 40
0.0
 40
0.2328716322111456
 40
0.4710265024313186
 40
0.7311421212560271
 40
1.0
 40
1.0
 40
1.0
 40
1.0
 10
103.5209864654508
 20
109.3508269909028
 30
0.0
 10
103.7913832001235
 20
109.2717395363853
 30
0.0
 10
104.3383112522543
 20
109.1117703433418
 30
0.0
 10
104.639535570238
 20
108.8527330115543
 30
0.0
 10
104.4318838048283
 20
108.5795898239108
 30
0.0
 10
103.827945973048
 20
108.3995309662004
 30
0.0
 10
103.5209864654508
 20
108.3080136354539
 30
0.0
  0
SPLINE
  5
1FE
330
1F
100
AcDbEntity
  8
0
  6
Continuous
 62
     7
370
    25
100
AcDbSpline
210
0.0
220
0.0
230
1.0
 70
     8
 71
     3
 72
     9
 73
     5
 74
     0
 42
0.00000001
 43
0.00000001
 40
0.0
 40
0.0
 40
0.0
 40
0.0
 40
0.5841917497409185
 40
1.0
 40
1.0
 40
1.0
 40
1.0
 10
103.1065295578734
 20
110.1247324433012
 30
0.0
 10
103.132697521694
 20
109.8950841670875
 30
0.0
 10
103.1774909715027
 20
109.5019798887137
 30
0.0
 10
103.4201053890167
 20
109.3952190347752
 30
0.0
 10
103.5209864654508
 20
109.3508269909028
 30
0.0
  0
LINE
  5
1FF
330
1F
100
AcDbEntity
  8
0
  6
Continuous
 62
     7
370
    25
100
AcDbLine
 10
103.1065295579
 20
110.1247324433
 30
0.0
 11
103.1065295579
 21
110.9600949497
 31
0.0
  0
SPLINE
  5
200
330
1F
100
AcDbEntity
  8
0
  6
Continuous
 62
     7
370
    25
100
AcDbSpline
210
0.0
220
0.0
230
1.0
 70
     8
 71
     3
 72
     9
 73
     5
 74
     0
 42
0.00000001
 43
0.00000001
 40
0.0
 40
0.0
 40
0.0
 40
0.0
 40
0.5850553834536176
 40
1.0
 40
1.0
 40
1.0
 40
1.0
 10
103.5209864654508
 20
112.8235314874775
 30
0.0
 10
103.3844323314264
 20
112.4155163731628
 30
0.0
 10
103.1510285582345
 20
111.718120663536
 30
0.0
 10
103.1195792705092
 20
111.1823924767431
 30
0.0
 10
103.1065295578734
 20
110.9600949497012
 30
0.0
  0
SPLINE
  5
201
330
1F
100
AcDbEntity
  8
0
  6
Continuous
 62
     7
370
    25
100
AcDbSpline
210
0.0
220
0.0
230
1.0
 70
     8
 71
     3
 72
    11
 73
     7
 74
     0
 42
0.00000001
 43
0.00000001
 40
0.0
 40
0.0
 40
0.0
 40
0.0
 40
0.2556279644380999
 40
0.5185037642963934
 40
0.7560467972580139
 40
1.0
 40
1.0
 40
1.0
 40
1.0
 10
103.5209864654508
 20
123.5118897845061
 30
0.0
 10
103.8146124255527
 20
122.6208134916934
 30
0.0
 10
104.4101895406883
 20
120.8133961650551
 30
0.0
 10
104.642078502315
 20
118.0561338327812
 30
0.0
 10
104.3591080438541
 20
115.3505542635084
 30
0.0
 10
103.8028289102899
 20
113.6733154516578
 30
0.0
 10
103.5209864654508
 20
112.8235314874775
 30
0.0
  0
SPLINE
  5
202
330
1F
100
AcDbEntity
  8
0
  6
Continuous
 62
     7
370
    25
100
AcDbSpline
210
0.0
220
0.0
230
1.0
 70
     8
 71
     3
 72
     9
 73
     5
 74
     0
 42
0.00000001
 43
0.00000001
 40
0.0
 40
0.0
 40
0.0
 40
0.0
 40
0.5841917497409215
 40
1.0
 40
1.0
 40
1.0
 40
1.0
 10
103.1065295578734
 20
125.8564683243003
 30
0.0
 10
103.132697521694
 20
125.3729780794104
 30
0.0
 10
103.1774909715027
 20
124.5453555648776
 30
0.0
 10
103.4201053890167
 20
123.8154080029939
 30
0.0
 10
103.5209864654508
 20
123.5118897845061
 30
0.0
  0
LINE
  5
203
330
1F
100
AcDbEntity
  8
0
  6
Continuous
 62
     7
370
    25
100
AcDbLine
 10
103.1065295579
 20
125.8564683243
 30
0.0
 11
103.1065295579
 21
127.304420914
 31
0.0
  0
SPLINE
  5
204
330
1F
100
AcDbEntity
  8
0
  6
Continuous
 62
     7
370
    25
100
AcDbSpline
210
0.0
220
0.0
230
1.0
 70
     8
 71
     3
 72
     9
 73
     5
 74
     0
 42
0.00000001
 43
0.00000001
 40
0.0
 40
0.0
 40
0.0
 40
0.0
 40
0.5850553834536164
 40
1.0
 40
1.0
 40
1.0
 40
1.0
 10
103.5209864654508
 20
129.5312064650116
 30
0.0
 10
103.3844323314264
 20
129.1327286815766
 30
0.0
 10
103.1510285582345
 20
128.4516345583454
 30
0.0
 10
103.1195792705092
 20
127.6408511319555
 30
0.0
 10
103.1065295578734
 20
127.30442091399
 30
0.0
  0
SPLINE
  5
205
330
1F
100
AcDbEntity
  8
0
  6
Continuous
 62
     7
370
    25
100
AcDbSpline
210
0.0
220
0.0
230
1.0
 70
     8
 71
     3
 72
    11
 73
     7
 74
     0
 42
0.00000001
 43
0.00000001
 40
0.0
 40
0.0
 40
0.0
 40
0.0
 40
0.2328716322111445
 40
0.4710265024313167
 40
0.7311421212560263
 40
1.0
 40
1.0
 40
1.0
 40
1.0
 10
103.5209864654508
 20
139.1767514065914
 30
0.0
 10
103.7913832001235
 20
138.4452287492746
 30
0.0
 10
104.3383112522544
 20
136.9655871310428
 30
0.0
 10
104.6395355702379
 20
134.5696106964797
 30
0.0
 10
104.4318838048283
 20
132.0431615690923
 30
0.0
 10
103.827945973048
 20
130.3776997727887
 30
0.0
 10
103.5209864654508
 20
129.5312064650116
 30
0.0
  0
LINE
  5
206
330
1F
100
AcDbEntity
  8
0
  6
Continuous
 62
     7
370
    25
100
AcDbLine
 10
104.6065295579
 20
141.215688613
 30
0.0
 11
104.6065295579
 21
108.815688613
 31
0.0
  0
SPLINE
  5
207
330
1F
100
AcDbEntity
  8
0
  6
Continuous
 62
     7
370
    25
100
AcDbSpline
210
0.0
220
0.0
230
1.0
 70
     8
 71
     3
 72
     9
 73
     5
 74
     0
 42
0.00000001
 43
0.00000001
 40
0.0
 40
0.0
 40
0.0
 40
0.0
 40
0.5850553834534112
 40
1.0
 40
1.0
 40
1.0
 40
1.0
 10
96.24207265029551
 20
123.5118897845047
 30
0.0
 10
96.37862678431996
 20
123.9466212141162
 30
0.0
 10
96.6120305575122
 20
124.6896815155963
 30
0.0
 10
96.64347984523755
 20
125.514298108401
 30
0.0
 10
96.6565295578734
 20
125.8564683243003
 30
0.0
  0
SPLINE
  5
208
330
1F
100
AcDbEntity
  8
0
  6
Continuous
 62
     7
370
    25
100
AcDbSpline
210
0.0
220
0.0
230
1.0
 70
     8
 71
     3
 72
    11
 73
     7
 74
     0
 42
0.00000001
 43
0.00000001
 40
0.0
 40
0.0
 40
0.0
 40
0.0
 40
0.2379053903768483
 40
0.4814905141303177
 40
0.7366519444348059
 40
1.0
 40
1.0
 40
1.0
 40
1.0
 10
96.24207265029615
 20
112.8235314874772
 30
0.0
 10
95.96648721532311
 20
113.6519232847171
 30
0.0
 10
95.40873704176964
 20
115.3284838356259
 30
0.0
 10
95.12217381711332
 20
118.0061506697331
 30
0.0
 10
95.34705422331128
 20
120.7850372380821
 30
0.0
 10
95.94060934022913
 20
122.5934215497474
 30
0.0
 10
96.24207265029551
 20
123.5118897845047
 30
0.0
  0
SPLINE
  5
209
330
1F
100
AcDbEntity
  8
0
  6
Continuous
 62
     7
370
    25
100
AcDbSpline
210
0.0
220
0.0
230
1.0
 70
     8
 71
     3
 72
     9
 73
     5
 74
     0
 42
0.00000001
 43
0.00000001
 40
0.0
 40
0.0
 40
0.0
 40
0.0
 40
0.5841917497409935
 40
1.0
 40
1.0
 40
1.0
 40
1.0
 10
96.6565295578734
 20
110.9600949497012
 30
0.0
 10
96.63036159405276
 20
111.2825357363133
 30
0.0
 10
96.5855681442441
 20
111.8344791465978
 30
0.0
 10
96.34295372673022
 20
112.5330570371409
 30
0.0
 10
96.24207265029615
 20
112.8235314874772
 30
0.0
  0
LINE
  5
20A
330
1F
100
AcDbEntity
  8
0
  6
Continuous
 62
     7
370
    25
100
AcDbLine
 10
96.6565295579
 20
110.9600949497
 30
0.0
 11
96.6565295579
 21
110.1247324433
 31
0.0
  0
SPLINE
  5
20B
330
1F
100
AcDbEntity
  8
0
  6
Continuous
 62
     7
370
    25
100
AcDbSpline
210
0.0
220
0.0
230
1.0
 70
     8
 71
     3
 72
     9
 73
     5
 74
     0
 42
0.00000001
 43
0.00000001
 40
0.0
 40
0.0
 40
0.0
 40
0.0
 40
0.5850553834536193
 40
1.0
 40
1.0
 40
1.0
 40
1.0
 10
96.24207265029605
 20
109.3508269909028
 30
0.0
 10
96.37862678432037
 20
109.4235125165968
 30
0.0
 10
96.6120305575123
 20
109.5477495166308
 30
0.0
 10
96.64347984523758
 20
109.9555272627865
 30
0.0
 10
96.6565295578734
 20
110.1247324433012
 30
0.0
  0
SPLINE
  5
20C
330
1F
100
AcDbEntity
  8
0
  6
Continuous
 62
     7
370
    25
100
AcDbSpline
210
0.0
220
0.0
230
1.0
 70
     8
 71
     3
 72
    11
 73
     7
 74
     0
 42
0.00000001
 43
0.00000001
 40
0.0
 40
0.0
 40
0.0
 40
0.0
 40
0.2328716322111473
 40
0.4710265024313225
 40
0.7311421212560294
 40
1.0
 40
1.0
 40
1.0
 40
1.0
 10
96.24207265029605
 20
108.3080136354539
 30
0.0
 10
95.97167591562328
 20
108.3871010899714
 30
0.0
 10
95.42474786349244
 20
108.547070283015
 30
0.0
 10
95.1235235455089
 20
108.8061076148025
 30
0.0
 10
95.33117531091852
 20
109.079250802446
 30
0.0
 10
95.9351131426988
 20
109.2593096601564
 30
0.0
 10
96.24207265029605
 20
109.3508269909028
 30
0.0
  0
LINE
  5
20D
330
1F
100
AcDbEntity
  8
0
  6
Continuous
 62
     7
370
    25
100
AcDbLine
 10
96.3628766415
 20
108.3123565623
 30
0.0
 11
96.2420726503
 21
108.3080136355
 31
0.0
  0
SPLINE
  5
20E
330
1F
100
AcDbEntity
  8
0
  6
Continuous
 62
     7
370
    25
100
AcDbSpline
210
0.0
220
0.0
230
1.0
 70
     8
 71
     3
 72
     9
 73
     5
 74
     0
 42
0.00000001
 43
0.00000001
 40
0.0
 40
0.0
 40
0.0
 40
0.0
 40
0.6137694938147381
 40
1.0
 40
1.0
 40
1.0
 40
1.0
 10
96.24207265029605
 20
141.7233635905221
 30
0.0
 10
95.95696101188759
 20
141.6444322347974
 30
0.0
 10
95.49243541835176
 20
141.5158312591542
 30
0.0
 10
95.3740463620684
 20
141.3815028224088
 30
0.0
 10
95.3283208969333
 20
141.3296210822896
 30
0.0
  0
SPLINE
  5
20F
330
1F
100
AcDbEntity
  8
0
  6
Continuous
 62
     7
370
    25
100
AcDbSpline
210
0.0
220
0.0
230
1.0
 70
     8
 71
     3
 72
     9
 73
     5
 74
     0
 42
0.00000001
 43
0.00000001
 40
0.0
 40
0.0
 40
0.0
 40
0.0
 40
0.5841917497409246
 40
1.0
 40
1.0
 40
1.0
 40
1.0
 10
96.6565295578734
 20
141.3600145772768
 30
0.0
 10
96.63036159405277
 20
141.5110319150559
 30
0.0
 10
96.58556814424412
 20
141.769538369223
 30
0.0
 10
96.34295372673016
 20
141.7369246457951
 30
0.0
 10
96.24207265029605
 20
141.7233635905221
 30
0.0
  0
LINE
  5
210
330
1F
100
AcDbEntity
  8
0
  6
Continuous
 62
     7
370
    25
100
AcDbLine
 10
96.6565295579
 20
141.3600145773
 30
0.0
 11
96.6565295579
 21
140.747424494
 31
0.0
  0
SPLINE
  5
211
330
1F
100
AcDbEntity
  8
0
  6
Continuous
 62
     7
370
    25
100
AcDbSpline
210
0.0
220
0.0
230
1.0
 70
     8
 71
     3
 72
     9
 73
     5
 74
     0
 42
0.00000001
 43
0.00000001
 40
0.0
 40
0.0
 40
0.0
 40
0.0
 40
0.5850553834536214
 40
1.0
 40
1.0
 40
1.0
 40
1.0
 10
96.24207265029605
 20
139.1767514065914
 30
0.0
 10
96.37862678432037
 20
139.5387973105088
 30
0.0
 10
96.6120305575123
 20
140.1576206119545
 30
0.0
 10
96.64347984523758
 20
140.5744594586029
 30
0.0
 10
96.6565295578734
 20
140.7474244939871
 30
0.0
  0
SPLINE
  5
212
330
1F
100
AcDbEntity
  8
0
  6
Continuous
 62
     7
370
    25
100
AcDbSpline
210
0.0
220
0.0
230
1.0
 70
     8
 71
     3
 72
    11
 73
     7
 74
     0
 42
0.00000001
 43
0.00000001
 40
0.0
 40
0.0
 40
0.0
 40
0.0
 40
0.2328716322111489
 40
0.471026502431326
 40
0.7311421212560306
 40
1.0
 40
1.0
 40
1.0
 40
1.0
 10
96.24207265029605
 20
129.5312064650116
 30
0.0
 10
95.97167591562328
 20
130.2627291223284
 30
0.0
 10
95.42474786349244
 20
131.7423707405602
 30
0.0
 10
95.12352354550885
 20
134.1383471751234
 30
0.0
 10
95.33117531091857
 20
136.6647963025106
 30
0.0
 10
95.93511314269881
 20
138.3302580988143
 30
0.0
 10
96.24207265029605
 20
139.1767514065914
 30
0.0
  0
SPLINE
  5
213
330
1F
100
AcDbEntity
  8
0
  6
Continuous
 62
     7
370
    25
100
AcDbSpline
210
0.0
220
0.0
230
1.0
 70
     8
 71
     3
 72
     9
 73
     5
 74
     0
 42
0.00000001
 43
0.00000001
 40
0.0
 40
0.0
 40
0.0
 40
0.0
 40
0.5841917497409261
 40
1.0
 40
1.0
 40
1.0
 40
1.0
 10
96.6565295578734
 20
127.30442091399
 30
0.0
 10
96.63036159405276
 20
127.7778790383812
 30
0.0
 10
96.58556814424412
 20
128.5883289028328
 30
0.0
 10
96.34295372673014
 20
129.2542930699481
 30
0.0
 10
96.24207265029605
 20
129.5312064650116
 30
0.0
  0
LINE
  5
214
330
1F
100
AcDbEntity
  8
0
  6
Continuous
 62
     7
370
    25
100
AcDbLine
 10
96.6565295579
 20
127.304420914
 30
0.0
 11
96.6565295579
 21
125.8564683243
 31
0.0
  0
LINE
  5
215
330
1F
100
AcDbEntity
  8
0
  6
Continuous
 62
     7
370
    25
100
AcDbLine
 10
95.1565295579
 20
118.1887813375
 30
0.0
 11
95.1565295579
 21
141.215688613
 31
0.0
  0
LINE
  5
216
330
1F
100
AcDbEntity
  8
0
  6
Continuous
 62
     7
370
    25
100
AcDbLine
 10
95.1565295579
 20
108.815688613
 30
0.0
 11
95.1565295579
 21
118.1887813375
 31
0.0
  0
LINE
  5
217
330
1F
100
AcDbEntity
  8
0
  6
Continuous
 62
     7
370
    25
100
AcDbLine
 10
87.4065295579
 20
135.590688613
 30
0.0
 11
87.4065295579
 21
114.440688613
 31
0.0
  0
LINE
  5
218
330
1F
100
AcDbEntity
  8
0
  6
Continuous
 62
     7
370
    25
100
AcDbLine
 10
103.5209864655
 20
139.1767514066
 30
0.0
 11
96.2420726503
 21
139.1767514066
 31
0.0
  0
LINE
  5
219
330
1F
100
AcDbEntity
  8
0
  6
Continuous
 62
     7
370
    25
100
AcDbLine
 10
96.2420726503
 20
129.531206465
 30
0.0
 11
103.5209864655
 21
129.531206465
 31
0.0
  0
LINE
  5
21A
330
1F
100
AcDbEntity
  8
0
  6
Continuous
 62
     7
370
    25
100
AcDbLine
 10
103.1065295579
 20
127.304420914
 30
0.0
 11
96.6565295579
 21
127.304420914
 31
0.0
  0
LINE
  5
21B
330
1F
100
AcDbEntity
  8
0
  6
Continuous
 62
     7
370
    25
100
AcDbLine
 10
96.6565295579
 20
125.8564683243
 30
0.0
 11
103.1065295579
 21
125.8564683243
 31
0.0
  0
LINE
  5
21C
330
1F
100
AcDbEntity
  8
0
  6
Continuous
 62
     7
370
    25
100
AcDbLine
 10
103.5209864655
 20
123.5118897845
 30
0.0
 11
96.2420726503
 21
123.5118897845
 31
0.0
  0
LINE
  5
21D
330
1F
100
AcDbEntity
  8
0
  6
Continuous
 62
     7
370
    25
100
AcDbLine
 10
96.2420726503
 20
112.8235314875
 30
0.0
 11
103.5209864655
 21
112.8235314875
 31
0.0
  0
LINE
  5
21E
330
1F
100
AcDbEntity
  8
0
  6
Continuous
 62
     7
370
    25
100
AcDbLine
 10
103.1065295579
 20
110.9600949497
 30
0.0
 11
96.6565295579
 21
110.9600949497
 31
0.0
  0
LINE
  5
21F
330
1F
100
AcDbEntity
  8
0
  6
Continuous
 62
     7
370
    25
100
AcDbLine
 10
96.6565295579
 20
110.1247324433
 30
0.0
 11
103.1065295579
 21
110.1247324433
 31
0.0
  0
LINE
  5
220
330
1F
100
AcDbEntity
  8
0
  6
Continuous
 62
     7
370
    25
100
AcDbLine
 10
96.6565295579
 20
140.747424494
 30
0.0
 11
103.1065295579
 21
140.747424494
 31
0.0
  0
LINE
  5
221
330
1F
100
AcDbEntity
  8
0
  6
Continuous
 62
     7
370
    25
100
AcDbLine
 10
103.5209864655
 20
109.3508269909
 30
0.0
 11
96.2420726503
 21
109.3508269909
 31
0.0
  0
LINE
  5
222
330
1F
100
AcDbEntity
  8
0
  6
Continuous
 62
     7
370
    25
100
AcDbLine
 10
103.1065295579
 20
141.3600145773
 30
0.0
 11
96.6565295579
 21
141.3600145773
 31
0.0
  0
LINE
  5
223
330
1F
100
AcDbEntity
  8
0
  6
Continuous
 62
     7
370
    25
100
AcDbLine
 10
96.2420726503
 20
108.3080136355
 30
0.0
 11
103.5209864655
 21
108.3080136355
 31
0.0
  0
SPLINE
  5
224
330
1F
100
AcDbEntity
  8
0
  6
Continuous
 62
     7
370
    25
100
AcDbSpline
210
0.0
220
0.0
230
1.0
 70
     8
 71
     3
 72
     9
 73
     5
 74
     0
 42
0.00000001
 43
0.00000001
 40
0.0
 40
0.0
 40
0.0
 40
0.0
 40
0.5841917497409234
 40
0.9999999999999999
 40
0.9999999999999999
 40
0.9999999999999999
 40
0.9999999999999999
 10
193.1565295578734
 20
127.30442091399
 30
0.0
 10
193.1303615940528
 20
127.7778790383812
 30
0.0
 10
193.0855681442441
 20
128.5883289028328
 30
0.0
 10
192.8429537267302
 20
129.2542930699481
 30
0.0
 10
192.7420726502961
 20
129.5312064650116
 30
0.0
  0
LINE
  5
225
330
1F
100
AcDbEntity
  8
0
  6
Continuous
 62
     7
370
    25
100
AcDbLine
 10
193.1565295579
 20
127.304420914
 30
0.0
 11
193.1565295579
 21
125.8564683243
 31
0.0
  0
SPLINE
  5
226
330
1F
100
AcDbEntity
  8
0
  6
Continuous
 62
     7
370
    25
100
AcDbSpline
210
0.0
220
0.0
230
1.0
 70
     8
 71
     3
 72
     9
 73
     5
 74
     0
 42
0.00000001
 43
0.00000001
 40
0.0
 40
0.0
 40
0.0
 40
0.0
 40
0.5850553834536164
 40
1.0
 40
1.0
 40
1.0
 40
1.0
 10
192.7420726502961
 20
123.5118897845061
 30
0.0
 10
192.8786267843204
 20
123.9466212141176
 30
0.0
 10
193.1120305575123
 20
124.6896815155973
 30
0.0
 10
193.1434798452376
 20
125.5142981084014
 30
0.0
 10
193.1565295578734
 20
125.8564683243003
 30
0.0
  0
SPLINE
  5
227
330
1F
100
AcDbEntity
  8
0
  6
Continuous
 62
     7
370
    25
100
AcDbSpline
210
0.0
220
0.0
230
1.0
 70
     8
 71
     3
 72
    11
 73
     7
 74
     0
 42
0.00000001
 43
0.00000001
 40
0.0
 40
0.0
 40
0.0
 40
0.0
 40
0.232871632211145
 40
0.4710265024313184
 40
0.731142121256027
 40
0.9999999999999999
 40
0.9999999999999999
 40
0.9999999999999999
 40
0.9999999999999999
 10
192.7420726502961
 20
112.8235314874775
 30
0.0
 10
192.4716759156233
 20
113.6341415993117
 30
0.0
 10
191.9247478634925
 20
115.2737524105871
 30
0.0
 10
191.6235235455088
 20
117.9287661769377
 30
0.0
 10
191.8311753109186
 20
120.7283584919685
 30
0.0
 10
192.4351131426988
 20
122.5738791459826
 30
0.0
 10
192.7420726502961
 20
123.5118897845061
 30
0.0
  0
SPLINE
  5
228
330
1F
100
AcDbEntity
  8
0
  6
Continuous
 62
     7
370
    25
100
AcDbSpline
210
0.0
220
0.0
230
1.0
 70
     8
 71
     3
 72
     9
 73
     5
 74
     0
 42
0.00000001
 43
0.00000001
 40
0.0
 40
0.0
 40
0.0
 40
0.0
 40
0.5841917497409213
 40
1.0
 40
1.0
 40
1.0
 40
1.0
 10
193.1565295578734
 20
110.9600949497012
 30
0.0
 10
193.1303615940528
 20
111.2825357363133
 30
0.0
 10
193.0855681442441
 20
111.8344791465978
 30
0.0
 10
192.8429537267302
 20
112.533057037141
 30
0.0
 10
192.7420726502961
 20
112.8235314874775
 30
0.0
  0
LINE
  5
229
330
1F
100
AcDbEntity
  8
0
  6
Continuous
 62
     7
370
    25
100
AcDbLine
 10
193.1565295579
 20
110.9600949497
 30
0.0
 11
193.1565295579
 21
110.1247324433
 31
0.0
  0
SPLINE
  5
22A
330
1F
100
AcDbEntity
  8
0
  6
Continuous
 62
     7
370
    25
100
AcDbSpline
210
0.0
220
0.0
230
1.0
 70
     8
 71
     3
 72
     9
 73
     5
 74
     0
 42
0.00000001
 43
0.00000001
 40
0.0
 40
0.0
 40
0.0
 40
0.0
 40
0.5850553834536157
 40
1.0
 40
1.0
 40
1.0
 40
1.0
 10
192.7420726502961
 20
109.3508269909028
 30
0.0
 10
192.8786267843204
 20
109.4235125165968
 30
0.0
 10
193.1120305575123
 20
109.5477495166308
 30
0.0
 10
193.1434798452376
 20
109.9555272627865
 30
0.0
 10
193.1565295578734
 20
110.1247324433012
 30
0.0
  0
SPLINE
  5
22B
330
1F
100
AcDbEntity
  8
0
  6
Continuous
 62
     7
370
    25
100
AcDbSpline
210
0.0
220
0.0
230
1.0
 70
     8
 71
     3
 72
    11
 73
     7
 74
     0
 42
0.00000001
 43
0.00000001
 40
0.0
 40
0.0
 40
0.0
 40
0.0
 40
0.2379053903768113
 40
0.4814905141302429
 40
0.7366519444347657
 40
1.0
 40
1.0
 40
1.0
 40
1.0
 10
192.7420726502962
 20
108.3080136354539
 30
0.0
 10
192.4664872153231
 20
108.3888359662272
 30
0.0
 10
191.9087370417696
 20
108.5524101733337
 30
0.0
 10
191.6221738171132
 20
108.8136576594725
 30
0.0
 10
191.8470542233113
 20
109.0847806838155
 30
0.0
 10
192.4406093402295
 20
109.2612163215049
 30
0.0
 10
192.7420726502961
 20
109.3508269909028
 30
0.0
  0
LINE
  5
22C
330
1F
100
AcDbEntity
  8
0
  6
Continuous
 62
     7
370
    25
100
AcDbLine
 10
192.8628766415
 20
108.3123565623
 30
0.0
 11
192.7420726503
 21
108.3080136355
 31
0.0
  0
SPLINE
  5
22D
330
1F
100
AcDbEntity
  8
0
  6
Continuous
 62
     7
370
    25
100
AcDbSpline
210
0.0
220
0.0
230
1.0
 70
     8
 71
     3
 72
     9
 73
     5
 74
     0
 42
0.00000001
 43
0.00000001
 40
0.0
 40
0.0
 40
0.0
 40
0.0
 40
0.6721061852891725
 40
1.0
 40
1.0
 40
1.0
 40
1.0
 10
192.7420726502961
 20
141.7233635905221
 30
0.0
 10
192.4252664033079
 20
141.6366473564927
 30
0.0
 10
191.9539030176967
 20
141.5076257287685
 30
0.0
 10
191.871375334193
 20
141.3727447269711
 30
0.0
 10
191.8443150172298
 20
141.3285180807597
 30
0.0
  0
SPLINE
  5
22E
330
1F
100
AcDbEntity
  8
0
  6
Continuous
 62
     7
370
    25
100
AcDbSpline
210
0.0
220
0.0
230
1.0
 70
     8
 71
     3
 72
     9
 73
     5
 74
     0
 42
0.00000001
 43
0.00000001
 40
0.0
 40
0.0
 40
0.0
 40
0.0
 40
0.5841917497409217
 40
1.0
 40
1.0
 40
1.0
 40
1.0
 10
193.1565295578734
 20
141.3600145772768
 30
0.0
 10
193.1303615940528
 20
141.5110319150559
 30
0.0
 10
193.0855681442441
 20
141.769538369223
 30
0.0
 10
192.8429537267302
 20
141.7369246457951
 30
0.0
 10
192.7420726502961
 20
141.7233635905221
 30
0.0
  0
LINE
  5
22F
330
1F
100
AcDbEntity
  8
0
  6
Continuous
 62
     7
370
    25
100
AcDbLine
 10
193.1565295579
 20
141.3600145773
 30
0.0
 11
193.1565295579
 21
140.747424494
 31
0.0
  0
SPLINE
  5
230
330
1F
100
AcDbEntity
  8
0
  6
Continuous
 62
     7
370
    25
100
AcDbSpline
210
0.0
220
0.0
230
1.0
 70
     8
 71
     3
 72
     9
 73
     5
 74
     0
 42
0.00000001
 43
0.00000001
 40
0.0
 40
0.0
 40
0.0
 40
0.0
 40
0.5850553834536191
 40
1.0
 40
1.0
 40
1.0
 40
1.0
 10
192.7420726502961
 20
139.1767514065914
 30
0.0
 10
192.8786267843204
 20
139.5387973105088
 30
0.0
 10
193.1120305575123
 20
140.1576206119545
 30
0.0
 10
193.1434798452376
 20
140.5744594586029
 30
0.0
 10
193.1565295578734
 20
140.7474244939871
 30
0.0
  0
SPLINE
  5
231
330
1F
100
AcDbEntity
  8
0
  6
Continuous
 62
     7
370
    25
100
AcDbSpline
210
0.0
220
0.0
230
1.0
 70
     8
 71
     3
 72
    11
 73
     7
 74
     0
 42
0.00000001
 43
0.00000001
 40
0.0
 40
0.0
 40
0.0
 40
0.0
 40
0.2328716322111445
 40
0.4710265024313174
 40
0.7311421212560267
 40
1.0
 40
1.0
 40
1.0
 40
1.0
 10
192.7420726502961
 20
129.5312064650116
 30
0.0
 10
192.4716759156233
 20
130.2627291223283
 30
0.0
 10
191.9247478634925
 20
131.7423707405601
 30
0.0
 10
191.6235235455089
 20
134.1383471751233
 30
0.0
 10
191.8311753109186
 20
136.6647963025106
 30
0.0
 10
192.4351131426988
 20
138.3302580988143
 30
0.0
 10
192.7420726502961
 20
139.1767514065914
 30
0.0
  0
LINE
  5
232
330
1F
100
AcDbEntity
  8
0
  6
Continuous
 62
     7
370
    25
100
AcDbLine
 10
191.6565295579
 20
108.815688613
 30
0.0
 11
191.6565295579
 21
141.215688613
 31
0.0
  0
SPLINE
  5
233
330
1F
100
AcDbEntity
  8
0
  6
Continuous
 62
     7
370
    25
100
AcDbSpline
210
0.0
220
0.0
230
1.0
 70
     8
 71
     3
 72
     9
 73
     5
 74
     0
 42
0.00000001
 43
0.00000001
 40
0.0
 40
0.0
 40
0.0
 40
0.0
 40
0.5850553834534123
 40
1.0
 40
1.0
 40
1.0
 40
1.0
 10
200.0209864654513
 20
141.723363590522
 30
0.0
 10
199.8844323314269
 20
141.7329009214018
 30
0.0
 10
199.6510285582346
 20
141.7492025077977
 30
0.0
 10
199.6195792705093
 20
141.4741472682005
 30
0.0
 10
199.6065295578734
 20
141.3600145772768
 30
0.0
  0
SPLINE
  5
234
330
1F
100
AcDbEntity
  8
0
  6
Continuous
 62
     7
370
    25
100
AcDbSpline
210
0.0
220
0.0
230
1.0
 70
     8
 71
     3
 72
     9
 73
     5
 74
     0
 42
0.00000001
 43
0.00000001
 40
0.0
 40
0.0
 40
0.0
 40
0.0
 40
0.3075978995518112
 40
1.0
 40
1.0
 40
1.0
 40
1.0
 10
200.9232705703218
 20
141.3285557975798
 30
0.0
 10
200.8983824495251
 20
141.3700396330699
 30
0.0
 10
200.8174712312332
 20
141.5049034782085
 30
0.0
 10
200.3468473968791
 20
141.6339863434777
 30
0.0
 10
200.0209864654513
 20
141.723363590522
 30
0.0
  0
LINE
  5
235
330
1F
100
AcDbEntity
  8
0
  6
Continuous
 62
     7
370
    25
100
AcDbLine
 10
200.0209864655
 20
108.3080136355
 30
0.0
 11
199.9131761933
 21
108.3305284338
 31
0.0
  0
SPLINE
  5
236
330
1F
100
AcDbEntity
  8
0
  6
Continuous
 62
     7
370
    25
100
AcDbSpline
210
0.0
220
0.0
230
1.0
 70
     8
 71
     3
 72
    11
 73
     7
 74
     0
 42
0.00000001
 43
0.00000001
 40
0.0
 40
0.0
 40
0.0
 40
0.0
 40
0.2556279644380967
 40
0.5185037642963866
 40
0.7560467972580099
 40
1.0
 40
1.0
 40
1.0
 40
1.0
 10
200.0209864654508
 20
109.3508269909028
 30
0.0
 10
200.3146124255527
 20
109.2638888257472
 30
0.0
 10
200.9101895406883
 20
109.0875475322848
 30
0.0
 10
201.1420785023149
 20
108.818534283976
 30
0.0
 10
200.8591080438541
 20
108.5545634822252
 30
0.0
 10
200.3028289102899
 20
108.3909231003565
 30
0.0
 10
200.0209864654508
 20
108.3080136354539
 30
0.0
  0
SPLINE
  5
237
330
1F
100
AcDbEntity
  8
0
  6
Continuous
 62
     7
370
    25
100
AcDbSpline
210
0.0
220
0.0
230
1.0
 70
     8
 71
     3
 72
     9
 73
     5
 74
     0
 42
0.00000001
 43
0.00000001
 40
0.0
 40
0.0
 40
0.0
 40
0.0
 40
0.5841917497409268
 40
0.9999999999999999
 40
0.9999999999999999
 40
0.9999999999999999
 40
0.9999999999999999
 10
199.6065295578734
 20
110.1247324433012
 30
0.0
 10
199.632697521694
 20
109.8950841670874
 30
0.0
 10
199.6774909715027
 20
109.5019798887137
 30
0.0
 10
199.9201053890167
 20
109.3952190347751
 30
0.0
 10
200.0209864654508
 20
109.3508269909028
 30
0.0
  0
LINE
  5
238
330
1F
100
AcDbEntity
  8
0
  6
Continuous
 62
     7
370
    25
100
AcDbLine
 10
199.6065295579
 20
110.1247324433
 30
0.0
 11
199.6065295579
 21
110.9600949497
 31
0.0
  0
SPLINE
  5
239
330
1F
100
AcDbEntity
  8
0
  6
Continuous
 62
     7
370
    25
100
AcDbSpline
210
0.0
220
0.0
230
1.0
 70
     8
 71
     3
 72
     9
 73
     5
 74
     0
 42
0.00000001
 43
0.00000001
 40
0.0
 40
0.0
 40
0.0
 40
0.0
 40
0.5850553834536173
 40
1.0
 40
1.0
 40
1.0
 40
1.0
 10
200.0209864654508
 20
112.8235314874775
 30
0.0
 10
199.8844323314264
 20
112.4155163731628
 30
0.0
 10
199.6510285582345
 20
111.718120663536
 30
0.0
 10
199.6195792705092
 20
111.1823924767431
 30
0.0
 10
199.6065295578734
 20
110.9600949497012
 30
0.0
  0
SPLINE
  5
23A
330
1F
100
AcDbEntity
  8
0
  6
Continuous
 62
     7
370
    25
100
AcDbSpline
210
0.0
220
0.0
230
1.0
 70
     8
 71
     3
 72
    11
 73
     7
 74
     0
 42
0.00000001
 43
0.00000001
 40
0.0
 40
0.0
 40
0.0
 40
0.0
 40
0.2328716322111473
 40
0.4710265024313233
 40
0.7311421212560294
 40
1.0
 40
1.0
 40
1.0
 40
1.0
 10
200.0209864654508
 20
123.5118897845061
 30
0.0
 10
200.2913832001235
 20
122.7012796726719
 30
0.0
 10
200.8383112522544
 20
121.0616688613965
 30
0.0
 10
201.139535570238
 20
118.4066550950458
 30
0.0
 10
200.9318838048283
 20
115.6070627800151
 30
0.0
 10
200.327945973048
 20
113.761542126001
 30
0.0
 10
200.0209864654508
 20
112.8235314874775
 30
0.0
  0
SPLINE
  5
23B
330
1F
100
AcDbEntity
  8
0
  6
Continuous
 62
     7
370
    25
100
AcDbSpline
210
0.0
220
0.0
230
1.0
 70
     8
 71
     3
 72
     9
 73
     5
 74
     0
 42
0.00000001
 43
0.00000001
 40
0.0
 40
0.0
 40
0.0
 40
0.0
 40
0.5841917497409242
 40
1.0
 40
1.0
 40
1.0
 40
1.0
 10
199.6065295578734
 20
125.8564683243003
 30
0.0
 10
199.632697521694
 20
125.3729780794104
 30
0.0
 10
199.6774909715027
 20
124.5453555648776
 30
0.0
 10
199.9201053890167
 20
123.8154080029939
 30
0.0
 10
200.0209864654508
 20
123.5118897845061
 30
0.0
  0
LINE
  5
23C
330
1F
100
AcDbEntity
  8
0
  6
Continuous
 62
     7
370
    25
100
AcDbLine
 10
199.6065295579
 20
125.8564683243
 30
0.0
 11
199.6065295579
 21
127.304420914
 31
0.0
  0
SPLINE
  5
23D
330
1F
100
AcDbEntity
  8
0
  6
Continuous
 62
     7
370
    25
100
AcDbSpline
210
0.0
220
0.0
230
1.0
 70
     8
 71
     3
 72
     9
 73
     5
 74
     0
 42
0.00000001
 43
0.00000001
 40
0.0
 40
0.0
 40
0.0
 40
0.0
 40
0.5850553834536175
 40
1.0
 40
1.0
 40
1.0
 40
1.0
 10
200.0209864654508
 20
129.5312064650116
 30
0.0
 10
199.8844323314264
 20
129.1327286815766
 30
0.0
 10
199.6510285582345
 20
128.4516345583454
 30
0.0
 10
199.6195792705092
 20
127.6408511319555
 30
0.0
 10
199.6065295578734
 20
127.30442091399
 30
0.0
  0
SPLINE
  5
23E
330
1F
100
AcDbEntity
  8
0
  6
Continuous
 62
     7
370
    25
100
AcDbSpline
210
0.0
220
0.0
230
1.0
 70
     8
 71
     3
 72
    11
 73
     7
 74
     0
 42
0.00000001
 43
0.00000001
 40
0.0
 40
0.0
 40
0.0
 40
0.0
 40
0.2328716322111489
 40
0.4710265024313259
 40
0.7311421212560307
 40
1.0
 40
1.0
 40
1.0
 40
1.0
 10
200.0209864654508
 20
139.1767514065914
 30
0.0
 10
200.2913832001235
 20
138.4452287492746
 30
0.0
 10
200.8383112522544
 20
136.9655871310428
 30
0.0
 10
201.139535570238
 20
134.5696106964796
 30
0.0
 10
200.9318838048283
 20
132.0431615690923
 30
0.0
 10
200.327945973048
 20
130.3776997727886
 30
0.0
 10
200.0209864654508
 20
129.5312064650116
 30
0.0
  0
SPLINE
  5
23F
330
1F
100
AcDbEntity
  8
0
  6
Continuous
 62
     7
370
    25
100
AcDbSpline
210
0.0
220
0.0
230
1.0
 70
     8
 71
     3
 72
     9
 73
     5
 74
     0
 42
0.00000001
 43
0.00000001
 40
0.0
 40
0.0
 40
0.0
 40
0.0
 40
0.5841917497409261
 40
1.0
 40
1.0
 40
1.0
 40
1.0
 10
199.6065295578734
 20
140.7474244939871
 30
0.0
 10
199.632697521694
 20
140.493582525311
 30
0.0
 10
199.6774909715027
 20
140.0590642891519
 30
0.0
 10
199.9201053890167
 20
139.4358775812068
 30
0.0
 10
200.0209864654508
 20
139.1767514065914
 30
0.0
  0
LINE
  5
240
330
1F
100
AcDbEntity
  8
0
  6
Continuous
 62
     7
370
    25
100
AcDbLine
 10
199.6065295579
 20
140.747424494
 30
0.0
 11
199.6065295579
 21
141.3600145773
 31
0.0
  0
LINE
  5
241
330
1F
100
AcDbEntity
  8
0
  6
Continuous
 62
     7
370
    25
100
AcDbLine
 10
201.1065295579
 20
141.215688613
 30
0.0
 11
201.1065295579
 21
108.815688613
 31
0.0
  0
LINE
  5
242
330
1F
100
AcDbEntity
  8
0
  6
Continuous
 62
     7
370
    25
100
AcDbLine
 10
192.7420726503
 20
112.8235314875
 30
0.0
 11
200.0209864655
 21
112.8235314875
 31
0.0
  0
LINE
  5
243
330
1F
100
AcDbEntity
  8
0
  6
Continuous
 62
     7
370
    25
100
AcDbLine
 10
200.0209864655
 20
123.5118897845
 30
0.0
 11
192.7420726503
 21
123.5118897845
 31
0.0
  0
LINE
  5
244
330
1F
100
AcDbEntity
  8
0
  6
Continuous
 62
     7
370
    25
100
AcDbLine
 10
193.1565295579
 20
125.8564683243
 30
0.0
 11
199.6065295579
 21
125.8564683243
 31
0.0
  0
LINE
  5
245
330
1F
100
AcDbEntity
  8
0
  6
Continuous
 62
     7
370
    25
100
AcDbLine
 10
192.7420726503
 20
129.531206465
 30
0.0
 11
200.0209864655
 21
129.531206465
 31
0.0
  0
LINE
  5
246
330
1F
100
AcDbEntity
  8
0
  6
Continuous
 62
     7
370
    25
100
AcDbLine
 10
200.0209864655
 20
139.1767514066
 30
0.0
 11
192.7420726503
 21
139.1767514066
 31
0.0
  0
LINE
  5
247
330
1F
100
AcDbEntity
  8
0
  6
Continuous
 62
     7
370
    25
100
AcDbLine
 10
199.6065295579
 20
127.304420914
 30
0.0
 11
193.1565295579
 21
127.304420914
 31
0.0
  0
LINE
  5
248
330
1F
100
AcDbEntity
  8
0
  6
Continuous
 62
     7
370
    25
100
AcDbLine
 10
208.8565295579
 20
114.440688613
 30
0.0
 11
208.8565295579
 21
135.590688613
 31
0.0
  0
LINE
  5
249
330
1F
100
AcDbEntity
  8
0
  6
Continuous
 62
     7
370
    25
100
AcDbLine
 10
199.6065295579
 20
110.9600949497
 30
0.0
 11
193.1565295579
 21
110.9600949497
 31
0.0
  0
LINE
  5
24A
330
1F
100
AcDbEntity
  8
0
  6
Continuous
 62
     7
370
    25
100
AcDbLine
 10
193.1565295579
 20
110.1247324433
 30
0.0
 11
199.6065295579
 21
110.1247324433
 31
0.0
  0
LINE
  5
24B
330
1F
100
AcDbEntity
  8
0
  6
Continuous
 62
     7
370
    25
100
AcDbLine
 10
193.1565295579
 20
140.747424494
 30
0.0
 11
199.6065295579
 21
140.747424494
 31
0.0
  0
LINE
  5
24C
330
1F
100
AcDbEntity
  8
0
  6
Continuous
 62
     7
370
    25
100
AcDbLine
 10
200.0209864655
 20
109.3508269909
 30
0.0
 11
192.7420726503
 21
109.3508269909
 31
0.0
  0
LINE
  5
24D
330
1F
100
AcDbEntity
  8
0
  6
Continuous
 62
     7
370
    25
100
AcDbLine
 10
199.6065295579
 20
141.3600145773
 30
0.0
 11
193.1565295579
 21
141.3600145773
 31
0.0
  0
LINE
  5
24E
330
1F
100
AcDbEntity
  8
0
  6
Continuous
 62
     7
370
    25
100
AcDbLine
 10
192.7420726503
 20
108.3080136355
 30
0.0
 11
200.0209864655
 21
108.3080136355
 31
0.0
  0
ARC
  5
24F
330
1F
100
AcDbEntity
  8
0
  6
Continuous
 62
     7
370
    25
100
AcDbCircle
 10
147.5065295579
 20
125.015688613
 30
0.0
 40
14.0
100
AcDbArc
 50
307.9000373354
 51
232.0999626646
  0
SPLINE
  5
250
330
1F
100
AcDbEntity
  8
0
  6
Continuous
 62
     7
370
    25
100
AcDbSpline
210
0.0
220
0.0
230
1.0
 70
     8
 71
     3
 72
    10
 73
     6
 74
     0
 42
0.00000001
 43
0.00000001
 40
0.0
 40
0.0
 40
0.0
 40
0.0
 40
0.5
 40
0.5
 40
1.0
 40
1.0
 40
1.0
 40
1.0
 10
136.2900796090423
 20
115.777209784796
 30
0.0
 10
135.8145304051603
 20
116.3661582728754
 30
0.0
 10
135.3921945180192
 20
116.9839554449527
 30
0.0
 10
134.6491724770313
 20
118.2731318554959
 30
0.0
 10
134.3286841235442
 20
118.9456289518983
 30
0.0
 10
134.0642270460269
 20
119.6318856990707
 30
0.0
  0
SPLINE
  5
251
330
1F
100
AcDbEntity
  8
0
  6
Continuous
 62
     7
370
    25
100
AcDbSpline
210
0.0
220
0.0
230
1.0
 70
     8
 71
     3
 72
    18
 73
    14
 74
     0
 42
0.00000001
 43
0.00000001
 40
0.0
 40
0.0
 40
0.0
 40
0.0
 40
0.125
 40
0.125
 40
0.2500000000000001
 40
0.2500000000000001
 40
0.5000000000000001
 40
0.5000000000000001
 40
0.6250000000000001
 40
0.6250000000000001
 40
0.75
 40
0.75
 40
1.0
 40
1.0
 40
1.0
 40
1.0
 10
134.0642270460269
 20
119.6318856990707
 30
0.0
 10
133.9047199953147
 20
120.0458008447738
 30
0.0
 10
133.7622329068562
 20
120.4702295309153
 30
0.0
 10
133.5135128901914
 20
121.3415245932271
 30
0.0
 10
133.4068304858797
 20
121.7909296090577
 30
0.0
 10
133.149758784247
 20
123.1567083177122
 30
0.0
 10
133.0622385419994
 20
124.0824239215374
 30
0.0
 10
133.0630332037734
 20
125.4949555928056
 30
0.0
 10
133.0859396450338
 20
125.9720096130137
 30
0.0
 10
133.1754245179478
 20
126.9082996202959
 30
0.0
 10
133.2413828390553
 20
127.3662852421564
 30
0.0
 10
133.4975655759243
 20
128.7123439504442
 30
0.0
 10
133.745628678947
 20
129.5727400513947
 30
0.0
 10
134.0642270460269
 20
130.3994915269055
 30
0.0
  0
SPLINE
  5
252
330
1F
100
AcDbEntity
  8
0
  6
Continuous
 62
     7
370
    25
100
AcDbSpline
210
0.0
220
0.0
230
1.0
 70
     8
 71
     3
 72
    10
 73
     6
 74
     0
 42
0.00000001
 43
0.00000001
 40
0.0
 40
0.0
 40
0.0
 40
0.0
 40
0.5000000000000002
 40
0.5000000000000002
 40
1.0
 40
1.0
 40
1.0
 40
1.0
 10
134.0642270460269
 20
130.3994915269055
 30
0.0
 10
134.3294661760926
 20
131.0877776727348
 30
0.0
 10
134.6498535467689
 20
131.7593971741017
 30
0.0
 10
135.3912250477526
 20
133.0457695779871
 30
0.0
 10
135.8130391291222
 20
133.6633720679397
 30
0.0
 10
136.2900796090423
 20
134.25416744118
 30
0.0
  0
SPLINE
  5
253
330
1F
100
AcDbEntity
  8
0
  6
Continuous
 62
     7
370
    25
100
AcDbSpline
210
0.0
220
0.0
230
1.0
 70
     8
 71
     3
 72
    20
 73
    16
 74
     0
 42
0.00000001
 43
0.00000001
 40
0.0
 40
0.0
 40
0.0
 40
0.0
 40
0.2499999999999991
 40
0.2499999999999991
 40
0.3749999999999992
 40
0.3749999999999992
 40
0.4999999999999993
 40
0.4999999999999993
 40
0.6249999999999994
 40
0.6249999999999994
 40
0.7499999999999996
 40
0.7499999999999996
 40
0.8749999999999998
 40
0.8749999999999998
 40
1.0
 40
1.0
 40
1.0
 40
1.0
 10
136.2900796090423
 20
134.25416744118
 30
0.0
 10
136.9656570828861
 20
135.090842865201
 30
0.0
 10
137.71892147541
 20
135.8365372829559
 30
0.0
 10
138.9561260536494
 20
136.8239534777749
 30
0.0
 10
139.3865723827143
 20
137.1310645828006
 30
0.0
 10
140.2836626857745
 20
137.7000158442558
 30
0.0
 10
140.744785406393
 20
137.958266692739
 30
0.0
 10
141.6870624170551
 20
138.4218354611458
 30
0.0
 10
142.1687847313167
 20
138.6274914229038
 30
0.0
 10
143.15168822551
 20
138.986648489302
 30
0.0
 10
143.6544378083304
 20
139.1403026500259
 30
0.0
 10
144.6594604024492
 20
139.3908249236095
 30
0.0
 10
145.1636885209009
 20
139.4884457234818
 30
0.0
 10
146.1670277680985
 20
139.6310899552514
 30
0.0
 10
146.6672681068042
 20
139.6758122106235
 30
0.0
 10
147.1512652075411
 20
139.6973531302308
 30
0.0
  0
SPLINE
  5
254
330
1F
100
AcDbEntity
  8
0
  6
Continuous
 62
     7
370
    25
100
AcDbSpline
210
0.0
220
0.0
230
1.0
 70
     8
 71
     3
 72
    10
 73
     6
 74
     0
 42
0.00000001
 43
0.00000001
 40
0.0
 40
0.0
 40
0.0
 40
0.0
 40
0.5
 40
0.5
 40
1.0
 40
1.0
 40
1.0
 40
1.0
 10
147.8617939082057
 20
139.6973531302308
 30
0.0
 10
147.7532815480117
 20
139.7021826137623
 30
0.0
 10
147.632031369521
 20
139.7053090657657
 30
0.0
 10
147.3800934679309
 20
139.7052941604359
 30
0.0
 10
147.2598047136653
 20
139.7021838219272
 30
0.0
 10
147.1512652075411
 20
139.6973531302308
 30
0.0
  0
SPLINE
  5
255
330
1F
100
AcDbEntity
  8
0
  6
Continuous
 62
     7
370
    25
100
AcDbSpline
210
0.0
220
0.0
230
1.0
 70
     8
 71
     3
 72
    20
 73
    16
 74
     0
 42
0.00000001
 43
0.00000001
 40
0.0
 40
0.0
 40
0.0
 40
0.0
 40
0.2499999999999991
 40
0.2499999999999991
 40
0.3749999999999992
 40
0.3749999999999992
 40
0.4999999999999993
 40
0.4999999999999993
 40
0.6249999999999994
 40
0.6249999999999994
 40
0.7499999999999996
 40
0.7499999999999996
 40
0.8749999999999998
 40
0.8749999999999998
 40
1.0
 40
1.0
 40
1.0
 40
1.0
 10
158.7229795067045
 20
134.25416744118
 30
0.0
 10
158.0474020328607
 20
135.090842865201
 30
0.0
 10
157.2941376403368
 20
135.8365372829559
 30
0.0
 10
156.0569330620974
 20
136.8239534777749
 30
0.0
 10
155.6264867330325
 20
137.1310645828006
 30
0.0
 10
154.7293964299723
 20
137.7000158442558
 30
0.0
 10
154.2682737093538
 20
137.958266692739
 30
0.0
 10
153.3259966986917
 20
138.4218354611458
 30
0.0
 10
152.8442743844301
 20
138.6274914229038
 30
0.0
 10
151.8613708902369
 20
138.986648489302
 30
0.0
 10
151.3586213074164
 20
139.1403026500259
 30
0.0
 10
150.3535987132977
 20
139.3908249236095
 30
0.0
 10
149.8493705948459
 20
139.4884457234818
 30
0.0
 10
148.8460313476483
 20
139.6310899552514
 30
0.0
 10
148.3457910089426
 20
139.6758122106235
 30
0.0
 10
147.8617939082057
 20
139.6973531302308
 30
0.0
  0
SPLINE
  5
256
330
1F
100
AcDbEntity
  8
0
  6
Continuous
 62
     7
370
    25
100
AcDbSpline
210
0.0
220
0.0
230
1.0
 70
     8
 71
     3
 72
    10
 73
     6
 74
     0
 42
0.00000001
 43
0.00000001
 40
0.0
 40
0.0
 40
0.0
 40
0.0
 40
0.5000000000000002
 40
0.5000000000000002
 40
1.0
 40
1.0
 40
1.0
 40
1.0
 10
160.9488320697199
 20
130.3994915269055
 30
0.0
 10
160.6835929396542
 20
131.0877776727348
 30
0.0
 10
160.3632055689779
 20
131.7593971741017
 30
0.0
 10
159.6218340679943
 20
133.0457695779871
 30
0.0
 10
159.2000199866247
 20
133.6633720679397
 30
0.0
 10
158.7229795067045
 20
134.25416744118
 30
0.0
  0
SPLINE
  5
257
330
1F
100
AcDbEntity
  8
0
  6
Continuous
 62
     7
370
    25
100
AcDbSpline
210
0.0
220
0.0
230
1.0
 70
     8
 71
     3
 72
    18
 73
    14
 74
     0
 42
0.00000001
 43
0.00000001
 40
0.0
 40
0.0
 40
0.0
 40
0.0
 40
0.125
 40
0.125
 40
0.2500000000000001
 40
0.2500000000000001
 40
0.5000000000000001
 40
0.5000000000000001
 40
0.6250000000000001
 40
0.6250000000000001
 40
0.75
 40
0.75
 40
1.0
 40
1.0
 40
1.0
 40
1.0
 10
160.9488320697199
 20
119.6318856990707
 30
0.0
 10
161.1083391204322
 20
120.0458008447738
 30
0.0
 10
161.2508262088906
 20
120.4702295309153
 30
0.0
 10
161.4995462255555
 20
121.3415245932271
 30
0.0
 10
161.6062286298672
 20
121.7909296090577
 30
0.0
 10
161.8633003314998
 20
123.1567083177122
 30
0.0
 10
161.9508205737474
 20
124.0824239215374
 30
0.0
 10
161.9500259119734
 20
125.4949555928056
 30
0.0
 10
161.927119470713
 20
125.9720096130137
 30
0.0
 10
161.8376345977991
 20
126.9082996202959
 30
0.0
 10
161.7716762766915
 20
127.3662852421564
 30
0.0
 10
161.5154935398226
 20
128.7123439504442
 30
0.0
 10
161.2674304367999
 20
129.5727400513947
 30
0.0
 10
160.9488320697199
 20
130.3994915269055
 30
0.0
  0
SPLINE
  5
258
330
1F
100
AcDbEntity
  8
0
  6
Continuous
 62
     7
370
    25
100
AcDbSpline
210
0.0
220
0.0
230
1.0
 70
     8
 71
     3
 72
    10
 73
     6
 74
     0
 42
0.00000001
 43
0.00000001
 40
0.0
 40
0.0
 40
0.0
 40
0.0
 40
0.5
 40
0.5
 40
1.0
 40
1.0
 40
1.0
 40
1.0
 10
158.7229795067045
 20
115.777209784796
 30
0.0
 10
159.1985287105865
 20
116.3661582728754
 30
0.0
 10
159.6208645977277
 20
116.9839554449527
 30
0.0
 10
160.3638866387156
 20
118.2731318554959
 30
0.0
 10
160.6843749922026
 20
118.9456289518983
 30
0.0
 10
160.9488320697199
 20
119.6318856990707
 30
0.0
  0
LWPOLYLINE
  5
259
330
1F
100
AcDbEntity
  8
0
  6
Continuous
 62
     7
370
    25
100
AcDbPolyline
 90
        9
 70
   128
 43
0.0
 10
160.9488320697
 20
130.3994915269
 10
161.1555620408
 20
130.1965134609
 10
161.4981314746
 20
130.0522203789
 10
161.9714102013
 20
129.9687731508
 10
162.568310606
 20
129.9474214458
 10
163.2798937695
 20
129.9884850177
 10
164.0955033341
 20
130.0913489165
 10
165.002925088
 20
130.2544726973
 10
165.9885698805
 20
130.47541349
  0
SPLINE
  5
25A
330
1F
100
AcDbEntity
  8
0
  6
Continuous
 62
     7
370
    25
100
AcDbSpline
210
0.0
220
0.0
230
1.0
 70
     8
 71
     3
 72
    22
 73
    18
 74
     0
 42
0.00000001
 43
0.00000001
 40
0.0
 40
0.0
 40
0.0
 40
0.0
 40
0.2500000000000001
 40
0.2500000000000001
 40
0.3750000000000001
 40
0.3750000000000001
 40
0.4375000000000001
 40
0.4375000000000001
 40
0.5000000000000001
 40
0.5000000000000001
 40
0.6250000000000001
 40
0.6250000000000001
 40
0.7500000000000002
 40
0.7500000000000002
 40
0.8750000000000002
 40
0.8750000000000002
 40
1.0
 40
1.0
 40
1.0
 40
1.0
 10
165.9885698804877
 20
130.4754134899756
 30
0.0
 10
166.435903171836
 20
129.6377329144083
 30
0.0
 10
166.783995314481
 20
128.7656292686861
 30
0.0
 10
167.1435021570794
 20
127.4010534238158
 30
0.0
 10
167.2360664281919
 20
126.9367338541258
 30
0.0
 10
167.3302944707473
 20
126.2247749376461
 30
0.0
 10
167.3541338547515
 20
125.9850998959605
 30
0.0
 10
167.3859011122276
 20
125.5086224793219
 30
0.0
 10
167.3939787810847
 20
125.2708184233835
 30
0.0
 10
167.3951302627283
 20
124.5586914876798
 30
0.0
 10
167.3651737741705
 20
124.0856509902307
 30
0.0
 10
167.2443272498165
 20
123.1429628810884
 30
0.0
 10
167.1527907143993
 20
122.6711947575001
 30
0.0
 10
166.9113397183828
 20
121.7438684969343
 30
0.0
 10
166.7618837111071
 20
121.2893082342529
 30
0.0
 10
166.4126867421785
 20
120.4057951581965
 30
0.0
 10
166.2126056308699
 20
119.9754952127707
 30
0.0
 10
165.9885698804877
 20
119.5559637360005
 30
0.0
  0
LWPOLYLINE
  5
25B
330
1F
100
AcDbEntity
  8
0
  6
Continuous
 62
     7
370
    25
100
AcDbPolyline
 90
        9
 70
   128
 43
0.0
 10
160.9488320697
 20
119.6318856991
 10
161.1555620408
 20
119.8348637651
 10
161.4981314746
 20
119.9791568471
 10
161.9714102013
 20
120.0626040752
 10
162.568310606
 20
120.0839557802
 10
163.2798937695
 20
120.0428922082
 10
164.0955033341
 20
119.9400283095
 10
165.002925088
 20
119.7769045287
 10
165.9885698805
 20
119.555963736
  0
SPLINE
  5
25C
330
1F
100
AcDbEntity
  8
0
  6
Continuous
 62
     7
370
    25
100
AcDbSpline
210
0.0
220
0.0
230
1.0
 70
     8
 71
     3
 72
    22
 73
    18
 74
     0
 42
0.00000001
 43
0.00000001
 40
0.0
 40
0.0
 40
0.0
 40
0.0
 40
0.2500000000000001
 40
0.2500000000000001
 40
0.3750000000000001
 40
0.3750000000000001
 40
0.4375000000000001
 40
0.4375000000000001
 40
0.5000000000000001
 40
0.5000000000000001
 40
0.6250000000000001
 40
0.6250000000000001
 40
0.7500000000000002
 40
0.7500000000000002
 40
0.8750000000000002
 40
0.8750000000000002
 40
1.0
 40
1.0
 40
1.0
 40
1.0
 10
129.0244892352591
 20
130.4754134899756
 30
0.0
 10
128.5771559439108
 20
129.6377329144083
 30
0.0
 10
128.2290638012658
 20
128.7656292686861
 30
0.0
 10
127.8695569586674
 20
127.4010534238158
 30
0.0
 10
127.7769926875549
 20
126.9367338541258
 30
0.0
 10
127.6827646449995
 20
126.2247749376461
 30
0.0
 10
127.6589252609953
 20
125.9850998959605
 30
0.0
 10
127.6271580035192
 20
125.5086224793219
 30
0.0
 10
127.6190803346621
 20
125.2708184233835
 30
0.0
 10
127.6179288530185
 20
124.5586914876798
 30
0.0
 10
127.6478853415763
 20
124.0856509902307
 30
0.0
 10
127.7687318659303
 20
123.1429628810884
 30
0.0
 10
127.8602684013476
 20
122.6711947575001
 30
0.0
 10
128.101719397364
 20
121.7438684969343
 30
0.0
 10
128.2511754046397
 20
121.2893082342529
 30
0.0
 10
128.6003723735683
 20
120.4057951581965
 30
0.0
 10
128.8004534848769
 20
119.9754952127707
 30
0.0
 10
129.0244892352591
 20
119.5559637360005
 30
0.0
  0
LWPOLYLINE
  5
25D
330
1F
100
AcDbEntity
  8
0
  6
Continuous
 62
     7
370
    25
100
AcDbPolyline
 90
        9
 70
   128
 43
0.0
 10
134.064227046
 20
130.3994915269
 10
133.857497075
 20
130.1965134609
 10
133.5149276411
 20
130.0522203789
 10
133.0416489144
 20
129.9687731508
 10
132.4447485098
 20
129.9474214458
 10
131.7331653462
 20
129.9884850177
 10
130.9175557817
 20
130.0913489165
 10
130.0101340277
 20
130.2544726973
 10
129.0244892353
 20
130.47541349
  0
LWPOLYLINE
  5
25E
330
1F
100
AcDbEntity
  8
0
  6
Continuous
 62
     7
370
    25
100
AcDbPolyline
 90
        9
 70
   128
 43
0.0
 10
134.064227046
 20
119.6318856991
 10
133.857497075
 20
119.8348637651
 10
133.5149276411
 20
119.9791568471
 10
133.0416489144
 20
120.0626040752
 10
132.4447485098
 20
120.0839557802
 10
131.7331653462
 20
120.0428922082
 10
130.9175557817
 20
119.9400283095
 10
130.0101340277
 20
119.7769045287
 10
129.0244892353
 20
119.555963736
  0
SPLINE
  5
25F
330
1F
100
AcDbEntity
  8
0
  6
Continuous
 62
     7
370
    25
100
AcDbSpline
210
0.0
220
0.0
230
1.0
 70
     8
 71
     3
 72
    14
 73
    10
 74
     0
 42
0.00000001
 43
0.00000001
 40
0.0
 40
0.0
 40
0.0
 40
0.0
 40
0.2500000000000001
 40
0.2500000000000001
 40
0.5000000000000002
 40
0.5000000000000002
 40
0.7500000000000001
 40
0.7500000000000001
 40
1.0
 40
1.0
 40
1.0
 40
1.0
 10
135.1198384095753
 20
134.3710407167477
 30
0.0
 10
134.6367539596734
 20
133.9876431840077
 30
0.0
 10
134.1592749490806
 20
133.6049164925092
 30
0.0
 10
133.1983796349496
 20
132.8660293246401
 30
0.0
 10
132.7147571153753
 20
132.5101366440337
 30
0.0
 10
131.7214905430398
 20
131.8439469905989
 30
0.0
 10
131.2116872751618
 20
131.533711870132
 30
0.0
 10
130.1494323679879
 20
130.9653483128475
 30
0.0
 10
129.5965169478062
 20
130.7071202743373
 30
0.0
 10
129.0244892352591
 20
130.4754134899756
 30
0.0
  0
ARC
  5
260
330
1F
100
AcDbEntity
  8
0
  6
Continuous
 62
     7
370
    25
100
AcDbCircle
 10
135.832706074
 20
135.5917235141
 30
0.0
 40
1.413593576234132
100
AcDbArc
 50
239.7154597792
 51
288.8779787662
  0
ARC
  5
261
330
1F
100
AcDbEntity
  8
0
  6
Continuous
 62
     7
370
    25
100
AcDbCircle
 10
159.1803530417
 20
135.5917235141
 30
0.0
 40
1.413593576234195
100
AcDbArc
 50
251.1220212338
 51
300.2845402208
  0
SPLINE
  5
262
330
1F
100
AcDbEntity
  8
0
  6
Continuous
 62
     7
370
    25
100
AcDbSpline
210
0.0
220
0.0
230
1.0
 70
     8
 71
     3
 72
    14
 73
    10
 74
     0
 42
0.00000001
 43
0.00000001
 40
0.0
 40
0.0
 40
0.0
 40
0.0
 40
0.2500000000000001
 40
0.2500000000000001
 40
0.5000000000000002
 40
0.5000000000000002
 40
0.7500000000000001
 40
0.7500000000000001
 40
1.0
 40
1.0
 40
1.0
 40
1.0
 10
159.8932207061715
 20
134.3710407167477
 30
0.0
 10
160.3763051560734
 20
133.9876431840077
 30
0.0
 10
160.8537841666662
 20
133.6049164925092
 30
0.0
 10
161.8146794807972
 20
132.8660293246401
 30
0.0
 10
162.2983020003715
 20
132.5101366440337
 30
0.0
 10
163.291568572707
 20
131.8439469905989
 30
0.0
 10
163.801371840585
 20
131.533711870132
 30
0.0
 10
164.8636267477589
 20
130.9653483128475
 30
0.0
 10
165.4165421679407
 20
130.7071202743373
 30
0.0
 10
165.9885698804877
 20
130.4754134899756
 30
0.0
  0
SPLINE
  5
263
330
1F
100
AcDbEntity
  8
0
  6
Continuous
 62
     7
370
    25
100
AcDbSpline
210
0.0
220
0.0
230
1.0
 70
     8
 71
     3
 72
    14
 73
    10
 74
     0
 42
0.00000001
 43
0.00000001
 40
0.0
 40
0.0
 40
0.0
 40
0.0
 40
0.25
 40
0.25
 40
0.5
 40
0.5
 40
0.75
 40
0.75
 40
1.0
 40
1.0
 40
1.0
 40
1.0
 10
129.0244892352591
 20
119.5559637360005
 30
0.0
 10
129.5949073038221
 20
119.3249089575178
 30
0.0
 10
130.1428517323486
 20
119.0691880267867
 30
0.0
 10
131.202687760531
 20
118.5028371796786
 30
0.0
 10
131.7156322058758
 20
118.1911911001113
 30
0.0
 10
132.7125958747843
 20
117.5228571458613
 30
0.0
 10
133.1971804729471
 20
117.1662553514249
 30
0.0
 10
134.1591212924683
 20
116.4265935221151
 30
0.0
 10
134.6366830737988
 20
116.0437903001845
 30
0.0
 10
135.1198384095753
 20
115.6603365092283
 30
0.0
  0
ARC
  5
264
330
1F
100
AcDbEntity
  8
0
  6
Continuous
 62
     7
370
    25
100
AcDbCircle
 10
135.832706074
 20
114.4396537119
 30
0.0
 40
1.413593576234305
100
AcDbArc
 50
71.1220212338
 51
120.2845402208
  0
SPLINE
  5
265
330
1F
100
AcDbEntity
  8
0
  6
Continuous
 62
     7
370
    25
100
AcDbSpline
210
0.0
220
0.0
230
1.0
 70
     8
 71
     3
 72
    14
 73
    10
 74
     0
 42
0.00000001
 43
0.00000001
 40
0.0
 40
0.0
 40
0.0
 40
0.0
 40
0.25
 40
0.25
 40
0.5
 40
0.5
 40
0.75
 40
0.75
 40
1.0
 40
1.0
 40
1.0
 40
1.0
 10
165.9885698804877
 20
119.5559637360005
 30
0.0
 10
165.4181518119247
 20
119.3249089575178
 30
0.0
 10
164.8702073833982
 20
119.0691880267867
 30
0.0
 10
163.8103713552158
 20
118.5028371796786
 30
0.0
 10
163.297426909871
 20
118.1911911001113
 30
0.0
 10
162.3004632409625
 20
117.5228571458613
 30
0.0
 10
161.8158786427997
 20
117.1662553514249
 30
0.0
 10
160.8539378232785
 20
116.4265935221151
 30
0.0
 10
160.3763760419481
 20
116.0437903001845
 30
0.0
 10
159.8932207061715
 20
115.6603365092283
 30
0.0
  0
ARC
  5
266
330
1F
100
AcDbEntity
  8
0
  6
Continuous
 62
     7
370
    25
100
AcDbCircle
 10
159.1803530417
 20
114.4396537119
 30
0.0
 40
1.413593576234393
100
AcDbArc
 50
59.7154597792
 51
108.8779787662
  0
SPLINE
  5
267
330
1F
100
AcDbEntity
  8
0
  6
Continuous
 62
     7
370
    25
100
AcDbSpline
210
0.0
220
0.0
230
1.0
 70
     8
 71
     3
 72
    22
 73
    18
 74
     0
 42
0.00000001
 43
0.00000001
 40
0.0
 40
0.0
 40
0.0
 40
0.0
 40
0.0625
 40
0.0625
 40
0.1249999999999999
 40
0.1249999999999999
 40
0.2499999999999999
 40
0.2499999999999999
 40
0.3749999999999999
 40
0.3749999999999999
 40
0.5
 40
0.5
 40
0.6249999999999999
 40
0.6249999999999999
 40
0.7499999999999999
 40
0.7499999999999999
 40
1.0
 40
1.0
 40
1.0
 40
1.0
 10
146.9095051321433
 20
139.742895430883
 30
0.0
 10
146.6402864970016
 20
139.734105217793
 30
0.0
 10
146.3697139521904
 20
139.71889465944
 30
0.0
 10
145.8285959745113
 20
139.6749533238806
 30
0.0
 10
145.5579834657082
 20
139.6462453465359
 30
0.0
 10
144.747579808541
 20
139.5396129254674
 30
0.0
 10
144.2092731631733
 20
139.4412083882605
 30
0.0
 10
143.1396706123379
 20
139.188954810996
 30
0.0
 10
142.6076572403719
 20
139.034920038283
 30
0.0
 10
141.5542087456978
 20
138.6707385812387
 30
0.0
 10
141.0397396063962
 20
138.4630862843771
 30
0.0
 10
140.0344043997619
 20
137.9987620066879
 30
0.0
 10
139.5435426238551
 20
137.7420757063597
 30
0.0
 10
138.5847979971133
 20
137.1807939062042
 30
0.0
 10
138.1153265104695
 20
136.8749870085475
 30
0.0
 10
136.7526529692607
 20
135.895641592101
 30
0.0
 10
135.9106242593544
 20
135.1637662085639
 30
0.0
 10
135.1198384095734
 20
134.3710407167492
 30
0.0
  0
ARC
  5
268
330
1F
100
AcDbEntity
  8
0
  6
Continuous
 62
     7
370
    25
100
AcDbCircle
 10
147.2409765197
 20
140.8380427846
 30
0.0
 40
1.144211958953455
100
AcDbArc
 50
253.1603603342
 51
265.5031405033
  0
ARC
  5
269
330
1F
100
AcDbEntity
  8
0
  6
Continuous
 62
     7
370
    25
100
AcDbCircle
 10
147.7720825961
 20
140.8380427846
 30
0.0
 40
1.14421195895351
100
AcDbArc
 50
274.4968594967
 51
286.8396396658
  0
SPLINE
  5
26A
330
1F
100
AcDbEntity
  8
0
  6
Continuous
 62
     7
370
    25
100
AcDbSpline
210
0.0
220
0.0
230
1.0
 70
     8
 71
     3
 72
    22
 73
    18
 74
     0
 42
0.00000001
 43
0.00000001
 40
0.0
 40
0.0
 40
0.0
 40
0.0
 40
0.0625
 40
0.0625
 40
0.1249999999999999
 40
0.1249999999999999
 40
0.2499999999999999
 40
0.2499999999999999
 40
0.3749999999999999
 40
0.3749999999999999
 40
0.5
 40
0.5
 40
0.6249999999999999
 40
0.6249999999999999
 40
0.7499999999999999
 40
0.7499999999999999
 40
1.0
 40
1.0
 40
1.0
 40
1.0
 10
148.1035539836035
 20
139.742895430883
 30
0.0
 10
148.3727726187452
 20
139.734105217793
 30
0.0
 10
148.6433451635564
 20
139.71889465944
 30
0.0
 10
149.1844631412355
 20
139.6749533238806
 30
0.0
 10
149.4550756500386
 20
139.6462453465359
 30
0.0
 10
150.2654793072058
 20
139.5396129254674
 30
0.0
 10
150.8037859525735
 20
139.4412083882605
 30
0.0
 10
151.8733885034089
 20
139.188954810996
 30
0.0
 10
152.4054018753749
 20
139.034920038283
 30
0.0
 10
153.458850370049
 20
138.6707385812387
 30
0.0
 10
153.9733195093507
 20
138.4630862843771
 30
0.0
 10
154.9786547159849
 20
137.9987620066879
 30
0.0
 10
155.4695164918917
 20
137.7420757063597
 30
0.0
 10
156.4282611186335
 20
137.1807939062042
 30
0.0
 10
156.8977326052774
 20
136.8749870085475
 30
0.0
 10
158.2604061464861
 20
135.895641592101
 30
0.0
 10
159.1024348563924
 20
135.1637662085639
 30
0.0
 10
159.8932207061734
 20
134.3710407167492
 30
0.0
  0
ARC
  5
26B
330
1F
100
AcDbEntity
  8
0
  6
Continuous
 62
     7
370
    25
100
AcDbCircle
 10
149.7428720982
 20
128.0769702655
 30
0.0
 40
11.94340402517791
100
AcDbArc
 50
31.8023960484
 51
88.3950039333
  0
SPLINE
  5
26C
330
1F
100
AcDbEntity
  8
0
  6
Continuous
 62
     7
370
    25
100
AcDbSpline
210
0.0
220
0.0
230
1.0
 70
     8
 71
     3
 72
     8
 73
     4
 74
     0
 42
0.00000001
 43
0.00000001
 40
0.0
 40
0.0
 40
0.0
 40
0.0
 40
1.0
 40
1.0
 40
1.0
 40
1.0
 10
150.0773925419402
 20
140.015688612988
 30
0.0
 10
149.2988106768409
 20
140.015688612988
 30
0.0
 10
148.6465232351374
 20
139.928810945863
 30
0.0
 10
148.1035539836035
 20
139.742895430883
 30
0.0
  0
ARC
  5
26D
330
1F
100
AcDbEntity
  8
0
  6
Continuous
 62
     7
370
    25
100
AcDbCircle
 10
145.2701870175
 20
128.0769702655
 30
0.0
 40
11.94340402517789
100
AcDbArc
 50
91.6049960667
 51
148.1976039516
  0
SPLINE
  5
26E
330
1F
100
AcDbEntity
  8
0
  6
Continuous
 62
     7
370
    25
100
AcDbSpline
210
0.0
220
0.0
230
1.0
 70
     8
 71
     3
 72
     8
 73
     4
 74
     0
 42
0.00000001
 43
0.00000001
 40
0.0
 40
0.0
 40
0.0
 40
0.0
 40
1.0
 40
1.0
 40
1.0
 40
1.0
 10
144.9356665738066
 20
140.015688612988
 30
0.0
 10
145.7142484389059
 20
140.015688612988
 30
0.0
 10
146.3665358806095
 20
139.928810945863
 30
0.0
 10
146.9095051321433
 20
139.742895430883
 30
0.0
  0
LWPOLYLINE
  5
26F
330
1F
100
AcDbEntity
  8
0
  6
Continuous
 62
     7
370
    25
100
AcDbPolyline
 90
        9
 70
   128
 43
0.0
 10
135.3810907493
 20
140.015688613
 10
134.3626850265
 20
139.8477427858
 10
133.3670842359
 20
139.3476660777
 10
132.4165826439
 20
138.5266565948
 10
131.5324646207
 20
137.4030990194
 10
130.7345280241
 20
136.0021529257
 10
130.0406408701
 20
134.3551893871
 10
129.4663412192
 20
132.4990884907
 10
129.0244892353
 20
130.47541349
  0
LINE
  5
270
330
1F
100
AcDbEntity
  8
0
  6
Continuous
 62
     7
370
    25
100
AcDbLine
 10
135.3810907493
 20
140.015688613
 30
0.0
 11
144.9356665738
 21
140.015688613
 31
0.0
  0
LINE
  5
271
330
1F
100
AcDbEntity
  8
0
  6
Continuous
 62
     7
370
    25
100
AcDbLine
 10
135.3810907493
 20
110.015688613
 30
0.0
 11
138.9065295579
 21
110.015688613
 31
0.0
  0
LWPOLYLINE
  5
272
330
1F
100
AcDbEntity
  8
0
  6
Continuous
 62
     7
370
    25
100
AcDbPolyline
 90
        9
 70
   128
 43
0.0
 10
129.0244892353
 20
119.555963736
 10
129.4663412192
 20
117.5322887353
 10
130.0406408701
 20
115.6761878389
 10
130.7345280241
 20
114.0292243003
 10
131.5324646207
 20
112.6282782066
 10
132.4165826439
 20
111.5047206312
 10
133.3670842359
 20
110.6837111483
 10
134.3626850265
 20
110.1836344402
 10
135.3810907493
 20
110.015688613
  0
LINE
  5
273
330
1F
100
AcDbEntity
  8
0
  6
Continuous
 62
     7
370
    25
100
AcDbLine
 10
159.6319683665
 20
140.015688613
 30
0.0
 11
150.0773925419
 21
140.015688613
 31
0.0
  0
LWPOLYLINE
  5
274
330
1F
100
AcDbEntity
  8
0
  6
Continuous
 62
     7
370
    25
100
AcDbPolyline
 90
        9
 70
   128
 43
0.0
 10
159.6319683665
 20
140.015688613
 10
160.6503740893
 20
139.8477427858
 10
161.6459748799
 20
139.3476660777
 10
162.5964764718
 20
138.5266565948
 10
163.480594495
 20
137.4030990194
 10
164.2785310917
 20
136.0021529257
 10
164.9724182456
 20
134.3551893871
 10
165.5467178965
 20
132.4990884907
 10
165.9885698805
 20
130.47541349
  0
LINE
  5
275
330
1F
100
AcDbEntity
  8
0
  6
Continuous
 62
     7
370
    25
100
AcDbLine
 10
159.6319683665
 20
110.015688613
 30
0.0
 11
156.1065295579
 21
110.015688613
 31
0.0
  0
LWPOLYLINE
  5
276
330
1F
100
AcDbEntity
  8
0
  6
Continuous
 62
     7
370
    25
100
AcDbPolyline
 90
        9
 70
   128
 43
0.0
 10
165.9885698805
 20
119.555963736
 10
165.5467178965
 20
117.5322887353
 10
164.9724182456
 20
115.6761878389
 10
164.2785310917
 20
114.0292243003
 10
163.480594495
 20
112.6282782066
 10
162.5964764718
 20
111.5047206312
 10
161.6459748799
 20
110.6837111483
 10
160.6503740893
 20
110.1836344402
 10
159.6319683665
 20
110.015688613
  0
SPLINE
  5
277
330
1F
100
AcDbEntity
  8
0
  6
Continuous
 62
     7
370
    25
100
AcDbSpline
210
0.0
220
0.0
230
1.0
 70
     8
 71
     3
 72
    10
 73
     6
 74
     0
 42
0.00000001
 43
0.00000001
 40
0.0
 40
0.0
 40
0.0
 40
0.0
 40
0.5
 40
0.5
 40
1.0
 40
1.0
 40
1.0
 40
1.0
 10
146.9095051321433
 20
139.742895430883
 30
0.0
 10
147.1045023367172
 20
139.7487908704809
 30
0.0
 10
147.3032117894692
 20
139.7519555510973
 30
0.0
 10
147.7096933976757
 20
139.7519571481136
 30
0.0
 10
147.9085506149875
 20
139.7487910568412
 30
0.0
 10
148.1035539836035
 20
139.742895430883
 30
0.0
  0
LINE
  5
278
330
1F
100
AcDbEntity
  8
0
  6
Continuous
 62
     7
370
    25
100
AcDbLine
 10
150.0773925419
 20
140.015688613
 30
0.0
 11
144.9356665738
 21
140.015688613
 31
0.0
  0
LINE
  5
279
330
1F
100
AcDbEntity
  8
0
  6
Continuous
 62
     7
370
    25
100
AcDbLine
 10
126.8175605572
 20
110.015688613
 30
0.0
 11
135.3810907493
 21
110.015688613
 31
0.0
  0
LWPOLYLINE
  5
27A
330
1F
100
AcDbEntity
  8
0
  6
Continuous
 62
     7
370
    25
100
AcDbPolyline
 90
       21
 70
   128
 43
0.0
 10
126.8175605572
 20
140.015688613
 10
125.7499365202
 20
139.8310137219
 10
124.7086009302
 20
139.2815363574
 10
123.7191949255
 20
138.3807864758
 10
122.8060809655
 20
137.1509435286
 10
121.9917429464
 20
135.6222903308
 10
121.2962325728
 20
133.8324673974
 10
120.7366756185
 20
131.8255461091
 10
120.3268502326
 20
129.6509435286
 10
120.0768476764
 20
127.3622055886
 10
119.9928238424
 20
125.015688613
 10
120.0768476764
 20
122.6691716374
 10
120.3268502326
 20
120.3804336974
 10
120.7366756185
 20
118.2058311169
 10
121.2962325728
 20
116.1989098286
 10
121.9917429464
 20
114.4090868952
 10
122.8060809655
 20
112.8804336974
 10
123.7191949255
 20
111.6505907502
 10
124.7086009302
 20
110.7498408686
 10
125.7499365202
 20
110.2003635041
 10
126.8175605572
 20
110.015688613
  0
LINE
  5
27B
330
1F
100
AcDbEntity
  8
0
  6
Continuous
 62
     7
370
    25
100
AcDbLine
 10
126.8175605572
 20
140.015688613
 30
0.0
 11
135.3810907493
 21
140.015688613
 31
0.0
  0
LINE
  5
27C
330
1F
100
AcDbEntity
  8
0
  6
Continuous
 62
     7
370
    25
100
AcDbLine
 10
168.1954985585
 20
140.015688613
 30
0.0
 11
159.6319683665
 21
140.015688613
 31
0.0
  0
LWPOLYLINE
  5
27D
330
1F
100
AcDbEntity
  8
0
  6
Continuous
 62
     7
370
    25
100
AcDbPolyline
 90
       21
 70
   128
 43
0.0
 10
168.1954985585
 20
140.015688613
 10
169.2631225955
 20
139.8310137219
 10
170.3044581855
 20
139.2815363574
 10
171.2938641903
 20
138.3807864758
 10
172.2069781503
 20
137.1509435286
 10
173.0213161694
 20
135.6222903308
 10
173.7168265429
 20
133.8324673974
 10
174.2763834973
 20
131.8255461091
 10
174.6862088831
 20
129.6509435286
 10
174.9362114394
 20
127.3622055886
 10
175.0202352733
 20
125.015688613
 10
174.9362114394
 20
122.6691716374
 10
174.6862088831
 20
120.3804336974
 10
174.2763834973
 20
118.2058311169
 10
173.7168265429
 20
116.1989098286
 10
173.0213161694
 20
114.4090868952
 10
172.2069781503
 20
112.8804336974
 10
171.2938641903
 20
111.6505907502
 10
170.3044581855
 20
110.7498408686
 10
169.2631225955
 20
110.2003635041
 10
168.1954985585
 20
110.015688613
  0
LINE
  5
27E
330
1F
100
AcDbEntity
  8
0
  6
Continuous
 62
     7
370
    25
100
AcDbLine
 10
168.1954985585
 20
110.015688613
 30
0.0
 11
159.6319683665
 21
110.015688613
 31
0.0
  0
LINE
  5
27F
330
1F
100
AcDbEntity
  8
0
  6
Continuous
 62
     7
370
    25
100
AcDbLine
 10
110.8931748893
 20
110.015688613
 30
0.0
 11
126.8175605572
 21
110.015688613
 31
0.0
  0
LINE
  5
280
330
1F
100
AcDbEntity
  8
0
  6
Continuous
 62
     7
370
    25
100
AcDbLine
 10
110.8931748893
 20
140.015688613
 30
0.0
 11
110.8931748893
 21
110.015688613
 31
0.0
  0
LINE
  5
281
330
1F
100
AcDbEntity
  8
0
  6
Continuous
 62
     7
370
    25
100
AcDbLine
 10
110.8931748893
 20
140.015688613
 30
0.0
 11
126.8175605572
 21
140.015688613
 31
0.0
  0
LINE
  5
282
330
1F
100
AcDbEntity
  8
0
  6
Continuous
 62
     7
370
    25
100
AcDbLine
 10
184.1198842265
 20
140.015688613
 30
0.0
 11
168.1954985585
 21
140.015688613
 31
0.0
  0
LINE
  5
283
330
1F
100
AcDbEntity
  8
0
  6
Continuous
 62
     7
370
    25
100
AcDbLine
 10
184.1198842265
 20
140.015688613
 30
0.0
 11
184.1198842265
 21
110.015688613
 31
0.0
  0
LINE
  5
284
330
1F
100
AcDbEntity
  8
0
  6
Continuous
 62
     7
370
    25
100
AcDbLine
 10
184.1198842265
 20
110.015688613
 30
0.0
 11
168.1954985585
 21
110.015688613
 31
0.0
  0
LINE
  5
285
330
1F
100
AcDbEntity
  8
0
  6
Continuous
 62
     7
370
    25
100
AcDbLine
 10
106.3065295579
 20
140.015688613
 30
0.0
 11
110.8931748893
 21
140.015688613
 31
0.0
  0
LINE
  5
286
330
1F
100
AcDbEntity
  8
0
  6
Continuous
 62
     7
370
    25
100
AcDbLine
 10
106.3065295579
 20
110.015688613
 30
0.0
 11
110.8931748893
 21
110.015688613
 31
0.0
  0
LINE
  5
287
330
1F
100
AcDbEntity
  8
0
  6
Continuous
 62
     7
370
    25
100
AcDbLine
 10
106.3065295579
 20
110.015688613
 30
0.0
 11
106.3065295579
 21
140.015688613
 31
0.0
  0
LINE
  5
288
330
1F
100
AcDbEntity
  8
0
  6
Continuous
 62
     7
370
    25
100
AcDbLine
 10
188.7065295579
 20
140.015688613
 30
0.0
 11
184.1198842265
 21
140.015688613
 31
0.0
  0
LINE
  5
289
330
1F
100
AcDbEntity
  8
0
  6
Continuous
 62
     7
370
    25
100
AcDbLine
 10
188.7065295579
 20
110.015688613
 30
0.0
 11
184.1198842265
 21
110.015688613
 31
0.0
  0
LINE
  5
28A
330
1F
100
AcDbEntity
  8
0
  6
Continuous
 62
     7
370
    25
100
AcDbLine
 10
188.7065295579
 20
110.015688613
 30
0.0
 11
188.7065295579
 21
140.015688613
 31
0.0
  0
SPLINE
  5
28B
330
1F
100
AcDbEntity
  8
0
  6
Continuous
 62
     7
370
    25
100
AcDbSpline
210
0.0
220
0.0
230
1.0
 70
     8
 71
     3
 72
    21
 73
    17
 74
     0
 42
0.00000001
 43
0.00000001
 40
0.0
 40
0.0
 40
0.0
 40
0.0
 40
0.0744253596644119
 40
0.1594654728433945
 40
0.2430537979151431
 40
0.3266421229868915
 40
0.4116822361658743
 40
0.4952705612376228
 40
0.5788588863093712
 40
0.6638989994883542
 40
0.7474873245601026
 40
0.8166848884187198
 40
0.8872233607816257
 40
0.957440166279335
 40
0.9999794898814968
 40
1.0
 40
1.0
 40
1.0
 40
1.0
 10
191.3310482517455
 20
111.3781288505283
 30
0.0
 10
191.3130260321567
 20
111.4612017714912
 30
0.0
 10
191.2744112134796
 20
111.6391957063752
 30
0.0
 10
191.2113025305853
 20
113.0391419019067
 30
0.0
 10
191.1502827617283
 20
115.223011860297
 30
0.0
 10
191.0892436708123
 20
118.0931978195694
 30
0.0
 10
191.023814470197
 20
121.4321736681137
 30
0.0
 10
190.9627811358839
 20
125.0157176245367
 30
0.0
 10
190.9017382910545
 20
128.5990865039045
 30
0.0
 10
190.836337952351
 20
131.9385936651998
 30
0.0
 10
190.7786830771186
 20
134.6432018463655
 30
0.0
 10
190.7249596198821
 20
136.6348772780845
 30
0.0
 10
190.6712885060988
 20
137.9922319057202
 30
0.0
 10
190.6245613536185
 20
138.5371627293226
 30
0.0
 10
190.598191375389
 20
138.781992847226
 30
0.0
 10
190.5877695151803
 20
138.7037143933846
 30
0.0
 10
190.5877644927549
 20
138.7036766700143
 30
0.0
  0
SPLINE
  5
28C
330
1F
100
AcDbEntity
  8
0
  6
Continuous
 62
     7
370
    25
100
AcDbSpline
210
0.0
220
0.0
230
1.0
 70
     8
 71
     3
 72
    18
 73
    14
 74
     0
 42
0.00000001
 43
0.00000001
 40
0.0
 40
0.0
 40
0.0
 40
0.0
 40
0.0625083500006682
 40
0.1648649420355359
 40
0.2689991730679214
 40
0.3713557651027889
 40
0.4728317362466123
 40
0.5760852167264459
 40
0.6802030526311135
 40
0.7825596446659812
 40
0.8866938756983663
 40
0.9890504677332339
 40
1.0
 40
1.0
 40
1.0
 40
1.0
 10
191.6565295578734
 20
113.3621258376338
 30
0.0
 10
191.6439992031078
 20
113.8046892365168
 30
0.0
 10
191.6109505590131
 20
114.9719443168879
 30
0.0
 10
191.5580608792471
 20
117.703046084477
 30
0.0
 10
191.4925483203119
 20
121.2141614146015
 30
0.0
 10
191.4317032552314
 20
125.0064971112022
 30
0.0
 10
191.3710339154989
 20
128.7781139400073
 30
0.0
 10
191.3056291413926
 20
132.3226786900981
 30
0.0
 10
191.2443596680072
 20
135.3673803103021
 30
0.0
 10
191.1830241947779
 20
137.7347371020509
 30
0.0
 10
191.1174625379252
 20
139.1200375494716
 30
0.0
 10
191.0748245867791
 20
139.6782711367238
 30
0.0
 10
191.0521517451686
 20
139.4823725777179
 30
0.0
 10
191.0499607161106
 20
139.463441583422
 30
0.0
  0
LINE
  5
28D
330
1F
100
AcDbEntity
  8
0
  6
Continuous
 62
     7
370
    25
100
AcDbLine
 10
105.1752795558
 20
111.3275874255
 30
0.0
 11
105.5502795558
 21
111.3275874255
 31
0.0
  0
LINE
  5
28E
330
1F
100
AcDbEntity
  8
0
  6
Continuous
 62
     7
370
    25
100
AcDbLine
 10
104.7065295579
 20
110.515688613
 30
0.0
 11
105.1752795558
 21
111.3275874255
 31
0.0
  0
SPLINE
  5
28F
330
1F
100
AcDbEntity
  8
0
  6
Continuous
 62
     7
370
    25
100
AcDbSpline
210
0.0
220
0.0
230
1.0
 70
     8
 71
     3
 72
    18
 73
    14
 74
     0
 42
0.00000001
 43
0.00000001
 40
0.0
 40
0.0
 40
0.0
 40
0.0
 40
0.0569447277585363
 40
0.1507614687560893
 40
0.2445782097536427
 40
0.3400242771492495
 40
0.4338410181468028
 40
0.5276577591443558
 40
0.6231038265399628
 40
0.7169205675375162
 40
0.8099301629352225
 40
0.9045689658892275
 40
1.0
 40
1.0
 40
1.0
 40
1.0
 10
104.6065295578734
 20
111.5951410779876
 30
0.0
 10
104.619477053897
 20
111.8574137428004
 30
0.0
 10
104.6537556182885
 20
112.5517820138967
 30
0.0
 10
104.7065424575768
 20
114.6715927096209
 30
0.0
 10
104.7675610951064
 20
117.6745505246892
 30
0.0
 10
104.8329954407344
 20
121.2217561954962
 30
0.0
 10
104.8940292027319
 20
125.0151390606758
 30
0.0
 10
104.9550650831911
 20
128.8118383280083
 30
0.0
 10
105.0204929998511
 20
132.3489795996624
 30
0.0
 10
105.0813608565755
 20
135.3796969877957
 30
0.0
 10
105.1420226644875
 20
137.6870390984773
 30
0.0
 10
105.2074351524029
 20
139.2214971166521
 30
0.0
 10
105.2484411142587
 20
139.4173526653381
 30
0.0
 10
105.2690295537767
 20
139.515688612988
 30
0.0
  0
LINE
  5
290
330
1F
100
AcDbEntity
  8
0
  6
Continuous
 62
     7
370
    25
100
AcDbLine
 10
106.0125572484
 20
110.5671678145
 30
0.0
 11
106.0190295538
 21
110.515688613
 31
0.0
  0
LINE
  5
291
330
1F
100
AcDbEntity
  8
0
  6
Continuous
 62
     7
370
    25
100
AcDbLine
 10
105.5502795558
 20
111.3275874255
 30
0.0
 11
106.0190295538
 21
110.515688613
 31
0.0
  0
SPLINE
  5
292
330
1F
100
AcDbEntity
  8
0
  6
Continuous
 62
     7
370
    25
100
AcDbSpline
210
0.0
220
0.0
230
1.0
 70
     8
 71
     3
 72
    14
 73
    10
 74
     0
 42
0.00000001
 43
0.00000001
 40
0.0
 40
0.0
 40
0.0
 40
0.0
 40
0.0918965940499276
 40
0.2423760614181666
 40
0.3954689234315532
 40
0.545948390799793
 40
0.6951332188673903
 40
0.8469312509612344
 40
0.9999999999999999
 40
0.9999999999999999
 40
0.9999999999999999
 40
0.9999999999999999
 10
191.6565295578734
 20
122.736796114108
 30
0.0
 10
191.6439992054403
 20
123.4946394961065
 30
0.0
 10
191.6109505652561
 20
125.4934414756536
 30
0.0
 10
191.5580608582381
 20
128.8156176682965
 30
0.0
 10
191.4925484181444
 20
132.3479786996747
 30
0.0
 10
191.4317029172078
 20
135.3799604240104
 30
0.0
 10
191.3710351897578
 20
137.6869677539965
 30
0.0
 10
191.3056242841001
 20
139.22151525708
 30
0.0
 10
191.2646181087035
 20
139.4173587289266
 30
0.0
 10
191.2440295619701
 20
139.515688612988
 30
0.0
  0
SPLINE
  5
293
330
1F
100
AcDbEntity
  8
0
  6
Continuous
 62
     7
370
    25
100
AcDbSpline
210
0.0
220
0.0
230
1.0
 70
     8
 71
     3
 72
    20
 73
    16
 74
     0
 42
0.00000001
 43
0.00000001
 40
0.0
 40
0.0
 40
0.0
 40
0.0
 40
0.0086573631120543
 40
0.0907937671802663
 40
0.1743566438584473
 40
0.2564930479266593
 40
0.3386294519948715
 40
0.4221923286730523
 40
0.5043287327412644
 40
0.5864651368094763
 40
0.6700280134876573
 40
0.7521644175558696
 40
0.8335941669649454
 40
0.9164502849382269
 40
1.0
 40
1.0
 40
1.0
 40
1.0
 10
190.500501867316
 20
110.5671678144942
 30
0.0
 10
190.4983430574711
 20
110.5485345774086
 30
0.0
 10
190.4757026211267
 20
110.3531192104121
 30
0.0
 10
190.4330959390468
 20
110.9115262868254
 30
0.0
 10
190.3675377762698
 20
112.2965538454832
 30
0.0
 10
190.3065367011115
 20
114.6507307767595
 30
0.0
 10
190.2454925431326
 20
117.6802518534427
 30
0.0
 10
190.1800651252659
 20
121.2202466820008
 30
0.0
 10
190.1190295274569
 20
125.0155403732712
 30
0.0
 10
190.0579941379263
 20
128.8117286518358
 30
0.0
 10
189.99256608799
 20
132.3490086457052
 30
0.0
 10
189.9316982665161
 20
135.3796893428964
 30
0.0
 10
189.8710364492702
 20
137.6870411688888
 30
0.0
 10
189.8056239638498
 20
139.2214965902183
 30
0.0
 10
189.7646180016572
 20
139.4173524893732
 30
0.0
 10
189.7440295619701
 20
139.515688612988
 30
0.0
  0
LINE
  5
294
330
1F
100
AcDbEntity
  8
0
  6
Continuous
 62
     7
370
    25
100
AcDbLine
 10
189.0005018673
 20
110.5671678145
 30
0.0
 11
188.994029562
 21
110.515688613
 31
0.0
  0
SPLINE
  5
295
330
1F
100
AcDbEntity
  8
0
  6
Continuous
 62
     7
370
    25
100
AcDbSpline
210
0.0
220
0.0
230
1.0
 70
     8
 71
     3
 72
    20
 73
    16
 74
     0
 42
0.00000001
 43
0.00000001
 40
0.0
 40
0.0
 40
0.0
 40
0.0
 40
0.0835700848942303
 40
0.1686020731605486
 40
0.2521824120265458
 40
0.3213733646032422
 40
0.3919050975709871
 40
0.462115194406269
 40
0.504650453711282
 40
0.5882307925772794
 40
0.6732627808435979
 40
0.7568431197095947
 40
0.840423458575592
 40
0.9254554468419106
 40
0.9999999999999999
 40
0.9999999999999999
 40
0.9999999999999999
 40
0.9999999999999999
 10
190.9627720264175
 20
111.3276439901308
 30
0.0
 10
190.9425445506604
 20
111.4174691772402
 30
0.0
 10
190.9017357570381
 20
111.5986908762231
 30
0.0
 10
190.8363392585818
 20
113.0357716692596
 30
0.0
 10
190.7786782156843
 20
115.0995286336661
 30
0.0
 10
190.7249745300308
 20
117.5860237851365
 30
0.0
 10
190.6712313767497
 20
120.2711224306237
 30
0.0
 10
190.6247381289836
 20
122.8148421128467
 30
0.0
 10
190.5781261057123
 20
125.5963936362464
 30
0.0
 10
190.5266476219722
 20
128.6000638038585
 30
0.0
 10
190.4613411264104
 20
131.9379548341442
 30
0.0
 10
190.4002695759887
 20
134.8084134261016
 30
0.0
 10
190.3392582759734
 20
136.9922659851852
 30
0.0
 10
190.2761153472724
 20
138.3927424247572
 30
0.0
 10
190.2374705814964
 20
138.5707777363745
 30
0.0
 10
190.2194180734588
 20
138.6539451156924
 30
0.0
  0
SPLINE
  5
296
330
1F
100
AcDbEntity
  8
0
  6
Continuous
 62
     7
370
    25
100
AcDbSpline
210
0.0
220
0.0
230
1.0
 70
     8
 71
     3
 72
    11
 73
     7
 74
     0
 42
0.00000001
 43
0.00000001
 40
0.0
 40
0.0
 40
0.0
 40
0.0
 40
0.0338029119390425
 40
0.3659139339879673
 40
0.7037931638778587
 40
0.9999999999999999
 40
0.9999999999999999
 40
0.9999999999999999
 40
0.9999999999999999
 10
104.6065295578734
 20
134.4079230429694
 30
0.0
 10
104.6086141967012
 20
134.5043885635209
 30
0.0
 10
104.6311802524242
 20
135.5486204386577
 30
0.0
 10
104.6737002932174
 20
136.952650549594
 30
0.0
 10
104.7369654785939
 20
138.4012962317816
 30
0.0
 10
104.7755954467893
 20
138.5735012830228
 30
0.0
 10
104.793641042288
 20
138.6539451156924
 30
0.0
  0
LINE
  5
297
330
1F
100
AcDbEntity
  8
0
  6
Continuous
 62
     7
370
    25
100
AcDbLine
 10
190.3065295579
 20
110.515688613
 30
0.0
 11
189.8377795599
 21
111.3275874255
 31
0.0
  0
LINE
  5
298
330
1F
100
AcDbEntity
  8
0
  6
Continuous
 62
     7
370
    25
100
AcDbLine
 10
189.8377795599
 20
111.3275874255
 30
0.0
 11
189.4627795599
 21
111.3275874255
 31
0.0
  0
LINE
  5
299
330
1F
100
AcDbEntity
  8
0
  6
Continuous
 62
     7
370
    25
100
AcDbLine
 10
189.4627795599
 20
111.3275874255
 30
0.0
 11
188.994029562
 21
110.515688613
 31
0.0
  0
ARC
  5
29A
330
1F
100
AcDbEntity
  8
0
  6
Continuous
 62
     7
370
    25
100
AcDbCircle
 10
147.4135873342
 20
140.106376205
 30
0.0
 40
0.0907001248971063
100
AcDbArc
 50
270.9524997105
 51
301.3474944785
  0
ARC
  5
29B
330
1F
100
AcDbEntity
  8
0
  6
Continuous
 62
     7
370
    25
100
AcDbCircle
 10
147.5994717815
 20
140.106376205
 30
0.0
 40
0.0907001248970495
100
AcDbArc
 50
238.6525055215
 51
269.0475002895
  0
SPLINE
  5
29C
330
1F
100
AcDbEntity
  8
0
  6
Continuous
 62
     7
370
    25
100
AcDbSpline
210
0.0
220
0.0
230
1.0
 70
     8
 71
     3
 72
     8
 73
     4
 74
     0
 42
0.00000001
 43
0.00000001
 40
0.0
 40
0.0
 40
0.0
 40
0.0
 40
1.0
 40
1.0
 40
1.0
 40
1.0
 10
147.4607720084522
 20
140.0289157687628
 30
0.0
 10
147.4912770413997
 20
140.0288229605931
 30
0.0
 10
147.5217820743471
 20
140.0288229605931
 30
0.0
 10
147.5522871072946
 20
140.0289157687628
 30
0.0
  0
ARC
  5
29D
330
1F
100
AcDbEntity
  8
0
  6
Continuous
 62
     7
370
    25
100
AcDbCircle
 10
147.5065295579
 20
125.015688613
 30
0.0
 40
28.25000000000001
100
AcDbArc
 50
32.0712506327
 51
90.0
  0
ARC
  5
29E
330
1F
100
AcDbEntity
  8
0
  6
Continuous
 62
     7
370
    25
100
AcDbCircle
 10
147.5065295579
 20
125.015688613
 30
0.0
 40
28.25
100
AcDbArc
 50
287.7235605749
 51
327.9287493673
  0
ARC
  5
29F
330
1F
100
AcDbEntity
  8
0
  6
Continuous
 62
     7
370
    25
100
AcDbCircle
 10
147.5065295579
 20
125.015688613
 30
0.0
 40
28.25
100
AcDbArc
 50
212.0712506327
 51
252.2764394251
  0
ARC
  5
2A0
330
1F
100
AcDbEntity
  8
0
  6
Continuous
 62
     7
370
    25
100
AcDbCircle
 10
147.5065295579
 20
125.015688613
 30
0.0
 40
28.25000000000001
100
AcDbArc
 50
90.0
 51
147.9287493673
  0
ARC
  5
2A1
330
1F
100
AcDbEntity
  8
0
  6
Continuous
 62
     8
370
    25
100
AcDbCircle
 10
147.573557111
 20
39.8157699217
 30
0.0
 40
8.533209459508695
100
AcDbArc
 50
269.5499424436
 51
359.5729603829
  0
ARC
  5
2A2
330
1F
100
AcDbEntity
  8
0
  6
Continuous
 62
     8
370
    25
100
AcDbCircle
 10
147.4395020048
 20
39.8157699217
 30
0.0
 40
8.533209459508713
100
AcDbArc
 50
180.4270396171
 51
270.4500575564
  0
ARC
  5
2A3
330
1F
100
AcDbEntity
  8
0
  6
Continuous
 62
     8
370
    25
100
AcDbCircle
 10
147.5064411834
 20
39.8347137828
 30
0.0
 40
8.725597937695799
100
AcDbArc
 50
260.2519572101
 51
287.7275728924
  0
ARC
  5
2A4
330
1F
100
AcDbEntity
  8
0
  6
Continuous
 62
     8
370
    25
100
AcDbCircle
 10
147.6410845396
 20
39.2410083142
 30
0.0
 40
9.911851171780778
100
AcDbArc
 50
269.2221766407
 51
31.3425196411
  0
ARC
  5
2A5
330
1F
100
AcDbEntity
  8
0
  6
Continuous
 62
     8
370
    25
100
AcDbCircle
 10
147.3719745761
 20
39.2410083142
 30
0.0
 40
9.911851171780762
100
AcDbArc
 50
148.6574803589
 51
270.7778233593
  0
LINE
  5
2A6
330
1F
100
AcDbEntity
  8
0
  6
Continuous
 62
     8
370
    25
100
AcDbLine
 10
157.7546899424
 20
36.9359289453
 30
0.0
 11
158.0686675284
 21
36.8377562336
 31
0.0
  0
LINE
  5
2A7
330
1F
100
AcDbEntity
  8
0
  6
Continuous
 62
     8
370
    25
100
AcDbLine
 10
239.4115345474
 20
119.0905608418
 30
0.0
 11
239.4115345474
 21
130.9408163841
 31
0.0
  0
LINE
  5
2A8
330
1F
100
AcDbEntity
  8
0
  6
Continuous
 62
     8
370
    25
100
AcDbLine
 10
54.8471603535
 20
127.3879803972
 30
0.0
 11
54.8471603535
 21
129.2131219792
 31
0.0
  0
LINE
  5
2A9
330
1F
100
AcDbEntity
  8
0
  6
Continuous
 62
     8
370
    25
100
AcDbLine
 10
54.8471603535
 20
120.8182552467
 30
0.0
 11
54.8471603535
 21
127.3879803972
 31
0.0
  0
LINE
  5
2AA
330
1F
100
AcDbEntity
  8
0
  6
Continuous
 62
     8
370
    25
100
AcDbLine
 10
54.0865077562
 20
126.2736591391
 30
0.0
 11
54.3094096298
 21
126.2736591391
 31
0.0
  0
LINE
  5
2AB
330
1F
100
AcDbEntity
  8
0
  6
Continuous
 62
     8
370
    25
100
AcDbLine
 10
54.2249494539
 20
123.5628732782
 30
0.0
 11
54.0865077562
 21
123.5628732782
 31
0.0
  0
LINE
  5
2AC
330
1F
100
AcDbEntity
  8
0
  6
Continuous
 62
     8
370
    25
100
AcDbLine
 10
54.0865077562
 20
125.7902918375
 30
0.0
 11
54.2407506783
 21
125.7902918375
 31
0.0
  0
LINE
  5
2AD
330
1F
100
AcDbEntity
  8
0
  6
Continuous
 62
     8
370
    25
100
AcDbLine
 10
240.1658987622
 20
127.3879803972
 30
0.0
 11
240.1658987622
 21
120.8182552467
 31
0.0
  0
LINE
  5
2AE
330
1F
100
AcDbEntity
  8
0
  6
Continuous
 62
     8
370
    25
100
AcDbLine
 10
240.1658987622
 20
129.2131219792
 30
0.0
 11
240.1658987622
 21
127.3879803972
 31
0.0
  0
LINE
  5
2AF
330
1F
100
AcDbEntity
  8
0
  6
Continuous
 62
     8
370
    25
100
AcDbLine
 10
240.7036494859
 20
126.2736591391
 30
0.0
 11
240.9265513595
 21
126.2736591391
 31
0.0
  0
LINE
  5
2B0
330
1F
100
AcDbEntity
  8
0
  6
Continuous
 62
     8
370
    25
100
AcDbLine
 10
240.9265513595
 20
123.5628732782
 30
0.0
 11
240.7881096618
 21
123.5628732782
 31
0.0
  0
LINE
  5
2B1
330
1F
100
AcDbEntity
  8
0
  6
Continuous
 62
     8
370
    25
100
AcDbLine
 10
240.7723084374
 20
125.7902918375
 30
0.0
 11
240.9265513595
 21
125.7902918375
 31
0.0
  0
LINE
  5
2B2
330
1F
100
AcDbEntity
  8
0
  6
Continuous
 62
     8
370
    25
100
AcDbLine
 10
55.6015245684
 20
119.5051640654
 30
0.0
 11
55.6015245684
 21
119.0905608418
 31
0.0
  0
LINE
  5
2B3
330
1F
100
AcDbEntity
  8
0
  6
Continuous
 62
     8
370
    25
100
AcDbLine
 10
55.6015245684
 20
130.9408163841
 30
0.0
 11
55.6015245684
 21
119.5051640654
 31
0.0
  0
LINE
  5
2B4
330
1F
100
AcDbEntity
  8
0
  6
Continuous
 62
     8
370
    25
100
AcDbLine
 10
62.0684856007
 20
133.1612799587
 30
0.0
 11
62.0684856007
 21
133.9913466572
 31
0.0
  0
LINE
  5
2B5
330
1F
100
AcDbEntity
  8
0
  6
Continuous
 62
     8
370
    25
100
AcDbLine
 10
63.0019058146
 20
116.0237376583
 30
0.0
 11
63.0019058146
 21
116.8596911965
 31
0.0
  0
LINE
  5
2B6
330
1F
100
AcDbEntity
  8
0
  6
Continuous
 62
     8
370
    25
100
AcDbLine
 10
57.6978033547
 20
133.9150561148
 30
0.0
 11
57.6978033547
 21
116.1163211112
 31
0.0
  0
ARC
  5
2B7
330
1F
100
AcDbEntity
  8
0
  6
Continuous
 62
     8
370
    25
100
AcDbCircle
 10
67.5416880443
 20
115.3820528744
 30
0.0
 40
1.997193254156806
100
AcDbArc
 50
201.0122086051
 51
269.4244113789
  0
SPLINE
  5
2B8
330
1F
100
AcDbEntity
  8
0
  6
Continuous
 62
     8
370
    25
100
AcDbSpline
210
0.0
220
0.0
230
1.0
 70
     8
 71
     3
 72
    11
 73
     7
 74
     0
 42
0.00000001
 43
0.00000001
 40
0.0
 40
0.0
 40
0.0
 40
0.0
 40
0.2826501073666217
 40
0.8581489095904445
 40
0.8613649112870351
 40
1.0
 40
1.0
 40
1.0
 40
1.0
 10
64.29741214382418
 20
115.6857896414801
 30
0.0
 10
64.18514274701455
 20
115.7467171432291
 30
0.0
 10
63.844283649701
 20
115.9316980359558
 30
0.0
 10
63.46642967218516
 20
116.3287294058827
 30
0.0
 10
63.15605057883429
 20
116.7029250099887
 30
0.0
 10
63.09454808410318
 20
116.781909943145
 30
0.0
 10
63.03443995389071
 20
116.8591041556356
 30
0.0
  0
SPLINE
  5
2B9
330
1F
100
AcDbEntity
  8
0
  6
Continuous
 62
     8
370
    25
100
AcDbSpline
210
0.0
220
0.0
230
1.0
 70
     8
 71
     3
 72
     9
 73
     5
 74
     0
 42
0.00000001
 43
0.00000001
 40
0.0
 40
0.0
 40
0.0
 40
0.0
 40
0.3530215453709022
 40
1.0
 40
1.0
 40
1.0
 40
1.0
 10
62.11309193390724
 20
133.1620865758084
 30
0.0
 10
62.30518944624153
 20
133.3553975811686
 30
0.0
 10
62.8493418212261
 20
133.9029874036456
 30
0.0
 10
63.36957906103384
 20
134.207208967805
 30
0.0
 10
63.70616134648517
 20
134.4040337652497
 30
0.0
  0
ARC
  5
2BA
330
1F
100
AcDbEntity
  8
0
  6
Continuous
 62
     8
370
    25
100
AcDbCircle
 10
67.436001968
 20
134.7569412356
 30
0.0
 40
1.935629434209537
100
AcDbArc
 50
89.1328601458
 51
155.5788705465
  0
ARC
  5
2BB
330
1F
100
AcDbEntity
  8
0
  6
Continuous
 62
     8
370
    25
100
AcDbCircle
 10
67.5418740108
 20
115.3340730674
 30
0.0
 40
1.996106121819888
100
AcDbArc
 50
199.5637302954
 51
269.4187596751
  0
LINE
  5
2BC
330
1F
100
AcDbEntity
  8
0
  6
Continuous
 62
     8
370
    25
100
AcDbLine
 10
71.5478033547
 20
113.0438751507
 30
0.0
 11
71.5478033547
 21
113.2695546997
 31
0.0
  0
LINE
  5
2BD
330
1F
100
AcDbEntity
  8
0
  6
Continuous
 62
     8
370
    25
100
AcDbLine
 10
71.5478033547
 20
136.7618225262
 30
0.0
 11
71.5478033547
 21
136.9875020753
 31
0.0
  0
LINE
  5
2BE
330
1F
100
AcDbEntity
  8
0
  6
Continuous
 62
     8
370
    25
100
AcDbLine
 10
67.521624745
 20
113.3380696564
 30
0.0
 11
67.521624745
 21
113.1141523597
 31
0.0
  0
LINE
  5
2BF
330
1F
100
AcDbEntity
  8
0
  6
Continuous
 62
     8
370
    25
100
AcDbLine
 10
67.521624745
 20
136.9172248663
 30
0.0
 11
67.521624745
 21
136.9006360599
 31
0.0
  0
ARC
  5
2C0
330
1F
100
AcDbEntity
  8
0
  6
Continuous
 62
     8
370
    25
100
AcDbCircle
 10
67.5556051055
 20
134.9007124311
 30
0.0
 40
2.000212285190521
100
AcDbArc
 50
90.9734091321
 51
152.2807513659
  0
LINE
  5
2C1
330
1F
100
AcDbEntity
  8
0
  6
Continuous
 62
     8
370
    25
100
AcDbLine
 10
232.944573515
 20
117.1155185561
 30
0.0
 11
232.944573515
 21
116.2854518576
 31
0.0
  0
LINE
  5
2C2
330
1F
100
AcDbEntity
  8
0
  6
Continuous
 62
     8
370
    25
100
AcDbLine
 10
232.0111533011
 20
134.2530608565
 30
0.0
 11
232.0111533011
 21
133.4171073183
 31
0.0
  0
LINE
  5
2C3
330
1F
100
AcDbEntity
  8
0
  6
Continuous
 62
     8
370
    25
100
AcDbLine
 10
237.3152557611
 20
116.3617424
 30
0.0
 11
237.3152557611
 21
134.1604774037
 31
0.0
  0
ARC
  5
2C4
330
1F
100
AcDbEntity
  8
0
  6
Continuous
 62
     8
370
    25
100
AcDbCircle
 10
227.4713710714
 20
134.8947456404
 30
0.0
 40
1.99719325415662
100
AcDbArc
 50
21.0122086051
 51
89.4244113789
  0
SPLINE
  5
2C5
330
1F
100
AcDbEntity
  8
0
  6
Continuous
 62
     8
370
    25
100
AcDbSpline
210
0.0
220
0.0
230
1.0
 70
     8
 71
     3
 72
    11
 73
     7
 74
     0
 42
0.00000001
 43
0.00000001
 40
0.0
 40
0.0
 40
0.0
 40
0.0
 40
0.2826501073666229
 40
0.8581489095904449
 40
0.8613649112870354
 40
1.0
 40
1.0
 40
1.0
 40
1.0
 10
230.7156469719226
 20
134.5910088733243
 30
0.0
 10
230.8279163687322
 20
134.5300813715753
 30
0.0
 10
231.1687754660456
 20
134.3451004788486
 30
0.0
 10
231.5466294435628
 20
133.9480691089217
 30
0.0
 10
231.8570085369122
 20
133.5738735048157
 30
0.0
 10
231.9185110316435
 20
133.4948885716595
 30
0.0
 10
231.9786191618561
 20
133.4176943591688
 30
0.0
  0
SPLINE
  5
2C6
330
1F
100
AcDbEntity
  8
0
  6
Continuous
 62
     8
370
    25
100
AcDbSpline
210
0.0
220
0.0
230
1.0
 70
     8
 71
     3
 72
     9
 73
     5
 74
     0
 42
0.00000001
 43
0.00000001
 40
0.0
 40
0.0
 40
0.0
 40
0.0
 40
0.3530215453708999
 40
1.0
 40
1.0
 40
1.0
 40
1.0
 10
232.8999671818396
 20
117.114711938996
 30
0.0
 10
232.7078696695053
 20
116.9214009336358
 30
0.0
 10
232.1637172945207
 20
116.3738111111588
 30
0.0
 10
231.643480054713
 20
116.0695895469994
 30
0.0
 10
231.3068977692616
 20
115.8727647495546
 30
0.0
  0
ARC
  5
2C7
330
1F
100
AcDbEntity
  8
0
  6
Continuous
 62
     8
370
    25
100
AcDbCircle
 10
227.5770571477
 20
115.5198572792
 30
0.0
 40
1.935629434209637
100
AcDbArc
 50
269.1328601458
 51
335.5788705465
  0
ARC
  5
2C8
330
1F
100
AcDbEntity
  8
0
  6
Continuous
 62
     8
370
    25
100
AcDbCircle
 10
227.4711851049
 20
134.9427254474
 30
0.0
 40
1.996106121819842
100
AcDbArc
 50
19.5637302954
 51
89.4187596751
  0
LINE
  5
2C9
330
1F
100
AcDbEntity
  8
0
  6
Continuous
 62
     8
370
    25
100
AcDbLine
 10
223.4652557611
 20
113.5149759886
 30
0.0
 11
223.4652557611
 21
113.2892964395
 31
0.0
  0
LINE
  5
2CA
330
1F
100
AcDbEntity
  8
0
  6
Continuous
 62
     8
370
    25
100
AcDbLine
 10
223.4652557611
 20
137.2329233641
 30
0.0
 11
223.4652557611
 21
137.0072438151
 31
0.0
  0
LINE
  5
2CB
330
1F
100
AcDbEntity
  8
0
  6
Continuous
 62
     8
370
    25
100
AcDbLine
 10
227.4914343707
 20
136.9387288584
 30
0.0
 11
227.4914343707
 21
137.1626461551
 31
0.0
  0
LINE
  5
2CC
330
1F
100
AcDbEntity
  8
0
  6
Continuous
 62
     8
370
    25
100
AcDbLine
 10
227.4914343707
 20
113.3595736486
 30
0.0
 11
227.4914343707
 21
113.3761624549
 31
0.0
  0
ARC
  5
2CD
330
1F
100
AcDbEntity
  8
0
  6
Continuous
 62
     8
370
    25
100
AcDbCircle
 10
227.4574540102
 20
115.3760860837
 30
0.0
 40
2.000212285190821
100
AcDbArc
 50
270.9734091321
 51
332.2807513659
  0
SPLINE
  5
2CE
330
1F
100
AcDbEntity
  8
0
  6
Continuous
 62
     8
370
    25
100
AcDbSpline
210
0.0
220
0.0
230
1.0
 70
     8
 71
     3
 72
    11
 73
     7
 74
     0
 42
0.00000001
 43
0.00000001
 40
0.0
 40
0.0
 40
0.0
 40
0.0
 40
0.5932149667367632
 40
0.9339069723143171
 40
0.9764081078334942
 40
1.0
 40
1.0
 40
1.0
 40
1.0
 10
156.1065295578734
 20
113.2867262081475
 30
0.0
 10
156.6679306202289
 20
113.730145795637
 30
0.0
 10
157.5517524989698
 20
114.4282277181064
 30
0.0
 10
158.3403587755323
 20
115.313079695027
 30
0.0
 10
158.6545467743907
 20
115.692754958767
 30
0.0
 10
158.7049780673982
 20
115.7549936847883
 30
0.0
 10
158.7229795067045
 20
115.777209784796
 30
0.0
  0
SPLINE
  5
2CF
330
1F
100
AcDbEntity
  8
0
  6
Continuous
 62
     8
370
    25
100
AcDbSpline
210
0.0
220
0.0
230
1.0
 70
     8
 71
     3
 72
    11
 73
     7
 74
     0
 42
0.00000001
 43
0.00000001
 40
0.0
 40
0.0
 40
0.0
 40
0.0
 40
0.593214966736752
 40
0.9339069723143154
 40
0.9764081078334936
 40
1.0
 40
1.0
 40
1.0
 40
1.0
 10
138.9065295578734
 20
113.2867262081476
 30
0.0
 10
138.3451284955178
 20
113.7301457956371
 30
0.0
 10
137.4613066167769
 20
114.4282277181064
 30
0.0
 10
136.6727003402145
 20
115.313079695027
 30
0.0
 10
136.3585123413561
 20
115.692754958767
 30
0.0
 10
136.3080810483486
 20
115.7549936847883
 30
0.0
 10
136.2900796090423
 20
115.777209784796
 30
0.0
  0
SPLINE
  5
2D0
330
1F
100
AcDbEntity
  8
0
  6
Continuous
 62
     8
370
    25
100
AcDbSpline
210
0.0
220
0.0
230
1.0
 70
     8
 71
     3
 72
     9
 73
     5
 74
     0
 42
0.00000001
 43
0.00000001
 40
0.0
 40
0.0
 40
0.0
 40
0.0
 40
0.5176554380816863
 40
1.0
 40
1.0
 40
1.0
 40
1.0
 10
159.8932207061715
 20
115.6603365092284
 30
0.0
 10
159.2891584809703
 20
115.082486508186
 30
0.0
 10
158.1222389805403
 20
113.9662034393097
 30
0.0
 10
156.7624273183594
 20
113.0984605193061
 30
0.0
 10
156.1065295578734
 20
112.6799094406993
 30
0.0
  0
SPLINE
  5
2D1
330
1F
100
AcDbEntity
  8
0
  6
Continuous
 62
     8
370
    25
100
AcDbSpline
210
0.0
220
0.0
230
1.0
 70
     8
 71
     3
 72
     9
 73
     5
 74
     0
 42
0.00000001
 43
0.00000001
 40
0.0
 40
0.0
 40
0.0
 40
0.0
 40
0.5176554380816969
 40
0.9999999999999999
 40
0.9999999999999999
 40
0.9999999999999999
 40
0.9999999999999999
 10
135.1198384095753
 20
115.6603365092284
 30
0.0
 10
135.7239006347765
 20
115.082486508186
 30
0.0
 10
136.8908201352065
 20
113.9662034393097
 30
0.0
 10
138.2506317973874
 20
113.0984605193062
 30
0.0
 10
138.9065295578734
 20
112.6799094406993
 30
0.0
  0
ARC
  5
2D2
330
1F
100
AcDbEntity
  8
0
  6
Continuous
 62
     8
370
    25
100
AcDbCircle
 10
148.7255933386
 20
122.994327608
 30
0.0
 40
13.36051370486647
100
AcDbArc
 50
303.534846696
 51
326.7063404568
  0
ARC
  5
2D3
330
1F
100
AcDbEntity
  8
0
  6
Continuous
 62
     8
370
    25
100
AcDbCircle
 10
146.2874657771
 20
122.994327608
 30
0.0
 40
13.36051370486501
100
AcDbArc
 50
213.2936595432
 51
236.465153304
  0
ARC
  5
2D4
330
1F
100
AcDbEntity
  8
0
  6
Continuous
 62
     8
370
    25
100
AcDbCircle
 10
147.5065295579
 20
125.015688613
 30
0.0
 40
15.79423749544209
100
AcDbArc
 50
71.7526233598
 51
108.2473766402
  0
LWPOLYLINE
  5
2D5
330
1F
100
AcDbEntity
  8
0
  6
Continuous
 62
     8
370
    25
100
AcDbPolyline
 90
        3
 70
   128
 43
0.0
 10
138.9065295579
 20
108.696835306
 10
137.7314943478
 20
109.3723622437
 10
136.7703769297
 20
110.015688613
  0
ARC
  5
2D6
330
1F
100
AcDbEntity
  8
0
  6
Continuous
 62
     8
370
    25
100
AcDbCircle
 10
147.5065295579
 20
125.015688613
 30
0.0
 40
18.44627261143962
100
AcDbArc
 50
54.407052935
 51
125.592947065
  0
LWPOLYLINE
  5
2D7
330
1F
100
AcDbEntity
  8
0
  6
Continuous
 62
     8
370
    25
100
AcDbPolyline
 90
        3
 70
   128
 43
0.0
 10
158.2426821861
 20
110.015688613
 10
157.281564768
 20
109.3723622437
 10
156.1065295579
 20
108.696835306
  0
ARC
  5
2D8
330
1F
100
AcDbEntity
  8
0
  6
Continuous
 62
     8
370
    25
100
AcDbCircle
 10
147.5065295579
 20
125.015688613
 30
0.0
 40
27.1874316137987
100
AcDbArc
 50
288.4406785204
 51
326.5145280392
  0
ARC
  5
2D9
330
1F
100
AcDbEntity
  8
0
  6
Continuous
 62
     8
370
    25
100
AcDbCircle
 10
147.5065295579
 20
125.015688613
 30
0.0
 40
27.1874316137987
100
AcDbArc
 50
33.4854719608
 51
146.5145280392
  0
ARC
  5
2DA
330
1F
100
AcDbEntity
  8
0
  6
Continuous
 62
     8
370
    25
100
AcDbCircle
 10
147.5065295579
 20
125.015688613
 30
0.0
 40
27.1874316137987
100
AcDbArc
 50
213.4854719608
 51
251.5593214796
  0
ENDSEC
  0
SECTION
  2
OBJECTS
  0
DICTIONARY
  5
C
330
0
100
AcDbDictionary
281
     1
  3
ACAD_GROUP
350
D
  3
ACAD_LAYOUT
350
1A
  3
ACAD_MLINESTYLE
350
17
  3
ACAD_PLOTSETTINGS
350
19
  3
ACAD_PLOTSTYLENAME
350
E
  3
ACAD_SCALELIST
350
47
  3
DWGPROPS
350
2DB
  0
DICTIONARY
  5
D
102
{ACAD_REACTORS
330
C
102
}
330
C
100
AcDbDictionary
281
     1
  0
DICTIONARY
  5
1A
102
{ACAD_REACTORS
330
C
102
}
330
C
100
AcDbDictionary
281
     1
  3
Layout1
350
1E
  3
Layout2
350
26
  3
Model
350
22
  0
DICTIONARY
  5
17
102
{ACAD_REACTORS
330
C
102
}
330
C
100
AcDbDictionary
281
     1
  3
Standard
350
18
  0
DICTIONARY
  5
19
102
{ACAD_REACTORS
330
C
102
}
330
C
100
AcDbDictionary
281
     1
  0
ACDBDICTIONARYWDFLT
  5
E
102
{ACAD_REACTORS
330
C
102
}
330
C
100
AcDbDictionary
281
     1
  3
Normal
350
F
100
AcDbDictionaryWithDefault
340
F
  0
DICTIONARY
  5
47
102
{ACAD_REACTORS
330
C
102
}
330
C
100
AcDbDictionary
281
     1
  3
A0
350
48
  3
A1
350
49
  3
A2
350
4A
  3
A3
350
4B
  3
A4
350
4C
  3
A5
350
4D
  3
A6
350
4E
  3
A7
350
4F
  3
A8
350
50
  3
A9
350
51
  3
B0
350
52
  3
B1
350
53
  3
B2
350
54
  3
B3
350
55
  3
B4
350
56
  3
B5
350
57
  3
B6
350
58
  3
B7
350
59
  3
B8
350
5A
  3
B9
350
5B
  3
C0
350
5C
  3
C1
350
5D
  3
C2
350
5E
  3
C3
350
5F
  3
C4
350
60
  3
C5
350
61
  3
C6
350
62
  3
C7
350
63
  3
C8
350
64
  3
C9
350
65
  3
D0
350
66
  3
D1
350
67
  3
D2
350
68
  0
XRECORD
  5
2DB
102
{ACAD_REACTORS
330
C
102
}
330
C
100
AcDbXrecord
280
     1
  1
DWGPROPS COOKIE
  2

  3

  4

  6

  7

  8
DS-1
  9

300
=
301
=
302
=
303
=
304
=
305
=
306
=
307
=
308
=
309
=
 40
0.0
 41
2460383.502979236
 42
2460383.502979757
  1

 90
        0
  0
LAYOUT
  5
1E
102
{ACAD_REACTORS
330
1A
102
}
330
1A
100
AcDbPlotSettings
  1

  2
none_device
  4

  6

 40
0.0
 41
0.0
 42
0.0
 43
0.0
 44
0.0
 45
0.0
 46
0.0
 47
0.0
 48
0.0
 49
0.0
140
0.0
141
0.0
142
1.0
143
1.0
 70
   688
 72
     1
 73
     0
 74
     5
  7

 75
    16
147
1.0
148
0.0
149
0.0
100
AcDbLayout
  1
Layout1
 70
     1
 71
     1
 10
0.0
 20
0.0
 11
420.0
 21
297.0
 12
0.0
 22
0.0
 32
0.0
 14
1.0000000000E+20
 24
1.0000000000E+20
 34
1.0000000000E+20
 15
-1.0000000000E+20
 25
-1.0000000000E+20
 35
-1.0000000000E+20
146
0.0
 13
0.0
 23
0.0
 33
0.0
 16
1.0
 26
0.0
 36
0.0
 17
0.0
 27
1.0
 37
0.0
 76
     0
330
1B
  0
LAYOUT
  5
26
102
{ACAD_REACTORS
330
1A
102
}
330
1A
100
AcDbPlotSettings
  1

  2
none_device
  4

  6

 40
0.0
 41
0.0
 42
0.0
 43
0.0
 44
0.0
 45
0.0
 46
0.0
 47
0.0
 48
0.0
 49
0.0
140
0.0
141
0.0
142
1.0
143
1.0
 70
   688
 72
     1
 73
     0
 74
     5
  7

 75
    16
147
1.0
148
0.0
149
0.0
100
AcDbLayout
  1
Layout2
 70
     1
 71
     2
 10
0.0
 20
0.0
 11
0.0
 21
0.0
 12
0.0
 22
0.0
 32
0.0
 14
0.0
 24
0.0
 34
0.0
 15
0.0
 25
0.0
 35
0.0
146
0.0
 13
0.0
 23
0.0
 33
0.0
 16
1.0
 26
0.0
 36
0.0
 17
0.0
 27
1.0
 37
0.0
 76
     0
330
23
  0
LAYOUT
  5
22
102
{ACAD_REACTORS
330
1A
102
}
330
1A
100
AcDbPlotSettings
  1

  2
none_device
  4
Letter_(8.50_x_11.00_Inches)
  6

 40
6.35
 41
6.35
 42
6.35000508
 43
6.35000508
 44
215.9
 45
279.4
 46
0.0
 47
0.0
 48
0.0
 49
0.0
140
0.0
141
0.0
142
1.0
143
1.0
 70
  1712
 72
     1
 73
     0
 74
     0
  7

 75
     0
147
1.0
148
0.0
149
0.0
100
AcDbLayout
  1
Model
 70
     1
 71
     0
 10
0.0
 20
0.0
 11
279.4
 21
215.9
 12
0.0
 22
0.0
 32
0.0
 14
0.0
 24
0.0
 34
0.0
 15
279.4
 25
215.9
 35
0.0
146
0.0
 13
0.0
 23
0.0
 33
0.0
 16
1.0
 26
0.0
 36
0.0
 17
0.0
 27
1.0
 37
0.0
 76
     0
330
1F
331
29
  0
MLINESTYLE
  5
18
102
{ACAD_REACTORS
330
17
102
}
330
17
100
AcDbMlineStyle
  2
Standard
 70
     0
  3

 62
   256
 51
90.0
 52
90.0
 71
     2
 49
0.5
 62
   256
  6
BYLAYER
 49
-0.5
 62
   256
  6
BYLAYER
  0
ACDBPLACEHOLDER
  5
F
102
{ACAD_REACTORS
330
E
102
}
330
E
  0
SCALE
  5
48
102
{ACAD_REACTORS
330
47
102
}
330
47
100
AcDbScale
 70
     0
300
1:1
140
1.0
141
1.0
290
     1
  0
SCALE
  5
49
102
{ACAD_REACTORS
330
47
102
}
330
47
100
AcDbScale
 70
     0
300
1:2
140
1.0
141
2.0
290
     0
  0
SCALE
  5
4A
102
{ACAD_REACTORS
330
47
102
}
330
47
100
AcDbScale
 70
     0
300
1:4
140
1.0
141
4.0
290
     0
  0
SCALE
  5
4B
102
{ACAD_REACTORS
330
47
102
}
330
47
100
AcDbScale
 70
     0
300
1:5
140
1.0
141
5.0
290
     0
  0
SCALE
  5
4C
102
{ACAD_REACTORS
330
47
102
}
330
47
100
AcDbScale
 70
     0
300
1:8
140
1.0
141
8.0
290
     0
  0
SCALE
  5
4D
102
{ACAD_REACTORS
330
47
102
}
330
47
100
AcDbScale
 70
     0
300
1:10
140
1.0
141
10.0
290
     0
  0
SCALE
  5
4E
102
{ACAD_REACTORS
330
47
102
}
330
47
100
AcDbScale
 70
     0
300
1:16
140
1.0
141
16.0
290
     0
  0
SCALE
  5
4F
102
{ACAD_REACTORS
330
47
102
}
330
47
100
AcDbScale
 70
     0
300
1:20
140
1.0
141
20.0
290
     0
  0
SCALE
  5
50
102
{ACAD_REACTORS
330
47
102
}
330
47
100
AcDbScale
 70
     0
300
1:30
140
1.0
141
30.0
290
     0
  0
SCALE
  5
51
102
{ACAD_REACTORS
330
47
102
}
330
47
100
AcDbScale
 70
     0
300
1:40
140
1.0
141
40.0
290
     0
  0
SCALE
  5
52
102
{ACAD_REACTORS
330
47
102
}
330
47
100
AcDbScale
 70
     0
300
1:50
140
1.0
141
50.0
290
     0
  0
SCALE
  5
53
102
{ACAD_REACTORS
330
47
102
}
330
47
100
AcDbScale
 70
     0
300
1:100
140
1.0
141
100.0
290
     0
  0
SCALE
  5
54
102
{ACAD_REACTORS
330
47
102
}
330
47
100
AcDbScale
 70
     0
300
2:1
140
2.0
141
1.0
290
     0
  0
SCALE
  5
55
102
{ACAD_REACTORS
330
47
102
}
330
47
100
AcDbScale
 70
     0
300
4:1
140
4.0
141
1.0
290
     0
  0
SCALE
  5
56
102
{ACAD_REACTORS
330
47
102
}
330
47
100
AcDbScale
 70
     0
300
8:1
140
8.0
141
1.0
290
     0
  0
SCALE
  5
57
102
{ACAD_REACTORS
330
47
102
}
330
47
100
AcDbScale
 70
     0
300
10:1
140
10.0
141
1.0
290
     0
  0
SCALE
  5
58
102
{ACAD_REACTORS
330
47
102
}
330
47
100
AcDbScale
 70
     0
300
100:1
140
100.0
141
1.0
290
     0
  0
SCALE
  5
59
102
{ACAD_REACTORS
330
47
102
}
330
47
100
AcDbScale
 70
     0
300
1/128" = 1'-0"
140
0.0078125
141
12.0
290
     0
  0
SCALE
  5
5A
102
{ACAD_REACTORS
330
47
102
}
330
47
100
AcDbScale
 70
     0
300
1/64" = 1'-0"
140
0.015625
141
12.0
290
     0
  0
SCALE
  5
5B
102
{ACAD_REACTORS
330
47
102
}
330
47
100
AcDbScale
 70
     0
300
1/32" = 1'-0"
140
0.03125
141
12.0
290
     0
  0
SCALE
  5
5C
102
{ACAD_REACTORS
330
47
102
}
330
47
100
AcDbScale
 70
     0
300
1/16" = 1'-0"
140
0.0625
141
12.0
290
     0
  0
SCALE
  5
5D
102
{ACAD_REACTORS
330
47
102
}
330
47
100
AcDbScale
 70
     0
300
3/32" = 1'-0"
140
0.09375
141
12.0
290
     0
  0
SCALE
  5
5E
102
{ACAD_REACTORS
330
47
102
}
330
47
100
AcDbScale
 70
     0
300
1/8" = 1'-0"
140
0.125
141
12.0
290
     0
  0
SCALE
  5
5F
102
{ACAD_REACTORS
330
47
102
}
330
47
100
AcDbScale
 70
     0
300
3/16" = 1'-0"
140
0.1875
141
12.0
290
     0
  0
SCALE
  5
60
102
{ACAD_REACTORS
330
47
102
}
330
47
100
AcDbScale
 70
     0
300
1/4" = 1'-0"
140
0.25
141
12.0
290
     0
  0
SCALE
  5
61
102
{ACAD_REACTORS
330
47
102
}
330
47
100
AcDbScale
 70
     0
300
3/8" = 1'-0"
140
0.375
141
12.0
290
     0
  0
SCALE
  5
62
102
{ACAD_REACTORS
330
47
102
}
330
47
100
AcDbScale
 70
     0
300
1/2" = 1'-0"
140
0.5
141
12.0
290
     0
  0
SCALE
  5
63
102
{ACAD_REACTORS
330
47
102
}
330
47
100
AcDbScale
 70
     0
300
3/4" = 1'-0"
140
0.75
141
12.0
290
     0
  0
SCALE
  5
64
102
{ACAD_REACTORS
330
47
102
}
330
47
100
AcDbScale
 70
     0
300
1" = 1'-0"
140
1.0
141
12.0
290
     0
  0
SCALE
  5
65
102
{ACAD_REACTORS
330
47
102
}
330
47
100
AcDbScale
 70
     0
300
1-1/2" = 1'-0"
140
1.5
141
12.0
290
     0
  0
SCALE
  5
66
102
{ACAD_REACTORS
330
47
102
}
330
47
100
AcDbScale
 70
     0
300
3" = 1'-0"
140
3.0
141
12.0
290
     0
  0
SCALE
  5
67
102
{ACAD_REACTORS
330
47
102
}
330
47
100
AcDbScale
 70
     0
300
6" = 1'-0"
140
6.0
141
12.0
290
     0
  0
SCALE
  5
68
102
{ACAD_REACTORS
330
47
102
}
330
47
100
AcDbScale
 70
     0
300
1'-0" = 1'-0"
140
12.0
141
12.0
290
     0
  0
ENDSEC
  0
EOF
