  0
SECTION
  2
HEADER
  9
$ACADVER
  1
AC1015
  9
$ACADMAINTVER
 70
     6
  9
$DWGCODEPAGE
  3
ANSI_1252
  9
$INSBASE
 10
0.0
 20
0.0
 30
0.0
  9
$EXTMIN
 10
0.0
 20
0.0
 30
0.0
  9
$EXTMAX
 10
279.4
 20
215.9
 30
0.0
  9
$LIMMIN
 10
0.0
 20
0.0
  9
$LIMMAX
 10
279.4
 20
215.9
  9
$ORTHOMODE
 70
     0
  9
$REGENMODE
 70
     1
  9
$FILLMODE
 70
     1
  9
$QTEXTMODE
 70
     0
  9
$MIRRTEXT
 70
     1
  9
$LTSCALE
 40
1.0
  9
$ATTMODE
 70
     1
  9
$TEXTSIZE
 40
3.5277777778
  9
$TRACEWID
 40
1.0
  9
$TEXTSTYLE
  7
Standard
  9
$CLAYER
  8
0
  9
$CELTYPE
  6
ByLayer
  9
$CECOLOR
 62
   256
  9
$CELTSCALE
 40
1.0
  9
$DISPSILH
 70
     0
  9
$DIMSCALE
 40
1.0
  9
$DIMASZ
 40
3.556
  9
$DIMEXO
 40
1.0
  9
$DIMDLI
 40
3.75
  9
$DIMRND
 40
0.0
  9
$DIMDLE
 40
0.0
  9
$DIMEXE
 40
1.0
  9
$DIMTP
 40
0.0
  9
$DIMTM
 40
0.0
  9
$DIMTXT
 40
3.5277777778
  9
$DIMCEN
 40
2.5
  9
$DIMTSZ
 40
0.0
  9
$DIMTOL
 70
     0
  9
$DIMLIM
 70
     0
  9
$DIMTIH
 70
     1
  9
$DIMTOH
 70
     1
  9
$DIMSE1
 70
     0
  9
$DIMSE2
 70
     0
  9
$DIMTAD
 70
     1
  9
$DIMZIN
 70
     0
  9
$DIMBLK
  1

  9
$DIMASO
 70
     1
  9
$DIMSHO
 70
     1
  9
$DIMPOST
  1

  9
$DIMAPOST
  1

  9
$DIMALT
 70
     0
  9
$DIMALTD
 70
     3
  9
$DIMALTF
 40
0.0393700787
  9
$DIMLFAC
 40
2.0
  9
$DIMTOFL
 70
     1
  9
$DIMTVP
 40
0.0
  9
$DIMTIX
 70
     0
  9
$DIMSOXD
 70
     0
  9
$DIMSAH
 70
     0
  9
$DIMBLK1
  1

  9
$DIMBLK2
  1

  9
$DIMSTYLE
  2
ISO-25
  9
$DIMCLRD
 70
     0
  9
$DIMCLRE
 70
     0
  9
$DIMCLRT
 70
     0
  9
$DIMTFAC
 40
1.0
  9
$DIMGAP
 40
1.524
  9
$DIMJUST
 70
     0
  9
$DIMSD1
 70
     0
  9
$DIMSD2
 70
     0
  9
$DIMTOLJ
 70
     0
  9
$DIMTZIN
 70
     0
  9
$DIMALTZ
 70
     0
  9
$DIMALTTZ
 70
     0
  9
$DIMUPT
 70
     0
  9
$DIMDEC
 70
     2
  9
$DIMTDEC
 70
     2
  9
$DIMALTU
 70
     2
  9
$DIMALTTD
 70
     3
  9
$DIMTXSTY
  7
Standard
  9
$DIMAUNIT
 70
     0
  9
$DIMADEC
 70
     2
  9
$DIMALTRND
 40
0.0
  9
$DIMAZIN
 70
     0
  9
$DIMDSEP
 70
    44
  9
$DIMATFIT
 70
     3
  9
$DIMFRAC
 70
     0
  9
$DIMLDRBLK
  1

  9
$DIMLUNIT
 70
     2
  9
$DIMLWD
 70
    -2
  9
$DIMLWE
 70
    -2
  9
$DIMTMOVE
 70
     0
  9
$LUNITS
 70
     2
  9
$LUPREC
 70
     2
  9
$SKETCHINC
 40
1.0
  9
$FILLETRAD
 40
10.0
  9
$AUNITS
 70
     0
  9
$AUPREC
 70
     2
  9
$MENU
  1
.
  9
$ELEVATION
 40
0.0
  9
$PELEVATION
 40
0.0
  9
$THICKNESS
 40
0.0
  9
$LIMCHECK
 70
     0
  9
$CHAMFERA
 40
0.0
  9
$CHAMFERB
 40
0.0
  9
$CHAMFERC
 40
0.0
  9
$CHAMFERD
 40
0.0
  9
$SKPOLY
 70
     0
  9
$TDCREATE
 40
2460383.729688472
  9
$TDUCREATE
 40
2460383.500521806
  9
$TDUPDATE
 40
2460383.729689016
  9
$TDUUPDATE
 40
2460383.500522349
  9
$TDINDWG
 40
0.0000000116
  9
$TDUSRTIMER
 40
0.0000000116
  9
$USRTIMER
 70
     1
  9
$ANGBASE
 50
0.0
  9
$ANGDIR
 70
     0
  9
$PDMODE
 70
     0
  9
$PDSIZE
 40
-1.0
  9
$PLINEWID
 40
0.0
  9
$SPLFRAME
 70
     0
  9
$SPLINETYPE
 70
     6
  9
$SPLINESEGS
 70
     8
  9
$HANDSEED
  5
2C7
  9
$SURFTAB1
 70
     6
  9
$SURFTAB2
 70
     6
  9
$SURFTYPE
 70
     6
  9
$SURFU
 70
     6
  9
$SURFV
 70
     6
  9
$UCSBASE
  2

  9
$UCSNAME
  2

  9
$UCSORG
 10
0.0
 20
0.0
 30
0.0
  9
$UCSXDIR
 10
1.0
 20
0.0
 30
0.0
  9
$UCSYDIR
 10
0.0
 20
1.0
 30
0.0
  9
$UCSORTHOREF
  2

  9
$UCSORTHOVIEW
 70
     0
  9
$UCSORGTOP
 10
0.0
 20
0.0
 30
0.0
  9
$UCSORGBOTTOM
 10
0.0
 20
0.0
 30
0.0
  9
$UCSORGLEFT
 10
0.0
 20
0.0
 30
0.0
  9
$UCSORGRIGHT
 10
0.0
 20
0.0
 30
0.0
  9
$UCSORGFRONT
 10
0.0
 20
0.0
 30
0.0
  9
$UCSORGBACK
 10
0.0
 20
0.0
 30
0.0
  9
$PUCSBASE
  2

  9
$PUCSNAME
  2

  9
$PUCSORG
 10
0.0
 20
0.0
 30
0.0
  9
$PUCSXDIR
 10
1.0
 20
0.0
 30
0.0
  9
$PUCSYDIR
 10
0.0
 20
1.0
 30
0.0
  9
$PUCSORTHOREF
  2

  9
$PUCSORTHOVIEW
 70
     0
  9
$PUCSORGTOP
 10
0.0
 20
0.0
 30
0.0
  9
$PUCSORGBOTTOM
 10
0.0
 20
0.0
 30
0.0
  9
$PUCSORGLEFT
 10
0.0
 20
0.0
 30
0.0
  9
$PUCSORGRIGHT
 10
0.0
 20
0.0
 30
0.0
  9
$PUCSORGFRONT
 10
0.0
 20
0.0
 30
0.0
  9
$PUCSORGBACK
 10
0.0
 20
0.0
 30
0.0
  9
$USERI1
 70
     0
  9
$USERI2
 70
     0
  9
$USERI3
 70
     0
  9
$USERI4
 70
     0
  9
$USERI5
 70
     0
  9
$USERR1
 40
0.0
  9
$USERR2
 40
0.0
  9
$USERR3
 40
0.0
  9
$USERR4
 40
0.0
  9
$USERR5
 40
0.0
  9
$WORLDVIEW
 70
     1
  9
$SHADEDGE
 70
     3
  9
$SHADEDIF
 70
    70
  9
$TILEMODE
 70
     1
  9
$MAXACTVP
 70
    64
  9
$PINSBASE
 10
0.0
 20
0.0
 30
0.0
  9
$PLIMCHECK
 70
     0
  9
$PEXTMIN
 10
1.0000000000E+20
 20
1.0000000000E+20
 30
1.0000000000E+20
  9
$PEXTMAX
 10
-1.0000000000E+20
 20
-1.0000000000E+20
 30
-1.0000000000E+20
  9
$PLIMMIN
 10
0.0
 20
0.0
  9
$PLIMMAX
 10
420.0
 20
297.0
  9
$UNITMODE
 70
     0
  9
$VISRETAIN
 70
     1
  9
$PLINEGEN
 70
     0
  9
$PSLTSCALE
 70
     1
  9
$TREEDEPTH
 70
  3020
  9
$CMLSTYLE
  2
Standard
  9
$CMLJUST
 70
     0
  9
$CMLSCALE
 40
20.0
  9
$PROXYGRAPHICS
 70
     1
  9
$MEASUREMENT
 70
     1
  9
$CELWEIGHT
370
    -1
  9
$ENDCAPS
280
     0
  9
$JOINSTYLE
280
     0
  9
$LWDISPLAY
290
     1
  9
$INSUNITS
 70
     4
  9
$HYPERLINKBASE
  1

  9
$STYLESHEET
  1

  9
$XEDIT
290
     1
  9
$CEPSNTYPE
380
     0
  9
$PSTYLEMODE
290
     1
  9
$FINGERPRINTGUID
  2
{2ab4cab7-b84e-47c1-87ee-8c3ab997a43a}
  9
$VERSIONGUID
  2
{FAEB1C32-E019-11D5-929B-00C0DF256EC4}
  9
$EXTNAMES
290
     1
  9
$PSVPSCALE
 40
0.0
  9
$OLESTARTUP
290
     0
  0
ENDSEC
  0
SECTION
  2
CLASSES
  0
CLASS
  1
ACDBDICTIONARYWDFLT
  2
AcDbDictionaryWithDefault
  3
ObjectDBX Classes
 90
        0
280
     0
281
     0
  0
CLASS
  1
VISUALSTYLE
  2
AcDbVisualStyle
  3
ObjectDBX Classes
 90
     4095
280
     0
281
     0
  0
CLASS
  1
MATERIAL
  2
AcDbMaterial
  3
ObjectDBX Classes
 90
     1153
280
     0
281
     0
  0
CLASS
  1
SCALE
  2
AcDbScale
  3
ObjectDBX Classes
 90
     1153
280
     0
281
     0
  0
CLASS
  1
TABLESTYLE
  2
AcDbTableStyle
  3
ObjectDBX Classes
 90
     4095
280
     0
281
     0
  0
CLASS
  1
MLEADERSTYLE
  2
AcDbMLeaderStyle
  3
ACDB_MLEADERSTYLE_CLASS
 90
     4095
280
     0
281
     0
  0
CLASS
  1
SUN
  2
AcDbSun
  3
SCENEOE
 90
     1153
280
     0
281
     0
  0
CLASS
  1
ACDBPLACEHOLDER
  2
AcDbPlaceHolder
  3
ObjectDBX Classes
 90
        0
280
     0
281
     0
  0
CLASS
  1
LAYOUT
  2
AcDbLayout
  3
ObjectDBX Classes
 90
        0
280
     0
281
     0
  0
ENDSEC
  0
SECTION
  2
TABLES
  0
TABLE
  2
VPORT
  5
8
330
0
100
AcDbSymbolTable
 70
     1
  0
VPORT
  5
29
330
8
100
AcDbSymbolTableRecord
100
AcDbViewportTableRecord
  2
*Active
 70
     0
 10
0.0
 20
0.0
 11
1.0
 21
1.0
 12
139.7
 22
107.95
 13
0.0
 23
0.0
 14
10.0
 24
10.0
 15
10.0
 25
10.0
 16
0.0
 26
0.0
 36
1.0
 17
0.0
 27
0.0
 37
0.0
 40
215.9
 41
1.2941176471
 42
50.0
 43
0.0
 44
0.0
 50
0.0
 51
0.0
 71
     0
 72
  2000
 73
     1
 74
     3
 75
     0
 76
     0
 77
     0
 78
     0
281
     0
 65
     1
110
0.0
120
0.0
130
0.0
111
1.0
121
0.0
131
0.0
112
0.0
122
1.0
132
0.0
 79
     0
146
0.0
  0
ENDTAB
  0
TABLE
  2
LTYPE
  5
5
330
0
100
AcDbSymbolTable
 70
     6
  0
LTYPE
  5
14
330
5
100
AcDbSymbolTableRecord
100
AcDbLinetypeTableRecord
  2
ByBlock
 70
     0
  3

 72
    65
 73
     0
 40
0.0
  0
LTYPE
  5
15
330
5
100
AcDbSymbolTableRecord
100
AcDbLinetypeTableRecord
  2
ByLayer
 70
     0
  3

 72
    65
 73
     0
 40
0.0
  0
LTYPE
  5
16
330
5
100
AcDbSymbolTableRecord
100
AcDbLinetypeTableRecord
  2
Continuous
 70
     0
  3
Solid line
 72
    65
 73
     0
 40
0.0
  0
LTYPE
  5
6E
330
5
100
AcDbSymbolTableRecord
100
AcDbLinetypeTableRecord
  2
HIDDEN
 70
     0
  3
Hidden __ __ __ __ __ __ __ __ __ __ __ __ __ __
 72
    65
 73
     2
 40
1.905
 49
1.27
 74
     0
 49
-0.635
 74
     0
  0
LTYPE
  5
6F
330
5
100
AcDbSymbolTableRecord
100
AcDbLinetypeTableRecord
  2
PHANTOM
 70
     0
  3
Phantom ______  __  __  ______  __  __  ______
 72
    65
 73
     6
 40
12.7
 49
6.35
 74
     0
 49
-1.27
 74
     0
 49
1.27
 74
     0
 49
-1.27
 74
     0
 49
1.27
 74
     0
 49
-1.27
 74
     0
  0
LTYPE
  5
70
330
5
100
AcDbSymbolTableRecord
100
AcDbLinetypeTableRecord
  2
CENTER
 70
     0
  3
Center ____ _ ____ _ ____ _ ____ _ ____ _ ____
 72
    65
 73
     4
 40
10.16
 49
6.35
 74
     0
 49
-1.27
 74
     0
 49
1.27
 74
     0
 49
-1.27
 74
     0
  0
LTYPE
  5
71
330
5
100
AcDbSymbolTableRecord
100
AcDbLinetypeTableRecord
  2
CENTERX2
 70
     0
  3
Center (2x) ________  __  ________  __  _____
 72
    65
 73
     4
 40
20.32
 49
12.7
 74
     0
 49
-2.54
 74
     0
 49
2.54
 74
     0
 49
-2.54
 74
     0
  0
LTYPE
  5
72
330
5
100
AcDbSymbolTableRecord
100
AcDbLinetypeTableRecord
  2
DOT2
 70
     0
  3
Dot (.5x) ........................................
 72
    65
 73
     2
 40
0.635
 49
0.0
 74
     0
 49
-0.635
 74
     0
  0
ENDTAB
  0
TABLE
  2
LAYER
  5
2
330
0
100
AcDbSymbolTable
 70
     5
  0
LAYER
  5
10
330
2
100
AcDbSymbolTableRecord
100
AcDbLayerTableRecord
  2
0
 70
     0
 62
     7
  6
Continuous
370
    -3
390
F
  0
LAYER
  5
73
330
2
100
AcDbSymbolTableRecord
100
AcDbLayerTableRecord
  2
FORMAT
 70
     0
 62
     7
  6
Continuous
370
    -3
390
F
  0
LAYER
  5
74
330
2
100
AcDbSymbolTableRecord
100
AcDbLayerTableRecord
  2
OUT_LINE
 70
     0
 62
     7
  6
Continuous
370
    50
390
F
  0
LAYER
  5
75
330
2
100
AcDbSymbolTableRecord
100
AcDbLayerTableRecord
  2
WATERMARK
 70
     0
 62
   254
  6
Continuous
370
    -3
390
F
  0
LAYER
  5
76
330
2
100
AcDbSymbolTableRecord
100
AcDbLayerTableRecord
  2
LAYER3
 70
     0
 62
     7
  6
Continuous
370
    35
390
F
  0
ENDTAB
  0
TABLE
  2
STYLE
  5
3
330
0
100
AcDbSymbolTable
 70
     1
  0
STYLE
  5
11
330
3
100
AcDbSymbolTableRecord
100
AcDbTextStyleTableRecord
  2
Standard
 70
     0
 40
0.0
 41
1.0
 50
0.0
 71
     0
 42
3.5277777778
  3
txt
  4

  0
ENDTAB
  0
TABLE
  2
VIEW
  5
6
330
0
100
AcDbSymbolTable
 70
     0
  0
ENDTAB
  0
TABLE
  2
UCS
  5
7
330
0
100
AcDbSymbolTable
 70
     0
  0
ENDTAB
  0
TABLE
  2
APPID
  5
9
330
0
100
AcDbSymbolTable
 70
     1
  0
APPID
  5
12
330
9
100
AcDbSymbolTableRecord
100
AcDbRegAppTableRecord
  2
ACAD
 70
     0
  0
ENDTAB
  0
TABLE
  2
DIMSTYLE
  5
A
330
0
100
AcDbSymbolTable
 70
     1
100
AcDbDimStyleTable
  0
DIMSTYLE
105
27
330
A
100
AcDbSymbolTableRecord
100
AcDbDimStyleTableRecord
  2
ISO-25
 70
     0
 41
2.5
 42
0.625
 43
3.75
 44
1.25
 73
     0
 74
     0
 77
     1
 78
     8
140
2.5
141
2.5
143
0.0393700787
147
0.625
171
     3
172
     1
178
     0
271
     2
272
     2
274
     3
278
    44
283
     0
284
     8
340
11
  0
ENDTAB
  0
TABLE
  2
BLOCK_RECORD
  5
1
330
0
100
AcDbSymbolTable
 70
     4
  0
BLOCK_RECORD
  5
1F
330
1
100
AcDbSymbolTableRecord
100
AcDbBlockTableRecord
  2
*Model_Space
340
22
  0
BLOCK_RECORD
  5
1B
330
1
100
AcDbSymbolTableRecord
100
AcDbBlockTableRecord
  2
*Paper_Space
340
1E
  0
BLOCK_RECORD
  5
23
330
1
100
AcDbSymbolTableRecord
100
AcDbBlockTableRecord
  2
*Paper_Space0
340
26
  0
BLOCK_RECORD
  5
77
330
1
100
AcDbSymbolTableRecord
100
AcDbBlockTableRecord
  2
Block5
340
0
  0
BLOCK_RECORD
  5
85
330
1
100
AcDbSymbolTableRecord
100
AcDbBlockTableRecord
  2
Block2
340
0
  0
BLOCK_RECORD
  5
90
330
1
100
AcDbSymbolTableRecord
100
AcDbBlockTableRecord
  2
Block7
340
0
  0
ENDTAB
  0
ENDSEC
  0
SECTION
  2
BLOCKS
  0
BLOCK
  5
20
330
1F
100
AcDbEntity
  8
0
100
AcDbBlockBegin
  2
*Model_Space
 70
     0
 10
0.0
 20
0.0
 30
0.0
  3
*Model_Space
  1

  0
ENDBLK
  5
21
330
1F
100
AcDbEntity
  8
0
100
AcDbBlockEnd
  0
BLOCK
  5
1C
330
1B
100
AcDbEntity
 67
     1
  8
0
100
AcDbBlockBegin
  2
*Paper_Space
 70
     0
 10
0.0
 20
0.0
 30
0.0
  3
*Paper_Space
  1

  0
ENDBLK
  5
1D
330
1B
100
AcDbEntity
 67
     1
  8
0
100
AcDbBlockEnd
  0
BLOCK
  5
24
330
23
100
AcDbEntity
  8
0
100
AcDbBlockBegin
  2
*Paper_Space0
 70
     0
 10
0.0
 20
0.0
 30
0.0
  3
*Paper_Space0
  1

  0
ENDBLK
  5
25
330
23
100
AcDbEntity
  8
0
100
AcDbBlockEnd
  0
BLOCK
  5
78
330
77
100
AcDbEntity
  8
0
100
AcDbBlockBegin
  2
Block5
 70
     0
 10
0.0
 20
0.0
 30
0.0
  3
Block5
  1

  0
LINE
  5
7A
330
77
100
AcDbEntity
  8
LAYER3
100
AcDbLine
 10
251.0883122991
 20
64.4632252413
 30
0.0
 11
250.3611798328
 21
64.9733337839
 31
0.0
  0
LINE
  5
7B
330
77
100
AcDbEntity
  8
LAYER3
100
AcDbLine
 10
250.3611798328
 20
64.9733337839
 30
0.0
 11
251.0883122991
 21
65.4834423266
 31
0.0
  0
LINE
  5
7C
330
77
100
AcDbEntity
  8
LAYER3
100
AcDbLine
 10
250.3611798328
 20
65.6106440044
 30
0.0
 11
250.3611798328
 21
64.3360235634
 31
0.0
  0
LINE
  5
7D
330
77
100
AcDbEntity
  8
LAYER3
100
AcDbLine
 10
251.0883122991
 20
65.4834423266
 30
0.0
 11
251.0883122991
 21
64.4632252413
 31
0.0
  0
LINE
  5
7E
330
77
100
AcDbEntity
  8
LAYER3
  6
Continuous
 62
     7
370
    18
100
AcDbLine
 10
254.0738326611
 20
65.4834423266
 30
0.0
 11
254.0738326611
 21
64.4632252413
 31
0.0
  0
LINE
  5
7F
330
77
100
AcDbEntity
  8
LAYER3
100
AcDbLine
 10
251.0883122991
 20
64.9733337839
 30
0.0
 11
254.0738326611
 21
64.9733337839
 31
0.0
  0
LINE
  5
80
330
77
100
AcDbEntity
  8
LAYER3
100
AcDbLine
 10
254.0738326611
 20
64.9733337839
 30
0.0
 11
254.0738326611
 21
64.4632252413
 31
0.0
  0
LINE
  5
81
330
77
100
AcDbEntity
  8
LAYER3
100
AcDbLine
 10
254.0738326611
 20
65.4834423266
 30
0.0
 11
254.8009651274
 21
64.9733337839
 31
0.0
  0
LINE
  5
82
330
77
100
AcDbEntity
  8
LAYER3
100
AcDbLine
 10
254.8009651274
 20
64.9733337839
 30
0.0
 11
254.0738326611
 21
64.4632252413
 31
0.0
  0
LINE
  5
83
330
77
100
AcDbEntity
  8
LAYER3
100
AcDbLine
 10
254.0738326611
 20
65.4834423266
 30
0.0
 11
254.0738326611
 21
64.9733337839
 31
0.0
  0
LINE
  5
84
330
77
100
AcDbEntity
  8
LAYER3
100
AcDbLine
 10
254.8009651274
 20
65.6106440044
 30
0.0
 11
254.8009651274
 21
64.3360235634
 31
0.0
  0
ENDBLK
  5
79
330
77
100
AcDbEntity
  8
0
100
AcDbBlockEnd
  0
BLOCK
  5
86
330
85
100
AcDbEntity
  8
0
100
AcDbBlockBegin
  2
Block2
 70
     0
 10
0.0
 20
0.0
 30
0.0
  3
Block2
  1

  0
CIRCLE
  5
88
330
85
100
AcDbEntity
  8
FORMAT
100
AcDbCircle
 10
44.9757425281
 20
71.5551333392
 30
0.0
 40
3.500000000000012
  0
CIRCLE
  5
89
330
85
100
AcDbEntity
  8
FORMAT
100
AcDbCircle
 10
44.9757425281
 20
71.5551333392
 30
0.0
 40
1.664444312410222
  0
LINE
  5
8A
330
85
100
AcDbEntity
  8
FORMAT
100
AcDbLine
 10
50.8419693267
 20
74.6444962432
 30
0.0
 11
58.8419693267
 21
73.6204905773
 31
0.0
  0
LINE
  5
8B
330
85
100
AcDbEntity
  8
FORMAT
100
AcDbLine
 10
58.8419693267
 20
73.6204905773
 30
0.0
 11
58.8419693267
 21
69.4897761011
 31
0.0
  0
LINE
  5
8C
330
85
100
AcDbEntity
  8
FORMAT
100
AcDbLine
 10
58.8419693267
 20
69.4897761011
 30
0.0
 11
50.8419693267
 21
68.4657704351
 31
0.0
  0
LINE
  5
8D
330
85
100
AcDbEntity
  8
FORMAT
100
AcDbLine
 10
50.8419693267
 20
68.4657704351
 30
0.0
 11
50.8419693267
 21
74.6444962432
 31
0.0
  0
LINE
  5
8E
330
85
100
AcDbEntity
  8
FORMAT
  6
CENTERX2
100
AcDbLine
 10
58.8419693267
 20
71.5551333392
 30
0.0
 11
40.5246830005
 21
71.5551333392
 31
0.0
  0
LINE
  5
8F
330
85
100
AcDbEntity
  8
FORMAT
100
AcDbLine
 10
44.9757425281
 20
77.2283416432
 30
0.0
 11
44.9757425281
 21
65.8819250352
 31
0.0
  0
ENDBLK
  5
87
330
85
100
AcDbEntity
  8
0
100
AcDbBlockEnd
  0
BLOCK
  5
91
330
90
100
AcDbEntity
  8
0
100
AcDbBlockBegin
  2
Block7
 70
     0
 10
0.0
 20
0.0
 30
0.0
  3
Block7
  1

  0
LINE
  5
93
330
90
100
AcDbEntity
  8
FORMAT
100
AcDbLine
 10
221.8284763776
 20
80.2705155621
 30
0.0
 11
222.3963943455
 21
79.286852787
 31
0.0
  0
LINE
  5
94
330
90
100
AcDbEntity
  8
FORMAT
100
AcDbLine
 10
222.3963943455
 20
79.286852787
 30
0.0
 11
222.9643123135
 21
80.2705155621
 31
0.0
  0
LINE
  5
95
330
90
100
AcDbEntity
  8
FORMAT
100
AcDbLine
 10
221.8284763776
 20
80.2705155621
 30
0.0
 11
222.9643123135
 21
80.2705155621
 31
0.0
  0
LINE
  5
96
330
90
100
AcDbEntity
  8
FORMAT
100
AcDbLine
 10
222.9643123135
 20
80.2705155621
 30
0.0
 11
223.3725273771
 21
80.9775647926
 31
0.0
  0
LINE
  5
97
330
90
100
AcDbEntity
  8
FORMAT
100
AcDbLine
 10
223.3725273771
 20
80.9775647926
 30
0.0
 11
224.1023154201
 21
80.9775647926
 31
0.0
  0
ENDBLK
  5
92
330
90
100
AcDbEntity
  8
0
100
AcDbBlockEnd
  0
ENDSEC
  0
SECTION
  2
ENTITIES
  0
LINE
  5
98
330
1F
100
AcDbEntity
  8
0
  6
Continuous
 62
     7
370
    25
100
AcDbLine
 10
144.3840383513
 20
47.7589439622
 30
0.0
 11
144.3840383513
 21
133.0224621855
 31
0.0
  0
LINE
  5
99
330
1F
100
AcDbEntity
  8
0
  6
Continuous
 62
     7
370
    25
100
AcDbLine
 10
127.1840383513
 20
133.0224621855
 30
0.0
 11
127.1840383513
 21
47.7589439622
 31
0.0
  0
LINE
  5
9A
330
1F
100
AcDbEntity
  8
0
  6
Continuous
 62
     7
370
    25
100
AcDbLine
 10
127.1840383513
 20
47.7589439622
 30
0.0
 11
127.1840383513
 21
47.5852957846
 31
0.0
  0
LINE
  5
9B
330
1F
100
AcDbEntity
  8
0
  6
Continuous
 62
     7
370
    25
100
AcDbLine
 10
144.3840383513
 20
47.5852957846
 30
0.0
 11
144.3840383513
 21
47.7589439622
 31
0.0
  0
LINE
  5
9C
330
1F
100
AcDbEntity
  8
0
  6
Continuous
 62
     7
370
    25
100
AcDbLine
 10
146.5840383513
 20
47.0643512516
 30
0.0
 11
146.5840383513
 21
47.083215268
 31
0.0
  0
LINE
  5
9D
330
1F
100
AcDbEntity
  8
0
  6
Continuous
 62
     7
370
    25
100
AcDbLine
 10
147.3340383513
 20
44.7971057187
 30
0.0
 11
147.3340383513
 21
47.0643512516
 31
0.0
  0
LINE
  5
9E
330
1F
100
AcDbEntity
  8
0
  6
Continuous
 62
     7
370
    25
100
AcDbLine
 10
124.2340383513
 20
47.0643512516
 30
0.0
 11
124.2340383513
 21
44.7971057187
 31
0.0
  0
LINE
  5
9F
330
1F
100
AcDbEntity
  8
0
  6
Continuous
 62
     7
370
    25
100
AcDbLine
 10
128.8087889133
 20
35.7310746978
 30
0.0
 11
129.1409436484
 21
35.4832264185
 31
0.0
  0
LINE
  5
A0
330
1F
100
AcDbEntity
  8
0
  6
Continuous
 62
     7
370
    25
100
AcDbLine
 10
142.4271330541
 20
35.4832264185
 30
0.0
 11
142.7592877893
 21
35.7310746978
 31
0.0
  0
SPLINE
  5
A1
330
1F
100
AcDbEntity
  8
0
  6
Continuous
 62
     7
370
    25
100
AcDbSpline
210
0.0
220
0.0
230
1.0
 70
     8
 71
     3
 72
    52
 73
    48
 74
     0
 42
0.00000001
 43
0.00000001
 40
0.0
 40
0.0
 40
0.0
 40
0.0
 40
0.0021692124232678
 40
0.0267762707276502
 40
0.0533773230083715
 40
0.0809786709012334
 40
0.106724954653091
 40
0.1249929651828606
 40
0.146035384554755
 40
0.1624320565730226
 40
0.1804403310021609
 40
0.1987082935414311
 40
0.2126140866176452
 40
0.2255650888661231
 40
0.2368504202235597
 40
0.2464111544536263
 40
0.2566698872299223
 40
0.2672955781960749
 40
0.2795281662225199
 40
0.3009217041259605
 40
0.3240434143664783
 40
0.3470837826526817
 40
0.370148190011546
 40
0.3999235066628728
 40
0.428293759657663
 40
0.455874817856432
 40
0.4848697703228435
 40
0.5154959270517877
 40
0.5477477977688554
 40
0.5811244046398008
 40
0.6133042729481849
 40
0.6440044974356782
 40
0.6660712934987563
 40
0.6873186036311066
 40
0.7077514888365741
 40
0.7286499718535888
 40
0.7537280748806402
 40
0.7832068328600553
 40
0.8053043501160964
 40
0.8293456229049905
 40
0.855324721222878
 40
0.8832328096951355
 40
0.9130626326293639
 40
0.9448040105973095
 40
0.9698700201708613
 40
0.9960098270815844
 40
1.0
 40
1.0
 40
1.0
 40
1.0
 10
42.33613262859194
 20
132.4157251653168
 30
0.0
 10
42.23055411621446
 20
132.3968497399029
 30
0.0
 10
40.9273166830713
 20
132.1638557299302
 30
0.0
 10
38.5995905946419
 20
131.6656992471546
 30
0.0
 10
35.36477390819066
 20
130.8995371505867
 30
0.0
 10
32.49577659181602
 20
130.0702791093972
 30
0.0
 10
30.21530728300338
 20
129.255401160549
 30
0.0
 10
28.40160209471791
 20
128.4575666415507
 30
0.0
 10
26.82993502230138
 20
127.5892574066063
 30
0.0
 10
25.37515214732722
 20
126.4983433874373
 30
0.0
 10
24.15054144454344
 20
125.2310543177503
 30
0.0
 10
23.16050688267052
 20
123.6129598992499
 30
0.0
 10
22.6185817886821
 20
121.7729175241782
 30
0.0
 10
22.54345467798953
 20
120.1329633299547
 30
0.0
 10
22.78038497345215
 20
118.728572625101
 30
0.0
 10
23.21064643508293
 20
117.5203484559337
 30
0.0
 10
23.80163465010893
 20
116.4484827860281
 30
0.0
 10
24.51167077889069
 20
115.5188108906108
 30
0.0
 10
25.52426115573843
 20
114.4978756758842
 30
0.0
 10
26.93906418691108
 20
113.4600999499315
 30
0.0
 10
28.8137899757806
 20
112.4593475304441
 30
0.0
 10
30.91406578997789
 20
111.5999357507722
 30
0.0
 10
33.39085713380349
 20
110.77751739562
 30
0.0
 10
36.4263062197416
 20
109.9533544363608
 30
0.0
 10
40.04788316401102
 20
109.13946520243
 30
0.0
 10
43.99730916369204
 20
108.3814387050339
 30
0.0
 10
48.45479257437048
 20
107.6412446365945
 30
0.0
 10
53.53403652626054
 20
106.9094033011283
 30
0.0
 10
59.2051836432286
 20
106.1968084619031
 30
0.0
 10
65.25583822260002
 20
105.5329699507124
 30
0.0
 10
71.40212153414939
 20
104.9422203069239
 30
0.0
 10
76.90772213481509
 20
104.473778989785
 30
0.0
 10
81.70728800887488
 20
104.1044102652761
 30
0.0
 10
85.81643431604388
 20
103.8135976431666
 30
0.0
 10
89.80014934663672
 20
103.5539572106675
 30
0.0
 10
93.95016934686488
 20
103.3047856647758
 30
0.0
 10
98.53010279598551
 20
103.054465152687
 30
0.0
 10
102.9747795169715
 20
102.8381045323515
 30
0.0
 10
107.1076147359561
 20
102.6588869832029
 30
0.0
 10
110.8074438525454
 20
102.5153119047739
 30
0.0
 10
114.48800738328
 20
102.3897358974477
 30
0.0
 10
118.0353492345827
 20
102.2858962139892
 30
0.0
 10
121.3004093146539
 20
102.2069708876828
 30
0.0
 10
123.8977500241523
 20
102.1579732151607
 30
0.0
 10
125.7887939027081
 20
102.1308736292452
 30
0.0
 10
126.8407296026004
 20
102.1198485472427
 30
0.0
 10
127.1438901936173
 20
102.1180926530179
 30
0.0
 10
127.1840383512684
 20
102.1178601164672
 30
0.0
  0
SPLINE
  5
A2
330
1F
100
AcDbEntity
  8
0
  6
Continuous
 62
     7
370
    25
100
AcDbSpline
210
0.0
220
0.0
230
1.0
 70
     8
 71
     3
 72
    29
 73
    25
 74
     0
 42
0.00000001
 43
0.00000001
 40
0.0
 40
0.0
 40
0.0
 40
0.0
 40
0.041506505590771
 40
0.1019731074714535
 40
0.1555376493340072
 40
0.2022252723002159
 40
0.2420542401930275
 40
0.2764046744243714
 40
0.3114199465084395
 40
0.3478369514395989
 40
0.3985514127559705
 40
0.4517217329911297
 40
0.5073227588221867
 40
0.5643732611099872
 40
0.6190998425473585
 40
0.6711170039044945
 40
0.720432473393134
 40
0.7675463467271112
 40
0.8162890048393175
 40
0.854407915921898
 40
0.8937062500745695
 40
0.9332039637318604
 40
0.9726717795271546
 40
1.0
 40
1.0
 40
1.0
 40
1.0
 10
114.6158608101567
 20
114.3953985037231
 30
0.0
 10
113.5993845799624
 20
114.4278348030723
 30
0.0
 10
111.1021076257004
 20
114.5075242443402
 30
0.0
 10
106.6425863641908
 20
114.685416786291
 30
0.0
 10
101.7416645059334
 20
114.9082716814888
 30
0.0
 10
97.21530036408532
 20
115.1412395093373
 30
0.0
 10
93.17491927100704
 20
115.3706568421578
 30
0.0
 10
89.44000468144114
 20
115.6009568192535
 30
0.0
 10
85.76149708728536
 20
115.8457172587634
 30
0.0
 10
81.4685130658905
 20
116.1545290601203
 30
0.0
 10
76.50931515190452
 20
116.5457890155867
 30
0.0
 10
70.90574323676712
 20
117.0394405405519
 30
0.0
 10
65.19464181890383
 20
117.6055539750329
 30
0.0
 10
59.63840009969987
 20
118.2309804682761
 30
0.0
 10
54.48512553423942
 20
118.8913739768972
 30
0.0
 10
49.90268086391039
 20
119.561338390527
 30
0.0
 10
45.90580159041703
 20
120.2316116618353
 30
0.0
 10
42.37299251533172
 20
120.9146281932201
 30
0.0
 10
39.54097604421715
 20
121.5549269748205
 30
0.0
 10
37.28210929743187
 20
122.1521206106737
 30
0.0
 10
35.51583034686268
 20
122.707996858866
 30
0.0
 10
34.26913953680463
 20
123.1823361300431
 30
0.0
 10
33.58250255488121
 20
123.5221204769114
 30
0.0
 10
33.54395997985073
 20
123.5206544934573
 30
0.0
 10
33.52819108027416
 20
123.5200547165651
 30
0.0
  0
SPLINE
  5
A3
330
1F
100
AcDbEntity
  8
0
  6
Continuous
 62
     7
370
    25
100
AcDbSpline
210
0.0
220
0.0
230
1.0
 70
     8
 71
     3
 72
    11
 73
     7
 74
     0
 42
0.00000001
 43
0.00000001
 40
0.0
 40
0.0
 40
0.0
 40
0.0
 40
0.1469847948067657
 40
0.5390670048404279
 40
0.8798215696438761
 40
1.0
 40
1.0
 40
1.0
 40
1.0
 10
44.27277645330785
 20
120.5632915791998
 30
0.0
 10
44.69116930784854
 20
120.645935270545
 30
0.0
 10
46.22562587010994
 20
120.9490311603
 30
0.0
 10
49.09674343091781
 20
121.4240323769366
 30
0.0
 10
51.98039609163163
 20
121.8735279945652
 30
0.0
 10
53.67456909719051
 20
122.1006835790406
 30
0.0
 10
54.11628851128732
 20
122.1599095443665
 30
0.0
  0
SPLINE
  5
A4
330
1F
100
AcDbEntity
  8
0
  6
Continuous
 62
     7
370
    25
100
AcDbSpline
210
0.0
220
0.0
230
1.0
 70
     8
 71
     3
 72
    10
 73
     6
 74
     0
 42
0.00000001
 43
0.00000001
 40
0.0
 40
0.0
 40
0.0
 40
0.0
 40
0.1784504878908836
 40
0.812586609373039
 40
1.0
 40
1.0
 40
1.0
 40
1.0
 10
60.33403835126849
 20
122.9545296691733
 30
0.0
 10
60.83193678983736
 20
123.0153530039629
 30
0.0
 10
63.09915168395526
 20
123.2923162556277
 30
0.0
 10
66.04732031220121
 20
123.6072873951083
 30
0.0
 10
68.52593532766123
 20
123.8405040780565
 30
0.0
 10
69.09136155853284
 20
123.8937058981025
 30
0.0
  0
SPLINE
  5
A5
330
1F
100
AcDbEntity
  8
0
  6
Continuous
 62
     7
370
    25
100
AcDbSpline
210
0.0
220
0.0
230
1.0
 70
     8
 71
     3
 72
     9
 73
     5
 74
     0
 42
0.00000001
 43
0.00000001
 40
0.0
 40
0.0
 40
0.0
 40
0.0
 40
0.0702442238240751
 40
1.0
 40
1.0
 40
1.0
 40
1.0
 10
73.03403835126849
 20
124.2684186102238
 30
0.0
 10
73.0686807102104
 20
124.2717234062629
 30
0.0
 10
73.56185092486983
 20
124.3187706346209
 30
0.0
 10
74.06563872973146
 20
124.3592999768378
 30
0.0
 10
74.53403835126848
 20
124.3969823668687
 30
0.0
  0
LINE
  5
A6
330
1F
100
AcDbEntity
  8
0
  6
Continuous
 62
     7
370
    25
100
AcDbLine
 10
75.0915710096
 20
124.444380544
 30
0.0
 11
75.2787714602
 21
124.4602952353
 31
0.0
  0
ARC
  5
A7
330
1F
100
AcDbEntity
  8
0
  6
Continuous
 62
     7
370
    25
100
AcDbCircle
 10
128.5840383513
 20
108.1012453818
 30
0.0
 40
7.499999999999995
100
AcDbArc
 50
233.6832916761
 51
259.241681771
  0
SPLINE
  5
A8
330
1F
100
AcDbEntity
  8
0
  6
Continuous
 62
     7
370
    25
100
AcDbSpline
210
0.0
220
0.0
230
1.0
 70
     8
 71
     3
 72
    53
 73
    49
 74
     0
 42
0.00000001
 43
0.00000001
 40
0.0
 40
0.0
 40
0.0
 40
0.0
 40
0.0024413691190379
 40
0.0258446332472697
 40
0.0511443437983581
 40
0.0773954148138976
 40
0.1018821726990458
 40
0.1192564996192766
 40
0.139269509397441
 40
0.1548640449701538
 40
0.1719913422580112
 40
0.1893656235354709
 40
0.2025911356730681
 40
0.2149085660053428
 40
0.2256418112094503
 40
0.2347348277609745
 40
0.2444916962909221
 40
0.2545975711642932
 40
0.2662317325912104
 40
0.2865786839414405
 40
0.3085692642522503
 40
0.3304824819129616
 40
0.3524185626384059
 40
0.3807372503690982
 40
0.4077196111214026
 40
0.4339513850286061
 40
0.4615278845257482
 40
0.4906557886536641
 40
0.521329875725936
 40
0.5530736760877112
 40
0.5836792831585359
 40
0.6128776315994328
 40
0.6338649048581817
 40
0.6540727820002177
 40
0.673506076441603
 40
0.6933821913301299
 40
0.7172334563499957
 40
0.7452700932624877
 40
0.7662865848123612
 40
0.7891517420407312
 40
0.8138599250435953
 40
0.8404027306789196
 40
0.8687732582077553
 40
0.898961826186463
 40
0.9228015893728715
 40
0.947662618993941
 40
0.9735473351813404
 40
1.0
 40
1.0
 40
1.0
 40
1.0
 10
229.1740325132952
 20
133.6187962210683
 30
0.0
 10
229.2990267132694
 20
133.6411253637494
 30
0.0
 10
230.6222306610777
 20
133.8775044097603
 30
0.0
 10
232.9690399833629
 20
134.3791560626163
 30
0.0
 10
236.2031426313205
 20
135.1454071908317
 30
0.0
 10
239.0723409177156
 20
135.9746401735794
 30
0.0
 10
241.3527622211745
 20
136.7895241080933
 30
0.0
 10
243.1664765497494
 20
137.5873574874121
 30
0.0
 10
244.7381412637697
 20
138.455667016419
 30
0.0
 10
246.1929246659557
 20
139.5465809698512
 30
0.0
 10
247.4175352263706
 20
140.8138700572898
 30
0.0
 10
248.4075698261797
 20
142.4319644710601
 30
0.0
 10
248.9494949124691
 20
144.2720068470918
 30
0.0
 10
249.0246220248581
 20
145.9119610411037
 30
0.0
 10
248.78769172902
 20
147.3163517460042
 30
0.0
 10
248.3574302674715
 20
148.5245759151613
 30
0.0
 10
247.7664420524231
 20
149.5964415850697
 30
0.0
 10
247.0564059236479
 20
150.5261134804862
 30
0.0
 10
246.0438155467978
 20
151.547048695213
 30
0.0
 10
244.6290125156262
 20
152.5848244211657
 30
0.0
 10
242.7542867267563
 20
153.585576840653
 30
0.0
 10
240.6540109125591
 20
154.444988620325
 30
0.0
 10
238.1772195687335
 20
155.2674069754771
 30
0.0
 10
235.1417704827954
 20
156.0915699347363
 30
0.0
 10
231.5201935385258
 20
156.9054591686672
 30
0.0
 10
227.5707675388454
 20
157.6634856660631
 30
0.0
 10
223.1132841281646
 20
158.4036797345026
 30
0.0
 10
218.0340401762845
 20
159.1355210699686
 30
0.0
 10
212.3628930592771
 20
159.8481159091944
 30
0.0
 10
206.3122384800581
 20
160.5119544203829
 30
0.0
 10
200.1659551679653
 20
161.1027040641789
 30
0.0
 10
194.6603545690453
 20
161.5711453812941
 30
0.0
 10
189.8607886902909
 20
161.9405141058667
 30
0.0
 10
185.7516423984937
 20
162.2313267277673
 30
0.0
 10
181.7679273125257
 20
162.4909671610191
 30
0.0
 10
177.6179075359859
 20
162.7401387038699
 30
0.0
 10
173.0379730205805
 20
162.9904592304545
 30
0.0
 10
168.5933006942197
 20
163.2068197910466
 30
0.0
 10
164.4604521643401
 20
163.3860375211524
 30
0.0
 10
160.7606748168904
 20
163.529611895797
 30
0.0
 10
157.0798935761995
 20
163.6551908628186
 30
0.0
 10
153.5334565279247
 20
163.759018245777
 30
0.0
 10
150.2646652954875
 20
163.8379942958746
 30
0.0
 10
147.6812312916032
 20
163.8868029113006
 30
0.0
 10
145.7474910952765
 20
163.9144829396354
 30
0.0
 10
144.4121998006127
 20
163.9279817887203
 30
0.0
 10
143.5290149220467
 20
163.9324168233678
 30
0.0
 10
143.4199072240822
 20
163.9320542057785
 30
0.0
 10
143.3647613740623
 20
163.9318709294784
 30
0.0
  0
SPLINE
  5
A9
330
1F
100
AcDbEntity
  8
0
  6
Continuous
 62
     7
370
    25
100
AcDbSpline
210
0.0
220
0.0
230
1.0
 70
     8
 71
     3
 72
    29
 73
    25
 74
     0
 42
0.00000001
 43
0.00000001
 40
0.0
 40
0.0
 40
0.0
 40
0.0
 40
0.0425096874469878
 40
0.1029130035586309
 40
0.1564214835106482
 40
0.2030602421115357
 40
0.2428475240688922
 40
0.2771620063270887
 40
0.3121406306030608
 40
0.3485195206395258
 40
0.399180903006758
 40
0.4522955739330161
 40
0.5078384064214724
 40
0.5648291983104878
 40
0.6194985016193457
 40
0.6714612205908103
 40
0.7207250753480926
 40
0.7677896381930781
 40
0.8164812810917992
 40
0.8545602960246405
 40
0.8938174996156225
 40
0.9332738740359405
 40
0.9727003818860678
 40
1.0
 40
1.0
 40
1.0
 40
1.0
 10
156.8734577832258
 20
151.6521366536967
 30
0.0
 10
157.9152573978547
 20
151.6189105896183
 30
0.0
 10
160.4373819743147
 20
151.5384725940435
 30
0.0
 10
164.925098709916
 20
151.3595415075763
 30
0.0
 10
169.82649805934
 20
151.1366452521966
 30
0.0
 10
174.352758110788
 20
150.9036864406361
 30
0.0
 10
178.3931612855917
 20
150.6742671951013
 30
0.0
 10
182.1280710346554
 20
150.4439676372888
 30
0.0
 10
185.806579890599
 20
150.1992070884832
 30
0.0
 10
190.0995635284762
 20
149.8903953203465
 30
0.0
 10
195.0587615852413
 20
149.4991353525126
 30
0.0
 10
200.6623334558378
 20
149.0054838314055
 30
0.0
 10
206.3734348864277
 20
148.4393703958221
 30
0.0
 10
211.9296766021133
 20
147.8139439028837
 30
0.0
 10
217.082951168478
 20
147.1535503941842
 30
0.0
 10
221.665395838582
 20
146.483585980574
 30
0.0
 10
225.662275112131
 20
145.8133127092609
 30
0.0
 10
229.1950841872023
 20
145.1302961778773
 30
0.0
 10
232.0271006583204
 20
144.4899973962766
 30
0.0
 10
234.2859674051051
 20
143.8928037604234
 30
0.0
 10
236.0522463556745
 20
143.3369275122311
 30
0.0
 10
237.2989371657324
 20
142.862588241054
 30
0.0
 10
237.9855741476559
 20
142.5228038941857
 30
0.0
 10
238.0241167226863
 20
142.5242698776399
 30
0.0
 10
238.0398856222629
 20
142.524869654532
 30
0.0
  0
SPLINE
  5
AA
330
1F
100
AcDbEntity
  8
0
  6
Continuous
 62
     7
370
    25
100
AcDbSpline
210
0.0
220
0.0
230
1.0
 70
     8
 71
     3
 72
    11
 73
     7
 74
     0
 42
0.00000001
 43
0.00000001
 40
0.0
 40
0.0
 40
0.0
 40
0.0
 40
0.148796589288583
 40
0.5457117644292924
 40
0.8906666088670064
 40
1.0
 40
1.0
 40
1.0
 40
1.0
 10
227.2953002492289
 20
145.4816327918973
 30
0.0
 10
226.8769203767256
 20
145.3989875984446
 30
0.0
 10
225.3425114261103
 20
145.0958861997074
 30
0.0
 10
222.4706165918253
 20
144.620974918751
 30
0.0
 10
219.6304380969269
 20
144.1776281301179
 30
0.0
 10
217.9818742301792
 20
143.9563743441472
 30
0.0
 10
217.5851149396279
 20
143.9031252726831
 30
0.0
  0
SPLINE
  5
AB
330
1F
100
AcDbEntity
  8
0
  6
Continuous
 62
     7
370
    25
100
AcDbSpline
210
0.0
220
0.0
230
1.0
 70
     8
 71
     3
 72
    10
 73
     6
 74
     0
 42
0.00000001
 43
0.00000001
 40
0.0
 40
0.0
 40
0.0
 40
0.0
 40
0.2043186640539103
 40
0.9303791343889152
 40
1.0
 40
1.0
 40
1.0
 40
1.0
 10
211.2340383512685
 20
143.0903947019239
 30
0.0
 10
210.7360629992532
 20
143.029606115382
 30
0.0
 10
208.4684978744502
 20
142.7528010922607
 30
0.0
 10
205.8983540556379
 20
142.4755543162161
 30
0.0
 10
203.803908051367
 20
142.2772861459969
 30
0.0
 10
203.6206473197078
 20
142.2599379928982
 30
0.0
  0
SPLINE
  5
AC
330
1F
100
AcDbEntity
  8
0
  6
Continuous
 62
     7
370
    25
100
AcDbSpline
210
0.0
220
0.0
230
1.0
 70
     8
 71
     3
 72
     9
 73
     5
 74
     0
 42
0.00000001
 43
0.00000001
 40
0.0
 40
0.0
 40
0.0
 40
0.0
 40
0.8733717502657066
 40
1.0
 40
1.0
 40
1.0
 40
1.0
 10
199.7840383512685
 20
141.8953059858917
 30
0.0
 10
199.3355392083521
 20
141.8506761946803
 30
0.0
 10
198.8220131608472
 20
141.7995756281714
 30
0.0
 10
198.2973671865092
 20
141.7553013203156
 30
0.0
 10
198.2309321850486
 20
141.7496949422037
 30
0.0
  0
ARC
  5
AD
330
1F
100
AcDbEntity
  8
0
  6
Continuous
 62
     7
370
    25
100
AcDbCircle
 10
142.9840383513
 20
157.9436789893
 30
0.0
 40
7.499999999999984
100
AcDbArc
 50
53.6832916761
 51
153.6853547003
  0
LINE
  5
AE
330
1F
100
AcDbEntity
  8
0
  6
Continuous
 62
     7
370
    25
100
AcDbLine
 10
226.0840383513
 20
125.8724621855
 30
0.0
 11
227.6890433408
 21
127.0973344144
 31
0.0
  0
LINE
  5
AF
330
1F
100
AcDbEntity
  8
0
  6
Continuous
 62
     7
370
    25
100
AcDbLine
 10
227.6890433408
 20
138.9475899567
 30
0.0
 11
226.0840383513
 21
140.1724621855
 31
0.0
  0
ARC
  5
B0
330
1F
100
AcDbEntity
  8
0
  6
Continuous
 62
     7
370
    25
100
AcDbCircle
 10
227.2340383513
 20
127.6935478489
 30
0.0
 40
0.7500000000000014
100
AcDbArc
 50
307.3493490446
 51
0.0
  0
ARC
  5
B1
330
1F
100
AcDbEntity
  8
0
  6
Continuous
 62
     7
370
    25
100
AcDbCircle
 10
227.2340383513
 20
138.3513765222
 30
0.0
 40
0.7500000000000014
100
AcDbArc
 50
0.0
 51
52.6506509554
  0
ARC
  5
B2
330
1F
100
AcDbEntity
  8
0
  6
Continuous
 62
     7
370
    25
100
AcDbCircle
 10
43.5840383513
 20
137.0224621855
 30
0.0
 40
0.5000000000000083
100
AcDbArc
 50
90.0
 51
156.742337232
  0
ARC
  5
B3
330
1F
100
AcDbEntity
  8
0
  6
Continuous
 62
     7
370
    25
100
AcDbCircle
 10
43.5840383513
 20
129.0224621855
 30
0.0
 40
0.5000000000000083
100
AcDbArc
 50
203.257662768
 51
270.0
  0
ARC
  5
B4
330
1F
100
AcDbEntity
  8
0
  6
Continuous
 62
     7
370
    25
100
AcDbCircle
 10
52.8908584312
 20
133.0224621855
 30
0.0
 40
10.63000000000001
100
AcDbArc
 50
186.6454578524
 51
203.257662768
  0
ARC
  5
B5
330
1F
100
AcDbEntity
  8
0
  6
Continuous
 62
     7
370
    25
100
AcDbCircle
 10
52.8908584312
 20
133.0224621855
 30
0.0
 40
10.63000000000001
100
AcDbArc
 50
156.742337232
 51
173.3788698941
  0
LINE
  5
B6
330
1F
100
AcDbEntity
  8
0
  6
Continuous
 62
     7
370
    25
100
AcDbLine
 10
42.3272362065
 20
134.1491600893
 30
0.0
 11
42.5921073833
 21
134.1491600893
 31
0.0
  0
LINE
  5
B7
330
1F
100
AcDbEntity
  8
0
  6
Continuous
 62
     7
370
    25
100
AcDbLine
 10
42.4275944901
 20
131.8957642818
 30
0.0
 11
42.3272362065
 21
131.8957642818
 31
0.0
  0
ARC
  5
B8
330
1F
100
AcDbEntity
  8
0
  6
Continuous
 62
     7
370
    25
100
AcDbCircle
 10
227.9840383513
 20
129.0224621855
 30
0.0
 40
0.5000000000000036
100
AcDbArc
 50
270.0
 51
336.742337232
  0
ARC
  5
B9
330
1F
100
AcDbEntity
  8
0
  6
Continuous
 62
     7
370
    25
100
AcDbCircle
 10
227.9840383513
 20
137.0224621855
 30
0.0
 40
0.5000000000000148
100
AcDbArc
 50
23.257662768
 51
90.0
  0
ARC
  5
BA
330
1F
100
AcDbEntity
  8
0
  6
Continuous
 62
     7
370
    25
100
AcDbCircle
 10
218.6772182713
 20
133.0224621855
 30
0.0
 40
10.63
100
AcDbArc
 50
6.6431237694
 51
23.257662768
  0
ARC
  5
BB
330
1F
100
AcDbEntity
  8
0
  6
Continuous
 62
     7
370
    25
100
AcDbCircle
 10
218.6772182713
 20
133.0224621855
 30
0.0
 40
10.63000000000001
100
AcDbArc
 50
336.742337232
 51
353.3915325368
  0
LINE
  5
BC
330
1F
100
AcDbEntity
  8
0
  6
Continuous
 62
     7
370
    25
100
AcDbLine
 10
228.9759693192
 20
134.1491600893
 30
0.0
 11
229.240314014
 21
134.1491600893
 31
0.0
  0
LINE
  5
BD
330
1F
100
AcDbEntity
  8
0
  6
Continuous
 62
     7
370
    25
100
AcDbLine
 10
229.240314014
 20
131.8957642818
 30
0.0
 11
229.1404822124
 21
131.8957642818
 31
0.0
  0
LINE
  5
BE
330
1F
100
AcDbEntity
  8
0
  6
Continuous
 62
     7
370
    25
100
AcDbLine
 10
45.4840383513
 20
140.1724621855
 30
0.0
 11
43.8790333618
 21
138.9475899567
 31
0.0
  0
LINE
  5
BF
330
1F
100
AcDbEntity
  8
0
  6
Continuous
 62
     7
370
    25
100
AcDbLine
 10
43.8790333618
 20
127.0973344144
 30
0.0
 11
45.4840383513
 21
125.8724621855
 31
0.0
  0
ARC
  5
C0
330
1F
100
AcDbEntity
  8
0
  6
Continuous
 62
     7
370
    25
100
AcDbCircle
 10
44.3340383513
 20
138.3513765222
 30
0.0
 40
0.7500000000000014
100
AcDbArc
 50
127.3493490446
 51
180.0
  0
ARC
  5
C1
330
1F
100
AcDbEntity
  8
0
  6
Continuous
 62
     7
370
    25
100
AcDbCircle
 10
44.3340383513
 20
127.6935478489
 30
0.0
 40
0.7500000000000014
100
AcDbArc
 50
180.0
 51
232.6506509554
  0
LINE
  5
C2
330
1F
100
AcDbEntity
  8
0
  6
Continuous
 62
     7
370
    25
100
AcDbLine
 10
221.2220823084
 20
124.2922254302
 30
0.0
 11
225.5927645545
 21
124.3685159725
 31
0.0
  0
LINE
  5
C3
330
1F
100
AcDbEntity
  8
0
  6
Continuous
 62
     7
370
    25
100
AcDbLine
 10
225.5927645545
 20
142.1672509762
 30
0.0
 11
220.2886620945
 21
142.259834429
 31
0.0
  0
ARC
  5
C4
330
1F
100
AcDbEntity
  8
0
  6
Continuous
 62
     7
370
    25
100
AcDbCircle
 10
225.5840383513
 20
124.8684398201
 30
0.0
 40
0.5000000000000043
100
AcDbArc
 50
271.0
 51
0.0
  0
ARC
  5
C5
330
1F
100
AcDbEntity
  8
0
  6
Continuous
 62
     7
370
    25
100
AcDbCircle
 10
225.5840383513
 20
141.6673271286
 30
0.0
 40
0.5
100
AcDbArc
 50
0.0
 51
89.0
  0
SPLINE
  5
C6
330
1F
100
AcDbEntity
  8
0
  6
Continuous
 62
     7
370
    25
100
AcDbSpline
210
0.0
220
0.0
230
1.0
 70
     8
 71
     3
 72
    12
 73
     8
 74
     0
 42
0.00000001
 43
0.00000001
 40
0.0
 40
0.0
 40
0.0
 40
0.0
 40
0.1110213958485511
 40
0.4537544599013393
 40
0.730499587046987
 40
0.957320258738588
 40
1.0
 40
1.0
 40
1.0
 40
1.0
 10
219.0104142810125
 20
142.6268217416715
 30
0.0
 10
218.9163099241921
 20
142.6825966212083
 30
0.0
 10
218.5316969288586
 20
142.9105535852409
 30
0.0
 10
218.0513183414592
 20
143.239594625689
 30
0.0
 10
217.6599943102582
 20
143.5340674432237
 30
0.0
 10
217.5174374641238
 20
143.6980407666996
 30
0.0
 10
217.5400914679895
 20
143.6641148659915
 30
0.0
 10
217.5436790952326
 20
143.6587421519076
 30
0.0
  0
ARC
  5
C7
330
1F
100
AcDbEntity
  8
0
  6
Continuous
 62
     7
370
    25
100
AcDbCircle
 10
220.3340383513
 20
144.8594384364
 30
0.0
 40
2.599999999999994
100
AcDbArc
 50
239.4420525213
 51
269.0
  0
SPLINE
  5
C8
330
1F
100
AcDbEntity
  8
0
  6
Continuous
 62
     7
370
    25
100
AcDbSpline
210
0.0
220
0.0
230
1.0
 70
     8
 71
     3
 72
    13
 73
     9
 74
     0
 42
0.00000001
 43
0.00000001
 40
0.0
 40
0.0
 40
0.0
 40
0.0
 40
0.0257777025631237
 40
0.1889924819795272
 40
0.3912819398086723
 40
0.6391253350241723
 40
0.9333979274773782
 40
1.0
 40
1.0
 40
1.0
 40
1.0
 10
217.5061458334559
 20
122.5299950122673
 30
0.0
 10
217.5032306449941
 20
122.5259364051191
 30
0.0
 10
217.4818575726075
 20
122.4961802142237
 30
0.0
 10
217.5999428992157
 20
122.6270337784953
 30
0.0
 10
217.9023572444293
 20
122.85689300514
 30
0.0
 10
218.4974421554545
 20
123.2463306823936
 30
0.0
 10
219.0892002424271
 20
123.5905001444865
 30
0.0
 10
219.513687093677
 20
123.8172272894306
 30
0.0
 10
219.5920292628447
 20
123.8590714508971
 30
0.0
  0
ARC
  5
C9
330
1F
100
AcDbEntity
  8
0
  6
Continuous
 62
     7
370
    25
100
AcDbCircle
 10
221.2840383513
 20
120.7427661123
 30
0.0
 40
3.549999999999998
100
AcDbArc
 50
91.0
 51
118.1920130769
  0
ARC
  5
CA
330
1F
100
AcDbEntity
  8
0
  6
Continuous
 62
     7
370
    25
100
AcDbCircle
 10
211.7340383513
 20
144.7397730891
 30
0.0
 40
0.5
100
AcDbArc
 50
89.0
 51
180.0
  0
ARC
  5
CB
330
1F
100
AcDbEntity
  8
0
  6
Continuous
 62
     7
370
    25
100
AcDbCircle
 10
211.7340383513
 20
121.7959938596
 30
0.0
 40
0.5000000000000058
100
AcDbArc
 50
180.0
 51
271.0
  0
LINE
  5
CC
330
1F
100
AcDbEntity
  8
0
  6
Continuous
 62
     7
370
    25
100
AcDbLine
 10
215.7689431641
 20
145.1694197276
 30
0.0
 11
211.7427645545
 21
145.2396969367
 31
0.0
  0
LINE
  5
CD
330
1F
100
AcDbEntity
  8
0
  6
Continuous
 62
     7
370
    25
100
AcDbLine
 10
211.7427645545
 20
121.2960700121
 30
0.0
 11
215.7689431641
 21
121.3663472211
 31
0.0
  0
ARC
  5
CE
330
1F
100
AcDbEntity
  8
0
  6
Continuous
 62
     7
370
    25
100
AcDbCircle
 10
215.7340383513
 20
143.1697243373
 30
0.0
 40
2.000000000000006
100
AcDbArc
 50
14.5234270308
 51
89.0
  0
SPLINE
  5
CF
330
1F
100
AcDbEntity
  8
0
  6
Continuous
 62
     7
370
    25
100
AcDbSpline
210
0.0
220
0.0
230
1.0
 70
     8
 71
     3
 72
     9
 73
     5
 74
     0
 42
0.00000001
 43
0.00000001
 40
0.0
 40
0.0
 40
0.0
 40
0.0
 40
0.662740395552226
 40
0.9999999999999999
 40
0.9999999999999999
 40
0.9999999999999999
 40
0.9999999999999999
 10
226.0840383512685
 20
128.5086847920199
 30
0.0
 10
226.12701096811
 20
128.6632240986553
 30
0.0
 10
226.1918517672071
 20
128.8964063637966
 30
0.0
 10
226.3100915434927
 20
129.2469120030397
 30
0.0
 10
226.3499690436728
 20
129.3651233962875
 30
0.0
  0
LINE
  5
D0
330
1F
100
AcDbEntity
  8
0
  6
Continuous
 62
     7
370
    25
100
AcDbLine
 10
226.2245342168
 20
137.5350632187
 30
0.0
 11
226.0840383513
 21
138.0168501508
 31
0.0
  0
ARC
  5
D1
330
1F
100
AcDbEntity
  8
0
  6
Continuous
 62
     7
370
    25
100
AcDbCircle
 10
215.7340383513
 20
123.3660426114
 30
0.0
 40
2.000000000000001
100
AcDbArc
 50
271.0
 51
334.3886051651
  0
LINE
  5
D2
330
1F
100
AcDbEntity
  8
0
  6
Continuous
 62
     7
370
    25
100
AcDbLine
 10
50.3459943941
 20
141.9981202298
 30
0.0
 11
45.975312148
 21
141.9218296874
 31
0.0
  0
LINE
  5
D3
330
1F
100
AcDbEntity
  8
0
  6
Continuous
 62
     7
370
    25
100
AcDbLine
 10
45.975312148
 20
124.1230946837
 30
0.0
 11
51.279414608
 21
124.0305112309
 31
0.0
  0
ARC
  5
D4
330
1F
100
AcDbEntity
  8
0
  6
Continuous
 62
     7
370
    25
100
AcDbCircle
 10
45.9840383513
 20
141.4219058398
 30
0.0
 40
0.5000000000000071
100
AcDbArc
 50
91.0
 51
180.0
  0
ARC
  5
D5
330
1F
100
AcDbEntity
  8
0
  6
Continuous
 62
     7
370
    25
100
AcDbCircle
 10
45.9840383513
 20
124.6230185313
 30
0.0
 40
0.5000000000000071
100
AcDbArc
 50
180.0
 51
269.0
  0
SPLINE
  5
D6
330
1F
100
AcDbEntity
  8
0
  6
Continuous
 62
     7
370
    25
100
AcDbSpline
210
0.0
220
0.0
230
1.0
 70
     8
 71
     3
 72
    12
 73
     8
 74
     0
 42
0.00000001
 43
0.00000001
 40
0.0
 40
0.0
 40
0.0
 40
0.0
 40
0.1110213958485456
 40
0.4537544599013376
 40
0.7304995870470201
 40
0.9573202587385995
 40
1.0
 40
1.0
 40
1.0
 40
1.0
 10
52.55766242152445
 20
123.6635239182538
 30
0.0
 10
52.65176677834489
 20
123.6077490387169
 30
0.0
 10
53.03637977367843
 20
123.3797920746844
 30
0.0
 10
53.51675836107786
 20
123.0507510342364
 30
0.0
 10
53.90808239227869
 20
122.7562782167016
 30
0.0
 10
54.05063923841316
 20
122.5923048932257
 30
0.0
 10
54.02798523454744
 20
122.6262307939338
 30
0.0
 10
54.02439760730439
 20
122.6316035080177
 30
0.0
  0
ARC
  5
D7
330
1F
100
AcDbEntity
  8
0
  6
Continuous
 62
     7
370
    25
100
AcDbCircle
 10
51.2340383513
 20
121.4309072235
 30
0.0
 40
2.600000000000009
100
AcDbArc
 50
59.4420525213
 51
89.0
  0
SPLINE
  5
D8
330
1F
100
AcDbEntity
  8
0
  6
Continuous
 62
     7
370
    25
100
AcDbSpline
210
0.0
220
0.0
230
1.0
 70
     8
 71
     3
 72
    13
 73
     9
 74
     0
 42
0.00000001
 43
0.00000001
 40
0.0
 40
0.0
 40
0.0
 40
0.0
 40
0.0257777025631144
 40
0.1889924819795181
 40
0.3912819398086748
 40
0.6391253350241791
 40
0.9333979274773957
 40
0.9999999999999999
 40
0.9999999999999999
 40
0.9999999999999999
 40
0.9999999999999999
 10
54.06193086908101
 20
143.760350647658
 30
0.0
 10
54.06484605754286
 20
143.7644092548062
 30
0.0
 10
54.08621912992942
 20
143.7941654457016
 30
0.0
 10
53.96813380332124
 20
143.66331188143
 30
0.0
 10
53.66571945810773
 20
143.4334526547853
 30
0.0
 10
53.07063454708241
 20
143.0440149775317
 30
0.0
 10
52.47887646010984
 20
142.6998455154387
 30
0.0
 10
52.05438960885989
 20
142.4731183704946
 30
0.0
 10
51.97604743969227
 20
142.4312742090282
 30
0.0
  0
ARC
  5
D9
330
1F
100
AcDbEntity
  8
0
  6
Continuous
 62
     7
370
    25
100
AcDbCircle
 10
50.2840383513
 20
145.5475795476
 30
0.0
 40
3.55000000000001
100
AcDbArc
 50
271.0
 51
298.1920130769
  0
ARC
  5
DA
330
1F
100
AcDbEntity
  8
0
  6
Continuous
 62
     7
370
    25
100
AcDbCircle
 10
59.8340383513
 20
144.4943518003
 30
0.0
 40
0.5000000000000071
100
AcDbArc
 50
0.0
 51
91.0
  0
ARC
  5
DB
330
1F
100
AcDbEntity
  8
0
  6
Continuous
 62
     7
370
    25
100
AcDbCircle
 10
59.8340383513
 20
121.5505725708
 30
0.0
 40
0.5000000000000071
100
AcDbArc
 50
269.0
 51
0.0
  0
LINE
  5
DC
330
1F
100
AcDbEntity
  8
0
  6
Continuous
 62
     7
370
    25
100
AcDbLine
 10
59.825312148
 20
144.9942756479
 30
0.0
 11
55.7991335384
 21
144.9239984388
 31
0.0
  0
LINE
  5
DD
330
1F
100
AcDbEntity
  8
0
  6
Continuous
 62
     7
370
    25
100
AcDbLine
 10
55.7991335384
 20
121.1209259323
 30
0.0
 11
59.825312148
 21
121.0506487232
 31
0.0
  0
ARC
  5
DE
330
1F
100
AcDbEntity
  8
0
  6
Continuous
 62
     7
370
    25
100
AcDbCircle
 10
55.8340383513
 20
123.1206213226
 30
0.0
 40
1.999999999999996
100
AcDbArc
 50
194.5234270308
 51
269.0
  0
LINE
  5
DF
330
1F
100
AcDbEntity
  8
0
  6
Continuous
 62
     7
370
    25
100
AcDbLine
 10
45.4840383513
 20
137.7816608679
 30
0.0
 11
45.4085727972
 21
137.5265219815
 31
0.0
  0
LINE
  5
E0
330
1F
100
AcDbEntity
  8
0
  6
Continuous
 62
     7
370
    25
100
AcDbLine
 10
45.4124221213
 20
128.5190811253
 30
0.0
 11
45.4840383513
 21
128.2734955091
 31
0.0
  0
ARC
  5
E1
330
1F
100
AcDbEntity
  8
0
  6
Continuous
 62
     7
370
    25
100
AcDbCircle
 10
55.8340383513
 20
142.9243030485
 30
0.0
 40
2.000000000000026
100
AcDbArc
 50
91.0
 51
154.3886051651
  0
LINE
  5
E2
330
1F
100
AcDbEntity
  8
0
  6
Continuous
 62
     7
370
    25
100
AcDbLine
 10
211.2340383513
 20
138.6724621855
 30
0.0
 11
204.5840383513
 21
138.6724621855
 31
0.0
  0
LINE
  5
E3
330
1F
100
AcDbEntity
  8
0
  6
Continuous
 62
     7
370
    25
100
AcDbLine
 10
204.5840383513
 20
127.3724621855
 30
0.0
 11
211.2340383513
 21
127.3724621855
 31
0.0
  0
LINE
  5
E4
330
1F
100
AcDbEntity
  8
0
  6
Continuous
 62
     7
370
    25
100
AcDbLine
 10
203.3040328201
 20
123.4604565161
 30
0.0
 11
204.5840383513
 21
124.7724621855
 31
0.0
  0
LINE
  5
E5
330
1F
100
AcDbEntity
  8
0
  6
Continuous
 62
     7
370
    25
100
AcDbLine
 10
204.5840383513
 20
141.2724621855
 30
0.0
 11
203.3040328201
 21
142.584467855
 31
0.0
  0
LINE
  5
E6
330
1F
100
AcDbEntity
  8
0
  6
Continuous
 62
     7
370
    25
100
AcDbLine
 10
197.4609937259
 20
142.4224621855
 30
0.0
 11
197.1340383513
 21
142.4224621855
 31
0.0
  0
SPLINE
  5
E7
330
1F
100
AcDbEntity
  8
0
  6
Continuous
 62
     7
370
    25
100
AcDbSpline
210
0.0
220
0.0
230
1.0
 70
     8
 71
     3
 72
     9
 73
     5
 74
     0
 42
0.00000001
 43
0.00000001
 40
0.0
 40
0.0
 40
0.0
 40
0.0
 40
0.4921597394042955
 40
0.9999999999999999
 40
0.9999999999999999
 40
0.9999999999999999
 40
0.9999999999999999
 10
196.7727644682327
 20
123.6439311495051
 30
0.0
 10
196.8439414087195
 20
123.7671189278117
 30
0.0
 10
196.9885630321236
 20
124.017419325109
 30
0.0
 10
197.1332131495401
 20
124.2676937236048
 30
0.0
 10
197.2066723028641
 20
124.3947931393574
 30
0.0
  0
SPLINE
  5
E8
330
1F
100
AcDbEntity
  8
0
  6
Continuous
 62
     7
370
    25
100
AcDbSpline
210
0.0
220
0.0
230
1.0
 70
     8
 71
     3
 72
     9
 73
     5
 74
     0
 42
0.00000001
 43
0.00000001
 40
0.0
 40
0.0
 40
0.0
 40
0.0
 40
0.4981873554341621
 40
1.0
 40
1.0
 40
1.0
 40
1.0
 10
197.9122292441886
 20
141.6501288392623
 30
0.0
 10
197.8388546761503
 20
141.7770667722349
 30
0.0
 10
197.6915715963252
 20
142.031866360358
 30
0.0
 10
197.5443373692337
 20
142.2867191977874
 30
0.0
 10
197.4704533723663
 20
142.414607574113
 30
0.0
  0
SPLINE
  5
E9
330
1F
100
AcDbEntity
  8
0
  6
Continuous
 62
     7
370
    25
100
AcDbSpline
210
0.0
220
0.0
230
1.0
 70
     8
 71
     3
 72
     9
 73
     5
 74
     0
 42
0.00000001
 43
0.00000001
 40
0.0
 40
0.0
 40
0.0
 40
0.0
 40
0.5011659921197278
 40
1.0
 40
1.0
 40
1.0
 40
1.0
 10
197.3629770968357
 20
124.3949244239932
 30
0.0
 10
197.4367928760033
 20
124.2672191261642
 30
0.0
 10
197.584080960846
 20
124.0124027582601
 30
0.0
 10
197.7313338056587
 20
123.7575438418825
 30
0.0
 10
197.8047885324083
 20
123.6304115471819
 30
0.0
  0
LINE
  5
EA
330
1F
100
AcDbEntity
  8
0
  6
Continuous
 62
     7
370
    25
100
AcDbLine
 10
198.230624628
 20
141.9304200477
 30
0.0
 11
198.0685323456
 21
141.649999424
 31
0.0
  0
LINE
  5
EB
330
1F
100
AcDbEntity
  8
0
  6
Continuous
 62
     7
370
    25
100
AcDbLine
 10
197.8242978621
 20
123.6627216964
 30
0.0
 11
198.2840383513
 21
124.1224621855
 31
0.0
  0
LINE
  5
EC
330
1F
100
AcDbEntity
  8
0
  6
Continuous
 62
     7
370
    25
100
AcDbLine
 10
198.2840383513
 20
141.9224621855
 30
0.0
 11
198.2659098832
 21
141.9405906536
 31
0.0
  0
SPLINE
  5
ED
330
1F
100
AcDbEntity
  8
0
  6
Continuous
 62
     7
370
    25
100
AcDbSpline
210
0.0
220
0.0
230
1.0
 70
     8
 71
     3
 72
     9
 73
     5
 74
     0
 42
0.00000001
 43
0.00000001
 40
0.0
 40
0.0
 40
0.0
 40
0.0
 40
0.5178081832965965
 40
0.9999999999999999
 40
0.9999999999999999
 40
0.9999999999999999
 40
0.9999999999999999
 10
197.1967018214553
 20
124.3862485067474
 30
0.0
 10
197.2262797875902
 20
124.3862597131321
 30
0.0
 10
197.2834012605389
 20
124.3862813550936
 30
0.0
 10
197.3404718608077
 20
124.3862600607216
 30
0.0
 10
197.3679908372316
 20
124.3862497927496
 30
0.0
  0
SPLINE
  5
EE
330
1F
100
AcDbEntity
  8
0
  6
Continuous
 62
     7
370
    25
100
AcDbSpline
210
0.0
220
0.0
230
1.0
 70
     8
 71
     3
 72
     9
 73
     5
 74
     0
 42
0.00000001
 43
0.00000001
 40
0.0
 40
0.0
 40
0.0
 40
0.0
 40
0.5105586537198662
 40
0.9999999999999999
 40
0.9999999999999999
 40
0.9999999999999999
 40
0.9999999999999999
 10
198.0786456608779
 20
141.6586758625915
 30
0.0
 10
198.0495244147317
 20
141.6586503634016
 30
0.0
 10
197.9924864114895
 20
141.6586004196983
 30
0.0
 10
197.9352867492171
 20
141.6586491427915
 30
0.0
 10
197.9072908695076
 20
141.6586729898879
 30
0.0
  0
LINE
  5
EF
330
1F
100
AcDbEntity
  8
0
  6
Continuous
 62
     7
370
    25
100
AcDbLine
 10
198.2840383513
 20
124.8974621855
 30
0.0
 11
199.7840383513
 21
124.8974621855
 31
0.0
  0
LINE
  5
F0
330
1F
100
AcDbEntity
  8
0
  6
Continuous
 62
     7
370
    25
100
AcDbLine
 10
199.7840383513
 20
141.1474621855
 30
0.0
 11
198.2840383513
 21
141.1474621855
 31
0.0
  0
LINE
  5
F1
330
1F
100
AcDbEntity
  8
0
  6
Continuous
 62
     7
370
    25
100
AcDbLine
 10
69.5147095359
 20
142.5851501497
 30
0.0
 11
68.2340383513
 21
141.2724621855
 31
0.0
  0
LINE
  5
F2
330
1F
100
AcDbEntity
  8
0
  6
Continuous
 62
     7
370
    25
100
AcDbLine
 10
68.2340383513
 20
124.7724621855
 30
0.0
 11
69.5147095359
 21
123.4597742214
 31
0.0
  0
LINE
  5
F3
330
1F
100
AcDbEntity
  8
0
  6
Continuous
 62
     7
370
    25
100
AcDbLine
 10
75.6334998519
 20
123.6224621855
 30
0.0
 11
75.6840383513
 21
123.6224621855
 31
0.0
  0
LINE
  5
F4
330
1F
100
AcDbEntity
  8
0
  6
Continuous
 62
     7
370
    25
100
AcDbLine
 10
75.2804762195
 20
142.4224621855
 30
0.0
 11
75.0340383513
 21
142.4224621855
 31
0.0
  0
SPLINE
  5
F5
330
1F
100
AcDbEntity
  8
0
  6
Continuous
 62
     7
370
    25
100
AcDbSpline
210
0.0
220
0.0
230
1.0
 70
     8
 71
     3
 72
     9
 73
     5
 74
     0
 42
0.00000001
 43
0.00000001
 40
0.0
 40
0.0
 40
0.0
 40
0.0
 40
0.1888230383401776
 40
1.0
 40
1.0
 40
1.0
 40
1.0
 10
74.74815809244379
 20
142.1194019395364
 30
0.0
 10
74.73108516490618
 20
142.0898536095509
 30
0.0
 10
74.64066755650576
 20
141.9333667197877
 30
0.0
 10
74.55020622075014
 20
141.7768745765692
 30
0.0
 10
74.47682606926419
 20
141.6499317553097
 30
0.0
  0
SPLINE
  5
F6
330
1F
100
AcDbEntity
  8
0
  6
Continuous
 62
     7
370
    25
100
AcDbSpline
210
0.0
220
0.0
230
1.0
 70
     8
 71
     3
 72
     9
 73
     5
 74
     0
 42
0.00000001
 43
0.00000001
 40
0.0
 40
0.0
 40
0.0
 40
0.0
 40
0.4987433617574211
 40
0.9999999999999999
 40
0.9999999999999999
 40
0.9999999999999999
 40
0.9999999999999999
 10
75.18238277268064
 20
124.3949906509169
 30
0.0
 10
75.25584589436005
 20
124.2678850954802
 30
0.0
 10
75.403142334398
 20
124.0130334720144
 30
0.0
 10
75.5503941783566
 20
123.7581973435824
 30
0.0
 10
75.62420514263435
 20
123.6304590425418
 30
0.0
  0
SPLINE
  5
F7
330
1F
100
AcDbEntity
  8
0
  6
Continuous
 62
     7
370
    25
100
AcDbSpline
210
0.0
220
0.0
230
1.0
 70
     8
 71
     3
 72
     9
 73
     5
 74
     0
 42
0.00000001
 43
0.00000001
 40
0.0
 40
0.0
 40
0.0
 40
0.0
 40
0.5011130755725055
 40
1.0
 40
1.0
 40
1.0
 40
1.0
 10
75.73163416085036
 20
141.6501969421205
 30
0.0
 10
75.65783034474113
 20
141.7778905522298
 30
0.0
 10
75.51055057954062
 20
142.0327105047195
 30
0.0
 10
75.36332332523472
 20
142.2875254775979
 30
0.0
 10
75.28987357314213
 20
142.4146493357153
 30
0.0
  0
SPLINE
  5
F8
330
1F
100
AcDbEntity
  8
0
  6
Continuous
 62
     7
370
    25
100
AcDbSpline
210
0.0
220
0.0
230
1.0
 70
     8
 71
     3
 72
     9
 73
     5
 74
     0
 42
0.00000001
 43
0.00000001
 40
0.0
 40
0.0
 40
0.0
 40
0.0
 40
0.1964851983542813
 40
1.0
 40
1.0
 40
1.0
 40
1.0
 10
74.75537354408351
 20
123.9280335460175
 30
0.0
 10
74.77337085019695
 20
123.9591186977711
 30
0.0
 10
74.86496709390492
 20
124.1173247713784
 30
0.0
 10
74.95680018228948
 20
124.2764385448565
 30
0.0
 10
75.03058942808732
 20
124.4042888169918
 30
0.0
  0
LINE
  5
F9
330
1F
100
AcDbEntity
  8
0
  6
Continuous
 62
     7
370
    25
100
AcDbLine
 10
75.0340383513
 20
142.4224621855
 30
0.0
 11
74.7664142593
 21
142.1548380936
 31
0.0
  0
LINE
  5
FA
330
1F
100
AcDbEntity
  8
0
  6
Continuous
 62
     7
370
    25
100
AcDbLine
 10
74.5340383513
 20
124.1224621855
 30
0.0
 11
74.7297670369
 21
123.9267334999
 31
0.0
  0
SPLINE
  5
FB
330
1F
100
AcDbEntity
  8
0
  6
Continuous
 62
     7
370
    25
100
AcDbSpline
210
0.0
220
0.0
230
1.0
 70
     8
 71
     3
 72
     9
 73
     5
 74
     0
 42
0.00000001
 43
0.00000001
 40
0.0
 40
0.0
 40
0.0
 40
0.0
 40
0.5166266336148146
 40
1.0
 40
1.0
 40
1.0
 40
1.0
 10
75.8984193925814
 20
141.6586675796142
 30
0.0
 10
75.86884138326339
 20
141.6586698087152
 30
0.0
 10
75.81158918720243
 20
141.6586741234386
 30
0.0
 10
75.75438800459588
 20
141.6586698713106
 30
0.0
 10
75.72673847639813
 20
141.6586678159451
 30
0.0
  0
SPLINE
  5
FC
330
1F
100
AcDbEntity
  8
0
  6
Continuous
 62
     7
370
    25
100
AcDbSpline
210
0.0
220
0.0
230
1.0
 70
     8
 71
     3
 72
     9
 73
     5
 74
     0
 42
0.00000001
 43
0.00000001
 40
0.0
 40
0.0
 40
0.0
 40
0.0
 40
0.4973303336687868
 40
1.0
 40
1.0
 40
1.0
 40
1.0
 10
75.04705230016555
 20
124.4707022859052
 30
0.0
 10
75.07628166609953
 20
124.4693378060335
 30
0.0
 10
75.13505420409923
 20
124.46659419725
 30
0.0
 10
75.19387417427338
 20
124.4693280573572
 30
0.0
 10
75.22344118905444
 20
124.4707022859052
 30
0.0
  0
LINE
  5
FD
330
1F
100
AcDbEntity
  8
0
  6
Continuous
 62
     7
370
    25
100
AcDbLine
 10
74.5340383513
 20
141.1474621855
 30
0.0
 11
73.0340383513
 21
141.1474621855
 31
0.0
  0
LINE
  5
FE
330
1F
100
AcDbEntity
  8
0
  6
Continuous
 62
     7
370
    25
100
AcDbLine
 10
73.0340383513
 20
124.8974621855
 30
0.0
 11
74.5340383513
 21
124.8974621855
 31
0.0
  0
LINE
  5
FF
330
1F
100
AcDbEntity
  8
0
  6
Continuous
 62
     7
370
    25
100
AcDbLine
 10
92.73396515
 20
116.6723889843
 30
0.0
 11
92.8840383513
 21
116.8224621855
 31
0.0
  0
LINE
  5
100
330
1F
100
AcDbEntity
  8
0
  6
Continuous
 62
     7
370
    25
100
AcDbLine
 10
92.8840383513
 20
149.2224621855
 30
0.0
 11
92.73396515
 21
149.3725353868
 31
0.0
  0
LINE
  5
101
330
1F
100
AcDbEntity
  8
0
  6
Continuous
 62
     7
370
    25
100
AcDbLine
 10
83.5769002554
 20
149.3653240897
 30
0.0
 11
83.4340383513
 21
149.2224621855
 31
0.0
  0
LINE
  5
102
330
1F
100
AcDbEntity
  8
0
  6
Continuous
 62
     7
370
    25
100
AcDbLine
 10
83.4340383513
 20
116.8224621855
 30
0.0
 11
83.5769002554
 21
116.6796002814
 31
0.0
  0
ARC
  5
103
330
1F
100
AcDbEntity
  8
0
  6
Continuous
 62
     7
370
    25
100
AcDbCircle
 10
83.4340383513
 20
138.7634505576
 30
0.0
 40
9.134011627907
100
AcDbArc
 50
90.0
 51
148.0464183091
  0
ARC
  5
104
330
1F
100
AcDbEntity
  8
0
  6
Continuous
 62
     7
370
    25
100
AcDbCircle
 10
83.4340383513
 20
127.2814738135
 30
0.0
 40
9.134011627906986
100
AcDbArc
 50
211.9535816909
 51
270.0
  0
LINE
  5
105
330
1F
100
AcDbEntity
  8
0
  6
Continuous
 62
     7
370
    25
100
AcDbLine
 10
91.6906849867
 20
149.749746917
 30
0.0
 11
84.6403854349
 21
149.749746917
 31
0.0
  0
LINE
  5
106
330
1F
100
AcDbEntity
  8
0
  6
Continuous
 62
     7
370
    25
100
AcDbLine
 10
84.6403854349
 20
116.2951774541
 30
0.0
 11
91.6906849867
 21
116.2951774541
 31
0.0
  0
LINE
  5
107
330
1F
100
AcDbEntity
  8
0
  6
Continuous
 62
     7
370
    25
100
AcDbLine
 10
180.0480209882
 20
149.3364448225
 30
0.0
 11
179.9340383513
 21
149.2224621855
 31
0.0
  0
LINE
  5
108
330
1F
100
AcDbEntity
  8
0
  6
Continuous
 62
     7
370
    25
100
AcDbLine
 10
179.9340383513
 20
116.8224621855
 30
0.0
 11
180.0480209882
 21
116.7084795486
 31
0.0
  0
LINE
  5
109
330
1F
100
AcDbEntity
  8
0
  6
Continuous
 62
     7
370
    25
100
AcDbLine
 10
189.2700557143
 20
116.7084795486
 30
0.0
 11
189.3840383513
 21
116.8224621855
 31
0.0
  0
LINE
  5
10A
330
1F
100
AcDbEntity
  8
0
  6
Continuous
 62
     7
370
    25
100
AcDbLine
 10
189.3840383513
 20
149.2224621855
 30
0.0
 11
189.2700557143
 21
149.3364448225
 31
0.0
  0
ARC
  5
10B
330
1F
100
AcDbEntity
  8
0
  6
Continuous
 62
     7
370
    25
100
AcDbCircle
 10
189.3840383513
 20
127.2814738135
 30
0.0
 40
9.134011627907
100
AcDbArc
 50
270.0
 51
328.0464183091
  0
ARC
  5
10C
330
1F
100
AcDbEntity
  8
0
  6
Continuous
 62
     7
370
    25
100
AcDbCircle
 10
189.3840383513
 20
138.7634505576
 30
0.0
 40
9.134011627907
100
AcDbArc
 50
31.9535816909
 51
90.0
  0
LINE
  5
10D
330
1F
100
AcDbEntity
  8
0
  6
Continuous
 62
     7
370
    25
100
AcDbLine
 10
188.1906849867
 20
149.749746917
 30
0.0
 11
181.1403854349
 21
149.749746917
 31
0.0
  0
LINE
  5
10E
330
1F
100
AcDbEntity
  8
0
  6
Continuous
 62
     7
370
    25
100
AcDbLine
 10
181.1403854349
 20
116.2951774541
 30
0.0
 11
188.1906849867
 21
116.2951774541
 31
0.0
  0
LINE
  5
10F
330
1F
100
AcDbEntity
  8
0
  6
Continuous
 62
     7
370
    25
100
AcDbLine
 10
60.3340383513
 20
127.3724621855
 30
0.0
 11
68.2340383513
 21
127.3724621855
 31
0.0
  0
LINE
  5
110
330
1F
100
AcDbEntity
  8
0
  6
Continuous
 62
     7
370
    25
100
AcDbLine
 10
68.2340383513
 20
138.6724621855
 30
0.0
 11
60.3340383513
 21
138.6724621855
 31
0.0
  0
SPLINE
  5
111
330
1F
100
AcDbEntity
  8
0
  6
Continuous
 62
     7
370
    25
100
AcDbSpline
210
0.0
220
0.0
230
1.0
 70
     8
 71
     3
 72
     9
 73
     5
 74
     0
 42
0.00000001
 43
0.00000001
 40
0.0
 40
0.0
 40
0.0
 40
0.0
 40
0.5036319833775984
 40
1.0
 40
1.0
 40
1.0
 40
1.0
 10
179.3277534047433
 20
147.516934079746
 30
0.0
 10
179.2495667866533
 20
147.3815620910341
 30
0.0
 10
179.0943212488985
 20
147.1127706060215
 30
0.0
 10
178.9390716720043
 20
146.8439816070993
 30
0.0
 10
178.8620107474398
 20
146.7105633448143
 30
0.0
  0
SPLINE
  5
112
330
1F
100
AcDbEntity
  8
0
  6
Continuous
 62
     7
370
    25
100
AcDbSpline
210
0.0
220
0.0
230
1.0
 70
     8
 71
     3
 72
     9
 73
     5
 74
     0
 42
0.00000001
 43
0.00000001
 40
0.0
 40
0.0
 40
0.0
 40
0.0
 40
0.4999957547772969
 40
1.0
 40
1.0
 40
1.0
 40
1.0
 10
179.6086315617954
 20
119.3402115622044
 30
0.0
 10
179.6868188888833
 20
119.2048431257773
 30
0.0
 10
179.8431948707608
 20
118.934103954227
 30
0.0
 10
179.9995667841934
 20
118.6633622785488
 30
0.0
 10
180.0777534047433
 20
118.527990291351
 30
0.0
  0
LINE
  5
113
330
1F
100
AcDbEntity
  8
0
  6
Continuous
 62
     7
370
    25
100
AcDbLine
 10
94.2965383472
 20
118.5224621855
 30
0.0
 11
94.5840383513
 21
118.5224621855
 31
0.0
  0
LINE
  5
114
330
1F
100
AcDbEntity
  8
0
  6
Continuous
 62
     7
370
    25
100
AcDbLine
 10
92.8840383513
 20
118.5224621855
 30
0.0
 11
92.9840383513
 21
118.5224621855
 31
0.0
  0
LINE
  5
115
330
1F
100
AcDbEntity
  8
0
  6
Continuous
 62
     7
370
    25
100
AcDbLine
 10
94.5840383513
 20
147.5224621855
 30
0.0
 11
93.5465383472
 21
147.5224621855
 31
0.0
  0
SPLINE
  5
116
330
1F
100
AcDbEntity
  8
0
  6
Continuous
 62
     7
370
    25
100
AcDbSpline
210
0.0
220
0.0
230
1.0
 70
     8
 71
     3
 72
     9
 73
     5
 74
     0
 42
0.00000001
 43
0.00000001
 40
0.0
 40
0.0
 40
0.0
 40
0.0
 40
0.4999956574115309
 40
0.9999999999999999
 40
0.9999999999999999
 40
0.9999999999999999
 40
0.9999999999999999
 10
179.9968560956283
 20
146.70486741015
 30
0.0
 10
179.9186680604518
 20
146.8402371512507
 30
0.0
 10
179.7622906319332
 20
147.1109789848927
 30
0.0
 10
179.605917365304
 20
147.3817228988929
 30
0.0
 10
179.5277300529247
 20
147.5170960316224
 30
0.0
  0
SPLINE
  5
117
330
1F
100
AcDbEntity
  8
0
  6
Continuous
 62
     7
370
    25
100
AcDbSpline
210
0.0
220
0.0
230
1.0
 70
     8
 71
     3
 72
     9
 73
     5
 74
     0
 42
0.00000001
 43
0.00000001
 40
0.0
 40
0.0
 40
0.0
 40
0.0
 40
0.4999956574115287
 40
0.9999999999999999
 40
0.9999999999999999
 40
0.9999999999999999
 40
0.9999999999999999
 10
178.4968560956283
 20
146.70486741015
 30
0.0
 10
178.4186680604518
 20
146.8402371512507
 30
0.0
 10
178.2622906319332
 20
147.1109789848927
 30
0.0
 10
178.105917365304
 20
147.3817228988929
 30
0.0
 10
178.0277300529247
 20
147.5170960316224
 30
0.0
  0
SPLINE
  5
118
330
1F
100
AcDbEntity
  8
0
  6
Continuous
 62
     7
370
    25
100
AcDbSpline
210
0.0
220
0.0
230
1.0
 70
     8
 71
     3
 72
     9
 73
     5
 74
     0
 42
0.00000001
 43
0.00000001
 40
0.0
 40
0.0
 40
0.0
 40
0.0
 40
0.5035355068673537
 40
0.9999999999999999
 40
0.9999999999999999
 40
0.9999999999999999
 40
0.9999999999999999
 10
178.7777300529247
 20
118.5278283394746
 30
0.0
 10
178.8559173628546
 20
118.6632014734284
 30
0.0
 10
179.0111940193437
 20
118.9320467328145
 30
0.0
 10
179.1664748085361
 20
119.2008899264314
 30
0.0
 10
179.2435662068357
 20
119.3343610262827
 30
0.0
  0
SPLINE
  5
119
330
1F
100
AcDbEntity
  8
0
  6
Continuous
 62
     7
370
    25
100
AcDbSpline
210
0.0
220
0.0
230
1.0
 70
     8
 71
     3
 72
     9
 73
     5
 74
     0
 42
0.00000001
 43
0.00000001
 40
0.0
 40
0.0
 40
0.0
 40
0.0
 40
0.5035355244945965
 40
1.0
 40
1.0
 40
1.0
 40
1.0
 10
177.2777300529247
 20
118.5278283394746
 30
0.0
 10
177.3559173628546
 20
118.6632014734284
 30
0.0
 10
177.511194013908
 20
118.9320467234031
 30
0.0
 10
177.6664747976644
 20
119.2008899076086
 30
0.0
 10
177.7435661905281
 20
119.3343609980485
 30
0.0
  0
SPLINE
  5
11A
330
1F
100
AcDbEntity
  8
0
  6
Continuous
 62
     7
370
    25
100
AcDbSpline
210
0.0
220
0.0
230
1.0
 70
     8
 71
     3
 72
     9
 73
     5
 74
     0
 42
0.00000001
 43
0.00000001
 40
0.0
 40
0.0
 40
0.0
 40
0.0
 40
0.5000043425884712
 40
0.9999999999999999
 40
0.9999999999999999
 40
0.9999999999999999
 40
0.9999999999999999
 10
93.54034664961227
 20
147.5170960316224
 30
0.0
 10
93.46215933723295
 20
147.3817228988929
 30
0.0
 10
93.30578607060374
 20
147.1109789848927
 30
0.0
 10
93.14940864208513
 20
146.8402371512507
 30
0.0
 10
93.07122060690865
 20
146.70486741015
 30
0.0
  0
SPLINE
  5
11B
330
1F
100
AcDbEntity
  8
0
  6
Continuous
 62
     7
370
    25
100
AcDbSpline
210
0.0
220
0.0
230
1.0
 70
     8
 71
     3
 72
     9
 73
     5
 74
     0
 42
0.00000001
 43
0.00000001
 40
0.0
 40
0.0
 40
0.0
 40
0.0
 40
0.4964644755054036
 40
1.0
 40
1.0
 40
1.0
 40
1.0
 10
93.82451051200891
 20
119.3343609980485
 30
0.0
 10
93.90160190487259
 20
119.2008899076086
 30
0.0
 10
94.056882688629
 20
118.9320467234031
 30
0.0
 10
94.21215933968236
 20
118.6632014734284
 30
0.0
 10
94.29034664961229
 20
118.5278283394746
 30
0.0
  0
LINE
  5
11C
330
1F
100
AcDbEntity
  8
0
  6
Continuous
 62
     7
370
    25
100
AcDbLine
 10
178.0215383554
 20
147.5224621855
 30
0.0
 11
176.9840383513
 21
147.5224621855
 31
0.0
  0
LINE
  5
11D
330
1F
100
AcDbEntity
  8
0
  6
Continuous
 62
     7
370
    25
100
AcDbLine
 10
179.5215383554
 20
147.5224621855
 30
0.0
 11
179.3340383513
 21
147.5224621855
 31
0.0
  0
LINE
  5
11E
330
1F
100
AcDbEntity
  8
0
  6
Continuous
 62
     7
370
    25
100
AcDbLine
 10
178.5840383513
 20
118.5224621855
 30
0.0
 11
178.7715383554
 21
118.5224621855
 31
0.0
  0
LINE
  5
11F
330
1F
100
AcDbEntity
  8
0
  6
Continuous
 62
     7
370
    25
100
AcDbLine
 10
176.9840383513
 20
118.5224621855
 30
0.0
 11
177.2715383554
 21
118.5224621855
 31
0.0
  0
LINE
  5
120
330
1F
100
AcDbEntity
  8
0
  6
Continuous
 62
     7
370
    25
100
AcDbLine
 10
178.865273816
 20
146.7105633448
 30
0.0
 11
178.4935662068
 21
146.7105633448
 31
0.0
  0
LINE
  5
121
330
1F
100
AcDbEntity
  8
0
  6
Continuous
 62
     7
370
    25
100
AcDbLine
 10
179.240273816
 20
119.3343610263
 30
0.0
 11
179.6120107474
 21
119.3343610263
 31
0.0
  0
LINE
  5
122
330
1F
100
AcDbEntity
  8
0
  6
Continuous
 62
     7
370
    25
100
AcDbLine
 10
93.0745104957
 20
146.7105633448
 30
0.0
 11
92.7028028865
 21
146.7105633448
 31
0.0
  0
ARC
  5
123
330
1F
100
AcDbEntity
  8
0
  6
Continuous
 62
     7
370
    25
100
AcDbCircle
 10
135.7840383513
 20
133.0224621855
 30
0.0
 40
8.600000000000023
100
AcDbArc
 50
0.0
 51
90.0
  0
ARC
  5
124
330
1F
100
AcDbEntity
  8
0
  6
Continuous
 62
     7
370
    25
100
AcDbCircle
 10
135.7840383513
 20
133.0224621855
 30
0.0
 40
8.600000000000023
100
AcDbArc
 50
90.0
 51
180.0
  0
ARC
  5
125
330
1F
100
AcDbEntity
  8
0
  6
Continuous
 62
     7
370
    25
100
AcDbCircle
 10
135.9061671074
 20
47.6204073083
 30
0.0
 40
8.477943951568593
100
AcDbArc
 50
287.3957651452
 51
359.7627080472
  0
ARC
  5
126
330
1F
100
AcDbEntity
  8
0
  6
Continuous
 62
     7
370
    25
100
AcDbCircle
 10
135.6976083437
 20
47.6412166603
 30
0.0
 40
8.51375364696445
100
AcDbArc
 50
180.3763384918
 51
260.5964304734
  0
SPLINE
  5
127
330
1F
100
AcDbEntity
  8
0
  6
Continuous
 62
     7
370
    25
100
AcDbSpline
210
0.0
220
0.0
230
1.0
 70
     8
 71
     3
 72
    10
 73
     6
 74
     0
 42
0.00000001
 43
0.00000001
 40
0.0
 40
0.0
 40
0.0
 40
0.0
 40
0.1203924806616949
 40
0.7397035313311148
 40
0.9999999999999999
 40
0.9999999999999999
 40
0.9999999999999999
 40
0.9999999999999999
 10
146.5269898420327
 20
48.04496317561822
 30
0.0
 10
146.5254629292473
 20
48.03987553283802
 30
0.0
 10
146.5160814232497
 20
48.00861654299094
 30
0.0
 10
146.4983930904032
 20
47.94031650541197
 30
0.0
 10
146.4812629059706
 20
47.87057702442912
 30
0.0
 10
146.476193683144
 20
47.84993947844693
 30
0.0
  0
SPLINE
  5
128
330
1F
100
AcDbEntity
  8
0
  6
Continuous
 62
     7
370
    25
100
AcDbSpline
210
0.0
220
0.0
230
1.0
 70
     8
 71
     3
 72
     9
 73
     5
 74
     0
 42
0.00000001
 43
0.00000001
 40
0.0
 40
0.0
 40
0.0
 40
0.0
 40
0.4353595993595625
 40
1.0
 40
1.0
 40
1.0
 40
1.0
 10
146.4761936831404
 20
47.84993947844627
 30
0.0
 10
146.4677027278165
 20
47.43801252337001
 30
0.0
 10
146.4481994130018
 20
46.49183617700661
 30
0.0
 10
146.2675522224784
 20
45.53951705386444
 30
0.0
 10
146.1655515204466
 20
45.00179920263587
 30
0.0
  0
SPLINE
  5
129
330
1F
100
AcDbEntity
  8
0
  6
Continuous
 62
     7
370
    25
100
AcDbSpline
210
0.0
220
0.0
230
1.0
 70
     8
 71
     3
 72
    19
 73
    15
 74
     0
 42
0.00000001
 43
0.00000001
 40
0.0
 40
0.0
 40
0.0
 40
0.0
 40
0.0317521143353705
 40
0.1255457140904781
 40
0.2193361198954272
 40
0.3134221032091385
 40
0.4076669897042046
 40
0.5020274109710791
 40
0.5966513499298765
 40
0.6860860730786563
 40
0.7755206091254645
 40
0.8704343148980083
 40
0.9654707769252657
 40
0.9999999999999999
 40
0.9999999999999999
 40
0.9999999999999999
 40
0.9999999999999999
 10
146.165553086303
 20
45.00180642849337
 30
0.0
 10
146.0705422521931
 20
44.61600831981055
 30
0.0
 10
145.6948758355043
 20
43.09058867254675
 30
0.0
 10
144.3445814483442
 20
40.61931112787894
 30
0.0
 10
141.6884334557984
 20
38.17907479653358
 30
0.0
 10
138.3485253390334
 20
36.73694253412371
 30
0.0
 10
134.7100893078149
 20
36.46384411939533
 30
0.0
 10
131.1791572553385
 20
37.38868045983522
 30
0.0
 10
128.2094153233102
 20
39.37868176349529
 30
0.0
 10
126.0974165700602
 20
42.14339043824373
 30
0.0
 10
124.9526744552733
 20
45.43441053467988
 30
0.0
 10
125.005598274772
 20
48.94211365144038
 30
0.0
 10
125.8166017786593
 20
51.74063647956802
 30
0.0
 10
126.8962992435728
 20
52.96427806203653
 30
0.0
 10
127.1840383512684
 20
53.29037824150392
 30
0.0
  0
ARC
  5
12A
330
1F
100
AcDbEntity
  8
0
  6
Continuous
 62
     7
370
    25
100
AcDbCircle
 10
136.0546090987
 20
47.0760287825
 30
0.0
 40
10.52924289011407
100
AcDbArc
 50
358.6611723649
 51
37.7138392888
  0
LINE
  5
12B
330
1F
100
AcDbEntity
  8
0
  6
Continuous
 62
     7
370
    25
100
AcDbLine
 10
146.5809775606
 20
46.8300148759
 30
0.0
 11
146.526989842
 21
48.0449631756
 31
0.0
  0
ELLIPSE
  5
12C
330
1F
100
AcDbEntity
  8
0
  6
Continuous
 62
     7
370
    25
100
AcDbEllipse
 10
135.7840383513
 20
48.1472074691
 30
0.0
 11
-7.600099860430902
 21
8.462404065368908
 31
0.0
210
0.0
220
0.0
230
1.0
 40
0.9067436949
 41
3.721514450840326
 42
3.907970575270606
  0
LINE
  5
12D
330
1F
100
AcDbEntity
  8
0
  6
Continuous
 62
     7
370
    25
100
AcDbLine
 10
146.526989842
 20
48.0449631756
 30
0.0
 11
146.4739391553
 21
47.8001547805
 31
0.0
  0
ARC
  5
12E
330
1F
100
AcDbEntity
  8
0
  6
Continuous
 62
     7
370
    25
100
AcDbCircle
 10
135.5251425407
 20
47.0469053414
 30
0.0
 40
11.29111766730543
100
AcDbArc
 50
137.6234698876
 51
179.9114722344
  0
LWPOLYLINE
  5
12F
330
1F
100
AcDbEntity
  8
0
  6
Continuous
 62
     7
370
    25
100
AcDbPolyline
 90
       25
 70
   128
 43
0.0
 10
144.3840383513
 20
54.6571168416
 10
144.6318516693
 20
54.3757579106
 10
145.786631765
 20
52.7516160252
 10
146.6374881213
 20
50.9546694776
 10
147.1585678986
 20
49.0395175793
 10
147.3340383513
 20
47.0643512515
 10
147.1585678986
 20
45.0891849238
 10
146.6374881213
 20
43.1740330255
 10
145.786631765
 20
41.3770864779
 10
144.6318516693
 20
39.7529445925
 10
143.2082352431
 20
38.3509560988
 10
141.5590383513
 20
37.2137197075
 10
139.7343710067
 20
36.375789771
 10
137.7896748033
 20
35.8626263665
 10
135.7840383513
 20
35.6898217043
 10
133.7784018992
 20
35.8626263665
 10
131.8337056959
 20
36.375789771
 10
130.0090383513
 20
37.2137197075
 10
128.3598414594
 20
38.3509560988
 10
126.9362250332
 20
39.7529445925
 10
125.7814449376
 20
41.3770864779
 10
124.9305885812
 20
43.1740330255
 10
124.409508804
 20
45.0891849238
 10
124.2340383513
 20
47.0643512516
 10
124.2340383513
 20
47.0643512516
  0
ARC
  5
130
330
1F
100
AcDbEntity
  8
0
  6
Continuous
 62
     7
370
    25
100
AcDbCircle
 10
135.5205598079
 20
47.0544305961
 30
0.0
 40
10.53652612703863
100
AcDbArc
 50
142.2979906667
 51
179.9460532093
  0
ARC
  5
131
330
1F
100
AcDbEntity
  8
0
  6
Continuous
 62
     7
370
    25
100
AcDbCircle
 10
135.7679736085
 20
47.1630193997
 30
0.0
 40
10.78438663230259
100
AcDbArc
 50
180.5242159361
 51
12.814557267
  0
LWPOLYLINE
  5
132
330
1F
100
AcDbEntity
  8
0
  6
Continuous
 62
     7
370
    25
100
AcDbPolyline
 90
       20
 70
   128
 43
0.0
 10
124.2340383513
 20
44.7971057187
 10
124.409508804
 20
42.821939391
 10
124.9305885812
 20
40.9067874927
 10
125.7814449376
 20
39.109840945
 10
126.9362250332
 20
37.4856990597
 10
128.3598414594
 20
36.0837105659
 10
130.0090383513
 20
34.9464741746
 10
131.8337056959
 20
34.1085442382
 10
133.7784018992
 20
33.5953808336
 10
135.7840383513
 20
33.4225761714
 10
137.7896748033
 20
33.5953808336
 10
139.7343710067
 20
34.1085442382
 10
141.5590383513
 20
34.9464741746
 10
143.2082352431
 20
36.0837105659
 10
144.6318516693
 20
37.4856990597
 10
145.786631765
 20
39.109840945
 10
146.6374881213
 20
40.9067874927
 10
147.1585678986
 20
42.821939391
 10
147.3340383513
 20
44.7971057187
 10
147.3340383513
 20
44.7971057187
  0
ARC
  5
133
330
1F
100
AcDbEntity
  8
0
  6
Continuous
 62
     7
370
    25
100
AcDbCircle
 10
135.7840383513
 20
44.4128498098
 30
0.0
 40
11.12963975787032
100
AcDbArc
 50
233.3530039559
 51
306.6469960441
  0
LWPOLYLINE
  5
134
330
1F
100
AcDbEntity
  8
0
  6
Continuous
 62
     7
370
    25
100
AcDbPolyline
 90
        3
 70
   128
 43
0.0
 10
126.1383560635
 20
102.0789004774
 10
126.3609074197
 20
101.9932433467
 10
127.1840383513
 20
101.7538049528
  0
LINE
  5
135
330
1F
100
AcDbEntity
  8
0
  6
Continuous
 62
     7
370
    25
100
AcDbLine
 10
122.2331853902
 20
97.1012453818
 30
0.0
 11
127.1840383513
 21
97.1012453818
 31
0.0
  0
LINE
  5
136
330
1F
100
AcDbEntity
  8
0
  6
Continuous
 62
     7
370
    25
100
AcDbLine
 10
119.2551789779
 20
102.2593037931
 30
0.0
 11
122.2331853902
 21
97.1012453818
 31
0.0
  0
ARC
  5
137
330
1F
100
AcDbEntity
  8
0
  6
Continuous
 62
     7
370
    25
100
AcDbCircle
 10
142.9840383513
 20
157.9436789893
 30
0.0
 40
6.000000000000013
100
AcDbArc
 50
86.4336695739
 51
147.2422545322
  0
ARC
  5
138
330
1F
100
AcDbEntity
  8
0
  6
Continuous
 62
     7
370
    25
100
AcDbCircle
 10
142.9840383513
 20
157.9436789893
 30
0.0
 40
6.499999999999989
100
AcDbArc
 50
67.8978634178
 51
149.6536377524
  0
LINE
  5
139
330
1F
100
AcDbEntity
  8
0
  6
Continuous
 62
     7
370
    25
100
AcDbLine
 10
149.3348913124
 20
168.9436789893
 30
0.0
 11
136.6331853902
 21
168.9436789893
 31
0.0
  0
LINE
  5
13A
330
1F
100
AcDbEntity
  8
0
  6
Continuous
 62
     7
370
    25
100
AcDbLine
 10
152.3128977246
 20
163.785620578
 30
0.0
 11
149.3348913124
 21
168.9436789893
 31
0.0
  0
LINE
  5
13B
330
1F
100
AcDbEntity
  8
0
  6
Continuous
 62
     7
370
    25
100
AcDbLine
 10
136.6331853902
 20
168.9436789893
 30
0.0
 11
132.0620245109
 21
161.0261960968
 31
0.0
  0
LINE
  5
13C
330
1F
100
AcDbEntity
  8
0
  6
Continuous
 62
     7
370
    25
100
AcDbLine
 10
227.9840383513
 20
128.0664318014
 30
0.0
 11
227.9840383513
 21
127.6935478489
 31
0.0
  0
LINE
  5
13D
330
1F
100
AcDbEntity
  8
0
  6
Continuous
 62
     7
370
    25
100
AcDbLine
 10
227.9840383513
 20
138.3513765222
 30
0.0
 11
227.9840383513
 21
128.0664318014
 31
0.0
  0
ARC
  5
13E
330
1F
100
AcDbEntity
  8
0
  6
Continuous
 62
     7
370
    25
100
AcDbCircle
 10
45.8830211948
 20
130.87754061
 30
0.0
 40
3.299286112125986
100
AcDbArc
 50
174.1006273552
 51
185.8993726448
  0
ARC
  5
13F
330
1F
100
AcDbEntity
  8
0
  6
Continuous
 62
     7
370
    25
100
AcDbCircle
 10
49.6794332364
 20
133.3876117253
 30
0.0
 40
7.403671904245992
100
AcDbArc
 50
188.8555717152
 51
197.0513202202
  0
SPLINE
  5
140
330
1F
100
AcDbEntity
  8
0
  6
Continuous
 62
     7
370
    25
100
AcDbSpline
210
0.0
220
0.0
230
1.0
 70
     8
 71
     3
 72
    12
 73
     8
 74
     0
 42
0.00000001
 43
0.00000001
 40
0.0
 40
0.0
 40
0.0
 40
0.0
 40
0.2133534395476112
 40
0.4267919313634459
 40
0.638353973909151
 40
0.8490950351927568
 40
1.0
 40
1.0
 40
1.0
 40
1.0
 10
42.36401654959823
 20
133.2904689075623
 30
0.0
 10
42.35435740587086
 20
133.2365966162843
 30
0.0
 10
42.33503526784743
 20
133.1288305578123
 30
0.0
 10
42.32272219783929
 20
132.8972211371354
 30
0.0
 10
42.32505963813604
 20
132.647063406777
 30
0.0
 10
42.34017715714987
 20
132.420644374693
 30
0.0
 10
42.35699776953082
 20
132.2987303421064
 30
0.0
 10
42.36401654959822
 20
132.2478589610605
 30
0.0
  0
ARC
  5
141
330
1F
100
AcDbEntity
  8
0
  6
Continuous
 62
     7
370
    25
100
AcDbCircle
 10
46.0485072374
 20
132.4464848715
 30
0.0
 40
3.779918078701128
100
AcDbArc
 50
155.7837213117
 51
167.0981823598
  0
ARC
  5
142
330
1F
100
AcDbEntity
  8
0
  6
Continuous
 62
     7
370
    25
100
AcDbCircle
 10
49.6017631444
 20
134.4919217578
 30
0.0
 40
7.01803215540597
100
AcDbArc
 50
175.9555700063
 51
184.0444299937
  0
ARC
  5
143
330
1F
100
AcDbEntity
  8
0
  6
Continuous
 62
     7
370
    25
100
AcDbCircle
 10
46.0485072374
 20
133.4364486756
 30
0.0
 40
3.779918078703095
100
AcDbArc
 50
155.7837213117
 51
167.0981823598
  0
SPLINE
  5
144
330
1F
100
AcDbEntity
  8
0
  6
Continuous
 62
     7
370
    25
100
AcDbSpline
210
0.0
220
0.0
230
1.0
 70
     8
 71
     3
 72
    11
 73
     7
 74
     0
 42
0.00000001
 43
0.00000001
 40
0.0
 40
0.0
 40
0.0
 40
0.0
 40
0.1771553424640977
 40
0.4808543061932556
 40
0.7833747449113184
 40
1.0
 40
1.0
 40
1.0
 40
1.0
 10
42.3324692734849
 20
134.2479995569469
 30
0.0
 10
42.32956616313921
 20
134.2237771168465
 30
0.0
 10
42.32168622516129
 20
134.1580299343635
 30
0.0
 10
42.32550525875909
 20
134.1383667343892
 30
0.0
 10
42.34010190929715
 20
134.1785298695904
 30
0.0
 10
42.35697561510177
 20
134.2504305361448
 30
0.0
 10
42.36401654959822
 20
134.2804327116789
 30
0.0
  0
ARC
  5
145
330
1F
100
AcDbEntity
  8
0
  6
Continuous
 62
     7
370
    25
100
AcDbCircle
 10
49.6120283362
 20
132.6700752092
 30
0.0
 40
7.335106118654287
100
AcDbArc
 50
168.3668500212
 51
171.1618771205
  0
SPLINE
  5
146
330
1F
100
AcDbEntity
  8
0
  6
Continuous
 62
     7
370
    25
100
AcDbSpline
210
0.0
220
0.0
230
1.0
 70
     8
 71
     3
 72
    11
 73
     7
 74
     0
 42
0.00000001
 43
0.00000001
 40
0.0
 40
0.0
 40
0.0
 40
0.0
 40
0.1769183548232303
 40
0.4807047869466887
 40
0.7833123546318377
 40
1.0
 40
1.0
 40
1.0
 40
1.0
 10
42.33245737384393
 20
133.0224621855485
 30
0.0
 10
42.32955943044038
 20
133.0646032762205
 30
0.0
 10
42.32168542964618
 20
133.1791048158344
 30
0.0
 10
42.32550597601906
 20
133.3991990833576
 30
0.0
 10
42.34010178818009
 20
133.6240540405594
 30
0.0
 10
42.35697557944255
 20
133.7461275032022
 30
0.0
 10
42.36401654959823
 20
133.7970654100365
 30
0.0
  0
SPLINE
  5
147
330
1F
100
AcDbEntity
  8
0
  6
Continuous
 62
     7
370
    25
100
AcDbSpline
210
0.0
220
0.0
230
1.0
 70
     8
 71
     3
 72
    10
 73
     6
 74
     0
 42
0.00000001
 43
0.00000001
 40
0.0
 40
0.0
 40
0.0
 40
0.0
 40
0.3456786151971759
 40
0.691495033423728
 40
1.0
 40
1.0
 40
1.0
 40
1.0
 10
42.36401654959823
 20
131.5696468507742
 30
0.0
 10
42.35442609423303
 20
131.6335647655153
 30
0.0
 10
42.33524136031613
 20
131.7614260755505
 30
0.0
 10
42.32234252442001
 20
131.8758906380824
 30
0.0
 10
42.32566819249165
 20
131.886864902995
 30
0.0
 10
42.32723620653048
 20
131.8920391419985
 30
0.0
  0
ARC
  5
148
330
1F
100
AcDbEntity
  8
0
  6
Continuous
 62
     7
370
    25
100
AcDbCircle
 10
49.6794332364
 20
132.709399615
 30
0.0
 40
7.403671904241336
100
AcDbArc
 50
188.8555717152
 51
197.0513202202
  0
SPLINE
  5
149
330
1F
100
AcDbEntity
  8
0
  6
Continuous
 62
     7
370
    25
100
AcDbSpline
210
0.0
220
0.0
230
1.0
 70
     8
 71
     3
 72
    11
 73
     7
 74
     0
 42
0.00000001
 43
0.00000001
 40
0.0
 40
0.0
 40
0.0
 40
0.0
 40
0.3039812236456291
 40
0.6080836278666548
 40
0.9095125090057328
 40
1.0
 40
1.0
 40
1.0
 40
1.0
 10
229.2040601529387
 20
134.2804327116789
 30
0.0
 10
229.2137755160012
 20
134.2396457051107
 30
0.0
 10
229.2332101151067
 20
134.1580554324407
 30
0.0
 10
229.2446819420581
 20
134.1408669330354
 30
0.0
 10
229.2453184657672
 20
134.174033384934
 30
0.0
 10
229.2373885097797
 20
134.2352676195115
 30
0.0
 10
229.2355576043315
 20
134.2494056669213
 30
0.0
  0
ARC
  5
14A
330
1F
100
AcDbEntity
  8
0
  6
Continuous
 62
     7
370
    25
100
AcDbCircle
 10
225.5195694651
 20
133.4364486756
 30
0.0
 40
3.779918078699078
100
AcDbArc
 50
12.9018176402
 51
24.2162786883
  0
ARC
  5
14B
330
1F
100
AcDbEntity
  8
0
  6
Continuous
 62
     7
370
    25
100
AcDbCircle
 10
221.9663135581
 20
134.4919217578
 30
0.0
 40
7.018032155404966
100
AcDbArc
 50
355.9555700063
 51
4.0444299937
  0
ARC
  5
14C
330
1F
100
AcDbEntity
  8
0
  6
Continuous
 62
     7
370
    25
100
AcDbCircle
 10
225.5195694651
 20
132.4464848715
 30
0.0
 40
3.779918078700587
100
AcDbArc
 50
12.9018176402
 51
24.2162786883
  0
SPLINE
  5
14D
330
1F
100
AcDbEntity
  8
0
  6
Continuous
 62
     7
370
    25
100
AcDbSpline
210
0.0
220
0.0
230
1.0
 70
     8
 71
     3
 72
    12
 73
     8
 74
     0
 42
0.00000001
 43
0.00000001
 40
0.0
 40
0.0
 40
0.0
 40
0.0
 40
0.2133534395476133
 40
0.4267919313634468
 40
0.6383539739091508
 40
0.8490950351927574
 40
1.0
 40
1.0
 40
1.0
 40
1.0
 10
229.2040601529387
 20
132.2478589610605
 30
0.0
 10
229.2137192966661
 20
132.321317631333
 30
0.0
 10
229.2330414346896
 20
132.468264255805
 30
0.0
 10
229.2453545046977
 20
132.7249269873568
 30
0.0
 10
229.2430170644009
 20
132.9703283493934
 30
0.0
 10
229.2278995453871
 20
133.1660101091539
 30
0.0
 10
229.2110789330061
 20
133.2538258204797
 30
0.0
 10
229.2040601529387
 20
133.2904689075623
 30
0.0
  0
ARC
  5
14E
330
1F
100
AcDbEntity
  8
0
  6
Continuous
 62
     7
370
    25
100
AcDbCircle
 10
221.8886434661
 20
133.3876117253
 30
0.0
 40
7.403671904242583
100
AcDbArc
 50
342.9486797798
 51
351.1444282848
  0
ARC
  5
14F
330
1F
100
AcDbEntity
  8
0
  6
Continuous
 62
     7
370
    25
100
AcDbCircle
 10
225.6850555078
 20
130.87754061
 30
0.0
 40
3.299286112125004
100
AcDbArc
 50
354.1006273552
 51
5.8993726448
  0
ARC
  5
150
330
1F
100
AcDbEntity
  8
0
  6
Continuous
 62
     7
370
    25
100
AcDbCircle
 10
221.8886434661
 20
132.709399615
 30
0.0
 40
7.40367190424246
100
AcDbArc
 50
342.9486797798
 51
351.1444282848
  0
SPLINE
  5
151
330
1F
100
AcDbEntity
  8
0
  6
Continuous
 62
     7
370
    25
100
AcDbSpline
210
0.0
220
0.0
230
1.0
 70
     8
 71
     3
 72
    11
 73
     7
 74
     0
 42
0.00000001
 43
0.00000001
 40
0.0
 40
0.0
 40
0.0
 40
0.0
 40
0.0714051685223689
 40
0.4141348508035128
 40
0.7555345466478937
 40
1.0
 40
1.0
 40
1.0
 40
1.0
 10
229.2403140140415
 20
131.8888621808014
 30
0.0
 10
229.2412653081367
 20
131.8910039062486
 30
0.0
 10
229.2467826123649
 20
131.9034254601343
 30
0.0
 10
229.2421888846545
 20
131.8436636050164
 30
0.0
 10
229.2280393924776
 20
131.7275182841765
 30
0.0
 10
229.2111201067052
 20
131.6161272664298
 30
0.0
 10
229.2040601529387
 20
131.5696468507741
 30
0.0
  0
SPLINE
  5
152
330
1F
100
AcDbEntity
  8
0
  6
Continuous
 62
     7
370
    25
100
AcDbSpline
210
0.0
220
0.0
230
1.0
 70
     8
 71
     3
 72
    11
 73
     7
 74
     0
 42
0.00000001
 43
0.00000001
 40
0.0
 40
0.0
 40
0.0
 40
0.0
 40
0.3067489698104859
 40
0.6136202235443619
 40
0.917793611793932
 40
1.0
 40
1.0
 40
1.0
 40
1.0
 10
229.2040601529387
 20
133.7970654100365
 30
0.0
 10
229.2137784205447
 20
133.7234185564341
 30
0.0
 10
229.2332188298947
 20
133.5760954902842
 30
0.0
 10
229.244647194451
 20
133.3222486568406
 30
0.0
 10
229.2453995182804
 20
133.128086996045
 30
0.0
 10
229.2376995054448
 20
133.0409924684093
 30
0.0
 10
229.2360612461907
 20
133.0224621855485
 30
0.0
  0
ARC
  5
153
330
1F
100
AcDbEntity
  8
0
  6
Continuous
 62
     7
370
    25
100
AcDbCircle
 10
221.958009131
 20
132.6704073312
 30
0.0
 40
7.333117607090644
100
AcDbArc
 50
8.837912545
 51
11.3659567697
  0
LINE
  5
154
330
1F
100
AcDbEntity
  8
0
  6
Continuous
 62
     7
370
    25
100
AcDbLine
 10
43.5840383513
 20
127.6935478489
 30
0.0
 11
43.5840383513
 21
138.3513765222
 31
0.0
  0
LINE
  5
155
330
1F
100
AcDbEntity
  8
0
  6
Continuous
 62
     7
370
    25
100
AcDbLine
 10
211.7427645545
 20
141.5185434829
 30
0.0
 11
211.7427645545
 21
125.0172237511
 31
0.0
  0
SPLINE
  5
156
330
1F
100
AcDbEntity
  8
0
  6
Continuous
 62
     7
370
    25
100
AcDbSpline
210
0.0
220
0.0
230
1.0
 70
     8
 71
     3
 72
    11
 73
     7
 74
     0
 42
0.00000001
 43
0.00000001
 40
0.0
 40
0.0
 40
0.0
 40
0.0
 40
0.2499999999999913
 40
0.4999999999999988
 40
0.7499999999999947
 40
1.0
 40
1.0
 40
1.0
 40
1.0
 10
211.7427645544871
 20
125.0172222118369
 30
0.0
 10
211.6763935017497
 20
125.0231146892398
 30
0.0
 10
211.543651396275
 20
125.0348996440457
 30
0.0
 10
211.3751876554943
 20
125.1388213264776
 30
0.0
 10
211.2571002964592
 20
125.2890017309336
 30
0.0
 10
211.2417256663321
 20
125.4085607899656
 30
0.0
 10
211.2340383512685
 20
125.4683403194816
 30
0.0
  0
LINE
  5
157
330
1F
100
AcDbEntity
  8
0
  6
Continuous
 62
     7
370
    25
100
AcDbLine
 10
211.2340383513
 20
125.4683951697
 30
0.0
 11
211.2340383513
 21
141.0673182399
 31
0.0
  0
SPLINE
  5
158
330
1F
100
AcDbEntity
  8
0
  6
Continuous
 62
     7
370
    25
100
AcDbSpline
210
0.0
220
0.0
230
1.0
 70
     8
 71
     3
 72
    11
 73
     7
 74
     0
 42
0.00000001
 43
0.00000001
 40
0.0
 40
0.0
 40
0.0
 40
0.0
 40
0.2499999999999901
 40
0.5000000000000007
 40
0.7500000000000012
 40
1.0
 40
1.0
 40
1.0
 40
1.0
 10
211.7427645544871
 20
141.5185431976719
 30
0.0
 10
211.6763935017498
 20
141.5126493245994
 30
0.0
 10
211.543651396275
 20
141.5008615784544
 30
0.0
 10
211.3751876554943
 20
141.3969152815322
 30
0.0
 10
211.2571002964592
 20
141.2466993059227
 30
0.0
 10
211.241725666332
 20
141.1271119285915
 30
0.0
 10
211.2340383512685
 20
141.0673182399259
 30
0.0
  0
LWPOLYLINE
  5
159
330
1F
100
AcDbEntity
  8
0
  6
Continuous
 62
     7
370
    25
100
AcDbPolyline
 90
        3
 70
   128
 43
0.0
 10
211.7427645545
 20
125.0172237511
 10
217.7342383513
 20
125.0834761623
 10
221.2220823084
 20
125.1222921286
  0
LWPOLYLINE
  5
15A
330
1F
100
AcDbEntity
  8
0
  6
Continuous
 62
     7
370
    25
100
AcDbPolyline
 90
        3
 70
   128
 43
0.0
 10
220.2886620945
 20
141.4238808908
 10
217.7342383513
 20
141.4522907864
 10
211.7427645375
 20
141.5185431979
  0
LINE
  5
15B
330
1F
100
AcDbEntity
  8
0
  6
Continuous
 62
     7
370
    25
100
AcDbLine
 10
226.0840383513
 20
141.6673271286
 30
0.0
 11
226.0840383513
 21
124.8684398201
 31
0.0
  0
LINE
  5
15C
330
1F
100
AcDbEntity
  8
0
  6
Continuous
 62
     7
370
    25
100
AcDbLine
 10
211.7427645545
 20
125.0172224977
 30
0.0
 11
211.7427645545
 21
121.5217495611
 31
0.0
  0
ARC
  5
15D
330
1F
100
AcDbEntity
  8
0
  6
Continuous
 62
     7
370
    25
100
AcDbCircle
 10
211.7280996459
 20
122.0156359179
 30
0.0
 40
0.494104030492925
100
AcDbArc
 50
180.7535768612
 51
271.7007770082
  0
LINE
  5
15E
330
1F
100
AcDbEntity
  8
0
  6
Continuous
 62
     7
370
    25
100
AcDbLine
 10
211.2340383513
 20
122.0091374527
 30
0.0
 11
211.2340383513
 21
125.4683939154
 31
0.0
  0
LINE
  5
15F
330
1F
100
AcDbEntity
  8
0
  6
Continuous
 62
     7
370
    25
100
AcDbLine
 10
211.7427645545
 20
145.0140173876
 30
0.0
 11
211.7427645545
 21
141.5185447369
 31
0.0
  0
ARC
  5
160
330
1F
100
AcDbEntity
  8
0
  6
Continuous
 62
     7
370
    25
100
AcDbCircle
 10
211.7280996459
 20
144.5201310308
 30
0.0
 40
0.4941040304928564
100
AcDbArc
 50
88.2992229918
 51
179.2464231388
  0
LINE
  5
161
330
1F
100
AcDbEntity
  8
0
  6
Continuous
 62
     7
370
    25
100
AcDbLine
 10
211.2340383513
 20
141.0673730334
 30
0.0
 11
211.2340383513
 21
144.526629496
 31
0.0
  0
SPLINE
  5
162
330
1F
100
AcDbEntity
  8
0
  6
Continuous
 62
     7
370
    25
100
AcDbSpline
210
0.0
220
0.0
230
1.0
 70
     8
 71
     3
 72
    12
 73
     8
 74
     0
 42
0.00000001
 43
0.00000001
 40
0.0
 40
0.0
 40
0.0
 40
0.0
 40
0.1662426524176543
 40
0.3368059756191298
 40
0.6054181071254586
 40
0.880143508713619
 40
1.0
 40
1.0
 40
1.0
 40
1.0
 10
215.8252723812124
 20
121.5912230927059
 30
0.0
 10
215.9247290884876
 20
121.7467082681889
 30
0.0
 10
216.1262273973665
 20
122.0617197015441
 30
0.0
 10
216.948475153389
 20
122.7246848065426
 30
0.0
 10
218.3103043203755
 20
123.576879723348
 30
0.0
 10
219.8714105090344
 20
124.4195084019601
 30
0.0
 10
220.841650201196
 20
124.9573664946553
 30
0.0
 10
221.1363660188989
 20
125.1207439454825
 30
0.0
  0
LINE
  5
163
330
1F
100
AcDbEntity
  8
0
  6
Continuous
 62
     7
370
    25
100
AcDbLine
 10
215.8252723812
 20
121.5912230927
 30
0.0
 11
211.7427645545
 21
121.5217495611
 31
0.0
  0
LWPOLYLINE
  5
164
330
1F
100
AcDbEntity
  8
0
  6
Continuous
 62
     7
370
    25
100
AcDbPolyline
 90
        3
 70
   128
 43
0.0
 10
221.1363660189
 20
125.1207439455
 10
217.7340383513
 20
125.0832202419
 10
211.7427645714
 20
125.017222212
  0
LINE
  5
165
330
1F
100
AcDbEntity
  8
0
  6
Continuous
 62
     7
370
    25
100
AcDbLine
 10
221.2220823084
 20
125.1222921286
 30
0.0
 11
221.1774759752
 21
125.1214855116
 31
0.0
  0
LINE
  5
166
330
1F
100
AcDbEntity
  8
0
  6
Continuous
 62
     7
370
    25
100
AcDbLine
 10
221.1363660189
 20
125.1207439455
 30
0.0
 11
221.1774759752
 21
125.1214855116
 31
0.0
  0
LINE
  5
167
330
1F
100
AcDbEntity
  8
0
  6
Continuous
 62
     7
370
    25
100
AcDbLine
 10
215.7689431641
 20
144.8986116892
 30
0.0
 11
215.7689431641
 21
144.945502431
 31
0.0
  0
SPLINE
  5
168
330
1F
100
AcDbEntity
  8
0
  6
Continuous
 62
     7
370
    25
100
AcDbSpline
210
0.0
220
0.0
230
1.0
 70
     8
 71
     3
 72
    12
 73
     8
 74
     0
 42
0.00000001
 43
0.00000001
 40
0.0
 40
0.0
 40
0.0
 40
0.0
 40
0.0460732444350173
 40
0.2494607408078301
 40
0.4779405209378887
 40
0.7057893369168754
 40
1.0
 40
1.0
 40
1.0
 40
1.0
 10
220.2179521512855
 20
141.4251552344793
 30
0.0
 10
220.1159797102885
 20
141.4876606318951
 30
0.0
 10
219.5638562168153
 20
141.8260922517003
 30
0.0
 10
218.519876261503
 20
142.4446343485255
 30
0.0
 10
217.2485979859911
 20
143.2523589000941
 30
0.0
 10
216.0818349614138
 20
144.1244368136337
 30
0.0
 10
215.881719680636
 20
144.619573547608
 30
0.0
 10
215.7689431641431
 20
144.8986116891644
 30
0.0
  0
LWPOLYLINE
  5
169
330
1F
100
AcDbEntity
  8
0
  6
Continuous
 62
     7
370
    25
100
AcDbPolyline
 90
        3
 70
   128
 43
0.0
 10
220.2179521513
 20
141.4251552345
 10
217.7340383513
 20
141.4525467068
 10
211.7427645545
 20
141.5185447369
  0
LINE
  5
16A
330
1F
100
AcDbEntity
  8
0
  6
Continuous
 62
     7
370
    25
100
AcDbLine
 10
215.7689431641
 20
144.945502431
 30
0.0
 11
211.7427645545
 21
145.0140173876
 31
0.0
  0
LINE
  5
16B
330
1F
100
AcDbEntity
  8
0
  6
Continuous
 62
     7
370
    25
100
AcDbLine
 10
220.2561279553
 20
141.4244679317
 30
0.0
 11
220.2179521513
 21
141.4251552345
 31
0.0
  0
LINE
  5
16C
330
1F
100
AcDbEntity
  8
0
  6
Continuous
 62
     7
370
    25
100
AcDbLine
 10
220.2561279553
 20
141.4244679317
 30
0.0
 11
220.2886620945
 21
141.4238808908
 31
0.0
  0
LINE
  5
16D
330
1F
100
AcDbEntity
  8
0
  6
Continuous
 62
     7
370
    25
100
AcDbLine
 10
211.2340383513
 20
144.526629496
 30
0.0
 11
211.2340383513
 21
144.7397730891
 31
0.0
  0
LINE
  5
16E
330
1F
100
AcDbEntity
  8
0
  6
Continuous
 62
     7
370
    25
100
AcDbLine
 10
211.2340383513
 20
121.7959938596
 30
0.0
 11
211.2340383513
 21
122.0091374527
 31
0.0
  0
LINE
  5
16F
330
1F
100
AcDbEntity
  8
0
  6
Continuous
 62
     7
370
    25
100
AcDbLine
 10
215.7689431641
 20
121.3829360274
 30
0.0
 11
215.8252723812
 21
121.5912230927
 31
0.0
  0
LINE
  5
170
330
1F
100
AcDbEntity
  8
0
  6
Continuous
 62
     7
370
    25
100
AcDbLine
 10
59.825312148
 20
124.771802177
 30
0.0
 11
59.825312148
 21
141.2731219088
 31
0.0
  0
SPLINE
  5
171
330
1F
100
AcDbEntity
  8
0
  6
Continuous
 62
     7
370
    25
100
AcDbSpline
210
0.0
220
0.0
230
1.0
 70
     8
 71
     3
 72
    11
 73
     7
 74
     0
 42
0.00000001
 43
0.00000001
 40
0.0
 40
0.0
 40
0.0
 40
0.0
 40
0.2499999999999918
 40
0.4999999999999998
 40
0.7499999999999961
 40
1.0
 40
1.0
 40
1.0
 40
1.0
 10
59.82531214804984
 20
141.2731234480884
 30
0.0
 10
59.89168320078721
 20
141.2672309706855
 30
0.0
 10
60.02442530626197
 20
141.2554460158796
 30
0.0
 10
60.1928890470427
 20
141.1515243334477
 30
0.0
 10
60.31097640607774
 20
141.0013439289917
 30
0.0
 10
60.3263510362049
 20
140.8817848699597
 30
0.0
 10
60.33403835126848
 20
140.8220053404437
 30
0.0
  0
LINE
  5
172
330
1F
100
AcDbEntity
  8
0
  6
Continuous
 62
     7
370
    25
100
AcDbLine
 10
60.3340383513
 20
140.8219504902
 30
0.0
 11
60.3340383513
 21
125.22302742
 31
0.0
  0
SPLINE
  5
173
330
1F
100
AcDbEntity
  8
0
  6
Continuous
 62
     7
370
    25
100
AcDbSpline
210
0.0
220
0.0
230
1.0
 70
     8
 71
     3
 72
    11
 73
     7
 74
     0
 42
0.00000001
 43
0.00000001
 40
0.0
 40
0.0
 40
0.0
 40
0.0
 40
0.2499999999999896
 40
0.4999999999999997
 40
0.7499999999999998
 40
1.0
 40
1.0
 40
1.0
 40
1.0
 10
59.82531214804984
 20
124.7718024622534
 30
0.0
 10
59.89168320078722
 20
124.7776963353259
 30
0.0
 10
60.02442530626197
 20
124.7894840814709
 30
0.0
 10
60.19288904704268
 20
124.8934303783931
 30
0.0
 10
60.31097640607778
 20
125.0436463540026
 30
0.0
 10
60.3263510362049
 20
125.1632337313338
 30
0.0
 10
60.33403835126848
 20
125.2230274199995
 30
0.0
  0
LWPOLYLINE
  5
174
330
1F
100
AcDbEntity
  8
0
  6
Continuous
 62
     7
370
    25
100
AcDbPolyline
 90
        3
 70
   128
 43
0.0
 10
59.825312148
 20
141.2731219088
 10
53.8338383513
 20
141.2068694976
 10
50.3459943941
 20
141.1680535313
  0
LWPOLYLINE
  5
175
330
1F
100
AcDbEntity
  8
0
  6
Continuous
 62
     7
370
    25
100
AcDbPolyline
 90
        3
 70
   128
 43
0.0
 10
51.279414608
 20
124.8664647691
 10
53.8338383513
 20
124.8380548735
 10
59.825312165
 20
124.7718024621
  0
LINE
  5
176
330
1F
100
AcDbEntity
  8
0
  6
Continuous
 62
     7
370
    25
100
AcDbLine
 10
45.4840383513
 20
124.6230185313
 30
0.0
 11
45.4840383513
 21
141.4219058398
 31
0.0
  0
LINE
  5
177
330
1F
100
AcDbEntity
  8
0
  6
Continuous
 62
     7
370
    25
100
AcDbLine
 10
59.8253121481
 20
141.2731231622
 30
0.0
 11
59.8253121481
 21
144.7685960988
 31
0.0
  0
ARC
  5
178
330
1F
100
AcDbEntity
  8
0
  6
Continuous
 62
     7
370
    25
100
AcDbCircle
 10
59.8399770566
 20
144.274709742
 30
0.0
 40
0.494104030492903
100
AcDbArc
 50
0.7535768612
 51
91.7007770082
  0
LINE
  5
179
330
1F
100
AcDbEntity
  8
0
  6
Continuous
 62
     7
370
    25
100
AcDbLine
 10
60.3340383513
 20
144.2812082072
 30
0.0
 11
60.3340383513
 21
140.8219517445
 31
0.0
  0
LINE
  5
17A
330
1F
100
AcDbEntity
  8
0
  6
Continuous
 62
     7
370
    25
100
AcDbLine
 10
59.825312148
 20
121.2763282723
 30
0.0
 11
59.825312148
 21
124.771800923
 31
0.0
  0
ARC
  5
17B
330
1F
100
AcDbEntity
  8
0
  6
Continuous
 62
     7
370
    25
100
AcDbCircle
 10
59.8399770566
 20
121.7702146291
 30
0.0
 40
0.4941040304929029
100
AcDbArc
 50
268.2992229918
 51
359.2464231388
  0
LINE
  5
17C
330
1F
100
AcDbEntity
  8
0
  6
Continuous
 62
     7
370
    25
100
AcDbLine
 10
60.3340383513
 20
125.2229726266
 30
0.0
 11
60.3340383513
 21
121.7637161639
 31
0.0
  0
LINE
  5
17D
330
1F
100
AcDbEntity
  8
0
  6
Continuous
 62
     7
370
    25
100
AcDbLine
 10
55.7991335384
 20
121.3917339708
 30
0.0
 11
55.7991335384
 21
121.344843229
 31
0.0
  0
SPLINE
  5
17E
330
1F
100
AcDbEntity
  8
0
  6
Continuous
 62
     7
370
    25
100
AcDbSpline
210
0.0
220
0.0
230
1.0
 70
     8
 71
     3
 72
    12
 73
     8
 74
     0
 42
0.00000001
 43
0.00000001
 40
0.0
 40
0.0
 40
0.0
 40
0.0
 40
0.0460732444350183
 40
0.249460740807831
 40
0.4779405209378896
 40
0.7057893369168761
 40
1.0
 40
1.0
 40
1.0
 40
1.0
 10
51.35012455125142
 20
124.865190425446
 30
0.0
 10
51.45209699224846
 20
124.8026850280302
 30
0.0
 10
52.00422048572166
 20
124.464253408225
 30
0.0
 10
53.04820044103402
 20
123.8457113113999
 30
0.0
 10
54.31947871654582
 20
123.0379867598312
 30
0.0
 10
55.48624174112314
 20
122.1659088462917
 30
0.0
 10
55.68635702190103
 20
121.6707721123173
 30
0.0
 10
55.79913353839391
 20
121.3917339707609
 30
0.0
  0
LWPOLYLINE
  5
17F
330
1F
100
AcDbEntity
  8
0
  6
Continuous
 62
     7
370
    25
100
AcDbPolyline
 90
        3
 70
   128
 43
0.0
 10
51.3501245513
 20
124.8651904254
 10
53.8340383513
 20
124.8377989531
 10
59.825312148
 20
124.771800923
  0
LINE
  5
180
330
1F
100
AcDbEntity
  8
0
  6
Continuous
 62
     7
370
    25
100
AcDbLine
 10
55.7991335384
 20
121.344843229
 30
0.0
 11
59.825312148
 21
121.2763282723
 31
0.0
  0
LINE
  5
181
330
1F
100
AcDbEntity
  8
0
  6
Continuous
 62
     7
370
    25
100
AcDbLine
 10
50.3459943941
 20
141.1680535313
 30
0.0
 11
50.3906007273
 21
141.1688601484
 31
0.0
  0
LINE
  5
182
330
1F
100
AcDbEntity
  8
0
  6
Continuous
 62
     7
370
    25
100
AcDbLine
 10
50.4317106836
 20
141.1696017144
 30
0.0
 11
50.3906007273
 21
141.1688601484
 31
0.0
  0
LWPOLYLINE
  5
183
330
1F
100
AcDbEntity
  8
0
  6
Continuous
 62
     7
370
    25
100
AcDbPolyline
 90
        3
 70
   128
 43
0.0
 10
50.4317106836
 20
141.1696017144
 10
53.8340383513
 20
141.207125418
 10
59.8253121311
 20
141.2731234479
  0
SPLINE
  5
184
330
1F
100
AcDbEntity
  8
0
  6
Continuous
 62
     7
370
    25
100
AcDbSpline
210
0.0
220
0.0
230
1.0
 70
     8
 71
     3
 72
    12
 73
     8
 74
     0
 42
0.00000001
 43
0.00000001
 40
0.0
 40
0.0
 40
0.0
 40
0.0
 40
0.1662426524176548
 40
0.3368059756191302
 40
0.6054181071254584
 40
0.8801435087136187
 40
1.0
 40
1.0
 40
1.0
 40
1.0
 10
55.74280432132463
 20
144.6991225672195
 30
0.0
 10
55.6433476140494
 20
144.5436373917364
 30
0.0
 10
55.44184930517047
 20
144.2286259583812
 30
0.0
 10
54.61960154914797
 20
143.5656608533827
 30
0.0
 10
53.25777238216139
 20
142.7134659365773
 30
0.0
 10
51.69666619350254
 20
141.8708372579652
 30
0.0
 10
50.7264265013409
 20
141.33297916527
 30
0.0
 10
50.43171068363802
 20
141.1696017144428
 30
0.0
  0
LINE
  5
185
330
1F
100
AcDbEntity
  8
0
  6
Continuous
 62
     7
370
    25
100
AcDbLine
 10
55.7428043213
 20
144.6991225672
 30
0.0
 11
59.825312148
 21
144.7685960988
 31
0.0
  0
LINE
  5
186
330
1F
100
AcDbEntity
  8
0
  6
Continuous
 62
     7
370
    25
100
AcDbLine
 10
51.3119487473
 20
124.8658777282
 30
0.0
 11
51.3501245513
 21
124.8651904254
 31
0.0
  0
LINE
  5
187
330
1F
100
AcDbEntity
  8
0
  6
Continuous
 62
     7
370
    25
100
AcDbLine
 10
51.3119487473
 20
124.8658777282
 30
0.0
 11
51.279414608
 21
124.8664647691
 31
0.0
  0
LINE
  5
188
330
1F
100
AcDbEntity
  8
0
  6
Continuous
 62
     7
370
    25
100
AcDbLine
 10
60.3340383513
 20
144.4943518003
 30
0.0
 11
60.3340383513
 21
144.2812082072
 31
0.0
  0
LINE
  5
189
330
1F
100
AcDbEntity
  8
0
  6
Continuous
 62
     7
370
    25
100
AcDbLine
 10
60.3340383513
 20
121.7637161639
 30
0.0
 11
60.3340383513
 21
121.5505725708
 31
0.0
  0
LINE
  5
18A
330
1F
100
AcDbEntity
  8
0
  6
Continuous
 62
     7
370
    25
100
AcDbLine
 10
55.7991335384
 20
144.9074096325
 30
0.0
 11
55.7428043213
 21
144.6991225672
 31
0.0
  0
LINE
  5
18B
330
1F
100
AcDbEntity
  8
0
  6
Continuous
 62
     7
370
    25
100
AcDbLine
 10
202.5840383513
 20
135.2246215557
 30
0.0
 11
202.5840383513
 21
132.6283193937
 31
0.0
  0
SPLINE
  5
18C
330
1F
100
AcDbEntity
  8
0
  6
Continuous
 62
     7
370
    25
100
AcDbSpline
210
0.0
220
0.0
230
1.0
 70
     8
 71
     3
 72
    13
 73
     9
 74
     0
 42
0.00000001
 43
0.00000001
 40
0.0
 40
0.0
 40
0.0
 40
0.0
 40
0.0295448902054266
 40
0.2606471239688193
 40
0.491315255205473
 40
0.7308682638478775
 40
0.9709134921287355
 40
1.0
 40
1.0
 40
1.0
 40
1.0
 10
202.5840383512685
 20
135.2246215557373
 30
0.0
 10
202.6119631690844
 20
135.2861668628445
 30
0.0
 10
202.8583178991394
 20
135.8291239420456
 30
0.0
 10
203.2204065830367
 20
136.8845701078029
 30
0.0
 10
203.4321541532309
 20
138.4429053278865
 30
0.0
 10
203.2373135183788
 20
140.0237159243155
 30
0.0
 10
202.8659683621573
 20
141.1177192032688
 30
0.0
 10
202.6115361977122
 20
141.6783308862613
 30
0.0
 10
202.5840383512685
 20
141.7389191928031
 30
0.0
  0
LINE
  5
18D
330
1F
100
AcDbEntity
  8
0
  6
Continuous
 62
     7
370
    25
100
AcDbLine
 10
202.5840383513
 20
142.8373453216
 30
0.0
 11
202.5840383513
 21
141.7389191928
 31
0.0
  0
SPLINE
  5
18E
330
1F
100
AcDbEntity
  8
0
  6
Continuous
 62
     7
370
    25
100
AcDbSpline
210
0.0
220
0.0
230
1.0
 70
     8
 71
     3
 72
     9
 73
     5
 74
     0
 42
0.00000001
 43
0.00000001
 40
0.0
 40
0.0
 40
0.0
 40
0.0
 40
0.6141669735876237
 40
0.9999999999999999
 40
0.9999999999999999
 40
0.9999999999999999
 40
0.9999999999999999
 10
202.5840383512685
 20
142.8373453215602
 30
0.0
 10
202.8065897516886
 20
142.7819510892791
 30
0.0
 10
203.1689527734578
 20
142.6917569976668
 30
0.0
 10
203.2481932269418
 20
142.5965515110403
 30
0.0
 10
203.2787668109239
 20
142.5598180900041
 30
0.0
  0
SPLINE
  5
18F
330
1F
100
AcDbEntity
  8
0
  6
Continuous
 62
     7
370
    25
100
AcDbSpline
210
0.0
220
0.0
230
1.0
 70
     8
 71
     3
 72
    11
 73
     7
 74
     0
 42
0.00000001
 43
0.00000001
 40
0.0
 40
0.0
 40
0.0
 40
0.0
 40
0.243164119738092
 40
0.4936284730588932
 40
0.742170607686328
 40
1.0
 40
1.0
 40
1.0
 40
1.0
 10
202.5840383512685
 20
123.2075790495368
 30
0.0
 10
202.7941786744773
 20
123.263101166813
 30
0.0
 10
203.2207681194389
 20
123.3758122773235
 30
0.0
 10
203.4311525495819
 20
123.5546085334575
 30
0.0
 10
203.2404658559149
 20
123.7371772050702
 30
0.0
 10
202.8055066855202
 20
123.8529263487499
 30
0.0
 10
202.5840383512685
 20
123.9118623863981
 30
0.0
  0
LINE
  5
190
330
1F
100
AcDbEntity
  8
0
  6
Continuous
 62
     7
370
    25
100
AcDbLine
 10
202.5840383513
 20
125.4097384197
 30
0.0
 11
202.5840383513
 21
123.9118623864
 31
0.0
  0
SPLINE
  5
191
330
1F
100
AcDbEntity
  8
0
  6
Continuous
 62
     7
370
    25
100
AcDbSpline
210
0.0
220
0.0
230
1.0
 70
     8
 71
     3
 72
    11
 73
     7
 74
     0
 42
0.00000001
 43
0.00000001
 40
0.0
 40
0.0
 40
0.0
 40
0.0
 40
0.2431641197380919
 40
0.4936284730588941
 40
0.7421706076863291
 40
1.0
 40
1.0
 40
1.0
 40
1.0
 10
202.5840383512685
 20
125.4097384197257
 30
0.0
 10
202.7941786744773
 20
125.9788146400829
 30
0.0
 10
203.2207681194389
 20
127.1340517943623
 30
0.0
 10
203.4311525495819
 20
128.9666313616848
 30
0.0
 10
203.2404658559149
 20
130.8378764563261
 30
0.0
 10
202.8055066855202
 20
132.0242520562914
 30
0.0
 10
202.5840383512685
 20
132.6283193936526
 30
0.0
  0
LINE
  5
192
330
1F
100
AcDbEntity
  8
0
  6
Continuous
 62
     7
370
    25
100
AcDbLine
 10
204.5840383513
 20
137.7634403494
 30
0.0
 11
204.5840383513
 21
124.7724621855
 31
0.0
  0
LINE
  5
193
330
1F
100
AcDbEntity
  8
0
  6
Continuous
 62
     7
370
    25
100
AcDbLine
 10
204.5840383513
 20
141.2724621855
 30
0.0
 11
204.5840383513
 21
137.7634403494
 31
0.0
  0
LWPOLYLINE
  5
194
330
1F
100
AcDbEntity
  8
0
  6
Continuous
 62
     7
370
    25
100
AcDbPolyline
 90
       69
 70
   128
 43
0.0
 10
197.4702637877
 20
142.3958100799
 10
196.0628518095
 20
142.4067706806
 10
196.0754222283
 20
142.3611780447
 10
196.0844506843
 20
142.308847127
 10
196.132429001
 20
141.7754335985
 10
196.1616792148
 20
141.2632781123
 10
196.1952969377
 20
140.5157701148
 10
196.2495965096
 20
138.943401971
 10
196.267876901
 20
138.3056581853
 10
196.2877374026
 20
137.5802864871
 10
196.3461789141
 20
135.3325907925
 10
196.3798415154
 20
133.9775490613
 10
196.4050420319
 20
132.9356643522
 10
196.4091946251
 20
132.7605452562
 10
196.4142788282
 20
132.5413544295
 10
196.4238327717
 20
132.1301083571
 10
196.4378564555
 20
131.5297131281
 10
196.4542144555
 20
130.8373622973
 10
196.4700433459
 20
130.1931666645
 10
196.4949126294
 20
129.2279090378
 10
196.5288223061
 20
127.997428275
 10
196.562930387
 20
126.8739926526
 10
196.6152468782
 20
125.3885630287
 10
196.6322136217
 20
124.9831078926
 10
196.6459053327
 20
124.6892613758
 10
196.6597341738
 20
124.4371417415
 10
196.6967450923
 20
123.9330119127
 10
196.7310958671
 20
123.6775776685
 10
196.7402922212
 20
123.6443394068
 10
196.7593856469
 20
123.6237016182
 10
196.7765269066
 20
123.6635340517
 10
196.8038018704
 20
123.8476221127
 10
196.8280955294
 20
124.1295358477
 10
196.8493072166
 20
124.4536200621
 10
196.8802790776
 20
125.0514359473
 10
196.912105687
 20
125.8159508529
 10
196.9338972588
 20
126.428180184
 10
196.9579752335
 20
127.1986287396
 10
196.9849748545
 20
128.1613718808
 10
197.0018771383
 20
128.7899865103
 10
197.0208519294
 20
129.5104883005
 10
197.0311673611
 20
129.9070720542
 10
197.0501159964
 20
130.6481702951
 10
197.0767356183
 20
131.7144722981
 10
197.0966154223
 20
132.5282061869
 10
197.1208041481
 20
133.538809289
 10
197.1462985136
 20
134.6245320553
 10
197.168578134
 20
135.5757212916
 10
197.1927025131
 20
136.5322239083
 10
197.2317509389
 20
137.9617935062
 10
197.2665210438
 20
139.1170999509
 10
197.292002828
 20
139.8810978138
 10
197.3081962915
 20
140.3289730033
 10
197.3233267874
 20
140.7215791165
 10
197.3402233436
 20
141.116575454
 10
197.3558407269
 20
141.4385652708
 10
197.3771905043
 20
141.7959649546
 10
197.4144835088
 20
142.2259826924
 10
197.4739562482
 20
142.4070520624
 10
197.5118958643
 20
142.1722387399
 10
197.5643730714
 20
141.4248321073
 10
197.5989112428
 20
140.6979250379
 10
197.630339399
 20
139.8800179158
 10
197.6562513192
 20
139.0907183015
 10
197.6763533942
 20
138.4008906525
 10
197.7157071376
 20
136.955214416
 10
197.7462505606
 20
135.7742913897
 10
197.7840383513
 20
134.2596477601
 10
197.7840383513
 20
134.2596477601
  0
LINE
  5
195
330
1F
100
AcDbEntity
  8
0
  6
Continuous
 62
     7
370
    25
100
AcDbLine
 10
197.7840383513
 20
123.7042342734
 30
0.0
 11
197.7840383513
 21
134.2596477598
 31
0.0
  0
SPLINE
  5
196
330
1F
100
AcDbEntity
  8
0
  6
Continuous
 62
     7
370
    25
100
AcDbSpline
210
0.0
220
0.0
230
1.0
 70
     8
 71
     3
 72
    34
 73
    30
 74
     0
 42
0.00000001
 43
0.00000001
 40
0.0
 40
0.0
 40
0.0
 40
0.0
 40
0.0107203951961484
 40
0.0520621697759947
 40
0.0928367874081195
 40
0.1325810366880715
 40
0.1677541617798289
 40
0.2086915438314886
 40
0.2384934651934101
 40
0.2673349663247638
 40
0.318832825637651
 40
0.3705684485253378
 40
0.4034855483800231
 40
0.4497965787901717
 40
0.4930749937141919
 40
0.5200718191566128
 40
0.5290161799575818
 40
0.5550558451171256
 40
0.581095680562831
 40
0.6071356883937956
 40
0.6850971664419627
 40
0.7212104574388013
 40
0.7533762602206925
 40
0.7815934401165542
 40
0.8424689042448504
 40
0.8663160849528521
 40
0.9005262882265266
 40
0.9450912036484979
 40
1.0
 40
1.0
 40
1.0
 40
1.0
 10
197.108410928977
 20
142.4128381470242
 30
0.0
 10
197.1108287632854
 20
142.4153925988478
 30
0.0
 10
197.1225706532018
 20
142.4277979535098
 30
0.0
 10
197.1427428794777
 20
142.3267300494435
 30
0.0
 10
197.1692044154568
 20
142.0841703700146
 30
0.0
 10
197.195325738111
 20
141.7189507556377
 30
0.0
 10
197.2219586653633
 20
141.24185765595
 30
0.0
 10
197.2463178712884
 20
140.7048031112396
 30
0.0
 10
197.2691589435195
 20
140.1193198611431
 30
0.0
 10
197.2945393848119
 20
139.4028234950802
 30
0.0
 10
197.3231087831132
 20
138.4381149178301
 30
0.0
 10
197.3527707204947
 20
137.3286990784593
 30
0.0
 10
197.3826679168607
 20
136.1934930999498
 30
0.0
 10
197.4109424862578
 20
135.0825424711053
 30
0.0
 10
197.4378413817583
 20
133.9935406832418
 30
0.0
 10
197.456068493748
 20
133.2470494506724
 30
0.0
 10
197.4698686068429
 20
132.6629971842373
 30
0.0
 10
197.4827870941425
 20
132.0883669153188
 30
0.0
 10
197.4999352331064
 20
131.3585054191419
 30
0.0
 10
197.5286235565455
 20
130.1611802112677
 30
0.0
 10
197.5606101079385
 20
128.9178881011369
 30
0.0
 10
197.5943236466398
 20
127.7383876199595
 30
0.0
 10
197.6163738770831
 20
127.0121983082351
 30
0.0
 10
197.643946615096
 20
126.1668694925688
 30
0.0
 10
197.668979871611
 20
125.4785620824044
 30
0.0
 10
197.6948531769895
 20
124.8729451016938
 30
0.0
 10
197.7180684755652
 20
124.4249730068849
 30
0.0
 10
197.7485041108067
 20
123.9639055106814
 30
0.0
 10
197.7713999870087
 20
123.7965908185686
 30
0.0
 10
197.7840383512685
 20
123.7042342733865
 30
0.0
  0
SPLINE
  5
197
330
1F
100
AcDbEntity
  8
0
  6
Continuous
 62
     7
370
    25
100
AcDbSpline
210
0.0
220
0.0
230
1.0
 70
     8
 71
     3
 72
     9
 73
     5
 74
     0
 42
0.00000001
 43
0.00000001
 40
0.0
 40
0.0
 40
0.0
 40
0.0
 40
0.97638139255599
 40
1.0
 40
1.0
 40
1.0
 40
1.0
 10
197.1340383512685
 20
124.7618746869104
 30
0.0
 10
197.1549785217669
 20
124.5197341143247
 30
0.0
 10
197.1764252337363
 20
124.2717361757817
 30
0.0
 10
197.1964705876247
 20
124.3918382921719
 30
0.0
 10
197.1969440309693
 20
124.3946749369121
 30
0.0
  0
SPLINE
  5
198
330
1F
100
AcDbEntity
  8
0
  6
Continuous
 62
     7
370
    25
100
AcDbSpline
210
0.0
220
0.0
230
1.0
 70
     8
 71
     3
 72
    13
 73
     9
 74
     0
 42
0.00000001
 43
0.00000001
 40
0.0
 40
0.0
 40
0.0
 40
0.0
 40
0.1633117204154818
 40
0.3537060974034394
 40
0.5422096495896767
 40
0.7300371885093454
 40
0.9206669352019227
 40
1.0
 40
1.0
 40
1.0
 40
1.0
 10
197.9118667745283
 20
141.6060180258445
 30
0.0
 10
197.9313946063339
 20
141.5285489084316
 30
0.0
 10
197.9736886508834
 20
141.3607636501555
 30
0.0
 10
198.043635564448
 20
140.1066081660997
 30
0.0
 10
198.1134889334584
 20
138.1834754165436
 30
0.0
 10
198.1820570043352
 20
135.7406321034322
 30
0.0
 10
198.2418331478913
 20
133.5489286924448
 30
0.0
 10
198.2744525864152
 20
132.2690947617343
 30
0.0
 10
198.2840383512685
 20
131.8929942625759
 30
0.0
  0
SPLINE
  5
199
330
1F
100
AcDbEntity
  8
0
  6
Continuous
 62
     7
370
    25
100
AcDbSpline
210
0.0
220
0.0
230
1.0
 70
    24
 71
     3
 72
    10
 73
     6
 74
     0
 42
0.00000001
 43
0.00000001
 40
0.0
 40
0.0
 40
0.0
 40
0.0
 40
0.3187287177375316
 40
0.8180873955881237
 40
1.0
 40
1.0
 40
1.0
 40
1.0
 10
198.2840383512685
 20
131.8929942625759
 30
0.0
 10
198.2840383512685
 20
131.2706905226439
 30
0.0
 10
198.2840383512685
 20
129.6734110258999
 30
0.0
 10
198.2840383512685
 20
127.8667603590184
 30
0.0
 10
198.2840383512685
 20
126.8617800502294
 30
0.0
 10
198.2840383512685
 20
126.5934308769789
 30
0.0
  0
SPLINE
  5
19A
330
1F
100
AcDbEntity
  8
0
  6
Continuous
 62
     7
370
    25
100
AcDbSpline
210
0.0
220
0.0
230
1.0
 70
     8
 71
     3
 72
    13
 73
     9
 74
     0
 42
0.00000001
 43
0.00000001
 40
0.0
 40
0.0
 40
0.0
 40
0.0
 40
0.2187316754180425
 40
0.393147377746412
 40
0.5714254113794046
 40
0.7494200729435005
 40
0.8738925945231121
 40
1.0
 40
1.0
 40
1.0
 40
1.0
 10
198.2840383512685
 20
126.5934308769789
 30
0.0
 10
198.246310544362
 20
127.0286744294021
 30
0.0
 10
198.1784987456132
 20
127.8109793287231
 30
0.0
 10
198.0796853170003
 20
129.205207263177
 30
0.0
 10
197.9906737807491
 20
130.6063020640815
 30
0.0
 10
197.915960853812
 20
131.9539104296685
 30
0.0
 10
197.8462927749065
 20
133.1794638393847
 30
0.0
 10
197.8048798905785
 20
133.8980237287389
 30
0.0
 10
197.7840383512851
 20
134.2596477598042
 30
0.0
  0
LINE
  5
19B
330
1F
100
AcDbEntity
  8
0
  6
Continuous
 62
     7
370
    25
100
AcDbLine
 10
197.7840383513
 20
123.7042342734
 30
0.0
 11
197.80296927
 21
123.6840502885
 31
0.0
  0
SPLINE
  5
19C
330
1F
100
AcDbEntity
  8
0
  6
Continuous
 62
     7
370
    25
100
AcDbSpline
210
0.0
220
0.0
230
1.0
 70
     8
 71
     3
 72
     9
 73
     5
 74
     0
 42
0.00000001
 43
0.00000001
 40
0.0
 40
0.0
 40
0.0
 40
0.0
 40
0.2575807037701688
 40
1.0
 40
1.0
 40
1.0
 40
1.0
 10
198.2502990902843
 20
141.9249798606988
 30
0.0
 10
198.2532927443915
 20
141.9308055318865
 30
0.0
 10
198.2649149430398
 20
141.9534224092474
 30
0.0
 10
198.2758901476132
 20
141.7855852281519
 30
0.0
 10
198.2840383512685
 20
141.6609796662817
 30
0.0
  0
SPLINE
  5
19D
330
1F
100
AcDbEntity
  8
0
  6
Continuous
 62
     7
370
    25
100
AcDbSpline
210
0.0
220
0.0
230
1.0
 70
    24
 71
     3
 72
    10
 73
     6
 74
     0
 42
0.00000001
 43
0.00000001
 40
0.0
 40
0.0
 40
0.0
 40
0.0
 40
0.3294562546722022
 40
0.8318642056942919
 40
1.0
 40
1.0
 40
1.0
 40
1.0
 10
198.2840383512685
 20
141.6609796662817
 30
0.0
 10
198.2840383512685
 20
141.4372192165957
 30
0.0
 10
198.2840383512685
 20
140.8722328000255
 30
0.0
 10
198.2840383512685
 20
139.5920812746676
 30
0.0
 10
198.2840383512685
 20
138.5415089087551
 30
0.0
 10
198.2840383512685
 20
138.2780826663226
 30
0.0
  0
SPLINE
  5
19E
330
1F
100
AcDbEntity
  8
0
  6
Continuous
 62
     7
370
    25
100
AcDbSpline
210
0.0
220
0.0
230
1.0
 70
     8
 71
     3
 72
    11
 73
     7
 74
     0
 42
0.00000001
 43
0.00000001
 40
0.0
 40
0.0
 40
0.0
 40
0.0
 40
0.1123950113901282
 40
0.4199943621869227
 40
0.7261447176194212
 40
1.0
 40
1.0
 40
1.0
 40
1.0
 10
197.1340383512685
 20
128.8473732575869
 30
0.0
 10
197.1427591566108
 20
128.5480979264611
 30
0.0
 10
197.1753468046942
 20
127.429774699657
 30
0.0
 10
197.2304159240846
 20
125.9778456533762
 30
0.0
 10
197.2963958217653
 20
124.6882565457667
 30
0.0
 10
197.3418208540872
 20
124.5190490642983
 30
0.0
 10
197.3632687232848
 20
124.4391561122347
 30
0.0
  0
SPLINE
  5
19F
330
1F
100
AcDbEntity
  8
0
  6
Continuous
 62
     7
370
    25
100
AcDbSpline
210
0.0
220
0.0
230
1.0
 70
     8
 71
     3
 72
    11
 73
     7
 74
     0
 42
0.00000001
 43
0.00000001
 40
0.0
 40
0.0
 40
0.0
 40
0.0
 40
0.0058314992650543
 40
0.3431453499632174
 40
0.6876241808559869
 40
1.0
 40
1.0
 40
1.0
 40
1.0
 10
198.0786360936837
 20
141.6515566131784
 30
0.0
 10
198.0790444265385
 20
141.653926294821
 30
0.0
 10
198.1030721274749
 20
141.7933664627086
 30
0.0
 10
198.1465307179011
 20
141.2936693088148
 30
0.0
 10
198.218133940826
 20
140.1904885403396
 30
0.0
 10
198.2627978467117
 20
138.8944369498778
 30
0.0
 10
198.2840383512685
 20
138.2780826663226
 30
0.0
  0
LINE
  5
1A0
330
1F
100
AcDbEntity
  8
0
  6
Continuous
 62
     7
370
    25
100
AcDbLine
 10
200.0340383513
 20
125.4097384197
 30
0.0
 11
199.7840383513
 21
126.0453164381
 31
0.0
  0
LINE
  5
1A1
330
1F
100
AcDbEntity
  8
0
  6
Continuous
 62
     7
370
    25
100
AcDbLine
 10
199.7840383513
 20
131.9927413753
 30
0.0
 11
200.0340383513
 21
132.6283193937
 31
0.0
  0
LINE
  5
1A2
330
1F
100
AcDbEntity
  8
0
  6
Continuous
 62
     7
370
    25
100
AcDbLine
 10
202.5840383513
 20
132.6283193937
 30
0.0
 11
200.0340383513
 21
132.6283193937
 31
0.0
  0
LINE
  5
1A3
330
1F
100
AcDbEntity
  8
0
  6
Continuous
 62
     7
370
    25
100
AcDbLine
 10
200.0340383513
 20
125.4097384197
 30
0.0
 11
202.5840383513
 21
125.4097384197
 31
0.0
  0
LINE
  5
1A4
330
1F
100
AcDbEntity
  8
0
  6
Continuous
 62
     7
370
    25
100
AcDbLine
 10
199.7840383513
 20
131.9927413753
 30
0.0
 11
199.7840383513
 21
126.0453164381
 31
0.0
  0
LINE
  5
1A5
330
1F
100
AcDbEntity
  8
0
  6
Continuous
 62
     7
370
    25
100
AcDbLine
 10
198.2840383513
 20
126.593430877
 30
0.0
 11
198.2840383513
 21
124.1224621855
 31
0.0
  0
SPLINE
  5
1A6
330
1F
100
AcDbEntity
  8
0
  6
Continuous
 62
     7
370
    25
100
AcDbSpline
210
0.0
220
0.0
230
1.0
 70
    24
 71
     3
 72
    11
 73
     7
 74
     0
 42
0.00000001
 43
0.00000001
 40
0.0
 40
0.0
 40
0.0
 40
0.0
 40
0.0521773337626343
 40
0.2615477432295206
 40
0.6847281688108012
 40
1.0
 40
1.0
 40
1.0
 40
1.0
 10
198.2840383512685
 20
138.2780826663226
 30
0.0
 10
198.2840383512685
 20
138.1838219557765
 30
0.0
 10
198.2840383512685
 20
137.7113241422491
 30
0.0
 10
198.2840383512684
 20
136.3731926868509
 30
0.0
 10
198.2840383512685
 20
134.2753443393303
 30
0.0
 10
198.2840383512685
 20
132.6057879434022
 30
0.0
 10
198.2840383512685
 20
131.8929942625759
 30
0.0
  0
LINE
  5
1A7
330
1F
100
AcDbEntity
  8
0
  6
Continuous
 62
     7
370
    25
100
AcDbLine
 10
200.0340383513
 20
135.2246215557
 30
0.0
 11
199.7840383513
 21
135.798189186
 31
0.0
  0
LINE
  5
1A8
330
1F
100
AcDbEntity
  8
0
  6
Continuous
 62
     7
370
    25
100
AcDbLine
 10
200.0340383513
 20
135.2246215557
 30
0.0
 11
200.0340383513
 21
132.6283193937
 31
0.0
  0
LINE
  5
1A9
330
1F
100
AcDbEntity
  8
0
  6
Continuous
 62
     7
370
    25
100
AcDbLine
 10
199.7840383513
 20
131.9927413753
 30
0.0
 11
199.7840383513
 21
135.798189186
 31
0.0
  0
LINE
  5
1AA
330
1F
100
AcDbEntity
  8
0
  6
Continuous
 62
     7
370
    25
100
AcDbLine
 10
200.0340383513
 20
135.2246215557
 30
0.0
 11
202.5840383513
 21
135.2246215557
 31
0.0
  0
LINE
  5
1AB
330
1F
100
AcDbEntity
  8
0
  6
Continuous
 62
     7
370
    25
100
AcDbLine
 10
199.7840383513
 20
141.1653515625
 30
0.0
 11
200.0340383513
 21
141.7389191928
 31
0.0
  0
LINE
  5
1AC
330
1F
100
AcDbEntity
  8
0
  6
Continuous
 62
     7
370
    25
100
AcDbLine
 10
202.5840383513
 20
141.7389191928
 30
0.0
 11
200.0340383513
 21
141.7389191928
 31
0.0
  0
LINE
  5
1AD
330
1F
100
AcDbEntity
  8
0
  6
Continuous
 62
     7
370
    25
100
AcDbLine
 10
199.7840383513
 20
141.1653515625
 30
0.0
 11
199.7840383513
 21
135.798189186
 31
0.0
  0
LINE
  5
1AE
330
1F
100
AcDbEntity
  8
0
  6
Continuous
 62
     7
370
    25
100
AcDbLine
 10
199.7840383513
 20
123.8498519983
 30
0.0
 11
200.0340383513
 21
123.9118623864
 31
0.0
  0
LINE
  5
1AF
330
1F
100
AcDbEntity
  8
0
  6
Continuous
 62
     7
370
    25
100
AcDbLine
 10
200.0340383513
 20
125.4097384197
 30
0.0
 11
200.0340383513
 21
123.9118623864
 31
0.0
  0
LINE
  5
1B0
330
1F
100
AcDbEntity
  8
0
  6
Continuous
 62
     7
370
    25
100
AcDbLine
 10
199.7840383513
 20
123.8498519983
 30
0.0
 11
199.7840383513
 21
126.0453164381
 31
0.0
  0
LINE
  5
1B1
330
1F
100
AcDbEntity
  8
0
  6
Continuous
 62
     7
370
    25
100
AcDbLine
 10
202.5840383513
 20
123.9118623864
 30
0.0
 11
200.0340383513
 21
123.9118623864
 31
0.0
  0
LINE
  5
1B2
330
1F
100
AcDbEntity
  8
0
  6
Continuous
 62
     7
370
    25
100
AcDbLine
 10
200.0340383513
 20
142.8373453216
 30
0.0
 11
199.7840383513
 21
142.7753349335
 31
0.0
  0
LINE
  5
1B3
330
1F
100
AcDbEntity
  8
0
  6
Continuous
 62
     7
370
    25
100
AcDbLine
 10
200.0340383513
 20
142.8373453216
 30
0.0
 11
200.0340383513
 21
141.7389191928
 31
0.0
  0
LINE
  5
1B4
330
1F
100
AcDbEntity
  8
0
  6
Continuous
 62
     7
370
    25
100
AcDbLine
 10
199.7840383513
 20
141.1653515625
 30
0.0
 11
199.7840383513
 21
142.7753349335
 31
0.0
  0
LINE
  5
1B5
330
1F
100
AcDbEntity
  8
0
  6
Continuous
 62
     7
370
    25
100
AcDbLine
 10
200.0340383513
 20
142.8373453216
 30
0.0
 11
202.5840383513
 21
142.8373453216
 31
0.0
  0
LINE
  5
1B6
330
1F
100
AcDbEntity
  8
0
  6
Continuous
 62
     7
370
    25
100
AcDbLine
 10
200.0340383513
 20
123.2075790495
 30
0.0
 11
199.7840383513
 21
123.2695894376
 31
0.0
  0
LINE
  5
1B7
330
1F
100
AcDbEntity
  8
0
  6
Continuous
 62
     7
370
    25
100
AcDbLine
 10
200.0340383513
 20
123.2075790495
 30
0.0
 11
202.5840383513
 21
123.2075790495
 31
0.0
  0
LINE
  5
1B8
330
1F
100
AcDbEntity
  8
0
  6
Continuous
 62
     7
370
    25
100
AcDbLine
 10
199.7840383513
 20
123.8498519983
 30
0.0
 11
199.7840383513
 21
123.2695894376
 31
0.0
  0
LINE
  5
1B9
330
1F
100
AcDbEntity
  8
0
  6
Continuous
 62
     7
370
    25
100
AcDbLine
 10
70.2340383513
 20
141.7389191928
 30
0.0
 11
70.2340383513
 21
142.8373453216
 31
0.0
  0
SPLINE
  5
1BA
330
1F
100
AcDbEntity
  8
0
  6
Continuous
 62
     7
370
    25
100
AcDbSpline
210
0.0
220
0.0
230
1.0
 70
     8
 71
     3
 72
    13
 73
     9
 74
     0
 42
0.00000001
 43
0.00000001
 40
0.0
 40
0.0
 40
0.0
 40
0.0
 40
0.0295448902054266
 40
0.2606471239688194
 40
0.4913152552054734
 40
0.7308682638478785
 40
0.9709134921287365
 40
1.0
 40
1.0
 40
1.0
 40
1.0
 10
70.23403835126848
 20
141.7389191928031
 30
0.0
 10
70.20611353345262
 20
141.6773738856959
 30
0.0
 10
69.95975880339756
 20
141.1344168064949
 30
0.0
 10
69.5976701195002
 20
140.0789706407375
 30
0.0
 10
69.38592254930607
 20
138.5206354206539
 30
0.0
 10
69.58076318415817
 20
136.9398248242249
 30
0.0
 10
69.9521083403797
 20
135.8458215452716
 30
0.0
 10
70.20654050482476
 20
135.285209862279
 30
0.0
 10
70.23403835126847
 20
135.2246215557373
 30
0.0
  0
LINE
  5
1BB
330
1F
100
AcDbEntity
  8
0
  6
Continuous
 62
     7
370
    25
100
AcDbLine
 10
70.2340383513
 20
132.6283193937
 30
0.0
 11
70.2340383513
 21
135.2246215557
 31
0.0
  0
SPLINE
  5
1BC
330
1F
100
AcDbEntity
  8
0
  6
Continuous
 62
     7
370
    25
100
AcDbSpline
210
0.0
220
0.0
230
1.0
 70
     8
 71
     3
 72
    11
 73
     7
 74
     0
 42
0.00000001
 43
0.00000001
 40
0.0
 40
0.0
 40
0.0
 40
0.0
 40
0.2431641197380918
 40
0.4936284730588935
 40
0.7421706076863281
 40
1.0
 40
1.0
 40
1.0
 40
1.0
 10
70.23403835126847
 20
132.6283193936526
 30
0.0
 10
70.02389802805969
 20
132.0592431732954
 30
0.0
 10
69.59730858309808
 20
130.904006019016
 30
0.0
 10
69.38692415295509
 20
129.0714264516935
 30
0.0
 10
69.57761084662211
 20
127.2001813570522
 30
0.0
 10
70.0125700170168
 20
126.0138057570869
 30
0.0
 10
70.23403835126848
 20
125.4097384197257
 30
0.0
  0
LINE
  5
1BD
330
1F
100
AcDbEntity
  8
0
  6
Continuous
 62
     7
370
    25
100
AcDbLine
 10
70.2340383513
 20
123.9118623864
 30
0.0
 11
70.2340383513
 21
125.4097384197
 31
0.0
  0
SPLINE
  5
1BE
330
1F
100
AcDbEntity
  8
0
  6
Continuous
 62
     7
370
    25
100
AcDbSpline
210
0.0
220
0.0
230
1.0
 70
     8
 71
     3
 72
    11
 73
     7
 74
     0
 42
0.00000001
 43
0.00000001
 40
0.0
 40
0.0
 40
0.0
 40
0.0
 40
0.2431641197380915
 40
0.493628473058893
 40
0.7421706076863287
 40
1.0
 40
1.0
 40
1.0
 40
1.0
 10
70.23403835126845
 20
123.9118623863981
 30
0.0
 10
70.02389802805969
 20
123.8563402691219
 30
0.0
 10
69.59730858309808
 20
123.7436291586113
 30
0.0
 10
69.38692415295512
 20
123.5648329024774
 30
0.0
 10
69.57761084662211
 20
123.3822642308646
 30
0.0
 10
70.0125700170168
 20
123.266515087185
 30
0.0
 10
70.23403835126848
 20
123.2075790495368
 30
0.0
  0
SPLINE
  5
1BF
330
1F
100
AcDbEntity
  8
0
  6
Continuous
 62
     7
370
    25
100
AcDbSpline
210
0.0
220
0.0
230
1.0
 70
     8
 71
     3
 72
     9
 73
     5
 74
     0
 42
0.00000001
 43
0.00000001
 40
0.0
 40
0.0
 40
0.0
 40
0.0
 40
0.3487394647221058
 40
1.0
 40
1.0
 40
1.0
 40
1.0
 10
69.54064986668669
 20
142.5598425099059
 30
0.0
 10
69.56499170120124
 20
142.5930558640062
 30
0.0
 10
69.63479118470386
 20
142.6882941649731
 30
0.0
 10
69.9976940421041
 20
142.7785592402914
 30
0.0
 10
70.23403835126847
 20
142.8373453215602
 30
0.0
  0
LINE
  5
1C0
330
1F
100
AcDbEntity
  8
0
  6
Continuous
 62
     7
370
    25
100
AcDbLine
 10
68.2340383513
 20
137.7634403494
 30
0.0
 11
68.2340383513
 21
141.2724621855
 31
0.0
  0
LINE
  5
1C1
330
1F
100
AcDbEntity
  8
0
  6
Continuous
 62
     7
370
    25
100
AcDbLine
 10
68.2340383513
 20
124.7724621855
 30
0.0
 11
68.2340383513
 21
137.7634403494
 31
0.0
  0
SPLINE
  5
1C2
330
1F
100
AcDbEntity
  8
0
  6
Continuous
 62
     7
370
    25
100
AcDbSpline
210
0.0
220
0.0
230
1.0
 70
     8
 71
     3
 72
    27
 73
    23
 74
     0
 42
0.00000001
 43
0.00000001
 40
0.0
 40
0.0
 40
0.0
 40
0.0
 40
0.0136139090399478
 40
0.0776727084403656
 40
0.1348261364597263
 40
0.1770440798320018
 40
0.204309819173203
 40
0.230399987517652
 40
0.2595714286585745
 40
0.286552838249025
 40
0.3220521810161566
 40
0.3830134828479145
 40
0.481257450436484
 40
0.5465783976780292
 40
0.6342111976224554
 40
0.6907401776532384
 40
0.7424867965677214
 40
0.7860227414525577
 40
0.8208210581933937
 40
0.8874577604484439
 40
0.9380042021573735
 40
1.0
 40
1.0
 40
1.0
 40
1.0
 10
75.63349985187102
 20
123.6346063694104
 30
0.0
 10
75.6307970632527
 20
123.63145782831
 30
0.0
 10
75.61537659057939
 20
123.6134941623134
 30
0.0
 10
75.58763204751057
 20
123.7785648200502
 30
0.0
 10
75.55455509625614
 20
124.1515785875344
 30
0.0
 10
75.52901485144537
 20
124.579865069089
 30
0.0
 10
75.5100173832148
 20
124.9672138283197
 30
0.0
 10
75.49418595763619
 20
125.343753739423
 30
0.0
 10
75.47822792923546
 20
125.7602123526642
 30
0.0
 10
75.4607488355117
 20
126.2682855790463
 30
0.0
 10
75.4357521771937
 20
127.0145985006817
 30
0.0
 10
75.39599789891041
 20
128.328517943582
 30
0.0
 10
75.34999137589365
 20
130.0595565359039
 30
0.0
 10
75.30224523476551
 20
132.1191008368024
 30
0.0
 10
75.26013542726048
 20
133.883152532531
 30
0.0
 10
75.220094655683
 20
135.4907363552131
 30
0.0
 10
75.18931480937313
 20
136.68851236094
 30
0.0
 10
75.16334454180199
 20
137.6598281701155
 30
0.0
 10
75.13575130241155
 20
138.6795174435159
 30
0.0
 10
75.10570344569439
 20
139.6478542594505
 30
0.0
 10
75.06955631900591
 20
140.635506696674
 30
0.0
 10
75.04665431040559
 20
141.1072486250786
 30
0.0
 10
75.03403835126849
 20
141.3671156522837
 30
0.0
  0
LINE
  5
1C3
330
1F
100
AcDbEntity
  8
0
  6
Continuous
 62
     7
370
    25
100
AcDbLine
 10
75.0340383513
 20
142.4224621855
 30
0.0
 11
75.0340383513
 21
141.3671156524
 31
0.0
  0
SPLINE
  5
1C4
330
1F
100
AcDbEntity
  8
0
  6
Continuous
 62
     7
370
    25
100
AcDbSpline
210
0.0
220
0.0
230
1.0
 70
     8
 71
     3
 72
    35
 73
    31
 74
     0
 42
0.00000001
 43
0.00000001
 40
0.0
 40
0.0
 40
0.0
 40
0.0
 40
0.0240674770331327
 40
0.067987792976814
 40
0.1125749483174375
 40
0.1439040808921704
 40
0.1776893127437586
 40
0.2210914069396794
 40
0.2567988075823096
 40
0.2935583688291123
 40
0.3694549076630427
 40
0.3999481985346628
 40
0.4395535899128755
 40
0.4786156453284776
 40
0.5166906085772273
 40
0.5503864380236244
 40
0.5896044216402686
 40
0.6181546416382511
 40
0.6457847797213725
 40
0.6951196932308986
 40
0.7446823840802009
 40
0.7762169429139685
 40
0.820582877931581
 40
0.8620435694165106
 40
0.8879065094688615
 40
0.8964752009135439
 40
0.9214211820786606
 40
0.9463673263778021
 40
0.9713136358219022
 40
1.0
 40
1.0
 40
1.0
 40
1.0
 10
75.98625406029328
 20
123.631244953362
 30
0.0
 10
75.98056779676385
 20
123.6331349050835
 30
0.0
 10
75.96450477083391
 20
123.638473796493
 30
0.0
 10
75.93731322521798
 20
123.8108702863826
 30
0.0
 10
75.9084607494513
 20
124.1381186725708
 30
0.0
 10
75.88230318128267
 20
124.5624774430275
 30
0.0
 10
75.85734605635982
 20
125.0796535825421
 30
0.0
 10
75.83212391384022
 20
125.7327127486782
 30
0.0
 10
75.8051442285277
 20
126.5117405912096
 30
0.0
 10
75.76888473458126
 20
127.6233615000112
 30
0.0
 10
75.73457136155231
 20
128.8528550981488
 30
0.0
 10
75.7001822856972
 20
130.1970827176402
 30
0.0
 10
75.67530767227635
 20
131.2398375995564
 30
0.0
 10
75.64887908328349
 20
132.3814452716036
 30
0.0
 10
75.6227493997807
 20
133.4742391366355
 30
0.0
 10
75.5961185124219
 20
134.5617237014544
 30
0.0
 10
75.5717587360086
 20
135.538305381857
 30
0.0
 10
75.54891777983971
 20
136.4282137663103
 30
0.0
 10
75.52353730734781
 20
137.3791846381526
 30
0.0
 10
75.4949679221398
 20
138.4541105371593
 30
0.0
 10
75.46530598398583
 20
139.4470128727455
 30
0.0
 10
75.43540877926873
 20
140.2916220813337
 30
0.0
 10
75.40713425180576
 20
140.977226889633
 30
0.0
 10
75.38023521814044
 20
141.5039096561456
 30
0.0
 10
75.36200837469082
 20
141.790020360472
 30
0.0
 10
75.34820777757942
 20
141.9839761657897
 30
0.0
 10
75.3352937402354
 20
142.1477487544082
 30
0.0
 10
75.31812650665336
 20
142.2942944117089
 30
0.0
 10
75.30010549206324
 20
142.4154677214267
 30
0.0
 10
75.28731658685957
 20
142.3800768306933
 30
0.0
 10
75.2804762194616
 20
142.3611473999638
 30
0.0
  0
SPLINE
  5
1C5
330
1F
100
AcDbEntity
  8
0
  6
Continuous
 62
     7
370
    25
100
AcDbSpline
210
0.0
220
0.0
230
1.0
 70
     8
 71
     3
 72
    18
 73
    14
 74
     0
 42
0.00000001
 43
0.00000001
 40
0.0
 40
0.0
 40
0.0
 40
0.0
 40
0.0774554087960547
 40
0.1860661841307256
 40
0.2602328912561668
 40
0.3356194784643637
 40
0.4114978088796587
 40
0.5187351849825095
 40
0.6282504212506469
 40
0.7366780512135036
 40
0.8447168369584799
 40
0.9543674583636134
 40
0.9999999999999999
 40
0.9999999999999999
 40
0.9999999999999999
 40
0.9999999999999999
 10
75.18219688571342
 20
124.4831709965674
 30
0.0
 10
75.16519879508405
 20
124.517933655806
 30
0.0
 10
75.12436536705006
 20
124.6014417729963
 30
0.0
 10
75.06754343078698
 20
125.5792049601412
 30
0.0
 10
75.01450516158043
 20
126.9285034104697
 30
0.0
 10
74.96434455197134
 20
128.4073415002996
 30
0.0
 10
74.90708236965088
 20
130.3443919682682
 30
0.0
 10
74.84762370911638
 20
132.7621964570066
 30
0.0
 10
74.77437354876056
 20
135.4729633830719
 30
0.0
 10
74.70460575244626
 20
137.9532306060449
 30
0.0
 10
74.63601469395783
 20
139.9458352754934
 30
0.0
 10
74.57624400674017
 20
141.0396384994678
 30
0.0
 10
74.54362421880278
 20
141.3640446946048
 30
0.0
 10
74.53403835126848
 20
141.4593768537181
 30
0.0
  0
SPLINE
  5
1C6
330
1F
100
AcDbEntity
  8
0
  6
Continuous
 62
     7
370
    25
100
AcDbSpline
210
0.0
220
0.0
230
1.0
 70
     8
 71
     3
 72
    11
 73
     7
 74
     0
 42
0.00000001
 43
0.00000001
 40
0.0
 40
0.0
 40
0.0
 40
0.0
 40
0.170158758569659
 40
0.5148066094740512
 40
0.7558205066443097
 40
0.9999999999999999
 40
0.9999999999999999
 40
0.9999999999999999
 40
0.9999999999999999
 10
74.78244295635147
 20
142.1388093966178
 30
0.0
 10
74.79721612091633
 20
142.1600676088721
 30
0.0
 10
74.84191157370853
 20
142.2243832413209
 30
0.0
 10
74.90201034022745
 20
142.0659173545995
 30
0.0
 10
74.9718066445917
 20
141.7768064429797
 30
0.0
 10
75.0132044171439
 20
141.5042719573404
 30
0.0
 10
75.03403835125188
 20
141.3671156524013
 30
0.0
  0
SPLINE
  5
1C7
330
1F
100
AcDbEntity
  8
0
  6
Continuous
 62
     7
370
    25
100
AcDbSpline
210
0.0
220
0.0
230
1.0
 70
     8
 71
     3
 72
    16
 73
    12
 74
     0
 42
0.00000001
 43
0.00000001
 40
0.0
 40
0.0
 40
0.0
 40
0.0
 40
0.07921406387135
 40
0.1934397168971926
 40
0.3076653699220779
 40
0.4218677295428687
 40
0.5346865681724862
 40
0.6475054053740946
 40
0.7603242420221167
 40
0.8782804502979503
 40
1.0
 40
1.0
 40
1.0
 40
1.0
 10
74.74304141231474
 20
123.9400078753402
 30
0.0
 10
74.73757168689664
 20
123.9465648742167
 30
0.0
 10
74.72421468834523
 20
123.9625769804561
 30
0.0
 10
74.70227999848592
 20
124.2761595107866
 30
0.0
 10
74.67803884088647
 20
124.8312706687463
 30
0.0
 10
74.65515869347772
 20
125.6170579079739
 30
0.0
 10
74.63225857169722
 20
126.5988023958576
 30
0.0
 10
74.6081008745467
 20
127.7511794167014
 30
0.0
 10
74.58338357124732
 20
129.0653201190019
 30
0.0
 10
74.55835724008045
 20
130.5252538551766
 30
0.0
 10
74.54222906136498
 20
131.572125301349
 30
0.0
 10
74.53403835126848
 20
132.1037799088033
 30
0.0
  0
SPLINE
  5
1C8
330
1F
100
AcDbEntity
  8
0
  6
Continuous
 62
     7
370
    25
100
AcDbSpline
210
0.0
220
0.0
230
1.0
 70
    24
 71
     3
 72
    10
 73
     6
 74
     0
 42
0.00000001
 43
0.00000001
 40
0.0
 40
0.0
 40
0.0
 40
0.0
 40
0.3294562546722015
 40
0.8318642056942915
 40
1.0
 40
1.0
 40
1.0
 40
1.0
 10
74.53403835126848
 20
132.1037799088033
 30
0.0
 10
74.53403835126848
 20
132.7525077864113
 30
0.0
 10
74.53403835126848
 20
134.3905203995126
 30
0.0
 10
74.53403835126846
 20
136.3043839357849
 30
0.0
 10
74.53403835126848
 20
137.4073484057399
 30
0.0
 10
74.53403835126848
 20
137.6839117299659
 30
0.0
  0
SPLINE
  5
1C9
330
1F
100
AcDbEntity
  8
0
  6
Continuous
 62
     7
370
    25
100
AcDbSpline
210
0.0
220
0.0
230
1.0
 70
     8
 71
     3
 72
    15
 73
    11
 74
     0
 42
0.00000001
 43
0.00000001
 40
0.0
 40
0.0
 40
0.0
 40
0.0
 40
0.1319746667032352
 40
0.1608073069995043
 40
0.3024203969717293
 40
0.4436898895822913
 40
0.5869603891290428
 40
0.7271016041552255
 40
0.8702195989016371
 40
1.0
 40
1.0
 40
1.0
 40
1.0
 10
75.03067522885584
 20
124.4077972164833
 30
0.0
 10
75.0087156789522
 20
124.416983099359
 30
0.0
 10
74.9819586037412
 20
124.4281758314533
 30
0.0
 10
74.93078588398114
 20
124.9251233878819
 30
0.0
 10
74.87993425264638
 20
125.7847260029392
 30
0.0
 10
74.81115096037338
 20
127.6687724005883
 30
0.0
 10
74.73741440641837
 20
130.0689064009845
 30
0.0
 10
74.6712790684759
 20
132.7562314759912
 30
0.0
 10
74.60000281178897
 20
135.4170622695979
 30
0.0
 10
74.55529820952167
 20
136.9533228973046
 30
0.0
 10
74.53403835126848
 20
137.6839117299659
 30
0.0
  0
LINE
  5
1CA
330
1F
100
AcDbEntity
  8
0
  6
Continuous
 62
     7
370
    25
100
AcDbLine
 10
72.7840383513
 20
132.6283193937
 30
0.0
 11
73.0340383513
 21
131.9927413753
 31
0.0
  0
LINE
  5
1CB
330
1F
100
AcDbEntity
  8
0
  6
Continuous
 62
     7
370
    25
100
AcDbLine
 10
73.0340383513
 20
126.0453164381
 30
0.0
 11
72.7840383513
 21
125.4097384197
 31
0.0
  0
LINE
  5
1CC
330
1F
100
AcDbEntity
  8
0
  6
Continuous
 62
     7
370
    25
100
AcDbLine
 10
70.2340383513
 20
125.4097384197
 30
0.0
 11
72.7840383513
 21
125.4097384197
 31
0.0
  0
LINE
  5
1CD
330
1F
100
AcDbEntity
  8
0
  6
Continuous
 62
     7
370
    25
100
AcDbLine
 10
72.7840383513
 20
132.6283193937
 30
0.0
 11
70.2340383513
 21
132.6283193937
 31
0.0
  0
LINE
  5
1CE
330
1F
100
AcDbEntity
  8
0
  6
Continuous
 62
     7
370
    25
100
AcDbLine
 10
73.0340383513
 20
126.0453164381
 30
0.0
 11
73.0340383513
 21
131.9927413753
 31
0.0
  0
LINE
  5
1CF
330
1F
100
AcDbEntity
  8
0
  6
Continuous
 62
     7
370
    25
100
AcDbLine
 10
74.5340383513
 20
124.1224621855
 30
0.0
 11
74.5340383513
 21
132.1037799088
 31
0.0
  0
SPLINE
  5
1D0
330
1F
100
AcDbEntity
  8
0
  6
Continuous
 62
     7
370
    25
100
AcDbSpline
210
0.0
220
0.0
230
1.0
 70
    24
 71
     3
 72
    11
 73
     7
 74
     0
 42
0.00000001
 43
0.00000001
 40
0.0
 40
0.0
 40
0.0
 40
0.0
 40
0.0521773337626345
 40
0.2615477432295213
 40
0.6847281688108021
 40
0.9999999999999999
 40
0.9999999999999999
 40
0.9999999999999999
 40
0.9999999999999999
 10
74.53403835126848
 20
137.6839117299659
 30
0.0
 10
74.53403835126846
 20
137.7821342636511
 30
0.0
 10
74.53403835126844
 20
138.2744913882316
 30
0.0
 10
74.5340383512685
 20
139.4593810346906
 30
0.0
 10
74.53403835126846
 20
140.7824872991064
 30
0.0
 10
74.53403835126848
 20
141.2568530509184
 30
0.0
 10
74.53403835126848
 20
141.4593768537181
 30
0.0
  0
LINE
  5
1D1
330
1F
100
AcDbEntity
  8
0
  6
Continuous
 62
     7
370
    25
100
AcDbLine
 10
72.7840383513
 20
132.6283193937
 30
0.0
 11
72.7840383513
 21
135.2246215557
 31
0.0
  0
LINE
  5
1D2
330
1F
100
AcDbEntity
  8
0
  6
Continuous
 62
     7
370
    25
100
AcDbLine
 10
73.0340383513
 20
135.798189186
 30
0.0
 11
72.7840383513
 21
135.2246215557
 31
0.0
  0
LINE
  5
1D3
330
1F
100
AcDbEntity
  8
0
  6
Continuous
 62
     7
370
    25
100
AcDbLine
 10
73.0340383513
 20
135.798189186
 30
0.0
 11
73.0340383513
 21
131.9927413753
 31
0.0
  0
LINE
  5
1D4
330
1F
100
AcDbEntity
  8
0
  6
Continuous
 62
     7
370
    25
100
AcDbLine
 10
70.2340383513
 20
135.2246215557
 30
0.0
 11
72.7840383513
 21
135.2246215557
 31
0.0
  0
LINE
  5
1D5
330
1F
100
AcDbEntity
  8
0
  6
Continuous
 62
     7
370
    25
100
AcDbLine
 10
72.7840383513
 20
141.7389191928
 30
0.0
 11
73.0340383513
 21
141.1653515625
 31
0.0
  0
LINE
  5
1D6
330
1F
100
AcDbEntity
  8
0
  6
Continuous
 62
     7
370
    25
100
AcDbLine
 10
72.7840383513
 20
141.7389191928
 30
0.0
 11
70.2340383513
 21
141.7389191928
 31
0.0
  0
LINE
  5
1D7
330
1F
100
AcDbEntity
  8
0
  6
Continuous
 62
     7
370
    25
100
AcDbLine
 10
73.0340383513
 20
135.798189186
 30
0.0
 11
73.0340383513
 21
141.1653515625
 31
0.0
  0
LINE
  5
1D8
330
1F
100
AcDbEntity
  8
0
  6
Continuous
 62
     7
370
    25
100
AcDbLine
 10
72.7840383513
 20
123.9118623864
 30
0.0
 11
73.0340383513
 21
123.8498519983
 31
0.0
  0
LINE
  5
1D9
330
1F
100
AcDbEntity
  8
0
  6
Continuous
 62
     7
370
    25
100
AcDbLine
 10
72.7840383513
 20
123.9118623864
 30
0.0
 11
72.7840383513
 21
125.4097384197
 31
0.0
  0
LINE
  5
1DA
330
1F
100
AcDbEntity
  8
0
  6
Continuous
 62
     7
370
    25
100
AcDbLine
 10
73.0340383513
 20
126.0453164381
 30
0.0
 11
73.0340383513
 21
123.8498519983
 31
0.0
  0
LINE
  5
1DB
330
1F
100
AcDbEntity
  8
0
  6
Continuous
 62
     7
370
    25
100
AcDbLine
 10
72.7840383513
 20
123.9118623864
 30
0.0
 11
70.2340383513
 21
123.9118623864
 31
0.0
  0
LINE
  5
1DC
330
1F
100
AcDbEntity
  8
0
  6
Continuous
 62
     7
370
    25
100
AcDbLine
 10
72.7840383513
 20
141.7389191928
 30
0.0
 11
72.7840383513
 21
142.8373453216
 31
0.0
  0
LINE
  5
1DD
330
1F
100
AcDbEntity
  8
0
  6
Continuous
 62
     7
370
    25
100
AcDbLine
 10
73.0340383513
 20
142.7753349335
 30
0.0
 11
72.7840383513
 21
142.8373453216
 31
0.0
  0
LINE
  5
1DE
330
1F
100
AcDbEntity
  8
0
  6
Continuous
 62
     7
370
    25
100
AcDbLine
 10
73.0340383513
 20
142.7753349335
 30
0.0
 11
73.0340383513
 21
141.1653515625
 31
0.0
  0
LINE
  5
1DF
330
1F
100
AcDbEntity
  8
0
  6
Continuous
 62
     7
370
    25
100
AcDbLine
 10
70.2340383513
 20
142.8373453216
 30
0.0
 11
72.7840383513
 21
142.8373453216
 31
0.0
  0
LINE
  5
1E0
330
1F
100
AcDbEntity
  8
0
  6
Continuous
 62
     7
370
    25
100
AcDbLine
 10
73.0340383513
 20
123.2695894376
 30
0.0
 11
72.7840383513
 21
123.2075790495
 31
0.0
  0
LINE
  5
1E1
330
1F
100
AcDbEntity
  8
0
  6
Continuous
 62
     7
370
    25
100
AcDbLine
 10
70.2340383513
 20
123.2075790495
 30
0.0
 11
72.7840383513
 21
123.2075790495
 31
0.0
  0
LINE
  5
1E2
330
1F
100
AcDbEntity
  8
0
  6
Continuous
 62
     7
370
    25
100
AcDbLine
 10
73.0340383513
 20
123.2695894376
 30
0.0
 11
73.0340383513
 21
123.8498519983
 31
0.0
  0
SPLINE
  5
1E3
330
1F
100
AcDbEntity
  8
0
  6
Continuous
 62
     7
370
    25
100
AcDbSpline
210
0.0
220
0.0
230
1.0
 70
     8
 71
     3
 72
     9
 73
     5
 74
     0
 42
0.00000001
 43
0.00000001
 40
0.0
 40
0.0
 40
0.0
 40
0.0
 40
0.5841917497409228
 40
1.0
 40
1.0
 40
1.0
 40
1.0
 10
91.38403835126847
 20
148.7541980665475
 30
0.0
 10
91.41020631508911
 20
148.5003560978714
 30
0.0
 10
91.45499976489776
 20
148.0658378617124
 30
0.0
 10
91.69761418241174
 20
147.4426511537672
 30
0.0
 10
91.79849525884585
 20
147.1835249791518
 30
0.0
  0
LINE
  5
1E4
330
1F
100
AcDbEntity
  8
0
  6
Continuous
 62
     7
370
    25
100
AcDbLine
 10
91.3840383513
 20
148.7541980665
 30
0.0
 11
91.3840383513
 21
149.3667881498
 31
0.0
  0
SPLINE
  5
1E5
330
1F
100
AcDbEntity
  8
0
  6
Continuous
 62
     7
370
    25
100
AcDbSpline
210
0.0
220
0.0
230
1.0
 70
     8
 71
     3
 72
     9
 73
     5
 74
     0
 42
0.00000001
 43
0.00000001
 40
0.0
 40
0.0
 40
0.0
 40
0.0
 40
0.5850553834536181
 40
1.0
 40
1.0
 40
1.0
 40
1.0
 10
91.79849525884585
 20
149.7301371630826
 30
0.0
 10
91.66194112482151
 20
149.7396744939622
 30
0.0
 10
91.42853735162957
 20
149.7559760803579
 30
0.0
 10
91.3970880639043
 20
149.4809208407609
 30
0.0
 10
91.38403835126846
 20
149.3667881498372
 30
0.0
  0
SPLINE
  5
1E6
330
1F
100
AcDbEntity
  8
0
  6
Continuous
 62
     7
370
    25
100
AcDbSpline
210
0.0
220
0.0
230
1.0
 70
     8
 71
     3
 72
     9
 73
     5
 74
     0
 42
0.00000001
 43
0.00000001
 40
0.0
 40
0.0
 40
0.0
 40
0.0
 40
0.2910559175694166
 40
1.0
 40
1.0
 40
1.0
 40
1.0
 10
92.69792170661621
 20
149.3364919433991
 30
0.0
 10
92.67663276461752
 20
149.3756389076772
 30
0.0
 10
92.60348894340108
 20
149.5101387130927
 30
0.0
 10
92.13244153299644
 20
149.6388722698262
 30
0.0
 10
91.79849525884585
 20
149.7301371630826
 30
0.0
  0
LINE
  5
1E7
330
1F
100
AcDbEntity
  8
0
  6
Continuous
 62
     7
370
    25
100
AcDbLine
 10
91.7984952588
 20
116.314787208
 30
0.0
 11
91.6906849867
 21
116.3373020064
 31
0.0
  0
SPLINE
  5
1E8
330
1F
100
AcDbEntity
  8
0
  6
Continuous
 62
     7
370
    25
100
AcDbSpline
210
0.0
220
0.0
230
1.0
 70
     8
 71
     3
 72
    11
 73
     7
 74
     0
 42
0.00000001
 43
0.00000001
 40
0.0
 40
0.0
 40
0.0
 40
0.0
 40
0.2328716322111456
 40
0.4710265024313186
 40
0.7311421212560271
 40
1.0
 40
1.0
 40
1.0
 40
1.0
 10
91.79849525884585
 20
117.3576005634632
 30
0.0
 10
92.06889199351862
 20
117.2785131089458
 30
0.0
 10
92.61582004564941
 20
117.1185439159022
 30
0.0
 10
92.91704436363304
 20
116.8595065841147
 30
0.0
 10
92.70939259822333
 20
116.5863633964712
 30
0.0
 10
92.10545476644307
 20
116.4063045387608
 30
0.0
 10
91.79849525884585
 20
116.3147872080144
 30
0.0
  0
SPLINE
  5
1E9
330
1F
100
AcDbEntity
  8
0
  6
Continuous
 62
     7
370
    25
100
AcDbSpline
210
0.0
220
0.0
230
1.0
 70
     8
 71
     3
 72
     9
 73
     5
 74
     0
 42
0.00000001
 43
0.00000001
 40
0.0
 40
0.0
 40
0.0
 40
0.0
 40
0.5841917497409185
 40
1.0
 40
1.0
 40
1.0
 40
1.0
 10
91.38403835126846
 20
118.1315060158617
 30
0.0
 10
91.41020631508911
 20
117.9018577396479
 30
0.0
 10
91.45499976489776
 20
117.5087534612742
 30
0.0
 10
91.69761418241174
 20
117.4019926073356
 30
0.0
 10
91.79849525884583
 20
117.3576005634632
 30
0.0
  0
LINE
  5
1EA
330
1F
100
AcDbEntity
  8
0
  6
Continuous
 62
     7
370
    25
100
AcDbLine
 10
91.3840383513
 20
118.1315060159
 30
0.0
 11
91.3840383513
 21
118.9668685223
 31
0.0
  0
SPLINE
  5
1EB
330
1F
100
AcDbEntity
  8
0
  6
Continuous
 62
     7
370
    25
100
AcDbSpline
210
0.0
220
0.0
230
1.0
 70
     8
 71
     3
 72
     9
 73
     5
 74
     0
 42
0.00000001
 43
0.00000001
 40
0.0
 40
0.0
 40
0.0
 40
0.0
 40
0.5850553834536176
 40
1.0
 40
1.0
 40
1.0
 40
1.0
 10
91.79849525884585
 20
120.8303050600379
 30
0.0
 10
91.66194112482151
 20
120.4222899457233
 30
0.0
 10
91.42853735162959
 20
119.7248942360965
 30
0.0
 10
91.39708806390429
 20
119.1891660493036
 30
0.0
 10
91.38403835126846
 20
118.9668685222617
 30
0.0
  0
SPLINE
  5
1EC
330
1F
100
AcDbEntity
  8
0
  6
Continuous
 62
     7
370
    25
100
AcDbSpline
210
0.0
220
0.0
230
1.0
 70
     8
 71
     3
 72
    11
 73
     7
 74
     0
 42
0.00000001
 43
0.00000001
 40
0.0
 40
0.0
 40
0.0
 40
0.0
 40
0.2556279644380999
 40
0.5185037642963934
 40
0.7560467972580139
 40
1.0
 40
1.0
 40
1.0
 40
1.0
 10
91.79849525884585
 20
131.5186633570666
 30
0.0
 10
92.09212121894781
 20
130.6275870642538
 30
0.0
 10
92.68769833408338
 20
128.8201697376155
 30
0.0
 10
92.91958729571004
 20
126.0629074053416
 30
0.0
 10
92.63661683724922
 20
123.3573278360688
 30
0.0
 10
92.08033770368496
 20
121.6800890242182
 30
0.0
 10
91.79849525884585
 20
120.8303050600379
 30
0.0
  0
SPLINE
  5
1ED
330
1F
100
AcDbEntity
  8
0
  6
Continuous
 62
     7
370
    25
100
AcDbSpline
210
0.0
220
0.0
230
1.0
 70
     8
 71
     3
 72
     9
 73
     5
 74
     0
 42
0.00000001
 43
0.00000001
 40
0.0
 40
0.0
 40
0.0
 40
0.0
 40
0.5841917497409215
 40
1.0
 40
1.0
 40
1.0
 40
1.0
 10
91.38403835126846
 20
133.8632418968607
 30
0.0
 10
91.41020631508911
 20
133.3797516519708
 30
0.0
 10
91.45499976489776
 20
132.5521291374381
 30
0.0
 10
91.69761418241174
 20
131.8221815755543
 30
0.0
 10
91.79849525884583
 20
131.5186633570666
 30
0.0
  0
LINE
  5
1EE
330
1F
100
AcDbEntity
  8
0
  6
Continuous
 62
     7
370
    25
100
AcDbLine
 10
91.3840383513
 20
133.8632418969
 30
0.0
 11
91.3840383513
 21
135.3111944866
 31
0.0
  0
SPLINE
  5
1EF
330
1F
100
AcDbEntity
  8
0
  6
Continuous
 62
     7
370
    25
100
AcDbSpline
210
0.0
220
0.0
230
1.0
 70
     8
 71
     3
 72
     9
 73
     5
 74
     0
 42
0.00000001
 43
0.00000001
 40
0.0
 40
0.0
 40
0.0
 40
0.0
 40
0.5850553834536164
 40
1.0
 40
1.0
 40
1.0
 40
1.0
 10
91.79849525884585
 20
137.537980037572
 30
0.0
 10
91.66194112482151
 20
137.139502254137
 30
0.0
 10
91.42853735162959
 20
136.4584081309059
 30
0.0
 10
91.39708806390429
 20
135.647624704516
 30
0.0
 10
91.38403835126846
 20
135.3111944865504
 30
0.0
  0
SPLINE
  5
1F0
330
1F
100
AcDbEntity
  8
0
  6
Continuous
 62
     7
370
    25
100
AcDbSpline
210
0.0
220
0.0
230
1.0
 70
     8
 71
     3
 72
    11
 73
     7
 74
     0
 42
0.00000001
 43
0.00000001
 40
0.0
 40
0.0
 40
0.0
 40
0.0
 40
0.2328716322111445
 40
0.4710265024313167
 40
0.7311421212560263
 40
1.0
 40
1.0
 40
1.0
 40
1.0
 10
91.79849525884585
 20
147.1835249791518
 30
0.0
 10
92.06889199351862
 20
146.4520023218351
 30
0.0
 10
92.61582004564944
 20
144.9723607036032
 30
0.0
 10
92.91704436363301
 20
142.5763842690401
 30
0.0
 10
92.70939259822335
 20
140.0499351416528
 30
0.0
 10
92.10545476644307
 20
138.3844733453491
 30
0.0
 10
91.79849525884585
 20
137.537980037572
 30
0.0
  0
LINE
  5
1F1
330
1F
100
AcDbEntity
  8
0
  6
Continuous
 62
     7
370
    25
100
AcDbLine
 10
92.8840383513
 20
149.2224621855
 30
0.0
 11
92.8840383513
 21
116.8224621855
 31
0.0
  0
SPLINE
  5
1F2
330
1F
100
AcDbEntity
  8
0
  6
Continuous
 62
     7
370
    25
100
AcDbSpline
210
0.0
220
0.0
230
1.0
 70
     8
 71
     3
 72
     9
 73
     5
 74
     0
 42
0.00000001
 43
0.00000001
 40
0.0
 40
0.0
 40
0.0
 40
0.0
 40
0.5850553834534112
 40
1.0
 40
1.0
 40
1.0
 40
1.0
 10
84.51958144369058
 20
131.5186633570651
 30
0.0
 10
84.65613557771503
 20
131.9533947866766
 30
0.0
 10
84.88953935090727
 20
132.6964550881568
 30
0.0
 10
84.92098863863262
 20
133.5210716809615
 30
0.0
 10
84.93403835126847
 20
133.8632418968607
 30
0.0
  0
SPLINE
  5
1F3
330
1F
100
AcDbEntity
  8
0
  6
Continuous
 62
     7
370
    25
100
AcDbSpline
210
0.0
220
0.0
230
1.0
 70
     8
 71
     3
 72
    11
 73
     7
 74
     0
 42
0.00000001
 43
0.00000001
 40
0.0
 40
0.0
 40
0.0
 40
0.0
 40
0.2379053903768483
 40
0.4814905141303177
 40
0.7366519444348059
 40
1.0
 40
1.0
 40
1.0
 40
1.0
 10
84.51958144369122
 20
120.8303050600377
 30
0.0
 10
84.24399600871818
 20
121.6586968572776
 30
0.0
 10
83.68624583516471
 20
123.3352574081864
 30
0.0
 10
83.39968261050839
 20
126.0129242422936
 30
0.0
 10
83.62456301670635
 20
128.7918108106425
 30
0.0
 10
84.2181181336242
 20
130.6001951223078
 30
0.0
 10
84.51958144369058
 20
131.5186633570651
 30
0.0
  0
SPLINE
  5
1F4
330
1F
100
AcDbEntity
  8
0
  6
Continuous
 62
     7
370
    25
100
AcDbSpline
210
0.0
220
0.0
230
1.0
 70
     8
 71
     3
 72
     9
 73
     5
 74
     0
 42
0.00000001
 43
0.00000001
 40
0.0
 40
0.0
 40
0.0
 40
0.0
 40
0.5841917497409935
 40
1.0
 40
1.0
 40
1.0
 40
1.0
 10
84.93403835126847
 20
118.9668685222617
 30
0.0
 10
84.90787038744783
 20
119.2893093088738
 30
0.0
 10
84.86307693763918
 20
119.8412527191582
 30
0.0
 10
84.62046252012529
 20
120.5398306097013
 30
0.0
 10
84.51958144369122
 20
120.8303050600377
 30
0.0
  0
LINE
  5
1F5
330
1F
100
AcDbEntity
  8
0
  6
Continuous
 62
     7
370
    25
100
AcDbLine
 10
84.9340383513
 20
118.9668685223
 30
0.0
 11
84.9340383513
 21
118.1315060159
 31
0.0
  0
SPLINE
  5
1F6
330
1F
100
AcDbEntity
  8
0
  6
Continuous
 62
     7
370
    25
100
AcDbSpline
210
0.0
220
0.0
230
1.0
 70
     8
 71
     3
 72
     9
 73
     5
 74
     0
 42
0.00000001
 43
0.00000001
 40
0.0
 40
0.0
 40
0.0
 40
0.0
 40
0.5850553834536193
 40
1.0
 40
1.0
 40
1.0
 40
1.0
 10
84.51958144369112
 20
117.3576005634632
 30
0.0
 10
84.65613557771545
 20
117.4302860891573
 30
0.0
 10
84.88953935090737
 20
117.5545230891913
 30
0.0
 10
84.92098863863265
 20
117.962300835347
 30
0.0
 10
84.93403835126847
 20
118.1315060158617
 30
0.0
  0
SPLINE
  5
1F7
330
1F
100
AcDbEntity
  8
0
  6
Continuous
 62
     7
370
    25
100
AcDbSpline
210
0.0
220
0.0
230
1.0
 70
     8
 71
     3
 72
    11
 73
     7
 74
     0
 42
0.00000001
 43
0.00000001
 40
0.0
 40
0.0
 40
0.0
 40
0.0
 40
0.2328716322111473
 40
0.4710265024313225
 40
0.7311421212560294
 40
1.0
 40
1.0
 40
1.0
 40
1.0
 10
84.51958144369112
 20
116.3147872080144
 30
0.0
 10
84.24918470901835
 20
116.3938746625319
 30
0.0
 10
83.70225665688751
 20
116.5538438555754
 30
0.0
 10
83.40103233890397
 20
116.8128811873629
 30
0.0
 10
83.6086841043136
 20
117.0860243750064
 30
0.0
 10
84.21262193609387
 20
117.2660832327168
 30
0.0
 10
84.51958144369112
 20
117.3576005634632
 30
0.0
  0
LINE
  5
1F8
330
1F
100
AcDbEntity
  8
0
  6
Continuous
 62
     7
370
    25
100
AcDbLine
 10
84.6403854349
 20
116.3191301349
 30
0.0
 11
84.5195814437
 21
116.314787208
 31
0.0
  0
SPLINE
  5
1F9
330
1F
100
AcDbEntity
  8
0
  6
Continuous
 62
     7
370
    25
100
AcDbSpline
210
0.0
220
0.0
230
1.0
 70
     8
 71
     3
 72
     9
 73
     5
 74
     0
 42
0.00000001
 43
0.00000001
 40
0.0
 40
0.0
 40
0.0
 40
0.0
 40
0.6137694938147381
 40
1.0
 40
1.0
 40
1.0
 40
1.0
 10
84.51958144369112
 20
149.7301371630826
 30
0.0
 10
84.23446980528266
 20
149.6512058073579
 30
0.0
 10
83.76994421174683
 20
149.5226048317146
 30
0.0
 10
83.65155515546347
 20
149.3882763949693
 30
0.0
 10
83.60582969032836
 20
149.33639465485
 30
0.0
  0
SPLINE
  5
1FA
330
1F
100
AcDbEntity
  8
0
  6
Continuous
 62
     7
370
    25
100
AcDbSpline
210
0.0
220
0.0
230
1.0
 70
     8
 71
     3
 72
     9
 73
     5
 74
     0
 42
0.00000001
 43
0.00000001
 40
0.0
 40
0.0
 40
0.0
 40
0.0
 40
0.5841917497409246
 40
1.0
 40
1.0
 40
1.0
 40
1.0
 10
84.93403835126847
 20
149.3667881498372
 30
0.0
 10
84.90787038744784
 20
149.5178054876164
 30
0.0
 10
84.86307693763919
 20
149.7763119417834
 30
0.0
 10
84.62046252012523
 20
149.7436982183555
 30
0.0
 10
84.51958144369112
 20
149.7301371630826
 30
0.0
  0
LINE
  5
1FB
330
1F
100
AcDbEntity
  8
0
  6
Continuous
 62
     7
370
    25
100
AcDbLine
 10
84.9340383513
 20
149.3667881498
 30
0.0
 11
84.9340383513
 21
148.7541980665
 31
0.0
  0
SPLINE
  5
1FC
330
1F
100
AcDbEntity
  8
0
  6
Continuous
 62
     7
370
    25
100
AcDbSpline
210
0.0
220
0.0
230
1.0
 70
     8
 71
     3
 72
     9
 73
     5
 74
     0
 42
0.00000001
 43
0.00000001
 40
0.0
 40
0.0
 40
0.0
 40
0.0
 40
0.5850553834536214
 40
1.0
 40
1.0
 40
1.0
 40
1.0
 10
84.51958144369112
 20
147.1835249791518
 30
0.0
 10
84.65613557771545
 20
147.5455708830692
 30
0.0
 10
84.88953935090737
 20
148.164394184515
 30
0.0
 10
84.92098863863265
 20
148.5812330311634
 30
0.0
 10
84.93403835126847
 20
148.7541980665475
 30
0.0
  0
SPLINE
  5
1FD
330
1F
100
AcDbEntity
  8
0
  6
Continuous
 62
     7
370
    25
100
AcDbSpline
210
0.0
220
0.0
230
1.0
 70
     8
 71
     3
 72
    11
 73
     7
 74
     0
 42
0.00000001
 43
0.00000001
 40
0.0
 40
0.0
 40
0.0
 40
0.0
 40
0.2328716322111489
 40
0.471026502431326
 40
0.7311421212560306
 40
1.0
 40
1.0
 40
1.0
 40
1.0
 10
84.51958144369112
 20
137.537980037572
 30
0.0
 10
84.24918470901835
 20
138.2695026948888
 30
0.0
 10
83.70225665688751
 20
139.7491443131206
 30
0.0
 10
83.40103233890392
 20
142.1451207476838
 30
0.0
 10
83.60868410431364
 20
144.6715698750711
 30
0.0
 10
84.21262193609388
 20
146.3370316713747
 30
0.0
 10
84.51958144369112
 20
147.1835249791518
 30
0.0
  0
SPLINE
  5
1FE
330
1F
100
AcDbEntity
  8
0
  6
Continuous
 62
     7
370
    25
100
AcDbSpline
210
0.0
220
0.0
230
1.0
 70
     8
 71
     3
 72
     9
 73
     5
 74
     0
 42
0.00000001
 43
0.00000001
 40
0.0
 40
0.0
 40
0.0
 40
0.0
 40
0.5841917497409261
 40
1.0
 40
1.0
 40
1.0
 40
1.0
 10
84.93403835126847
 20
135.3111944865504
 30
0.0
 10
84.90787038744783
 20
135.7846526109417
 30
0.0
 10
84.86307693763919
 20
136.5951024753932
 30
0.0
 10
84.62046252012522
 20
137.2610666425086
 30
0.0
 10
84.51958144369112
 20
137.537980037572
 30
0.0
  0
LINE
  5
1FF
330
1F
100
AcDbEntity
  8
0
  6
Continuous
 62
     7
370
    25
100
AcDbLine
 10
84.9340383513
 20
135.3111944866
 30
0.0
 11
84.9340383513
 21
133.8632418969
 31
0.0
  0
LINE
  5
200
330
1F
100
AcDbEntity
  8
0
  6
Continuous
 62
     7
370
    25
100
AcDbLine
 10
83.4340383513
 20
126.19555491
 30
0.0
 11
83.4340383513
 21
149.2224621855
 31
0.0
  0
LINE
  5
201
330
1F
100
AcDbEntity
  8
0
  6
Continuous
 62
     7
370
    25
100
AcDbLine
 10
83.4340383513
 20
116.8224621855
 30
0.0
 11
83.4340383513
 21
126.19555491
 31
0.0
  0
LINE
  5
202
330
1F
100
AcDbEntity
  8
0
  6
Continuous
 62
     7
370
    25
100
AcDbLine
 10
75.6840383513
 20
143.5974621855
 30
0.0
 11
75.6840383513
 21
122.4474621855
 31
0.0
  0
LINE
  5
203
330
1F
100
AcDbEntity
  8
0
  6
Continuous
 62
     7
370
    25
100
AcDbLine
 10
91.7984952588
 20
147.1835249792
 30
0.0
 11
84.5195814437
 21
147.1835249792
 31
0.0
  0
LINE
  5
204
330
1F
100
AcDbEntity
  8
0
  6
Continuous
 62
     7
370
    25
100
AcDbLine
 10
84.5195814437
 20
137.5379800376
 30
0.0
 11
91.7984952588
 21
137.5379800376
 31
0.0
  0
LINE
  5
205
330
1F
100
AcDbEntity
  8
0
  6
Continuous
 62
     7
370
    25
100
AcDbLine
 10
91.3840383513
 20
135.3111944866
 30
0.0
 11
84.9340383513
 21
135.3111944866
 31
0.0
  0
LINE
  5
206
330
1F
100
AcDbEntity
  8
0
  6
Continuous
 62
     7
370
    25
100
AcDbLine
 10
84.9340383513
 20
133.8632418969
 30
0.0
 11
91.3840383513
 21
133.8632418969
 31
0.0
  0
LINE
  5
207
330
1F
100
AcDbEntity
  8
0
  6
Continuous
 62
     7
370
    25
100
AcDbLine
 10
91.7984952588
 20
131.5186633571
 30
0.0
 11
84.5195814437
 21
131.5186633571
 31
0.0
  0
LINE
  5
208
330
1F
100
AcDbEntity
  8
0
  6
Continuous
 62
     7
370
    25
100
AcDbLine
 10
84.5195814437
 20
120.83030506
 30
0.0
 11
91.7984952588
 21
120.83030506
 31
0.0
  0
LINE
  5
209
330
1F
100
AcDbEntity
  8
0
  6
Continuous
 62
     7
370
    25
100
AcDbLine
 10
91.3840383513
 20
118.9668685223
 30
0.0
 11
84.9340383513
 21
118.9668685223
 31
0.0
  0
LINE
  5
20A
330
1F
100
AcDbEntity
  8
0
  6
Continuous
 62
     7
370
    25
100
AcDbLine
 10
84.9340383513
 20
118.1315060159
 30
0.0
 11
91.3840383513
 21
118.1315060159
 31
0.0
  0
LINE
  5
20B
330
1F
100
AcDbEntity
  8
0
  6
Continuous
 62
     7
370
    25
100
AcDbLine
 10
84.9340383513
 20
148.7541980665
 30
0.0
 11
91.3840383513
 21
148.7541980665
 31
0.0
  0
LINE
  5
20C
330
1F
100
AcDbEntity
  8
0
  6
Continuous
 62
     7
370
    25
100
AcDbLine
 10
91.7984952588
 20
117.3576005635
 30
0.0
 11
84.5195814437
 21
117.3576005635
 31
0.0
  0
LINE
  5
20D
330
1F
100
AcDbEntity
  8
0
  6
Continuous
 62
     7
370
    25
100
AcDbLine
 10
91.3840383513
 20
149.3667881498
 30
0.0
 11
84.9340383513
 21
149.3667881498
 31
0.0
  0
LINE
  5
20E
330
1F
100
AcDbEntity
  8
0
  6
Continuous
 62
     7
370
    25
100
AcDbLine
 10
84.5195814437
 20
116.314787208
 30
0.0
 11
91.7984952588
 21
116.314787208
 31
0.0
  0
SPLINE
  5
20F
330
1F
100
AcDbEntity
  8
0
  6
Continuous
 62
     7
370
    25
100
AcDbSpline
210
0.0
220
0.0
230
1.0
 70
     8
 71
     3
 72
     9
 73
     5
 74
     0
 42
0.00000001
 43
0.00000001
 40
0.0
 40
0.0
 40
0.0
 40
0.0
 40
0.5841917497409234
 40
0.9999999999999999
 40
0.9999999999999999
 40
0.9999999999999999
 40
0.9999999999999999
 10
181.4340383512685
 20
135.3111944865504
 30
0.0
 10
181.4078703874478
 20
135.7846526109417
 30
0.0
 10
181.3630769376392
 20
136.5951024753932
 30
0.0
 10
181.1204625201252
 20
137.2610666425086
 30
0.0
 10
181.0195814436911
 20
137.537980037572
 30
0.0
  0
LINE
  5
210
330
1F
100
AcDbEntity
  8
0
  6
Continuous
 62
     7
370
    25
100
AcDbLine
 10
181.4340383513
 20
135.3111944866
 30
0.0
 11
181.4340383513
 21
133.8632418969
 31
0.0
  0
SPLINE
  5
211
330
1F
100
AcDbEntity
  8
0
  6
Continuous
 62
     7
370
    25
100
AcDbSpline
210
0.0
220
0.0
230
1.0
 70
     8
 71
     3
 72
     9
 73
     5
 74
     0
 42
0.00000001
 43
0.00000001
 40
0.0
 40
0.0
 40
0.0
 40
0.0
 40
0.5850553834536164
 40
1.0
 40
1.0
 40
1.0
 40
1.0
 10
181.0195814436911
 20
131.5186633570666
 30
0.0
 10
181.1561355777154
 20
131.953394786678
 30
0.0
 10
181.3895393509074
 20
132.6964550881578
 30
0.0
 10
181.4209886386327
 20
133.5210716809618
 30
0.0
 10
181.4340383512685
 20
133.8632418968607
 30
0.0
  0
SPLINE
  5
212
330
1F
100
AcDbEntity
  8
0
  6
Continuous
 62
     7
370
    25
100
AcDbSpline
210
0.0
220
0.0
230
1.0
 70
     8
 71
     3
 72
    11
 73
     7
 74
     0
 42
0.00000001
 43
0.00000001
 40
0.0
 40
0.0
 40
0.0
 40
0.0
 40
0.232871632211145
 40
0.4710265024313184
 40
0.731142121256027
 40
0.9999999999999999
 40
0.9999999999999999
 40
0.9999999999999999
 40
0.9999999999999999
 10
181.0195814436911
 20
120.8303050600379
 30
0.0
 10
180.7491847090184
 20
121.6409151718722
 30
0.0
 10
180.2022566568875
 20
123.2805259831476
 30
0.0
 10
179.9010323389039
 20
125.9355397494982
 30
0.0
 10
180.1086841043136
 20
128.735132064529
 30
0.0
 10
180.7126219360939
 20
130.5806527185431
 30
0.0
 10
181.0195814436911
 20
131.5186633570666
 30
0.0
  0
SPLINE
  5
213
330
1F
100
AcDbEntity
  8
0
  6
Continuous
 62
     7
370
    25
100
AcDbSpline
210
0.0
220
0.0
230
1.0
 70
     8
 71
     3
 72
     9
 73
     5
 74
     0
 42
0.00000001
 43
0.00000001
 40
0.0
 40
0.0
 40
0.0
 40
0.0
 40
0.5841917497409213
 40
1.0
 40
1.0
 40
1.0
 40
1.0
 10
181.4340383512685
 20
118.9668685222617
 30
0.0
 10
181.4078703874478
 20
119.2893093088738
 30
0.0
 10
181.3630769376392
 20
119.8412527191583
 30
0.0
 10
181.1204625201252
 20
120.5398306097015
 30
0.0
 10
181.0195814436911
 20
120.8303050600379
 30
0.0
  0
LINE
  5
214
330
1F
100
AcDbEntity
  8
0
  6
Continuous
 62
     7
370
    25
100
AcDbLine
 10
181.4340383513
 20
118.9668685223
 30
0.0
 11
181.4340383513
 21
118.1315060159
 31
0.0
  0
SPLINE
  5
215
330
1F
100
AcDbEntity
  8
0
  6
Continuous
 62
     7
370
    25
100
AcDbSpline
210
0.0
220
0.0
230
1.0
 70
     8
 71
     3
 72
     9
 73
     5
 74
     0
 42
0.00000001
 43
0.00000001
 40
0.0
 40
0.0
 40
0.0
 40
0.0
 40
0.5850553834536157
 40
1.0
 40
1.0
 40
1.0
 40
1.0
 10
181.0195814436911
 20
117.3576005634632
 30
0.0
 10
181.1561355777154
 20
117.4302860891572
 30
0.0
 10
181.3895393509074
 20
117.5545230891913
 30
0.0
 10
181.4209886386327
 20
117.962300835347
 30
0.0
 10
181.4340383512685
 20
118.1315060158617
 30
0.0
  0
SPLINE
  5
216
330
1F
100
AcDbEntity
  8
0
  6
Continuous
 62
     7
370
    25
100
AcDbSpline
210
0.0
220
0.0
230
1.0
 70
     8
 71
     3
 72
    11
 73
     7
 74
     0
 42
0.00000001
 43
0.00000001
 40
0.0
 40
0.0
 40
0.0
 40
0.0
 40
0.2379053903768113
 40
0.4814905141302429
 40
0.7366519444347657
 40
1.0
 40
1.0
 40
1.0
 40
1.0
 10
181.0195814436912
 20
116.3147872080144
 30
0.0
 10
180.7439960087182
 20
116.3956095387877
 30
0.0
 10
180.1862458351647
 20
116.5591837458941
 30
0.0
 10
179.8996826105083
 20
116.8204312320329
 30
0.0
 10
180.1245630167064
 20
117.091554256376
 30
0.0
 10
180.7181181336246
 20
117.2679898940654
 30
0.0
 10
181.0195814436911
 20
117.3576005634632
 30
0.0
  0
LINE
  5
217
330
1F
100
AcDbEntity
  8
0
  6
Continuous
 62
     7
370
    25
100
AcDbLine
 10
181.1403854349
 20
116.3191301349
 30
0.0
 11
181.0195814437
 21
116.314787208
 31
0.0
  0
SPLINE
  5
218
330
1F
100
AcDbEntity
  8
0
  6
Continuous
 62
     7
370
    25
100
AcDbSpline
210
0.0
220
0.0
230
1.0
 70
     8
 71
     3
 72
     9
 73
     5
 74
     0
 42
0.00000001
 43
0.00000001
 40
0.0
 40
0.0
 40
0.0
 40
0.0
 40
0.6721061852891725
 40
1.0
 40
1.0
 40
1.0
 40
1.0
 10
181.0195814436911
 20
149.7301371630826
 30
0.0
 10
180.702775196703
 20
149.6434209290531
 30
0.0
 10
180.2314118110917
 20
149.514399301329
 30
0.0
 10
180.1488841275881
 20
149.3795182995316
 30
0.0
 10
180.1218238106248
 20
149.3352916533202
 30
0.0
  0
SPLINE
  5
219
330
1F
100
AcDbEntity
  8
0
  6
Continuous
 62
     7
370
    25
100
AcDbSpline
210
0.0
220
0.0
230
1.0
 70
     8
 71
     3
 72
     9
 73
     5
 74
     0
 42
0.00000001
 43
0.00000001
 40
0.0
 40
0.0
 40
0.0
 40
0.0
 40
0.5841917497409217
 40
1.0
 40
1.0
 40
1.0
 40
1.0
 10
181.4340383512685
 20
149.3667881498372
 30
0.0
 10
181.4078703874478
 20
149.5178054876164
 30
0.0
 10
181.3630769376392
 20
149.7763119417834
 30
0.0
 10
181.1204625201252
 20
149.7436982183555
 30
0.0
 10
181.0195814436911
 20
149.7301371630826
 30
0.0
  0
LINE
  5
21A
330
1F
100
AcDbEntity
  8
0
  6
Continuous
 62
     7
370
    25
100
AcDbLine
 10
181.4340383513
 20
149.3667881498
 30
0.0
 11
181.4340383513
 21
148.7541980665
 31
0.0
  0
SPLINE
  5
21B
330
1F
100
AcDbEntity
  8
0
  6
Continuous
 62
     7
370
    25
100
AcDbSpline
210
0.0
220
0.0
230
1.0
 70
     8
 71
     3
 72
     9
 73
     5
 74
     0
 42
0.00000001
 43
0.00000001
 40
0.0
 40
0.0
 40
0.0
 40
0.0
 40
0.5850553834536191
 40
1.0
 40
1.0
 40
1.0
 40
1.0
 10
181.0195814436911
 20
147.1835249791518
 30
0.0
 10
181.1561355777154
 20
147.5455708830692
 30
0.0
 10
181.3895393509074
 20
148.164394184515
 30
0.0
 10
181.4209886386327
 20
148.5812330311634
 30
0.0
 10
181.4340383512685
 20
148.7541980665475
 30
0.0
  0
SPLINE
  5
21C
330
1F
100
AcDbEntity
  8
0
  6
Continuous
 62
     7
370
    25
100
AcDbSpline
210
0.0
220
0.0
230
1.0
 70
     8
 71
     3
 72
    11
 73
     7
 74
     0
 42
0.00000001
 43
0.00000001
 40
0.0
 40
0.0
 40
0.0
 40
0.0
 40
0.2328716322111445
 40
0.4710265024313174
 40
0.7311421212560267
 40
1.0
 40
1.0
 40
1.0
 40
1.0
 10
181.0195814436911
 20
137.537980037572
 30
0.0
 10
180.7491847090184
 20
138.2695026948888
 30
0.0
 10
180.2022566568876
 20
139.7491443131206
 30
0.0
 10
179.9010323389039
 20
142.1451207476838
 30
0.0
 10
180.1086841043136
 20
144.671569875071
 30
0.0
 10
180.7126219360939
 20
146.3370316713747
 30
0.0
 10
181.0195814436911
 20
147.1835249791518
 30
0.0
  0
LINE
  5
21D
330
1F
100
AcDbEntity
  8
0
  6
Continuous
 62
     7
370
    25
100
AcDbLine
 10
179.9340383513
 20
116.8224621855
 30
0.0
 11
179.9340383513
 21
149.2224621855
 31
0.0
  0
SPLINE
  5
21E
330
1F
100
AcDbEntity
  8
0
  6
Continuous
 62
     7
370
    25
100
AcDbSpline
210
0.0
220
0.0
230
1.0
 70
     8
 71
     3
 72
     9
 73
     5
 74
     0
 42
0.00000001
 43
0.00000001
 40
0.0
 40
0.0
 40
0.0
 40
0.0
 40
0.5850553834534123
 40
1.0
 40
1.0
 40
1.0
 40
1.0
 10
188.2984952588464
 20
149.7301371630824
 30
0.0
 10
188.1619411248219
 20
149.7396744939622
 30
0.0
 10
187.9285373516297
 20
149.7559760803582
 30
0.0
 10
187.8970880639043
 20
149.480920840761
 30
0.0
 10
187.8840383512685
 20
149.3667881498372
 30
0.0
  0
SPLINE
  5
21F
330
1F
100
AcDbEntity
  8
0
  6
Continuous
 62
     7
370
    25
100
AcDbSpline
210
0.0
220
0.0
230
1.0
 70
     8
 71
     3
 72
     9
 73
     5
 74
     0
 42
0.00000001
 43
0.00000001
 40
0.0
 40
0.0
 40
0.0
 40
0.0
 40
0.3075978995518112
 40
1.0
 40
1.0
 40
1.0
 40
1.0
 10
189.2007793637169
 20
149.3353293701402
 30
0.0
 10
189.1758912429201
 20
149.3768132056304
 30
0.0
 10
189.0949800246283
 20
149.511677050769
 30
0.0
 10
188.6243561902742
 20
149.6407599160381
 30
0.0
 10
188.2984952588464
 20
149.7301371630824
 30
0.0
  0
LINE
  5
220
330
1F
100
AcDbEntity
  8
0
  6
Continuous
 62
     7
370
    25
100
AcDbLine
 10
188.2984952588
 20
116.314787208
 30
0.0
 11
188.1906849867
 21
116.3373020064
 31
0.0
  0
SPLINE
  5
221
330
1F
100
AcDbEntity
  8
0
  6
Continuous
 62
     7
370
    25
100
AcDbSpline
210
0.0
220
0.0
230
1.0
 70
     8
 71
     3
 72
    11
 73
     7
 74
     0
 42
0.00000001
 43
0.00000001
 40
0.0
 40
0.0
 40
0.0
 40
0.0
 40
0.2556279644380967
 40
0.5185037642963866
 40
0.7560467972580099
 40
1.0
 40
1.0
 40
1.0
 40
1.0
 10
188.2984952588458
 20
117.3576005634632
 30
0.0
 10
188.5921212189478
 20
117.2706623983077
 30
0.0
 10
189.1876983340834
 20
117.0943211048452
 30
0.0
 10
189.41958729571
 20
116.8253078565365
 30
0.0
 10
189.1366168372492
 20
116.5613370547856
 30
0.0
 10
188.580337703685
 20
116.397696672917
 30
0.0
 10
188.2984952588458
 20
116.3147872080144
 30
0.0
  0
SPLINE
  5
222
330
1F
100
AcDbEntity
  8
0
  6
Continuous
 62
     7
370
    25
100
AcDbSpline
210
0.0
220
0.0
230
1.0
 70
     8
 71
     3
 72
     9
 73
     5
 74
     0
 42
0.00000001
 43
0.00000001
 40
0.0
 40
0.0
 40
0.0
 40
0.0
 40
0.5841917497409268
 40
0.9999999999999999
 40
0.9999999999999999
 40
0.9999999999999999
 40
0.9999999999999999
 10
187.8840383512685
 20
118.1315060158617
 30
0.0
 10
187.9102063150891
 20
117.9018577396479
 30
0.0
 10
187.9549997648978
 20
117.5087534612742
 30
0.0
 10
188.1976141824117
 20
117.4019926073356
 30
0.0
 10
188.2984952588458
 20
117.3576005634632
 30
0.0
  0
LINE
  5
223
330
1F
100
AcDbEntity
  8
0
  6
Continuous
 62
     7
370
    25
100
AcDbLine
 10
187.8840383513
 20
118.1315060159
 30
0.0
 11
187.8840383513
 21
118.9668685223
 31
0.0
  0
SPLINE
  5
224
330
1F
100
AcDbEntity
  8
0
  6
Continuous
 62
     7
370
    25
100
AcDbSpline
210
0.0
220
0.0
230
1.0
 70
     8
 71
     3
 72
     9
 73
     5
 74
     0
 42
0.00000001
 43
0.00000001
 40
0.0
 40
0.0
 40
0.0
 40
0.0
 40
0.5850553834536173
 40
1.0
 40
1.0
 40
1.0
 40
1.0
 10
188.2984952588458
 20
120.8303050600379
 30
0.0
 10
188.1619411248215
 20
120.4222899457233
 30
0.0
 10
187.9285373516296
 20
119.7248942360965
 30
0.0
 10
187.8970880639043
 20
119.1891660493036
 30
0.0
 10
187.8840383512685
 20
118.9668685222617
 30
0.0
  0
SPLINE
  5
225
330
1F
100
AcDbEntity
  8
0
  6
Continuous
 62
     7
370
    25
100
AcDbSpline
210
0.0
220
0.0
230
1.0
 70
     8
 71
     3
 72
    11
 73
     7
 74
     0
 42
0.00000001
 43
0.00000001
 40
0.0
 40
0.0
 40
0.0
 40
0.0
 40
0.2328716322111473
 40
0.4710265024313233
 40
0.7311421212560294
 40
1.0
 40
1.0
 40
1.0
 40
1.0
 10
188.2984952588458
 20
131.5186633570666
 30
0.0
 10
188.5688919935186
 20
130.7080532452323
 30
0.0
 10
189.1158200456495
 20
129.0684424339569
 30
0.0
 10
189.417044363633
 20
126.4134286676063
 30
0.0
 10
189.2093925982233
 20
123.6138363525755
 30
0.0
 10
188.6054547664431
 20
121.7683156985614
 30
0.0
 10
188.2984952588458
 20
120.8303050600379
 30
0.0
  0
SPLINE
  5
226
330
1F
100
AcDbEntity
  8
0
  6
Continuous
 62
     7
370
    25
100
AcDbSpline
210
0.0
220
0.0
230
1.0
 70
     8
 71
     3
 72
     9
 73
     5
 74
     0
 42
0.00000001
 43
0.00000001
 40
0.0
 40
0.0
 40
0.0
 40
0.0
 40
0.5841917497409242
 40
1.0
 40
1.0
 40
1.0
 40
1.0
 10
187.8840383512685
 20
133.8632418968607
 30
0.0
 10
187.9102063150891
 20
133.3797516519708
 30
0.0
 10
187.9549997648978
 20
132.5521291374381
 30
0.0
 10
188.1976141824117
 20
131.8221815755543
 30
0.0
 10
188.2984952588458
 20
131.5186633570666
 30
0.0
  0
LINE
  5
227
330
1F
100
AcDbEntity
  8
0
  6
Continuous
 62
     7
370
    25
100
AcDbLine
 10
187.8840383513
 20
133.8632418969
 30
0.0
 11
187.8840383513
 21
135.3111944866
 31
0.0
  0
SPLINE
  5
228
330
1F
100
AcDbEntity
  8
0
  6
Continuous
 62
     7
370
    25
100
AcDbSpline
210
0.0
220
0.0
230
1.0
 70
     8
 71
     3
 72
     9
 73
     5
 74
     0
 42
0.00000001
 43
0.00000001
 40
0.0
 40
0.0
 40
0.0
 40
0.0
 40
0.5850553834536175
 40
1.0
 40
1.0
 40
1.0
 40
1.0
 10
188.2984952588458
 20
137.537980037572
 30
0.0
 10
188.1619411248215
 20
137.139502254137
 30
0.0
 10
187.9285373516296
 20
136.4584081309059
 30
0.0
 10
187.8970880639043
 20
135.647624704516
 30
0.0
 10
187.8840383512685
 20
135.3111944865504
 30
0.0
  0
SPLINE
  5
229
330
1F
100
AcDbEntity
  8
0
  6
Continuous
 62
     7
370
    25
100
AcDbSpline
210
0.0
220
0.0
230
1.0
 70
     8
 71
     3
 72
    11
 73
     7
 74
     0
 42
0.00000001
 43
0.00000001
 40
0.0
 40
0.0
 40
0.0
 40
0.0
 40
0.2328716322111489
 40
0.4710265024313259
 40
0.7311421212560307
 40
1.0
 40
1.0
 40
1.0
 40
1.0
 10
188.2984952588458
 20
147.1835249791518
 30
0.0
 10
188.5688919935186
 20
146.4520023218351
 30
0.0
 10
189.1158200456495
 20
144.9723607036032
 30
0.0
 10
189.417044363633
 20
142.57638426904
 30
0.0
 10
189.2093925982233
 20
140.0499351416528
 30
0.0
 10
188.6054547664431
 20
138.3844733453491
 30
0.0
 10
188.2984952588458
 20
137.537980037572
 30
0.0
  0
SPLINE
  5
22A
330
1F
100
AcDbEntity
  8
0
  6
Continuous
 62
     7
370
    25
100
AcDbSpline
210
0.0
220
0.0
230
1.0
 70
     8
 71
     3
 72
     9
 73
     5
 74
     0
 42
0.00000001
 43
0.00000001
 40
0.0
 40
0.0
 40
0.0
 40
0.0
 40
0.5841917497409261
 40
1.0
 40
1.0
 40
1.0
 40
1.0
 10
187.8840383512685
 20
148.7541980665475
 30
0.0
 10
187.9102063150891
 20
148.5003560978714
 30
0.0
 10
187.9549997648978
 20
148.0658378617124
 30
0.0
 10
188.1976141824117
 20
147.4426511537672
 30
0.0
 10
188.2984952588458
 20
147.1835249791518
 30
0.0
  0
LINE
  5
22B
330
1F
100
AcDbEntity
  8
0
  6
Continuous
 62
     7
370
    25
100
AcDbLine
 10
187.8840383513
 20
148.7541980665
 30
0.0
 11
187.8840383513
 21
149.3667881498
 31
0.0
  0
LINE
  5
22C
330
1F
100
AcDbEntity
  8
0
  6
Continuous
 62
     7
370
    25
100
AcDbLine
 10
189.3840383513
 20
149.2224621855
 30
0.0
 11
189.3840383513
 21
116.8224621855
 31
0.0
  0
LINE
  5
22D
330
1F
100
AcDbEntity
  8
0
  6
Continuous
 62
     7
370
    25
100
AcDbLine
 10
181.0195814437
 20
120.83030506
 30
0.0
 11
188.2984952588
 21
120.83030506
 31
0.0
  0
LINE
  5
22E
330
1F
100
AcDbEntity
  8
0
  6
Continuous
 62
     7
370
    25
100
AcDbLine
 10
188.2984952588
 20
131.5186633571
 30
0.0
 11
181.0195814437
 21
131.5186633571
 31
0.0
  0
LINE
  5
22F
330
1F
100
AcDbEntity
  8
0
  6
Continuous
 62
     7
370
    25
100
AcDbLine
 10
181.4340383513
 20
133.8632418969
 30
0.0
 11
187.8840383513
 21
133.8632418969
 31
0.0
  0
LINE
  5
230
330
1F
100
AcDbEntity
  8
0
  6
Continuous
 62
     7
370
    25
100
AcDbLine
 10
181.0195814437
 20
137.5379800376
 30
0.0
 11
188.2984952588
 21
137.5379800376
 31
0.0
  0
LINE
  5
231
330
1F
100
AcDbEntity
  8
0
  6
Continuous
 62
     7
370
    25
100
AcDbLine
 10
188.2984952588
 20
147.1835249792
 30
0.0
 11
181.0195814437
 21
147.1835249792
 31
0.0
  0
LINE
  5
232
330
1F
100
AcDbEntity
  8
0
  6
Continuous
 62
     7
370
    25
100
AcDbLine
 10
187.8840383513
 20
135.3111944866
 30
0.0
 11
181.4340383513
 21
135.3111944866
 31
0.0
  0
LINE
  5
233
330
1F
100
AcDbEntity
  8
0
  6
Continuous
 62
     7
370
    25
100
AcDbLine
 10
197.1340383513
 20
122.4474621855
 30
0.0
 11
197.1340383513
 21
143.5974621855
 31
0.0
  0
LINE
  5
234
330
1F
100
AcDbEntity
  8
0
  6
Continuous
 62
     7
370
    25
100
AcDbLine
 10
187.8840383513
 20
118.9668685223
 30
0.0
 11
181.4340383513
 21
118.9668685223
 31
0.0
  0
LINE
  5
235
330
1F
100
AcDbEntity
  8
0
  6
Continuous
 62
     7
370
    25
100
AcDbLine
 10
181.4340383513
 20
118.1315060159
 30
0.0
 11
187.8840383513
 21
118.1315060159
 31
0.0
  0
LINE
  5
236
330
1F
100
AcDbEntity
  8
0
  6
Continuous
 62
     7
370
    25
100
AcDbLine
 10
181.4340383513
 20
148.7541980665
 30
0.0
 11
187.8840383513
 21
148.7541980665
 31
0.0
  0
LINE
  5
237
330
1F
100
AcDbEntity
  8
0
  6
Continuous
 62
     7
370
    25
100
AcDbLine
 10
188.2984952588
 20
117.3576005635
 30
0.0
 11
181.0195814437
 21
117.3576005635
 31
0.0
  0
LINE
  5
238
330
1F
100
AcDbEntity
  8
0
  6
Continuous
 62
     7
370
    25
100
AcDbLine
 10
187.8840383513
 20
149.3667881498
 30
0.0
 11
181.4340383513
 21
149.3667881498
 31
0.0
  0
LINE
  5
239
330
1F
100
AcDbEntity
  8
0
  6
Continuous
 62
     7
370
    25
100
AcDbLine
 10
181.0195814437
 20
116.314787208
 30
0.0
 11
188.2984952588
 21
116.314787208
 31
0.0
  0
ARC
  5
23A
330
1F
100
AcDbEntity
  8
0
  6
Continuous
 62
     7
370
    25
100
AcDbCircle
 10
135.7840383513
 20
133.0224621855
 30
0.0
 40
14.00000000000001
100
AcDbArc
 50
307.9000373354
 51
232.0999626646
  0
SPLINE
  5
23B
330
1F
100
AcDbEntity
  8
0
  6
Continuous
 62
     7
370
    25
100
AcDbSpline
210
0.0
220
0.0
230
1.0
 70
     8
 71
     3
 72
    10
 73
     6
 74
     0
 42
0.00000001
 43
0.00000001
 40
0.0
 40
0.0
 40
0.0
 40
0.0
 40
0.5
 40
0.5
 40
1.0
 40
1.0
 40
1.0
 40
1.0
 10
124.5675884024374
 20
123.7839833573565
 30
0.0
 10
124.0920391985554
 20
124.3729318454358
 30
0.0
 10
123.6697033114143
 20
124.9907290175132
 30
0.0
 10
122.9266812704263
 20
126.2799054280564
 30
0.0
 10
122.6061929169393
 20
126.9524025244587
 30
0.0
 10
122.3417358394219
 20
127.6386592716311
 30
0.0
  0
SPLINE
  5
23C
330
1F
100
AcDbEntity
  8
0
  6
Continuous
 62
     7
370
    25
100
AcDbSpline
210
0.0
220
0.0
230
1.0
 70
     8
 71
     3
 72
    18
 73
    14
 74
     0
 42
0.00000001
 43
0.00000001
 40
0.0
 40
0.0
 40
0.0
 40
0.0
 40
0.125
 40
0.125
 40
0.2500000000000001
 40
0.2500000000000001
 40
0.5000000000000001
 40
0.5000000000000001
 40
0.6250000000000001
 40
0.6250000000000001
 40
0.75
 40
0.75
 40
1.0
 40
1.0
 40
1.0
 40
1.0
 10
122.341735839422
 20
127.6386592716311
 30
0.0
 10
122.1822287887097
 20
128.0525744173342
 30
0.0
 10
122.0397417002513
 20
128.4770031034757
 30
0.0
 10
121.7910216835864
 20
129.3482981657876
 30
0.0
 10
121.6843392792747
 20
129.7977031816182
 30
0.0
 10
121.4272675776421
 20
131.1634818902727
 30
0.0
 10
121.3397473353944
 20
132.0891974940978
 30
0.0
 10
121.3405419971685
 20
133.5017291653661
 30
0.0
 10
121.3634484384289
 20
133.9787831855741
 30
0.0
 10
121.4529333113428
 20
134.9150731928564
 30
0.0
 10
121.5188916324503
 20
135.3730588147168
 30
0.0
 10
121.7750743693193
 20
136.7191175230046
 30
0.0
 10
122.023137472342
 20
137.5795136239552
 30
0.0
 10
122.341735839422
 20
138.4062650994659
 30
0.0
  0
SPLINE
  5
23D
330
1F
100
AcDbEntity
  8
0
  6
Continuous
 62
     7
370
    25
100
AcDbSpline
210
0.0
220
0.0
230
1.0
 70
     8
 71
     3
 72
    10
 73
     6
 74
     0
 42
0.00000001
 43
0.00000001
 40
0.0
 40
0.0
 40
0.0
 40
0.0
 40
0.5000000000000002
 40
0.5000000000000002
 40
1.0
 40
1.0
 40
1.0
 40
1.0
 10
122.341735839422
 20
138.4062650994659
 30
0.0
 10
122.6069749694877
 20
139.0945512452953
 30
0.0
 10
122.927362340164
 20
139.7661707466622
 30
0.0
 10
123.6687338411476
 20
141.0525431505476
 30
0.0
 10
124.0905479225172
 20
141.6701456405001
 30
0.0
 10
124.5675884024374
 20
142.2609410137405
 30
0.0
  0
SPLINE
  5
23E
330
1F
100
AcDbEntity
  8
0
  6
Continuous
 62
     7
370
    25
100
AcDbSpline
210
0.0
220
0.0
230
1.0
 70
     8
 71
     3
 72
    20
 73
    16
 74
     0
 42
0.00000001
 43
0.00000001
 40
0.0
 40
0.0
 40
0.0
 40
0.0
 40
0.2499999999999991
 40
0.2499999999999991
 40
0.3749999999999992
 40
0.3749999999999992
 40
0.4999999999999993
 40
0.4999999999999993
 40
0.6249999999999994
 40
0.6249999999999994
 40
0.7499999999999996
 40
0.7499999999999996
 40
0.8749999999999998
 40
0.8749999999999998
 40
1.0
 40
1.0
 40
1.0
 40
1.0
 10
124.5675884024374
 20
142.2609410137405
 30
0.0
 10
125.2431658762812
 20
143.0976164377614
 30
0.0
 10
125.9964302688051
 20
143.8433108555164
 30
0.0
 10
127.2336348470444
 20
144.8307270503353
 30
0.0
 10
127.6640811761094
 20
145.1378381553611
 30
0.0
 10
128.5611714791696
 20
145.7067894168163
 30
0.0
 10
129.0222941997881
 20
145.9650402652994
 30
0.0
 10
129.9645712104502
 20
146.4286090337063
 30
0.0
 10
130.4462935247118
 20
146.6342649954643
 30
0.0
 10
131.429197018905
 20
146.9934220618624
 30
0.0
 10
131.9319466017255
 20
147.1470762225863
 30
0.0
 10
132.9369691958443
 20
147.3975984961699
 30
0.0
 10
133.441197314296
 20
147.4952192960423
 30
0.0
 10
134.4445365614936
 20
147.6378635278118
 30
0.0
 10
134.9447769001993
 20
147.682585783184
 30
0.0
 10
135.4287740009362
 20
147.7041267027912
 30
0.0
  0
SPLINE
  5
23F
330
1F
100
AcDbEntity
  8
0
  6
Continuous
 62
     7
370
    25
100
AcDbSpline
210
0.0
220
0.0
230
1.0
 70
     8
 71
     3
 72
    10
 73
     6
 74
     0
 42
0.00000001
 43
0.00000001
 40
0.0
 40
0.0
 40
0.0
 40
0.0
 40
0.5
 40
0.5
 40
1.0
 40
1.0
 40
1.0
 40
1.0
 10
136.1393027016008
 20
147.7041267027912
 30
0.0
 10
136.0307903414067
 20
147.7089561863228
 30
0.0
 10
135.909540162916
 20
147.7120826383261
 30
0.0
 10
135.657602261326
 20
147.7120677329963
 30
0.0
 10
135.5373135070604
 20
147.7089573944877
 30
0.0
 10
135.4287740009362
 20
147.7041267027912
 30
0.0
  0
SPLINE
  5
240
330
1F
100
AcDbEntity
  8
0
  6
Continuous
 62
     7
370
    25
100
AcDbSpline
210
0.0
220
0.0
230
1.0
 70
     8
 71
     3
 72
    20
 73
    16
 74
     0
 42
0.00000001
 43
0.00000001
 40
0.0
 40
0.0
 40
0.0
 40
0.0
 40
0.2499999999999991
 40
0.2499999999999991
 40
0.3749999999999992
 40
0.3749999999999992
 40
0.4999999999999993
 40
0.4999999999999993
 40
0.6249999999999994
 40
0.6249999999999994
 40
0.7499999999999996
 40
0.7499999999999996
 40
0.8749999999999998
 40
0.8749999999999998
 40
1.0
 40
1.0
 40
1.0
 40
1.0
 10
147.0004883000996
 20
142.2609410137405
 30
0.0
 10
146.3249108262558
 20
143.0976164377614
 30
0.0
 10
145.5716464337319
 20
143.8433108555164
 30
0.0
 10
144.3344418554925
 20
144.8307270503353
 30
0.0
 10
143.9039955264276
 20
145.1378381553611
 30
0.0
 10
143.0069052233674
 20
145.7067894168163
 30
0.0
 10
142.5457825027489
 20
145.9650402652994
 30
0.0
 10
141.6035054920868
 20
146.4286090337063
 30
0.0
 10
141.1217831778251
 20
146.6342649954643
 30
0.0
 10
140.1388796836319
 20
146.9934220618624
 30
0.0
 10
139.6361301008114
 20
147.1470762225863
 30
0.0
 10
138.6311075066927
 20
147.3975984961699
 30
0.0
 10
138.126879388241
 20
147.4952192960423
 30
0.0
 10
137.1235401410433
 20
147.6378635278118
 30
0.0
 10
136.6232998023377
 20
147.682585783184
 30
0.0
 10
136.1393027016007
 20
147.7041267027912
 30
0.0
  0
SPLINE
  5
241
330
1F
100
AcDbEntity
  8
0
  6
Continuous
 62
     7
370
    25
100
AcDbSpline
210
0.0
220
0.0
230
1.0
 70
     8
 71
     3
 72
    10
 73
     6
 74
     0
 42
0.00000001
 43
0.00000001
 40
0.0
 40
0.0
 40
0.0
 40
0.0
 40
0.5000000000000002
 40
0.5000000000000002
 40
1.0
 40
1.0
 40
1.0
 40
1.0
 10
149.226340863115
 20
138.4062650994659
 30
0.0
 10
148.9611017330493
 20
139.0945512452953
 30
0.0
 10
148.640714362373
 20
139.7661707466622
 30
0.0
 10
147.8993428613893
 20
141.0525431505476
 30
0.0
 10
147.4775287800198
 20
141.6701456405001
 30
0.0
 10
147.0004883000996
 20
142.2609410137405
 30
0.0
  0
SPLINE
  5
242
330
1F
100
AcDbEntity
  8
0
  6
Continuous
 62
     7
370
    25
100
AcDbSpline
210
0.0
220
0.0
230
1.0
 70
     8
 71
     3
 72
    18
 73
    14
 74
     0
 42
0.00000001
 43
0.00000001
 40
0.0
 40
0.0
 40
0.0
 40
0.0
 40
0.125
 40
0.125
 40
0.2500000000000001
 40
0.2500000000000001
 40
0.5000000000000001
 40
0.5000000000000001
 40
0.6250000000000001
 40
0.6250000000000001
 40
0.75
 40
0.75
 40
1.0
 40
1.0
 40
1.0
 40
1.0
 10
149.226340863115
 20
127.6386592716311
 30
0.0
 10
149.3858479138272
 20
128.0525744173342
 30
0.0
 10
149.5283350022856
 20
128.4770031034757
 30
0.0
 10
149.7770550189506
 20
129.3482981657876
 30
0.0
 10
149.8837374232622
 20
129.7977031816182
 30
0.0
 10
150.1408091248949
 20
131.1634818902727
 30
0.0
 10
150.2283293671425
 20
132.0891974940978
 30
0.0
 10
150.2275347053685
 20
133.5017291653661
 30
0.0
 10
150.204628264108
 20
133.9787831855741
 30
0.0
 10
150.1151433911941
 20
134.9150731928564
 30
0.0
 10
150.0491850700866
 20
135.3730588147168
 30
0.0
 10
149.7930023332176
 20
136.7191175230046
 30
0.0
 10
149.5449392301949
 20
137.5795136239552
 30
0.0
 10
149.226340863115
 20
138.4062650994659
 30
0.0
  0
SPLINE
  5
243
330
1F
100
AcDbEntity
  8
0
  6
Continuous
 62
     7
370
    25
100
AcDbSpline
210
0.0
220
0.0
230
1.0
 70
     8
 71
     3
 72
    10
 73
     6
 74
     0
 42
0.00000001
 43
0.00000001
 40
0.0
 40
0.0
 40
0.0
 40
0.0
 40
0.5
 40
0.5
 40
1.0
 40
1.0
 40
1.0
 40
1.0
 10
147.0004883000996
 20
123.7839833573565
 30
0.0
 10
147.4760375039816
 20
124.3729318454358
 30
0.0
 10
147.8983733911227
 20
124.9907290175132
 30
0.0
 10
148.6413954321106
 20
126.2799054280564
 30
0.0
 10
148.9618837855976
 20
126.9524025244587
 30
0.0
 10
149.226340863115
 20
127.6386592716311
 30
0.0
  0
LWPOLYLINE
  5
244
330
1F
100
AcDbEntity
  8
0
  6
Continuous
 62
     7
370
    25
100
AcDbPolyline
 90
        9
 70
   128
 43
0.0
 10
149.2263408631
 20
138.4062650995
 10
149.4330708342
 20
138.2032870335
 10
149.775640268
 20
138.0589939514
 10
150.2489189947
 20
137.9755467234
 10
150.8458193994
 20
137.9541950184
 10
151.5574025629
 20
137.9952585903
 10
152.3730121275
 20
138.098122489
 10
153.2804338814
 20
138.2612462699
 10
154.2660786739
 20
138.4821870625
  0
SPLINE
  5
245
330
1F
100
AcDbEntity
  8
0
  6
Continuous
 62
     7
370
    25
100
AcDbSpline
210
0.0
220
0.0
230
1.0
 70
     8
 71
     3
 72
    22
 73
    18
 74
     0
 42
0.00000001
 43
0.00000001
 40
0.0
 40
0.0
 40
0.0
 40
0.0
 40
0.2500000000000001
 40
0.2500000000000001
 40
0.3750000000000001
 40
0.3750000000000001
 40
0.4375000000000001
 40
0.4375000000000001
 40
0.5000000000000001
 40
0.5000000000000001
 40
0.6250000000000001
 40
0.6250000000000001
 40
0.7500000000000002
 40
0.7500000000000002
 40
0.8750000000000002
 40
0.8750000000000002
 40
1.0
 40
1.0
 40
1.0
 40
1.0
 10
154.2660786738828
 20
138.482187062536
 30
0.0
 10
154.7134119652311
 20
137.6445064869688
 30
0.0
 10
155.0615041078761
 20
136.7724028412465
 30
0.0
 10
155.4210109504745
 20
135.4078269963763
 30
0.0
 10
155.513575221587
 20
134.9435074266863
 30
0.0
 10
155.6078032641424
 20
134.2315485102065
 30
0.0
 10
155.6316426481465
 20
133.991873468521
 30
0.0
 10
155.6634099056227
 20
133.5153960518824
 30
0.0
 10
155.6714875744798
 20
133.2775919959439
 30
0.0
 10
155.6726390561234
 20
132.5654650602403
 30
0.0
 10
155.6426825675656
 20
132.0924245627911
 30
0.0
 10
155.5218360432116
 20
131.1497364536488
 30
0.0
 10
155.4302995077943
 20
130.6779683300605
 30
0.0
 10
155.1888485117778
 20
129.7506420694947
 30
0.0
 10
155.0393925045022
 20
129.2960818068134
 30
0.0
 10
154.6901955355736
 20
128.412568730757
 30
0.0
 10
154.490114424265
 20
127.9822687853312
 30
0.0
 10
154.2660786738828
 20
127.562737308561
 30
0.0
  0
LWPOLYLINE
  5
246
330
1F
100
AcDbEntity
  8
0
  6
Continuous
 62
     7
370
    25
100
AcDbPolyline
 90
        9
 70
   128
 43
0.0
 10
149.2263408631
 20
127.6386592716
 10
149.4330708342
 20
127.8416373376
 10
149.775640268
 20
127.9859304197
 10
150.2489189947
 20
128.0693776477
 10
150.8458193994
 20
128.0907293527
 10
151.5574025629
 20
128.0496657808
 10
152.3730121275
 20
127.9468018821
 10
153.2804338814
 20
127.7836781012
 10
154.2660786739
 20
127.5627373086
  0
SPLINE
  5
247
330
1F
100
AcDbEntity
  8
0
  6
Continuous
 62
     7
370
    25
100
AcDbSpline
210
0.0
220
0.0
230
1.0
 70
     8
 71
     3
 72
    22
 73
    18
 74
     0
 42
0.00000001
 43
0.00000001
 40
0.0
 40
0.0
 40
0.0
 40
0.0
 40
0.2500000000000001
 40
0.2500000000000001
 40
0.3750000000000001
 40
0.3750000000000001
 40
0.4375000000000001
 40
0.4375000000000001
 40
0.5000000000000001
 40
0.5000000000000001
 40
0.6250000000000001
 40
0.6250000000000001
 40
0.7500000000000002
 40
0.7500000000000002
 40
0.8750000000000002
 40
0.8750000000000002
 40
1.0
 40
1.0
 40
1.0
 40
1.0
 10
117.3019980286542
 20
138.482187062536
 30
0.0
 10
116.8546647373059
 20
137.6445064869688
 30
0.0
 10
116.5065725946609
 20
136.7724028412465
 30
0.0
 10
116.1470657520625
 20
135.4078269963763
 30
0.0
 10
116.0545014809499
 20
134.9435074266863
 30
0.0
 10
115.9602734383946
 20
134.2315485102065
 30
0.0
 10
115.9364340543904
 20
133.991873468521
 30
0.0
 10
115.9046667969143
 20
133.5153960518824
 30
0.0
 10
115.8965891280571
 20
133.2775919959439
 30
0.0
 10
115.8954376464136
 20
132.5654650602403
 30
0.0
 10
115.9253941349714
 20
132.0924245627911
 30
0.0
 10
116.0462406593254
 20
131.1497364536488
 30
0.0
 10
116.1377771947426
 20
130.6779683300605
 30
0.0
 10
116.3792281907591
 20
129.7506420694947
 30
0.0
 10
116.5286841980348
 20
129.2960818068134
 30
0.0
 10
116.8778811669634
 20
128.412568730757
 30
0.0
 10
117.0779622782719
 20
127.9822687853312
 30
0.0
 10
117.3019980286542
 20
127.562737308561
 30
0.0
  0
LWPOLYLINE
  5
248
330
1F
100
AcDbEntity
  8
0
  6
Continuous
 62
     7
370
    25
100
AcDbPolyline
 90
        9
 70
   128
 43
0.0
 10
122.3417358394
 20
138.4062650995
 10
122.1350058683
 20
138.2032870335
 10
121.7924364345
 20
138.0589939514
 10
121.3191577078
 20
137.9755467234
 10
120.7222573032
 20
137.9541950184
 10
120.0106741396
 20
137.9952585903
 10
119.1950645751
 20
138.098122489
 10
118.2876428211
 20
138.2612462699
 10
117.3019980287
 20
138.4821870625
  0
LWPOLYLINE
  5
249
330
1F
100
AcDbEntity
  8
0
  6
Continuous
 62
     7
370
    25
100
AcDbPolyline
 90
        9
 70
   128
 43
0.0
 10
122.3417358394
 20
127.6386592716
 10
122.1350058683
 20
127.8416373376
 10
121.7924364345
 20
127.9859304197
 10
121.3191577078
 20
128.0693776477
 10
120.7222573032
 20
128.0907293527
 10
120.0106741396
 20
128.0496657808
 10
119.1950645751
 20
127.9468018821
 10
118.2876428211
 20
127.7836781012
 10
117.3019980287
 20
127.5627373086
  0
SPLINE
  5
24A
330
1F
100
AcDbEntity
  8
0
  6
Continuous
 62
     7
370
    25
100
AcDbSpline
210
0.0
220
0.0
230
1.0
 70
     8
 71
     3
 72
    14
 73
    10
 74
     0
 42
0.00000001
 43
0.00000001
 40
0.0
 40
0.0
 40
0.0
 40
0.0
 40
0.2500000000000001
 40
0.2500000000000001
 40
0.5000000000000002
 40
0.5000000000000002
 40
0.7500000000000001
 40
0.7500000000000001
 40
1.0
 40
1.0
 40
1.0
 40
1.0
 10
123.3973472029704
 20
142.3778142893082
 30
0.0
 10
122.9142627530685
 20
141.9944167565682
 30
0.0
 10
122.4367837424757
 20
141.6116900650697
 30
0.0
 10
121.4758884283447
 20
140.8728028972006
 30
0.0
 10
120.9922659087703
 20
140.5169102165941
 30
0.0
 10
119.9989993364349
 20
139.8507205631593
 30
0.0
 10
119.4891960685569
 20
139.5404854426925
 30
0.0
 10
118.426941161383
 20
138.9721218854079
 30
0.0
 10
117.8740257412012
 20
138.7138938468977
 30
0.0
 10
117.3019980286542
 20
138.482187062536
 30
0.0
  0
ARC
  5
24B
330
1F
100
AcDbEntity
  8
0
  6
Continuous
 62
     7
370
    25
100
AcDbCircle
 10
124.1102148674
 20
143.5984970867
 30
0.0
 40
1.413593576234123
100
AcDbArc
 50
239.7154597792
 51
288.8779787662
  0
ARC
  5
24C
330
1F
100
AcDbEntity
  8
0
  6
Continuous
 62
     7
370
    25
100
AcDbCircle
 10
147.4578618351
 20
143.5984970867
 30
0.0
 40
1.413593576234234
100
AcDbArc
 50
251.1220212338
 51
300.2845402208
  0
SPLINE
  5
24D
330
1F
100
AcDbEntity
  8
0
  6
Continuous
 62
     7
370
    25
100
AcDbSpline
210
0.0
220
0.0
230
1.0
 70
     8
 71
     3
 72
    14
 73
    10
 74
     0
 42
0.00000001
 43
0.00000001
 40
0.0
 40
0.0
 40
0.0
 40
0.0
 40
0.2500000000000001
 40
0.2500000000000001
 40
0.5000000000000002
 40
0.5000000000000002
 40
0.7500000000000001
 40
0.7500000000000001
 40
1.0
 40
1.0
 40
1.0
 40
1.0
 10
148.1707294995666
 20
142.3778142893082
 30
0.0
 10
148.6538139494685
 20
141.9944167565682
 30
0.0
 10
149.1312929600612
 20
141.6116900650697
 30
0.0
 10
150.0921882741923
 20
140.8728028972006
 30
0.0
 10
150.5758107937666
 20
140.5169102165941
 30
0.0
 10
151.569077366102
 20
139.8507205631593
 30
0.0
 10
152.0788806339801
 20
139.5404854426925
 30
0.0
 10
153.141135541154
 20
138.9721218854079
 30
0.0
 10
153.6940509613357
 20
138.7138938468977
 30
0.0
 10
154.2660786738828
 20
138.482187062536
 30
0.0
  0
SPLINE
  5
24E
330
1F
100
AcDbEntity
  8
0
  6
Continuous
 62
     7
370
    25
100
AcDbSpline
210
0.0
220
0.0
230
1.0
 70
     8
 71
     3
 72
    14
 73
    10
 74
     0
 42
0.00000001
 43
0.00000001
 40
0.0
 40
0.0
 40
0.0
 40
0.0
 40
0.25
 40
0.25
 40
0.5
 40
0.5
 40
0.75
 40
0.75
 40
1.0
 40
1.0
 40
1.0
 40
1.0
 10
117.3019980286542
 20
127.562737308561
 30
0.0
 10
117.8724160972172
 20
127.3316825300782
 30
0.0
 10
118.4203605257437
 20
127.0759615993471
 30
0.0
 10
119.4801965539261
 20
126.509610752239
 30
0.0
 10
119.9931409992709
 20
126.1979646726718
 30
0.0
 10
120.9901046681794
 20
125.5296307184218
 30
0.0
 10
121.4746892663422
 20
125.1730289239854
 30
0.0
 10
122.4366300858634
 20
124.4333670946756
 30
0.0
 10
122.9141918671938
 20
124.050563872745
 30
0.0
 10
123.3973472029704
 20
123.6671100817888
 30
0.0
  0
ARC
  5
24F
330
1F
100
AcDbEntity
  8
0
  6
Continuous
 62
     7
370
    25
100
AcDbCircle
 10
124.1102148674
 20
122.4464272844
 30
0.0
 40
1.413593576234284
100
AcDbArc
 50
71.1220212338
 51
120.2845402208
  0
SPLINE
  5
250
330
1F
100
AcDbEntity
  8
0
  6
Continuous
 62
     7
370
    25
100
AcDbSpline
210
0.0
220
0.0
230
1.0
 70
     8
 71
     3
 72
    14
 73
    10
 74
     0
 42
0.00000001
 43
0.00000001
 40
0.0
 40
0.0
 40
0.0
 40
0.0
 40
0.25
 40
0.25
 40
0.5
 40
0.5
 40
0.75
 40
0.75
 40
1.0
 40
1.0
 40
1.0
 40
1.0
 10
154.2660786738828
 20
127.562737308561
 30
0.0
 10
153.6956606053198
 20
127.3316825300782
 30
0.0
 10
153.1477161767933
 20
127.0759615993471
 30
0.0
 10
152.0878801486109
 20
126.509610752239
 30
0.0
 10
151.5749357032661
 20
126.1979646726718
 30
0.0
 10
150.5779720343575
 20
125.5296307184218
 30
0.0
 10
150.0933874361948
 20
125.1730289239854
 30
0.0
 10
149.1314466166735
 20
124.4333670946756
 30
0.0
 10
148.6538848353431
 20
124.050563872745
 30
0.0
 10
148.1707294995666
 20
123.6671100817888
 30
0.0
  0
ARC
  5
251
330
1F
100
AcDbEntity
  8
0
  6
Continuous
 62
     7
370
    25
100
AcDbCircle
 10
147.4578618351
 20
122.4464272844
 30
0.0
 40
1.413593576234342
100
AcDbArc
 50
59.7154597792
 51
108.8779787662
  0
SPLINE
  5
252
330
1F
100
AcDbEntity
  8
0
  6
Continuous
 62
     7
370
    25
100
AcDbSpline
210
0.0
220
0.0
230
1.0
 70
     8
 71
     3
 72
    22
 73
    18
 74
     0
 42
0.00000001
 43
0.00000001
 40
0.0
 40
0.0
 40
0.0
 40
0.0
 40
0.0625
 40
0.0625
 40
0.1249999999999999
 40
0.1249999999999999
 40
0.2499999999999999
 40
0.2499999999999999
 40
0.3749999999999999
 40
0.3749999999999999
 40
0.5
 40
0.5
 40
0.6249999999999999
 40
0.6249999999999999
 40
0.7499999999999999
 40
0.7499999999999999
 40
1.0
 40
1.0
 40
1.0
 40
1.0
 10
135.1870139255384
 20
147.7496690034434
 30
0.0
 10
134.9177952903967
 20
147.7408787903534
 30
0.0
 10
134.6472227455855
 20
147.7256682320005
 30
0.0
 10
134.1061047679064
 20
147.6817268964411
 30
0.0
 10
133.8354922591033
 20
147.6530189190964
 30
0.0
 10
133.0250886019361
 20
147.5463864980278
 30
0.0
 10
132.4867819565683
 20
147.447981960821
 30
0.0
 10
131.417179405733
 20
147.1957283835565
 30
0.0
 10
130.8851660337669
 20
147.0416936108435
 30
0.0
 10
129.8317175390928
 20
146.6775121537991
 30
0.0
 10
129.3172483997912
 20
146.4698598569375
 30
0.0
 10
128.311913193157
 20
146.0055355792483
 30
0.0
 10
127.8210514172502
 20
145.7488492789201
 30
0.0
 10
126.8623067905084
 20
145.1875674787647
 30
0.0
 10
126.3928353038645
 20
144.881760581108
 30
0.0
 10
125.0301617626558
 20
143.9024151646614
 30
0.0
 10
124.1881330527495
 20
143.1705397811244
 30
0.0
 10
123.3973472029685
 20
142.3778142893096
 30
0.0
  0
ARC
  5
253
330
1F
100
AcDbEntity
  8
0
  6
Continuous
 62
     7
370
    25
100
AcDbCircle
 10
135.5184853131
 20
148.8448163571
 30
0.0
 40
1.144211958955694
100
AcDbArc
 50
253.1603603342
 51
265.5031405033
  0
ARC
  5
254
330
1F
100
AcDbEntity
  8
0
  6
Continuous
 62
     7
370
    25
100
AcDbCircle
 10
136.0495913895
 20
148.8448163571
 30
0.0
 40
1.144211958955611
100
AcDbArc
 50
274.4968594967
 51
286.8396396658
  0
SPLINE
  5
255
330
1F
100
AcDbEntity
  8
0
  6
Continuous
 62
     7
370
    25
100
AcDbSpline
210
0.0
220
0.0
230
1.0
 70
     8
 71
     3
 72
    22
 73
    18
 74
     0
 42
0.00000001
 43
0.00000001
 40
0.0
 40
0.0
 40
0.0
 40
0.0
 40
0.0625
 40
0.0625
 40
0.1249999999999999
 40
0.1249999999999999
 40
0.2499999999999999
 40
0.2499999999999999
 40
0.3749999999999999
 40
0.3749999999999999
 40
0.5
 40
0.5
 40
0.6249999999999999
 40
0.6249999999999999
 40
0.7499999999999999
 40
0.7499999999999999
 40
1.0
 40
1.0
 40
1.0
 40
1.0
 10
136.3810627769986
 20
147.7496690034434
 30
0.0
 10
136.6502814121403
 20
147.7408787903535
 30
0.0
 10
136.9208539569515
 20
147.7256682320005
 30
0.0
 10
137.4619719346306
 20
147.6817268964411
 30
0.0
 10
137.7325844434337
 20
147.6530189190964
 30
0.0
 10
138.5429881006009
 20
147.5463864980278
 30
0.0
 10
139.0812947459686
 20
147.447981960821
 30
0.0
 10
140.150897296804
 20
147.1957283835565
 30
0.0
 10
140.68291066877
 20
147.0416936108435
 30
0.0
 10
141.7363591634441
 20
146.6775121537991
 30
0.0
 10
142.2508283027457
 20
146.4698598569375
 30
0.0
 10
143.25616350938
 20
146.0055355792483
 30
0.0
 10
143.7470252852868
 20
145.7488492789201
 30
0.0
 10
144.7057699120286
 20
145.1875674787647
 30
0.0
 10
145.1752413986724
 20
144.881760581108
 30
0.0
 10
146.5379149398812
 20
143.9024151646614
 30
0.0
 10
147.3799436497875
 20
143.1705397811244
 30
0.0
 10
148.1707294995685
 20
142.3778142893096
 30
0.0
  0
ARC
  5
256
330
1F
100
AcDbEntity
  8
0
  6
Continuous
 62
     7
370
    25
100
AcDbCircle
 10
138.0203808916
 20
136.083743838
 30
0.0
 40
11.943404025178
100
AcDbArc
 50
31.8023960484
 51
88.3950039333
  0
SPLINE
  5
257
330
1F
100
AcDbEntity
  8
0
  6
Continuous
 62
     7
370
    25
100
AcDbSpline
210
0.0
220
0.0
230
1.0
 70
     8
 71
     3
 72
     8
 73
     4
 74
     0
 42
0.00000001
 43
0.00000001
 40
0.0
 40
0.0
 40
0.0
 40
0.0
 40
1.0
 40
1.0
 40
1.0
 40
1.0
 10
138.3549013353353
 20
148.0224621855485
 30
0.0
 10
137.576319470236
 20
148.0224621855485
 30
0.0
 10
136.9240320285324
 20
147.9355845184234
 30
0.0
 10
136.3810627769986
 20
147.7496690034434
 30
0.0
  0
ARC
  5
258
330
1F
100
AcDbEntity
  8
0
  6
Continuous
 62
     7
370
    25
100
AcDbCircle
 10
133.5476958109
 20
136.083743838
 30
0.0
 40
11.94340402517794
100
AcDbArc
 50
91.6049960667
 51
148.1976039516
  0
SPLINE
  5
259
330
1F
100
AcDbEntity
  8
0
  6
Continuous
 62
     7
370
    25
100
AcDbSpline
210
0.0
220
0.0
230
1.0
 70
     8
 71
     3
 72
     8
 73
     4
 74
     0
 42
0.00000001
 43
0.00000001
 40
0.0
 40
0.0
 40
0.0
 40
0.0
 40
1.0
 40
1.0
 40
1.0
 40
1.0
 10
133.2131753672017
 20
148.0224621855485
 30
0.0
 10
133.991757232301
 20
148.0224621855485
 30
0.0
 10
134.6440446740045
 20
147.9355845184234
 30
0.0
 10
135.1870139255384
 20
147.7496690034434
 30
0.0
  0
LWPOLYLINE
  5
25A
330
1F
100
AcDbEntity
  8
0
  6
Continuous
 62
     7
370
    25
100
AcDbPolyline
 90
        9
 70
   128
 43
0.0
 10
123.6585995427
 20
148.0224621855
 10
122.6401938199
 20
147.8545163584
 10
121.6445930293
 20
147.3544396502
 10
120.6940914373
 20
146.5334301674
 10
119.8099734141
 20
145.409872592
 10
119.0120368175
 20
144.0089264983
 10
118.3181496635
 20
142.3619629596
 10
117.7438500126
 20
140.5058620633
 10
117.3019980287
 20
138.4821870625
  0
LINE
  5
25B
330
1F
100
AcDbEntity
  8
0
  6
Continuous
 62
     7
370
    25
100
AcDbLine
 10
123.6585995427
 20
148.0224621855
 30
0.0
 11
133.2131753672
 21
148.0224621855
 31
0.0
  0
LINE
  5
25C
330
1F
100
AcDbEntity
  8
0
  6
Continuous
 62
     7
370
    25
100
AcDbLine
 10
123.6585995427
 20
118.0224621855
 30
0.0
 11
127.1840383513
 21
118.0224621855
 31
0.0
  0
LWPOLYLINE
  5
25D
330
1F
100
AcDbEntity
  8
0
  6
Continuous
 62
     7
370
    25
100
AcDbPolyline
 90
        9
 70
   128
 43
0.0
 10
117.3019980287
 20
127.5627373086
 10
117.7438500126
 20
125.5390623078
 10
118.3181496635
 20
123.6829614115
 10
119.0120368175
 20
122.0359978728
 10
119.8099734141
 20
120.6350517791
 10
120.6940914373
 20
119.5114942037
 10
121.6445930293
 20
118.6904847209
 10
122.6401938199
 20
118.1904080127
 10
123.6585995427
 20
118.0224621855
  0
LINE
  5
25E
330
1F
100
AcDbEntity
  8
0
  6
Continuous
 62
     7
370
    25
100
AcDbLine
 10
147.9094771599
 20
148.0224621855
 30
0.0
 11
138.3549013353
 21
148.0224621855
 31
0.0
  0
LWPOLYLINE
  5
25F
330
1F
100
AcDbEntity
  8
0
  6
Continuous
 62
     7
370
    25
100
AcDbPolyline
 90
        9
 70
   128
 43
0.0
 10
147.9094771599
 20
148.0224621855
 10
148.9278828827
 20
147.8545163584
 10
149.9234836733
 20
147.3544396502
 10
150.8739852652
 20
146.5334301674
 10
151.7581032884
 20
145.409872592
 10
152.5560398851
 20
144.0089264983
 10
153.249927039
 20
142.3619629596
 10
153.8242266899
 20
140.5058620633
 10
154.2660786739
 20
138.4821870625
  0
LINE
  5
260
330
1F
100
AcDbEntity
  8
0
  6
Continuous
 62
     7
370
    25
100
AcDbLine
 10
147.9094771599
 20
118.0224621855
 30
0.0
 11
144.3840383513
 21
118.0224621855
 31
0.0
  0
LWPOLYLINE
  5
261
330
1F
100
AcDbEntity
  8
0
  6
Continuous
 62
     7
370
    25
100
AcDbPolyline
 90
        9
 70
   128
 43
0.0
 10
154.2660786739
 20
127.5627373086
 10
153.8242266899
 20
125.5390623078
 10
153.249927039
 20
123.6829614115
 10
152.5560398851
 20
122.0359978728
 10
151.7581032884
 20
120.6350517791
 10
150.8739852652
 20
119.5114942037
 10
149.9234836733
 20
118.6904847209
 10
148.9278828827
 20
118.1904080127
 10
147.9094771599
 20
118.0224621855
  0
SPLINE
  5
262
330
1F
100
AcDbEntity
  8
0
  6
Continuous
 62
     7
370
    25
100
AcDbSpline
210
0.0
220
0.0
230
1.0
 70
     8
 71
     3
 72
    10
 73
     6
 74
     0
 42
0.00000001
 43
0.00000001
 40
0.0
 40
0.0
 40
0.0
 40
0.0
 40
0.5
 40
0.5
 40
1.0
 40
1.0
 40
1.0
 40
1.0
 10
135.1870139255384
 20
147.7496690034434
 30
0.0
 10
135.3820111301123
 20
147.7555644430413
 30
0.0
 10
135.5807205828643
 20
147.7587291236577
 30
0.0
 10
135.9872021910707
 20
147.758730720674
 30
0.0
 10
136.1860594083826
 20
147.7555646294016
 30
0.0
 10
136.3810627769986
 20
147.7496690034434
 30
0.0
  0
LINE
  5
263
330
1F
100
AcDbEntity
  8
0
  6
Continuous
 62
     7
370
    25
100
AcDbLine
 10
138.3549013353
 20
148.0224621855
 30
0.0
 11
133.2131753672
 21
148.0224621855
 31
0.0
  0
LINE
  5
264
330
1F
100
AcDbEntity
  8
0
  6
Continuous
 62
     7
370
    25
100
AcDbLine
 10
115.0950693506
 20
118.0224621855
 30
0.0
 11
123.6585995427
 21
118.0224621855
 31
0.0
  0
LWPOLYLINE
  5
265
330
1F
100
AcDbEntity
  8
0
  6
Continuous
 62
     7
370
    25
100
AcDbPolyline
 90
       21
 70
   128
 43
0.0
 10
115.0950693506
 20
148.0224621855
 10
114.0274453136
 20
147.8377872945
 10
112.9861097236
 20
147.28830993
 10
111.9967037189
 20
146.3875600484
 10
111.0835897589
 20
145.1577171012
 10
110.2692517398
 20
143.6290639033
 10
109.5737413662
 20
141.8392409699
 10
109.0141844119
 20
139.8323196816
 10
108.604359026
 20
137.6577171012
 10
108.3543564698
 20
135.3689791612
 10
108.2703326358
 20
133.0224621855
 10
108.3543564698
 20
130.6759452099
 10
108.604359026
 20
128.3872072699
 10
109.0141844119
 20
126.2126046895
 10
109.5737413662
 20
124.2056834012
 10
110.2692517398
 20
122.4158604678
 10
111.0835897589
 20
120.8872072699
 10
111.9967037189
 20
119.6573643227
 10
112.9861097236
 20
118.7566144411
 10
114.0274453136
 20
118.2071370766
 10
115.0950693506
 20
118.0224621855
  0
LINE
  5
266
330
1F
100
AcDbEntity
  8
0
  6
Continuous
 62
     7
370
    25
100
AcDbLine
 10
115.0950693506
 20
148.0224621855
 30
0.0
 11
123.6585995427
 21
148.0224621855
 31
0.0
  0
LINE
  5
267
330
1F
100
AcDbEntity
  8
0
  6
Continuous
 62
     7
370
    25
100
AcDbLine
 10
156.4730073519
 20
148.0224621855
 30
0.0
 11
147.9094771599
 21
148.0224621855
 31
0.0
  0
LWPOLYLINE
  5
268
330
1F
100
AcDbEntity
  8
0
  6
Continuous
 62
     7
370
    25
100
AcDbPolyline
 90
       21
 70
   128
 43
0.0
 10
156.4730073519
 20
148.0224621855
 10
157.5406313889
 20
147.8377872945
 10
158.5819669789
 20
147.28830993
 10
159.5713729837
 20
146.3875600484
 10
160.4844869437
 20
145.1577171012
 10
161.2988249628
 20
143.6290639033
 10
161.9943353363
 20
141.8392409699
 10
162.5538922907
 20
139.8323196816
 10
162.9637176765
 20
137.6577171012
 10
163.2137202328
 20
135.3689791612
 10
163.2977440667
 20
133.0224621855
 10
163.2137202328
 20
130.6759452099
 10
162.9637176765
 20
128.3872072699
 10
162.5538922907
 20
126.2126046895
 10
161.9943353363
 20
124.2056834012
 10
161.2988249628
 20
122.4158604678
 10
160.4844869437
 20
120.8872072699
 10
159.5713729837
 20
119.6573643227
 10
158.5819669789
 20
118.7566144411
 10
157.5406313889
 20
118.2071370766
 10
156.4730073519
 20
118.0224621855
  0
LINE
  5
269
330
1F
100
AcDbEntity
  8
0
  6
Continuous
 62
     7
370
    25
100
AcDbLine
 10
156.4730073519
 20
118.0224621855
 30
0.0
 11
147.9094771599
 21
118.0224621855
 31
0.0
  0
LINE
  5
26A
330
1F
100
AcDbEntity
  8
0
  6
Continuous
 62
     7
370
    25
100
AcDbLine
 10
99.1706836827
 20
118.0224621855
 30
0.0
 11
115.0950693506
 21
118.0224621855
 31
0.0
  0
LINE
  5
26B
330
1F
100
AcDbEntity
  8
0
  6
Continuous
 62
     7
370
    25
100
AcDbLine
 10
99.1706836827
 20
148.0224621855
 30
0.0
 11
99.1706836827
 21
118.0224621855
 31
0.0
  0
LINE
  5
26C
330
1F
100
AcDbEntity
  8
0
  6
Continuous
 62
     7
370
    25
100
AcDbLine
 10
99.1706836827
 20
148.0224621855
 30
0.0
 11
115.0950693506
 21
148.0224621855
 31
0.0
  0
LINE
  5
26D
330
1F
100
AcDbEntity
  8
0
  6
Continuous
 62
     7
370
    25
100
AcDbLine
 10
172.3973930199
 20
148.0224621855
 30
0.0
 11
156.4730073519
 21
148.0224621855
 31
0.0
  0
LINE
  5
26E
330
1F
100
AcDbEntity
  8
0
  6
Continuous
 62
     7
370
    25
100
AcDbLine
 10
172.3973930199
 20
148.0224621855
 30
0.0
 11
172.3973930199
 21
118.0224621855
 31
0.0
  0
LINE
  5
26F
330
1F
100
AcDbEntity
  8
0
  6
Continuous
 62
     7
370
    25
100
AcDbLine
 10
172.3973930199
 20
118.0224621855
 30
0.0
 11
156.4730073519
 21
118.0224621855
 31
0.0
  0
LINE
  5
270
330
1F
100
AcDbEntity
  8
0
  6
Continuous
 62
     7
370
    25
100
AcDbLine
 10
94.5840383513
 20
148.0224621855
 30
0.0
 11
99.1706836827
 21
148.0224621855
 31
0.0
  0
LINE
  5
271
330
1F
100
AcDbEntity
  8
0
  6
Continuous
 62
     7
370
    25
100
AcDbLine
 10
94.5840383513
 20
118.0224621855
 30
0.0
 11
99.1706836827
 21
118.0224621855
 31
0.0
  0
LINE
  5
272
330
1F
100
AcDbEntity
  8
0
  6
Continuous
 62
     7
370
    25
100
AcDbLine
 10
94.5840383513
 20
118.0224621855
 30
0.0
 11
94.5840383513
 21
148.0224621855
 31
0.0
  0
LINE
  5
273
330
1F
100
AcDbEntity
  8
0
  6
Continuous
 62
     7
370
    25
100
AcDbLine
 10
176.9840383513
 20
148.0224621855
 30
0.0
 11
172.3973930199
 21
148.0224621855
 31
0.0
  0
LINE
  5
274
330
1F
100
AcDbEntity
  8
0
  6
Continuous
 62
     7
370
    25
100
AcDbLine
 10
176.9840383513
 20
118.0224621855
 30
0.0
 11
172.3973930199
 21
118.0224621855
 31
0.0
  0
LINE
  5
275
330
1F
100
AcDbEntity
  8
0
  6
Continuous
 62
     7
370
    25
100
AcDbLine
 10
176.9840383513
 20
118.0224621855
 30
0.0
 11
176.9840383513
 21
148.0224621855
 31
0.0
  0
SPLINE
  5
276
330
1F
100
AcDbEntity
  8
0
  6
Continuous
 62
     7
370
    25
100
AcDbSpline
210
0.0
220
0.0
230
1.0
 70
     8
 71
     3
 72
    21
 73
    17
 74
     0
 42
0.00000001
 43
0.00000001
 40
0.0
 40
0.0
 40
0.0
 40
0.0
 40
0.0744253596644119
 40
0.1594654728433945
 40
0.2430537979151431
 40
0.3266421229868915
 40
0.4116822361658743
 40
0.4952705612376228
 40
0.5788588863093712
 40
0.6638989994883542
 40
0.7474873245601026
 40
0.8166848884187198
 40
0.8872233607816257
 40
0.957440166279335
 40
0.9999794898814968
 40
1.0
 40
1.0
 40
1.0
 40
1.0
 10
179.6085570451405
 20
119.3849024230888
 30
0.0
 10
179.5905348255517
 20
119.4679753440516
 30
0.0
 10
179.5519200068747
 20
119.6459692789356
 30
0.0
 10
179.4888113239804
 20
121.0459154744672
 30
0.0
 10
179.4277915551233
 20
123.2297854328574
 30
0.0
 10
179.3667524642073
 20
126.0999713921299
 30
0.0
 10
179.3013232635921
 20
129.4389472406742
 30
0.0
 10
179.2402899292789
 20
133.0224911970971
 30
0.0
 10
179.1792470844496
 20
136.605860076465
 30
0.0
 10
179.1138467457461
 20
139.9453672377603
 30
0.0
 10
179.0561918705136
 20
142.6499754189259
 30
0.0
 10
179.0024684132772
 20
144.6416508506449
 30
0.0
 10
178.9487972994939
 20
145.9990054782806
 30
0.0
 10
178.9020701470135
 20
146.5439363018831
 30
0.0
 10
178.8757001687841
 20
146.7887664197865
 30
0.0
 10
178.8652783085753
 20
146.710487965945
 30
0.0
 10
178.86527328615
 20
146.7104502425748
 30
0.0
  0
SPLINE
  5
277
330
1F
100
AcDbEntity
  8
0
  6
Continuous
 62
     7
370
    25
100
AcDbSpline
210
0.0
220
0.0
230
1.0
 70
     8
 71
     3
 72
    18
 73
    14
 74
     0
 42
0.00000001
 43
0.00000001
 40
0.0
 40
0.0
 40
0.0
 40
0.0
 40
0.0625083500006682
 40
0.1648649420355359
 40
0.2689991730679214
 40
0.3713557651027889
 40
0.4728317362466123
 40
0.5760852167264459
 40
0.6802030526311135
 40
0.7825596446659812
 40
0.8866938756983663
 40
0.9890504677332339
 40
1.0
 40
1.0
 40
1.0
 40
1.0
 10
179.9340383512685
 20
121.3688994101942
 30
0.0
 10
179.9215079965029
 20
121.8114628090772
 30
0.0
 10
179.8884593524082
 20
122.9787178894483
 30
0.0
 10
179.8355696726421
 20
125.7098196570374
 30
0.0
 10
179.770057113707
 20
129.220934987162
 30
0.0
 10
179.7092120486265
 20
133.0132706837627
 30
0.0
 10
179.6485427088939
 20
136.7848875125677
 30
0.0
 10
179.5831379347877
 20
140.3294522626586
 30
0.0
 10
179.5218684614023
 20
143.3741538828625
 30
0.0
 10
179.460532988173
 20
145.7415106746113
 30
0.0
 10
179.3949713313203
 20
147.126811122032
 30
0.0
 10
179.3523333801742
 20
147.6850447092843
 30
0.0
 10
179.3296605385637
 20
147.4891461502784
 30
0.0
 10
179.3274695095057
 20
147.4702151559825
 30
0.0
  0
LINE
  5
278
330
1F
100
AcDbEntity
  8
0
  6
Continuous
 62
     7
370
    25
100
AcDbLine
 10
93.4527883492
 20
119.334360998
 30
0.0
 11
93.8277883492
 21
119.334360998
 31
0.0
  0
LINE
  5
279
330
1F
100
AcDbEntity
  8
0
  6
Continuous
 62
     7
370
    25
100
AcDbLine
 10
92.9840383513
 20
118.5224621855
 30
0.0
 11
93.4527883492
 21
119.334360998
 31
0.0
  0
SPLINE
  5
27A
330
1F
100
AcDbEntity
  8
0
  6
Continuous
 62
     7
370
    25
100
AcDbSpline
210
0.0
220
0.0
230
1.0
 70
     8
 71
     3
 72
    18
 73
    14
 74
     0
 42
0.00000001
 43
0.00000001
 40
0.0
 40
0.0
 40
0.0
 40
0.0
 40
0.0569447277585363
 40
0.1507614687560893
 40
0.2445782097536427
 40
0.3400242771492495
 40
0.4338410181468028
 40
0.5276577591443558
 40
0.6231038265399628
 40
0.7169205675375162
 40
0.8099301629352225
 40
0.9045689658892275
 40
1.0
 40
1.0
 40
1.0
 40
1.0
 10
92.88403835126847
 20
119.6019146505481
 30
0.0
 10
92.89698584729206
 20
119.8641873153608
 30
0.0
 10
92.93126441168359
 20
120.5585555864572
 30
0.0
 10
92.98405125097189
 20
122.6783662821814
 30
0.0
 10
93.04506988850152
 20
125.6813240972497
 30
0.0
 10
93.11050423412951
 20
129.2285297680567
 30
0.0
 10
93.17153799612701
 20
133.0219126332363
 30
0.0
 10
93.23257387658614
 20
136.8186119005688
 30
0.0
 10
93.29800179324614
 20
140.3557531722228
 30
0.0
 10
93.35886964997057
 20
143.3864705603561
 30
0.0
 10
93.41953145788254
 20
145.6938126710377
 30
0.0
 10
93.48494394579792
 20
147.2282706892126
 30
0.0
 10
93.52594990765373
 20
147.4241262378985
 30
0.0
 10
93.54653834717175
 20
147.5224621855485
 30
0.0
  0
LINE
  5
27B
330
1F
100
AcDbEntity
  8
0
  6
Continuous
 62
     7
370
    25
100
AcDbLine
 10
94.2900660418
 20
118.5739413871
 30
0.0
 11
94.2965383472
 21
118.5224621855
 31
0.0
  0
LINE
  5
27C
330
1F
100
AcDbEntity
  8
0
  6
Continuous
 62
     7
370
    25
100
AcDbLine
 10
93.8277883492
 20
119.334360998
 30
0.0
 11
94.2965383472
 21
118.5224621855
 31
0.0
  0
SPLINE
  5
27D
330
1F
100
AcDbEntity
  8
0
  6
Continuous
 62
     7
370
    25
100
AcDbSpline
210
0.0
220
0.0
230
1.0
 70
     8
 71
     3
 72
    14
 73
    10
 74
     0
 42
0.00000001
 43
0.00000001
 40
0.0
 40
0.0
 40
0.0
 40
0.0
 40
0.0918965940499276
 40
0.2423760614181666
 40
0.3954689234315532
 40
0.545948390799793
 40
0.6951332188673903
 40
0.8469312509612344
 40
0.9999999999999999
 40
0.9999999999999999
 40
0.9999999999999999
 40
0.9999999999999999
 10
179.9340383512685
 20
130.7435696866684
 30
0.0
 10
179.9215079988354
 20
131.501413068667
 30
0.0
 10
179.8884593586512
 20
133.500215048214
 30
0.0
 10
179.8355696516331
 20
136.8223912408569
 30
0.0
 10
179.7700572115395
 20
140.3547522722351
 30
0.0
 10
179.7092117106028
 20
143.3867339965709
 30
0.0
 10
179.6485439831529
 20
145.693741326557
 30
0.0
 10
179.5831330774951
 20
147.2282888296405
 30
0.0
 10
179.5421269020986
 20
147.424132301487
 30
0.0
 10
179.5215383553652
 20
147.5224621855485
 30
0.0
  0
SPLINE
  5
27E
330
1F
100
AcDbEntity
  8
0
  6
Continuous
 62
     7
370
    25
100
AcDbSpline
210
0.0
220
0.0
230
1.0
 70
     8
 71
     3
 72
    20
 73
    16
 74
     0
 42
0.00000001
 43
0.00000001
 40
0.0
 40
0.0
 40
0.0
 40
0.0
 40
0.0086573631120543
 40
0.0907937671802663
 40
0.1743566438584473
 40
0.2564930479266593
 40
0.3386294519948715
 40
0.4221923286730523
 40
0.5043287327412644
 40
0.5864651368094763
 40
0.6700280134876573
 40
0.7521644175558696
 40
0.8335941669649454
 40
0.9164502849382269
 40
1.0
 40
1.0
 40
1.0
 40
1.0
 10
178.7780106607111
 20
118.5739413870547
 30
0.0
 10
178.7758518508661
 20
118.5553081499691
 30
0.0
 10
178.7532114145218
 20
118.3598927829726
 30
0.0
 10
178.7106047324419
 20
118.9182998593859
 30
0.0
 10
178.6450465696649
 20
120.3033274180437
 30
0.0
 10
178.5840454945065
 20
122.65750434932
 30
0.0
 10
178.5230013365277
 20
125.6870254260032
 30
0.0
 10
178.4575739186609
 20
129.2270202545613
 30
0.0
 10
178.396538320852
 20
133.0223139458316
 30
0.0
 10
178.3355029313214
 20
136.8185022243963
 30
0.0
 10
178.2700748813851
 20
140.3557822182656
 30
0.0
 10
178.2092070599112
 20
143.3864629154568
 30
0.0
 10
178.1485452426653
 20
145.6938147414492
 30
0.0
 10
178.0831327572448
 20
147.2282701627787
 30
0.0
 10
178.0421267950523
 20
147.4241260619337
 30
0.0
 10
178.0215383553652
 20
147.5224621855485
 30
0.0
  0
LINE
  5
27F
330
1F
100
AcDbEntity
  8
0
  6
Continuous
 62
     7
370
    25
100
AcDbLine
 10
177.2780106607
 20
118.5739413871
 30
0.0
 11
177.2715383554
 21
118.5224621855
 31
0.0
  0
SPLINE
  5
280
330
1F
100
AcDbEntity
  8
0
  6
Continuous
 62
     7
370
    25
100
AcDbSpline
210
0.0
220
0.0
230
1.0
 70
     8
 71
     3
 72
    20
 73
    16
 74
     0
 42
0.00000001
 43
0.00000001
 40
0.0
 40
0.0
 40
0.0
 40
0.0
 40
0.0835700848942303
 40
0.1686020731605486
 40
0.2521824120265458
 40
0.3213733646032422
 40
0.3919050975709871
 40
0.462115194406269
 40
0.504650453711282
 40
0.5882307925772794
 40
0.6732627808435979
 40
0.7568431197095947
 40
0.840423458575592
 40
0.9254554468419106
 40
0.9999999999999999
 40
0.9999999999999999
 40
0.9999999999999999
 40
0.9999999999999999
 10
179.2402808198125
 20
119.3344175626913
 30
0.0
 10
179.2200533440555
 20
119.4242427498006
 30
0.0
 10
179.1792445504331
 20
119.6054644487836
 30
0.0
 10
179.1138480519769
 20
121.0425452418201
 30
0.0
 10
179.0561870090793
 20
123.1063022062265
 30
0.0
 10
179.0024833234259
 20
125.592797357697
 30
0.0
 10
178.9487401701448
 20
128.2778960031842
 30
0.0
 10
178.9022469223787
 20
130.8216156854072
 30
0.0
 10
178.8556348991073
 20
133.6031672088069
 30
0.0
 10
178.8041564153673
 20
136.606837376419
 30
0.0
 10
178.7388499198055
 20
139.9447284067046
 30
0.0
 10
178.6777783693838
 20
142.815186998662
 30
0.0
 10
178.6167670693684
 20
144.9990395577456
 30
0.0
 10
178.5536241406674
 20
146.3995159973176
 30
0.0
 10
178.5149793748914
 20
146.577551308935
 30
0.0
 10
178.4969268668539
 20
146.6607186882528
 30
0.0
  0
SPLINE
  5
281
330
1F
100
AcDbEntity
  8
0
  6
Continuous
 62
     7
370
    25
100
AcDbSpline
210
0.0
220
0.0
230
1.0
 70
     8
 71
     3
 72
    11
 73
     7
 74
     0
 42
0.00000001
 43
0.00000001
 40
0.0
 40
0.0
 40
0.0
 40
0.0
 40
0.0338029119390425
 40
0.3659139339879673
 40
0.7037931638778587
 40
0.9999999999999999
 40
0.9999999999999999
 40
0.9999999999999999
 40
0.9999999999999999
 10
92.88403835126847
 20
142.4146966155299
 30
0.0
 10
92.88612299009624
 20
142.5111621360813
 30
0.0
 10
92.90868904581929
 20
143.5553940112181
 30
0.0
 10
92.95120908661247
 20
144.9594241221544
 30
0.0
 10
93.01447427198895
 20
146.4080698043421
 30
0.0
 10
93.05310424018434
 20
146.5802748555832
 30
0.0
 10
93.0711498356831
 20
146.6607186882528
 30
0.0
  0
LINE
  5
282
330
1F
100
AcDbEntity
  8
0
  6
Continuous
 62
     7
370
    25
100
AcDbLine
 10
178.5840383513
 20
118.5224621855
 30
0.0
 11
178.1152883533
 21
119.334360998
 31
0.0
  0
LINE
  5
283
330
1F
100
AcDbEntity
  8
0
  6
Continuous
 62
     7
370
    25
100
AcDbLine
 10
178.1152883533
 20
119.334360998
 30
0.0
 11
177.7402883533
 21
119.334360998
 31
0.0
  0
LINE
  5
284
330
1F
100
AcDbEntity
  8
0
  6
Continuous
 62
     7
370
    25
100
AcDbLine
 10
177.7402883533
 20
119.334360998
 30
0.0
 11
177.2715383554
 21
118.5224621855
 31
0.0
  0
ARC
  5
285
330
1F
100
AcDbEntity
  8
0
  6
Continuous
 62
     7
370
    25
100
AcDbCircle
 10
135.6910961276
 20
148.1131497775
 30
0.0
 40
0.0907001248966493
100
AcDbArc
 50
270.9524997104
 51
301.3474944786
  0
ARC
  5
286
330
1F
100
AcDbEntity
  8
0
  6
Continuous
 62
     7
370
    25
100
AcDbCircle
 10
135.8769805749
 20
148.1131497775
 30
0.0
 40
0.0907001248964551
100
AcDbArc
 50
238.6525055213
 51
269.0475002896
  0
SPLINE
  5
287
330
1F
100
AcDbEntity
  8
0
  6
Continuous
 62
     7
370
    25
100
AcDbSpline
210
0.0
220
0.0
230
1.0
 70
     8
 71
     3
 72
     8
 73
     4
 74
     0
 42
0.00000001
 43
0.00000001
 40
0.0
 40
0.0
 40
0.0
 40
0.0
 40
1.0
 40
1.0
 40
1.0
 40
1.0
 10
135.7382808018473
 20
148.0356893413233
 30
0.0
 10
135.7687858347948
 20
148.0355965331536
 30
0.0
 10
135.7992908677422
 20
148.0355965331536
 30
0.0
 10
135.8297959006896
 20
148.0356893413233
 30
0.0
  0
ARC
  5
288
330
1F
100
AcDbEntity
  8
0
  6
Continuous
 62
     7
370
    25
100
AcDbCircle
 10
135.7840383513
 20
133.0224621855
 30
0.0
 40
28.25
100
AcDbArc
 50
32.0712506327
 51
90.0
  0
ARC
  5
289
330
1F
100
AcDbEntity
  8
0
  6
Continuous
 62
     7
370
    25
100
AcDbCircle
 10
135.7840383513
 20
133.0224621855
 30
0.0
 40
28.24999999999999
100
AcDbArc
 50
287.7235605749
 51
327.9287493673
  0
ARC
  5
28A
330
1F
100
AcDbEntity
  8
0
  6
Continuous
 62
     7
370
    25
100
AcDbCircle
 10
135.7840383513
 20
133.0224621855
 30
0.0
 40
28.24999999999999
100
AcDbArc
 50
212.0712506327
 51
252.2764394251
  0
ARC
  5
28B
330
1F
100
AcDbEntity
  8
0
  6
Continuous
 62
     7
370
    25
100
AcDbCircle
 10
135.7840383513
 20
133.0224621855
 30
0.0
 40
28.25
100
AcDbArc
 50
90.0
 51
147.9287493673
  0
ARC
  5
28C
330
1F
100
AcDbEntity
  8
0
  6
Continuous
 62
     8
370
    25
100
AcDbCircle
 10
135.8510659044
 20
47.8225434942
 30
0.0
 40
8.533209459508678
100
AcDbArc
 50
269.5499424436
 51
359.5729603829
  0
ARC
  5
28D
330
1F
100
AcDbEntity
  8
0
  6
Continuous
 62
     8
370
    25
100
AcDbCircle
 10
135.7170107982
 20
47.8225434942
 30
0.0
 40
8.533209459508706
100
AcDbArc
 50
180.4270396171
 51
270.4500575564
  0
ARC
  5
28E
330
1F
100
AcDbEntity
  8
0
  6
Continuous
 62
     8
370
    25
100
AcDbCircle
 10
135.7839499768
 20
47.8414873554
 30
0.0
 40
8.725597937695882
100
AcDbArc
 50
260.2519572101
 51
287.7275728924
  0
ARC
  5
28F
330
1F
100
AcDbEntity
  8
0
  6
Continuous
 62
     8
370
    25
100
AcDbCircle
 10
135.918593333
 20
47.2477818867
 30
0.0
 40
9.911851171780796
100
AcDbArc
 50
269.2221766407
 51
31.3425196411
  0
ARC
  5
290
330
1F
100
AcDbEntity
  8
0
  6
Continuous
 62
     8
370
    25
100
AcDbCircle
 10
135.6494833695
 20
47.2477818867
 30
0.0
 40
9.911851171780768
100
AcDbArc
 50
148.6574803589
 51
270.7778233593
  0
LINE
  5
291
330
1F
100
AcDbEntity
  8
0
  6
Continuous
 62
     8
370
    25
100
AcDbLine
 10
146.1404662036
 20
44.9088500667
 30
0.0
 11
146.3461763218
 21
44.8445298061
 31
0.0
  0
LINE
  5
292
330
1F
100
AcDbEntity
  8
0
  6
Continuous
 62
     8
370
    25
100
AcDbLine
 10
227.6890433408
 20
127.0973344144
 30
0.0
 11
227.6890433408
 21
138.9475899567
 31
0.0
  0
LINE
  5
293
330
1F
100
AcDbEntity
  8
0
  6
Continuous
 62
     8
370
    25
100
AcDbLine
 10
43.1246691469
 20
135.3947539698
 30
0.0
 11
43.1246691469
 21
137.2198955518
 31
0.0
  0
LINE
  5
294
330
1F
100
AcDbEntity
  8
0
  6
Continuous
 62
     8
370
    25
100
AcDbLine
 10
43.1246691469
 20
128.8250288193
 30
0.0
 11
43.1246691469
 21
135.3947539698
 31
0.0
  0
LINE
  5
295
330
1F
100
AcDbEntity
  8
0
  6
Continuous
 62
     8
370
    25
100
AcDbLine
 10
42.3640165496
 20
134.2804327117
 30
0.0
 11
42.5869184232
 21
134.2804327117
 31
0.0
  0
LINE
  5
296
330
1F
100
AcDbEntity
  8
0
  6
Continuous
 62
     8
370
    25
100
AcDbLine
 10
42.5024582473
 20
131.5696468508
 30
0.0
 11
42.3640165496
 21
131.5696468508
 31
0.0
  0
LINE
  5
297
330
1F
100
AcDbEntity
  8
0
  6
Continuous
 62
     8
370
    25
100
AcDbLine
 10
42.3640165496
 20
133.79706541
 30
0.0
 11
42.5182594717
 21
133.79706541
 31
0.0
  0
LINE
  5
298
330
1F
100
AcDbEntity
  8
0
  6
Continuous
 62
     8
370
    25
100
AcDbLine
 10
228.4434075556
 20
135.3947539698
 30
0.0
 11
228.4434075556
 21
128.8250288193
 31
0.0
  0
LINE
  5
299
330
1F
100
AcDbEntity
  8
0
  6
Continuous
 62
     8
370
    25
100
AcDbLine
 10
228.4434075556
 20
137.2198955518
 30
0.0
 11
228.4434075556
 21
135.3947539698
 31
0.0
  0
LINE
  5
29A
330
1F
100
AcDbEntity
  8
0
  6
Continuous
 62
     8
370
    25
100
AcDbLine
 10
228.9811582793
 20
134.2804327117
 30
0.0
 11
229.2040601529
 21
134.2804327117
 31
0.0
  0
LINE
  5
29B
330
1F
100
AcDbEntity
  8
0
  6
Continuous
 62
     8
370
    25
100
AcDbLine
 10
229.2040601529
 20
131.5696468508
 30
0.0
 11
229.0656184552
 21
131.5696468508
 31
0.0
  0
LINE
  5
29C
330
1F
100
AcDbEntity
  8
0
  6
Continuous
 62
     8
370
    25
100
AcDbLine
 10
229.0498172308
 20
133.79706541
 30
0.0
 11
229.2040601529
 21
133.79706541
 31
0.0
  0
LINE
  5
29D
330
1F
100
AcDbEntity
  8
0
  6
Continuous
 62
     8
370
    25
100
AcDbLine
 10
43.8790333618
 20
127.511937638
 30
0.0
 11
43.8790333618
 21
127.0973344144
 31
0.0
  0
LINE
  5
29E
330
1F
100
AcDbEntity
  8
0
  6
Continuous
 62
     8
370
    25
100
AcDbLine
 10
43.8790333618
 20
138.9475899567
 30
0.0
 11
43.8790333618
 21
127.511937638
 31
0.0
  0
LINE
  5
29F
330
1F
100
AcDbEntity
  8
0
  6
Continuous
 62
     8
370
    25
100
AcDbLine
 10
221.2220823084
 20
125.1222921286
 30
0.0
 11
221.2220823084
 21
124.2922254302
 31
0.0
  0
LINE
  5
2A0
330
1F
100
AcDbEntity
  8
0
  6
Continuous
 62
     8
370
    25
100
AcDbLine
 10
220.2886620945
 20
142.259834429
 30
0.0
 11
220.2886620945
 21
141.4238808908
 31
0.0
  0
LINE
  5
2A1
330
1F
100
AcDbEntity
  8
0
  6
Continuous
 62
     8
370
    25
100
AcDbLine
 10
225.5927645545
 20
124.3685159725
 30
0.0
 11
225.5927645545
 21
142.1672509762
 31
0.0
  0
ARC
  5
2A2
330
1F
100
AcDbEntity
  8
0
  6
Continuous
 62
     8
370
    25
100
AcDbCircle
 10
215.7488798648
 20
142.901519213
 30
0.0
 40
1.997193254156633
100
AcDbArc
 50
21.0122086051
 51
89.4244113789
  0
SPLINE
  5
2A3
330
1F
100
AcDbEntity
  8
0
  6
Continuous
 62
     8
370
    25
100
AcDbSpline
210
0.0
220
0.0
230
1.0
 70
     8
 71
     3
 72
    11
 73
     7
 74
     0
 42
0.00000001
 43
0.00000001
 40
0.0
 40
0.0
 40
0.0
 40
0.0
 40
0.2826501073666229
 40
0.8581489095904449
 40
0.8613649112870354
 40
1.0
 40
1.0
 40
1.0
 40
1.0
 10
218.9931557653177
 20
142.5977824458848
 30
0.0
 10
219.1054251621273
 20
142.5368549441358
 30
0.0
 10
219.4462842594406
 20
142.351874051409
 30
0.0
 10
219.8241382369579
 20
141.9548426814822
 30
0.0
 10
220.1345173303073
 20
141.5806470773762
 30
0.0
 10
220.1960198250385
 20
141.5016621442199
 30
0.0
 10
220.2561279552512
 20
141.4244679317293
 30
0.0
  0
SPLINE
  5
2A4
330
1F
100
AcDbEntity
  8
0
  6
Continuous
 62
     8
370
    25
100
AcDbSpline
210
0.0
220
0.0
230
1.0
 70
     8
 71
     3
 72
     9
 73
     5
 74
     0
 42
0.00000001
 43
0.00000001
 40
0.0
 40
0.0
 40
0.0
 40
0.0
 40
0.3530215453708999
 40
1.0
 40
1.0
 40
1.0
 40
1.0
 10
221.1774759752346
 20
125.1214855115565
 30
0.0
 10
220.9853784629003
 20
124.9281745061963
 30
0.0
 10
220.4412260879158
 20
124.3805846837193
 30
0.0
 10
219.920988848108
 20
124.0763631195598
 30
0.0
 10
219.5844065626567
 20
123.8795383221151
 30
0.0
  0
ARC
  5
2A5
330
1F
100
AcDbEntity
  8
0
  6
Continuous
 62
     8
370
    25
100
AcDbCircle
 10
215.8545659411
 20
123.5266308518
 30
0.0
 40
1.935629434209549
100
AcDbArc
 50
269.1328601458
 51
335.5788705465
  0
ARC
  5
2A6
330
1F
100
AcDbEntity
  8
0
  6
Continuous
 62
     8
370
    25
100
AcDbCircle
 10
215.7486938983
 20
142.94949902
 30
0.0
 40
1.996106121819848
100
AcDbArc
 50
19.5637302954
 51
89.4187596751
  0
LINE
  5
2A7
330
1F
100
AcDbEntity
  8
0
  6
Continuous
 62
     8
370
    25
100
AcDbLine
 10
211.7427645545
 20
145.2396969367
 30
0.0
 11
211.7427645545
 21
145.0140173876
 31
0.0
  0
LINE
  5
2A8
330
1F
100
AcDbEntity
  8
0
  6
Continuous
 62
     8
370
    25
100
AcDbLine
 10
211.7427645545
 20
121.5217495611
 30
0.0
 11
211.7427645545
 21
121.2960700121
 31
0.0
  0
LINE
  5
2A9
330
1F
100
AcDbEntity
  8
0
  6
Continuous
 62
     8
370
    25
100
AcDbLine
 10
215.7689431641
 20
144.945502431
 30
0.0
 11
215.7689431641
 21
145.1694197276
 31
0.0
  0
LINE
  5
2AA
330
1F
100
AcDbEntity
  8
0
  6
Continuous
 62
     8
370
    25
100
AcDbLine
 10
215.7689431641
 20
121.3663472211
 30
0.0
 11
215.7689431641
 21
121.3829360274
 31
0.0
  0
ARC
  5
2AB
330
1F
100
AcDbEntity
  8
0
  6
Continuous
 62
     8
370
    25
100
AcDbCircle
 10
215.7349628036
 20
123.3828596562
 30
0.0
 40
2.000212285190962
100
AcDbArc
 50
270.9734091321
 51
332.2807513659
  0
LINE
  5
2AC
330
1F
100
AcDbEntity
  8
0
  6
Continuous
 62
     8
370
    25
100
AcDbLine
 10
50.3459943941
 20
141.1680535313
 30
0.0
 11
50.3459943941
 21
141.9981202298
 31
0.0
  0
LINE
  5
2AD
330
1F
100
AcDbEntity
  8
0
  6
Continuous
 62
     8
370
    25
100
AcDbLine
 10
51.279414608
 20
124.0305112309
 30
0.0
 11
51.279414608
 21
124.8664647691
 31
0.0
  0
LINE
  5
2AE
330
1F
100
AcDbEntity
  8
0
  6
Continuous
 62
     8
370
    25
100
AcDbLine
 10
45.975312148
 20
141.9218296874
 30
0.0
 11
45.975312148
 21
124.1230946837
 31
0.0
  0
ARC
  5
2AF
330
1F
100
AcDbEntity
  8
0
  6
Continuous
 62
     8
370
    25
100
AcDbCircle
 10
55.8191968377
 20
123.388826447
 30
0.0
 40
1.997193254156763
100
AcDbArc
 50
201.0122086051
 51
269.4244113789
  0
SPLINE
  5
2B0
330
1F
100
AcDbEntity
  8
0
  6
Continuous
 62
     8
370
    25
100
AcDbSpline
210
0.0
220
0.0
230
1.0
 70
     8
 71
     3
 72
    11
 73
     7
 74
     0
 42
0.00000001
 43
0.00000001
 40
0.0
 40
0.0
 40
0.0
 40
0.0
 40
0.2826501073666217
 40
0.8581489095904445
 40
0.8613649112870351
 40
1.0
 40
1.0
 40
1.0
 40
1.0
 10
52.57492093721925
 20
123.6925632140405
 30
0.0
 10
52.46265154040962
 20
123.7534907157896
 30
0.0
 10
52.12179244309608
 20
123.9384716085163
 30
0.0
 10
51.74393846558023
 20
124.3355029784432
 30
0.0
 10
51.43355937222936
 20
124.7096985825491
 30
0.0
 10
51.37205687749825
 20
124.7886835157054
 30
0.0
 10
51.31194874728578
 20
124.8658777281961
 30
0.0
  0
SPLINE
  5
2B1
330
1F
100
AcDbEntity
  8
0
  6
Continuous
 62
     8
370
    25
100
AcDbSpline
210
0.0
220
0.0
230
1.0
 70
     8
 71
     3
 72
     9
 73
     5
 74
     0
 42
0.00000001
 43
0.00000001
 40
0.0
 40
0.0
 40
0.0
 40
0.0
 40
0.3530215453709022
 40
1.0
 40
1.0
 40
1.0
 40
1.0
 10
50.39060072730231
 20
141.1688601483688
 30
0.0
 10
50.5826982396366
 20
141.362171153729
 30
0.0
 10
51.12685061462118
 20
141.909760976206
 30
0.0
 10
51.64708785442891
 20
142.2139825403655
 30
0.0
 10
51.98367013988024
 20
142.4108073378102
 30
0.0
  0
ARC
  5
2B2
330
1F
100
AcDbEntity
  8
0
  6
Continuous
 62
     8
370
    25
100
AcDbCircle
 10
55.7135107614
 20
142.7637148081
 30
0.0
 40
1.935629434209693
100
AcDbArc
 50
89.1328601458
 51
155.5788705464
  0
ARC
  5
2B3
330
1F
100
AcDbEntity
  8
0
  6
Continuous
 62
     8
370
    25
100
AcDbCircle
 10
55.8193828042
 20
123.34084664
 30
0.0
 40
1.996106121819842
100
AcDbArc
 50
199.5637302954
 51
269.4187596751
  0
LINE
  5
2B4
330
1F
100
AcDbEntity
  8
0
  6
Continuous
 62
     8
370
    25
100
AcDbLine
 10
59.825312148
 20
144.7685960988
 30
0.0
 11
59.825312148
 21
144.9942756479
 31
0.0
  0
LINE
  5
2B5
330
1F
100
AcDbEntity
  8
0
  6
Continuous
 62
     8
370
    25
100
AcDbLine
 10
59.825312148
 20
121.0506487232
 30
0.0
 11
59.825312148
 21
121.2763282723
 31
0.0
  0
LINE
  5
2B6
330
1F
100
AcDbEntity
  8
0
  6
Continuous
 62
     8
370
    25
100
AcDbLine
 10
55.7991335384
 20
144.9239984388
 30
0.0
 11
55.7991335384
 21
144.9074096325
 31
0.0
  0
LINE
  5
2B7
330
1F
100
AcDbEntity
  8
0
  6
Continuous
 62
     8
370
    25
100
AcDbLine
 10
55.7991335384
 20
121.344843229
 30
0.0
 11
55.7991335384
 21
121.1209259323
 31
0.0
  0
ARC
  5
2B8
330
1F
100
AcDbEntity
  8
0
  6
Continuous
 62
     8
370
    25
100
AcDbCircle
 10
55.8331138989
 20
142.9074860037
 30
0.0
 40
2.00021228519055
100
AcDbArc
 50
90.9734091321
 51
152.2807513659
  0
SPLINE
  5
2B9
330
1F
100
AcDbEntity
  8
0
  6
Continuous
 62
     8
370
    25
100
AcDbSpline
210
0.0
220
0.0
230
1.0
 70
     8
 71
     3
 72
    11
 73
     7
 74
     0
 42
0.00000001
 43
0.00000001
 40
0.0
 40
0.0
 40
0.0
 40
0.0
 40
0.5932149667367632
 40
0.9339069723143171
 40
0.9764081078334942
 40
1.0
 40
1.0
 40
1.0
 40
1.0
 10
144.3840383512685
 20
121.293499780708
 30
0.0
 10
144.945439413624
 20
121.7369193681975
 30
0.0
 10
145.8292612923649
 20
122.4350012906668
 30
0.0
 10
146.6178675689274
 20
123.3198532675875
 30
0.0
 10
146.9320555677857
 20
123.6995285313274
 30
0.0
 10
146.9824868607933
 20
123.7617672573488
 30
0.0
 10
147.0004883000996
 20
123.7839833573565
 30
0.0
  0
SPLINE
  5
2BA
330
1F
100
AcDbEntity
  8
0
  6
Continuous
 62
     8
370
    25
100
AcDbSpline
210
0.0
220
0.0
230
1.0
 70
     8
 71
     3
 72
    11
 73
     7
 74
     0
 42
0.00000001
 43
0.00000001
 40
0.0
 40
0.0
 40
0.0
 40
0.0
 40
0.593214966736752
 40
0.9339069723143154
 40
0.9764081078334936
 40
1.0
 40
1.0
 40
1.0
 40
1.0
 10
127.1840383512684
 20
121.293499780708
 30
0.0
 10
126.6226372889129
 20
121.7369193681975
 30
0.0
 10
125.738815410172
 20
122.4350012906668
 30
0.0
 10
124.9502091336095
 20
123.3198532675874
 30
0.0
 10
124.6360211347512
 20
123.6995285313274
 30
0.0
 10
124.5855898417437
 20
123.7617672573488
 30
0.0
 10
124.5675884024374
 20
123.7839833573565
 30
0.0
  0
SPLINE
  5
2BB
330
1F
100
AcDbEntity
  8
0
  6
Continuous
 62
     8
370
    25
100
AcDbSpline
210
0.0
220
0.0
230
1.0
 70
     8
 71
     3
 72
     9
 73
     5
 74
     0
 42
0.00000001
 43
0.00000001
 40
0.0
 40
0.0
 40
0.0
 40
0.0
 40
0.5176554380816863
 40
1.0
 40
1.0
 40
1.0
 40
1.0
 10
148.1707294995666
 20
123.6671100817888
 30
0.0
 10
147.5666672743654
 20
123.0892600807465
 30
0.0
 10
146.3997477739354
 20
121.9729770118702
 30
0.0
 10
145.0399361117545
 20
121.1052340918666
 30
0.0
 10
144.3840383512685
 20
120.6866830132597
 30
0.0
  0
SPLINE
  5
2BC
330
1F
100
AcDbEntity
  8
0
  6
Continuous
 62
     8
370
    25
100
AcDbSpline
210
0.0
220
0.0
230
1.0
 70
     8
 71
     3
 72
     9
 73
     5
 74
     0
 42
0.00000001
 43
0.00000001
 40
0.0
 40
0.0
 40
0.0
 40
0.0
 40
0.5176554380816969
 40
0.9999999999999999
 40
0.9999999999999999
 40
0.9999999999999999
 40
0.9999999999999999
 10
123.3973472029704
 20
123.6671100817888
 30
0.0
 10
124.0014094281716
 20
123.0892600807465
 30
0.0
 10
125.1683289286016
 20
121.9729770118702
 30
0.0
 10
126.5281405907824
 20
121.1052340918666
 30
0.0
 10
127.1840383512684
 20
120.6866830132598
 30
0.0
  0
ARC
  5
2BD
330
1F
100
AcDbEntity
  8
0
  6
Continuous
 62
     8
370
    25
100
AcDbCircle
 10
137.003102132
 20
131.0011011806
 30
0.0
 40
13.36051370486644
100
AcDbArc
 50
303.534846696
 51
326.7063404568
  0
ARC
  5
2BE
330
1F
100
AcDbEntity
  8
0
  6
Continuous
 62
     8
370
    25
100
AcDbCircle
 10
134.5649745705
 20
131.0011011806
 30
0.0
 40
13.36051370486524
100
AcDbArc
 50
213.2936595432
 51
236.465153304
  0
ARC
  5
2BF
330
1F
100
AcDbEntity
  8
0
  6
Continuous
 62
     8
370
    25
100
AcDbCircle
 10
135.7840383513
 20
133.0224621855
 30
0.0
 40
15.7942374954421
100
AcDbArc
 50
71.7526233598
 51
108.2473766402
  0
LWPOLYLINE
  5
2C0
330
1F
100
AcDbEntity
  8
0
  6
Continuous
 62
     8
370
    25
100
AcDbPolyline
 90
        3
 70
   128
 43
0.0
 10
127.1840383513
 20
116.7036088785
 10
126.0090031412
 20
117.3791358162
 10
125.0478857231
 20
118.0224621855
  0
ARC
  5
2C1
330
1F
100
AcDbEntity
  8
0
  6
Continuous
 62
     8
370
    25
100
AcDbCircle
 10
135.7840383513
 20
133.0224621855
 30
0.0
 40
18.44627261143964
100
AcDbArc
 50
54.407052935
 51
125.592947065
  0
LWPOLYLINE
  5
2C2
330
1F
100
AcDbEntity
  8
0
  6
Continuous
 62
     8
370
    25
100
AcDbPolyline
 90
        3
 70
   128
 43
0.0
 10
146.5201909794
 20
118.0224621855
 10
145.5590735614
 20
117.3791358162
 10
144.3840383513
 20
116.7036088785
  0
ARC
  5
2C3
330
1F
100
AcDbEntity
  8
0
  6
Continuous
 62
     8
370
    25
100
AcDbCircle
 10
135.7840383513
 20
133.0224621855
 30
0.0
 40
27.1874316137987
100
AcDbArc
 50
288.4406785204
 51
326.5145280392
  0
ARC
  5
2C4
330
1F
100
AcDbEntity
  8
0
  6
Continuous
 62
     8
370
    25
100
AcDbCircle
 10
135.7840383513
 20
133.0224621855
 30
0.0
 40
27.1874316137987
100
AcDbArc
 50
33.4854719608
 51
146.5145280392
  0
ARC
  5
2C5
330
1F
100
AcDbEntity
  8
0
  6
Continuous
 62
     8
370
    25
100
AcDbCircle
 10
135.7840383513
 20
133.0224621855
 30
0.0
 40
27.1874316137987
100
AcDbArc
 50
213.4854719608
 51
251.5593214796
  0
ENDSEC
  0
SECTION
  2
OBJECTS
  0
DICTIONARY
  5
C
330
0
100
AcDbDictionary
281
     1
  3
ACAD_GROUP
350
D
  3
ACAD_LAYOUT
350
1A
  3
ACAD_MLINESTYLE
350
17
  3
ACAD_PLOTSETTINGS
350
19
  3
ACAD_PLOTSTYLENAME
350
E
  3
ACAD_SCALELIST
350
47
  3
DWGPROPS
350
2C6
  0
DICTIONARY
  5
D
102
{ACAD_REACTORS
330
C
102
}
330
C
100
AcDbDictionary
281
     1
  0
DICTIONARY
  5
1A
102
{ACAD_REACTORS
330
C
102
}
330
C
100
AcDbDictionary
281
     1
  3
Layout1
350
1E
  3
Layout2
350
26
  3
Model
350
22
  0
DICTIONARY
  5
17
102
{ACAD_REACTORS
330
C
102
}
330
C
100
AcDbDictionary
281
     1
  3
Standard
350
18
  0
DICTIONARY
  5
19
102
{ACAD_REACTORS
330
C
102
}
330
C
100
AcDbDictionary
281
     1
  0
ACDBDICTIONARYWDFLT
  5
E
102
{ACAD_REACTORS
330
C
102
}
330
C
100
AcDbDictionary
281
     1
  3
Normal
350
F
100
AcDbDictionaryWithDefault
340
F
  0
DICTIONARY
  5
47
102
{ACAD_REACTORS
330
C
102
}
330
C
100
AcDbDictionary
281
     1
  3
A0
350
48
  3
A1
350
49
  3
A2
350
4A
  3
A3
350
4B
  3
A4
350
4C
  3
A5
350
4D
  3
A6
350
4E
  3
A7
350
4F
  3
A8
350
50
  3
A9
350
51
  3
B0
350
52
  3
B1
350
53
  3
B2
350
54
  3
B3
350
55
  3
B4
350
56
  3
B5
350
57
  3
B6
350
58
  3
B7
350
59
  3
B8
350
5A
  3
B9
350
5B
  3
C0
350
5C
  3
C1
350
5D
  3
C2
350
5E
  3
C3
350
5F
  3
C4
350
60
  3
C5
350
61
  3
C6
350
62
  3
C7
350
63
  3
C8
350
64
  3
C9
350
65
  3
D0
350
66
  3
D1
350
67
  3
D2
350
68
  0
XRECORD
  5
2C6
102
{ACAD_REACTORS
330
C
102
}
330
C
100
AcDbXrecord
280
     1
  1
DWGPROPS COOKIE
  2

  3

  4

  6

  7

  8
DS-1
  9

300
=
301
=
302
=
303
=
304
=
305
=
306
=
307
=
308
=
309
=
 40
0.0
 41
2460383.500521806
 42
2460383.500522349
  1

 90
        0
  0
LAYOUT
  5
1E
102
{ACAD_REACTORS
330
1A
102
}
330
1A
100
AcDbPlotSettings
  1

  2
none_device
  4

  6

 40
0.0
 41
0.0
 42
0.0
 43
0.0
 44
0.0
 45
0.0
 46
0.0
 47
0.0
 48
0.0
 49
0.0
140
0.0
141
0.0
142
1.0
143
1.0
 70
   688
 72
     1
 73
     0
 74
     5
  7

 75
    16
147
1.0
148
0.0
149
0.0
100
AcDbLayout
  1
Layout1
 70
     1
 71
     1
 10
0.0
 20
0.0
 11
420.0
 21
297.0
 12
0.0
 22
0.0
 32
0.0
 14
1.0000000000E+20
 24
1.0000000000E+20
 34
1.0000000000E+20
 15
-1.0000000000E+20
 25
-1.0000000000E+20
 35
-1.0000000000E+20
146
0.0
 13
0.0
 23
0.0
 33
0.0
 16
1.0
 26
0.0
 36
0.0
 17
0.0
 27
1.0
 37
0.0
 76
     0
330
1B
  0
LAYOUT
  5
26
102
{ACAD_REACTORS
330
1A
102
}
330
1A
100
AcDbPlotSettings
  1

  2
none_device
  4

  6

 40
0.0
 41
0.0
 42
0.0
 43
0.0
 44
0.0
 45
0.0
 46
0.0
 47
0.0
 48
0.0
 49
0.0
140
0.0
141
0.0
142
1.0
143
1.0
 70
   688
 72
     1
 73
     0
 74
     5
  7

 75
    16
147
1.0
148
0.0
149
0.0
100
AcDbLayout
  1
Layout2
 70
     1
 71
     2
 10
0.0
 20
0.0
 11
0.0
 21
0.0
 12
0.0
 22
0.0
 32
0.0
 14
0.0
 24
0.0
 34
0.0
 15
0.0
 25
0.0
 35
0.0
146
0.0
 13
0.0
 23
0.0
 33
0.0
 16
1.0
 26
0.0
 36
0.0
 17
0.0
 27
1.0
 37
0.0
 76
     0
330
23
  0
LAYOUT
  5
22
102
{ACAD_REACTORS
330
1A
102
}
330
1A
100
AcDbPlotSettings
  1

  2
none_device
  4
Letter_(8.50_x_11.00_Inches)
  6

 40
6.35
 41
6.35
 42
6.35000508
 43
6.35000508
 44
215.9
 45
279.4
 46
0.0
 47
0.0
 48
0.0
 49
0.0
140
0.0
141
0.0
142
1.0
143
1.0
 70
  1712
 72
     1
 73
     0
 74
     0
  7

 75
     0
147
1.0
148
0.0
149
0.0
100
AcDbLayout
  1
Model
 70
     1
 71
     0
 10
0.0
 20
0.0
 11
279.4
 21
215.9
 12
0.0
 22
0.0
 32
0.0
 14
0.0
 24
0.0
 34
0.0
 15
279.4
 25
215.9
 35
0.0
146
0.0
 13
0.0
 23
0.0
 33
0.0
 16
1.0
 26
0.0
 36
0.0
 17
0.0
 27
1.0
 37
0.0
 76
     0
330
1F
331
29
  0
MLINESTYLE
  5
18
102
{ACAD_REACTORS
330
17
102
}
330
17
100
AcDbMlineStyle
  2
Standard
 70
     0
  3

 62
   256
 51
90.0
 52
90.0
 71
     2
 49
0.5
 62
   256
  6
BYLAYER
 49
-0.5
 62
   256
  6
BYLAYER
  0
ACDBPLACEHOLDER
  5
F
102
{ACAD_REACTORS
330
E
102
}
330
E
  0
SCALE
  5
48
102
{ACAD_REACTORS
330
47
102
}
330
47
100
AcDbScale
 70
     0
300
1:1
140
1.0
141
1.0
290
     1
  0
SCALE
  5
49
102
{ACAD_REACTORS
330
47
102
}
330
47
100
AcDbScale
 70
     0
300
1:2
140
1.0
141
2.0
290
     0
  0
SCALE
  5
4A
102
{ACAD_REACTORS
330
47
102
}
330
47
100
AcDbScale
 70
     0
300
1:4
140
1.0
141
4.0
290
     0
  0
SCALE
  5
4B
102
{ACAD_REACTORS
330
47
102
}
330
47
100
AcDbScale
 70
     0
300
1:5
140
1.0
141
5.0
290
     0
  0
SCALE
  5
4C
102
{ACAD_REACTORS
330
47
102
}
330
47
100
AcDbScale
 70
     0
300
1:8
140
1.0
141
8.0
290
     0
  0
SCALE
  5
4D
102
{ACAD_REACTORS
330
47
102
}
330
47
100
AcDbScale
 70
     0
300
1:10
140
1.0
141
10.0
290
     0
  0
SCALE
  5
4E
102
{ACAD_REACTORS
330
47
102
}
330
47
100
AcDbScale
 70
     0
300
1:16
140
1.0
141
16.0
290
     0
  0
SCALE
  5
4F
102
{ACAD_REACTORS
330
47
102
}
330
47
100
AcDbScale
 70
     0
300
1:20
140
1.0
141
20.0
290
     0
  0
SCALE
  5
50
102
{ACAD_REACTORS
330
47
102
}
330
47
100
AcDbScale
 70
     0
300
1:30
140
1.0
141
30.0
290
     0
  0
SCALE
  5
51
102
{ACAD_REACTORS
330
47
102
}
330
47
100
AcDbScale
 70
     0
300
1:40
140
1.0
141
40.0
290
     0
  0
SCALE
  5
52
102
{ACAD_REACTORS
330
47
102
}
330
47
100
AcDbScale
 70
     0
300
1:50
140
1.0
141
50.0
290
     0
  0
SCALE
  5
53
102
{ACAD_REACTORS
330
47
102
}
330
47
100
AcDbScale
 70
     0
300
1:100
140
1.0
141
100.0
290
     0
  0
SCALE
  5
54
102
{ACAD_REACTORS
330
47
102
}
330
47
100
AcDbScale
 70
     0
300
2:1
140
2.0
141
1.0
290
     0
  0
SCALE
  5
55
102
{ACAD_REACTORS
330
47
102
}
330
47
100
AcDbScale
 70
     0
300
4:1
140
4.0
141
1.0
290
     0
  0
SCALE
  5
56
102
{ACAD_REACTORS
330
47
102
}
330
47
100
AcDbScale
 70
     0
300
8:1
140
8.0
141
1.0
290
     0
  0
SCALE
  5
57
102
{ACAD_REACTORS
330
47
102
}
330
47
100
AcDbScale
 70
     0
300
10:1
140
10.0
141
1.0
290
     0
  0
SCALE
  5
58
102
{ACAD_REACTORS
330
47
102
}
330
47
100
AcDbScale
 70
     0
300
100:1
140
100.0
141
1.0
290
     0
  0
SCALE
  5
59
102
{ACAD_REACTORS
330
47
102
}
330
47
100
AcDbScale
 70
     0
300
1/128" = 1'-0"
140
0.0078125
141
12.0
290
     0
  0
SCALE
  5
5A
102
{ACAD_REACTORS
330
47
102
}
330
47
100
AcDbScale
 70
     0
300
1/64" = 1'-0"
140
0.015625
141
12.0
290
     0
  0
SCALE
  5
5B
102
{ACAD_REACTORS
330
47
102
}
330
47
100
AcDbScale
 70
     0
300
1/32" = 1'-0"
140
0.03125
141
12.0
290
     0
  0
SCALE
  5
5C
102
{ACAD_REACTORS
330
47
102
}
330
47
100
AcDbScale
 70
     0
300
1/16" = 1'-0"
140
0.0625
141
12.0
290
     0
  0
SCALE
  5
5D
102
{ACAD_REACTORS
330
47
102
}
330
47
100
AcDbScale
 70
     0
300
3/32" = 1'-0"
140
0.09375
141
12.0
290
     0
  0
SCALE
  5
5E
102
{ACAD_REACTORS
330
47
102
}
330
47
100
AcDbScale
 70
     0
300
1/8" = 1'-0"
140
0.125
141
12.0
290
     0
  0
SCALE
  5
5F
102
{ACAD_REACTORS
330
47
102
}
330
47
100
AcDbScale
 70
     0
300
3/16" = 1'-0"
140
0.1875
141
12.0
290
     0
  0
SCALE
  5
60
102
{ACAD_REACTORS
330
47
102
}
330
47
100
AcDbScale
 70
     0
300
1/4" = 1'-0"
140
0.25
141
12.0
290
     0
  0
SCALE
  5
61
102
{ACAD_REACTORS
330
47
102
}
330
47
100
AcDbScale
 70
     0
300
3/8" = 1'-0"
140
0.375
141
12.0
290
     0
  0
SCALE
  5
62
102
{ACAD_REACTORS
330
47
102
}
330
47
100
AcDbScale
 70
     0
300
1/2" = 1'-0"
140
0.5
141
12.0
290
     0
  0
SCALE
  5
63
102
{ACAD_REACTORS
330
47
102
}
330
47
100
AcDbScale
 70
     0
300
3/4" = 1'-0"
140
0.75
141
12.0
290
     0
  0
SCALE
  5
64
102
{ACAD_REACTORS
330
47
102
}
330
47
100
AcDbScale
 70
     0
300
1" = 1'-0"
140
1.0
141
12.0
290
     0
  0
SCALE
  5
65
102
{ACAD_REACTORS
330
47
102
}
330
47
100
AcDbScale
 70
     0
300
1-1/2" = 1'-0"
140
1.5
141
12.0
290
     0
  0
SCALE
  5
66
102
{ACAD_REACTORS
330
47
102
}
330
47
100
AcDbScale
 70
     0
300
3" = 1'-0"
140
3.0
141
12.0
290
     0
  0
SCALE
  5
67
102
{ACAD_REACTORS
330
47
102
}
330
47
100
AcDbScale
 70
     0
300
6" = 1'-0"
140
6.0
141
12.0
290
     0
  0
SCALE
  5
68
102
{ACAD_REACTORS
330
47
102
}
330
47
100
AcDbScale
 70
     0
300
1'-0" = 1'-0"
140
12.0
141
12.0
290
     0
  0
ENDSEC
  0
EOF
