  0
SECTION
  2
HEADER
  9
$ACADVER
  1
AC1015
  9
$ACADMAINTVER
 70
     6
  9
$DWGCODEPAGE
  3
ANSI_1252
  9
$INSBASE
 10
0.0
 20
0.0
 30
0.0
  9
$EXTMIN
 10
0.0
 20
0.0
 30
0.0
  9
$EXTMAX
 10
279.4
 20
215.9
 30
0.0
  9
$LIMMIN
 10
0.0
 20
0.0
  9
$LIMMAX
 10
279.4
 20
215.9
  9
$ORTHOMODE
 70
     0
  9
$REGENMODE
 70
     1
  9
$FILLMODE
 70
     1
  9
$QTEXTMODE
 70
     0
  9
$MIRRTEXT
 70
     1
  9
$LTSCALE
 40
1.0
  9
$ATTMODE
 70
     1
  9
$TEXTSIZE
 40
3.5277777778
  9
$TRACEWID
 40
1.0
  9
$TEXTSTYLE
  7
Standard
  9
$CLAYER
  8
0
  9
$CELTYPE
  6
ByLayer
  9
$CECOLOR
 62
   256
  9
$CELTSCALE
 40
1.0
  9
$DISPSILH
 70
     0
  9
$DIMSCALE
 40
1.0
  9
$DIMASZ
 40
3.556
  9
$DIMEXO
 40
1.0
  9
$DIMDLI
 40
3.75
  9
$DIMRND
 40
0.0
  9
$DIMDLE
 40
0.0
  9
$DIMEXE
 40
1.0
  9
$DIMTP
 40
0.0
  9
$DIMTM
 40
0.0
  9
$DIMTXT
 40
3.5277777778
  9
$DIMCEN
 40
2.5
  9
$DIMTSZ
 40
0.0
  9
$DIMTOL
 70
     0
  9
$DIMLIM
 70
     0
  9
$DIMTIH
 70
     1
  9
$DIMTOH
 70
     1
  9
$DIMSE1
 70
     0
  9
$DIMSE2
 70
     0
  9
$DIMTAD
 70
     1
  9
$DIMZIN
 70
     0
  9
$DIMBLK
  1

  9
$DIMASO
 70
     1
  9
$DIMSHO
 70
     1
  9
$DIMPOST
  1

  9
$DIMAPOST
  1

  9
$DIMALT
 70
     0
  9
$DIMALTD
 70
     3
  9
$DIMALTF
 40
0.0393700787
  9
$DIMLFAC
 40
2.0
  9
$DIMTOFL
 70
     1
  9
$DIMTVP
 40
0.0
  9
$DIMTIX
 70
     0
  9
$DIMSOXD
 70
     0
  9
$DIMSAH
 70
     0
  9
$DIMBLK1
  1

  9
$DIMBLK2
  1

  9
$DIMSTYLE
  2
ISO-25
  9
$DIMCLRD
 70
     0
  9
$DIMCLRE
 70
     0
  9
$DIMCLRT
 70
     0
  9
$DIMTFAC
 40
1.0
  9
$DIMGAP
 40
1.524
  9
$DIMJUST
 70
     0
  9
$DIMSD1
 70
     0
  9
$DIMSD2
 70
     0
  9
$DIMTOLJ
 70
     0
  9
$DIMTZIN
 70
     0
  9
$DIMALTZ
 70
     0
  9
$DIMALTTZ
 70
     0
  9
$DIMUPT
 70
     0
  9
$DIMDEC
 70
     2
  9
$DIMTDEC
 70
     2
  9
$DIMALTU
 70
     2
  9
$DIMALTTD
 70
     3
  9
$DIMTXSTY
  7
Standard
  9
$DIMAUNIT
 70
     0
  9
$DIMADEC
 70
     2
  9
$DIMALTRND
 40
0.0
  9
$DIMAZIN
 70
     0
  9
$DIMDSEP
 70
    44
  9
$DIMATFIT
 70
     3
  9
$DIMFRAC
 70
     0
  9
$DIMLDRBLK
  1

  9
$DIMLUNIT
 70
     2
  9
$DIMLWD
 70
    -2
  9
$DIMLWE
 70
    -2
  9
$DIMTMOVE
 70
     0
  9
$LUNITS
 70
     2
  9
$LUPREC
 70
     2
  9
$SKETCHINC
 40
1.0
  9
$FILLETRAD
 40
10.0
  9
$AUNITS
 70
     0
  9
$AUPREC
 70
     2
  9
$MENU
  1
.
  9
$ELEVATION
 40
0.0
  9
$PELEVATION
 40
0.0
  9
$THICKNESS
 40
0.0
  9
$LIMCHECK
 70
     0
  9
$CHAMFERA
 40
0.0
  9
$CHAMFERB
 40
0.0
  9
$CHAMFERC
 40
0.0
  9
$CHAMFERD
 40
0.0
  9
$SKPOLY
 70
     0
  9
$TDCREATE
 40
2460383.722046863
  9
$TDUCREATE
 40
2460383.492880197
  9
$TDUPDATE
 40
2460383.722047708
  9
$TDUUPDATE
 40
2460383.492881041
  9
$TDINDWG
 40
0.0000000116
  9
$TDUSRTIMER
 40
0.0000000116
  9
$USRTIMER
 70
     1
  9
$ANGBASE
 50
0.0
  9
$ANGDIR
 70
     0
  9
$PDMODE
 70
     0
  9
$PDSIZE
 40
-1.0
  9
$PLINEWID
 40
0.0
  9
$SPLFRAME
 70
     0
  9
$SPLINETYPE
 70
     6
  9
$SPLINESEGS
 70
     8
  9
$HANDSEED
  5
231
  9
$SURFTAB1
 70
     6
  9
$SURFTAB2
 70
     6
  9
$SURFTYPE
 70
     6
  9
$SURFU
 70
     6
  9
$SURFV
 70
     6
  9
$UCSBASE
  2

  9
$UCSNAME
  2

  9
$UCSORG
 10
0.0
 20
0.0
 30
0.0
  9
$UCSXDIR
 10
1.0
 20
0.0
 30
0.0
  9
$UCSYDIR
 10
0.0
 20
1.0
 30
0.0
  9
$UCSORTHOREF
  2

  9
$UCSORTHOVIEW
 70
     0
  9
$UCSORGTOP
 10
0.0
 20
0.0
 30
0.0
  9
$UCSORGBOTTOM
 10
0.0
 20
0.0
 30
0.0
  9
$UCSORGLEFT
 10
0.0
 20
0.0
 30
0.0
  9
$UCSORGRIGHT
 10
0.0
 20
0.0
 30
0.0
  9
$UCSORGFRONT
 10
0.0
 20
0.0
 30
0.0
  9
$UCSORGBACK
 10
0.0
 20
0.0
 30
0.0
  9
$PUCSBASE
  2

  9
$PUCSNAME
  2

  9
$PUCSORG
 10
0.0
 20
0.0
 30
0.0
  9
$PUCSXDIR
 10
1.0
 20
0.0
 30
0.0
  9
$PUCSYDIR
 10
0.0
 20
1.0
 30
0.0
  9
$PUCSORTHOREF
  2

  9
$PUCSORTHOVIEW
 70
     0
  9
$PUCSORGTOP
 10
0.0
 20
0.0
 30
0.0
  9
$PUCSORGBOTTOM
 10
0.0
 20
0.0
 30
0.0
  9
$PUCSORGLEFT
 10
0.0
 20
0.0
 30
0.0
  9
$PUCSORGRIGHT
 10
0.0
 20
0.0
 30
0.0
  9
$PUCSORGFRONT
 10
0.0
 20
0.0
 30
0.0
  9
$PUCSORGBACK
 10
0.0
 20
0.0
 30
0.0
  9
$USERI1
 70
     0
  9
$USERI2
 70
     0
  9
$USERI3
 70
     0
  9
$USERI4
 70
     0
  9
$USERI5
 70
     0
  9
$USERR1
 40
0.0
  9
$USERR2
 40
0.0
  9
$USERR3
 40
0.0
  9
$USERR4
 40
0.0
  9
$USERR5
 40
0.0
  9
$WORLDVIEW
 70
     1
  9
$SHADEDGE
 70
     3
  9
$SHADEDIF
 70
    70
  9
$TILEMODE
 70
     1
  9
$MAXACTVP
 70
    64
  9
$PINSBASE
 10
0.0
 20
0.0
 30
0.0
  9
$PLIMCHECK
 70
     0
  9
$PEXTMIN
 10
1.0000000000E+20
 20
1.0000000000E+20
 30
1.0000000000E+20
  9
$PEXTMAX
 10
-1.0000000000E+20
 20
-1.0000000000E+20
 30
-1.0000000000E+20
  9
$PLIMMIN
 10
0.0
 20
0.0
  9
$PLIMMAX
 10
420.0
 20
297.0
  9
$UNITMODE
 70
     0
  9
$VISRETAIN
 70
     1
  9
$PLINEGEN
 70
     0
  9
$PSLTSCALE
 70
     1
  9
$TREEDEPTH
 70
  3020
  9
$CMLSTYLE
  2
Standard
  9
$CMLJUST
 70
     0
  9
$CMLSCALE
 40
20.0
  9
$PROXYGRAPHICS
 70
     1
  9
$MEASUREMENT
 70
     1
  9
$CELWEIGHT
370
    -1
  9
$ENDCAPS
280
     0
  9
$JOINSTYLE
280
     0
  9
$LWDISPLAY
290
     1
  9
$INSUNITS
 70
     4
  9
$HYPERLINKBASE
  1

  9
$STYLESHEET
  1

  9
$XEDIT
290
     1
  9
$CEPSNTYPE
380
     0
  9
$PSTYLEMODE
290
     1
  9
$FINGERPRINTGUID
  2
{69ba267a-e3b0-4144-9c2e-71231056f578}
  9
$VERSIONGUID
  2
{FAEB1C32-E019-11D5-929B-00C0DF256EC4}
  9
$EXTNAMES
290
     1
  9
$PSVPSCALE
 40
0.0
  9
$OLESTARTUP
290
     0
  0
ENDSEC
  0
SECTION
  2
CLASSES
  0
CLASS
  1
ACDBDICTIONARYWDFLT
  2
AcDbDictionaryWithDefault
  3
ObjectDBX Classes
 90
        0
280
     0
281
     0
  0
CLASS
  1
VISUALSTYLE
  2
AcDbVisualStyle
  3
ObjectDBX Classes
 90
     4095
280
     0
281
     0
  0
CLASS
  1
MATERIAL
  2
AcDbMaterial
  3
ObjectDBX Classes
 90
     1153
280
     0
281
     0
  0
CLASS
  1
SCALE
  2
AcDbScale
  3
ObjectDBX Classes
 90
     1153
280
     0
281
     0
  0
CLASS
  1
TABLESTYLE
  2
AcDbTableStyle
  3
ObjectDBX Classes
 90
     4095
280
     0
281
     0
  0
CLASS
  1
MLEADERSTYLE
  2
AcDbMLeaderStyle
  3
ACDB_MLEADERSTYLE_CLASS
 90
     4095
280
     0
281
     0
  0
CLASS
  1
SUN
  2
AcDbSun
  3
SCENEOE
 90
     1153
280
     0
281
     0
  0
CLASS
  1
ACDBPLACEHOLDER
  2
AcDbPlaceHolder
  3
ObjectDBX Classes
 90
        0
280
     0
281
     0
  0
CLASS
  1
LAYOUT
  2
AcDbLayout
  3
ObjectDBX Classes
 90
        0
280
     0
281
     0
  0
ENDSEC
  0
SECTION
  2
TABLES
  0
TABLE
  2
VPORT
  5
8
330
0
100
AcDbSymbolTable
 70
     1
  0
VPORT
  5
29
330
8
100
AcDbSymbolTableRecord
100
AcDbViewportTableRecord
  2
*Active
 70
     0
 10
0.0
 20
0.0
 11
1.0
 21
1.0
 12
139.7
 22
107.95
 13
0.0
 23
0.0
 14
10.0
 24
10.0
 15
10.0
 25
10.0
 16
0.0
 26
0.0
 36
1.0
 17
0.0
 27
0.0
 37
0.0
 40
215.9
 41
1.2941176471
 42
50.0
 43
0.0
 44
0.0
 50
0.0
 51
0.0
 71
     0
 72
  2000
 73
     1
 74
     3
 75
     0
 76
     0
 77
     0
 78
     0
281
     0
 65
     1
110
0.0
120
0.0
130
0.0
111
1.0
121
0.0
131
0.0
112
0.0
122
1.0
132
0.0
 79
     0
146
0.0
  0
ENDTAB
  0
TABLE
  2
LTYPE
  5
5
330
0
100
AcDbSymbolTable
 70
     6
  0
LTYPE
  5
14
330
5
100
AcDbSymbolTableRecord
100
AcDbLinetypeTableRecord
  2
ByBlock
 70
     0
  3

 72
    65
 73
     0
 40
0.0
  0
LTYPE
  5
15
330
5
100
AcDbSymbolTableRecord
100
AcDbLinetypeTableRecord
  2
ByLayer
 70
     0
  3

 72
    65
 73
     0
 40
0.0
  0
LTYPE
  5
16
330
5
100
AcDbSymbolTableRecord
100
AcDbLinetypeTableRecord
  2
Continuous
 70
     0
  3
Solid line
 72
    65
 73
     0
 40
0.0
  0
LTYPE
  5
6E
330
5
100
AcDbSymbolTableRecord
100
AcDbLinetypeTableRecord
  2
HIDDEN
 70
     0
  3
Hidden __ __ __ __ __ __ __ __ __ __ __ __ __ __
 72
    65
 73
     2
 40
1.905
 49
1.27
 74
     0
 49
-0.635
 74
     0
  0
LTYPE
  5
6F
330
5
100
AcDbSymbolTableRecord
100
AcDbLinetypeTableRecord
  2
PHANTOM
 70
     0
  3
Phantom ______  __  __  ______  __  __  ______
 72
    65
 73
     6
 40
12.7
 49
6.35
 74
     0
 49
-1.27
 74
     0
 49
1.27
 74
     0
 49
-1.27
 74
     0
 49
1.27
 74
     0
 49
-1.27
 74
     0
  0
LTYPE
  5
70
330
5
100
AcDbSymbolTableRecord
100
AcDbLinetypeTableRecord
  2
CENTER
 70
     0
  3
Center ____ _ ____ _ ____ _ ____ _ ____ _ ____
 72
    65
 73
     4
 40
10.16
 49
6.35
 74
     0
 49
-1.27
 74
     0
 49
1.27
 74
     0
 49
-1.27
 74
     0
  0
LTYPE
  5
71
330
5
100
AcDbSymbolTableRecord
100
AcDbLinetypeTableRecord
  2
CENTERX2
 70
     0
  3
Center (2x) ________  __  ________  __  _____
 72
    65
 73
     4
 40
20.32
 49
12.7
 74
     0
 49
-2.54
 74
     0
 49
2.54
 74
     0
 49
-2.54
 74
     0
  0
LTYPE
  5
72
330
5
100
AcDbSymbolTableRecord
100
AcDbLinetypeTableRecord
  2
DOT2
 70
     0
  3
Dot (.5x) ........................................
 72
    65
 73
     2
 40
0.635
 49
0.0
 74
     0
 49
-0.635
 74
     0
  0
ENDTAB
  0
TABLE
  2
LAYER
  5
2
330
0
100
AcDbSymbolTable
 70
     4
  0
LAYER
  5
10
330
2
100
AcDbSymbolTableRecord
100
AcDbLayerTableRecord
  2
0
 70
     0
 62
     7
  6
Continuous
370
    -3
390
F
  0
LAYER
  5
73
330
2
100
AcDbSymbolTableRecord
100
AcDbLayerTableRecord
  2
FORMAT
 70
     0
 62
     7
  6
Continuous
370
    -3
390
F
  0
LAYER
  5
74
330
2
100
AcDbSymbolTableRecord
100
AcDbLayerTableRecord
  2
OUT_LINE
 70
     0
 62
     7
  6
Continuous
370
    50
390
F
  0
LAYER
  5
75
330
2
100
AcDbSymbolTableRecord
100
AcDbLayerTableRecord
  2
WATERMARK
 70
     0
 62
   254
  6
Continuous
370
    -3
390
F
  0
ENDTAB
  0
TABLE
  2
STYLE
  5
3
330
0
100
AcDbSymbolTable
 70
     1
  0
STYLE
  5
11
330
3
100
AcDbSymbolTableRecord
100
AcDbTextStyleTableRecord
  2
Standard
 70
     0
 40
0.0
 41
1.0
 50
0.0
 71
     0
 42
3.5277777778
  3
txt
  4

  0
ENDTAB
  0
TABLE
  2
VIEW
  5
6
330
0
100
AcDbSymbolTable
 70
     0
  0
ENDTAB
  0
TABLE
  2
UCS
  5
7
330
0
100
AcDbSymbolTable
 70
     0
  0
ENDTAB
  0
TABLE
  2
APPID
  5
9
330
0
100
AcDbSymbolTable
 70
     1
  0
APPID
  5
12
330
9
100
AcDbSymbolTableRecord
100
AcDbRegAppTableRecord
  2
ACAD
 70
     0
  0
ENDTAB
  0
TABLE
  2
DIMSTYLE
  5
A
330
0
100
AcDbSymbolTable
 70
     1
100
AcDbDimStyleTable
  0
DIMSTYLE
105
27
330
A
100
AcDbSymbolTableRecord
100
AcDbDimStyleTableRecord
  2
ISO-25
 70
     0
 41
2.5
 42
0.625
 43
3.75
 44
1.25
 73
     0
 74
     0
 77
     1
 78
     8
140
2.5
141
2.5
143
0.0393700787
147
0.625
171
     3
172
     1
178
     0
271
     2
272
     2
274
     3
278
    44
283
     0
284
     8
340
11
  0
ENDTAB
  0
TABLE
  2
BLOCK_RECORD
  5
1
330
0
100
AcDbSymbolTable
 70
     7
  0
BLOCK_RECORD
  5
1F
330
1
100
AcDbSymbolTableRecord
100
AcDbBlockTableRecord
  2
*Model_Space
340
22
  0
BLOCK_RECORD
  5
1B
330
1
100
AcDbSymbolTableRecord
100
AcDbBlockTableRecord
  2
*Paper_Space
340
1E
  0
BLOCK_RECORD
  5
23
330
1
100
AcDbSymbolTableRecord
100
AcDbBlockTableRecord
  2
*Paper_Space0
340
26
  0
BLOCK_RECORD
  5
76
330
1
100
AcDbSymbolTableRecord
100
AcDbBlockTableRecord
  2
Block6
340
0
  0
BLOCK_RECORD
  5
7B
330
1
100
AcDbSymbolTableRecord
100
AcDbBlockTableRecord
  2
Block4
340
0
  0
BLOCK_RECORD
  5
7F
330
1
100
AcDbSymbolTableRecord
100
AcDbBlockTableRecord
  2
Block5
340
0
  0
BLOCK_RECORD
  5
8D
330
1
100
AcDbSymbolTableRecord
100
AcDbBlockTableRecord
  2
Block2
340
0
  0
BLOCK_RECORD
  5
98
330
1
100
AcDbSymbolTableRecord
100
AcDbBlockTableRecord
  2
Block3
340
0
  0
BLOCK_RECORD
  5
A5
330
1
100
AcDbSymbolTableRecord
100
AcDbBlockTableRecord
  2
Block7
340
0
  0
ENDTAB
  0
ENDSEC
  0
SECTION
  2
BLOCKS
  0
BLOCK
  5
20
330
1F
100
AcDbEntity
  8
0
100
AcDbBlockBegin
  2
*Model_Space
 70
     0
 10
0.0
 20
0.0
 30
0.0
  3
*Model_Space
  1

  0
ENDBLK
  5
21
330
1F
100
AcDbEntity
  8
0
100
AcDbBlockEnd
  0
BLOCK
  5
1C
330
1B
100
AcDbEntity
 67
     1
  8
0
100
AcDbBlockBegin
  2
*Paper_Space
 70
     0
 10
0.0
 20
0.0
 30
0.0
  3
*Paper_Space
  1

  0
ENDBLK
  5
1D
330
1B
100
AcDbEntity
 67
     1
  8
0
100
AcDbBlockEnd
  0
BLOCK
  5
24
330
23
100
AcDbEntity
  8
0
100
AcDbBlockBegin
  2
*Paper_Space0
 70
     0
 10
0.0
 20
0.0
 30
0.0
  3
*Paper_Space0
  1

  0
ENDBLK
  5
25
330
23
100
AcDbEntity
  8
0
100
AcDbBlockEnd
  0
BLOCK
  5
77
330
76
100
AcDbEntity
  8
0
100
AcDbBlockBegin
  2
Block6
 70
     0
 10
0.0
 20
0.0
 30
0.0
  3
Block6
  1

  0
LINE
  5
79
330
76
100
AcDbEntity
  8
FORMAT
100
AcDbLine
 10
253.5616893058
 20
55.3714964458
 30
0.0
 11
250.6928867464
 21
53.8486167051
 31
0.0
  0
LINE
  5
7A
330
76
100
AcDbEntity
  8
FORMAT
100
AcDbLine
 10
250.6928867464
 20
53.8486167051
 30
0.0
 11
253.5616893058
 21
53.8486167051
 31
0.0
  0
ENDBLK
  5
78
330
76
100
AcDbEntity
  8
0
100
AcDbBlockEnd
  0
BLOCK
  5
7C
330
7B
100
AcDbEntity
  8
0
100
AcDbBlockBegin
  2
Block4
 70
     0
 10
0.0
 20
0.0
 30
0.0
  3
Block4
  1

  0
LINE
  5
7E
330
7B
100
AcDbEntity
  8
FORMAT
100
AcDbLine
 10
250.0093082872
 20
64.7263291389
 30
0.0
 11
290.0093082872
 21
64.7263291389
 31
0.0
  0
ENDBLK
  5
7D
330
7B
100
AcDbEntity
  8
0
100
AcDbBlockEnd
  0
BLOCK
  5
80
330
7F
100
AcDbEntity
  8
0
100
AcDbBlockBegin
  2
Block5
 70
     0
 10
0.0
 20
0.0
 30
0.0
  3
Block5
  1

  0
LINE
  5
82
330
7F
100
AcDbEntity
  8
FORMAT
100
AcDbLine
 10
251.0883122991
 20
64.4632252413
 30
0.0
 11
250.3611798328
 21
64.9733337839
 31
0.0
  0
LINE
  5
83
330
7F
100
AcDbEntity
  8
FORMAT
100
AcDbLine
 10
250.3611798328
 20
64.9733337839
 30
0.0
 11
251.0883122991
 21
65.4834423266
 31
0.0
  0
LINE
  5
84
330
7F
100
AcDbEntity
  8
FORMAT
100
AcDbLine
 10
250.3611798328
 20
65.6106440044
 30
0.0
 11
250.3611798328
 21
64.3360235634
 31
0.0
  0
LINE
  5
85
330
7F
100
AcDbEntity
  8
FORMAT
100
AcDbLine
 10
251.0883122991
 20
65.4834423266
 30
0.0
 11
251.0883122991
 21
64.4632252413
 31
0.0
  0
LINE
  5
86
330
7F
100
AcDbEntity
  8
FORMAT
  6
Continuous
 62
     7
370
    18
100
AcDbLine
 10
254.0738326611
 20
65.4834423266
 30
0.0
 11
254.0738326611
 21
64.4632252413
 31
0.0
  0
LINE
  5
87
330
7F
100
AcDbEntity
  8
FORMAT
100
AcDbLine
 10
251.0883122991
 20
64.9733337839
 30
0.0
 11
254.0738326611
 21
64.9733337839
 31
0.0
  0
LINE
  5
88
330
7F
100
AcDbEntity
  8
FORMAT
100
AcDbLine
 10
254.0738326611
 20
64.9733337839
 30
0.0
 11
254.0738326611
 21
64.4632252413
 31
0.0
  0
LINE
  5
89
330
7F
100
AcDbEntity
  8
FORMAT
  6
Continuous
 62
     7
370
    18
100
AcDbLine
 10
254.0738326611
 20
64.4632252413
 30
0.0
 11
254.8009651274
 21
64.9733337839
 31
0.0
  0
LINE
  5
8A
330
7F
100
AcDbEntity
  8
FORMAT
  6
Continuous
 62
     7
370
    18
100
AcDbLine
 10
254.8009651274
 20
64.9733337839
 30
0.0
 11
254.0738326611
 21
65.4834423266
 31
0.0
  0
LINE
  5
8B
330
7F
100
AcDbEntity
  8
FORMAT
100
AcDbLine
 10
254.0738326611
 20
65.4834423266
 30
0.0
 11
254.0738326611
 21
64.9733337839
 31
0.0
  0
LINE
  5
8C
330
7F
100
AcDbEntity
  8
FORMAT
100
AcDbLine
 10
254.8009651274
 20
65.6106440044
 30
0.0
 11
254.8009651274
 21
64.3360235634
 31
0.0
  0
ENDBLK
  5
81
330
7F
100
AcDbEntity
  8
0
100
AcDbBlockEnd
  0
BLOCK
  5
8E
330
8D
100
AcDbEntity
  8
0
100
AcDbBlockBegin
  2
Block2
 70
     0
 10
0.0
 20
0.0
 30
0.0
  3
Block2
  1

  0
CIRCLE
  5
90
330
8D
100
AcDbEntity
  8
FORMAT
100
AcDbCircle
 10
48.741006851
 20
68.2700462855
 30
0.0
 40
7.000000000000013
  0
CIRCLE
  5
91
330
8D
100
AcDbEntity
  8
FORMAT
100
AcDbCircle
 10
48.741006851
 20
68.2700462855
 30
0.0
 40
3.32888862482043
  0
LINE
  5
92
330
8D
100
AcDbEntity
  8
FORMAT
100
AcDbLine
 10
60.4734604481
 20
71.6747664277
 30
0.0
 11
76.4734604481
 21
75.1747664277
 31
0.0
  0
LINE
  5
93
330
8D
100
AcDbEntity
  8
FORMAT
100
AcDbLine
 10
76.4734604481
 20
75.1747664277
 30
0.0
 11
76.4734604481
 21
61.3653261433
 31
0.0
  0
LINE
  5
94
330
8D
100
AcDbEntity
  8
FORMAT
100
AcDbLine
 10
76.4734604481
 20
61.3653261433
 30
0.0
 11
60.4734604481
 21
64.8653261433
 31
0.0
  0
LINE
  5
95
330
8D
100
AcDbEntity
  8
FORMAT
100
AcDbLine
 10
60.4734604481
 20
64.8653261433
 30
0.0
 11
60.4734604481
 21
71.6747664277
 31
0.0
  0
LINE
  5
96
330
8D
100
AcDbEntity
  8
FORMAT
  6
CENTERX2
100
AcDbLine
 10
76.4734604481
 20
68.2700462855
 30
0.0
 11
39.8388877958
 21
68.2700462855
 31
0.0
  0
LINE
  5
97
330
8D
100
AcDbEntity
  8
FORMAT
100
AcDbLine
 10
48.741006851
 20
76.8424572275
 30
0.0
 11
48.741006851
 21
59.6976353435
 31
0.0
  0
ENDBLK
  5
8F
330
8D
100
AcDbEntity
  8
0
100
AcDbBlockEnd
  0
BLOCK
  5
99
330
98
100
AcDbEntity
  8
0
100
AcDbBlockBegin
  2
Block3
 70
     0
 10
0.0
 20
0.0
 30
0.0
  3
Block3
  1

  0
ARC
  5
9B
330
98
100
AcDbEntity
  8
FORMAT
100
AcDbCircle
 10
253.5616893058
 20
61.9516976285
 30
0.0
 40
0.5251511718353873
100
AcDbArc
 50
349.3356822367
 51
90.0
  0
LINE
  5
9C
330
98
100
AcDbEntity
  8
FORMAT
100
AcDbLine
 10
250.6928867464
 20
62.4768488003
 30
0.0
 11
250.6928867464
 21
61.2321831396
 31
0.0
  0
LINE
  5
9D
330
98
100
AcDbEntity
  8
FORMAT
100
AcDbLine
 10
250.6928867464
 20
61.2321831396
 30
0.0
 11
251.7250485138
 21
61.2321831396
 31
0.0
  0
LINE
  5
9E
330
98
100
AcDbEntity
  8
FORMAT
100
AcDbLine
 10
251.7250485138
 20
61.2321831396
 30
0.0
 11
251.7250485138
 21
61.85451597
 31
0.0
  0
LINE
  5
9F
330
98
100
AcDbEntity
  8
FORMAT
100
AcDbLine
 10
251.7250485138
 20
61.85451597
 30
0.0
 11
251.2089676301
 21
62.4768488003
 31
0.0
  0
LINE
  5
A0
330
98
100
AcDbEntity
  8
FORMAT
100
AcDbLine
 10
251.2089676301
 20
62.4768488003
 30
0.0
 11
250.6928867464
 21
62.4768488003
 31
0.0
  0
LINE
  5
A1
330
98
100
AcDbEntity
  8
0
  6
Continuous
 62
     7
370
    18
100
AcDbLine
 10
253.0456084221
 20
61.2321831396
 30
0.0
 11
254.0777701895
 21
61.2321831396
 31
0.0
  0
LINE
  5
A2
330
98
100
AcDbEntity
  8
0
  6
Continuous
 62
     7
370
    18
100
AcDbLine
 10
254.0777701895
 20
61.2321831396
 30
0.0
 11
254.0777701895
 21
61.85451597
 31
0.0
  0
LINE
  5
A3
330
98
100
AcDbEntity
  8
0
  6
Continuous
 62
     7
370
    18
100
AcDbLine
 10
253.0456084221
 20
62.4768488003
 30
0.0
 11
253.0456084221
 21
61.2321831396
 31
0.0
  0
LINE
  5
A4
330
98
100
AcDbEntity
  8
0
  6
Continuous
 62
     7
370
    18
100
AcDbLine
 10
253.5616893058
 20
62.4768488003
 30
0.0
 11
253.0456084221
 21
62.4768488003
 31
0.0
  0
ENDBLK
  5
9A
330
98
100
AcDbEntity
  8
0
100
AcDbBlockEnd
  0
BLOCK
  5
A6
330
A5
100
AcDbEntity
  8
0
100
AcDbBlockBegin
  2
Block7
 70
     0
 10
0.0
 20
0.0
 30
0.0
  3
Block7
  1

  0
LINE
  5
A8
330
A5
100
AcDbEntity
  8
FORMAT
100
AcDbLine
 10
221.8284763776
 20
80.2705155621
 30
0.0
 11
222.3963943455
 21
79.286852787
 31
0.0
  0
LINE
  5
A9
330
A5
100
AcDbEntity
  8
FORMAT
100
AcDbLine
 10
222.3963943455
 20
79.286852787
 30
0.0
 11
222.9643123135
 21
80.2705155621
 31
0.0
  0
LINE
  5
AA
330
A5
100
AcDbEntity
  8
FORMAT
100
AcDbLine
 10
221.8284763776
 20
80.2705155621
 30
0.0
 11
222.9643123135
 21
80.2705155621
 31
0.0
  0
LINE
  5
AB
330
A5
100
AcDbEntity
  8
FORMAT
100
AcDbLine
 10
222.9643123135
 20
80.2705155621
 30
0.0
 11
223.3725273771
 21
80.9775647926
 31
0.0
  0
LINE
  5
AC
330
A5
100
AcDbEntity
  8
FORMAT
100
AcDbLine
 10
223.3725273771
 20
80.9775647926
 30
0.0
 11
224.1023154201
 21
80.9775647926
 31
0.0
  0
ENDBLK
  5
A7
330
A5
100
AcDbEntity
  8
0
100
AcDbBlockEnd
  0
ENDSEC
  0
SECTION
  2
ENTITIES
  0
LINE
  5
AD
330
1F
100
AcDbEntity
  8
0
  6
Continuous
 62
     7
370
    25
100
AcDbLine
 10
115.4095296202
 20
79.0285891326
 30
0.0
 11
115.4095296202
 21
31.701577221
 31
0.0
  0
LINE
  5
AE
330
1F
100
AcDbEntity
  8
0
  6
Continuous
 62
     7
370
    25
100
AcDbLine
 10
131.2095296202
 20
31.701577221
 30
0.0
 11
131.2095296202
 21
79.0285891326
 31
0.0
  0
LINE
  5
AF
330
1F
100
AcDbEntity
  8
0
  6
Continuous
 62
     7
370
    25
100
AcDbLine
 10
131.2095296202
 20
79.0285891326
 30
0.0
 11
131.2095296202
 21
161.4285891326
 31
0.0
  0
LINE
  5
B0
330
1F
100
AcDbEntity
  8
0
  6
Continuous
 62
     7
370
    25
100
AcDbLine
 10
115.4095296202
 20
161.4285891326
 30
0.0
 11
115.4095296202
 21
79.0285891326
 31
0.0
  0
LINE
  5
B1
330
1F
100
AcDbEntity
  8
0
  6
Continuous
 62
     7
370
    25
100
AcDbLine
 10
115.4095296202
 20
184.101577221
 30
0.0
 11
115.4095296202
 21
161.4285891326
 31
0.0
  0
LINE
  5
B2
330
1F
100
AcDbEntity
  8
0
  6
Continuous
 62
     7
370
    25
100
AcDbLine
 10
131.2095296202
 20
161.4285891326
 30
0.0
 11
131.2095296202
 21
184.101577221
 31
0.0
  0
LINE
  5
B3
330
1F
100
AcDbEntity
  8
0
  6
Continuous
 62
     7
370
    25
100
AcDbLine
 10
202.3411834281
 20
188.4769679948
 30
0.0
 11
201.9095296202
 21
188.0971915153
 31
0.0
  0
LINE
  5
B4
330
1F
100
AcDbEntity
  8
0
  6
Continuous
 62
     7
370
    25
100
AcDbLine
 10
201.9095296202
 20
180.1059629268
 30
0.0
 11
202.3411834281
 21
179.7261864473
 31
0.0
  0
ARC
  5
B5
330
1F
100
AcDbEntity
  8
0
  6
Continuous
 62
     7
370
    25
100
AcDbCircle
 10
193.8522950324
 20
184.101577221
 30
0.0
 40
10.62999999999999
100
AcDbArc
 50
339.5062991307
 51
345.842348556
  0
ARC
  5
B6
330
1F
100
AcDbEntity
  8
0
  6
Continuous
 62
     7
370
    25
100
AcDbCircle
 10
193.8522950324
 20
184.101577221
 30
0.0
 40
10.63
100
AcDbArc
 50
14.157651444
 51
20.4937008693
  0
LINE
  5
B7
330
1F
100
AcDbEntity
  8
0
  6
Continuous
 62
     7
370
    25
100
AcDbLine
 10
197.0475735773
 20
175.1259191768
 30
0.0
 11
201.4182558234
 21
175.2022097192
 31
0.0
  0
LINE
  5
B8
330
1F
100
AcDbEntity
  8
0
  6
Continuous
 62
     7
370
    25
100
AcDbLine
 10
201.4182558234
 20
193.0009447229
 30
0.0
 11
196.1141533634
 21
193.0935281757
 31
0.0
  0
ARC
  5
B9
330
1F
100
AcDbEntity
  8
0
  6
Continuous
 62
     7
370
    25
100
AcDbCircle
 10
201.4095296202
 20
175.7021335668
 30
0.0
 40
0.5000000000000332
100
AcDbArc
 50
271.0
 51
0.0
  0
ARC
  5
BA
330
1F
100
AcDbEntity
  8
0
  6
Continuous
 62
     7
370
    25
100
AcDbCircle
 10
201.4095296202
 20
192.5010208753
 30
0.0
 40
0.5000000000000048
100
AcDbArc
 50
0.0
 51
89.0
  0
SPLINE
  5
BB
330
1F
100
AcDbEntity
  8
0
  6
Continuous
 62
     7
370
    25
100
AcDbSpline
210
0.0
220
0.0
230
1.0
 70
     8
 71
     3
 72
    12
 73
     8
 74
     0
 42
0.00000001
 43
0.00000001
 40
0.0
 40
0.0
 40
0.0
 40
0.0
 40
0.0167971611867514
 40
0.3359590551301674
 40
0.599257116873262
 40
0.819486212565655
 40
1.0
 40
1.0
 40
1.0
 40
1.0
 10
194.8525993185065
 20
193.4461057715521
 30
0.0
 10
194.8379157347893
 20
193.4547580816967
 30
0.0
 10
194.5442302211046
 20
193.6278124394261
 30
0.0
 10
194.1196990423239
 20
193.9053120610248
 30
0.0
 10
193.6499810108058
 20
194.2386911260597
 30
0.0
 10
193.3990821670892
 20
194.4604099458893
 30
0.0
 10
193.3711517229366
 20
194.49352018159
 30
0.0
 10
193.3585705132109
 20
194.5084346175061
 30
0.0
  0
ARC
  5
BC
330
1F
100
AcDbEntity
  8
0
  6
Continuous
 62
     7
370
    25
100
AcDbCircle
 10
196.1595296202
 20
195.6931321831
 30
0.0
 40
2.60000000000002
100
AcDbArc
 50
239.4420525213
 51
269.0
  0
SPLINE
  5
BD
330
1F
100
AcDbEntity
  8
0
  6
Continuous
 62
     7
370
    25
100
AcDbSpline
210
0.0
220
0.0
230
1.0
 70
     8
 71
     3
 72
    13
 73
     9
 74
     0
 42
0.00000001
 43
0.00000001
 40
0.0
 40
0.0
 40
0.0
 40
0.0
 40
0.0970921028208095
 40
0.254384765752386
 40
0.4441311141281598
 40
0.6700687869320415
 40
0.9267606364361518
 40
1.0
 40
1.0
 40
1.0
 40
1.0
 10
193.3327152098176
 20
173.362253939828
 30
0.0
 10
193.3344792954995
 20
173.3645082994446
 30
0.0
 10
193.3391012627856
 20
173.3704148018923
 30
0.0
 10
193.50523366874
 20
173.5224223579106
 30
0.0
 10
193.8388496064967
 20
173.7680067825843
 30
0.0
 10
194.4005111365364
 20
174.1241904880793
 30
0.0
 10
194.9488989812585
 20
174.4419002989445
 30
0.0
 10
195.3340414916912
 20
174.6482142929592
 30
0.0
 10
195.4195368653576
 20
174.6940126443048
 30
0.0
  0
ARC
  5
BE
330
1F
100
AcDbEntity
  8
0
  6
Continuous
 62
     7
370
    25
100
AcDbCircle
 10
197.1095296202
 20
171.576459859
 30
0.0
 40
3.549999999999984
100
AcDbArc
 50
91.0
 51
118.1920130769
  0
ARC
  5
BF
330
1F
100
AcDbEntity
  8
0
  6
Continuous
 62
     7
370
    25
100
AcDbCircle
 10
187.5595296202
 20
172.6296876063
 30
0.0
 40
0.5000000000000058
100
AcDbArc
 50
180.0
 51
271.0
  0
ARC
  5
C0
330
1F
100
AcDbEntity
  8
0
  6
Continuous
 62
     7
370
    25
100
AcDbCircle
 10
187.5595296202
 20
195.5734668358
 30
0.0
 40
0.5
100
AcDbArc
 50
89.0
 51
180.0
  0
LINE
  5
C1
330
1F
100
AcDbEntity
  8
0
  6
Continuous
 62
     7
370
    25
100
AcDbLine
 10
187.5682558234
 20
172.1297637587
 30
0.0
 11
191.5944344331
 21
172.2000409678
 31
0.0
  0
LINE
  5
C2
330
1F
100
AcDbEntity
  8
0
  6
Continuous
 62
     7
370
    25
100
AcDbLine
 10
191.5944344331
 20
196.0031134743
 30
0.0
 11
187.5682558234
 21
196.0733906833
 31
0.0
  0
ARC
  5
C3
330
1F
100
AcDbEntity
  8
0
  6
Continuous
 62
     7
370
    25
100
AcDbCircle
 10
191.5595296202
 20
194.003418084
 30
0.0
 40
2.000000000000026
100
AcDbArc
 50
14.6254779684
 51
89.0
  0
SPLINE
  5
C4
330
1F
100
AcDbEntity
  8
0
  6
Continuous
 62
     7
370
    25
100
AcDbSpline
210
0.0
220
0.0
230
1.0
 70
     8
 71
     3
 72
     9
 73
     5
 74
     0
 42
0.00000001
 43
0.00000001
 40
0.0
 40
0.0
 40
0.0
 40
0.0
 40
0.1428792602068137
 40
1.0
 40
1.0
 40
1.0
 40
1.0
 10
201.9095296201767
 20
179.381937871159
 30
0.0
 10
201.9159125615178
 20
179.4050766388996
 30
0.0
 10
201.9605862344631
 20
179.5670229403235
 30
0.0
 10
202.0319269200912
 20
179.7702698376055
 30
0.0
 10
202.0930745013341
 20
179.9444769685646
 30
0.0
  0
SPLINE
  5
C5
330
1F
100
AcDbEntity
  8
0
  6
Continuous
 62
     7
370
    25
100
AcDbSpline
210
0.0
220
0.0
230
1.0
 70
     8
 71
     3
 72
     9
 73
     5
 74
     0
 42
0.00000001
 43
0.00000001
 40
0.0
 40
0.0
 40
0.0
 40
0.0
 40
0.1580914975462187
 40
1.0
 40
1.0
 40
1.0
 40
1.0
 10
202.0770021607096
 20
188.2445367504788
 30
0.0
 10
202.0667150409852
 20
188.2777143119889
 30
0.0
 10
202.0016443706196
 20
188.487577347162
 30
0.0
 10
201.9516338786108
 20
188.6723265201184
 30
0.0
 10
201.9095296201767
 20
188.8278684196519
 30
0.0
  0
ARC
  5
C6
330
1F
100
AcDbEntity
  8
0
  6
Continuous
 62
     7
370
    25
100
AcDbCircle
 10
191.5595296202
 20
174.1997363581
 30
0.0
 40
2.000000000000001
100
AcDbArc
 50
271.0
 51
334.9885921771
  0
LINE
  5
C7
330
1F
100
AcDbEntity
  8
0
  6
Continuous
 62
     7
370
    25
100
AcDbLine
 10
201.9095296202
 20
176.951577221
 30
0.0
 11
203.5145346097
 21
178.1764494499
 31
0.0
  0
LINE
  5
C8
330
1F
100
AcDbEntity
  8
0
  6
Continuous
 62
     7
370
    25
100
AcDbLine
 10
203.5145346097
 20
190.0267049922
 30
0.0
 11
201.9095296202
 21
191.251577221
 31
0.0
  0
ARC
  5
C9
330
1F
100
AcDbEntity
  8
0
  6
Continuous
 62
     7
370
    25
100
AcDbCircle
 10
203.0595296202
 20
178.7726628844
 30
0.0
 40
0.7500000000000014
100
AcDbArc
 50
307.3493490446
 51
0.0
  0
ARC
  5
CA
330
1F
100
AcDbEntity
  8
0
  6
Continuous
 62
     7
370
    25
100
AcDbCircle
 10
203.0595296202
 20
189.4304915577
 30
0.0
 40
0.7500000000000014
100
AcDbArc
 50
0.0
 51
52.6506509554
  0
LINE
  5
CB
330
1F
100
AcDbEntity
  8
0
  6
Continuous
 62
     7
370
    25
100
AcDbLine
 10
177.9400174251
 20
174.601577221
 30
0.0
 11
179.1595296202
 21
175.851577221
 31
0.0
  0
LINE
  5
CC
330
1F
100
AcDbEntity
  8
0
  6
Continuous
 62
     7
370
    25
100
AcDbLine
 10
179.1595296202
 20
192.351577221
 30
0.0
 11
177.9400174251
 21
193.601577221
 31
0.0
  0
LINE
  5
CD
330
1F
100
AcDbEntity
  8
0
  6
Continuous
 62
     7
370
    25
100
AcDbLine
 10
172.364589546
 20
193.501577221
 30
0.0
 11
171.898384264
 21
193.501577221
 31
0.0
  0
SPLINE
  5
CE
330
1F
100
AcDbEntity
  8
0
  6
Continuous
 62
     7
370
    25
100
AcDbSpline
210
0.0
220
0.0
230
1.0
 70
     8
 71
     3
 72
     9
 73
     5
 74
     0
 42
0.00000001
 43
0.00000001
 40
0.0
 40
0.0
 40
0.0
 40
0.0
 40
0.2308149029361558
 40
1.0
 40
1.0
 40
1.0
 40
1.0
 10
171.7095296201767
 20
174.9778920364471
 30
0.0
 10
171.7315685606081
 20
175.0160374696591
 30
0.0
 10
171.8270517384752
 20
175.1813016390291
 30
0.0
 10
171.9225587350799
 20
175.3465449662907
 30
0.0
 10
171.9960212935335
 20
175.4736476710096
 30
0.0
  0
SPLINE
  5
CF
330
1F
100
AcDbEntity
  8
0
  6
Continuous
 62
     7
370
    25
100
AcDbSpline
210
0.0
220
0.0
230
1.0
 70
     8
 71
     3
 72
     9
 73
     5
 74
     0
 42
0.00000001
 43
0.00000001
 40
0.0
 40
0.0
 40
0.0
 40
0.0
 40
0.4982449658294387
 40
1.0
 40
1.0
 40
1.0
 40
1.0
 10
172.7015757326888
 20
192.7295087203486
 30
0.0
 10
172.6281958893898
 20
192.8564556094523
 30
0.0
 10
172.4809192517284
 20
193.1112437113098
 30
0.0
 10
172.3337020535992
 20
193.3660927802649
 30
0.0
 10
172.2598350833213
 20
193.4939645835669
 30
0.0
  0
SPLINE
  5
D0
330
1F
100
AcDbEntity
  8
0
  6
Continuous
 62
     7
370
    25
100
AcDbSpline
210
0.0
220
0.0
230
1.0
 70
     8
 71
     3
 72
     9
 73
     5
 74
     0
 42
0.00000001
 43
0.00000001
 40
0.0
 40
0.0
 40
0.0
 40
0.0
 40
0.6441820525844191
 40
0.9999999999999999
 40
0.9999999999999999
 40
0.9999999999999999
 40
0.9999999999999999
 10
172.153581892465
 20
175.4736679633899
 30
0.0
 10
172.2273745227359
 20
175.3459807838314
 30
0.0
 10
172.341926969478
 20
175.1477647996291
 30
0.0
 10
172.4564639399019
 20
174.9495332097905
 30
0.0
 10
172.4972182496214
 20
174.8789988523812
 30
0.0
  0
LINE
  5
D1
330
1F
100
AcDbEntity
  8
0
  6
Continuous
 62
     7
370
    25
100
AcDbLine
 10
171.8897769879
 20
193.4939598107
 30
0.0
 11
171.7095296202
 21
193.1820096759
 31
0.0
  0
LINE
  5
D2
330
1F
100
AcDbEntity
  8
0
  6
Continuous
 62
     7
370
    25
100
AcDbLine
 10
172.5303825159
 20
174.8724301167
 30
0.0
 11
172.8595296202
 21
175.201577221
 31
0.0
  0
SPLINE
  5
D3
330
1F
100
AcDbEntity
  8
0
  6
Continuous
 62
     7
370
    25
100
AcDbSpline
210
0.0
220
0.0
230
1.0
 70
     8
 71
     3
 72
     9
 73
     5
 74
     0
 42
0.00000001
 43
0.00000001
 40
0.0
 40
0.0
 40
0.0
 40
0.0
 40
0.5156973194565428
 40
1.0
 40
1.0
 40
1.0
 40
1.0
 10
171.9864626309557
 20
175.4653656701237
 30
0.0
 10
172.0160264055227
 20
175.4653699763591
 30
0.0
 10
172.0733541701856
 20
175.4653783266749
 30
0.0
 10
172.1306371565501
 20
175.4653700919996
 30
0.0
 10
172.1583794603959
 20
175.4653661039243
 30
0.0
  0
SPLINE
  5
D4
330
1F
100
AcDbEntity
  8
0
  6
Continuous
 62
     7
370
    25
100
AcDbSpline
210
0.0
220
0.0
230
1.0
 70
     8
 71
     3
 72
     9
 73
     5
 74
     0
 42
0.00000001
 43
0.00000001
 40
0.0
 40
0.0
 40
0.0
 40
0.0
 40
0.5100779247870971
 40
1.0
 40
1.0
 40
1.0
 40
1.0
 10
172.8684078868235
 20
192.7377887951054
 30
0.0
 10
172.8392646574304
 20
192.7377738951214
 30
0.0
 10
172.7821298002314
 20
192.7377446839297
 30
0.0
 10
172.7248524318641
 20
192.7377732214472
 30
0.0
 10
172.6967909846908
 20
192.737787202607
 30
0.0
  0
LINE
  5
D5
330
1F
100
AcDbEntity
  8
0
  6
Continuous
 62
     7
370
    25
100
AcDbLine
 10
172.8595296202
 20
175.976577221
 30
0.0
 11
174.3595296202
 21
175.976577221
 31
0.0
  0
LINE
  5
D6
330
1F
100
AcDbEntity
  8
0
  6
Continuous
 62
     7
370
    25
100
AcDbLine
 10
174.3595296202
 20
192.226577221
 30
0.0
 11
172.8595296202
 21
192.226577221
 31
0.0
  0
ARC
  5
D7
330
1F
100
AcDbEntity
  8
0
  6
Continuous
 62
     7
370
    25
100
AcDbCircle
 10
163.9595296202
 20
178.3605888489
 30
0.0
 40
9.134011627906972
100
AcDbArc
 50
270.0
 51
328.0464183091
  0
ARC
  5
D8
330
1F
100
AcDbEntity
  8
0
  6
Continuous
 62
     7
370
    25
100
AcDbCircle
 10
163.9595296202
 20
189.8425655931
 30
0.0
 40
9.134011627906972
100
AcDbArc
 50
31.9535816909
 51
90.0
  0
LINE
  5
D9
330
1F
100
AcDbEntity
  8
0
  6
Continuous
 62
     7
370
    25
100
AcDbLine
 10
155.4784082151
 20
198.7889694568
 30
0.0
 11
155.3196582151
 21
198.7889694568
 31
0.0
  0
LINE
  5
DA
330
1F
100
AcDbEntity
  8
0
  6
Continuous
 62
     7
370
    25
100
AcDbLine
 10
155.3149065601
 20
198.7845416553
 30
0.0
 11
155.2092404316
 21
198.601577221
 31
0.0
  0
SPLINE
  5
DB
330
1F
100
AcDbEntity
  8
0
  6
Continuous
 62
     7
370
    25
100
AcDbSpline
210
0.0
220
0.0
230
1.0
 70
     8
 71
     3
 72
     9
 73
     5
 74
     0
 42
0.00000001
 43
0.00000001
 40
0.0
 40
0.0
 40
0.0
 40
0.0
 40
0.4999972376865703
 40
1.0
 40
1.0
 40
1.0
 40
1.0
 10
155.5497581973897
 20
170.1114769668797
 30
0.0
 10
155.6164743262311
 20
169.9959578867033
 30
0.0
 10
155.7499073210815
 20
169.7649184499436
 30
0.0
 10
155.8833381214926
 20
169.533877818804
 30
0.0
 10
155.9500538902759
 20
169.4183568650275
 30
0.0
  0
LINE
  5
DC
330
1F
100
AcDbEntity
  8
0
  6
Continuous
 62
     7
370
    25
100
AcDbLine
 10
187.0595296202
 20
189.751577221
 30
0.0
 11
179.1595296202
 21
189.751577221
 31
0.0
  0
LINE
  5
DD
330
1F
100
AcDbEntity
  8
0
  6
Continuous
 62
     7
370
    25
100
AcDbLine
 10
179.1595296202
 20
178.451577221
 30
0.0
 11
187.0595296202
 21
178.451577221
 31
0.0
  0
LINE
  5
DE
330
1F
100
AcDbEntity
  8
0
  6
Continuous
 62
     7
370
    25
100
AcDbLine
 10
137.3064807692
 20
167.901577221
 30
0.0
 11
154.5095296202
 21
167.901577221
 31
0.0
  0
LINE
  5
DF
330
1F
100
AcDbEntity
  8
0
  6
Continuous
 62
     7
370
    25
100
AcDbLine
 10
154.5095296202
 20
200.301577221
 30
0.0
 11
137.2999714077
 21
200.301577221
 31
0.0
  0
SPLINE
  5
E0
330
1F
100
AcDbEntity
  8
0
  6
Continuous
 62
     7
370
    25
100
AcDbSpline
210
0.0
220
0.0
230
1.0
 70
     8
 71
     3
 72
     9
 73
     5
 74
     0
 42
0.00000001
 43
0.00000001
 40
0.0
 40
0.0
 40
0.0
 40
0.0
 40
0.5015109964661149
 40
1.0
 40
1.0
 40
1.0
 40
1.0
 10
155.1157395501494
 20
169.6069748530968
 30
0.0
 10
155.1935683285146
 20
169.7417988724398
 30
0.0
 10
155.3487569064593
 20
170.0106344917842
 30
0.0
 10
155.5041141543134
 20
170.279468291763
 30
0.0
 10
155.5815580339879
 20
170.4134789848306
 30
0.0
  0
LINE
  5
E1
330
1F
100
AcDbEntity
  8
0
  6
Continuous
 62
     7
370
    25
100
AcDbLine
 10
163.8348599281
 20
197.7839607506
 30
0.0
 11
163.7231898939
 21
197.977300175
 31
0.0
  0
SPLINE
  5
E2
330
1F
100
AcDbEntity
  8
0
  6
Continuous
 62
     7
370
    25
100
AcDbSpline
210
0.0
220
0.0
230
1.0
 70
     8
 71
     3
 72
     9
 73
     5
 74
     0
 42
0.00000001
 43
0.00000001
 40
0.0
 40
0.0
 40
0.0
 40
0.0
 40
0.4576940011969439
 40
1.0
 40
1.0
 40
1.0
 40
1.0
 10
162.6551239660421
 20
169.6751644555741
 30
0.0
 10
162.7201820085256
 20
169.7878055921628
 30
0.0
 10
162.8623251048155
 20
170.033911366532
 30
0.0
 10
163.0044718381493
 20
170.2800149602032
 30
0.0
 10
163.0815588643464
 20
170.4134784153781
 30
0.0
  0
SPLINE
  5
E3
330
1F
100
AcDbEntity
  8
0
  6
Continuous
 62
     7
370
    25
100
AcDbSpline
210
0.0
220
0.0
230
1.0
 70
     8
 71
     3
 72
     9
 73
     5
 74
     0
 42
0.00000001
 43
0.00000001
 40
0.0
 40
0.0
 40
0.0
 40
0.0
 40
0.5034644913918217
 40
1.0
 40
1.0
 40
1.0
 40
1.0
 10
163.1658971700563
 20
198.5963127354632
 30
0.0
 10
163.0877107488702
 20
198.4609411754373
 30
0.0
 10
162.9324139553071
 20
198.1920611206559
 30
0.0
 10
162.7771131449882
 20
197.9231831572659
 30
0.0
 10
162.7000007781493
 20
197.7896757009605
 30
0.0
  0
LINE
  5
E4
330
1F
100
AcDbEntity
  8
0
  6
Continuous
 62
     7
370
    25
100
AcDbLine
 10
163.4467756006
 20
170.4190626184
 30
0.0
 11
163.6051649041
 21
170.1448359086
 31
0.0
  0
LINE
  5
E5
330
1F
100
AcDbEntity
  8
0
  6
Continuous
 62
     7
370
    25
100
AcDbLine
 10
154.5095296202
 20
169.601577221
 30
0.0
 11
155.1096633772
 21
169.601577221
 31
0.0
  0
LINE
  5
E6
330
1F
100
AcDbEntity
  8
0
  6
Continuous
 62
     7
370
    25
100
AcDbLine
 10
155.8595330751
 20
198.601577221
 30
0.0
 11
154.5095296202
 21
198.601577221
 31
0.0
  0
LINE
  5
E7
330
1F
100
AcDbEntity
  8
0
  6
Continuous
 62
     7
370
    25
100
AcDbLine
 10
163.0781460816
 20
170.4134784154
 30
0.0
 11
163.4500009539
 21
170.4134784154
 31
0.0
  0
LINE
  5
E8
330
1F
100
AcDbEntity
  8
0
  6
Continuous
 62
     7
370
    25
100
AcDbLine
 10
155.5781309712
 20
170.4134789848
 30
0.0
 11
155.7495748795
 21
170.4134789848
 31
0.0
  0
ARC
  5
E9
330
1F
100
AcDbEntity
  8
0
  6
Continuous
 62
     7
370
    25
100
AcDbCircle
 10
123.3095296202
 20
184.101577221
 30
0.0
 40
9.649999999999995
100
AcDbArc
 50
324.9501653321
 51
211.6883360596
  0
ARC
  5
EA
330
1F
100
AcDbEntity
  8
0
  6
Continuous
 62
     7
370
    25
100
AcDbCircle
 10
115.0130784938
 20
178.97991746
 30
0.0
 40
0.1000000000000273
100
AcDbArc
 50
316.450526379
 51
31.6883360596
  0
ARC
  5
EB
330
1F
100
AcDbEntity
  8
0
  6
Continuous
 62
     7
370
    25
100
AcDbCircle
 10
115.2865505631
 20
178.5613329079
 30
0.0
 40
0.0999999999999909
100
AcDbArc
 50
34.6269032223
 51
109.8647129029
  0
ARC
  5
EC
330
1F
100
AcDbEntity
  8
0
  6
Continuous
 62
     7
370
    25
100
AcDbCircle
 10
123.3095296202
 20
31.701577221
 30
0.0
 40
7.899999999999991
100
AcDbArc
 50
180.0
 51
0.0
  0
ARC
  5
ED
330
1F
100
AcDbEntity
  8
0
  6
Continuous
 62
     7
370
    25
100
AcDbCircle
 10
123.3095296202
 20
184.101577221
 30
0.0
 40
7.899999999999991
100
AcDbArc
 50
0.0
 51
180.0
  0
ARC
  5
EE
330
1F
100
AcDbEntity
  8
0
  6
Continuous
 62
     7
370
    25
100
AcDbCircle
 10
123.3095296202
 20
31.701577221
 30
0.0
 40
10.82499999999998
100
AcDbArc
 50
136.8689719021
 51
180.0
  0
ARC
  5
EF
330
1F
100
AcDbEntity
  8
0
  6
Continuous
 62
     7
370
    25
100
AcDbCircle
 10
123.3095296202
 20
31.701577221
 30
0.0
 40
10.82499999999998
100
AcDbArc
 50
180.0
 51
43.1310280979
  0
LINE
  5
F0
330
1F
100
AcDbEntity
  8
0
  6
Continuous
 62
     7
370
    25
100
AcDbLine
 10
131.0589178842
 20
185.3449189084
 30
0.0
 11
131.1026926441
 21
184.0828024388
 31
0.0
  0
LINE
  5
F1
330
1F
100
AcDbEntity
  8
0
  6
Continuous
 62
     7
370
    25
100
AcDbLine
 10
115.4156105882
 20
184.3462447732
 30
0.0
 11
115.4889554006
 21
184.7118497442
 31
0.0
  0
SPLINE
  5
F2
330
1F
100
AcDbEntity
  8
0
  6
Continuous
 62
     7
370
    25
100
AcDbSpline
210
0.0
220
0.0
230
1.0
 70
     8
 71
     3
 72
     9
 73
     5
 74
     0
 42
0.00000001
 43
0.00000001
 40
0.0
 40
0.0
 40
0.0
 40
0.0
 40
0.4231156651055217
 40
1.0
 40
1.0
 40
1.0
 40
1.0
 10
128.7768213091329
 20
189.7259440024526
 30
0.0
 10
128.8843623992086
 20
189.6508784588075
 30
0.0
 10
129.1385271559046
 20
189.4734670561209
 30
0.0
 10
129.3287574212696
 20
189.2278311648945
 30
0.0
 10
129.4384982813815
 20
189.0861276671581
 30
0.0
  0
ARC
  5
F3
330
1F
100
AcDbEntity
  8
0
  6
Continuous
 62
     7
370
    25
100
AcDbCircle
 10
123.3095296202
 20
31.701577221
 30
0.0
 40
11.55000000000001
100
AcDbArc
 50
133.1556534408
 51
274.9657006069
  0
ARC
  5
F4
330
1F
100
AcDbEntity
  8
0
  6
Continuous
 62
     7
370
    25
100
AcDbCircle
 10
123.3095296202
 20
31.701577221
 30
0.0
 40
11.55
100
AcDbArc
 50
274.9657006069
 51
46.8443465592
  0
ARC
  5
F5
330
1F
100
AcDbEntity
  8
0
  6
Continuous
 62
     7
370
    25
100
AcDbCircle
 10
123.3095296202
 20
184.101577221
 30
0.0
 40
9.92500000000003
100
AcDbArc
 50
322.7469493593
 51
217.2530506407
  0
ARC
  5
F6
330
1F
100
AcDbEntity
  8
0
  6
Continuous
 62
     7
370
    25
100
AcDbCircle
 10
123.3095296202
 20
184.101577221
 30
0.0
 40
9.725000000000032
100
AcDbArc
 50
324.3251241983
 51
215.6748758017
  0
ARC
  5
F7
330
1F
100
AcDbEntity
  8
0
  6
Continuous
 62
     7
370
    25
100
AcDbCircle
 10
123.3095296202
 20
184.101577221
 30
0.0
 40
14.22500000000002
100
AcDbArc
 50
303.7355336397
 51
223.2235523034
  0
LWPOLYLINE
  5
F8
330
1F
100
AcDbEntity
  8
0
  6
Continuous
 62
     7
370
    25
100
AcDbPolyline
 90
        3
 70
   128
 43
0.0
 10
115.4095296202
 20
172.2719269726
 10
114.3670280345
 20
173.0389242666
 10
112.9439545939
 20
174.3596328886
  0
LINE
  5
F9
330
1F
100
AcDbEntity
  8
0
  6
Continuous
 62
     7
370
    25
100
AcDbLine
 10
131.1843095342
 20
196.2382333086
 30
0.0
 11
131.0522773531
 21
196.0347445518
 31
0.0
  0
SPLINE
  5
FA
330
1F
100
AcDbEntity
  8
0
  6
Continuous
 62
     7
370
    25
100
AcDbSpline
210
0.0
220
0.0
230
1.0
 70
     8
 71
     3
 72
    11
 73
     7
 74
     0
 42
0.00000001
 43
0.00000001
 40
0.0
 40
0.0
 40
0.0
 40
0.0
 40
0.1446702591042557
 40
0.3907520209323692
 40
0.5962314811354859
 40
0.9999999999999999
 40
0.9999999999999999
 40
0.9999999999999999
 40
0.9999999999999999
 10
135.9108592483471
 20
191.2091134526429
 30
0.0
 10
135.7117413518319
 20
191.4766114126384
 30
0.0
 10
135.1739271462803
 20
192.1991190594119
 30
0.0
 10
134.2843491923283
 20
193.248913171477
 30
0.0
 10
132.9415419062433
 20
194.6955590223656
 30
0.0
 10
131.88470791231
 20
195.6233535776911
 30
0.0
 10
131.1843095341829
 20
196.238233308581
 30
0.0
  0
LINE
  5
FB
330
1F
100
AcDbEntity
  8
0
  6
Continuous
 62
     7
370
    25
100
AcDbLine
 10
135.6995795613
 20
191.0899452319
 30
0.0
 11
135.9108592483
 21
191.2091134526
 31
0.0
  0
LINE
  5
FC
330
1F
100
AcDbEntity
  8
0
  6
Continuous
 62
     7
370
    25
100
AcDbLine
 10
116.7362670884
 20
196.9896647195
 30
0.0
 11
116.8464774306
 21
196.7735771182
 31
0.0
  0
SPLINE
  5
FD
330
1F
100
AcDbEntity
  8
0
  6
Continuous
 62
     7
370
    25
100
AcDbSpline
210
0.0
220
0.0
230
1.0
 70
     8
 71
     3
 72
    11
 73
     7
 74
     0
 42
0.00000001
 43
0.00000001
 40
0.0
 40
0.0
 40
0.0
 40
0.0
 40
0.1446702591042559
 40
0.3907520209323661
 40
0.5962314811354594
 40
1.0
 40
1.0
 40
1.0
 40
1.0
 10
123.454887499369
 20
198.5684169162948
 30
0.0
 10
123.1236685222948
 20
198.5297247395623
 30
0.0
 10
122.2290514429846
 20
198.4252177984253
 30
0.0
 10
120.875114096217
 20
198.1797177476888
 30
0.0
 10
118.9508783960256
 20
197.7401354509967
 30
0.0
 10
117.6189677446542
 20
197.2887876423301
 30
0.0
 10
116.7362670883678
 20
196.9896647195476
 30
0.0
  0
LINE
  5
FE
330
1F
100
AcDbEntity
  8
0
  6
Continuous
 62
     7
370
    25
100
AcDbLine
 10
123.4548874994
 20
198.5684169163
 30
0.0
 11
123.4524503623
 21
198.3258592297
 31
0.0
  0
LINE
  5
FF
330
1F
100
AcDbEntity
  8
0
  6
Continuous
 62
     7
370
    25
100
AcDbLine
 10
108.8614871744
 20
184.853008632
 30
0.0
 11
109.1037296977
 21
184.8404097874
 31
0.0
  0
SPLINE
  5
100
330
1F
100
AcDbEntity
  8
0
  6
Continuous
 62
     7
370
    25
100
AcDbSpline
210
0.0
220
0.0
230
1.0
 70
     8
 71
     3
 72
    11
 73
     7
 74
     0
 42
0.00000001
 43
0.00000001
 40
0.0
 40
0.0
 40
0.0
 40
0.0
 40
0.1446702591042558
 40
0.3907520209323621
 40
0.5962314811354645
 40
1.0
 40
1.0
 40
1.0
 40
1.0
 10
110.8535578711985
 20
191.4608806846844
 30
0.0
 10
110.7214567906395
 20
191.1546905479564
 30
0.0
 10
110.3646539168809
 20
190.3276759600459
 30
0.0
 10
109.9002945240652
 20
189.0323817972444
 30
0.0
 10
109.3188661099588
 20
187.1461536496636
 30
0.0
 10
109.0437894525208
 20
185.7670112856716
 30
0.0
 10
108.8614871743615
 20
184.8530086319992
 30
0.0
  0
LINE
  5
101
330
1F
100
AcDbEntity
  8
0
  6
Continuous
 62
     7
370
    25
100
AcDbLine
 10
110.8535578712
 20
191.4608806847
 30
0.0
 11
111.0624004212
 21
191.3374912188
 31
0.0
  0
SPLINE
  5
102
330
1F
100
AcDbEntity
  8
0
  6
Continuous
 62
     7
370
    25
100
AcDbSpline
210
0.0
220
0.0
230
1.0
 70
     8
 71
     3
 72
    11
 73
     7
 74
     0
 42
0.00000001
 43
0.00000001
 40
0.0
 40
0.0
 40
0.0
 40
0.0
 40
0.1446702591042542
 40
0.3907520209323654
 40
0.5962314811354789
 40
1.0
 40
1.0
 40
1.0
 40
1.0
 10
110.7081999920062
 20
176.9940409894221
 30
0.0
 10
110.9073178885214
 20
176.7265430294266
 30
0.0
 10
111.4451320940729
 20
176.0040353826531
 30
0.0
 10
112.3347100480249
 20
174.9542412705881
 30
0.0
 10
113.67751733411
 20
173.5075954196994
 30
0.0
 10
114.7343513280434
 20
172.5798008643739
 30
0.0
 10
115.4347497061704
 20
171.964921133484
 30
0.0
  0
LINE
  5
103
330
1F
100
AcDbEntity
  8
0
  6
Continuous
 62
     7
370
    25
100
AcDbLine
 10
110.708199992
 20
176.9940409894
 30
0.0
 11
110.919479679
 21
177.1132092101
 31
0.0
  0
LINE
  5
104
330
1F
100
AcDbEntity
  8
0
  6
Continuous
 62
     7
370
    25
100
AcDbLine
 10
137.5153295427
 20
183.3627446546
 30
0.0
 11
137.757572066
 21
183.3501458101
 31
0.0
  0
SPLINE
  5
105
330
1F
100
AcDbEntity
  8
0
  6
Continuous
 62
     7
370
    25
100
AcDbSpline
210
0.0
220
0.0
230
1.0
 70
     8
 71
     3
 72
    11
 73
     7
 74
     0
 42
0.00000001
 43
0.00000001
 40
0.0
 40
0.0
 40
0.0
 40
0.0
 40
0.1446702591042547
 40
0.3907520209323575
 40
0.596231481135475
 40
1.0
 40
1.0
 40
1.0
 40
1.0
 10
135.7655013691548
 20
176.7422737573806
 30
0.0
 10
135.8976024497138
 20
177.0484638941086
 30
0.0
 10
136.2544053234724
 20
177.8754784820192
 30
0.0
 10
136.718764716288
 20
179.1707726448207
 30
0.0
 10
137.3001931303945
 20
181.0570007924015
 30
0.0
 10
137.5752697878325
 20
182.4361431563935
 30
0.0
 10
137.7575720659918
 20
183.3501458100659
 30
0.0
  0
LINE
  5
106
330
1F
100
AcDbEntity
  8
0
  6
Continuous
 62
     7
370
    25
100
AcDbLine
 10
135.5566588192
 20
176.8656632233
 30
0.0
 11
135.7655013692
 21
176.7422737574
 31
0.0
  0
SPLINE
  5
107
330
1F
100
AcDbEntity
  8
0
  6
Continuous
 62
     7
370
    25
100
AcDbSpline
210
0.0
220
0.0
230
1.0
 70
     8
 71
     3
 72
     9
 73
     5
 74
     0
 42
0.00000001
 43
0.00000001
 40
0.0
 40
0.0
 40
0.0
 40
0.0
 40
0.5863847898283578
 40
1.0
 40
1.0
 40
1.0
 40
1.0
 10
135.0395307916781
 20
175.2003021709862
 30
0.0
 10
135.1871073381105
 20
175.4994402126749
 30
0.0
 10
135.4387791907786
 20
176.0095797096017
 30
0.0
 10
135.6699044475141
 20
176.5278919366539
 30
0.0
 10
135.7655013691548
 20
176.7422737573806
 30
0.0
  0
ARC
  5
108
330
1F
100
AcDbEntity
  8
0
  6
Continuous
 62
     7
370
    25
100
AcDbCircle
 10
123.3095296202
 20
184.101577221
 30
0.0
 40
14.72500000000004
100
AcDbArc
 50
303.6400367407
 51
322.8070678661
  0
SPLINE
  5
109
330
1F
100
AcDbEntity
  8
0
  6
Continuous
 62
     7
370
    25
100
AcDbSpline
210
0.0
220
0.0
230
1.0
 70
     8
 71
     3
 72
     9
 73
     5
 74
     0
 42
0.00000001
 43
0.00000001
 40
0.0
 40
0.0
 40
0.0
 40
0.0
 40
0.5862283062032674
 40
1.0
 40
1.0
 40
1.0
 40
1.0
 10
108.8614871743615
 20
184.8530086319992
 30
0.0
 10
108.8072345371055
 20
184.5246827769834
 30
0.0
 10
108.7146893005793
 20
183.9646179497794
 30
0.0
 10
108.6436356853817
 20
183.400241089245
 30
0.0
 10
108.614235710671
 20
183.166717919722
 30
0.0
  0
SPLINE
  5
10A
330
1F
100
AcDbEntity
  8
0
  6
Continuous
 62
     7
370
    25
100
AcDbSpline
210
0.0
220
0.0
230
1.0
 70
     8
 71
     3
 72
     9
 73
     5
 74
     0
 42
0.00000001
 43
0.00000001
 40
0.0
 40
0.0
 40
0.0
 40
0.0
 40
0.5863847898283638
 40
1.0
 40
1.0
 40
1.0
 40
1.0
 10
109.7357987150133
 20
178.3937357451142
 30
0.0
 10
109.9210715851377
 20
178.1163616860566
 30
0.0
 10
110.2370294226161
 20
177.6433377197651
 30
0.0
 10
110.5703383499676
 20
177.1840212624499
 30
0.0
 10
110.7081999920062
 20
176.9940409894221
 30
0.0
  0
ARC
  5
10B
330
1F
100
AcDbEntity
  8
0
  6
Continuous
 62
     7
370
    25
100
AcDbCircle
 10
123.3095296202
 20
184.101577221
 30
0.0
 40
14.72500000000002
100
AcDbArc
 50
183.6400367407
 51
202.8070678661
  0
SPLINE
  5
10C
330
1F
100
AcDbEntity
  8
0
  6
Continuous
 62
     7
370
    25
100
AcDbSpline
210
0.0
220
0.0
230
1.0
 70
     8
 71
     3
 72
     9
 73
     5
 74
     0
 42
0.00000001
 43
0.00000001
 40
0.0
 40
0.0
 40
0.0
 40
0.0
 40
0.5862283062032875
 40
1.0
 40
1.0
 40
1.0
 40
1.0
 10
137.7575720659918
 20
183.3501458100659
 30
0.0
 10
137.8118247032478
 20
183.6784716650817
 30
0.0
 10
137.904369939774
 20
184.2385364922857
 30
0.0
 10
137.9754235549716
 20
184.8029133528201
 30
0.0
 10
138.0048235296823
 20
185.036436522343
 30
0.0
  0
SPLINE
  5
10D
330
1F
100
AcDbEntity
  8
0
  6
Continuous
 62
     7
370
    25
100
AcDbSpline
210
0.0
220
0.0
230
1.0
 70
     8
 71
     3
 72
     9
 73
     5
 74
     0
 42
0.00000001
 43
0.00000001
 40
0.0
 40
0.0
 40
0.0
 40
0.0
 40
0.5863847898283613
 40
1.0
 40
1.0
 40
1.0
 40
1.0
 10
136.88326052534
 20
189.8094186969508
 30
0.0
 10
136.6979876552156
 20
190.0867927560084
 30
0.0
 10
136.3820298177371
 20
190.5598167222999
 30
0.0
 10
136.0487208903856
 20
191.0191331796152
 30
0.0
 10
135.9108592483471
 20
191.2091134526429
 30
0.0
  0
ARC
  5
10E
330
1F
100
AcDbEntity
  8
0
  6
Continuous
 62
     7
370
    25
100
AcDbCircle
 10
123.3095296202
 20
184.101577221
 30
0.0
 40
14.72500000000002
100
AcDbArc
 50
3.6400367407
 51
22.8070678661
  0
SPLINE
  5
10F
330
1F
100
AcDbEntity
  8
0
  6
Continuous
 62
     7
370
    25
100
AcDbSpline
210
0.0
220
0.0
230
1.0
 70
     8
 71
     3
 72
     9
 73
     5
 74
     0
 42
0.00000001
 43
0.00000001
 40
0.0
 40
0.0
 40
0.0
 40
0.0
 40
0.5862283062032709
 40
0.9999999999999999
 40
0.9999999999999999
 40
0.9999999999999999
 40
0.9999999999999999
 10
131.1843095341829
 20
196.238233308581
 30
0.0
 10
130.9270973216479
 20
196.4493803981748
 30
0.0
 10
130.4883395717863
 20
196.8095593376078
 30
0.0
 10
130.0351016808542
 20
197.1532820036668
 30
0.0
 10
129.8475646710304
 20
197.2955047133984
 30
0.0
  0
SPLINE
  5
110
330
1F
100
AcDbEntity
  8
0
  6
Continuous
 62
     7
370
    25
100
AcDbSpline
210
0.0
220
0.0
230
1.0
 70
     8
 71
     3
 72
     9
 73
     5
 74
     0
 42
0.00000001
 43
0.00000001
 40
0.0
 40
0.0
 40
0.0
 40
0.0
 40
0.5863847898283634
 40
1.0
 40
1.0
 40
1.0
 40
1.0
 10
125.1532593538386
 20
198.7106937469971
 30
0.0
 10
124.8204099372817
 20
198.6889297643661
 30
0.0
 10
124.2527802471352
 20
198.6518142337307
 30
0.0
 10
123.6883460630482
 20
198.5928184639938
 30
0.0
 10
123.454887499369
 20
198.5684169162948
 30
0.0
  0
ARC
  5
111
330
1F
100
AcDbEntity
  8
0
  6
Continuous
 62
     7
370
    25
100
AcDbCircle
 10
123.3095296202
 20
184.101577221
 30
0.0
 40
14.725
100
AcDbArc
 50
63.6400367407
 51
82.8070678661
  0
SPLINE
  5
112
330
1F
100
AcDbEntity
  8
0
  6
Continuous
 62
     7
370
    25
100
AcDbSpline
210
0.0
220
0.0
230
1.0
 70
     8
 71
     3
 72
     9
 73
     5
 74
     0
 42
0.00000001
 43
0.00000001
 40
0.0
 40
0.0
 40
0.0
 40
0.0
 40
0.5862283062032693
 40
1.0
 40
1.0
 40
1.0
 40
1.0
 10
116.7362670883678
 20
196.9896647195476
 30
0.0
 10
116.4248022385768
 20
196.8724859541257
 30
0.0
 10
115.8934992521889
 20
196.6726000663546
 30
0.0
 10
115.3692077460593
 20
196.4519458718793
 30
0.0
 10
115.1522707615247
 20
196.3606454120879
 30
0.0
  0
SPLINE
  5
113
330
1F
100
AcDbEntity
  8
0
  6
Continuous
 62
     7
370
    25
100
AcDbSpline
210
0.0
220
0.0
230
1.0
 70
     8
 71
     3
 72
     9
 73
     5
 74
     0
 42
0.00000001
 43
0.00000001
 40
0.0
 40
0.0
 40
0.0
 40
0.0
 40
0.5863847898283643
 40
0.9999999999999999
 40
0.9999999999999999
 40
0.9999999999999999
 40
0.9999999999999999
 10
111.5795284486752
 20
193.0028522710788
 30
0.0
 10
111.4319519022428
 20
192.7037142293901
 30
0.0
 10
111.1802800495747
 20
192.1935747324633
 30
0.0
 10
110.9491547928392
 20
191.6752625054111
 30
0.0
 10
110.8535578711985
 20
191.4608806846844
 30
0.0
  0
ARC
  5
114
330
1F
100
AcDbEntity
  8
0
  6
Continuous
 62
     7
370
    25
100
AcDbCircle
 10
123.3095296202
 20
184.101577221
 30
0.0
 40
14.725
100
AcDbArc
 50
123.6400367407
 51
142.8070678661
  0
SPLINE
  5
115
330
1F
100
AcDbEntity
  8
0
  6
Continuous
 62
     7
370
    25
100
AcDbSpline
210
0.0
220
0.0
230
1.0
 70
    24
 71
     3
 72
    12
 73
     8
 74
     0
 42
0.00000001
 43
0.00000001
 40
0.0
 40
0.0
 40
0.0
 40
0.0
 40
0.3013828945620944
 40
0.4108442493795586
 40
0.6247185195336503
 40
0.6986171054378635
 40
0.9999999999999999
 40
0.9999999999999999
 40
0.9999999999999999
 40
0.9999999999999999
 10
115.21052675905
 20
171.8384525172632
 30
0.0
 10
114.7454233072086
 20
172.3333295726575
 30
0.0
 10
114.1113956898375
 20
173.0079444762474
 30
0.0
 10
113.1426797413028
 20
174.0386727888981
 30
0.0
 10
112.5255549363539
 20
174.6953028463075
 30
0.0
 10
111.6123047098329
 20
175.6670147980242
 30
0.0
 10
111.0331720521565
 20
176.2832206403567
 30
0.0
 10
110.5680793529668
 20
176.7780862547682
 30
0.0
  0
ARC
  5
116
330
1F
100
AcDbEntity
  8
0
  6
Continuous
 62
     7
370
    25
100
AcDbCircle
 10
110.946245162
 20
176.6861516445
 30
0.0
 40
0.3891803587964613
100
AcDbArc
 50
127.7094634934
 51
166.3360839426
  0
SPLINE
  5
117
330
1F
100
AcDbEntity
  8
0
  6
Continuous
 62
     7
370
    25
100
AcDbSpline
210
0.0
220
0.0
230
1.0
 70
    24
 71
     3
 72
    12
 73
     8
 74
     0
 42
0.00000001
 43
0.00000001
 40
0.0
 40
0.0
 40
0.0
 40
0.0
 40
0.3013828945620992
 40
0.4108442493795573
 40
0.6247185195336495
 40
0.6986171054378605
 40
1.0
 40
1.0
 40
1.0
 40
1.0
 10
137.9792085739808
 20
183.2191973498586
 30
0.0
 10
137.7831841981799
 20
182.568967417479
 30
0.0
 10
137.515964362585
 20
181.6825759423398
 30
0.0
 10
137.107685433697
 20
180.3282791655322
 30
0.0
 10
136.8475895255664
 20
179.4655183784363
 30
0.0
 10
136.4626874034793
 20
178.1887645063989
 30
0.0
 10
136.2186038188972
 20
177.3791179915237
 30
0.0
 10
136.0225839749523
 20
176.728903091705
 30
0.0
  0
ARC
  5
118
330
1F
100
AcDbEntity
  8
0
  6
Continuous
 62
     7
370
    25
100
AcDbCircle
 10
135.9131187784
 20
177.1023715943
 30
0.0
 40
0.3891803587965245
100
AcDbArc
 50
247.7094634934
 51
286.3360839426
  0
ARC
  5
119
330
1F
100
AcDbEntity
  8
0
  6
Continuous
 62
     7
370
    25
100
AcDbCircle
 10
137.6815644118
 20
182.968459829
 30
0.0
 40
0.3891803587979346
100
AcDbArc
 50
40.1110206644
 51
78.7376411134
  0
ARC
  5
11A
330
1F
100
AcDbEntity
  8
0
  6
Continuous
 62
     7
370
    25
100
AcDbCircle
 10
108.9374948286
 20
185.2346946131
 30
0.0
 40
0.3891803588381389
100
AcDbArc
 50
220.1110206664
 51
258.7376411113
  0
SPLINE
  5
11B
330
1F
100
AcDbEntity
  8
0
  6
Continuous
 62
     7
370
    25
100
AcDbSpline
210
0.0
220
0.0
230
1.0
 70
    24
 71
     3
 72
    12
 73
     8
 74
     0
 42
0.00000001
 43
0.00000001
 40
0.0
 40
0.0
 40
0.0
 40
0.0
 40
0.3013828945621506
 40
0.4108442493795785
 40
0.6247185195336595
 40
0.6986171054378615
 40
1.0
 40
1.0
 40
1.0
 40
1.0
 10
108.6398506663725
 20
184.9839570922065
 30
0.0
 10
108.8358750421734
 20
185.6341870245862
 30
0.0
 10
109.1030948777684
 20
186.5205784997255
 30
0.0
 10
109.5113738066564
 20
187.8748752765331
 30
0.0
 10
109.7714697147869
 20
188.7376360636288
 30
0.0
 10
110.156371836874
 20
190.0143899356663
 30
0.0
 10
110.400455421456
 20
190.8240364505414
 30
0.0
 10
110.596475265401
 20
191.47425135036
 30
0.0
  0
ARC
  5
11C
330
1F
100
AcDbEntity
  8
0
  6
Continuous
 62
     7
370
    25
100
AcDbCircle
 10
110.7059404619
 20
191.1007828478
 30
0.0
 40
0.3891803587962479
100
AcDbArc
 50
67.7094634934
 51
106.3360839426
  0
ARC
  5
11D
330
1F
100
AcDbEntity
  8
0
  6
Continuous
 62
     7
370
    25
100
AcDbCircle
 10
117.1048206714
 20
197.1146831507
 30
0.0
 40
0.3891803588384111
100
AcDbArc
 50
160.1110206665
 51
198.7376411113
  0
SPLINE
  5
11E
330
1F
100
AcDbEntity
  8
0
  6
Continuous
 62
     7
370
    25
100
AcDbSpline
210
0.0
220
0.0
230
1.0
 70
    24
 71
     3
 72
    12
 73
     8
 74
     0
 42
0.00000001
 43
0.00000001
 40
0.0
 40
0.0
 40
0.0
 40
0.0
 40
0.3013828945621499
 40
0.4108442493795587
 40
0.6247185195336379
 40
0.6986171054378638
 40
0.9999999999999999
 40
0.9999999999999999
 40
0.9999999999999999
 40
0.9999999999999999
 10
116.7388535274993
 20
197.2470817959758
 30
0.0
 10
117.3999813551416
 20
197.402434672961
 30
0.0
 10
118.3012288081076
 20
197.6142112445104
 30
0.0
 10
119.6782236855303
 20
197.9377797086673
 30
0.0
 10
120.5554443986096
 20
198.1439104383537
 30
0.0
 10
121.8535967472177
 20
198.4489523586745
 30
0.0
 10
122.6768129894762
 20
198.6423930312172
 30
0.0
 10
123.3379255326108
 20
198.7977423166244
 30
0.0
  0
ARC
  5
11F
330
1F
100
AcDbEntity
  8
0
  6
Continuous
 62
     7
370
    25
100
AcDbCircle
 10
123.0692249201
 20
198.5162084243
 30
0.0
 40
0.3891803587962628
100
AcDbArc
 50
7.7094634934
 51
46.3360839426
  0
SPLINE
  5
120
330
1F
100
AcDbEntity
  8
0
  6
Continuous
 62
     7
370
    25
100
AcDbSpline
210
0.0
220
0.0
230
1.0
 70
    24
 71
     3
 72
    12
 73
     8
 74
     0
 42
0.00000001
 43
0.00000001
 40
0.0
 40
0.0
 40
0.0
 40
0.0
 40
0.3013828945621527
 40
0.410844249379554
 40
0.624718519533646
 40
0.6986171054378584
 40
0.9999999999999999
 40
0.9999999999999999
 40
0.9999999999999999
 40
0.9999999999999999
 10
131.4085324813034
 20
196.3647019248018
 30
0.0
 10
131.8736359331448
 20
195.8698248694074
 30
0.0
 10
132.5076635505159
 20
195.1952099658174
 30
0.0
 10
133.4763794990506
 20
194.1644816531668
 30
0.0
 10
134.0935043039993
 20
193.5078515957575
 30
0.0
 10
135.0067545305204
 20
192.5361396440408
 30
0.0
 10
135.5858871881968
 20
191.9199338017083
 30
0.0
 10
136.0509798873864
 20
191.4250681872968
 30
0.0
  0
ARC
  5
121
330
1F
100
AcDbEntity
  8
0
  6
Continuous
 62
     7
370
    25
100
AcDbCircle
 10
135.6728140784
 20
191.5170027976
 30
0.0
 40
0.3891803587964214
100
AcDbArc
 50
307.7094634934
 51
346.3360839426
  0
ARC
  5
122
330
1F
100
AcDbEntity
  8
0
  6
Continuous
 62
     7
370
    25
100
AcDbCircle
 10
131.476855463
 20
195.9815657586
 30
0.0
 40
0.3891803587981055
100
AcDbArc
 50
100.1110206644
 51
138.7376411134
  0
LINE
  5
123
330
1F
100
AcDbEntity
  8
0
  6
Continuous
 62
     7
370
    25
100
AcDbLine
 10
136.022583975
 20
176.7289030917
 30
0.0
 11
135.5182499055
 21
175.0559830451
 31
0.0
  0
LINE
  5
124
330
1F
100
AcDbEntity
  8
0
  6
Continuous
 62
     7
370
    25
100
AcDbLine
 10
135.5182499055
 20
175.0559830451
 30
0.0
 11
135.0395307917
 21
175.200302171
 31
0.0
  0
LINE
  5
125
330
1F
100
AcDbEntity
  8
0
  6
Continuous
 62
     7
370
    25
100
AcDbLine
 10
110.568079353
 20
176.7780862548
 30
0.0
 11
109.3714551289
 21
178.0513123942
 31
0.0
  0
LINE
  5
126
330
1F
100
AcDbEntity
  8
0
  6
Continuous
 62
     7
370
    25
100
AcDbLine
 10
109.735798715
 20
178.3937357451
 30
0.0
 11
109.3714551289
 21
178.0513123942
 31
0.0
  0
LINE
  5
127
330
1F
100
AcDbEntity
  8
0
  6
Continuous
 62
     7
370
    25
100
AcDbLine
 10
136.0509798874
 20
191.4250681873
 30
0.0
 11
137.2476041115
 21
190.1518420478
 31
0.0
  0
LINE
  5
128
330
1F
100
AcDbEntity
  8
0
  6
Continuous
 62
     7
370
    25
100
AcDbLine
 10
137.2476041115
 20
190.1518420478
 30
0.0
 11
136.8832605253
 21
189.809418697
 31
0.0
  0
LINE
  5
129
330
1F
100
AcDbEntity
  8
0
  6
Continuous
 62
     7
370
    25
100
AcDbLine
 10
110.5964752654
 20
191.4742513504
 30
0.0
 11
111.1008093349
 21
193.147171397
 31
0.0
  0
LINE
  5
12A
330
1F
100
AcDbEntity
  8
0
  6
Continuous
 62
     7
370
    25
100
AcDbLine
 10
111.1008093349
 20
193.147171397
 30
0.0
 11
111.5795284487
 21
193.0028522711
 31
0.0
  0
LINE
  5
12B
330
1F
100
AcDbEntity
  8
0
  6
Continuous
 62
     7
370
    25
100
AcDbLine
 10
123.3379255326
 20
198.7977423166
 30
0.0
 11
125.0388838262
 21
199.1974362238
 31
0.0
  0
LINE
  5
12C
330
1F
100
AcDbEntity
  8
0
  6
Continuous
 62
     7
370
    25
100
AcDbLine
 10
125.0388838262
 20
199.1974362238
 30
0.0
 11
125.1532593538
 21
198.710693747
 31
0.0
  0
LINE
  5
12D
330
1F
100
AcDbEntity
  8
0
  6
Continuous
 62
     7
370
    25
100
AcDbLine
 10
131.5811640065
 20
171.3557665532
 30
0.0
 11
131.2095296202
 21
171.2684393093
 31
0.0
  0
LINE
  5
12E
330
1F
100
AcDbEntity
  8
0
  6
Continuous
 62
     7
370
    25
100
AcDbLine
 10
131.5811640065
 20
171.3557665532
 30
0.0
 11
131.4667884788
 21
171.84250903
 31
0.0
  0
LINE
  5
12F
330
1F
100
AcDbEntity
  8
0
  6
Continuous
 62
     7
370
    25
100
AcDbLine
 10
115.4095296202
 20
171.6267104854
 30
0.0
 11
115.210526759
 21
171.8384525173
 31
0.0
  0
LINE
  5
130
330
1F
100
AcDbEntity
  8
0
  6
Continuous
 62
     7
370
    25
100
AcDbLine
 10
108.6142357107
 20
183.1667179197
 30
0.0
 11
108.1355165969
 21
183.3110370456
 31
0.0
  0
LINE
  5
131
330
1F
100
AcDbEntity
  8
0
  6
Continuous
 62
     7
370
    25
100
AcDbLine
 10
108.1355165969
 20
183.3110370456
 30
0.0
 11
108.6398506664
 21
184.9839570922
 31
0.0
  0
LINE
  5
132
330
1F
100
AcDbEntity
  8
0
  6
Continuous
 62
     7
370
    25
100
AcDbLine
 10
138.4835426435
 20
184.8921173965
 30
0.0
 11
137.979208574
 21
183.2191973499
 31
0.0
  0
LINE
  5
133
330
1F
100
AcDbEntity
  8
0
  6
Continuous
 62
     7
370
    25
100
AcDbLine
 10
138.0048235297
 20
185.0364365223
 30
0.0
 11
138.4835426435
 21
184.8921173965
 31
0.0
  0
LINE
  5
134
330
1F
100
AcDbEntity
  8
0
  6
Continuous
 62
     7
370
    25
100
AcDbLine
 10
130.2119082572
 20
197.6379280643
 30
0.0
 11
131.4085324813
 21
196.3647019248
 31
0.0
  0
LINE
  5
135
330
1F
100
AcDbEntity
  8
0
  6
Continuous
 62
     7
370
    25
100
AcDbLine
 10
129.847564671
 20
197.2955047134
 30
0.0
 11
130.2119082572
 21
197.6379280643
 31
0.0
  0
LINE
  5
136
330
1F
100
AcDbEntity
  8
0
  6
Continuous
 62
     7
370
    25
100
AcDbLine
 10
115.1522707615
 20
196.3606454121
 30
0.0
 11
115.0378952339
 21
196.8473878888
 31
0.0
  0
LINE
  5
137
330
1F
100
AcDbEntity
  8
0
  6
Continuous
 62
     7
370
    25
100
AcDbLine
 10
115.0378952339
 20
196.8473878888
 30
0.0
 11
116.7388535275
 21
197.247081796
 31
0.0
  0
ARC
  5
138
330
1F
100
AcDbEntity
  8
0
  6
Continuous
 62
     7
370
    25
100
AcDbCircle
 10
123.3095296202
 20
184.101577221
 30
0.0
 40
16.00000000000002
100
AcDbArc
 50
310.309742062
 51
316.1373625449
  0
LINE
  5
139
330
1F
100
AcDbEntity
  8
0
  6
Continuous
 62
     7
370
    25
100
AcDbLine
 10
133.6602407796
 20
171.9006437119
 30
0.0
 11
133.3367810559
 21
172.2819228841
 31
0.0
  0
ARC
  5
13A
330
1F
100
AcDbEntity
  8
0
  6
Continuous
 62
     7
370
    25
100
AcDbCircle
 10
123.3095296202
 20
184.101577221
 30
0.0
 40
15.50000000000004
100
AcDbArc
 50
310.309742062
 51
316.1373625449
  0
LINE
  5
13B
330
1F
100
AcDbEntity
  8
0
  6
Continuous
 62
     7
370
    25
100
AcDbLine
 10
134.8455796263
 20
173.0146682624
 30
0.0
 11
134.4850780636
 21
173.3611341674
 31
0.0
  0
LINE
  5
13C
330
1F
100
AcDbEntity
  8
0
  6
Continuous
 62
     7
370
    25
100
AcDbLine
 10
133.4511565835
 20
171.7951804073
 30
0.0
 11
131.5811640065
 21
171.3557665532
 31
0.0
  0
LINE
  5
13D
330
1F
100
AcDbEntity
  8
0
  6
Continuous
 62
     7
370
    25
100
AcDbLine
 10
131.4667884788
 20
171.84250903
 30
0.0
 11
133.3367810559
 21
172.2819228841
 31
0.0
  0
LINE
  5
13E
330
1F
100
AcDbEntity
  8
0
  6
Continuous
 62
     7
370
    25
100
AcDbLine
 10
133.4511565835
 20
171.7951804073
 30
0.0
 11
133.3367810559
 21
172.2819228841
 31
0.0
  0
LINE
  5
13F
330
1F
100
AcDbEntity
  8
0
  6
Continuous
 62
     7
370
    25
100
AcDbLine
 10
135.5182499055
 20
175.0559830451
 30
0.0
 11
134.9637971774
 21
173.2168150415
 31
0.0
  0
LINE
  5
140
330
1F
100
AcDbEntity
  8
0
  6
Continuous
 62
     7
370
    25
100
AcDbLine
 10
134.9637971774
 20
173.2168150415
 30
0.0
 11
134.4850780636
 21
173.3611341674
 31
0.0
  0
LINE
  5
141
330
1F
100
AcDbEntity
  8
0
  6
Continuous
 62
     7
370
    25
100
AcDbLine
 10
134.4850780636
 20
173.3611341674
 30
0.0
 11
135.0395307917
 21
175.200302171
 31
0.0
  0
ARC
  5
142
330
1F
100
AcDbEntity
  8
0
  6
Continuous
 62
     7
370
    25
100
AcDbCircle
 10
133.3367810559
 20
172.2819228841
 30
0.0
 40
0.4999999999999912
100
AcDbArc
 50
283.2235523034
 51
310.309742062
  0
ARC
  5
143
330
1F
100
AcDbEntity
  8
0
  6
Continuous
 62
     7
370
    25
100
AcDbCircle
 10
134.4850780636
 20
173.3611341674
 30
0.0
 40
0.4999999999999974
100
AcDbArc
 50
316.1373625449
 51
343.2235523034
  0
LINE
  5
144
330
1F
100
AcDbEntity
  8
0
  6
Continuous
 62
     7
370
    25
100
AcDbLine
 10
138.0048235297
 20
185.0364365223
 30
0.0
 11
138.5592762578
 21
186.875604526
 31
0.0
  0
LINE
  5
145
330
1F
100
AcDbEntity
  8
0
  6
Continuous
 62
     7
370
    25
100
AcDbLine
 10
138.1988003743
 20
188.4096645474
 30
0.0
 11
136.8832605253
 21
189.809418697
 31
0.0
  0
ARC
  5
146
330
1F
100
AcDbEntity
  8
0
  6
Continuous
 62
     7
370
    25
100
AcDbCircle
 10
123.3095296202
 20
184.101577221
 30
0.0
 40
15.50000000000001
100
AcDbArc
 50
10.309742062
 51
16.1373625448
  0
ARC
  5
147
330
1F
100
AcDbEntity
  8
0
  6
Continuous
 62
     7
370
    25
100
AcDbCircle
 10
123.3095296202
 20
184.101577221
 30
0.0
 40
15.50000000000001
100
AcDbArc
 50
190.309742062
 51
196.1373625449
  0
LINE
  5
148
330
1F
100
AcDbEntity
  8
0
  6
Continuous
 62
     7
370
    25
100
AcDbLine
 10
108.4202588661
 20
179.7934898947
 30
0.0
 11
107.9399598095
 21
179.6545193358
 31
0.0
  0
ARC
  5
149
330
1F
100
AcDbEntity
  8
0
  6
Continuous
 62
     7
370
    25
100
AcDbCircle
 10
123.3095296202
 20
184.101577221
 30
0.0
 40
16.0
100
AcDbArc
 50
190.309742062
 51
196.1373625449
  0
LINE
  5
14A
330
1F
100
AcDbEntity
  8
0
  6
Continuous
 62
     7
370
    25
100
AcDbLine
 10
108.0597829826
 20
181.3275499161
 30
0.0
 11
107.5678556717
 21
181.2380651643
 31
0.0
  0
LINE
  5
14B
330
1F
100
AcDbEntity
  8
0
  6
Continuous
 62
     7
370
    25
100
AcDbLine
 10
108.6142357107
 20
183.1667179197
 30
0.0
 11
108.0597829826
 21
181.3275499161
 31
0.0
  0
LINE
  5
14C
330
1F
100
AcDbEntity
  8
0
  6
Continuous
 62
     7
370
    25
100
AcDbLine
 10
108.4202588661
 20
179.7934898947
 30
0.0
 11
109.735798715
 21
178.3937357451
 31
0.0
  0
LINE
  5
14D
330
1F
100
AcDbEntity
  8
0
  6
Continuous
 62
     7
370
    25
100
AcDbLine
 10
109.3714551289
 20
178.0513123942
 30
0.0
 11
108.0559152799
 21
179.4510665438
 31
0.0
  0
LINE
  5
14E
330
1F
100
AcDbEntity
  8
0
  6
Continuous
 62
     7
370
    25
100
AcDbLine
 10
108.4202588661
 20
179.7934898947
 30
0.0
 11
108.0559152799
 21
179.4510665438
 31
0.0
  0
ARC
  5
14F
330
1F
100
AcDbEntity
  8
0
  6
Continuous
 62
     7
370
    25
100
AcDbCircle
 10
108.4202588661
 20
179.7934898947
 30
0.0
 40
0.4999999999999951
100
AcDbArc
 50
196.1373625449
 51
223.2235523034
  0
LINE
  5
150
330
1F
100
AcDbEntity
  8
0
  6
Continuous
 62
     7
370
    25
100
AcDbLine
 10
108.0597829826
 20
181.3275499161
 30
0.0
 11
107.5810638688
 21
181.471869042
 31
0.0
  0
LINE
  5
151
330
1F
100
AcDbEntity
  8
0
  6
Continuous
 62
     7
370
    25
100
AcDbLine
 10
107.5810638688
 20
181.471869042
 30
0.0
 11
108.1355165969
 21
183.3110370456
 31
0.0
  0
ARC
  5
152
330
1F
100
AcDbEntity
  8
0
  6
Continuous
 62
     7
370
    25
100
AcDbCircle
 10
108.0597829826
 20
181.3275499161
 30
0.0
 40
0.5000000000000028
100
AcDbArc
 50
163.2235523034
 51
190.309742062
  0
LINE
  5
153
330
1F
100
AcDbEntity
  8
0
  6
Continuous
 62
     7
370
    25
100
AcDbLine
 10
138.5592762578
 20
186.875604526
 30
0.0
 11
139.0379953716
 21
186.7312854001
 31
0.0
  0
LINE
  5
154
330
1F
100
AcDbEntity
  8
0
  6
Continuous
 62
     7
370
    25
100
AcDbLine
 10
139.0379953716
 20
186.7312854001
 30
0.0
 11
138.4835426435
 21
184.8921173965
 31
0.0
  0
ARC
  5
155
330
1F
100
AcDbEntity
  8
0
  6
Continuous
 62
     7
370
    25
100
AcDbCircle
 10
123.3095296202
 20
184.101577221
 30
0.0
 40
16.00000000000001
100
AcDbArc
 50
10.309742062
 51
16.1373625448
  0
LINE
  5
156
330
1F
100
AcDbEntity
  8
0
  6
Continuous
 62
     7
370
    25
100
AcDbLine
 10
139.0512035687
 20
186.9650892778
 30
0.0
 11
138.5592762578
 21
186.875604526
 31
0.0
  0
LINE
  5
157
330
1F
100
AcDbEntity
  8
0
  6
Continuous
 62
     7
370
    25
100
AcDbLine
 10
138.6790994308
 20
188.5486351063
 30
0.0
 11
138.1988003743
 21
188.4096645474
 31
0.0
  0
ARC
  5
158
330
1F
100
AcDbEntity
  8
0
  6
Continuous
 62
     7
370
    25
100
AcDbCircle
 10
138.5592762578
 20
186.875604526
 30
0.0
 40
0.5000000000000246
100
AcDbArc
 50
343.2235523034
 51
10.309742062
  0
LINE
  5
159
330
1F
100
AcDbEntity
  8
0
  6
Continuous
 62
     7
370
    25
100
AcDbLine
 10
138.5631439604
 20
188.7520878983
 30
0.0
 11
138.1988003743
 21
188.4096645474
 31
0.0
  0
ARC
  5
15A
330
1F
100
AcDbEntity
  8
0
  6
Continuous
 62
     7
370
    25
100
AcDbCircle
 10
138.1988003743
 20
188.4096645474
 30
0.0
 40
0.5000000000000209
100
AcDbArc
 50
16.1373625448
 51
43.2235523034
  0
LINE
  5
15B
330
1F
100
AcDbEntity
  8
0
  6
Continuous
 62
     7
370
    25
100
AcDbLine
 10
137.2476041115
 20
190.1518420478
 30
0.0
 11
138.5631439604
 21
188.7520878983
 31
0.0
  0
ARC
  5
15C
330
1F
100
AcDbEntity
  8
0
  6
Continuous
 62
     7
370
    25
100
AcDbCircle
 10
112.1339811768
 20
194.8420202747
 30
0.0
 40
0.4999999999999949
100
AcDbArc
 50
136.1373625449
 51
163.2235523034
  0
LINE
  5
15D
330
1F
100
AcDbEntity
  8
0
  6
Continuous
 62
     7
370
    25
100
AcDbLine
 10
112.1339811768
 20
194.8420202747
 30
0.0
 11
111.7734796141
 21
195.1884861797
 31
0.0
  0
LINE
  5
15E
330
1F
100
AcDbEntity
  8
0
  6
Continuous
 62
     7
370
    25
100
AcDbLine
 10
111.655262063
 20
194.9863394006
 30
0.0
 11
112.1339811768
 21
194.8420202747
 31
0.0
  0
LINE
  5
15F
330
1F
100
AcDbEntity
  8
0
  6
Continuous
 62
     7
370
    25
100
AcDbLine
 10
111.1008093349
 20
193.147171397
 30
0.0
 11
111.655262063
 21
194.9863394006
 31
0.0
  0
LINE
  5
160
330
1F
100
AcDbEntity
  8
0
  6
Continuous
 62
     7
370
    25
100
AcDbLine
 10
112.1339811768
 20
194.8420202747
 30
0.0
 11
111.5795284487
 21
193.0028522711
 31
0.0
  0
ARC
  5
161
330
1F
100
AcDbEntity
  8
0
  6
Continuous
 62
     7
370
    25
100
AcDbCircle
 10
123.3095296202
 20
184.101577221
 30
0.0
 40
15.5
100
AcDbArc
 50
130.309742062
 51
136.1373625449
  0
ARC
  5
162
330
1F
100
AcDbEntity
  8
0
  6
Continuous
 62
     7
370
    25
100
AcDbCircle
 10
123.3095296202
 20
184.101577221
 30
0.0
 40
15.99999999999999
100
AcDbArc
 50
130.309742062
 51
136.1373625449
  0
LINE
  5
163
330
1F
100
AcDbEntity
  8
0
  6
Continuous
 62
     7
370
    25
100
AcDbLine
 10
113.2822781845
 20
195.921231558
 30
0.0
 11
112.9588184608
 21
196.3025107302
 31
0.0
  0
LINE
  5
164
330
1F
100
AcDbEntity
  8
0
  6
Continuous
 62
     7
370
    25
100
AcDbLine
 10
115.1522707615
 20
196.3606454121
 30
0.0
 11
113.2822781845
 21
195.921231558
 31
0.0
  0
ARC
  5
165
330
1F
100
AcDbEntity
  8
0
  6
Continuous
 62
     7
370
    25
100
AcDbCircle
 10
123.3095296202
 20
184.101577221
 30
0.0
 40
15.99999999999998
100
AcDbArc
 50
70.309742062
 51
76.1373625448
  0
LINE
  5
166
330
1F
100
AcDbEntity
  8
0
  6
Continuous
 62
     7
370
    25
100
AcDbLine
 10
128.7004924093
 20
199.1660227869
 30
0.0
 11
128.5320248221
 21
198.695258863
 31
0.0
  0
ARC
  5
167
330
1F
100
AcDbEntity
  8
0
  6
Continuous
 62
     7
370
    25
100
AcDbCircle
 10
123.3095296202
 20
184.101577221
 30
0.0
 40
15.50000000000001
100
AcDbArc
 50
70.309742062
 51
76.1373625449
  0
LINE
  5
168
330
1F
100
AcDbEntity
  8
0
  6
Continuous
 62
     7
370
    25
100
AcDbLine
 10
127.0232519309
 20
199.1501076011
 30
0.0
 11
127.1430494248
 21
199.6355440649
 31
0.0
  0
LINE
  5
169
330
1F
100
AcDbEntity
  8
0
  6
Continuous
 62
     7
370
    25
100
AcDbLine
 10
125.0388838262
 20
199.1974362238
 30
0.0
 11
126.9088764032
 21
199.6368500778
 31
0.0
  0
LINE
  5
16A
330
1F
100
AcDbEntity
  8
0
  6
Continuous
 62
     7
370
    25
100
AcDbLine
 10
126.9088764032
 20
199.6368500778
 30
0.0
 11
127.0232519309
 21
199.1501076011
 31
0.0
  0
LINE
  5
16B
330
1F
100
AcDbEntity
  8
0
  6
Continuous
 62
     7
370
    25
100
AcDbLine
 10
127.0232519309
 20
199.1501076011
 30
0.0
 11
125.1532593538
 21
198.710693747
 31
0.0
  0
LINE
  5
16C
330
1F
100
AcDbEntity
  8
0
  6
Continuous
 62
     7
370
    25
100
AcDbLine
 10
129.847564671
 20
197.2955047134
 30
0.0
 11
128.5320248221
 21
198.695258863
 31
0.0
  0
ARC
  5
16D
330
1F
100
AcDbEntity
  8
0
  6
Continuous
 62
     7
370
    25
100
AcDbCircle
 10
127.0232519309
 20
199.1501076011
 30
0.0
 40
0.5000000000000199
100
AcDbArc
 50
76.1373625448
 51
103.2235523034
  0
ARC
  5
16E
330
1F
100
AcDbEntity
  8
0
  6
Continuous
 62
     7
370
    25
100
AcDbCircle
 10
128.5320248221
 20
198.695258863
 30
0.0
 40
0.4999999999999806
100
AcDbArc
 50
43.2235523034
 51
70.309742062
  0
LINE
  5
16F
330
1F
100
AcDbEntity
  8
0
  6
Continuous
 62
     7
370
    25
100
AcDbLine
 10
128.5320248221
 20
198.695258863
 30
0.0
 11
128.8963684083
 21
199.0376822138
 31
0.0
  0
ARC
  5
170
330
1F
100
AcDbEntity
  8
0
  6
Continuous
 62
     7
370
    25
100
AcDbCircle
 10
113.2822781845
 20
195.921231558
 30
0.0
 40
0.5000000000000129
100
AcDbArc
 50
103.2235523034
 51
130.309742062
  0
LINE
  5
171
330
1F
100
AcDbEntity
  8
0
  6
Continuous
 62
     7
370
    25
100
AcDbLine
 10
113.2822781845
 20
195.921231558
 30
0.0
 11
113.1679026569
 21
196.4079740348
 31
0.0
  0
LINE
  5
172
330
1F
100
AcDbEntity
  8
0
  6
Continuous
 62
     7
370
    25
100
AcDbLine
 10
128.8963684083
 20
199.0376822138
 30
0.0
 11
130.2119082572
 21
197.6379280643
 31
0.0
  0
LINE
  5
173
330
1F
100
AcDbEntity
  8
0
  6
Continuous
 62
     7
370
    25
100
AcDbLine
 10
113.1679026569
 20
196.4079740348
 30
0.0
 11
115.0378952339
 21
196.8473878888
 31
0.0
  0
ARC
  5
174
330
1F
100
AcDbEntity
  8
0
  6
Continuous
 62
     7
370
    25
100
AcDbCircle
 10
123.3095296202
 20
184.101577221
 30
0.0
 40
8.249999999999986
100
AcDbArc
 50
343.2508741362
 51
196.7491258638
  0
ARC
  5
175
330
1F
100
AcDbEntity
  8
0
  6
Continuous
 62
     7
370
    25
100
AcDbCircle
 10
123.3095296202
 20
184.101577221
 30
0.0
 40
8.049999999999988
100
AcDbArc
 50
348.9219835539
 51
191.0780164461
  0
ARC
  5
176
330
1F
100
AcDbEntity
  8
0
  6
Continuous
 62
     7
370
    25
100
AcDbCircle
 10
123.3095296202
 20
184.101577221
 30
0.0
 40
9.574999999999966
100
AcDbArc
 50
325.5951096848
 51
214.4048903152
  0
LINE
  5
177
330
1F
100
AcDbEntity
  8
0
  6
Continuous
 62
     7
370
    25
100
AcDbLine
 10
204.1419451722
 20
186.701577221
 30
0.0
 11
204.1594236335
 21
186.701577221
 31
0.0
  0
ARC
  5
178
330
1F
100
AcDbEntity
  8
0
  6
Continuous
 62
     7
370
    25
100
AcDbCircle
 10
193.8522950324
 20
184.101577221
 30
0.0
 40
10.61305328357492
100
AcDbArc
 50
7.3079276166
 51
14.1807309007
  0
SPLINE
  5
179
330
1F
100
AcDbEntity
  8
0
  6
Continuous
 62
     7
370
    25
100
AcDbSpline
210
0.0
220
0.0
230
1.0
 70
     8
 71
     3
 72
    12
 73
     8
 74
     0
 42
0.00000001
 43
0.00000001
 40
0.0
 40
0.0
 40
0.0
 40
0.0
 40
0.2133534395476153
 40
0.4267919313634476
 40
0.6383539739091488
 40
0.8490950351927585
 40
1.0
 40
1.0
 40
1.0
 40
1.0
 10
204.3791369139764
 20
184.7015772210328
 30
0.0
 10
204.3887960577037
 20
184.7096787811488
 30
0.0
 10
204.4081181957272
 20
184.7258851310268
 30
0.0
 10
204.4204312657353
 20
184.8532862560427
 30
0.0
 10
204.4180938254385
 20
185.0406802719484
 30
0.0
 10
204.4029763064247
 20
185.2516562972397
 30
0.0
 10
204.3861556940438
 20
185.3927166188587
 30
0.0
 10
204.3791369139764
 20
185.4515772210328
 30
0.0
  0
LINE
  5
17A
330
1F
100
AcDbEntity
  8
0
  6
Continuous
 62
     7
370
    25
100
AcDbLine
 10
204.1419451722
 20
184.701577221
 30
0.0
 11
204.379136914
 21
184.701577221
 31
0.0
  0
ARC
  5
17B
330
1F
100
AcDbEntity
  8
0
  6
Continuous
 62
     7
370
    25
100
AcDbCircle
 10
193.8522950324
 20
184.101577221
 30
0.0
 40
10.30712860111874
100
AcDbArc
 50
356.6628035549
 51
3.3371964451
  0
LINE
  5
17C
330
1F
100
AcDbEntity
  8
0
  6
Continuous
 62
     7
370
    25
100
AcDbLine
 10
204.379136914
 20
183.501577221
 30
0.0
 11
204.1419451722
 21
183.501577221
 31
0.0
  0
SPLINE
  5
17D
330
1F
100
AcDbEntity
  8
0
  6
Continuous
 62
     7
370
    25
100
AcDbSpline
210
0.0
220
0.0
230
1.0
 70
     8
 71
     3
 72
    12
 73
     8
 74
     0
 42
0.00000001
 43
0.00000001
 40
0.0
 40
0.0
 40
0.0
 40
0.0
 40
0.2133534395476116
 40
0.4267919313634445
 40
0.6383539739091463
 40
0.8490950351927521
 40
1.0
 40
1.0
 40
1.0
 40
1.0
 10
204.3791369139764
 20
182.7515772210328
 30
0.0
 10
204.3887960577037
 20
182.8350710091899
 30
0.0
 10
204.4081181957271
 20
183.0020918698801
 30
0.0
 10
204.4204312657353
 20
183.2259286314776
 30
0.0
 10
204.4180938254385
 20
183.3950143523549
 30
0.0
 10
204.4029763064247
 20
183.4876759385649
 30
0.0
 10
204.3861556940438
 20
183.4974844135291
 30
0.0
 10
204.3791369139764
 20
183.5015772210328
 30
0.0
  0
ARC
  5
17E
330
1F
100
AcDbEntity
  8
0
  6
Continuous
 62
     7
370
    25
100
AcDbCircle
 10
193.8522950324
 20
184.101577221
 30
0.0
 40
10.61305328357492
100
AcDbArc
 50
345.8192690993
 51
352.6920723834
  0
LINE
  5
17F
330
1F
100
AcDbEntity
  8
0
  6
Continuous
 62
     7
370
    25
100
AcDbLine
 10
204.1594236335
 20
181.501577221
 30
0.0
 11
204.1419451722
 21
181.501577221
 31
0.0
  0
LINE
  5
180
330
1F
100
AcDbEntity
  8
0
  6
Continuous
 62
     7
370
    25
100
AcDbLine
 10
187.5682558234
 20
192.3522372296
 30
0.0
 11
187.5682558234
 21
175.8509174977
 31
0.0
  0
SPLINE
  5
181
330
1F
100
AcDbEntity
  8
0
  6
Continuous
 62
     7
370
    25
100
AcDbSpline
210
0.0
220
0.0
230
1.0
 70
     8
 71
     3
 72
    11
 73
     7
 74
     0
 42
0.00000001
 43
0.00000001
 40
0.0
 40
0.0
 40
0.0
 40
0.0
 40
0.2499999999999913
 40
0.4999999999999988
 40
0.7499999999999947
 40
1.0
 40
1.0
 40
1.0
 40
1.0
 10
187.5682558233953
 20
175.8509159584929
 30
0.0
 10
187.5018847706579
 20
175.8568084358958
 30
0.0
 10
187.3691426651832
 20
175.8685933907017
 30
0.0
 10
187.2006789244025
 20
175.9725150731336
 30
0.0
 10
187.0825915653674
 20
176.1226954775896
 30
0.0
 10
187.0672169352403
 20
176.2422545366216
 30
0.0
 10
187.0595296201767
 20
176.3020340661376
 30
0.0
  0
LINE
  5
182
330
1F
100
AcDbEntity
  8
0
  6
Continuous
 62
     7
370
    25
100
AcDbLine
 10
187.0595296202
 20
176.3020889164
 30
0.0
 11
187.0595296202
 21
191.9010119866
 31
0.0
  0
SPLINE
  5
183
330
1F
100
AcDbEntity
  8
0
  6
Continuous
 62
     7
370
    25
100
AcDbSpline
210
0.0
220
0.0
230
1.0
 70
     8
 71
     3
 72
    11
 73
     7
 74
     0
 42
0.00000001
 43
0.00000001
 40
0.0
 40
0.0
 40
0.0
 40
0.0
 40
0.2499999999999901
 40
0.5000000000000007
 40
0.7500000000000012
 40
1.0
 40
1.0
 40
1.0
 40
1.0
 10
187.5682558233953
 20
192.3522369443279
 30
0.0
 10
187.5018847706579
 20
192.3463430712554
 30
0.0
 10
187.3691426651832
 20
192.3345553251104
 30
0.0
 10
187.2006789244025
 20
192.2306090281882
 30
0.0
 10
187.0825915653674
 20
192.0803930525787
 30
0.0
 10
187.0672169352402
 20
191.9608056752475
 30
0.0
 10
187.0595296201767
 20
191.9010119865819
 30
0.0
  0
LWPOLYLINE
  5
184
330
1F
100
AcDbEntity
  8
0
  6
Continuous
 62
     7
370
    25
100
AcDbPolyline
 90
        3
 70
   128
 43
0.0
 10
187.5682558234
 20
175.8509174977
 10
193.5597296202
 20
175.917169909
 10
197.0475735773
 20
175.9559858753
  0
LWPOLYLINE
  5
185
330
1F
100
AcDbEntity
  8
0
  6
Continuous
 62
     7
370
    25
100
AcDbPolyline
 90
        3
 70
   128
 43
0.0
 10
196.1141533634
 20
192.2575746375
 10
193.5597296202
 20
192.2859845331
 10
187.5682558065
 20
192.3522369445
  0
LINE
  5
186
330
1F
100
AcDbEntity
  8
0
  6
Continuous
 62
     7
370
    25
100
AcDbLine
 10
201.9095296202
 20
192.5010208753
 30
0.0
 11
201.9095296202
 21
175.7021335668
 31
0.0
  0
LINE
  5
187
330
1F
100
AcDbEntity
  8
0
  6
Continuous
 62
     7
370
    25
100
AcDbLine
 10
187.5682558234
 20
175.8509162444
 30
0.0
 11
187.5682558234
 21
172.3554433078
 31
0.0
  0
ARC
  5
188
330
1F
100
AcDbEntity
  8
0
  6
Continuous
 62
     7
370
    25
100
AcDbCircle
 10
187.5535909149
 20
172.8493296646
 30
0.0
 40
0.4941040304928289
100
AcDbArc
 50
180.7535768612
 51
271.7007770083
  0
LINE
  5
189
330
1F
100
AcDbEntity
  8
0
  6
Continuous
 62
     7
370
    25
100
AcDbLine
 10
187.0595296202
 20
172.8428311994
 30
0.0
 11
187.0595296202
 21
176.302087662
 31
0.0
  0
LINE
  5
18A
330
1F
100
AcDbEntity
  8
0
  6
Continuous
 62
     7
370
    25
100
AcDbLine
 10
187.5682558234
 20
195.8477111343
 30
0.0
 11
187.5682558234
 21
192.3522384836
 31
0.0
  0
ARC
  5
18B
330
1F
100
AcDbEntity
  8
0
  6
Continuous
 62
     7
370
    25
100
AcDbCircle
 10
187.5535909149
 20
195.3538247775
 30
0.0
 40
0.4941040304929392
100
AcDbArc
 50
88.2992229918
 51
179.2464231388
  0
LINE
  5
18C
330
1F
100
AcDbEntity
  8
0
  6
Continuous
 62
     7
370
    25
100
AcDbLine
 10
187.0595296202
 20
191.90106678
 30
0.0
 11
187.0595296202
 21
195.3603232427
 31
0.0
  0
SPLINE
  5
18D
330
1F
100
AcDbEntity
  8
0
  6
Continuous
 62
     7
370
    25
100
AcDbSpline
210
0.0
220
0.0
230
1.0
 70
     8
 71
     3
 72
    12
 73
     8
 74
     0
 42
0.00000001
 43
0.00000001
 40
0.0
 40
0.0
 40
0.0
 40
0.0
 40
0.1662426524176545
 40
0.3368059756191297
 40
0.6054181071254586
 40
0.8801435087136193
 40
1.0
 40
1.0
 40
1.0
 40
1.0
 10
191.6507636501205
 20
172.4249168393619
 30
0.0
 10
191.7502203573958
 20
172.5804020148449
 30
0.0
 10
191.9517186662747
 20
172.8954134482001
 30
0.0
 10
192.7739664222972
 20
173.5583785531986
 30
0.0
 10
194.1357955892837
 20
174.410573470004
 30
0.0
 10
195.6969017779427
 20
175.2532021486161
 30
0.0
 10
196.6671414701042
 20
175.7910602413113
 30
0.0
 10
196.9618572878071
 20
175.9544376921385
 30
0.0
  0
LINE
  5
18E
330
1F
100
AcDbEntity
  8
0
  6
Continuous
 62
     7
370
    25
100
AcDbLine
 10
191.6507636501
 20
172.4249168394
 30
0.0
 11
187.5682558234
 21
172.3554433078
 31
0.0
  0
LWPOLYLINE
  5
18F
330
1F
100
AcDbEntity
  8
0
  6
Continuous
 62
     7
370
    25
100
AcDbPolyline
 90
        3
 70
   128
 43
0.0
 10
196.9618572878
 20
175.9544376921
 10
193.5595296202
 20
175.9169139886
 10
187.5682558403
 20
175.8509159587
  0
LINE
  5
190
330
1F
100
AcDbEntity
  8
0
  6
Continuous
 62
     7
370
    25
100
AcDbLine
 10
191.5944344331
 20
195.7323054358
 30
0.0
 11
191.5944344331
 21
195.7791961776
 31
0.0
  0
SPLINE
  5
191
330
1F
100
AcDbEntity
  8
0
  6
Continuous
 62
     7
370
    25
100
AcDbSpline
210
0.0
220
0.0
230
1.0
 70
     8
 71
     3
 72
    13
 73
     9
 74
     0
 42
0.00000001
 43
0.00000001
 40
0.0
 40
0.0
 40
0.0
 40
0.0
 40
0.0460329529079877
 40
0.249242584819372
 40
0.4775225570272876
 40
0.7051721168687834
 40
0.8526808263814666
 40
1.0
 40
1.0
 40
1.0
 40
1.0
 10
196.0434434201937
 20
192.2588489811353
 30
0.0
 10
195.9414528858852
 20
192.3213579495719
 30
0.0
 10
195.3892314272927
 20
192.6598089044493
 30
0.0
 10
194.348112502831
 20
193.2777863284782
 30
0.0
 10
193.0629120594504
 20
194.0882586551914
 30
0.0
 10
192.1703411593276
 20
194.7808834564561
 30
0.0
 10
191.681798701936
 20
195.3311172581541
 30
0.0
 10
191.6235433724853
 20
195.59863336926
 30
0.0
 10
191.5944344330512
 20
195.7323054358204
 30
0.0
  0
LWPOLYLINE
  5
192
330
1F
100
AcDbEntity
  8
0
  6
Continuous
 62
     7
370
    25
100
AcDbPolyline
 90
        3
 70
   128
 43
0.0
 10
196.0434434202
 20
192.2588489811
 10
193.5595296202
 20
192.2862404535
 10
187.5682558234
 20
192.3522384836
  0
LINE
  5
193
330
1F
100
AcDbEntity
  8
0
  6
Continuous
 62
     7
370
    25
100
AcDbLine
 10
191.5944344331
 20
195.7791961776
 30
0.0
 11
187.5682558234
 21
195.8477111343
 31
0.0
  0
LINE
  5
194
330
1F
100
AcDbEntity
  8
0
  6
Continuous
 62
     7
370
    25
100
AcDbLine
 10
196.0816192242
 20
192.2581616784
 30
0.0
 11
196.0434434202
 21
192.2588489811
 31
0.0
  0
LINE
  5
195
330
1F
100
AcDbEntity
  8
0
  6
Continuous
 62
     7
370
    25
100
AcDbLine
 10
196.0816192242
 20
192.2581616784
 30
0.0
 11
196.1141533634
 21
192.2575746375
 31
0.0
  0
LINE
  5
196
330
1F
100
AcDbEntity
  8
0
  6
Continuous
 62
     7
370
    25
100
AcDbLine
 10
197.0475735773
 20
175.9559858753
 30
0.0
 11
197.0029672441
 21
175.9551792582
 31
0.0
  0
LINE
  5
197
330
1F
100
AcDbEntity
  8
0
  6
Continuous
 62
     7
370
    25
100
AcDbLine
 10
196.9618572878
 20
175.9544376921
 30
0.0
 11
197.0029672441
 21
175.9551792582
 31
0.0
  0
LINE
  5
198
330
1F
100
AcDbEntity
  8
0
  6
Continuous
 62
     7
370
    25
100
AcDbLine
 10
187.0595296202
 20
172.6296876063
 30
0.0
 11
187.0595296202
 21
172.8428311994
 31
0.0
  0
LINE
  5
199
330
1F
100
AcDbEntity
  8
0
  6
Continuous
 62
     7
370
    25
100
AcDbLine
 10
187.0595296202
 20
195.3603232427
 30
0.0
 11
187.0595296202
 21
195.5734668358
 31
0.0
  0
LINE
  5
19A
330
1F
100
AcDbEntity
  8
0
  6
Continuous
 62
     7
370
    25
100
AcDbLine
 10
191.5944344331
 20
172.2166297741
 30
0.0
 11
191.6507636501
 21
172.4249168394
 31
0.0
  0
LINE
  5
19B
330
1F
100
AcDbEntity
  8
0
  6
Continuous
 62
     7
370
    25
100
AcDbLine
 10
203.8095296202
 20
189.4304909158
 30
0.0
 11
203.8095296202
 21
178.7726628844
 31
0.0
  0
LINE
  5
19C
330
1F
100
AcDbEntity
  8
0
  6
Continuous
 62
     7
370
    25
100
AcDbLine
 10
174.6095296202
 20
175.9048396331
 30
0.0
 11
174.3595296202
 21
176.5117928982
 31
0.0
  0
LINE
  5
19D
330
1F
100
AcDbEntity
  8
0
  6
Continuous
 62
     7
370
    25
100
AcDbLine
 10
174.3595296202
 20
182.1913615438
 30
0.0
 11
174.3595296202
 21
176.5117928982
 31
0.0
  0
LINE
  5
19E
330
1F
100
AcDbEntity
  8
0
  6
Continuous
 62
     7
370
    25
100
AcDbLine
 10
174.3595296202
 20
182.1913615438
 30
0.0
 11
174.6095296202
 21
182.798314809
 31
0.0
  0
LINE
  5
19F
330
1F
100
AcDbEntity
  8
0
  6
Continuous
 62
     7
370
    25
100
AcDbLine
 10
177.1595296202
 20
182.798314809
 30
0.0
 11
174.6095296202
 21
182.798314809
 31
0.0
  0
SPLINE
  5
1A0
330
1F
100
AcDbEntity
  8
0
  6
Continuous
 62
     7
370
    25
100
AcDbSpline
210
0.0
220
0.0
230
1.0
 70
     8
 71
     3
 72
    11
 73
     7
 74
     0
 42
0.00000001
 43
0.00000001
 40
0.0
 40
0.0
 40
0.0
 40
0.0
 40
0.2431641197380915
 40
0.4936284730588929
 40
0.7421706076863281
 40
1.0
 40
1.0
 40
1.0
 40
1.0
 10
177.1595296201767
 20
175.90483963311
 30
0.0
 10
177.3696699433855
 20
176.4482861653808
 30
0.0
 10
177.7962593883471
 20
177.5514944931676
 30
0.0
 10
178.00664381849
 20
179.3015395228942
 30
0.0
 10
177.8159571248231
 20
181.0885086868371
 30
0.0
 10
177.3809979544284
 20
182.2214530670594
 30
0.0
 10
177.1595296201767
 20
182.7983148089556
 30
0.0
  0
LINE
  5
1A1
330
1F
100
AcDbEntity
  8
0
  6
Continuous
 62
     7
370
    25
100
AcDbLine
 10
174.6095296202
 20
175.9048396331
 30
0.0
 11
177.1595296202
 21
175.9048396331
 31
0.0
  0
LINE
  5
1A2
330
1F
100
AcDbEntity
  8
0
  6
Continuous
 62
     7
370
    25
100
AcDbLine
 10
174.6095296202
 20
185.4048396331
 30
0.0
 11
174.3595296202
 21
186.0117928982
 31
0.0
  0
LINE
  5
1A3
330
1F
100
AcDbEntity
  8
0
  6
Continuous
 62
     7
370
    25
100
AcDbLine
 10
174.3595296202
 20
191.6913615438
 30
0.0
 11
174.3595296202
 21
186.0117928982
 31
0.0
  0
LINE
  5
1A4
330
1F
100
AcDbEntity
  8
0
  6
Continuous
 62
     7
370
    25
100
AcDbLine
 10
174.3595296202
 20
191.6913615438
 30
0.0
 11
174.6095296202
 21
192.298314809
 31
0.0
  0
LINE
  5
1A5
330
1F
100
AcDbEntity
  8
0
  6
Continuous
 62
     7
370
    25
100
AcDbLine
 10
177.1595296202
 20
192.298314809
 30
0.0
 11
174.6095296202
 21
192.298314809
 31
0.0
  0
SPLINE
  5
1A6
330
1F
100
AcDbEntity
  8
0
  6
Continuous
 62
     7
370
    25
100
AcDbSpline
210
0.0
220
0.0
230
1.0
 70
     8
 71
     3
 72
    11
 73
     7
 74
     0
 42
0.00000001
 43
0.00000001
 40
0.0
 40
0.0
 40
0.0
 40
0.0
 40
0.2431641197380915
 40
0.4936284730588937
 40
0.7421706076863286
 40
1.0
 40
1.0
 40
1.0
 40
1.0
 10
177.1595296201767
 20
185.40483963311
 30
0.0
 10
177.3696699433854
 20
185.9482861653808
 30
0.0
 10
177.7962593883471
 20
187.0514944931676
 30
0.0
 10
178.00664381849
 20
188.8015395228942
 30
0.0
 10
177.8159571248231
 20
190.5885086868371
 30
0.0
 10
177.3809979544284
 20
191.7214530670594
 30
0.0
 10
177.1595296201767
 20
192.2983148089556
 30
0.0
  0
LINE
  5
1A7
330
1F
100
AcDbEntity
  8
0
  6
Continuous
 62
     7
370
    25
100
AcDbLine
 10
174.6095296202
 20
185.4048396331
 30
0.0
 11
177.1595296202
 21
185.4048396331
 31
0.0
  0
LINE
  5
1A8
330
1F
100
AcDbEntity
  8
0
  6
Continuous
 62
     7
370
    25
100
AcDbLine
 10
177.1595296202
 20
193.601577221
 30
0.0
 11
177.1595296202
 21
192.298314809
 31
0.0
  0
SPLINE
  5
1A9
330
1F
100
AcDbEntity
  8
0
  6
Continuous
 62
     7
370
    25
100
AcDbSpline
210
0.0
220
0.0
230
1.0
 70
    24
 71
     3
 72
    11
 73
     7
 74
     0
 42
0.00000001
 43
0.00000001
 40
0.0
 40
0.0
 40
0.0
 40
0.0
 40
0.059139560364233
 40
0.5151546697584025
 40
0.9835658517333951
 40
1.0
 40
1.0
 40
1.0
 40
1.0
 10
177.1595296201767
 20
193.6015772210328
 30
0.0
 10
177.1875092128553
 20
193.6015772210328
 30
0.0
 10
177.43123469437
 20
193.6015772210328
 30
0.0
 10
177.7717577880421
 20
193.6015772210328
 30
0.0
 10
177.9968368954006
 20
193.6015772210328
 30
0.0
 10
177.9358251000791
 20
193.6015772210328
 30
0.0
 10
177.9337570655373
 20
193.6015772210328
 30
0.0
  0
SPLINE
  5
1AA
330
1F
100
AcDbEntity
  8
0
  6
Continuous
 62
     7
370
    25
100
AcDbSpline
210
0.0
220
0.0
230
1.0
 70
    24
 71
     3
 72
    11
 73
     7
 74
     0
 42
0.00000001
 43
0.00000001
 40
0.0
 40
0.0
 40
0.0
 40
0.0
 40
0.0163985483736859
 40
0.4715081509151195
 40
0.9408590955702612
 40
1.0
 40
1.0
 40
1.0
 40
1.0
 10
177.9335706161421
 20
174.6015772210328
 30
0.0
 10
177.9357028022953
 20
174.6015772210328
 30
0.0
 10
177.9970096404132
 20
174.6015772210328
 30
0.0
 10
177.7739578915989
 20
174.6015772210328
 30
0.0
 10
177.4375598417444
 20
174.6015772210328
 30
0.0
 10
177.1875113122522
 20
174.6015772210328
 30
0.0
 10
177.1595296201767
 20
174.6015772210328
 30
0.0
  0
LINE
  5
1AB
330
1F
100
AcDbEntity
  8
0
  6
Continuous
 62
     7
370
    25
100
AcDbLine
 10
177.1595296202
 20
175.9048396331
 30
0.0
 11
177.1595296202
 21
174.601577221
 31
0.0
  0
LINE
  5
1AC
330
1F
100
AcDbEntity
  8
0
  6
Continuous
 62
     7
370
    25
100
AcDbLine
 10
177.1595296202
 20
185.4048396331
 30
0.0
 11
177.1595296202
 21
182.798314809
 31
0.0
  0
LINE
  5
1AD
330
1F
100
AcDbEntity
  8
0
  6
Continuous
 62
     7
370
    25
100
AcDbLine
 10
179.1595296202
 20
192.351577221
 30
0.0
 11
179.1595296202
 21
175.851577221
 31
0.0
  0
LINE
  5
1AE
330
1F
100
AcDbEntity
  8
0
  6
Continuous
 62
     7
370
    25
100
AcDbLine
 10
174.6095296202
 20
185.4048396331
 30
0.0
 11
174.6095296202
 21
182.798314809
 31
0.0
  0
LINE
  5
1AF
330
1F
100
AcDbEntity
  8
0
  6
Continuous
 62
     7
370
    25
100
AcDbLine
 10
174.3595296202
 20
182.1913615438
 30
0.0
 11
174.3595296202
 21
186.0117928982
 31
0.0
  0
SPLINE
  5
1B0
330
1F
100
AcDbEntity
  8
0
  6
Continuous
 62
     7
370
    25
100
AcDbSpline
210
0.0
220
0.0
230
1.0
 70
     8
 71
     3
 72
    11
 73
     7
 74
     0
 42
0.00000001
 43
0.00000001
 40
0.0
 40
0.0
 40
0.0
 40
0.0
 40
0.0823376510038091
 40
0.3188851439110015
 40
0.6247963511836877
 40
1.0
 40
1.0
 40
1.0
 40
1.0
 10
172.2599898457659
 20
193.4876017950497
 30
0.0
 10
172.262617946792
 20
193.4841907798237
 30
0.0
 10
172.2727963082546
 20
193.4709802732331
 30
0.0
 10
172.2934795723741
 20
193.3482378519152
 30
0.0
 10
172.3239917754975
 20
193.0517923303419
 30
0.0
 10
172.3469066007627
 20
192.6563297767323
 30
0.0
 10
172.3595296201766
 20
192.4384825344382
 30
0.0
  0
LINE
  5
1B1
330
1F
100
AcDbEntity
  8
0
  6
Continuous
 62
     7
370
    25
100
AcDbLine
 10
172.3595296202
 20
179.7592266546
 30
0.0
 11
172.3595296202
 21
192.4384825343
 31
0.0
  0
SPLINE
  5
1B2
330
1F
100
AcDbEntity
  8
0
  6
Continuous
 62
     7
370
    25
100
AcDbSpline
210
0.0
220
0.0
230
1.0
 70
     8
 71
     3
 72
    30
 73
    26
 74
     0
 42
0.00000001
 43
0.00000001
 40
0.0
 40
0.0
 40
0.0
 40
0.0
 40
0.0182355448544065
 40
0.0763245661743252
 40
0.1063427875899049
 40
0.1451052306444134
 40
0.1926087823348561
 40
0.2376127113006339
 40
0.2719933646366511
 40
0.2957466639727327
 40
0.3088697938344322
 40
0.3375269424463682
 40
0.3661842311463162
 40
0.3948416612334269
 40
0.4234992340068308
 40
0.5378839981506605
 40
0.5908692721160762
 40
0.6380628073955174
 40
0.6794629392041788
 40
0.7306843854292003
 40
0.7688710157324232
 40
0.8038595024706399
 40
0.8540525738533307
 40
0.9194380368698538
 40
1.0
 40
1.0
 40
1.0
 40
1.0
 10
171.8983842639842
 20
193.488648763452
 30
0.0
 10
171.9010654161758
 20
193.4921902470558
 30
0.0
 10
171.9122873335633
 20
193.507013067094
 30
0.0
 10
171.9283126593759
 20
193.4234139276641
 30
0.0
 10
171.9479236909273
 20
193.2749595731297
 30
0.0
 10
171.9660859492486
 20
193.0834198951584
 30
0.0
 10
171.9867339637724
 20
192.797180167372
 30
0.0
 10
172.0067168846156
 20
192.4486858751215
 30
0.0
 10
172.0228558606297
 20
192.1178903701177
 30
0.0
 10
172.0339677198421
 20
191.8662062372674
 30
0.0
 10
172.0439181994684
 20
191.6216943962858
 30
0.0
 10
172.0540832933725
 20
191.343196385745
 30
0.0
 10
172.0668761342438
 20
190.9783429857133
 30
0.0
 10
172.0797180609603
 20
190.5896807912593
 30
0.0
 10
172.1056116713345
 20
189.7693188016335
 30
0.0
 10
172.136101558313
 20
188.7075063241074
 30
0.0
 10
172.1698120131332
 20
187.4436868048788
 30
0.0
 10
172.1918752922637
 20
186.5764190230778
 30
0.0
 10
172.2134975321603
 20
185.6991253934809
 30
0.0
 10
172.2335984144779
 20
184.8638787322513
 30
0.0
 10
172.2520112894158
 20
184.0646574623074
 30
0.0
 10
172.2703601436921
 20
183.2722382905582
 30
0.0
 10
172.2935533602415
 20
182.3125199427383
 30
0.0
 10
172.3239976274817
 20
181.0826522891831
 30
0.0
 10
172.3468920553738
 20
180.2299257612718
 30
0.0
 10
172.3595296201766
 20
179.7592266546452
 30
0.0
  0
SPLINE
  5
1B3
330
1F
100
AcDbEntity
  8
0
  6
Continuous
 62
     7
370
    25
100
AcDbSpline
210
0.0
220
0.0
230
1.0
 70
     8
 71
     3
 72
    12
 73
     8
 74
     0
 42
0.00000001
 43
0.00000001
 40
0.0
 40
0.0
 40
0.0
 40
0.0
 40
0.2176683106405472
 40
0.4685852168999713
 40
0.7246585792764159
 40
0.9786110903297413
 40
1.0
 40
1.0
 40
1.0
 40
1.0
 10
171.7095296201767
 20
181.2554487864544
 30
0.0
 10
171.7303125439066
 20
180.5387701039589
 30
0.0
 10
171.7750529601626
 20
178.9959408565758
 30
0.0
 10
171.838049544213
 20
177.1178261336128
 30
0.0
 10
171.9111531599176
 20
175.87871037959
 30
0.0
 10
171.9598642391902
 20
175.3505821208909
 30
0.0
 10
171.9849552454038
 20
175.4869924297433
 30
0.0
 10
171.9869043501336
 20
175.4975889748125
 30
0.0
  0
SPLINE
  5
1B4
330
1F
100
AcDbEntity
  8
0
  6
Continuous
 62
     7
370
    25
100
AcDbSpline
210
0.0
220
0.0
230
1.0
 70
     8
 71
     3
 72
    10
 73
     6
 74
     0
 42
0.00000001
 43
0.00000001
 40
0.0
 40
0.0
 40
0.0
 40
0.0
 40
0.3607337961396723
 40
0.8121409875158757
 40
1.0
 40
1.0
 40
1.0
 40
1.0
 10
172.7019316019914
 20
192.6659876607279
 30
0.0
 10
172.7204518513289
 20
192.6061968524978
 30
0.0
 10
172.7621475664156
 20
192.471586326509
 30
0.0
 10
172.8173278441527
 20
191.5297269708561
 30
0.0
 10
172.8499446337535
 20
190.7026454740045
 30
0.0
 10
172.8595296201767
 20
190.4595938121082
 30
0.0
  0
SPLINE
  5
1B5
330
1F
100
AcDbEntity
  8
0
  6
Continuous
 62
     7
370
    25
100
AcDbSpline
210
0.0
220
0.0
230
1.0
 70
    24
 71
     3
 72
    10
 73
     6
 74
     0
 42
0.00000001
 43
0.00000001
 40
0.0
 40
0.0
 40
0.0
 40
0.0
 40
0.3187287177375321
 40
0.8180873955881237
 40
1.0
 40
1.0
 40
1.0
 40
1.0
 10
172.8595296201767
 20
190.4595938121082
 30
0.0
 10
172.8595296201767
 20
190.0230409837607
 30
0.0
 10
172.8595296201767
 20
188.9025320791522
 30
0.0
 10
172.8595296201766
 20
187.0987309211907
 30
0.0
 10
172.8595296201767
 20
185.7925710787603
 30
0.0
 10
172.8595296201767
 20
185.4438011468683
 30
0.0
  0
SPLINE
  5
1B6
330
1F
100
AcDbEntity
  8
0
  6
Continuous
 62
     7
370
    25
100
AcDbSpline
210
0.0
220
0.0
230
1.0
 70
     8
 71
     3
 72
    13
 73
     9
 74
     0
 42
0.00000001
 43
0.00000001
 40
0.0
 40
0.0
 40
0.0
 40
0.0
 40
0.2187316754180421
 40
0.3931473777464117
 40
0.5714254113794042
 40
0.7494200729435004
 40
0.8738925945231126
 40
1.0
 40
1.0
 40
1.0
 40
1.0
 10
172.8595296201767
 20
185.4438011468683
 30
0.0
 10
172.8218018132701
 20
186.0659079568385
 30
0.0
 10
172.7539900145214
 20
187.1840800759453
 30
0.0
 10
172.6551765859085
 20
188.7072992426728
 30
0.0
 10
172.5661650496573
 20
190.0097302971928
 30
0.0
 10
172.4914521227201
 20
191.0453125577206
 30
0.0
 10
172.4217840438147
 20
191.8540314164296
 30
0.0
 10
172.3803711594867
 20
192.2428199575699
 30
0.0
 10
172.3595296201933
 20
192.4384825342906
 30
0.0
  0
SPLINE
  5
1B7
330
1F
100
AcDbEntity
  8
0
  6
Continuous
 62
     7
370
    25
100
AcDbSpline
210
0.0
220
0.0
230
1.0
 70
     8
 71
     3
 72
    15
 73
    11
 74
     0
 42
0.00000001
 43
0.00000001
 40
0.0
 40
0.0
 40
0.0
 40
0.0
 40
0.1853848730991207
 40
0.2777270836008036
 40
0.3700718582436233
 40
0.462416855210521
 40
0.6144793794637545
 40
0.7665419034043038
 40
0.9186044273391785
 40
1.0
 40
1.0
 40
1.0
 40
1.0
 10
172.3595296201766
 20
179.7592266546449
 30
0.0
 10
172.3692471251524
 20
179.222495600195
 30
0.0
 10
172.3838050244659
 20
178.4184130019853
 30
0.0
 10
172.4021372667301
 20
177.5012490712199
 30
0.0
 10
172.4158126980324
 20
176.8772737989119
 30
0.0
 10
172.4331819693847
 20
176.2110071358031
 30
0.0
 10
172.4541862364492
 20
175.5733057898952
 30
0.0
 10
172.4785321403063
 20
175.0897222018311
 30
0.0
 10
172.4987600344004
 20
174.8525503882448
 30
0.0
 10
172.510432531398
 20
174.8790658149787
 30
0.0
 10
172.5145021678397
 20
174.8883104647673
 30
0.0
  0
SPLINE
  5
1B8
330
1F
100
AcDbEntity
  8
0
  6
Continuous
 62
     7
370
    25
100
AcDbSpline
210
0.0
220
0.0
230
1.0
 70
     8
 71
     3
 72
    14
 73
    10
 74
     0
 42
0.00000001
 43
0.00000001
 40
0.0
 40
0.0
 40
0.0
 40
0.0
 40
0.0578403592793417
 40
0.2161361478924428
 40
0.3736862591713957
 40
0.5337002824213858
 40
0.6901919037604665
 40
0.8498994977822804
 40
1.0
 40
1.0
 40
1.0
 40
1.0
 10
171.7095296201767
 20
187.7963970252876
 30
0.0
 10
171.7182489859615
 20
187.5121750744509
 30
0.0
 10
171.750831254749
 20
186.45010287494
 30
0.0
 10
171.8059953348919
 20
184.2718958821409
 30
0.0
 10
171.8743228852063
 20
181.5778571960072
 30
0.0
 10
171.9482280395846
 20
179.1074130663852
 30
0.0
 10
172.0143805808845
 20
177.139134293763
 30
0.0
 10
172.0863263920592
 20
175.8042183326349
 30
0.0
 10
172.1317582349037
 20
175.5951305768291
 30
0.0
 10
172.1537697398011
 20
175.4938285852576
 30
0.0
  0
LINE
  5
1B9
330
1F
100
AcDbEntity
  8
0
  6
Continuous
 62
     7
370
    25
100
AcDbLine
 10
172.8595296202
 20
185.4438011469
 30
0.0
 11
172.8595296202
 21
175.201577221
 31
0.0
  0
SPLINE
  5
1BA
330
1F
100
AcDbEntity
  8
0
  6
Continuous
 62
     7
370
    25
100
AcDbSpline
210
0.0
220
0.0
230
1.0
 70
    24
 71
     3
 72
    10
 73
     6
 74
     0
 42
0.00000001
 43
0.00000001
 40
0.0
 40
0.0
 40
0.0
 40
0.0
 40
0.2200266609304047
 40
0.6670013252276435
 40
1.0
 40
1.0
 40
1.0
 40
1.0
 10
172.8595296201767
 20
192.7372075492304
 30
0.0
 10
172.8595296201767
 20
192.7137470086557
 30
0.0
 10
172.8595296201767
 20
192.6426273925705
 30
0.0
 10
172.8595296201767
 20
191.937620443379
 30
0.0
 10
172.8595296201767
 20
190.9018159914354
 30
0.0
 10
172.8595296201767
 20
190.4595938121082
 30
0.0
  0
LINE
  5
1BB
330
1F
100
AcDbEntity
  8
0
  6
Continuous
 62
     7
370
    25
100
AcDbLine
 10
174.6095296202
 20
193.601577221
 30
0.0
 11
174.3595296202
 21
193.601577221
 31
0.0
  0
LINE
  5
1BC
330
1F
100
AcDbEntity
  8
0
  6
Continuous
 62
     7
370
    25
100
AcDbLine
 10
174.6095296202
 20
193.601577221
 30
0.0
 11
174.6095296202
 21
192.298314809
 31
0.0
  0
LINE
  5
1BD
330
1F
100
AcDbEntity
  8
0
  6
Continuous
 62
     7
370
    25
100
AcDbLine
 10
174.3595296202
 20
191.6913615438
 30
0.0
 11
174.3595296202
 21
193.601577221
 31
0.0
  0
LINE
  5
1BE
330
1F
100
AcDbEntity
  8
0
  6
Continuous
 62
     7
370
    25
100
AcDbLine
 10
174.6095296202
 20
175.9048396331
 30
0.0
 11
174.6095296202
 21
174.601577221
 31
0.0
  0
LINE
  5
1BF
330
1F
100
AcDbEntity
  8
0
  6
Continuous
 62
     7
370
    25
100
AcDbLine
 10
174.3595296202
 20
174.601577221
 30
0.0
 11
174.6095296202
 21
174.601577221
 31
0.0
  0
LINE
  5
1C0
330
1F
100
AcDbEntity
  8
0
  6
Continuous
 62
     7
370
    25
100
AcDbLine
 10
174.3595296202
 20
174.601577221
 30
0.0
 11
174.3595296202
 21
176.5117928982
 31
0.0
  0
LINE
  5
1C1
330
1F
100
AcDbEntity
  8
0
  6
Continuous
 62
     7
370
    25
100
AcDbLine
 10
177.1595296202
 20
174.601577221
 30
0.0
 11
174.6095296202
 21
174.601577221
 31
0.0
  0
LINE
  5
1C2
330
1F
100
AcDbEntity
  8
0
  6
Continuous
 62
     7
370
    25
100
AcDbLine
 10
174.6095296202
 20
193.601577221
 30
0.0
 11
177.1595296202
 21
193.601577221
 31
0.0
  0
SPLINE
  5
1C3
330
1F
100
AcDbEntity
  8
0
  6
Continuous
 62
     7
370
    25
100
AcDbSpline
210
0.0
220
0.0
230
1.0
 70
     8
 71
     3
 72
     9
 73
     5
 74
     0
 42
0.00000001
 43
0.00000001
 40
0.0
 40
0.0
 40
0.0
 40
0.0
 40
0.4182581660991578
 40
1.0
 40
1.0
 40
1.0
 40
1.0
 10
162.7070990144976
 20
197.8677567911181
 30
0.0
 10
162.6408163397274
 20
198.0618391240944
 30
0.0
 10
162.4823432239762
 20
198.5258643331811
 30
0.0
 10
162.4679201346258
 20
198.8596861116353
 30
0.0
 10
162.4595296201767
 20
199.0538842052293
 30
0.0
  0
LINE
  5
1C4
330
1F
100
AcDbEntity
  8
0
  6
Continuous
 62
     7
370
    25
100
AcDbLine
 10
162.4595296202
 20
169.1492702368
 30
0.0
 11
162.530907949
 21
169.601577221
 31
0.0
  0
LINE
  5
1C5
330
1F
100
AcDbEntity
  8
0
  6
Continuous
 62
     7
370
    25
100
AcDbLine
 10
162.4595296202
 20
169.1492702368
 30
0.0
 11
162.4595296202
 21
168.4224433628
 31
0.0
  0
SPLINE
  5
1C6
330
1F
100
AcDbEntity
  8
0
  6
Continuous
 62
     7
370
    25
100
AcDbSpline
210
0.0
220
0.0
230
1.0
 70
     8
 71
     3
 72
     9
 73
     5
 74
     0
 42
0.00000001
 43
0.00000001
 40
0.0
 40
0.0
 40
0.0
 40
0.0
 40
0.5850553834536188
 40
1.0
 40
1.0
 40
1.0
 40
1.0
 10
162.873986527754
 20
167.8515772210328
 30
0.0
 10
162.7374323937297
 20
167.8832756380715
 30
0.0
 10
162.5040286205378
 20
167.937455836964
 30
0.0
 10
162.4725793328125
 20
168.2802166207641
 30
0.0
 10
162.4595296201767
 20
168.4224433627651
 30
0.0
  0
SPLINE
  5
1C7
330
1F
100
AcDbEntity
  8
0
  6
Continuous
 62
     7
370
    25
100
AcDbSpline
210
0.0
220
0.0
230
1.0
 70
    27
 71
     3
 72
    11
 73
     7
 74
     0
 42
0.00000001
 43
0.00000001
 40
0.0
 40
0.0
 40
0.0
 40
0.0
 40
0.2328716322111479
 40
0.4710265024313248
 40
0.7311421212560302
 40
0.9999999999999999
 40
0.9999999999999999
 40
0.9999999999999999
 40
0.9999999999999999
 10
162.873986527754
 20
167.8515772210328
 30
0.0
 10
163.1443832624268
 20
167.8515772210328
 30
0.0
 10
163.6913113145576
 20
167.8515772210328
 30
0.0
 10
163.9925356325412
 20
167.8515772210328
 30
0.0
 10
163.7848838671315
 20
167.8515772210328
 30
0.0
 10
163.1809460353513
 20
167.8515772210328
 30
0.0
 10
162.873986527754
 20
167.8515772210328
 30
0.0
  0
SPLINE
  5
1C8
330
1F
100
AcDbEntity
  8
0
  6
Continuous
 62
     7
370
    25
100
AcDbSpline
210
0.0
220
0.0
230
1.0
 70
     8
 71
     3
 72
     9
 73
     5
 74
     0
 42
0.00000001
 43
0.00000001
 40
0.0
 40
0.0
 40
0.0
 40
0.0
 40
0.5841917497409234
 40
1.0
 40
1.0
 40
1.0
 40
1.0
 10
162.4595296201767
 20
168.4224433627651
 30
0.0
 10
162.4856975839973
 20
168.2313611406986
 30
0.0
 10
162.530491033806
 20
167.9042729506458
 30
0.0
 10
162.7731054513199
 20
167.8670534121925
 30
0.0
 10
162.873986527754
 20
167.8515772210328
 30
0.0
  0
LINE
  5
1C9
330
1F
100
AcDbEntity
  8
0
  6
Continuous
 62
     7
370
    25
100
AcDbLine
 10
162.4595296202
 20
168.4224433628
 30
0.0
 11
162.4595296202
 21
169.1492702368
 31
0.0
  0
SPLINE
  5
1CA
330
1F
100
AcDbEntity
  8
0
  6
Continuous
 62
     7
370
    25
100
AcDbSpline
210
0.0
220
0.0
230
1.0
 70
     8
 71
     3
 72
     9
 73
     5
 74
     0
 42
0.00000001
 43
0.00000001
 40
0.0
 40
0.0
 40
0.0
 40
0.0
 40
0.5850553834536188
 40
1.0
 40
1.0
 40
1.0
 40
1.0
 10
162.873986527754
 20
170.8730857690952
 30
0.0
 10
162.7374323937297
 20
170.4865392435314
 30
0.0
 10
162.5040286205378
 20
169.8258385022067
 30
0.0
 10
162.4725793328125
 20
169.347679670081
 30
0.0
 10
162.4595296201767
 20
169.1492702368363
 30
0.0
  0
SPLINE
  5
1CB
330
1F
100
AcDbEntity
  8
0
  6
Continuous
 62
     7
370
    25
100
AcDbSpline
210
0.0
220
0.0
230
1.0
 70
     8
 71
     3
 72
    11
 73
     7
 74
     0
 42
0.00000001
 43
0.00000001
 40
0.0
 40
0.0
 40
0.0
 40
0.0
 40
0.2556279644380972
 40
0.5185037642963866
 40
0.7560467972580102
 40
0.9999999999999999
 40
0.9999999999999999
 40
0.9999999999999999
 40
0.9999999999999999
 10
162.873986527754
 20
181.0800686729704
 30
0.0
 10
163.167612487856
 20
180.229124100003
 30
0.0
 10
163.7631896029916
 20
178.5031080701798
 30
0.0
 10
163.9950785646182
 20
175.8700255419826
 30
0.0
 10
163.7121081061574
 20
173.2862981218119
 30
0.0
 10
163.1558289725931
 20
171.6845977107175
 30
0.0
 10
162.873986527754
 20
170.8730857690952
 30
0.0
  0
SPLINE
  5
1CC
330
1F
100
AcDbEntity
  8
0
  6
Continuous
 62
     7
370
    25
100
AcDbSpline
210
0.0
220
0.0
230
1.0
 70
     8
 71
     3
 72
     9
 73
     5
 74
     0
 42
0.00000001
 43
0.00000001
 40
0.0
 40
0.0
 40
0.0
 40
0.0
 40
0.5841917497409257
 40
1.0
 40
1.0
 40
1.0
 40
1.0
 10
162.4595296201767
 20
183.3747503469616
 30
0.0
 10
162.4856975839973
 20
182.8943922213953
 30
0.0
 10
162.530491033806
 20
182.072131164509
 30
0.0
 10
162.7731054513199
 20
181.3714271734445
 30
0.0
 10
162.873986527754
 20
181.0800686729704
 30
0.0
  0
LINE
  5
1CD
330
1F
100
AcDbEntity
  8
0
  6
Continuous
 62
     7
370
    25
100
AcDbLine
 10
162.4595296202
 20
183.374750347
 30
0.0
 11
162.4595296202
 21
184.8284040951
 31
0.0
  0
SPLINE
  5
1CE
330
1F
100
AcDbEntity
  8
0
  6
Continuous
 62
     7
370
    25
100
AcDbSpline
210
0.0
220
0.0
230
1.0
 70
     8
 71
     3
 72
     9
 73
     5
 74
     0
 42
0.00000001
 43
0.00000001
 40
0.0
 40
0.0
 40
0.0
 40
0.0
 40
0.5850553834536182
 40
0.9999999999999999
 40
0.9999999999999999
 40
0.9999999999999999
 40
0.9999999999999999
 10
162.873986527754
 20
187.1230857690952
 30
0.0
 10
162.7374323937297
 20
186.7048408264928
 30
0.0
 10
162.5040286205378
 20
185.9899598862755
 30
0.0
 10
162.4725793328125
 20
185.1690402703498
 30
0.0
 10
162.4595296201767
 20
184.8284040951041
 30
0.0
  0
SPLINE
  5
1CF
330
1F
100
AcDbEntity
  8
0
  6
Continuous
 62
     7
370
    25
100
AcDbSpline
210
0.0
220
0.0
230
1.0
 70
     8
 71
     3
 72
    11
 73
     7
 74
     0
 42
0.00000001
 43
0.00000001
 40
0.0
 40
0.0
 40
0.0
 40
0.0
 40
0.2328716322111471
 40
0.471026502431323
 40
0.7311421212560291
 40
1.0
 40
1.0
 40
1.0
 40
1.0
 10
162.873986527754
 20
197.3300686729704
 30
0.0
 10
163.1443832624268
 20
196.5559662969769
 30
0.0
 10
163.6913113145576
 20
194.9901992208161
 30
0.0
 10
163.9925356325412
 20
192.4547602535214
 30
0.0
 10
163.7848838671315
 20
189.7812541730522
 30
0.0
 10
163.1809460353513
 20
188.0188508889569
 30
0.0
 10
162.873986527754
 20
187.1230857690952
 30
0.0
  0
SPLINE
  5
1D0
330
1F
100
AcDbEntity
  8
0
  6
Continuous
 62
     7
370
    25
100
AcDbSpline
210
0.0
220
0.0
230
1.0
 70
     8
 71
     3
 72
     9
 73
     5
 74
     0
 42
0.00000001
 43
0.00000001
 40
0.0
 40
0.0
 40
0.0
 40
0.0
 40
0.5841917497409239
 40
1.0
 40
1.0
 40
1.0
 40
1.0
 10
162.4595296201767
 20
199.0538842052293
 30
0.0
 10
162.4856975839973
 20
198.7646083017296
 30
0.0
 10
162.530491033806
 20
198.269435434896
 30
0.0
 10
162.7731054513199
 20
197.6059509822848
 30
0.0
 10
162.873986527754
 20
197.3300686729704
 30
0.0
  0
LINE
  5
1D1
330
1F
100
AcDbEntity
  8
0
  6
Continuous
 62
     7
370
    25
100
AcDbLine
 10
162.4595296202
 20
199.0538842052
 30
0.0
 11
162.4595296202
 21
199.7807110793
 31
0.0
  0
SPLINE
  5
1D2
330
1F
100
AcDbEntity
  8
0
  6
Continuous
 62
     7
370
    25
100
AcDbSpline
210
0.0
220
0.0
230
1.0
 70
     8
 71
     3
 72
     9
 73
     5
 74
     0
 42
0.00000001
 43
0.00000001
 40
0.0
 40
0.0
 40
0.0
 40
0.0
 40
0.5850553834536166
 40
1.0
 40
1.0
 40
1.0
 40
1.0
 10
162.873986527754
 20
200.3515772210328
 30
0.0
 10
162.7374323937297
 20
200.3198788039942
 30
0.0
 10
162.5040286205378
 20
200.2656986051016
 30
0.0
 10
162.4725793328125
 20
199.9229378213016
 30
0.0
 10
162.4595296201767
 20
199.7807110793005
 30
0.0
  0
SPLINE
  5
1D3
330
1F
100
AcDbEntity
  8
0
  6
Continuous
 62
     7
370
    25
100
AcDbSpline
210
0.0
220
0.0
230
1.0
 70
    27
 71
     3
 72
    11
 73
     7
 74
     0
 42
0.00000001
 43
0.00000001
 40
0.0
 40
0.0
 40
0.0
 40
0.0
 40
0.2328716322111485
 40
0.471026502431326
 40
0.7311421212560308
 40
1.0
 40
1.0
 40
1.0
 40
1.0
 10
162.873986527754
 20
200.3515772210328
 30
0.0
 10
163.1443832624268
 20
200.3515772210328
 30
0.0
 10
163.6913113145576
 20
200.3515772210328
 30
0.0
 10
163.9925356325412
 20
200.3515772210328
 30
0.0
 10
163.7848838671315
 20
200.3515772210328
 30
0.0
 10
163.1809460353512
 20
200.3515772210328
 30
0.0
 10
162.873986527754
 20
200.3515772210328
 30
0.0
  0
SPLINE
  5
1D4
330
1F
100
AcDbEntity
  8
0
  6
Continuous
 62
     7
370
    25
100
AcDbSpline
210
0.0
220
0.0
230
1.0
 70
     8
 71
     3
 72
     9
 73
     5
 74
     0
 42
0.00000001
 43
0.00000001
 40
0.0
 40
0.0
 40
0.0
 40
0.0
 40
0.5841917497409264
 40
1.0
 40
1.0
 40
1.0
 40
1.0
 10
162.4595296201767
 20
199.7807110793006
 30
0.0
 10
162.4856975839973
 20
199.9717933013671
 30
0.0
 10
162.530491033806
 20
200.2988814914198
 30
0.0
 10
162.7731054513199
 20
200.3361010298731
 30
0.0
 10
162.873986527754
 20
200.3515772210328
 30
0.0
  0
LINE
  5
1D5
330
1F
100
AcDbEntity
  8
0
  6
Continuous
 62
     7
370
    25
100
AcDbLine
 10
162.4595296202
 20
199.7807110793
 30
0.0
 11
162.4595296202
 21
199.0538842052
 31
0.0
  0
LINE
  5
1D6
330
1F
100
AcDbEntity
  8
0
  6
Continuous
 62
     7
370
    25
100
AcDbLine
 10
163.9595296202
 20
167.9163732089
 30
0.0
 11
163.9595296202
 21
200.2978778017
 31
0.0
  0
SPLINE
  5
1D7
330
1F
100
AcDbEntity
  8
0
  6
Continuous
 62
     7
370
    25
100
AcDbSpline
210
0.0
220
0.0
230
1.0
 70
     8
 71
     3
 72
     9
 73
     5
 74
     0
 42
0.00000001
 43
0.00000001
 40
0.0
 40
0.0
 40
0.0
 40
0.0
 40
0.4167058089676245
 40
1.0
 40
1.0
 40
1.0
 40
1.0
 10
155.6626754780116
 20
170.4134789848306
 30
0.0
 10
155.6589360984421
 20
170.3161840480179
 30
0.0
 10
155.6499624304754
 20
170.0826981336896
 30
0.0
 10
155.6409733024242
 20
170.0204350220462
 30
0.0
 10
155.6357299962494
 20
169.9841173107091
 30
0.0
  0
LINE
  5
1D8
330
1F
100
AcDbEntity
  8
0
  6
Continuous
 62
     7
370
    25
100
AcDbLine
 10
155.6318632955
 20
170.0026760443
 30
0.0
 11
155.6286470659
 21
170.0181127567
 31
0.0
  0
LINE
  5
1D9
330
1F
100
AcDbEntity
  8
0
  6
Continuous
 62
     7
370
    25
100
AcDbLine
 10
155.2293059236
 20
198.5876828167
 30
0.0
 11
155.2260700246
 21
198.5833589203
 31
0.0
  0
LINE
  5
1DA
330
1F
100
AcDbEntity
  8
0
  6
Continuous
 62
     7
370
    25
100
AcDbLine
 10
155.5950727126
 20
187.1230857691
 30
0.0
 11
162.8739865278
 21
187.1230857691
 31
0.0
  0
LINE
  5
1DB
330
1F
100
AcDbEntity
  8
0
  6
Continuous
 62
     7
370
    25
100
AcDbLine
 10
162.8739865278
 20
197.330068673
 30
0.0
 11
155.5950727126
 21
197.330068673
 31
0.0
  0
SPLINE
  5
1DC
330
1F
100
AcDbEntity
  8
0
  6
Continuous
 62
     7
370
    25
100
AcDbSpline
210
0.0
220
0.0
230
1.0
 70
     8
 71
     3
 72
    11
 73
     7
 74
     0
 42
0.00000001
 43
0.00000001
 40
0.0
 40
0.0
 40
0.0
 40
0.0
 40
0.2328716322111453
 40
0.4710265024313188
 40
0.731142121256027
 40
1.0
 40
1.0
 40
1.0
 40
1.0
 10
155.5950727125993
 20
187.1230857690952
 30
0.0
 10
155.3246759779265
 20
187.8971881450888
 30
0.0
 10
154.7777479257957
 20
189.4629552212495
 30
0.0
 10
154.4765236078121
 20
191.9983941885442
 30
0.0
 10
154.6841753732218
 20
194.6719002690134
 30
0.0
 10
155.2881132050021
 20
196.4343035531087
 30
0.0
 10
155.5950727125993
 20
197.3300686729704
 30
0.0
  0
LINE
  5
1DD
330
1F
100
AcDbEntity
  8
0
  6
Continuous
 62
     7
370
    25
100
AcDbLine
 10
171.7095296202
 20
178.814077221
 30
0.0
 11
171.7095296202
 21
194.676577221
 31
0.0
  0
LINE
  5
1DE
330
1F
100
AcDbEntity
  8
0
  6
Continuous
 62
     7
370
    25
100
AcDbLine
 10
171.7095296202
 20
173.526577221
 30
0.0
 11
171.7095296202
 21
178.814077221
 31
0.0
  0
SPLINE
  5
1DF
330
1F
100
AcDbEntity
  8
0
  6
Continuous
 62
     7
370
    25
100
AcDbSpline
210
0.0
220
0.0
230
1.0
 70
     8
 71
     3
 72
     9
 73
     5
 74
     0
 42
0.00000001
 43
0.00000001
 40
0.0
 40
0.0
 40
0.0
 40
0.0
 40
0.2837051997425044
 40
1.0
 40
1.0
 40
1.0
 40
1.0
 10
155.4482969032681
 20
198.5698232279574
 30
0.0
 10
155.4510476445488
 20
198.6204211536507
 30
0.0
 10
155.460743417778
 20
198.7987679930434
 30
0.0
 10
155.4711250058588
 20
198.7417803472461
 30
0.0
 10
155.4785612834195
 20
198.7009603928826
 30
0.0
  0
LINE
  5
1E0
330
1F
100
AcDbEntity
  8
0
  6
Continuous
 62
     7
370
    25
100
AcDbLine
 10
155.3150524143
 20
198.7013320613
 30
0.0
 11
155.3198190958
 21
198.7009597828
 31
0.0
  0
LINE
  5
1E1
330
1F
100
AcDbEntity
  8
0
  6
Continuous
 62
     7
370
    25
100
AcDbLine
 10
162.4595296202
 20
184.8284040951
 30
0.0
 11
156.0095296202
 21
184.8284040951
 31
0.0
  0
SPLINE
  5
1E2
330
1F
100
AcDbEntity
  8
0
  6
Continuous
 62
     7
370
    25
100
AcDbSpline
210
0.0
220
0.0
230
1.0
 70
     8
 71
     3
 72
     9
 73
     5
 74
     0
 42
0.00000001
 43
0.00000001
 40
0.0
 40
0.0
 40
0.0
 40
0.0
 40
0.5841917497409203
 40
1.0
 40
1.0
 40
1.0
 40
1.0
 10
156.0095296201767
 20
184.8284040951041
 30
0.0
 10
155.983361656356
 20
185.3087622206703
 30
0.0
 10
155.9385682065474
 20
186.1310232775567
 30
0.0
 10
155.6959537890334
 20
186.8317272686212
 30
0.0
 10
155.5950727125993
 20
187.1230857690952
 30
0.0
  0
LINE
  5
1E3
330
1F
100
AcDbEntity
  8
0
  6
Continuous
 62
     7
370
    25
100
AcDbLine
 10
156.0095296202
 20
183.374750347
 30
0.0
 11
162.4595296202
 21
183.374750347
 31
0.0
  0
LINE
  5
1E4
330
1F
100
AcDbEntity
  8
0
  6
Continuous
 62
     7
370
    25
100
AcDbLine
 10
156.0095296202
 20
184.8284040951
 30
0.0
 11
156.0095296202
 21
183.374750347
 31
0.0
  0
LINE
  5
1E5
330
1F
100
AcDbEntity
  8
0
  6
Continuous
 62
     7
370
    25
100
AcDbLine
 10
162.8739865278
 20
181.080068673
 30
0.0
 11
155.5950727126
 21
181.080068673
 31
0.0
  0
SPLINE
  5
1E6
330
1F
100
AcDbEntity
  8
0
  6
Continuous
 62
     7
370
    25
100
AcDbSpline
210
0.0
220
0.0
230
1.0
 70
     8
 71
     3
 72
     9
 73
     5
 74
     0
 42
0.00000001
 43
0.00000001
 40
0.0
 40
0.0
 40
0.0
 40
0.0
 40
0.5850553834536154
 40
1.0
 40
1.0
 40
1.0
 40
1.0
 10
155.5950727125993
 20
181.0800686729704
 30
0.0
 10
155.7316268466236
 20
181.4983136155729
 30
0.0
 10
155.9650306198156
 20
182.2131945557901
 30
0.0
 10
155.9964799075408
 20
183.0341141717159
 30
0.0
 10
156.0095296201767
 20
183.3747503469616
 30
0.0
  0
LINE
  5
1E7
330
1F
100
AcDbEntity
  8
0
  6
Continuous
 62
     7
370
    25
100
AcDbLine
 10
155.5950727126
 20
170.8730857691
 30
0.0
 11
162.8739865278
 21
170.8730857691
 31
0.0
  0
SPLINE
  5
1E8
330
1F
100
AcDbEntity
  8
0
  6
Continuous
 62
     7
370
    25
100
AcDbSpline
210
0.0
220
0.0
230
1.0
 70
     8
 71
     3
 72
    11
 73
     7
 74
     0
 42
0.00000001
 43
0.00000001
 40
0.0
 40
0.0
 40
0.0
 40
0.0
 40
0.2379053903768115
 40
0.4814905141302429
 40
0.7366519444347656
 40
1.0
 40
1.0
 40
1.0
 40
1.0
 10
155.5950727125994
 20
170.873085769095
 30
0.0
 10
155.3194872776264
 20
171.6641689904058
 30
0.0
 10
154.7617371040729
 20
173.2652216876376
 30
0.0
 10
154.4751738794165
 20
175.8222934884216
 30
0.0
 10
154.7000542856146
 20
178.4760263542853
 30
0.0
 10
155.2936094025328
 20
180.2029658186874
 30
0.0
 10
155.5950727125993
 20
181.0800686729704
 30
0.0
  0
LINE
  5
1E9
330
1F
100
AcDbEntity
  8
0
  6
Continuous
 62
     7
370
    25
100
AcDbLine
 10
156.0095296202
 20
199.0538842052
 30
0.0
 11
162.4595296202
 21
199.0538842052
 31
0.0
  0
SPLINE
  5
1EA
330
1F
100
AcDbEntity
  8
0
  6
Continuous
 62
     7
370
    25
100
AcDbSpline
210
0.0
220
0.0
230
1.0
 70
     8
 71
     3
 72
     9
 73
     5
 74
     0
 42
0.00000001
 43
0.00000001
 40
0.0
 40
0.0
 40
0.0
 40
0.0
 40
0.5850553834536188
 40
1.0
 40
1.0
 40
1.0
 40
1.0
 10
155.5950727125993
 20
197.3300686729704
 30
0.0
 10
155.7316268466236
 20
197.7166151985342
 30
0.0
 10
155.9650306198156
 20
198.3773159398589
 30
0.0
 10
155.9964799075408
 20
198.8554747719846
 30
0.0
 10
156.0095296201767
 20
199.0538842052293
 30
0.0
  0
LINE
  5
1EB
330
1F
100
AcDbEntity
  8
0
  6
Continuous
 62
     7
370
    25
100
AcDbLine
 10
162.4595296202
 20
169.1492702368
 30
0.0
 11
156.0095296202
 21
169.1492702368
 31
0.0
  0
SPLINE
  5
1EC
330
1F
100
AcDbEntity
  8
0
  6
Continuous
 62
     7
370
    25
100
AcDbSpline
210
0.0
220
0.0
230
1.0
 70
     8
 71
     3
 72
     9
 73
     5
 74
     0
 42
0.00000001
 43
0.00000001
 40
0.0
 40
0.0
 40
0.0
 40
0.0
 40
0.5841917497409932
 40
1.0
 40
1.0
 40
1.0
 40
1.0
 10
156.0095296201767
 20
169.1492702368363
 30
0.0
 10
155.983361656356
 20
169.4385461403361
 30
0.0
 10
155.9385682065474
 20
169.9337190071695
 30
0.0
 10
155.6959537890335
 20
170.5972034597807
 30
0.0
 10
155.5950727125994
 20
170.873085769095
 30
0.0
  0
LINE
  5
1ED
330
1F
100
AcDbEntity
  8
0
  6
Continuous
 62
     7
370
    25
100
AcDbLine
 10
162.4595296202
 20
199.7807110793
 30
0.0
 11
156.0095296202
 21
199.7807110793
 31
0.0
  0
LINE
  5
1EE
330
1F
100
AcDbEntity
  8
0
  6
Continuous
 62
     7
370
    25
100
AcDbLine
 10
156.0095296202
 20
199.7807110793
 30
0.0
 11
156.0095296202
 21
199.0538842052
 31
0.0
  0
LINE
  5
1EF
330
1F
100
AcDbEntity
  8
0
  6
Continuous
 62
     7
370
    25
100
AcDbLine
 10
156.0095296202
 20
168.4224433628
 30
0.0
 11
162.4595296202
 21
168.4224433628
 31
0.0
  0
LINE
  5
1F0
330
1F
100
AcDbEntity
  8
0
  6
Continuous
 62
     7
370
    25
100
AcDbLine
 10
156.0095296202
 20
169.1492702368
 30
0.0
 11
156.0095296202
 21
168.4224433628
 31
0.0
  0
LINE
  5
1F1
330
1F
100
AcDbEntity
  8
0
  6
Continuous
 62
     7
370
    25
100
AcDbLine
 10
155.5950727126
 20
200.351577221
 30
0.0
 11
162.8739865278
 21
200.351577221
 31
0.0
  0
SPLINE
  5
1F2
330
1F
100
AcDbEntity
  8
0
  6
Continuous
 62
     7
370
    25
100
AcDbSpline
210
0.0
220
0.0
230
1.0
 70
     8
 71
     3
 72
     9
 73
     5
 74
     0
 42
0.00000001
 43
0.00000001
 40
0.0
 40
0.0
 40
0.0
 40
0.0
 40
0.5841917497409259
 40
1.0
 40
1.0
 40
1.0
 40
1.0
 10
156.0095296201767
 20
199.7807110793005
 30
0.0
 10
155.983361656356
 20
199.9717933013671
 30
0.0
 10
155.9385682065474
 20
200.2988814914198
 30
0.0
 10
155.6959537890334
 20
200.3361010298731
 30
0.0
 10
155.5950727125993
 20
200.3515772210328
 30
0.0
  0
LINE
  5
1F3
330
1F
100
AcDbEntity
  8
0
  6
Continuous
 62
     7
370
    25
100
AcDbLine
 10
162.8739865278
 20
167.851577221
 30
0.0
 11
155.5950727126
 21
167.851577221
 31
0.0
  0
SPLINE
  5
1F4
330
1F
100
AcDbEntity
  8
0
  6
Continuous
 62
     7
370
    25
100
AcDbSpline
210
0.0
220
0.0
230
1.0
 70
     8
 71
     3
 72
     9
 73
     5
 74
     0
 42
0.00000001
 43
0.00000001
 40
0.0
 40
0.0
 40
0.0
 40
0.0
 40
0.5850553834536137
 40
1.0
 40
1.0
 40
1.0
 40
1.0
 10
155.5950727125993
 20
167.8515772210328
 30
0.0
 10
155.7316268466236
 20
167.8832756380715
 30
0.0
 10
155.9650306198156
 20
167.937455836964
 30
0.0
 10
155.9964799075408
 20
168.2802166207641
 30
0.0
 10
156.0095296201767
 20
168.4224433627651
 30
0.0
  0
SPLINE
  5
1F5
330
1F
100
AcDbEntity
  8
0
  6
Continuous
 62
     7
370
    25
100
AcDbSpline
210
0.0
220
0.0
230
1.0
 70
     8
 71
     3
 72
    57
 73
    53
 74
     0
 42
0.00000001
 43
0.00000001
 40
0.0
 40
0.0
 40
0.0
 40
0.0
 40
0.0625000000000005
 40
0.0625000000000005
 40
0.125000000000001
 40
0.125000000000001
 40
0.1875000000000016
 40
0.1875000000000016
 40
0.2500000000000021
 40
0.2500000000000021
 40
0.2812500000000022
 40
0.2812500000000022
 40
0.3125000000000023
 40
0.3125000000000023
 40
0.3750000000000023
 40
0.3750000000000023
 40
0.3906250000000024
 40
0.3906250000000024
 40
0.4062500000000024
 40
0.4062500000000024
 40
0.4375000000000024
 40
0.4375000000000024
 40
0.4687500000000023
 40
0.4687500000000023
 40
0.4843750000000023
 40
0.4843750000000023
 40
0.5000000000000022
 40
0.5156250000000022
 40
0.5156250000000022
 40
0.5312500000000022
 40
0.5312500000000022
 40
0.5468750000000022
 40
0.5468750000000022
 40
0.5625000000000023
 40
0.5625000000000023
 40
0.6250000000000019
 40
0.6250000000000019
 40
0.6562500000000017
 40
0.6562500000000017
 40
0.6875000000000013
 40
0.6875000000000013
 40
0.7500000000000008
 40
0.7500000000000008
 40
0.7812500000000007
 40
0.7812500000000007
 40
0.8125000000000004
 40
0.8125000000000004
 40
0.8750000000000003
 40
0.8750000000000003
 40
0.9375000000000001
 40
0.9375000000000001
 40
1.0
 40
1.0
 40
1.0
 40
1.0
 10
134.540171988846
 20
198.1249917120244
 30
0.0
 10
135.5334567194973
 20
197.910532143773
 30
0.0
 10
136.5107241970733
 20
197.6663689101825
 30
0.0
 10
138.4382272220749
 20
197.1124102598647
 30
0.0
 10
139.3884232785771
 20
196.8026797956086
 30
0.0
 10
141.262756150078
 20
196.1066117088782
 30
0.0
 10
142.1853150028566
 20
195.7206686656213
 30
0.0
 10
143.9816522119251
 20
194.8649636900451
 30
0.0
 10
144.8577915910512
 20
194.3946506382995
 30
0.0
 10
146.1318544493789
 20
193.6070463383851
 30
0.0
 10
146.5497993254733
 20
193.3307226460961
 30
0.0
 10
147.3700680541288
 20
192.7454647234206
 30
0.0
 10
147.7738858297394
 20
192.4352897868648
 30
0.0
 10
148.9450972520816
 20
191.4551314007913
 30
0.0
 10
149.6713707569145
 20
190.7398304243397
 30
0.0
 10
150.4794145211072
 20
189.7307915402054
 30
0.0
 10
150.635918874435
 20
189.5231059180033
 30
0.0
 10
150.9373153247597
 20
189.0943300316324
 30
0.0
 10
151.0822161734752
 20
188.8730645803113
 30
0.0
 10
151.4908736135689
 20
188.1966841591737
 30
0.0
 10
151.7310118873519
 20
187.7261453804969
 30
0.0
 10
152.1322498238199
 20
186.7369445271204
 30
0.0
 10
152.293015431501
 20
186.2162093452953
 30
0.0
 10
152.4542916649834
 20
185.416359452931
 30
0.0
 10
152.4948420470119
 20
185.1463460933506
 30
0.0
 10
152.5478110905217
 20
184.6087504780593
 30
0.0
 10
152.573214257169
 20
184.0710576713157
 30
0.0
 10
152.5436418379693
 20
183.5331710146444
 30
0.0
 10
152.4864260395275
 20
182.9951868947117
 30
0.0
 10
152.4436384861966
 20
182.7247679685302
 30
0.0
 10
152.3323019618881
 20
182.1933677173196
 30
0.0
 10
152.263861822591
 20
181.9318527609065
 30
0.0
 10
152.1031994558566
 20
181.4166117027188
 30
0.0
 10
152.0105576891402
 20
181.1620913437784
 30
0.0
 10
151.5009204316062
 20
179.9287913458624
 30
0.0
 10
150.9451269039876
 20
179.0487734799455
 30
0.0
 10
149.9653982423661
 20
177.8332170668527
 30
0.0
 10
149.6152403007873
 20
177.4483301599273
 30
0.0
 10
148.8891055755273
 20
176.7243765512445
 30
0.0
 10
148.5124099665919
 20
176.384160421749
 30
0.0
 10
147.3490384073183
 20
175.4161192331409
 30
0.0
 10
146.5294988972041
 20
174.8402427650976
 30
0.0
 10
145.2507044313907
 20
174.0522827158771
 30
0.0
 10
144.8151202810393
 20
173.8019976419675
 30
0.0
 10
143.9333074999264
 20
173.3267426689742
 30
0.0
 10
143.4879962792184
 20
173.1021859714001
 30
0.0
 10
142.1400184047997
 20
172.4627343394926
 30
0.0
 10
141.225422846332
 20
172.0817942459801
 30
0.0
 10
139.3670696055788
 20
171.393457022102
 30
0.0
 10
138.4233008539952
 20
171.0862009422896
 30
0.0
 10
136.5055943577571
 20
170.5355673421699
 30
0.0
 10
135.5317001589337
 20
170.2922430402527
 30
0.0
 10
134.540171988846
 20
170.0781627300412
 30
0.0
  0
LINE
  5
1F6
330
1F
100
AcDbEntity
  8
0
  6
Continuous
 62
     7
370
    25
100
AcDbLine
 10
154.5095296202
 20
167.901577221
 30
0.0
 11
154.5095296202
 21
200.301577221
 31
0.0
  0
LINE
  5
1F7
330
1F
100
AcDbEntity
  8
0
  6
Continuous
 62
     7
370
    25
100
AcDbLine
 10
137.3223774342
 20
200.3002466054
 30
0.0
 11
137.2999714077
 21
200.2905298699
 31
0.0
  0
LINE
  5
1F8
330
1F
100
AcDbEntity
  8
0
  6
Continuous
 62
     7
370
    25
100
AcDbLine
 10
137.3064807692
 20
167.9053297454
 30
0.0
 11
137.3223774342
 21
167.9029078366
 31
0.0
  0
ARC
  5
1F9
330
1F
100
AcDbEntity
  8
0
  6
Continuous
 62
     7
370
    25
100
AcDbCircle
 10
137.4592376461
 20
215.1668300905
 30
0.0
 40
17.29003179958777
100
AcDbArc
 50
243.6488590876
 51
260.280235246
  0
SPLINE
  5
1FA
330
1F
100
AcDbEntity
  8
0
  6
Continuous
 62
     7
370
    25
100
AcDbSpline
210
0.0
220
0.0
230
1.0
 70
     8
 71
     3
 72
    11
 73
     7
 74
     0
 42
0.00000001
 43
0.00000001
 40
0.0
 40
0.0
 40
0.0
 40
0.0
 40
0.1122272272845325
 40
0.4549366928136498
 40
0.8008537014399209
 40
1.0
 40
1.0
 40
1.0
 40
1.0
 10
155.1096633771676
 20
169.6882769502437
 30
0.0
 10
155.1037135729948
 20
169.6641527362628
 30
0.0
 10
155.0795947891779
 20
169.5663601560595
 30
0.0
 10
155.0352972214713
 20
170.2352492811581
 30
0.0
 10
154.9845618285053
 20
171.3709645723407
 30
0.0
 10
154.955364060896
 20
172.552725643373
 30
0.0
 10
154.9446962590665
 20
172.9844981365415
 30
0.0
  0
SPLINE
  5
1FB
330
1F
100
AcDbEntity
  8
0
  6
Continuous
 62
     7
370
    25
100
AcDbSpline
210
0.0
220
0.0
230
1.0
 70
     8
 71
     3
 72
    12
 73
     8
 74
     0
 42
0.00000001
 43
0.00000001
 40
0.0
 40
0.0
 40
0.0
 40
0.0
 40
0.0905984773349927
 40
0.3401453438333809
 40
0.585624171338092
 40
0.8367447224389002
 40
1.0
 40
1.0
 40
1.0
 40
1.0
 10
154.8296613234556
 20
178.5134421760453
 30
0.0
 10
154.8226766276518
 20
178.8846786739869
 30
0.0
 10
154.796453099115
 20
180.2784589002148
 30
0.0
 10
154.7518090491633
 20
182.9779194784273
 30
0.0
 10
154.6987940744256
 20
186.379771256512
 30
0.0
 10
154.6472688243813
 20
189.3525515445052
 30
0.0
 10
154.6156535139237
 20
190.9676007603831
 30
0.0
 10
154.6031977529286
 20
191.6038958571903
 30
0.0
  0
SPLINE
  5
1FC
330
1F
100
AcDbEntity
  8
0
  6
Continuous
 62
     7
370
    25
100
AcDbSpline
210
0.0
220
0.0
230
1.0
 70
     8
 71
     3
 72
    10
 73
     6
 74
     0
 42
0.00000001
 43
0.00000001
 40
0.0
 40
0.0
 40
0.0
 40
0.0
 40
0.0933023780258963
 40
0.7682512449043578
 40
1.0
 40
1.0
 40
1.0
 40
1.0
 10
154.5908179544512
 20
192.2472772187148
 30
0.0
 10
154.5882114681076
 20
192.3833115194506
 30
0.0
 10
154.5667496745215
 20
193.5034171705738
 30
0.0
 10
154.5413465979835
 20
194.6776729180741
 30
0.0
 10
154.5167546086668
 20
195.5972823138206
 30
0.0
 10
154.5104689818257
 20
195.8323312733342
 30
0.0
  0
LINE
  5
1FD
330
1F
100
AcDbEntity
  8
0
  6
Continuous
 62
     7
370
    25
100
AcDbLine
 10
154.5100580994
 20
195.8322489634
 30
0.0
 11
154.9792190864
 21
195.1754909089
 31
0.0
  0
SPLINE
  5
1FE
330
1F
100
AcDbEntity
  8
0
  6
Continuous
 62
     7
370
    25
100
AcDbSpline
210
0.0
220
0.0
230
1.0
 70
     8
 71
     3
 72
    27
 73
    23
 74
     0
 42
0.00000001
 43
0.00000001
 40
0.0
 40
0.0
 40
0.0
 40
0.0
 40
0.0515285379309237
 40
0.1040960246778745
 40
0.1569935992290401
 40
0.2095583656097145
 40
0.2611519373513786
 40
0.3127510520403477
 40
0.3653186984677251
 40
0.4182162726646301
 40
0.4707808786826798
 40
0.522374143486538
 40
0.5739735662071672
 40
0.6265413722770644
 40
0.6794389460803467
 40
0.7320033916978774
 40
0.7835963497128633
 40
0.8351960804313621
 40
0.8877640461058721
 40
0.9406616194761687
 40
0.9932259046552894
 40
1.0
 40
1.0
 40
1.0
 40
1.0
 10
163.0781631155353
 20
170.41370138299
 30
0.0
 10
163.0662562208377
 20
170.4456911013948
 30
0.0
 10
163.042202357599
 20
170.5103155338008
 30
0.0
 10
163.0038765628332
 20
171.0314641895978
 30
0.0
 10
162.9650225510694
 20
171.8592257100732
 30
0.0
 10
162.9266848505863
 20
172.9932708440207
 30
0.0
 10
162.8907050985886
 20
174.3869585610243
 30
0.0
 10
162.8547094903023
 20
176.0159181773574
 30
0.0
 10
162.8163673876803
 20
177.8576433838947
 30
0.0
 10
162.7775130800612
 20
179.8673194543719
 30
0.0
 10
162.7391757080178
 20
181.9699356161042
 30
0.0
 10
162.7031968146548
 20
184.1067718342991
 30
0.0
 10
162.6672003227343
 20
186.2435316726719
 30
0.0
 10
162.628858007644
 20
188.3458814417748
 30
0.0
 10
162.5900035608632
 20
190.3549439727987
 30
0.0
 10
162.5516669564969
 20
192.1955833657161
 30
0.0
 10
162.5156870458318
 20
193.8238494956107
 30
0.0
 10
162.4796967593383
 20
195.2148783341914
 30
0.0
 10
162.4413272129321
 20
196.3531500363583
 30
0.0
 10
162.4025742572388
 20
197.1584061910567
 30
0.0
 10
162.3749102456965
 20
197.5850931301917
 30
0.0
 10
162.3611055681708
 20
197.6412986645377
 30
0.0
 10
162.3595296201767
 20
197.6477151127994
 30
0.0
  0
SPLINE
  5
1FF
330
1F
100
AcDbEntity
  8
0
  6
Continuous
 62
     7
370
    25
100
AcDbSpline
210
0.0
220
0.0
230
1.0
 70
     8
 71
     3
 72
    50
 73
    46
 74
     0
 42
0.00000001
 43
0.00000001
 40
0.0
 40
0.0
 40
0.0
 40
0.0
 40
0.0284475187430945
 40
0.0522203319930536
 40
0.0761400917270586
 40
0.099907043807384
 40
0.1232327519742958
 40
0.1465698242851818
 40
0.1703427091924241
 40
0.1942624681966602
 40
0.2180293472143891
 40
0.2413549187423394
 40
0.2646921298529429
 40
0.2884650864003172
 40
0.3123848446569858
 40
0.3361516505949936
 40
0.3594770855513481
 40
0.3828144354463704
 40
0.4065874636167252
 40
0.4305072211080275
 40
0.4542739539491897
 40
0.4775992524013126
 40
0.5009367410654557
 40
0.524709840841639
 40
0.5486295975497764
 40
0.5723962572769681
 40
0.5957214192922247
 40
0.6190590467101896
 40
0.6428322180750499
 40
0.6667519739822224
 40
0.6905185605783206
 40
0.7138435862240774
 40
0.7371813523805644
 40
0.7609545953169489
 40
0.7848743504053571
 40
0.8086408638532381
 40
0.8319657531968614
 40
0.8553036580765708
 40
0.8790769725673265
 40
0.9029967268191721
 40
0.9267631671017127
 40
0.9500879202105702
 40
0.9734259637982005
 40
0.997199349826175
 40
1.0
 40
1.0
 40
1.0
 40
1.0
 10
155.578137341652
 20
170.4146635997075
 30
0.0
 10
156.2119358049251
 20
170.4358698999485
 30
0.0
 10
157.3753823068048
 20
170.4747977252163
 30
0.0
 10
156.9211770488774
 20
171.0367317364053
 30
0.0
 10
156.9867139018654
 20
171.8669184426637
 30
0.0
 10
156.9206367160536
 20
173.0031278160062
 30
0.0
 10
156.8919696918209
 20
174.3987243808714
 30
0.0
 10
156.8539978590137
 20
176.02941922623
 30
0.0
 10
156.8161800697222
 20
177.8727077162008
 30
0.0
 10
156.7771816392876
 20
179.8834082239007
 30
0.0
 10
156.7388906831385
 20
181.9864357346714
 30
0.0
 10
156.7029295595569
 20
184.1233973299158
 30
0.0
 10
156.6669077014706
 20
186.2600266571187
 30
0.0
 10
156.6285567026145
 20
188.3619685815698
 30
0.0
 10
156.5897026464962
 20
190.3699632401623
 30
0.0
 10
156.5513735713766
 20
192.2091681920987
 30
0.0
 10
156.5154233855356
 20
193.8352099890638
 30
0.0
 10
156.4793979583851
 20
195.2261495890282
 30
0.0
 10
156.4410474493516
 20
196.3553128533684
 30
0.0
 10
156.4021931964722
 20
197.18424333289
 30
0.0
 10
156.3638644300564
 20
197.6821475108024
 30
0.0
 10
156.3279150927429
 20
197.844672290878
 30
0.0
 10
156.2918887946826
 20
197.6750518601134
 30
0.0
 10
156.2535380384459
 20
197.1699189645081
 30
0.0
 10
156.2146837885315
 20
196.3341638662357
 30
0.0
 10
156.1763552779071
 20
195.1990836291518
 30
0.0
 10
156.1404068026342
 20
193.8028811175946
 30
0.0
 10
156.1043796300779
 20
192.1720677119132
 30
0.0
 10
156.0660286277158
 20
190.3285572263924
 30
0.0
 10
156.0271743805525
 20
188.3177362632771
 30
0.0
 10
155.9888461259506
 20
186.2146555486659
 30
0.0
 10
155.9528985122818
 20
184.0776789984807
 30
0.0
 10
155.9168704653642
 20
181.9410657284481
 30
0.0
 10
155.8785192169751
 20
179.8391761839629
 30
0.0
 10
155.8396649724746
 20
177.8313114867707
 30
0.0
 10
155.8013369746081
 20
175.992300100361
 30
0.0
 10
155.7653902200949
 20
174.3664846479124
 30
0.0
 10
155.7293613065473
 20
172.9757501137021
 30
0.0
 10
155.6910097832794
 20
171.8469875715104
 30
0.0
 10
155.6521556502289
 20
171.0178740299063
 30
0.0
 10
155.6138275080454
 20
170.5221199052423
 30
0.0
 10
155.5778830809242
 20
170.3532499772675
 30
0.0
 10
155.5418478041519
 20
170.5481480540259
 30
0.0
 10
155.5149135330464
 20
170.8365420070847
 30
0.0
 10
155.5004964512493
 20
171.1518272121826
 30
0.0
 10
155.4989770282179
 20
171.1850552682354
 30
0.0
  0
SPLINE
  5
200
330
1F
100
AcDbEntity
  8
0
  6
Continuous
 62
     7
370
    25
100
AcDbSpline
210
0.0
220
0.0
230
1.0
 70
     8
 71
     3
 72
    12
 73
     8
 74
     0
 42
0.00000001
 43
0.00000001
 40
0.0
 40
0.0
 40
0.0
 40
0.0
 40
0.2342640849254553
 40
0.4754567751216083
 40
0.7167925825372544
 40
0.962628769256193
 40
1.0
 40
1.0
 40
1.0
 40
1.0
 10
155.2753150695785
 20
180.0078368629764
 30
0.0
 10
155.2630709857639
 20
180.6716809876475
 30
0.0
 10
155.2382206865529
 20
182.0190031211277
 30
0.0
 10
155.2028721037351
 20
184.1307970378353
 30
0.0
 10
155.1668283864784
 20
186.2564855105024
 30
0.0
 10
155.1394545704372
 20
187.7829509559612
 30
0.0
 10
155.1245954408038
 20
188.5465304265392
 30
0.0
 10
155.122634673084
 20
188.6472901624312
 30
0.0
  0
SPLINE
  5
201
330
1F
100
AcDbEntity
  8
0
  6
Continuous
 62
     7
370
    25
100
AcDbSpline
210
0.0
220
0.0
230
1.0
 70
     8
 71
     3
 72
    27
 73
    23
 74
     0
 42
0.00000001
 43
0.00000001
 40
0.0
 40
0.0
 40
0.0
 40
0.0
 40
0.0408633052577798
 40
0.0916401885335679
 40
0.1427359153223731
 40
0.1935101698209109
 40
0.2433463109127252
 40
0.2931878083293831
 40
0.3439648459093578
 40
0.3950605723556901
 40
0.4458346718905409
 40
0.4956705163790678
 40
0.5455123114564725
 40
0.5962895033039882
 40
0.6473852293697941
 40
0.6981591739043257
 40
0.7479947219335426
 40
0.7978368146390278
 40
0.8486141607174387
 40
0.8997098863646661
 40
0.9504836758622465
 40
1.0
 40
1.0
 40
1.0
 40
1.0
 10
163.4467090734927
 20
170.4432037094401
 30
0.0
 10
163.4369252005507
 20
170.4712152552731
 30
0.0
 10
163.4149838535321
 20
170.5340340440385
 30
0.0
 10
163.3788667133605
 20
171.0334949952351
 30
0.0
 10
163.3400251386003
 20
171.8586845936481
 30
0.0
 10
163.3016841317229
 20
172.9934137959219
 30
0.0
 10
163.2657052503494
 20
174.3869222230895
 30
0.0
 10
163.2297094059902
 20
176.0159300735699
 30
0.0
 10
163.191367365101
 20
177.8576423798108
 30
0.0
 10
163.152513039357
 20
179.8673222070102
 30
0.0
 10
163.1141756728084
 20
181.9699373701284
 30
0.0
 10
163.0781967784846
 20
184.1067744336436
 30
0.0
 10
163.0422002923135
 20
186.2435322186885
 30
0.0
 10
163.0038579381305
 20
188.3458896629778
 30
0.0
 10
162.9650036304699
 20
190.3549232415976
 30
0.0
 10
162.9266665102656
 20
192.1956689326611
 30
0.0
 10
162.8906884921629
 20
193.8235451052842
 30
0.0
 10
162.8546911322901
 20
195.2160318724389
 30
0.0
 10
162.816348506205
 20
196.3487496004304
 30
0.0
 10
162.7774942884258
 20
197.1748942147489
 30
0.0
 10
162.7392376855183
 20
197.6937793697364
 30
0.0
 10
162.7152520000485
 20
197.757279334068
 30
0.0
 10
162.7034095269138
 20
197.7886312261199
 30
0.0
  0
SPLINE
  5
202
330
1F
100
AcDbEntity
  8
0
  6
Continuous
 62
     7
370
    25
100
AcDbSpline
210
0.0
220
0.0
230
1.0
 70
     8
 71
     3
 72
    11
 73
     7
 74
     0
 42
0.00000001
 43
0.00000001
 40
0.0
 40
0.0
 40
0.0
 40
0.0
 40
0.1830351157051622
 40
0.504292703048097
 40
0.8257409933541541
 40
1.0
 40
1.0
 40
1.0
 40
1.0
 10
155.6352704618929
 20
180.836518538821
 30
0.0
 10
155.6281059393156
 20
181.2267115358421
 30
0.0
 10
155.6083664677796
 20
182.3017592414157
 30
0.0
 10
155.5778640811336
 20
184.1274396301966
 30
0.0
 10
155.5476210800278
 20
185.9338407847153
 30
0.0
 10
155.5282142025175
 20
186.9896450819288
 30
0.0
 10
155.5213919846122
 20
187.3607983999778
 30
0.0
  0
ELLIPSE
  5
203
330
1F
100
AcDbEntity
  8
0
  6
Continuous
 62
     7
370
    25
100
AcDbEllipse
 10
162.889968312
 20
184.101577221
 30
0.0
 11
-7.401257687792878
 21
14.35777723298278
 31
0.0
210
0.0
220
0.0
230
1.0
 40
0.2737224856
 41
0.1519163654195822
 42
0.4881424368787591
  0
ELLIPSE
  5
204
330
1F
100
AcDbEntity
  8
0
  6
Continuous
 62
     7
370
    25
100
AcDbEllipse
 10
147.4513928638
 20
184.101577221
 30
0.0
 11
7.392868934794849
 21
14.35826292490984
 31
0.0
210
0.0
220
0.0
230
1.0
 40
0.2735670702
 41
6.02936000506456
 42
6.131028995319415
  0
LINE
  5
205
330
1F
100
AcDbEntity
  8
0
  6
Continuous
 62
     7
370
    25
100
AcDbLine
 10
154.9792072065
 20
197.987410765
 30
0.0
 11
155.3542072181
 21
197.9874107648
 31
0.0
  0
LINE
  5
206
330
1F
100
AcDbEntity
  8
0
  6
Continuous
 62
     7
370
    25
100
AcDbLine
 10
154.9792072065
 20
197.987410765
 30
0.0
 11
154.9792190864
 21
195.1754909089
 31
0.0
  0
LINE
  5
207
330
1F
100
AcDbEntity
  8
0
  6
Continuous
 62
     7
370
    25
100
AcDbLine
 10
155.3542072181
 20
197.9874107647
 30
0.0
 11
155.3542134322
 21
196.5165679406
 31
0.0
  0
SPLINE
  5
208
330
1F
100
AcDbEntity
  8
0
  6
Continuous
 62
     7
370
    25
100
AcDbSpline
210
0.0
220
0.0
230
1.0
 70
     8
 71
     3
 72
    16
 73
    12
 74
     0
 42
0.00000001
 43
0.00000001
 40
0.0
 40
0.0
 40
0.0
 40
0.0
 40
0.2500000000000024
 40
0.2500000000000024
 40
0.5000000000000049
 40
0.5000000000000049
 40
0.6250000000000037
 40
0.6250000000000037
 40
0.7500000000000024
 40
0.7500000000000024
 40
1.0
 40
1.0
 40
1.0
 40
1.0
 10
129.7846905236005
 20
199.6733951552134
 30
0.0
 10
130.0152131995834
 20
199.9871230684222
 30
0.0
 10
130.205863591159
 20
200.2681885485137
 30
0.0
 10
130.5316939983803
 20
200.7574573252047
 30
0.0
 10
130.666535074415
 20
200.9658046010626
 30
0.0
 10
130.834490882959
 20
201.2181037855073
 30
0.0
 10
130.884767015903
 20
201.2922555135446
 30
0.0
 10
130.9731019484418
 20
201.4176031196518
 30
0.0
 10
131.0113624648961
 20
201.4691168685583
 30
0.0
 10
131.1096794498898
 20
201.5901224163561
 30
0.0
 10
131.1534469106884
 20
201.6262339711399
 30
0.0
 10
131.1763915508778
 20
201.6159280044129
 30
0.0
  0
ARC
  5
209
330
1F
100
AcDbEntity
  8
0
  6
Continuous
 62
     7
370
    25
100
AcDbCircle
 10
137.3167386105
 20
215.2867196948
 30
0.0
 40
14.98647415023482
100
AcDbArc
 50
245.8123806786
 51
270.02155816
  0
ARC
  5
20A
330
1F
100
AcDbEntity
  8
0
  6
Continuous
 62
     7
370
    25
100
AcDbCircle
 10
137.3167386105
 20
152.9164347472
 30
0.0
 40
14.98647415023324
100
AcDbArc
 50
89.97844184
 51
114.1876193214
  0
ARC
  5
20B
330
1F
100
AcDbEntity
  8
0
  6
Continuous
 62
     7
370
    25
100
AcDbCircle
 10
123.3095296202
 20
184.101577221
 30
0.0
 40
19.2
100
AcDbArc
 50
65.8119747904
 51
245.7035220052
  0
LINE
  5
20C
330
1F
100
AcDbEntity
  8
0
  6
Continuous
 62
     7
370
    25
100
AcDbLine
 10
131.1763915509
 20
201.6159280044
 30
0.0
 11
131.1764122851
 21
201.6159186913
 31
0.0
  0
ARC
  5
20D
330
1F
100
AcDbEntity
  8
0
  6
Continuous
 62
     7
370
    25
100
AcDbCircle
 10
123.3095296202
 20
184.101577221
 30
0.0
 40
25.375
100
AcDbArc
 50
39.6743748818
 51
251.8605962769
  0
ARC
  5
20E
330
1F
100
AcDbEntity
  8
0
  6
Continuous
 62
     7
370
    25
100
AcDbCircle
 10
123.3095296202
 20
184.101577221
 30
0.0
 40
25.37500000000001
100
AcDbArc
 50
288.1394037231
 51
320.3256251182
  0
LWPOLYLINE
  5
20F
330
1F
100
AcDbEntity
  8
0
  6
Continuous
 62
     8
370
    25
100
AcDbPolyline
 90
       18
 70
   128
 43
0.0
 10
115.4095296202
 20
79.0285891326
 10
115.5440421327
 20
79.53985061
 10
115.9429990079
 20
80.033701691
 10
116.5928142479
 20
80.4933248693
 10
117.4713591741
 20
80.9030682289
 10
118.5487159928
 20
81.248978451
 10
119.7881966095
 20
81.519275978
 10
121.1475919986
 20
81.7047561516
 10
122.5806095804
 20
81.7991026672
 10
124.0384496599
 20
81.7991026672
 10
125.4714672417
 20
81.7047561516
 10
126.8308626308
 20
81.519275978
 10
128.0703432476
 20
81.248978451
 10
129.1477000662
 20
80.9030682289
 10
130.0262449924
 20
80.4933248693
 10
130.6760602325
 20
80.033701691
 10
131.0750171077
 20
79.53985061
 10
131.2095296202
 20
79.0285891326
  0
LWPOLYLINE
  5
210
330
1F
100
AcDbEntity
  8
0
  6
Continuous
 62
     8
370
    25
100
AcDbPolyline
 90
       18
 70
   128
 43
0.0
 10
115.4095296202
 20
161.4285891326
 10
115.5440421327
 20
161.93985061
 10
115.9429990079
 20
162.433701691
 10
116.5928142479
 20
162.8933248693
 10
117.4713591741
 20
163.3030682289
 10
118.5487159928
 20
163.648978451
 10
119.7881966095
 20
163.919275978
 10
121.1475919986
 20
164.1047561516
 10
122.5806095804
 20
164.1991026672
 10
124.0384496599
 20
164.1991026672
 10
125.4714672417
 20
164.1047561516
 10
126.8308626308
 20
163.919275978
 10
128.0703432476
 20
163.648978451
 10
129.1477000662
 20
163.3030682289
 10
130.0262449924
 20
162.8933248693
 10
130.6760602325
 20
162.433701691
 10
131.0750171077
 20
161.93985061
 10
131.2095296202
 20
161.4285891326
  0
ARC
  5
211
330
1F
100
AcDbEntity
  8
0
  6
Continuous
 62
     8
370
    25
100
AcDbCircle
 10
123.3095296202
 20
31.701577221
 30
0.0
 40
8.41047229201953
100
AcDbArc
 50
159.9351921799
 51
270.0
  0
ARC
  5
212
330
1F
100
AcDbEntity
  8
0
  6
Continuous
 62
     8
370
    25
100
AcDbCircle
 10
123.3095296202
 20
31.701577221
 30
0.0
 40
8.410472292019524
100
AcDbArc
 50
270.0
 51
20.0648078201
  0
LINE
  5
213
330
1F
100
AcDbEntity
  8
0
  6
Continuous
 62
     8
370
    25
100
AcDbLine
 10
115.2502957729
 20
176.5272161939
 30
0.0
 11
115.4095296202
 21
176.3612803808
 31
0.0
  0
ARC
  5
214
330
1F
100
AcDbEntity
  8
0
  6
Continuous
 62
     8
370
    25
100
AcDbCircle
 10
123.3095296202
 20
184.101577221
 30
0.0
 40
11.05993649053894
100
AcDbArc
 50
315.5850271977
 51
223.2235523034
  0
ARC
  5
215
330
1F
100
AcDbEntity
  8
0
  6
Continuous
 62
     8
370
    25
100
AcDbCircle
 10
123.3095296202
 20
184.101577221
 30
0.0
 40
11.30993649053894
100
AcDbArc
 50
314.3068486059
 51
225.6931513941
  0
LINE
  5
216
330
1F
100
AcDbEntity
  8
0
  6
Continuous
 62
     8
370
    25
100
AcDbLine
 10
131.2095296202
 20
171.7358409111
 30
0.0
 11
131.4667884788
 21
171.84250903
 31
0.0
  0
ARC
  5
217
330
1F
100
AcDbEntity
  8
0
  6
Continuous
 62
     8
370
    25
100
AcDbCircle
 10
115.1520391133
 20
172.1865229957
 30
0.0
 40
0.3529502268453166
100
AcDbArc
 50
279.538525686
 51
316.8476542185
  0
ARC
  5
218
330
1F
100
AcDbEntity
  8
0
  6
Continuous
 62
     8
370
    25
100
AcDbCircle
 10
123.3095296202
 20
184.101577221
 30
0.0
 40
9.374999999999943
100
AcDbArc
 50
327.4227936768
 51
212.5772063232
  0
LINE
  5
219
330
1F
100
AcDbEntity
  8
0
  6
Continuous
 62
     8
370
    25
100
AcDbLine
 10
197.0475735773
 20
175.9559858753
 30
0.0
 11
197.0475735773
 21
175.1259191768
 31
0.0
  0
LINE
  5
21A
330
1F
100
AcDbEntity
  8
0
  6
Continuous
 62
     8
370
    25
100
AcDbLine
 10
196.1141533634
 20
193.0935281757
 30
0.0
 11
196.1141533634
 21
192.2575746375
 31
0.0
  0
LINE
  5
21B
330
1F
100
AcDbEntity
  8
0
  6
Continuous
 62
     8
370
    25
100
AcDbLine
 10
201.4182558234
 20
175.2022097192
 30
0.0
 11
201.4182558234
 21
193.0009447229
 31
0.0
  0
ARC
  5
21C
330
1F
100
AcDbEntity
  8
0
  6
Continuous
 62
     8
370
    25
100
AcDbCircle
 10
191.5735860546
 20
193.7326999542
 30
0.0
 40
1.999714163833928
100
AcDbArc
 50
23.9496695016
 51
89.4026417578
  0
SPLINE
  5
21D
330
1F
100
AcDbEntity
  8
0
  6
Continuous
 62
     8
370
    25
100
AcDbSpline
210
0.0
220
0.0
230
1.0
 70
     8
 71
     3
 72
    11
 73
     7
 74
     0
 42
0.00000001
 43
0.00000001
 40
0.0
 40
0.0
 40
0.0
 40
0.0
 40
0.2712378730599509
 40
0.8558922174280369
 40
0.8591593821139398
 40
1.0
 40
1.0
 40
1.0
 40
1.0
 10
194.8375212010319
 20
193.4200838221034
 30
0.0
 10
194.9436121368576
 20
193.362285528921
 30
0.0
 10
195.2783825186204
 20
193.179902778469
 30
0.0
 10
195.6496298451999
 20
192.7885344201312
 30
0.0
 10
195.9600085201726
 20
192.4143412917686
 30
0.0
 10
196.0215110548784
 20
192.3353561220626
 30
0.0
 10
196.0816192241594
 20
192.2581616783852
 30
0.0
  0
SPLINE
  5
21E
330
1F
100
AcDbEntity
  8
0
  6
Continuous
 62
     8
370
    25
100
AcDbSpline
210
0.0
220
0.0
230
1.0
 70
     8
 71
     3
 72
     9
 73
     5
 74
     0
 42
0.00000001
 43
0.00000001
 40
0.0
 40
0.0
 40
0.0
 40
0.0
 40
0.353471304687639
 40
1.0
 40
1.0
 40
1.0
 40
1.0
 10
197.0029672441428
 20
175.9551792582125
 30
0.0
 10
196.8108684661022
 20
175.7618553726092
 30
0.0
 10
196.2674048935487
 20
175.2149258678955
 30
0.0
 10
195.7478260263898
 20
174.9110549580554
 30
0.0
 10
195.4119033792936
 20
174.7145936951731
 30
0.0
  0
ARC
  5
21F
330
1F
100
AcDbEntity
  8
0
  6
Continuous
 62
     8
370
    25
100
AcDbCircle
 10
191.679978371
 20
174.3606422469
 30
0.0
 40
1.935945854966062
100
AcDbArc
 50
269.1353354526
 51
335.1540321834
  0
ARC
  5
220
330
1F
100
AcDbEntity
  8
0
  6
Continuous
 62
     8
370
    25
100
AcDbCircle
 10
191.5742598327
 20
193.7834326401
 30
0.0
 40
1.995865504505734
100
AcDbArc
 50
19.2726755477
 51
89.4208331484
  0
LINE
  5
221
330
1F
100
AcDbEntity
  8
0
  6
Continuous
 62
     8
370
    25
100
AcDbLine
 10
187.5682558234
 20
172.3554433078
 30
0.0
 11
187.5682558234
 21
172.1297637587
 31
0.0
  0
LINE
  5
222
330
1F
100
AcDbEntity
  8
0
  6
Continuous
 62
     8
370
    25
100
AcDbLine
 10
187.5682558234
 20
196.0733906833
 30
0.0
 11
187.5682558234
 21
195.8477111343
 31
0.0
  0
LINE
  5
223
330
1F
100
AcDbEntity
  8
0
  6
Continuous
 62
     8
370
    25
100
AcDbLine
 10
191.5944344331
 20
172.2000409678
 30
0.0
 11
191.5944344331
 21
172.2166297741
 31
0.0
  0
LINE
  5
224
330
1F
100
AcDbEntity
  8
0
  6
Continuous
 62
     8
370
    25
100
AcDbLine
 10
191.5944344331
 20
195.7791961776
 30
0.0
 11
191.5944344331
 21
196.0031134743
 31
0.0
  0
ARC
  5
225
330
1F
100
AcDbEntity
  8
0
  6
Continuous
 62
     8
370
    25
100
AcDbCircle
 10
191.5604696698
 20
174.216505118
 30
0.0
 40
2.000163742340952
100
AcDbArc
 50
270.972985901
 51
333.0935829295
  0
LINE
  5
226
330
1F
100
AcDbEntity
  8
0
  6
Continuous
 62
     8
370
    25
100
AcDbLine
 10
203.5145346097
 20
178.1764494499
 30
0.0
 11
203.5145346097
 21
190.0267049922
 31
0.0
  0
ARC
  5
227
330
1F
100
AcDbEntity
  8
0
  6
Continuous
 62
     8
370
    25
100
AcDbCircle
 10
130.2530438714
 20
163.3906975064
 30
0.0
 40
7.943655242545314
100
AcDbArc
 50
57.337317599
 51
83.0843056245
  0
ARC
  5
228
330
1F
100
AcDbEntity
  8
0
  6
Continuous
 62
     8
370
    25
100
AcDbCircle
 10
130.3866109131
 20
204.4911781214
 30
0.0
 40
7.601341921577758
100
AcDbArc
 50
272.8159102746
 51
303.1220773789
  0
SPLINE
  5
229
330
1F
100
AcDbEntity
  8
0
  6
Continuous
 62
     8
370
    25
100
AcDbSpline
210
0.0
220
0.0
230
1.0
 70
     8
 71
     3
 72
    12
 73
     8
 74
     0
 42
0.00000001
 43
0.00000001
 40
0.0
 40
0.0
 40
0.0
 40
0.0
 40
0.1924082105681739
 40
0.4135492548068708
 40
0.6381901448204661
 40
0.8686791278218468
 40
1.0
 40
1.0
 40
1.0
 40
1.0
 10
137.2999714077488
 20
200.2905298698565
 30
0.0
 10
137.2498644241345
 20
200.2769962305454
 30
0.0
 10
137.1421678467736
 20
200.2479079372995
 30
0.0
 10
136.718119289761
 20
199.9159077466959
 30
0.0
 10
136.068179970082
 20
199.3691883376489
 30
0.0
 10
135.319016612486
 20
198.7371146976068
 30
0.0
 10
134.7475785640065
 20
198.2880002610509
 30
0.0
 10
134.540171988846
 20
198.1249917120244
 30
0.0
  0
SPLINE
  5
22A
330
1F
100
AcDbEntity
  8
0
  6
Continuous
 62
     8
370
    25
100
AcDbSpline
210
0.0
220
0.0
230
1.0
 70
     8
 71
     3
 72
    12
 73
     8
 74
     0
 42
0.00000001
 43
0.00000001
 40
0.0
 40
0.0
 40
0.0
 40
0.0
 40
0.2298983238880673
 40
0.46580431102087
 40
0.6969655693638132
 40
0.9348948514667818
 40
0.9999999999999999
 40
0.9999999999999999
 40
0.9999999999999999
 40
0.9999999999999999
 10
134.540171988846
 20
170.0781627300412
 30
0.0
 10
134.8947960415973
 20
169.7962063701463
 30
0.0
 10
135.6133111215232
 20
169.224925615517
 30
0.0
 10
136.3990137029022
 20
168.5520350404084
 30
0.0
 10
136.9697310087793
 20
168.0844329415189
 30
0.0
 10
137.229239648727
 20
167.9099224753904
 30
0.0
 10
137.2928207475134
 20
167.9061419655258
 30
0.0
 10
137.3064807691541
 20
167.9053297454234
 30
0.0
  0
LINE
  5
22B
330
1F
100
AcDbEntity
  8
0
  6
Continuous
 62
     8
370
    25
100
AcDbLine
 10
129.3289509414
 20
198.5774079041
 30
0.0
 11
129.7846905236
 21
199.6733951552
 31
0.0
  0
ARC
  5
22C
330
1F
100
AcDbEntity
  8
0
  6
Continuous
 62
     8
370
    25
100
AcDbCircle
 10
123.3095296202
 20
184.101577221
 30
0.0
 40
16.8644366197183
100
AcDbArc
 50
67.4212070912
 51
242.0668292396
  0
ARC
  5
22D
330
1F
100
AcDbEntity
  8
0
  6
Continuous
 62
     8
370
    25
100
AcDbCircle
 10
137.3942335581
 20
153.2912630589
 30
0.0
 40
17.02779104902838
100
AcDbArc
 50
99.6490027568
 51
111.2976087729
  0
ARC
  5
22E
330
1F
100
AcDbEntity
  8
0
  6
Continuous
 62
     8
370
    25
100
AcDbCircle
 10
123.3095296202
 20
184.101577221
 30
0.0
 40
24.76305823079823
100
AcDbArc
 50
288.6038866725
 51
319.140960131
  0
ARC
  5
22F
330
1F
100
AcDbEntity
  8
0
  6
Continuous
 62
     8
370
    25
100
AcDbCircle
 10
123.3095296202
 20
184.101577221
 30
0.0
 40
24.76305823079824
100
AcDbArc
 50
40.859039869
 51
251.3961133275
  0
ENDSEC
  0
SECTION
  2
OBJECTS
  0
DICTIONARY
  5
C
330
0
100
AcDbDictionary
281
     1
  3
ACAD_GROUP
350
D
  3
ACAD_LAYOUT
350
1A
  3
ACAD_MLINESTYLE
350
17
  3
ACAD_PLOTSETTINGS
350
19
  3
ACAD_PLOTSTYLENAME
350
E
  3
ACAD_SCALELIST
350
47
  3
DWGPROPS
350
230
  0
DICTIONARY
  5
D
102
{ACAD_REACTORS
330
C
102
}
330
C
100
AcDbDictionary
281
     1
  0
DICTIONARY
  5
1A
102
{ACAD_REACTORS
330
C
102
}
330
C
100
AcDbDictionary
281
     1
  3
Layout1
350
1E
  3
Layout2
350
26
  3
Model
350
22
  0
DICTIONARY
  5
17
102
{ACAD_REACTORS
330
C
102
}
330
C
100
AcDbDictionary
281
     1
  3
Standard
350
18
  0
DICTIONARY
  5
19
102
{ACAD_REACTORS
330
C
102
}
330
C
100
AcDbDictionary
281
     1
  0
ACDBDICTIONARYWDFLT
  5
E
102
{ACAD_REACTORS
330
C
102
}
330
C
100
AcDbDictionary
281
     1
  3
Normal
350
F
100
AcDbDictionaryWithDefault
340
F
  0
DICTIONARY
  5
47
102
{ACAD_REACTORS
330
C
102
}
330
C
100
AcDbDictionary
281
     1
  3
A0
350
48
  3
A1
350
49
  3
A2
350
4A
  3
A3
350
4B
  3
A4
350
4C
  3
A5
350
4D
  3
A6
350
4E
  3
A7
350
4F
  3
A8
350
50
  3
A9
350
51
  3
B0
350
52
  3
B1
350
53
  3
B2
350
54
  3
B3
350
55
  3
B4
350
56
  3
B5
350
57
  3
B6
350
58
  3
B7
350
59
  3
B8
350
5A
  3
B9
350
5B
  3
C0
350
5C
  3
C1
350
5D
  3
C2
350
5E
  3
C3
350
5F
  3
C4
350
60
  3
C5
350
61
  3
C6
350
62
  3
C7
350
63
  3
C8
350
64
  3
C9
350
65
  3
D0
350
66
  3
D1
350
67
  3
D2
350
68
  0
XRECORD
  5
230
102
{ACAD_REACTORS
330
C
102
}
330
C
100
AcDbXrecord
280
     1
  1
DWGPROPS COOKIE
  2

  3

  4

  6

  7

  8
DS-1
  9

300
=
301
=
302
=
303
=
304
=
305
=
306
=
307
=
308
=
309
=
 40
0.0
 41
2460383.492880197
 42
2460383.492881041
  1

 90
        0
  0
LAYOUT
  5
1E
102
{ACAD_REACTORS
330
1A
102
}
330
1A
100
AcDbPlotSettings
  1

  2
none_device
  4

  6

 40
0.0
 41
0.0
 42
0.0
 43
0.0
 44
0.0
 45
0.0
 46
0.0
 47
0.0
 48
0.0
 49
0.0
140
0.0
141
0.0
142
1.0
143
1.0
 70
   688
 72
     1
 73
     0
 74
     5
  7

 75
    16
147
1.0
148
0.0
149
0.0
100
AcDbLayout
  1
Layout1
 70
     1
 71
     1
 10
0.0
 20
0.0
 11
420.0
 21
297.0
 12
0.0
 22
0.0
 32
0.0
 14
1.0000000000E+20
 24
1.0000000000E+20
 34
1.0000000000E+20
 15
-1.0000000000E+20
 25
-1.0000000000E+20
 35
-1.0000000000E+20
146
0.0
 13
0.0
 23
0.0
 33
0.0
 16
1.0
 26
0.0
 36
0.0
 17
0.0
 27
1.0
 37
0.0
 76
     0
330
1B
  0
LAYOUT
  5
26
102
{ACAD_REACTORS
330
1A
102
}
330
1A
100
AcDbPlotSettings
  1

  2
none_device
  4

  6

 40
0.0
 41
0.0
 42
0.0
 43
0.0
 44
0.0
 45
0.0
 46
0.0
 47
0.0
 48
0.0
 49
0.0
140
0.0
141
0.0
142
1.0
143
1.0
 70
   688
 72
     1
 73
     0
 74
     5
  7

 75
    16
147
1.0
148
0.0
149
0.0
100
AcDbLayout
  1
Layout2
 70
     1
 71
     2
 10
0.0
 20
0.0
 11
0.0
 21
0.0
 12
0.0
 22
0.0
 32
0.0
 14
0.0
 24
0.0
 34
0.0
 15
0.0
 25
0.0
 35
0.0
146
0.0
 13
0.0
 23
0.0
 33
0.0
 16
1.0
 26
0.0
 36
0.0
 17
0.0
 27
1.0
 37
0.0
 76
     0
330
23
  0
LAYOUT
  5
22
102
{ACAD_REACTORS
330
1A
102
}
330
1A
100
AcDbPlotSettings
  1

  2
none_device
  4
Letter_(8.50_x_11.00_Inches)
  6

 40
6.35
 41
6.35
 42
6.35000508
 43
6.35000508
 44
215.9
 45
279.4
 46
0.0
 47
0.0
 48
0.0
 49
0.0
140
0.0
141
0.0
142
1.0
143
1.0
 70
  1712
 72
     1
 73
     0
 74
     0
  7

 75
     0
147
1.0
148
0.0
149
0.0
100
AcDbLayout
  1
Model
 70
     1
 71
     0
 10
0.0
 20
0.0
 11
279.4
 21
215.9
 12
0.0
 22
0.0
 32
0.0
 14
0.0
 24
0.0
 34
0.0
 15
279.4
 25
215.9
 35
0.0
146
0.0
 13
0.0
 23
0.0
 33
0.0
 16
1.0
 26
0.0
 36
0.0
 17
0.0
 27
1.0
 37
0.0
 76
     0
330
1F
331
29
  0
MLINESTYLE
  5
18
102
{ACAD_REACTORS
330
17
102
}
330
17
100
AcDbMlineStyle
  2
Standard
 70
     0
  3

 62
   256
 51
90.0
 52
90.0
 71
     2
 49
0.5
 62
   256
  6
BYLAYER
 49
-0.5
 62
   256
  6
BYLAYER
  0
ACDBPLACEHOLDER
  5
F
102
{ACAD_REACTORS
330
E
102
}
330
E
  0
SCALE
  5
48
102
{ACAD_REACTORS
330
47
102
}
330
47
100
AcDbScale
 70
     0
300
1:1
140
1.0
141
1.0
290
     1
  0
SCALE
  5
49
102
{ACAD_REACTORS
330
47
102
}
330
47
100
AcDbScale
 70
     0
300
1:2
140
1.0
141
2.0
290
     0
  0
SCALE
  5
4A
102
{ACAD_REACTORS
330
47
102
}
330
47
100
AcDbScale
 70
     0
300
1:4
140
1.0
141
4.0
290
     0
  0
SCALE
  5
4B
102
{ACAD_REACTORS
330
47
102
}
330
47
100
AcDbScale
 70
     0
300
1:5
140
1.0
141
5.0
290
     0
  0
SCALE
  5
4C
102
{ACAD_REACTORS
330
47
102
}
330
47
100
AcDbScale
 70
     0
300
1:8
140
1.0
141
8.0
290
     0
  0
SCALE
  5
4D
102
{ACAD_REACTORS
330
47
102
}
330
47
100
AcDbScale
 70
     0
300
1:10
140
1.0
141
10.0
290
     0
  0
SCALE
  5
4E
102
{ACAD_REACTORS
330
47
102
}
330
47
100
AcDbScale
 70
     0
300
1:16
140
1.0
141
16.0
290
     0
  0
SCALE
  5
4F
102
{ACAD_REACTORS
330
47
102
}
330
47
100
AcDbScale
 70
     0
300
1:20
140
1.0
141
20.0
290
     0
  0
SCALE
  5
50
102
{ACAD_REACTORS
330
47
102
}
330
47
100
AcDbScale
 70
     0
300
1:30
140
1.0
141
30.0
290
     0
  0
SCALE
  5
51
102
{ACAD_REACTORS
330
47
102
}
330
47
100
AcDbScale
 70
     0
300
1:40
140
1.0
141
40.0
290
     0
  0
SCALE
  5
52
102
{ACAD_REACTORS
330
47
102
}
330
47
100
AcDbScale
 70
     0
300
1:50
140
1.0
141
50.0
290
     0
  0
SCALE
  5
53
102
{ACAD_REACTORS
330
47
102
}
330
47
100
AcDbScale
 70
     0
300
1:100
140
1.0
141
100.0
290
     0
  0
SCALE
  5
54
102
{ACAD_REACTORS
330
47
102
}
330
47
100
AcDbScale
 70
     0
300
2:1
140
2.0
141
1.0
290
     0
  0
SCALE
  5
55
102
{ACAD_REACTORS
330
47
102
}
330
47
100
AcDbScale
 70
     0
300
4:1
140
4.0
141
1.0
290
     0
  0
SCALE
  5
56
102
{ACAD_REACTORS
330
47
102
}
330
47
100
AcDbScale
 70
     0
300
8:1
140
8.0
141
1.0
290
     0
  0
SCALE
  5
57
102
{ACAD_REACTORS
330
47
102
}
330
47
100
AcDbScale
 70
     0
300
10:1
140
10.0
141
1.0
290
     0
  0
SCALE
  5
58
102
{ACAD_REACTORS
330
47
102
}
330
47
100
AcDbScale
 70
     0
300
100:1
140
100.0
141
1.0
290
     0
  0
SCALE
  5
59
102
{ACAD_REACTORS
330
47
102
}
330
47
100
AcDbScale
 70
     0
300
1/128" = 1'-0"
140
0.0078125
141
12.0
290
     0
  0
SCALE
  5
5A
102
{ACAD_REACTORS
330
47
102
}
330
47
100
AcDbScale
 70
     0
300
1/64" = 1'-0"
140
0.015625
141
12.0
290
     0
  0
SCALE
  5
5B
102
{ACAD_REACTORS
330
47
102
}
330
47
100
AcDbScale
 70
     0
300
1/32" = 1'-0"
140
0.03125
141
12.0
290
     0
  0
SCALE
  5
5C
102
{ACAD_REACTORS
330
47
102
}
330
47
100
AcDbScale
 70
     0
300
1/16" = 1'-0"
140
0.0625
141
12.0
290
     0
  0
SCALE
  5
5D
102
{ACAD_REACTORS
330
47
102
}
330
47
100
AcDbScale
 70
     0
300
3/32" = 1'-0"
140
0.09375
141
12.0
290
     0
  0
SCALE
  5
5E
102
{ACAD_REACTORS
330
47
102
}
330
47
100
AcDbScale
 70
     0
300
1/8" = 1'-0"
140
0.125
141
12.0
290
     0
  0
SCALE
  5
5F
102
{ACAD_REACTORS
330
47
102
}
330
47
100
AcDbScale
 70
     0
300
3/16" = 1'-0"
140
0.1875
141
12.0
290
     0
  0
SCALE
  5
60
102
{ACAD_REACTORS
330
47
102
}
330
47
100
AcDbScale
 70
     0
300
1/4" = 1'-0"
140
0.25
141
12.0
290
     0
  0
SCALE
  5
61
102
{ACAD_REACTORS
330
47
102
}
330
47
100
AcDbScale
 70
     0
300
3/8" = 1'-0"
140
0.375
141
12.0
290
     0
  0
SCALE
  5
62
102
{ACAD_REACTORS
330
47
102
}
330
47
100
AcDbScale
 70
     0
300
1/2" = 1'-0"
140
0.5
141
12.0
290
     0
  0
SCALE
  5
63
102
{ACAD_REACTORS
330
47
102
}
330
47
100
AcDbScale
 70
     0
300
3/4" = 1'-0"
140
0.75
141
12.0
290
     0
  0
SCALE
  5
64
102
{ACAD_REACTORS
330
47
102
}
330
47
100
AcDbScale
 70
     0
300
1" = 1'-0"
140
1.0
141
12.0
290
     0
  0
SCALE
  5
65
102
{ACAD_REACTORS
330
47
102
}
330
47
100
AcDbScale
 70
     0
300
1-1/2" = 1'-0"
140
1.5
141
12.0
290
     0
  0
SCALE
  5
66
102
{ACAD_REACTORS
330
47
102
}
330
47
100
AcDbScale
 70
     0
300
3" = 1'-0"
140
3.0
141
12.0
290
     0
  0
SCALE
  5
67
102
{ACAD_REACTORS
330
47
102
}
330
47
100
AcDbScale
 70
     0
300
6" = 1'-0"
140
6.0
141
12.0
290
     0
  0
SCALE
  5
68
102
{ACAD_REACTORS
330
47
102
}
330
47
100
AcDbScale
 70
     0
300
1'-0" = 1'-0"
140
12.0
141
12.0
290
     0
  0
ENDSEC
  0
EOF
