  0
SECTION
  2
HEADER
  9
$ACADVER
  1
AC1015
  9
$ACADMAINTVER
 70
     6
  9
$DWGCODEPAGE
  3
ANSI_1252
  9
$INSBASE
 10
0.0
 20
0.0
 30
0.0
  9
$EXTMIN
 10
0.0
 20
0.0
 30
0.0
  9
$EXTMAX
 10
279.4
 20
215.9
 30
0.0
  9
$LIMMIN
 10
0.0
 20
0.0
  9
$LIMMAX
 10
279.4
 20
215.9
  9
$ORTHOMODE
 70
     0
  9
$REGENMODE
 70
     1
  9
$FILLMODE
 70
     1
  9
$QTEXTMODE
 70
     0
  9
$MIRRTEXT
 70
     1
  9
$LTSCALE
 40
1.0
  9
$ATTMODE
 70
     1
  9
$TEXTSIZE
 40
3.5
  9
$TRACEWID
 40
1.0
  9
$TEXTSTYLE
  7
Standard
  9
$CLAYER
  8
0
  9
$CELTYPE
  6
ByLayer
  9
$CECOLOR
 62
   256
  9
$CELTSCALE
 40
1.0
  9
$DISPSILH
 70
     0
  9
$DIMSCALE
 40
1.0
  9
$DIMASZ
 40
3.556
  9
$DIMEXO
 40
1.0
  9
$DIMDLI
 40
3.75
  9
$DIMRND
 40
0.0
  9
$DIMDLE
 40
0.0
  9
$DIMEXE
 40
1.0
  9
$DIMTP
 40
0.0
  9
$DIMTM
 40
0.0
  9
$DIMTXT
 40
3.5
  9
$DIMCEN
 40
2.5
  9
$DIMTSZ
 40
0.0
  9
$DIMTOL
 70
     0
  9
$DIMLIM
 70
     0
  9
$DIMTIH
 70
     1
  9
$DIMTOH
 70
     1
  9
$DIMSE1
 70
     0
  9
$DIMSE2
 70
     0
  9
$DIMTAD
 70
     1
  9
$DIMZIN
 70
     1
  9
$DIMBLK
  1

  9
$DIMASO
 70
     1
  9
$DIMSHO
 70
     1
  9
$DIMPOST
  1

  9
$DIMAPOST
  1

  9
$DIMALT
 70
     0
  9
$DIMALTD
 70
     3
  9
$DIMALTF
 40
0.0393700787
  9
$DIMLFAC
 40
10.0
  9
$DIMTOFL
 70
     1
  9
$DIMTVP
 40
0.0
  9
$DIMTIX
 70
     0
  9
$DIMSOXD
 70
     0
  9
$DIMSAH
 70
     0
  9
$DIMBLK1
  1

  9
$DIMBLK2
  1

  9
$DIMSTYLE
  2
ISO-25
  9
$DIMCLRD
 70
     0
  9
$DIMCLRE
 70
     0
  9
$DIMCLRT
 70
     0
  9
$DIMTFAC
 40
1.0
  9
$DIMGAP
 40
1.524
  9
$DIMJUST
 70
     0
  9
$DIMSD1
 70
     0
  9
$DIMSD2
 70
     0
  9
$DIMTOLJ
 70
     0
  9
$DIMTZIN
 70
     1
  9
$DIMALTZ
 70
     0
  9
$DIMALTTZ
 70
     0
  9
$DIMUPT
 70
     0
  9
$DIMDEC
 70
     2
  9
$DIMTDEC
 70
     2
  9
$DIMALTU
 70
     2
  9
$DIMALTTD
 70
     3
  9
$DIMTXSTY
  7
Standard
  9
$DIMAUNIT
 70
     0
  9
$DIMADEC
 70
     2
  9
$DIMALTRND
 40
0.0
  9
$DIMAZIN
 70
     0
  9
$DIMDSEP
 70
    44
  9
$DIMATFIT
 70
     3
  9
$DIMFRAC
 70
     0
  9
$DIMLDRBLK
  1

  9
$DIMLUNIT
 70
     2
  9
$DIMLWD
 70
    -2
  9
$DIMLWE
 70
    -2
  9
$DIMTMOVE
 70
     0
  9
$LUNITS
 70
     2
  9
$LUPREC
 70
     2
  9
$SKETCHINC
 40
1.0
  9
$FILLETRAD
 40
10.0
  9
$AUNITS
 70
     0
  9
$AUPREC
 70
     2
  9
$MENU
  1
.
  9
$ELEVATION
 40
0.0
  9
$PELEVATION
 40
0.0
  9
$THICKNESS
 40
0.0
  9
$LIMCHECK
 70
     0
  9
$CHAMFERA
 40
0.0
  9
$CHAMFERB
 40
0.0
  9
$CHAMFERC
 40
0.0
  9
$CHAMFERD
 40
0.0
  9
$SKPOLY
 70
     0
  9
$TDCREATE
 40
2460383.715916099
  9
$TDUCREATE
 40
2460383.486749433
  9
$TDUPDATE
 40
2460383.715916574
  9
$TDUUPDATE
 40
2460383.486749907
  9
$TDINDWG
 40
0.0000000116
  9
$TDUSRTIMER
 40
0.0000000116
  9
$USRTIMER
 70
     1
  9
$ANGBASE
 50
0.0
  9
$ANGDIR
 70
     0
  9
$PDMODE
 70
     0
  9
$PDSIZE
 40
-1.0
  9
$PLINEWID
 40
0.0
  9
$SPLFRAME
 70
     0
  9
$SPLINETYPE
 70
     6
  9
$SPLINESEGS
 70
     8
  9
$HANDSEED
  5
376
  9
$SURFTAB1
 70
     6
  9
$SURFTAB2
 70
     6
  9
$SURFTYPE
 70
     6
  9
$SURFU
 70
     6
  9
$SURFV
 70
     6
  9
$UCSBASE
  2

  9
$UCSNAME
  2

  9
$UCSORG
 10
0.0
 20
0.0
 30
0.0
  9
$UCSXDIR
 10
1.0
 20
0.0
 30
0.0
  9
$UCSYDIR
 10
0.0
 20
1.0
 30
0.0
  9
$UCSORTHOREF
  2

  9
$UCSORTHOVIEW
 70
     0
  9
$UCSORGTOP
 10
0.0
 20
0.0
 30
0.0
  9
$UCSORGBOTTOM
 10
0.0
 20
0.0
 30
0.0
  9
$UCSORGLEFT
 10
0.0
 20
0.0
 30
0.0
  9
$UCSORGRIGHT
 10
0.0
 20
0.0
 30
0.0
  9
$UCSORGFRONT
 10
0.0
 20
0.0
 30
0.0
  9
$UCSORGBACK
 10
0.0
 20
0.0
 30
0.0
  9
$PUCSBASE
  2

  9
$PUCSNAME
  2

  9
$PUCSORG
 10
0.0
 20
0.0
 30
0.0
  9
$PUCSXDIR
 10
1.0
 20
0.0
 30
0.0
  9
$PUCSYDIR
 10
0.0
 20
1.0
 30
0.0
  9
$PUCSORTHOREF
  2

  9
$PUCSORTHOVIEW
 70
     0
  9
$PUCSORGTOP
 10
0.0
 20
0.0
 30
0.0
  9
$PUCSORGBOTTOM
 10
0.0
 20
0.0
 30
0.0
  9
$PUCSORGLEFT
 10
0.0
 20
0.0
 30
0.0
  9
$PUCSORGRIGHT
 10
0.0
 20
0.0
 30
0.0
  9
$PUCSORGFRONT
 10
0.0
 20
0.0
 30
0.0
  9
$PUCSORGBACK
 10
0.0
 20
0.0
 30
0.0
  9
$USERI1
 70
     0
  9
$USERI2
 70
     0
  9
$USERI3
 70
     0
  9
$USERI4
 70
     0
  9
$USERI5
 70
     0
  9
$USERR1
 40
0.0
  9
$USERR2
 40
0.0
  9
$USERR3
 40
0.0
  9
$USERR4
 40
0.0
  9
$USERR5
 40
0.0
  9
$WORLDVIEW
 70
     1
  9
$SHADEDGE
 70
     3
  9
$SHADEDIF
 70
    70
  9
$TILEMODE
 70
     1
  9
$MAXACTVP
 70
    64
  9
$PINSBASE
 10
0.0
 20
0.0
 30
0.0
  9
$PLIMCHECK
 70
     0
  9
$PEXTMIN
 10
1.0000000000E+20
 20
1.0000000000E+20
 30
1.0000000000E+20
  9
$PEXTMAX
 10
-1.0000000000E+20
 20
-1.0000000000E+20
 30
-1.0000000000E+20
  9
$PLIMMIN
 10
0.0
 20
0.0
  9
$PLIMMAX
 10
420.0
 20
297.0
  9
$UNITMODE
 70
     0
  9
$VISRETAIN
 70
     1
  9
$PLINEGEN
 70
     0
  9
$PSLTSCALE
 70
     1
  9
$TREEDEPTH
 70
  3020
  9
$CMLSTYLE
  2
Standard
  9
$CMLJUST
 70
     0
  9
$CMLSCALE
 40
20.0
  9
$PROXYGRAPHICS
 70
     1
  9
$MEASUREMENT
 70
     1
  9
$CELWEIGHT
370
    -1
  9
$ENDCAPS
280
     0
  9
$JOINSTYLE
280
     0
  9
$LWDISPLAY
290
     1
  9
$INSUNITS
 70
     4
  9
$HYPERLINKBASE
  1

  9
$STYLESHEET
  1

  9
$XEDIT
290
     1
  9
$CEPSNTYPE
380
     0
  9
$PSTYLEMODE
290
     1
  9
$FINGERPRINTGUID
  2
{e02e247b-06ed-4fa8-a752-b5fc2b51fb44}
  9
$VERSIONGUID
  2
{FAEB1C32-E019-11D5-929B-00C0DF256EC4}
  9
$EXTNAMES
290
     1
  9
$PSVPSCALE
 40
0.0
  9
$OLESTARTUP
290
     0
  0
ENDSEC
  0
SECTION
  2
CLASSES
  0
CLASS
  1
ACDBDICTIONARYWDFLT
  2
AcDbDictionaryWithDefault
  3
ObjectDBX Classes
 90
        0
280
     0
281
     0
  0
CLASS
  1
VISUALSTYLE
  2
AcDbVisualStyle
  3
ObjectDBX Classes
 90
     4095
280
     0
281
     0
  0
CLASS
  1
MATERIAL
  2
AcDbMaterial
  3
ObjectDBX Classes
 90
     1153
280
     0
281
     0
  0
CLASS
  1
SCALE
  2
AcDbScale
  3
ObjectDBX Classes
 90
     1153
280
     0
281
     0
  0
CLASS
  1
TABLESTYLE
  2
AcDbTableStyle
  3
ObjectDBX Classes
 90
     4095
280
     0
281
     0
  0
CLASS
  1
MLEADERSTYLE
  2
AcDbMLeaderStyle
  3
ACDB_MLEADERSTYLE_CLASS
 90
     4095
280
     0
281
     0
  0
CLASS
  1
SUN
  2
AcDbSun
  3
SCENEOE
 90
     1153
280
     0
281
     0
  0
CLASS
  1
ACDBPLACEHOLDER
  2
AcDbPlaceHolder
  3
ObjectDBX Classes
 90
        0
280
     0
281
     0
  0
CLASS
  1
LAYOUT
  2
AcDbLayout
  3
ObjectDBX Classes
 90
        0
280
     0
281
     0
  0
ENDSEC
  0
SECTION
  2
TABLES
  0
TABLE
  2
VPORT
  5
8
330
0
100
AcDbSymbolTable
 70
     1
  0
VPORT
  5
29
330
8
100
AcDbSymbolTableRecord
100
AcDbViewportTableRecord
  2
*Active
 70
     0
 10
0.0
 20
0.0
 11
1.0
 21
1.0
 12
139.7
 22
107.95
 13
0.0
 23
0.0
 14
10.0
 24
10.0
 15
10.0
 25
10.0
 16
0.0
 26
0.0
 36
1.0
 17
0.0
 27
0.0
 37
0.0
 40
215.9
 41
1.2941176471
 42
50.0
 43
0.0
 44
0.0
 50
0.0
 51
0.0
 71
     0
 72
  2000
 73
     1
 74
     3
 75
     0
 76
     0
 77
     0
 78
     0
281
     0
 65
     1
110
0.0
120
0.0
130
0.0
111
1.0
121
0.0
131
0.0
112
0.0
122
1.0
132
0.0
 79
     0
146
0.0
  0
ENDTAB
  0
TABLE
  2
LTYPE
  5
5
330
0
100
AcDbSymbolTable
 70
     6
  0
LTYPE
  5
14
330
5
100
AcDbSymbolTableRecord
100
AcDbLinetypeTableRecord
  2
ByBlock
 70
     0
  3

 72
    65
 73
     0
 40
0.0
  0
LTYPE
  5
15
330
5
100
AcDbSymbolTableRecord
100
AcDbLinetypeTableRecord
  2
ByLayer
 70
     0
  3

 72
    65
 73
     0
 40
0.0
  0
LTYPE
  5
16
330
5
100
AcDbSymbolTableRecord
100
AcDbLinetypeTableRecord
  2
Continuous
 70
     0
  3
Solid line
 72
    65
 73
     0
 40
0.0
  0
LTYPE
  5
6E
330
5
100
AcDbSymbolTableRecord
100
AcDbLinetypeTableRecord
  2
HIDDEN
 70
     0
  3
Hidden __ __ __ __ __ __ __ __ __ __ __ __ __ __
 72
    65
 73
     2
 40
1.905
 49
1.27
 74
     0
 49
-0.635
 74
     0
  0
LTYPE
  5
6F
330
5
100
AcDbSymbolTableRecord
100
AcDbLinetypeTableRecord
  2
PHANTOM
 70
     0
  3
Phantom ______  __  __  ______  __  __  ______
 72
    65
 73
     6
 40
12.7
 49
6.35
 74
     0
 49
-1.27
 74
     0
 49
1.27
 74
     0
 49
-1.27
 74
     0
 49
1.27
 74
     0
 49
-1.27
 74
     0
  0
LTYPE
  5
70
330
5
100
AcDbSymbolTableRecord
100
AcDbLinetypeTableRecord
  2
CENTER
 70
     0
  3
Center ____ _ ____ _ ____ _ ____ _ ____ _ ____
 72
    65
 73
     4
 40
10.16
 49
6.35
 74
     0
 49
-1.27
 74
     0
 49
1.27
 74
     0
 49
-1.27
 74
     0
  0
LTYPE
  5
71
330
5
100
AcDbSymbolTableRecord
100
AcDbLinetypeTableRecord
  2
CENTERX2
 70
     0
  3
Center (2x) ________  __  ________  __  _____
 72
    65
 73
     4
 40
20.32
 49
12.7
 74
     0
 49
-2.54
 74
     0
 49
2.54
 74
     0
 49
-2.54
 74
     0
  0
LTYPE
  5
72
330
5
100
AcDbSymbolTableRecord
100
AcDbLinetypeTableRecord
  2
DOT2
 70
     0
  3
Dot (.5x) ........................................
 72
    65
 73
     2
 40
0.635
 49
0.0
 74
     0
 49
-0.635
 74
     0
  0
ENDTAB
  0
TABLE
  2
LAYER
  5
2
330
0
100
AcDbSymbolTable
 70
     1
  0
LAYER
  5
10
330
2
100
AcDbSymbolTableRecord
100
AcDbLayerTableRecord
  2
0
 70
     0
 62
     7
  6
Continuous
370
    -3
390
F
  0
ENDTAB
  0
TABLE
  2
STYLE
  5
3
330
0
100
AcDbSymbolTable
 70
     1
  0
STYLE
  5
11
330
3
100
AcDbSymbolTableRecord
100
AcDbTextStyleTableRecord
  2
Standard
 70
     0
 40
0.0
 41
1.0
 50
0.0
 71
     0
 42
3.5
  3
txt
  4

  0
ENDTAB
  0
TABLE
  2
VIEW
  5
6
330
0
100
AcDbSymbolTable
 70
     0
  0
ENDTAB
  0
TABLE
  2
UCS
  5
7
330
0
100
AcDbSymbolTable
 70
     0
  0
ENDTAB
  0
TABLE
  2
APPID
  5
9
330
0
100
AcDbSymbolTable
 70
     1
  0
APPID
  5
12
330
9
100
AcDbSymbolTableRecord
100
AcDbRegAppTableRecord
  2
ACAD
 70
     0
  0
ENDTAB
  0
TABLE
  2
DIMSTYLE
  5
A
330
0
100
AcDbSymbolTable
 70
     1
100
AcDbDimStyleTable
  0
DIMSTYLE
105
27
330
A
100
AcDbSymbolTableRecord
100
AcDbDimStyleTableRecord
  2
ISO-25
 70
     0
 41
2.5
 42
0.625
 43
3.75
 44
1.25
 73
     0
 74
     0
 77
     1
 78
     8
140
2.5
141
2.5
143
0.0393700787
147
0.625
171
     3
172
     1
178
     0
271
     2
272
     2
274
     3
278
    44
283
     0
284
     8
340
11
  0
ENDTAB
  0
TABLE
  2
BLOCK_RECORD
  5
1
330
0
100
AcDbSymbolTable
 70
     1
  0
BLOCK_RECORD
  5
1F
330
1
100
AcDbSymbolTableRecord
100
AcDbBlockTableRecord
  2
*Model_Space
340
22
  0
BLOCK_RECORD
  5
1B
330
1
100
AcDbSymbolTableRecord
100
AcDbBlockTableRecord
  2
*Paper_Space
340
1E
  0
BLOCK_RECORD
  5
23
330
1
100
AcDbSymbolTableRecord
100
AcDbBlockTableRecord
  2
*Paper_Space0
340
26
  0
ENDTAB
  0
ENDSEC
  0
SECTION
  2
BLOCKS
  0
BLOCK
  5
20
330
1F
100
AcDbEntity
  8
0
100
AcDbBlockBegin
  2
*Model_Space
 70
     0
 10
0.0
 20
0.0
 30
0.0
  3
*Model_Space
  1

  0
ENDBLK
  5
21
330
1F
100
AcDbEntity
  8
0
100
AcDbBlockEnd
  0
BLOCK
  5
1C
330
1B
100
AcDbEntity
 67
     1
  8
0
100
AcDbBlockBegin
  2
*Paper_Space
 70
     0
 10
0.0
 20
0.0
 30
0.0
  3
*Paper_Space
  1

  0
ENDBLK
  5
1D
330
1B
100
AcDbEntity
 67
     1
  8
0
100
AcDbBlockEnd
  0
BLOCK
  5
24
330
23
100
AcDbEntity
  8
0
100
AcDbBlockBegin
  2
*Paper_Space0
 70
     0
 10
0.0
 20
0.0
 30
0.0
  3
*Paper_Space0
  1

  0
ENDBLK
  5
25
330
23
100
AcDbEntity
  8
0
100
AcDbBlockEnd
  0
ENDSEC
  0
SECTION
  2
ENTITIES
  0
LINE
  5
73
330
1F
100
AcDbEntity
  8
0
  6
Continuous
 62
     7
370
    25
100
AcDbLine
 10
63.6962672179
 20
-20.6251781866
 30
0.0
 11
63.6962672179
 21
-52.5251781866
 31
0.0
  0
LINE
  5
74
330
1F
100
AcDbEntity
  8
0
  6
Continuous
 62
     7
370
    25
100
AcDbLine
 10
79.4962672179
 20
-52.5251781866
 30
0.0
 11
79.4962672179
 21
-20.6251781866
 31
0.0
  0
LINE
  5
75
330
1F
100
AcDbEntity
  8
0
  6
Continuous
 62
     7
370
    25
100
AcDbLine
 10
79.4962672179
 20
-20.6251781866
 30
0.0
 11
79.4962672179
 21
67.9748218134
 31
0.0
  0
LINE
  5
76
330
1F
100
AcDbEntity
  8
0
  6
Continuous
 62
     7
370
    25
100
AcDbLine
 10
63.6962672179
 20
67.9748218134
 30
0.0
 11
63.6962672179
 21
-20.6251781866
 31
0.0
  0
LINE
  5
77
330
1F
100
AcDbEntity
  8
0
  6
Continuous
 62
     7
370
    25
100
AcDbLine
 10
63.6962672179
 20
99.8748218134
 30
0.0
 11
63.6962672179
 21
67.9748218134
 31
0.0
  0
LINE
  5
78
330
1F
100
AcDbEntity
  8
0
  6
Continuous
 62
     7
370
    25
100
AcDbLine
 10
79.4962672179
 20
67.9748218134
 30
0.0
 11
79.4962672179
 21
99.8748218134
 31
0.0
  0
LINE
  5
79
330
1F
100
AcDbEntity
  8
0
  6
Continuous
 62
     7
370
    25
100
AcDbLine
 10
63.6962672179
 20
112.3733489867
 30
0.0
 11
63.6962672179
 21
112.1970440356
 31
0.0
  0
LINE
  5
7A
330
1F
100
AcDbEntity
  8
0
  6
Continuous
 62
     7
370
    25
100
AcDbLine
 10
63.6962672179
 20
113.7844600979
 30
0.0
 11
63.6962672179
 21
113.6081551467
 31
0.0
  0
LINE
  5
7B
330
1F
100
AcDbEntity
  8
0
  6
Continuous
 62
     7
370
    25
100
AcDbLine
 10
63.6962672179
 20
227.6400995869
 30
0.0
 11
63.6962672179
 21
115.0192662579
 31
0.0
  0
LINE
  5
7C
330
1F
100
AcDbEntity
  8
0
  6
Continuous
 62
     7
370
    25
100
AcDbLine
 10
79.4962672179
 20
114.3139025455
 30
0.0
 11
79.4962672179
 21
227.6400995869
 31
0.0
  0
LINE
  5
7D
330
1F
100
AcDbEntity
  8
0
  6
Continuous
 62
     7
370
    25
100
AcDbLine
 10
79.4962672179
 20
112.9027914344
 30
0.0
 11
79.4962672179
 21
113.0788023931
 31
0.0
  0
SPLINE
  5
7E
330
1F
100
AcDbEntity
  8
0
  6
Continuous
 62
     7
370
    25
100
AcDbSpline
210
0.0
220
0.0
230
1.0
 70
     8
 71
     3
 72
     9
 73
     5
 74
     0
 42
0.00000001
 43
0.00000001
 40
0.0
 40
0.0
 40
0.0
 40
0.0
 40
0.4996093544358421
 40
1.0
 40
1.0
 40
1.0
 40
1.0
 10
64.47105904976532
 20
112.8263616644266
 30
0.0
 10
64.34340679195863
 20
112.7525662476554
 30
0.0
 10
64.08790265322841
 20
112.6048600125419
 30
0.0
 10
63.83264217650489
 20
112.4573168695457
 30
0.0
 10
63.70491222177019
 20
112.3834876609733
 30
0.0
  0
SPLINE
  5
7F
330
1F
100
AcDbEntity
  8
0
  6
Continuous
 62
     7
370
    25
100
AcDbSpline
210
0.0
220
0.0
230
1.0
 70
     8
 71
     3
 72
     9
 73
     5
 74
     0
 42
0.00000001
 43
0.00000001
 40
0.0
 40
0.0
 40
0.0
 40
0.0
 40
0.4994478531593716
 40
1.0
 40
1.0
 40
1.0
 40
1.0
 10
64.47105904976532
 20
114.2374727755377
 30
0.0
 10
64.34342759484024
 20
114.1636885998824
 30
0.0
 10
64.08788248814348
 20
114.0159571096206
 30
0.0
 10
63.83266292301231
 20
113.8684391856336
 30
0.0
 10
63.70491222177019
 20
113.7945987720844
 30
0.0
  0
SPLINE
  5
80
330
1F
100
AcDbEntity
  8
0
  6
Continuous
 62
     7
370
    25
100
AcDbSpline
210
0.0
220
0.0
230
1.0
 70
     8
 71
     3
 72
     9
 73
     5
 74
     0
 42
0.00000001
 43
0.00000001
 40
0.0
 40
0.0
 40
0.0
 40
0.0
 40
0.5031455621637239
 40
0.9999999999999999
 40
0.9999999999999999
 40
0.9999999999999999
 40
0.9999999999999999
 10
79.48762154837539
 20
111.6779324960247
 30
0.0
 10
79.36092606141189
 20
111.7511454743796
 30
0.0
 10
79.10911923553299
 20
111.8966560062427
 30
0.0
 10
78.85749933885293
 20
112.0418506422434
 30
0.0
 10
78.73248087653954
 20
112.1139912414904
 30
0.0
  0
SPLINE
  5
81
330
1F
100
AcDbEntity
  8
0
  6
Continuous
 62
     7
370
    25
100
AcDbSpline
210
0.0
220
0.0
230
1.0
 70
     8
 71
     3
 72
     9
 73
     5
 74
     0
 42
0.00000001
 43
0.00000001
 40
0.0
 40
0.0
 40
0.0
 40
0.0
 40
0.5030280328439972
 40
0.9999999999999999
 40
0.9999999999999999
 40
0.9999999999999999
 40
0.9999999999999999
 10
79.48762154837539
 20
113.0890436071358
 30
0.0
 10
79.36087688415054
 20
113.1622883355904
 30
0.0
 10
79.10891346273192
 20
113.3078959830221
 30
0.0
 10
78.85745076777488
 20
113.4529932016387
 30
0.0
 10
78.73248085759573
 20
113.5251024518034
 30
0.0
  0
SPLINE
  5
82
330
1F
100
AcDbEntity
  8
0
  6
Continuous
 62
     7
370
    25
100
AcDbSpline
210
0.0
220
0.0
230
1.0
 70
     8
 71
     3
 72
     9
 73
     5
 74
     0
 42
0.00000001
 43
0.00000001
 40
0.0
 40
0.0
 40
0.0
 40
0.0
 40
0.9063874715195412
 40
0.9999999999999999
 40
0.9999999999999999
 40
0.9999999999999999
 40
0.9999999999999999
 10
64.3559103634902
 20
113.5156159354942
 30
0.0
 10
64.47282927601114
 20
113.442091113071
 30
0.0
 10
64.60182368093703
 20
113.3609725796254
 30
0.0
 10
64.73201729682393
 20
113.2797997543555
 30
0.0
 10
64.74420505039912
 20
113.272200960938
 30
0.0
  0
SPLINE
  5
83
330
1F
100
AcDbEntity
  8
0
  6
Continuous
 62
     7
370
    25
100
AcDbSpline
210
0.0
220
0.0
230
1.0
 70
     8
 71
     3
 72
     9
 73
     5
 74
     0
 42
0.00000001
 43
0.00000001
 40
0.0
 40
0.0
 40
0.0
 40
0.0
 40
0.4998223175949593
 40
1.0
 40
1.0
 40
1.0
 40
1.0
 10
64.3559103634902
 20
114.9267270466053
 30
0.0
 10
64.47265345126485
 20
114.8532164060591
 30
0.0
 10
64.70622262908067
 20
114.7061428602038
 30
0.0
 10
64.94320252541664
 20
114.5589228481976
 30
0.0
 10
65.06173458074255
 20
114.4852866837886
 30
0.0
  0
LINE
  5
84
330
1F
100
AcDbEntity
  8
0
  6
Continuous
 62
     7
370
    25
100
AcDbLine
 10
79.1195620837
 20
112.6798001541
 30
0.0
 11
79.486501272
 21
112.8919067744
 31
0.0
  0
SPLINE
  5
85
330
1F
100
AcDbEntity
  8
0
  6
Continuous
 62
     7
370
    25
100
AcDbSpline
210
0.0
220
0.0
230
1.0
 70
     8
 71
     3
 72
     9
 73
     5
 74
     0
 42
0.00000001
 43
0.00000001
 40
0.0
 40
0.0
 40
0.0
 40
0.0
 40
0.5002979672026437
 40
1.0
 40
1.0
 40
1.0
 40
1.0
 10
78.72167089268622
 20
113.8608897565375
 30
0.0
 10
78.84921653397318
 20
113.9346254706578
 30
0.0
 10
79.10415588941389
 20
114.0820090679418
 30
0.0
 10
79.3591034551393
 20
114.2293775536258
 30
0.0
 10
79.48650127198903
 20
114.3030178854924
 30
0.0
  0
LINE
  5
86
330
1F
100
AcDbEntity
  8
0
  6
Continuous
 62
     7
370
    25
100
AcDbLine
 10
79.4962672179
 20
227.6400995869
 30
0.0
 11
79.4962672179
 21
259.5400995869
 31
0.0
  0
LINE
  5
87
330
1F
100
AcDbEntity
  8
0
  6
Continuous
 62
     7
370
    25
100
AcDbLine
 10
63.6962672179
 20
259.5400995869
 30
0.0
 11
63.6962672179
 21
227.6400995869
 31
0.0
  0
SPLINE
  5
88
330
1F
100
AcDbEntity
  8
0
  6
Continuous
 62
     7
370
    25
100
AcDbSpline
210
0.0
220
0.0
230
1.0
 70
     8
 71
     3
 72
     9
 73
     5
 74
     0
 42
0.00000001
 43
0.00000001
 40
0.0
 40
0.0
 40
0.0
 40
0.0
 40
0.5076989760041424
 40
0.9999999999999999
 40
0.9999999999999999
 40
0.9999999999999999
 40
0.9999999999999999
 10
64.46005354900298
 20
114.5782733211302
 30
0.0
 10
64.46005404706462
 20
114.5195219889883
 30
0.0
 10
64.46005502808222
 20
114.403801188044
 30
0.0
 10
64.46005405807227
 20
114.2880802130064
 30
0.0
 10
64.46005358053537
 20
114.2311106584975
 30
0.0
  0
SPLINE
  5
89
330
1F
100
AcDbEntity
  8
0
  6
Continuous
 62
     7
370
    25
100
AcDbSpline
210
0.0
220
0.0
230
1.0
 70
     8
 71
     3
 72
     9
 73
     5
 74
     0
 42
0.00000001
 43
0.00000001
 40
0.0
 40
0.0
 40
0.0
 40
0.0
 40
0.5082925981314753
 40
1.0
 40
1.0
 40
1.0
 40
1.0
 10
78.73248088653436
 20
112.1088287924339
 30
0.0
 10
78.73248071472325
 20
112.1676550575007
 30
0.0
 10
78.73248037670706
 20
112.2833881318815
 30
0.0
 10
78.73248071123359
 20
112.3991211546601
 30
0.0
 10
78.73248087572277
 20
112.456027938601
 30
0.0
  0
SPLINE
  5
8A
330
1F
100
AcDbEntity
  8
0
  6
Continuous
 62
     7
370
    25
100
AcDbSpline
210
0.0
220
0.0
230
1.0
 70
     8
 71
     3
 72
     9
 73
     5
 74
     0
 42
0.00000001
 43
0.00000001
 40
0.0
 40
0.0
 40
0.0
 40
0.0
 40
0.5084219880786809
 40
1.0
 40
1.0
 40
1.0
 40
1.0
 10
78.73248088653436
 20
113.519939903545
 30
0.0
 10
78.7324803888767
 20
113.5787811640324
 30
0.0
 10
78.7324794100487
 20
113.6945142791751
 30
0.0
 10
78.73248037893298
 20
113.8102472202064
 30
0.0
 10
78.73248085521519
 20
113.8671389892723
 30
0.0
  0
LINE
  5
8B
330
1F
100
AcDbEntity
  8
0
  6
Continuous
 62
     7
370
    25
100
AcDbLine
 10
137.9462672179
 20
265.1900995869
 30
0.0
 11
129.9962672179
 21
265.1900995869
 31
0.0
  0
LINE
  5
8C
330
1F
100
AcDbEntity
  8
0
  6
Continuous
 62
     7
370
    25
100
AcDbLine
 10
129.9962672179
 20
253.8900995869
 30
0.0
 11
137.9462672179
 21
253.8900995869
 31
0.0
  0
ARC
  5
8D
330
1F
100
AcDbEntity
  8
0
  6
Continuous
 62
     7
370
    25
100
AcDbCircle
 10
46.7962672179
 20
327.0400995869
 30
0.0
 40
0.5
100
AcDbArc
 50
90.0
 51
180.0
  0
ARC
  5
8E
330
1F
100
AcDbEntity
  8
0
  6
Continuous
 62
     7
370
    25
100
AcDbCircle
 10
96.3962672179
 20
327.0400995869
 30
0.0
 40
0.5
100
AcDbArc
 50
0.0
 51
90.0
  0
ARC
  5
8F
330
1F
100
AcDbEntity
  8
0
  6
Continuous
 62
     7
370
    25
100
AcDbCircle
 10
46.7962672179
 20
323.8536213726
 30
0.0
 40
0.5
100
AcDbArc
 50
180.0
 51
244.1790080258
  0
ARC
  5
90
330
1F
100
AcDbEntity
  8
0
  6
Continuous
 62
     7
370
    25
100
AcDbCircle
 10
96.3962672179
 20
323.8536213726
 30
0.0
 40
0.5
100
AcDbArc
 50
295.8209919742
 51
0.0
  0
LINE
  5
91
330
1F
100
AcDbEntity
  8
0
  6
Continuous
 62
     7
370
    25
100
AcDbLine
 10
96.8962672179
 20
323.8536213726
 30
0.0
 11
96.8962672179
 21
327.0400995869
 31
0.0
  0
LINE
  5
92
330
1F
100
AcDbEntity
  8
0
  6
Continuous
 62
     7
370
    25
100
AcDbLine
 10
46.2962672179
 20
327.0400995869
 30
0.0
 11
46.2962672179
 21
323.8536213726
 31
0.0
  0
LINE
  5
93
330
1F
100
AcDbEntity
  8
0
  6
Continuous
 62
     7
370
    25
100
AcDbLine
 10
46.5784867539
 20
323.4035417469
 30
0.0
 11
54.4673890741
 21
319.5863309468
 31
0.0
  0
LINE
  5
94
330
1F
100
AcDbEntity
  8
0
  6
Continuous
 62
     7
370
    25
100
AcDbLine
 10
88.7251453617
 20
319.5863309468
 30
0.0
 11
96.614047682
 21
323.4035417469
 31
0.0
  0
ARC
  5
95
330
1F
100
AcDbEntity
  8
0
  6
Continuous
 62
     7
370
    25
100
AcDbCircle
 10
89.5962672179
 20
317.786012444
 30
0.0
 40
2.000000000000025
100
AcDbArc
 50
115.8209919742
 51
171.4096175468
  0
ARC
  5
96
330
1F
100
AcDbEntity
  8
0
  6
Continuous
 62
     7
370
    25
100
AcDbCircle
 10
53.5962672179
 20
317.786012444
 30
0.0
 40
2.000000000000025
100
AcDbArc
 50
8.6121549306
 51
64.1790080258
  0
LINE
  5
97
330
1F
100
AcDbEntity
  8
0
  6
Continuous
 62
     7
370
    25
100
AcDbLine
 10
83.4813654883
 20
243.7890569057
 30
0.0
 11
100.5962672179
 21
244.1475629903
 31
0.0
  0
LINE
  5
98
330
1F
100
AcDbEntity
  8
0
  6
Continuous
 62
     7
370
    25
100
AcDbLine
 10
100.5962672179
 20
274.9326361835
 30
0.0
 11
94.9732564099
 21
275.0504214691
 31
0.0
  0
SPLINE
  5
99
330
1F
100
AcDbEntity
  8
0
  6
Continuous
 62
     7
370
    25
100
AcDbSpline
210
0.0
220
0.0
230
1.0
 70
     8
 71
     3
 72
     9
 73
     5
 74
     0
 42
0.00000001
 43
0.00000001
 40
0.0
 40
0.0
 40
0.0
 40
0.0
 40
0.4999961779725198
 40
1.0
 40
1.0
 40
1.0
 40
1.0
 10
101.6212092020729
 20
245.3574471615199
 30
0.0
 10
101.6993922633532
 20
245.2220821317089
 30
0.0
 10
101.8557595811942
 20
244.9513500025957
 30
0.0
 10
102.0121232387409
 20
244.6806159173225
 30
0.0
 10
102.0903056651405
 20
244.5452478399328
 30
0.0
  0
SPLINE
  5
9A
330
1F
100
AcDbEntity
  8
0
  6
Continuous
 62
     7
370
    25
100
AcDbSpline
210
0.0
220
0.0
230
1.0
 70
     8
 71
     3
 72
     9
 73
     5
 74
     0
 42
0.00000001
 43
0.00000001
 40
0.0
 40
0.0
 40
0.0
 40
0.0
 40
0.4999960105738659
 40
1.0
 40
1.0
 40
1.0
 40
1.0
 10
103.1210484312274
 20
245.3577268421221
 30
0.0
 10
103.1992327765298
 20
245.2223596922119
 30
0.0
 10
103.3556027147871
 20
244.9516232322254
 30
0.0
 10
103.5119688325007
 20
244.6808846674529
 30
0.0
 10
103.5901525151686
 20
244.5455143049752
 30
0.0
  0
SPLINE
  5
9B
330
1F
100
AcDbEntity
  8
0
  6
Continuous
 62
     7
370
    25
100
AcDbSpline
210
0.0
220
0.0
230
1.0
 70
     8
 71
     3
 72
     9
 73
     5
 74
     0
 42
0.00000001
 43
0.00000001
 40
0.0
 40
0.0
 40
0.0
 40
0.0
 40
0.4999960910112508
 40
0.9999999999999999
 40
0.9999999999999999
 40
0.9999999999999999
 40
0.9999999999999999
 10
104.6211317820293
 20
245.3575809789772
 30
0.0
 10
104.6993155130265
 20
245.2222148440493
 30
0.0
 10
104.8556841975076
 20
244.9514804575982
 30
0.0
 10
105.012049138441
 20
244.6807440556161
 30
0.0
 10
105.0902322201364
 20
244.5453747963194
 30
0.0
  0
LINE
  5
9C
330
1F
100
AcDbEntity
  8
0
  6
Continuous
 62
     7
370
    25
100
AcDbLine
 10
105.3743556845
 20
273.7281997679
 30
0.0
 11
105.3712126171
 21
273.722757878
 31
0.0
  0
SPLINE
  5
9D
330
1F
100
AcDbEntity
  8
0
  6
Continuous
 62
     7
370
    25
100
AcDbSpline
210
0.0
220
0.0
230
1.0
 70
     8
 71
     3
 72
     9
 73
     5
 74
     0
 42
0.00000001
 43
0.00000001
 40
0.0
 40
0.0
 40
0.0
 40
0.0
 40
0.5035653169057731
 40
1.0
 40
1.0
 40
1.0
 40
1.0
 10
104.340139422243
 20
274.5346617798182
 30
0.0
 10
104.2619562911538
 20
274.3992923792488
 30
0.0
 10
104.1066971252335
 20
274.1304704488561
 30
0.0
 10
103.9514342368192
 20
273.861650760616
 30
0.0
 10
103.8743563540129
 20
273.728199343875
 30
0.0
  0
SPLINE
  5
9E
330
1F
100
AcDbEntity
  8
0
  6
Continuous
 62
     7
370
    25
100
AcDbSpline
210
0.0
220
0.0
230
1.0
 70
     8
 71
     3
 72
     9
 73
     5
 74
     0
 42
0.00000001
 43
0.00000001
 40
0.0
 40
0.0
 40
0.0
 40
0.0
 40
0.5000038267495232
 40
1.0
 40
1.0
 40
1.0
 40
1.0
 10
102.8402131020258
 20
274.5347910790564
 30
0.0
 10
102.7620306315821
 20
274.3994228753345
 30
0.0
 10
102.6056668874246
 20
274.1286885399556
 30
0.0
 10
102.449299478526
 20
273.857956401563
 30
0.0
 10
102.3711163724556
 20
273.7225913683909
 30
0.0
  0
SPLINE
  5
9F
330
1F
100
AcDbEntity
  8
0
  6
Continuous
 62
     7
370
    25
100
AcDbSpline
210
0.0
220
0.0
230
1.0
 70
     8
 71
     3
 72
     9
 73
     5
 74
     0
 42
0.00000001
 43
0.00000001
 40
0.0
 40
0.0
 40
0.0
 40
0.0
 40
0.4987844281256515
 40
1.0
 40
1.0
 40
1.0
 40
1.0
 10
105.0088236967305
 20
273.7227546597135
 30
0.0
 10
104.9308243188466
 20
273.8577837338485
 30
0.0
 10
104.7744453834075
 20
274.1285000323554
 30
0.0
 10
104.6180952996161
 20
274.3992465227071
 30
0.0
 10
104.539730202956
 20
274.5349488797018
 30
0.0
  0
SPLINE
  5
A0
330
1F
100
AcDbEntity
  8
0
  6
Continuous
 62
     7
370
    25
100
AcDbSpline
210
0.0
220
0.0
230
1.0
 70
     8
 71
     3
 72
     9
 73
     5
 74
     0
 42
0.00000001
 43
0.00000001
 40
0.0
 40
0.0
 40
0.0
 40
0.0
 40
0.4984739077222073
 40
1.0
 40
1.0
 40
1.0
 40
1.0
 10
103.5088236967305
 20
273.7227546597135
 30
0.0
 10
103.4308695893757
 20
273.857694236981
 30
0.0
 10
103.27448405716
 20
274.1283996343489
 30
0.0
 10
103.1181405507692
 20
274.3991569974369
 30
0.0
 10
103.039730202956
 20
274.5349488797018
 30
0.0
  0
SPLINE
  5
A1
330
1F
100
AcDbEntity
  8
0
  6
Continuous
 62
     7
370
    25
100
AcDbSpline
210
0.0
220
0.0
230
1.0
 70
     8
 71
     3
 72
     9
 73
     5
 74
     0
 42
0.00000001
 43
0.00000001
 40
0.0
 40
0.0
 40
0.0
 40
0.0
 40
0.498161709893868
 40
1.0
 40
1.0
 40
1.0
 40
1.0
 10
102.0088236967305
 20
273.7227546597135
 30
0.0
 10
101.9309147561731
 20
273.8576022717064
 30
0.0
 10
101.7745218841196
 20
274.1282927108043
 30
0.0
 10
101.618185690862
 20
274.3990649847411
 30
0.0
 10
101.539730202956
 20
274.5349488797018
 30
0.0
  0
LINE
  5
A2
330
1F
100
AcDbEntity
  8
0
  6
Continuous
 62
     7
370
    25
100
AcDbLine
 10
105.2897311097
 20
244.5452518526
 30
0.0
 11
105.336600571
 21
244.6264068423
 31
0.0
  0
SPLINE
  5
A3
330
1F
100
AcDbEntity
  8
0
  6
Continuous
 62
     7
370
    25
100
AcDbSpline
210
0.0
220
0.0
230
1.0
 70
     8
 71
     3
 72
     9
 73
     5
 74
     0
 42
0.00000001
 43
0.00000001
 40
0.0
 40
0.0
 40
0.0
 40
0.0
 40
0.501215669346672
 40
1.0
 40
1.0
 40
1.0
 40
1.0
 10
103.7897311097212
 20
244.5452518525549
 30
0.0
 10
103.8680962056643
 20
244.6809542797839
 30
0.0
 10
104.0244462576196
 20
244.9517008576112
 30
0.0
 10
104.1808252502316
 20
245.222417111384
 30
0.0
 10
104.2588246413899
 20
245.3574461368191
 30
0.0
  0
SPLINE
  5
A4
330
1F
100
AcDbEntity
  8
0
  6
Continuous
 62
     7
370
    25
100
AcDbSpline
210
0.0
220
0.0
230
1.0
 70
     8
 71
     3
 72
     9
 73
     5
 74
     0
 42
0.00000001
 43
0.00000001
 40
0.0
 40
0.0
 40
0.0
 40
0.0
 40
0.5015262135375145
 40
0.9999999999999999
 40
0.9999999999999999
 40
0.9999999999999999
 40
0.9999999999999999
 10
102.2897311097212
 20
244.5452518525549
 30
0.0
 10
102.3681414550932
 20
244.6810438198922
 30
0.0
 10
102.5244849188155
 20
244.951801287143
 30
0.0
 10
102.6808705190786
 20
245.2225066230259
 30
0.0
 10
102.7588246413899
 20
245.3574461368191
 30
0.0
  0
SPLINE
  5
A5
330
1F
100
AcDbEntity
  8
0
  6
Continuous
 62
     7
370
    25
100
AcDbSpline
210
0.0
220
0.0
230
1.0
 70
     8
 71
     3
 72
     9
 73
     5
 74
     0
 42
0.00000001
 43
0.00000001
 40
0.0
 40
0.0
 40
0.0
 40
0.0
 40
0.5018384349021663
 40
0.9999999999999999
 40
0.9999999999999999
 40
0.9999999999999999
 40
0.9999999999999999
 10
100.7897311097212
 20
244.5452518525549
 30
0.0
 10
100.8681865934765
 20
244.6811358474735
 30
0.0
 10
101.024522733355
 20
244.9519082424677
 30
0.0
 10
101.1809156842178
 20
245.2225986031064
 30
0.0
 10
101.2588246413899
 20
245.3574461368191
 30
0.0
  0
LINE
  5
A6
330
1F
100
AcDbEntity
  8
0
  6
Continuous
 62
     7
370
    25
100
AcDbLine
 10
101.5337447077
 20
274.5400995869
 30
0.0
 11
100.5962672179
 21
274.5400995869
 31
0.0
  0
LINE
  5
A7
330
1F
100
AcDbEntity
  8
0
  6
Continuous
 62
     7
370
    25
100
AcDbLine
 10
103.0337447077
 20
274.5400995869
 30
0.0
 11
102.8464161032
 21
274.5400995869
 31
0.0
  0
LINE
  5
A8
330
1F
100
AcDbEntity
  8
0
  6
Continuous
 62
     7
370
    25
100
AcDbLine
 10
104.5337447077
 20
274.5400995869
 30
0.0
 11
104.3464161032
 21
274.5400995869
 31
0.0
  0
LINE
  5
A9
330
1F
100
AcDbEntity
  8
0
  6
Continuous
 62
     7
370
    25
100
AcDbLine
 10
105.0963196791
 20
244.5400995869
 30
0.0
 11
105.2835652487
 21
244.5400995869
 31
0.0
  0
LINE
  5
AA
330
1F
100
AcDbEntity
  8
0
  6
Continuous
 62
     7
370
    25
100
AcDbLine
 10
103.5963196791
 20
244.5400995869
 30
0.0
 11
103.7835652487
 21
244.5400995869
 31
0.0
  0
LINE
  5
AB
330
1F
100
AcDbEntity
  8
0
  6
Continuous
 62
     7
370
    25
100
AcDbLine
 10
102.0963196791
 20
244.5400995869
 30
0.0
 11
102.2835652487
 21
244.5400995869
 31
0.0
  0
LINE
  5
AC
330
1F
100
AcDbEntity
  8
0
  6
Continuous
 62
     7
370
    25
100
AcDbLine
 10
100.5962672179
 20
244.5400995869
 30
0.0
 11
100.7835652487
 21
244.5400995869
 31
0.0
  0
LINE
  5
AD
330
1F
100
AcDbEntity
  8
0
  6
Continuous
 62
     7
370
    25
100
AcDbLine
 10
57.6188541495
 20
301.8132147963
 30
0.0
 11
58.2761843146
 21
273.3836851559
 31
0.0
  0
LINE
  5
AE
330
1F
100
AcDbEntity
  8
0
  6
Continuous
 62
     7
370
    25
100
AcDbLine
 10
85.1895814508
 20
285.2009401579
 30
0.0
 11
85.5736802863
 21
301.8132147963
 31
0.0
  0
SPLINE
  5
AF
330
1F
100
AcDbEntity
  8
0
  6
Continuous
 62
     7
370
    25
100
AcDbSpline
210
0.0
220
0.0
230
1.0
 70
     8
 71
     3
 72
     9
 73
     5
 74
     0
 42
0.00000001
 43
0.00000001
 40
0.0
 40
0.0
 40
0.0
 40
0.0
 40
0.5027752844605446
 40
1.0
 40
1.0
 40
1.0
 40
1.0
 10
105.3775551738538
 20
273.7282005749246
 30
0.0
 10
105.3152405099625
 20
273.7281769748988
 30
0.0
 10
105.1912991273663
 20
273.7281300353881
 30
0.0
 10
105.0673226476432
 20
273.7281766257848
 30
0.0
 10
105.0056784777793
 20
273.7281997916816
 30
0.0
  0
SPLINE
  5
B0
330
1F
100
AcDbEntity
  8
0
  6
Continuous
 62
     7
370
    25
100
AcDbSpline
210
0.0
220
0.0
230
1.0
 70
     8
 71
     3
 72
     9
 73
     5
 74
     0
 42
0.00000001
 43
0.00000001
 40
0.0
 40
0.0
 40
0.0
 40
0.0
 40
0.5024505677200923
 40
0.9999999999999999
 40
0.9999999999999999
 40
0.9999999999999999
 40
0.9999999999999999
 10
103.8775551738538
 20
273.7282005749246
 30
0.0
 10
103.8152888565647
 20
273.7281646102142
 30
0.0
 10
103.6913635964708
 20
273.7280930316098
 30
0.0
 10
103.5673709914812
 20
273.7281640476571
 30
0.0
 10
103.5056785412616
 20
273.7281993816511
 30
0.0
  0
SPLINE
  5
B1
330
1F
100
AcDbEntity
  8
0
  6
Continuous
 62
     7
370
    25
100
AcDbSpline
210
0.0
220
0.0
230
1.0
 70
     8
 71
     3
 72
     9
 73
     5
 74
     0
 42
0.00000001
 43
0.00000001
 40
0.0
 40
0.0
 40
0.0
 40
0.0
 40
0.5021449888945024
 40
1.0
 40
1.0
 40
1.0
 40
1.0
 10
102.3775551738538
 20
273.7282005749246
 30
0.0
 10
102.3153384177157
 20
273.7281496631751
 30
0.0
 10
102.1914364421628
 20
273.7280482746307
 30
0.0
 10
102.0674205472139
 20
273.7281488261523
 30
0.0
 10
102.0056786124568
 20
273.7281988862311
 30
0.0
  0
SPLINE
  5
B2
330
1F
100
AcDbEntity
  8
0
  6
Continuous
 62
     7
370
    25
100
AcDbSpline
210
0.0
220
0.0
230
1.0
 70
     8
 71
     3
 72
     9
 73
     5
 74
     0
 42
0.00000001
 43
0.00000001
 40
0.0
 40
0.0
 40
0.0
 40
0.0
 40
0.5057289412932093
 40
1.0
 40
1.0
 40
1.0
 40
1.0
 10
104.2525563581406
 20
245.3519986115118
 30
0.0
 10
104.315241729068
 20
245.3520223928806
 30
0.0
 10
104.4391922602897
 20
245.3520694168232
 30
0.0
 10
104.5631077015759
 20
245.3520225746835
 30
0.0
 10
104.6243555179306
 20
245.3519994219695
 30
0.0
  0
SPLINE
  5
B3
330
1F
100
AcDbEntity
  8
0
  6
Continuous
 62
     7
370
    25
100
AcDbSpline
210
0.0
220
0.0
230
1.0
 70
     8
 71
     3
 72
     9
 73
     5
 74
     0
 42
0.00000001
 43
0.00000001
 40
0.0
 40
0.0
 40
0.0
 40
0.0
 40
0.5060529424439331
 40
1.0
 40
1.0
 40
1.0
 40
1.0
 10
102.7525563581406
 20
245.3519986115118
 30
0.0
 10
102.8152901219591
 20
245.3520348591091
 30
0.0
 10
102.9392569217874
 20
245.3521064871826
 30
0.0
 10
103.0631563904918
 20
245.3520351056364
 30
0.0
 10
103.124356168491
 20
245.3519998469316
 30
0.0
  0
SPLINE
  5
B4
330
1F
100
AcDbEntity
  8
0
  6
Continuous
 62
     7
370
    25
100
AcDbSpline
210
0.0
220
0.0
230
1.0
 70
     8
 71
     3
 72
     9
 73
     5
 74
     0
 42
0.00000001
 43
0.00000001
 40
0.0
 40
0.0
 40
0.0
 40
0.0
 40
0.5063601542004744
 40
0.9999999999999999
 40
0.9999999999999999
 40
0.9999999999999999
 40
0.9999999999999999
 10
101.2525563581406
 20
245.3519986115118
 30
0.0
 10
101.3153397622622
 20
245.3520499410973
 30
0.0
 10
101.4393293842748
 20
245.3521513108143
 30
0.0
 10
101.5632051107394
 20
245.3520502498405
 30
0.0
 10
101.6243551052497
 20
245.3520003621169
 30
0.0
  0
SPLINE
  5
B5
330
1F
100
AcDbEntity
  8
0
  6
Continuous
 62
     7
370
    25
100
AcDbSpline
210
0.0
220
0.0
230
1.0
 70
     8
 71
     3
 72
    18
 73
    14
 74
     0
 42
0.00000001
 43
0.00000001
 40
0.0
 40
0.0
 40
0.0
 40
0.0
 40
0.02368144617686
 40
0.1208917374018421
 40
0.2214947497847616
 40
0.324069196811797
 40
0.4277380059280841
 40
0.5319530456659718
 40
0.64163978185175
 40
0.7453109909409359
 40
0.8436676827411809
 40
0.9371760283279611
 40
1.0
 40
1.0
 40
1.0
 40
1.0
 10
94.95544085561139
 20
275.0375765626598
 30
0.0
 10
94.83177242608858
 20
275.0343768960598
 30
0.0
 10
94.20045577443153
 20
275.0180428744172
 30
0.0
 10
93.04990110252422
 20
275.2113268421522
 30
0.0
 10
91.54034539101193
 20
275.645691033418
 30
0.0
 10
90.0902739093309
 20
276.3467726098801
 30
0.0
 10
88.75573968145297
 20
277.2781534444446
 30
0.0
 10
87.5633123593876
 20
278.4410918412937
 30
0.0
 10
86.58176434868719
 20
279.7872114276938
 30
0.0
 10
85.8499323835371
 20
281.249768546919
 30
0.0
 10
85.39174273516659
 20
282.7275122020763
 30
0.0
 10
85.16680024330553
 20
284.0463084360883
 30
0.0
 10
85.17751094149132
 20
284.8634739853547
 30
0.0
 10
85.18181516093365
 20
285.1918615268345
 30
0.0
  0
ARC
  5
B6
330
1F
100
AcDbEntity
  8
0
  6
Continuous
 62
     7
370
    25
100
AcDbCircle
 10
84.5284864825
 20
193.8000227319
 30
0.0
 40
50.00000000000001
100
AcDbArc
 50
91.2
 51
95.7762782441
  0
ARC
  5
B7
330
1F
100
AcDbEntity
  8
0
  6
Continuous
 62
     7
370
    25
100
AcDbCircle
 10
86.5734130942
 20
301.7900995869
 30
0.0
 40
1.0
100
AcDbArc
 50
90.0
 51
178.6754780877
  0
ARC
  5
B8
330
1F
100
AcDbEntity
  8
0
  6
Continuous
 62
     7
370
    25
100
AcDbCircle
 10
56.6191213416
 20
301.7900995869
 30
0.0
 40
1.000000000000004
100
AcDbArc
 50
1.3245219123
 51
90.0
  0
ARC
  5
B9
330
1F
100
AcDbEntity
  8
0
  6
Continuous
 62
     7
370
    25
100
AcDbCircle
 10
48.2788562361
 20
273.1525330616
 30
0.0
 40
10.0
100
AcDbArc
 50
329.7241140142
 51
1.3245219123
  0
ARC
  5
BA
330
1F
100
AcDbEntity
  8
0
  6
Continuous
 62
     7
370
    25
100
AcDbCircle
 10
71.5962672179
 20
259.5400995869
 30
0.0
 40
17.00000000000002
100
AcDbArc
 50
149.7241140142
 51
242.3088110772
  0
ARC
  5
BB
330
1F
100
AcDbEntity
  8
0
  6
Continuous
 62
     7
370
    25
100
AcDbCircle
 10
87.8573742168
 20
304.5400995869
 30
0.0
 40
1.75
100
AcDbArc
 50
270.0
 51
0.0
  0
ARC
  5
BC
330
1F
100
AcDbEntity
  8
0
  6
Continuous
 62
     7
370
    25
100
AcDbCircle
 10
87.8573742168
 20
315.2900995869
 30
0.0
 40
1.750000000000018
100
AcDbArc
 50
0.0
 51
74.1552676611
  0
LINE
  5
BD
330
1F
100
AcDbEntity
  8
0
  6
Continuous
 62
     7
370
    25
100
AcDbLine
 10
89.6073742168
 20
304.5400995869
 30
0.0
 11
89.6073742168
 21
315.2900995869
 31
0.0
  0
ARC
  5
BE
330
1F
100
AcDbEntity
  8
0
  6
Continuous
 62
     7
370
    25
100
AcDbCircle
 10
55.335160219
 20
315.2900995869
 30
0.0
 40
1.750000000000062
100
AcDbArc
 50
105.8492995417
 51
180.0
  0
LINE
  5
BF
330
1F
100
AcDbEntity
  8
0
  6
Continuous
 62
     7
370
    25
100
AcDbLine
 10
53.585160219
 20
315.2900995869
 30
0.0
 11
53.585160219
 21
304.5400995869
 31
0.0
  0
ARC
  5
C0
330
1F
100
AcDbEntity
  8
0
  6
Continuous
 62
     7
370
    25
100
AcDbCircle
 10
55.335160219
 20
304.5400995869
 30
0.0
 40
1.750000000000007
100
AcDbArc
 50
180.0
 51
270.0
  0
ARC
  5
C1
330
1F
100
AcDbEntity
  8
0
  6
Continuous
 62
     7
370
    25
100
AcDbCircle
 10
54.5849852276
 20
317.9358012863
 30
0.0
 40
0.9999999999999957
100
AcDbArc
 50
285.8464245101
 51
8.5653276509
  0
ARC
  5
C2
330
1F
100
AcDbEntity
  8
0
  6
Continuous
 62
     7
370
    25
100
AcDbCircle
 10
88.6075492082
 20
317.9358012863
 30
0.0
 40
1.0
100
AcDbArc
 50
171.4057953594
 51
254.1356649369
  0
ARC
  5
C3
330
1F
100
AcDbEntity
  8
0
  6
Continuous
 62
     7
370
    25
100
AcDbCircle
 10
144.8348738901
 20
259.5400995869
 30
0.0
 40
10.63000000000001
100
AcDbArc
 50
6.8147316174
 51
21.8505108422
  0
ARC
  5
C4
330
1F
100
AcDbEntity
  8
0
  6
Continuous
 62
     7
370
    25
100
AcDbCircle
 10
144.8348738901
 20
259.5400995869
 30
0.0
 40
10.63000000000004
100
AcDbArc
 50
338.1494891578
 51
353.1907933975
  0
LINE
  5
C5
330
1F
100
AcDbEntity
  8
0
  6
Continuous
 62
     7
370
    25
100
AcDbLine
 10
155.3977314494
 20
258.4307196704
 30
0.0
 11
155.137314721
 21
258.4307196704
 31
0.0
  0
LINE
  5
C6
330
1F
100
AcDbEntity
  8
0
  6
Continuous
 62
     7
370
    25
100
AcDbLine
 10
155.3141583844
 20
260.6494795034
 30
0.0
 11
155.3977314494
 21
260.6494795034
 31
0.0
  0
LINE
  5
C7
330
1F
100
AcDbEntity
  8
0
  6
Continuous
 62
     7
370
    25
100
AcDbLine
 10
152.8011942324
 20
252.3900995869
 30
0.0
 11
154.4061992219
 21
253.6149718157
 31
0.0
  0
LINE
  5
C8
330
1F
100
AcDbEntity
  8
0
  6
Continuous
 62
     7
370
    25
100
AcDbLine
 10
154.4061992219
 20
265.4652273581
 30
0.0
 11
152.8011942324
 21
266.6900995869
 31
0.0
  0
ARC
  5
C9
330
1F
100
AcDbEntity
  8
0
  6
Continuous
 62
     7
370
    25
100
AcDbCircle
 10
153.9511942324
 20
254.2111852503
 30
0.0
 40
0.7499999999999841
100
AcDbArc
 50
307.3493490446
 51
0.0
  0
ARC
  5
CA
330
1F
100
AcDbEntity
  8
0
  6
Continuous
 62
     7
370
    25
100
AcDbCircle
 10
153.9511942324
 20
264.8690139235
 30
0.0
 40
0.7499999999999841
100
AcDbArc
 50
0.0
 51
52.6506509554
  0
LINE
  5
CB
330
1F
100
AcDbEntity
  8
0
  6
Continuous
 62
     7
370
    25
100
AcDbLine
 10
152.8011942324
 20
264.0400995869
 30
0.0
 11
152.7962672179
 21
264.0363530029
 31
0.0
  0
LINE
  5
CC
330
1F
100
AcDbEntity
  8
0
  6
Continuous
 62
     7
370
    25
100
AcDbLine
 10
152.7962672179
 20
255.0438461709
 30
0.0
 11
152.8011942324
 21
255.0400995869
 31
0.0
  0
LINE
  5
CD
330
1F
100
AcDbEntity
  8
0
  6
Continuous
 62
     7
370
    25
100
AcDbLine
 10
147.9343111751
 20
250.5644415427
 30
0.0
 11
152.3049934211
 21
250.6407320851
 31
0.0
  0
LINE
  5
CE
330
1F
100
AcDbEntity
  8
0
  6
Continuous
 62
     7
370
    25
100
AcDbLine
 10
152.3049934211
 20
268.4394670887
 30
0.0
 11
147.0008909612
 21
268.5320505416
 31
0.0
  0
ARC
  5
CF
330
1F
100
AcDbEntity
  8
0
  6
Continuous
 62
     7
370
    25
100
AcDbCircle
 10
152.2962672179
 20
251.1406559326
 30
0.0
 40
0.5000000000000048
100
AcDbArc
 50
271.0
 51
0.0
  0
ARC
  5
D0
330
1F
100
AcDbEntity
  8
0
  6
Continuous
 62
     7
370
    25
100
AcDbCircle
 10
152.2962672179
 20
267.9395432412
 30
0.0
 40
0.5000000000000048
100
AcDbArc
 50
0.0
 51
89.0
  0
SPLINE
  5
D1
330
1F
100
AcDbEntity
  8
0
  6
Continuous
 62
     7
370
    25
100
AcDbSpline
210
0.0
220
0.0
230
1.0
 70
     8
 71
     3
 72
    12
 73
     8
 74
     0
 42
0.00000001
 43
0.00000001
 40
0.0
 40
0.0
 40
0.0
 40
0.0
 40
0.116618559027223
 40
0.3100782418708258
 40
0.5432595961631692
 40
0.8225669019083991
 40
0.9999999999999999
 40
0.9999999999999999
 40
0.9999999999999999
 40
0.9999999999999999
 10
144.3259779955095
 20
248.6814275309968
 30
0.0
 10
144.3264743769428
 20
248.6824880587854
 30
0.0
 10
144.327794210453
 20
248.6853079066286
 30
0.0
 10
144.5188790179364
 20
248.8940962733859
 30
0.0
 10
144.922505012307
 20
249.226425179383
 30
0.0
 10
145.470717320337
 20
249.6186989375509
 30
0.0
 10
145.9340229789235
 20
249.9051492387514
 30
0.0
 10
146.1140065268554
 20
250.0164285649603
 30
0.0
  0
ARC
  5
D2
330
1F
100
AcDbEntity
  8
0
  6
Continuous
 62
     7
370
    25
100
AcDbCircle
 10
147.9962672179
 20
247.0149822249
 30
0.0
 40
3.550000000000013
100
AcDbArc
 50
91.0
 51
121.7654088545
  0
ARC
  5
D3
330
1F
100
AcDbEntity
  8
0
  6
Continuous
 62
     7
370
    25
100
AcDbCircle
 10
147.0462672179
 20
271.131654549
 30
0.0
 40
2.599999999999975
100
AcDbArc
 50
242.9558679133
 51
269.0
  0
SPLINE
  5
D4
330
1F
100
AcDbEntity
  8
0
  6
Continuous
 62
     7
370
    25
100
AcDbSpline
210
0.0
220
0.0
230
1.0
 70
     8
 71
     3
 72
    12
 73
     8
 74
     0
 42
0.00000001
 43
0.00000001
 40
0.0
 40
0.0
 40
0.0
 40
0.0
 40
0.1712334717716442
 40
0.4880354090002081
 40
0.7419600390400737
 40
0.9450464037779788
 40
1.0
 40
1.0
 40
1.0
 40
1.0
 10
145.8558541191968
 20
268.8242448756697
 30
0.0
 10
145.6955587224319
 20
268.907523628069
 30
0.0
 10
145.2386981056868
 20
269.1448778063599
 30
0.0
 10
144.6866086435443
 20
269.4649790670402
 30
0.0
 10
144.2753249307495
 20
269.7278918573816
 30
0.0
 10
144.1081037479399
 20
269.875569010095
 30
0.0
 10
144.1285876171055
 20
269.8528040389904
 30
0.0
 10
144.1329499735056
 20
269.8479558866909
 30
0.0
  0
LINE
  5
D5
330
1F
100
AcDbEntity
  8
0
  6
Continuous
 62
     7
370
    25
100
AcDbLine
 10
138.4549934211
 20
247.1694948958
 30
0.0
 11
142.4811720308
 21
247.2397721048
 31
0.0
  0
ARC
  5
D6
330
1F
100
AcDbEntity
  8
0
  6
Continuous
 62
     7
370
    25
100
AcDbCircle
 10
138.4462672179
 20
247.6694187433
 30
0.0
 40
0.5000000000000058
100
AcDbArc
 50
180.0
 51
271.0
  0
LINE
  5
D7
330
1F
100
AcDbEntity
  8
0
  6
Continuous
 62
     7
370
    25
100
AcDbLine
 10
152.8261867608
 20
263.4777148153
 30
0.0
 11
152.7962672179
 21
263.5900904956
 31
0.0
  0
ARC
  5
D8
330
1F
100
AcDbEntity
  8
0
  6
Continuous
 62
     7
370
    25
100
AcDbCircle
 10
142.4462672179
 20
269.0358244079
 30
0.0
 40
2.000000000000026
100
AcDbArc
 50
20.0733306305
 51
89.0
  0
ARC
  5
D9
330
1F
100
AcDbEntity
  8
0
  6
Continuous
 62
     7
370
    25
100
AcDbCircle
 10
138.4462672179
 20
270.6058731597
 30
0.0
 40
0.5
100
AcDbArc
 50
89.0
 51
180.0
  0
LINE
  5
DA
330
1F
100
AcDbEntity
  8
0
  6
Continuous
 62
     7
370
    25
100
AcDbLine
 10
142.4811720308
 20
271.0355197982
 30
0.0
 11
138.4549934211
 21
271.1057970073
 31
0.0
  0
ARC
  5
DB
330
1F
100
AcDbEntity
  8
0
  6
Continuous
 62
     7
370
    25
100
AcDbCircle
 10
142.4462672179
 20
249.2394674951
 30
0.0
 40
2.000000000000004
100
AcDbArc
 50
271.0
 51
344.7131324228
  0
LINE
  5
DC
330
1F
100
AcDbEntity
  8
0
  6
Continuous
 62
     7
370
    25
100
AcDbLine
 10
128.2881228267
 20
249.5392515859
 30
0.0
 11
129.9962672179
 21
251.2900995869
 31
0.0
  0
LINE
  5
DD
330
1F
100
AcDbEntity
  8
0
  6
Continuous
 62
     7
370
    25
100
AcDbLine
 10
129.9962672179
 20
267.7900995869
 30
0.0
 11
128.2881228267
 21
269.5409475879
 31
0.0
  0
LINE
  5
DE
330
1F
100
AcDbEntity
  8
0
  6
Continuous
 62
     7
370
    25
100
AcDbLine
 10
122.5695685495
 20
250.1400995869
 30
0.0
 11
122.9223467304
 21
250.1400995869
 31
0.0
  0
SPLINE
  5
DF
330
1F
100
AcDbEntity
  8
0
  6
Continuous
 62
     7
370
    25
100
AcDbSpline
210
0.0
220
0.0
230
1.0
 70
     8
 71
     3
 72
     9
 73
     5
 74
     0
 42
0.00000001
 43
0.00000001
 40
0.0
 40
0.0
 40
0.0
 40
0.0
 40
0.5017901106541831
 40
1.0
 40
1.0
 40
1.0
 40
1.0
 10
122.931093189537
 20
250.1477590393312
 30
0.0
 10
123.0049705298323
 20
250.2756367160479
 30
0.0
 10
123.1521981031278
 20
250.5304796752885
 30
0.0
 10
123.2994784140055
 20
250.7852830792534
 30
0.0
 10
123.3728549213907
 20
250.9122286549477
 30
0.0
  0
SPLINE
  5
E0
330
1F
100
AcDbEntity
  8
0
  6
Continuous
 62
     7
370
    25
100
AcDbSpline
210
0.0
220
0.0
230
1.0
 70
     8
 71
     3
 72
     9
 73
     5
 74
     0
 42
0.00000001
 43
0.00000001
 40
0.0
 40
0.0
 40
0.0
 40
0.0
 40
0.4988103511399757
 40
1.0
 40
1.0
 40
1.0
 40
1.0
 10
122.6673007809455
 20
268.1679680802581
 30
0.0
 10
122.59384094612
 20
268.2950721680936
 30
0.0
 10
122.4465708771296
 20
268.5498866232165
 30
0.0
 10
122.2993330225878
 20
268.8047186955985
 30
0.0
 10
122.2255389339712
 20
268.9324378924738
 30
0.0
  0
LINE
  5
E1
330
1F
100
AcDbEntity
  8
0
  6
Continuous
 62
     7
370
    25
100
AcDbLine
 10
123.5301817578
 20
250.912203042
 30
0.0
 11
123.6743623328
 21
250.662706944
 31
0.0
  0
SPLINE
  5
E2
330
1F
100
AcDbEntity
  8
0
  6
Continuous
 62
     7
370
    25
100
AcDbSpline
210
0.0
220
0.0
230
1.0
 70
     8
 71
     3
 72
     9
 73
     5
 74
     0
 42
0.00000001
 43
0.00000001
 40
0.0
 40
0.0
 40
0.0
 40
0.0
 40
0.4989150937458993
 40
0.9999999999999999
 40
0.9999999999999999
 40
0.9999999999999999
 40
0.9999999999999999
 10
123.266357543735
 20
268.932453352772
 30
0.0
 10
123.1928989979153
 20
268.8053190134817
 30
0.0
 10
123.0456624305306
 20
268.5504974198199
 30
0.0
 10
122.8984099565032
 20
268.2956782155034
 30
0.0
 10
122.8246239643596
 20
268.1679921583967
 30
0.0
  0
LINE
  5
E3
330
1F
100
AcDbEntity
  8
0
  6
Continuous
 62
     7
370
    25
100
AcDbLine
 10
123.6962672179
 20
268.4400995869
 30
0.0
 11
123.2521294738
 21
268.884237331
 31
0.0
  0
SPLINE
  5
E4
330
1F
100
AcDbEntity
  8
0
  6
Continuous
 62
     7
370
    25
100
AcDbSpline
210
0.0
220
0.0
230
1.0
 70
     8
 71
     3
 72
     9
 73
     5
 74
     0
 42
0.00000001
 43
0.00000001
 40
0.0
 40
0.0
 40
0.0
 40
0.0
 40
0.5165667873823361
 40
1.0
 40
1.0
 40
1.0
 40
1.0
 10
123.3629470110543
 20
250.9038938558016
 30
0.0
 10
123.3926078854022
 20
250.9038993621826
 30
0.0
 10
123.4500271292878
 20
250.9039100217547
 30
0.0
 10
123.507297039881
 20
250.9038994886292
 30
0.0
 10
123.5349832167453
 20
250.9038943965666
 30
0.0
  0
SPLINE
  5
E5
330
1F
100
AcDbEntity
  8
0
  6
Continuous
 62
     7
370
    25
100
AcDbSpline
210
0.0
220
0.0
230
1.0
 70
     8
 71
     3
 72
     9
 73
     5
 74
     0
 42
0.00000001
 43
0.00000001
 40
0.0
 40
0.0
 40
0.0
 40
0.0
 40
0.5120869110697424
 40
1.0
 40
1.0
 40
1.0
 40
1.0
 10
122.8337795600077
 20
268.1763052755113
 30
0.0
 10
122.8045517375589
 20
268.1763074057448
 30
0.0
 10
122.7474758353693
 20
268.1763115656512
 30
0.0
 10
122.6903532462357
 20
268.1763075015236
 30
0.0
 10
122.6624823873239
 20
268.1763055185826
 30
0.0
  0
LINE
  5
E6
330
1F
100
AcDbEntity
  8
0
  6
Continuous
 62
     7
370
    25
100
AcDbLine
 10
123.6962672179
 20
251.4150995869
 30
0.0
 11
125.1962672179
 21
251.4150995869
 31
0.0
  0
LINE
  5
E7
330
1F
100
AcDbEntity
  8
0
  6
Continuous
 62
     7
370
    25
100
AcDbLine
 10
125.1962672179
 20
267.6650995869
 30
0.0
 11
123.6962672179
 21
267.6650995869
 31
0.0
  0
SPLINE
  5
E8
330
1F
100
AcDbEntity
  8
0
  6
Continuous
 62
     7
370
    25
100
AcDbSpline
210
0.0
220
0.0
230
1.0
 70
     8
 71
     3
 72
     9
 73
     5
 74
     0
 42
0.00000001
 43
0.00000001
 40
0.0
 40
0.0
 40
0.0
 40
0.0
 40
0.2985650935669061
 40
1.0
 40
1.0
 40
1.0
 40
1.0
 10
125.1697949339265
 20
250.5167726685034
 30
0.0
 10
125.1724296144598
 20
250.5122132861477
 30
0.0
 10
125.1812540905629
 20
250.4969423035249
 30
0.0
 10
125.1900778940987
 20
250.4816709254941
 30
0.0
 10
125.1962672179063
 20
250.470959047874
 30
0.0
  0
LINE
  5
E9
330
1F
100
AcDbEntity
  8
0
  6
Continuous
 62
     7
370
    25
100
AcDbLine
 10
106.2187960994
 20
276.6126284684
 30
0.0
 11
105.3462672179
 21
275.7400995869
 31
0.0
  0
LINE
  5
EA
330
1F
100
AcDbEntity
  8
0
  6
Continuous
 62
     7
370
    25
100
AcDbLine
 10
105.3462672179
 20
243.3400995869
 30
0.0
 11
106.2187960994
 21
242.4675707054
 31
0.0
  0
LINE
  5
EB
330
1F
100
AcDbEntity
  8
0
  6
Continuous
 62
     7
370
    25
100
AcDbLine
 10
113.9237383364
 20
242.4675707054
 30
0.0
 11
114.7962672179
 21
243.3400995869
 31
0.0
  0
LINE
  5
EC
330
1F
100
AcDbEntity
  8
0
  6
Continuous
 62
     7
370
    25
100
AcDbLine
 10
114.7962672179
 20
275.7400995869
 30
0.0
 11
113.9237383364
 21
276.6126284684
 31
0.0
  0
ARC
  5
ED
330
1F
100
AcDbEntity
  8
0
  6
Continuous
 62
     7
370
    25
100
AcDbCircle
 10
114.7962672179
 20
253.7991112148
 30
0.0
 40
9.134011627907
100
AcDbArc
 50
270.0
 51
328.0464183091
  0
ARC
  5
EE
330
1F
100
AcDbEntity
  8
0
  6
Continuous
 62
     7
370
    25
100
AcDbCircle
 10
114.7962672179
 20
265.281087959
 30
0.0
 40
9.134011627906952
100
AcDbArc
 50
31.9535816909
 51
90.0
  0
LINE
  5
EF
330
1F
100
AcDbEntity
  8
0
  6
Continuous
 62
     7
370
    25
100
AcDbLine
 10
113.358461833
 20
277.0551967254
 30
0.0
 11
106.7588993115
 21
277.0551967254
 31
0.0
  0
LINE
  5
F0
330
1F
100
AcDbEntity
  8
0
  6
Continuous
 62
     7
370
    25
100
AcDbLine
 10
106.7588993115
 20
242.0250024484
 30
0.0
 11
113.358461833
 21
242.0250024484
 31
0.0
  0
ARC
  5
F1
330
1F
100
AcDbEntity
  8
0
  6
Continuous
 62
     7
370
    25
100
AcDbCircle
 10
71.5962672179
 20
-52.5251781866
 30
0.0
 40
11.55000000000002
100
AcDbArc
 50
133.1556534408
 51
278.8713752893
  0
ARC
  5
F2
330
1F
100
AcDbEntity
  8
0
  6
Continuous
 62
     7
370
    25
100
AcDbCircle
 10
71.5962672179
 20
-52.5251781866
 30
0.0
 40
11.55000000000001
100
AcDbArc
 50
278.8713752893
 51
46.8443465592
  0
ARC
  5
F3
330
1F
100
AcDbEntity
  8
0
  6
Continuous
 62
     7
370
    25
100
AcDbCircle
 10
71.5962672179
 20
-52.5251781866
 30
0.0
 40
10.80000000000001
100
AcDbArc
 50
137.0107360705
 51
278.8713752893
  0
ARC
  5
F4
330
1F
100
AcDbEntity
  8
0
  6
Continuous
 62
     7
370
    25
100
AcDbCircle
 10
71.5962672179
 20
-52.5251781866
 30
0.0
 40
10.80000000000001
100
AcDbArc
 50
278.8713752893
 51
42.9892639295
  0
ARC
  5
F5
330
1F
100
AcDbEntity
  8
0
  6
Continuous
 62
     7
370
    25
100
AcDbCircle
 10
71.5962672179
 20
-52.5251781866
 30
0.0
 40
7.900000000000006
100
AcDbArc
 50
180.0
 51
0.0
  0
ARC
  5
F6
330
1F
100
AcDbEntity
  8
0
  6
Continuous
 62
     7
370
    25
100
AcDbCircle
 10
71.5962672179
 20
99.8748218134
 30
0.0
 40
7.900000000000013
100
AcDbArc
 50
0.0
 51
180.0
  0
LINE
  5
F7
330
1F
100
AcDbEntity
  8
0
  6
Continuous
 62
     7
370
    25
100
AcDbLine
 10
82.318516448
 20
-52.3925511659
 30
0.0
 11
81.9252426865
 21
-55.4127187958
 31
0.0
  0
ARC
  5
F8
330
1F
100
AcDbEntity
  8
0
  6
Continuous
 62
     7
370
    25
100
AcDbCircle
 10
71.5962672179
 20
-52.5251781866
 30
0.0
 40
10.72500000000001
100
AcDbArc
 50
137.442311014
 51
344.3812764616
  0
ARC
  5
F9
330
1F
100
AcDbEntity
  8
0
  6
Continuous
 62
     7
370
    25
100
AcDbCircle
 10
71.5962672179
 20
-52.5251781866
 30
0.0
 40
10.72499999999999
100
AcDbArc
 50
0.7086742957
 51
42.557688986
  0
LINE
  5
FA
330
1F
100
AcDbEntity
  8
0
  6
Continuous
 62
     7
370
    25
100
AcDbLine
 10
82.3204468477
 20
-52.3925272637
 30
0.0
 11
82.318516448
 21
-52.3925511659
 31
0.0
  0
ARC
  5
FB
330
1F
100
AcDbEntity
  8
0
  6
Continuous
 62
     7
370
    25
100
AcDbCircle
 10
71.5962672179
 20
99.8748218134
 30
0.0
 40
8.050000000000017
100
AcDbArc
 50
42.4825302596
 51
191.0780164461
  0
ARC
  5
FC
330
1F
100
AcDbEntity
  8
0
  6
Continuous
 62
     7
370
    25
100
AcDbCircle
 10
71.5962672179
 20
99.8748218134
 30
0.0
 40
8.049999999999978
100
AcDbArc
 50
348.9219835539
 51
42.4825302596
  0
ARC
  5
FD
330
1F
100
AcDbEntity
  8
0
  6
Continuous
 62
     7
370
    25
100
AcDbCircle
 10
71.5962672179
 20
99.8748218134
 30
0.0
 40
8.25000000000001
100
AcDbArc
 50
343.2508741362
 51
132.4825302596
  0
ARC
  5
FE
330
1F
100
AcDbEntity
  8
0
  6
Continuous
 62
     7
370
    25
100
AcDbCircle
 10
71.5962672179
 20
99.8748218134
 30
0.0
 40
8.250000000000014
100
AcDbArc
 50
132.4825302596
 51
196.7491258638
  0
ARC
  5
FF
330
1F
100
AcDbEntity
  8
0
  6
Continuous
 62
     7
370
    25
100
AcDbCircle
 10
71.5962672179
 20
99.8748218134
 30
0.0
 40
9.574999999999982
100
AcDbArc
 50
325.5951096848
 51
132.4825302596
  0
ARC
  5
100
330
1F
100
AcDbEntity
  8
0
  6
Continuous
 62
     7
370
    25
100
AcDbCircle
 10
71.5962672179
 20
99.8748218134
 30
0.0
 40
9.574999999999987
100
AcDbArc
 50
132.4825302596
 51
214.4048903152
  0
ARC
  5
101
330
1F
100
AcDbEntity
  8
0
  6
Continuous
 62
     7
370
    25
100
AcDbCircle
 10
71.5962672179
 20
259.5400995869
 30
0.0
 40
8.24999999999999
100
AcDbArc
 50
343.2508741362
 51
196.7491258638
  0
ARC
  5
102
330
1F
100
AcDbEntity
  8
0
  6
Continuous
 62
     7
370
    25
100
AcDbCircle
 10
71.5962672179
 20
259.5400995869
 30
0.0
 40
9.574999999999992
100
AcDbArc
 50
325.5951096848
 51
214.4048903152
  0
ARC
  5
103
330
1F
100
AcDbEntity
  8
0
  6
Continuous
 62
     7
370
    25
100
AcDbCircle
 10
71.5962672179
 20
259.5400995869
 30
0.0
 40
8.050000000000004
100
AcDbArc
 50
348.9219835539
 51
191.0780164461
  0
ARC
  5
104
330
1F
100
AcDbEntity
  8
0
  6
Continuous
 62
     7
370
    25
100
AcDbCircle
 10
71.5962672179
 20
259.5400995869
 30
0.0
 40
9.725000000000014
100
AcDbArc
 50
135.0085085188
 51
215.6748758017
  0
ARC
  5
105
330
1F
100
AcDbEntity
  8
0
  6
Continuous
 62
     7
370
    25
100
AcDbCircle
 10
71.5962672179
 20
259.5400995869
 30
0.0
 40
9.725000000000007
100
AcDbArc
 50
324.3251241983
 51
135.0085085188
  0
ARC
  5
106
330
1F
100
AcDbEntity
  8
0
  6
Continuous
 62
     7
370
    25
100
AcDbCircle
 10
71.5962672179
 20
259.5400995869
 30
0.0
 40
9.925000000000018
100
AcDbArc
 50
322.7469493593
 51
135.0085085188
  0
ARC
  5
107
330
1F
100
AcDbEntity
  8
0
  6
Continuous
 62
     7
370
    25
100
AcDbCircle
 10
71.5962672179
 20
259.5400995869
 30
0.0
 40
9.925000000000018
100
AcDbArc
 50
135.0085085188
 51
217.2530506407
  0
ARC
  5
108
330
1F
100
AcDbEntity
  8
0
  6
Continuous
 62
     7
370
    25
100
AcDbCircle
 10
71.5962672179
 20
259.5400995869
 30
0.0
 40
14.22500000000001
100
AcDbArc
 50
303.7355336397
 51
135.0085085188
  0
ARC
  5
109
330
1F
100
AcDbEntity
  8
0
  6
Continuous
 62
     7
370
    25
100
AcDbCircle
 10
71.5962672179
 20
259.5400995869
 30
0.0
 40
14.22500000000001
100
AcDbArc
 50
135.0085085188
 51
236.2644663603
  0
LINE
  5
10A
330
1F
100
AcDbEntity
  8
0
  6
Continuous
 62
     7
370
    25
100
AcDbLine
 10
59.1317293578
 20
252.6854718849
 30
0.0
 11
58.9191794754
 21
252.5685842531
 31
0.0
  0
SPLINE
  5
10B
330
1F
100
AcDbEntity
  8
0
  6
Continuous
 62
     7
370
    25
100
AcDbSpline
210
0.0
220
0.0
230
1.0
 70
     8
 71
     3
 72
    11
 73
     7
 74
     0
 42
0.00000001
 43
0.00000001
 40
0.0
 40
0.0
 40
0.0
 40
0.0
 40
0.1446702591042532
 40
0.3907520209323642
 40
0.5962314811354595
 40
1.0
 40
1.0
 40
1.0
 40
1.0
 10
57.131919566169
 20
259.2347691247059
 30
0.0
 10
57.1809098844292
 20
258.9049160604013
 30
0.0
 10
57.313231938629
 20
258.0139882893045
 30
0.0
 10
57.60078574530071
 20
256.6683548242954
 30
0.0
 10
58.1000914619074
 20
254.7587450665646
 30
0.0
 10
58.59270704902282
 20
253.4415394216649
 30
0.0
 10
58.91917947537961
 20
252.5685842530731
 30
0.0
  0
LINE
  5
10C
330
1F
100
AcDbEntity
  8
0
  6
Continuous
 62
     7
370
    25
100
AcDbLine
 10
57.37443547
 20
259.2398884356
 30
0.0
 11
57.1319195662
 21
259.2347691247
 31
0.0
  0
LINE
  5
10D
330
1F
100
AcDbEntity
  8
0
  6
Continuous
 62
     7
370
    25
100
AcDbLine
 10
84.2733549604
 20
266.5116149207
 30
0.0
 11
84.060805078
 21
266.3947272889
 31
0.0
  0
SPLINE
  5
10E
330
1F
100
AcDbEntity
  8
0
  6
Continuous
 62
     7
370
    25
100
AcDbSpline
210
0.0
220
0.0
230
1.0
 70
     8
 71
     3
 72
    11
 73
     7
 74
     0
 42
0.00000001
 43
0.00000001
 40
0.0
 40
0.0
 40
0.0
 40
0.0
 40
0.1446702591042559
 40
0.390752020932366
 40
0.5962314811354594
 40
1.0
 40
1.0
 40
1.0
 40
1.0
 10
86.0606148696436
 20
259.8454300490884
 30
0.0
 10
86.01162455138339
 20
260.175283113393
 30
0.0
 10
85.87930249718359
 20
261.0662108844899
 30
0.0
 10
85.59174869051189
 20
262.4118443494989
 30
0.0
 10
85.09244297390522
 20
264.3214541072295
 30
0.0
 10
84.59982738678981
 20
265.6386597521293
 30
0.0
 10
84.27335496043304
 20
266.5116149207211
 30
0.0
  0
LINE
  5
10F
330
1F
100
AcDbEntity
  8
0
  6
Continuous
 62
     7
370
    25
100
AcDbLine
 10
86.0606148696
 20
259.8454300491
 30
0.0
 11
85.8180989658
 21
259.8403107382
 31
0.0
  0
LINE
  5
110
330
1F
100
AcDbEntity
  8
0
  6
Continuous
 62
     7
370
    25
100
AcDbLine
 10
83.9723204711
 20
252.0471772228
 30
0.0
 11
83.7648178714
 21
252.1728070046
 31
0.0
  0
LINE
  5
111
330
1F
100
AcDbEntity
  8
0
  6
Continuous
 62
     7
370
    25
100
AcDbLine
 10
71.8973017072
 20
274.0045372848
 30
0.0
 11
71.8922544245
 21
273.7620198712
 31
0.0
  0
SPLINE
  5
112
330
1F
100
AcDbEntity
  8
0
  6
Continuous
 62
     7
370
    25
100
AcDbSpline
210
0.0
220
0.0
230
1.0
 70
     8
 71
     3
 72
    11
 73
     7
 74
     0
 42
0.00000001
 43
0.00000001
 40
0.0
 40
0.0
 40
0.0
 40
0.0
 40
0.1446702591042559
 40
0.3907520209323618
 40
0.5962314811354645
 40
0.9999999999999999
 40
0.9999999999999999
 40
0.9999999999999999
 40
0.9999999999999999
 10
78.56401710696807
 20
272.219257333567
 30
0.0
 10
78.25386081463405
 20
272.3417570055665
 30
0.0
 10
77.41613370482723
 20
272.672626630697
 30
0.0
 10
76.10700403661104
 20
273.0964144616689
 30
0.0
 10
74.20358061679832
 20
273.618807905698
 30
0.0
 10
72.81653927274917
 20
273.8507931154058
 30
0.0
 10
71.8973017072054
 20
274.0045372848415
 30
0.0
  0
LINE
  5
113
330
1F
100
AcDbEntity
  8
0
  6
Continuous
 62
     7
370
    25
100
AcDbLine
 10
78.564017107
 20
272.2192573336
 30
0.0
 11
78.4471926083
 21
272.0066727445
 31
0.0
  0
LINE
  5
114
330
1F
100
AcDbEntity
  8
0
  6
Continuous
 62
     7
370
    25
100
AcDbLine
 10
59.4277165644
 20
266.9073921692
 30
0.0
 11
59.2202139647
 21
267.033021951
 31
0.0
  0
SPLINE
  5
115
330
1F
100
AcDbEntity
  8
0
  6
Continuous
 62
     7
370
    25
100
AcDbSpline
210
0.0
220
0.0
230
1.0
 70
     8
 71
     3
 72
    11
 73
     7
 74
     0
 42
0.00000001
 43
0.00000001
 40
0.0
 40
0.0
 40
0.0
 40
0.0
 40
0.1446702591042538
 40
0.390752020932365
 40
0.5962314811354785
 40
1.0
 40
1.0
 40
1.0
 40
1.0
 10
64.09966945523077
 20
271.9139268713758
 30
0.0
 10
63.83850348115694
 20
271.7065734790707
 30
0.0
 10
63.13309842554992
 20
271.1465153331043
 30
0.0
 10
62.11152256400538
 20
270.2246696990671
 30
0.0
 10
60.70740486079934
 20
268.8374533853656
 30
0.0
 10
59.8129791038656
 20
267.7522329501736
 30
0.0
 10
59.22021396467861
 20
267.0330219510176
 30
0.0
  0
LINE
  5
116
330
1F
100
AcDbEntity
  8
0
  6
Continuous
 62
     7
370
    25
100
AcDbLine
 10
64.0996694552
 20
271.9139268714
 30
0.0
 11
64.2253608605
 21
271.7064615933
 31
0.0
  0
SPLINE
  5
117
330
1F
100
AcDbEntity
  8
0
  6
Continuous
 62
     7
370
    25
100
AcDbSpline
210
0.0
220
0.0
230
1.0
 70
     8
 71
     3
 72
     9
 73
     5
 74
     0
 42
0.00000001
 43
0.00000001
 40
0.0
 40
0.0
 40
0.0
 40
0.0
 40
0.5862283062032927
 40
1.0
 40
1.0
 40
1.0
 40
1.0
 10
58.91917947537961
 20
252.5685842530731
 30
0.0
 10
59.04600299057901
 20
252.2609204565134
 30
0.0
 10
59.26234108592072
 20
251.7361013829475
 30
0.0
 10
59.49921901476975
 20
251.2189372854277
 30
0.0
 10
59.59723239661268
 20
251.0049494208261
 30
0.0
  0
ARC
  5
118
330
1F
100
AcDbEntity
  8
0
  6
Continuous
 62
     7
370
    25
100
AcDbCircle
 10
71.5962672179
 20
259.5400995869
 30
0.0
 40
14.72500000000002
100
AcDbArc
 50
215.4249929561
 51
234.5920240815
  0
SPLINE
  5
119
330
1F
100
AcDbEntity
  8
0
  6
Continuous
 62
     7
370
    25
100
AcDbSpline
210
0.0
220
0.0
230
1.0
 70
     8
 71
     3
 72
     9
 73
     5
 74
     0
 42
0.00000001
 43
0.00000001
 40
0.0
 40
0.0
 40
0.0
 40
0.0
 40
0.5863847898283634
 40
1.0
 40
1.0
 40
1.0
 40
1.0
 10
56.93681033522516
 20
260.927885198875
 30
0.0
 10
56.96893145885399
 20
260.5958752013462
 30
0.0
 10
57.023709693532
 20
260.0296770268916
 30
0.0
 10
57.10025801577583
 20
259.4673543407278
 30
0.0
 10
57.131919566169
 20
259.2347691247059
 30
0.0
  0
ARC
  5
11A
330
1F
100
AcDbEntity
  8
0
  6
Continuous
 62
     7
370
    25
100
AcDbCircle
 10
71.5962672179
 20
259.5400995869
 30
0.0
 40
14.72500000000001
100
AcDbArc
 50
155.4249929561
 51
174.5920240815
  0
SPLINE
  5
11B
330
1F
100
AcDbEntity
  8
0
  6
Continuous
 62
     7
370
    25
100
AcDbSpline
210
0.0
220
0.0
230
1.0
 70
     8
 71
     3
 72
     9
 73
     5
 74
     0
 42
0.00000001
 43
0.00000001
 40
0.0
 40
0.0
 40
0.0
 40
0.0
 40
0.5862283062032905
 40
1.0
 40
1.0
 40
1.0
 40
1.0
 10
59.22021396467861
 20
267.0330219510176
 30
0.0
 10
59.01718105863281
 20
266.7693576667778
 30
0.0
 10
58.67084345620494
 20
266.3195938436226
 30
0.0
 10
58.34140517425207
 20
265.8558694908836
 30
0.0
 10
58.20509293832696
 20
265.6639934799959
 30
0.0
  0
SPLINE
  5
11C
330
1F
100
AcDbEntity
  8
0
  6
Continuous
 62
     7
370
    25
100
AcDbSpline
210
0.0
220
0.0
230
1.0
 70
     8
 71
     3
 72
     9
 73
     5
 74
     0
 42
0.00000001
 43
0.00000001
 40
0.0
 40
0.0
 40
0.0
 40
0.0
 40
0.5862283062032676
 40
1.0
 40
1.0
 40
1.0
 40
1.0
 10
71.8973017072054
 20
274.0045372848415
 30
0.0
 10
71.56744528596018
 20
274.0485367971615
 30
0.0
 10
71.00476958819057
 20
274.1235920475722
 30
0.0
 10
70.43845337738864
 20
274.177031792353
 30
0.0
 10
70.20412775962058
 20
274.199143646067
 30
0.0
  0
SPLINE
  5
11D
330
1F
100
AcDbEntity
  8
0
  6
Continuous
 62
     7
370
    25
100
AcDbSpline
210
0.0
220
0.0
230
1.0
 70
     8
 71
     3
 72
     9
 73
     5
 74
     0
 42
0.00000001
 43
0.00000001
 40
0.0
 40
0.0
 40
0.0
 40
0.0
 40
0.5863847898283637
 40
1.0
 40
1.0
 40
1.0
 40
1.0
 10
65.46839637154508
 20
272.9294544589706
 30
0.0
 10
65.19692784118918
 20
272.7356317511455
 30
0.0
 10
64.7339749558741
 20
272.4050933211126
 30
0.0
 10
64.28526338565386
 20
272.0576391863505
 30
0.0
 10
64.09966945523077
 20
271.9139268713758
 30
0.0
  0
ARC
  5
11E
330
1F
100
AcDbEntity
  8
0
  6
Continuous
 62
     7
370
    25
100
AcDbCircle
 10
71.5962672179
 20
259.5400995869
 30
0.0
 40
14.72499999999998
100
AcDbArc
 50
95.4249929561
 51
114.5920240815
  0
SPLINE
  5
11F
330
1F
100
AcDbEntity
  8
0
  6
Continuous
 62
     7
370
    25
100
AcDbSpline
210
0.0
220
0.0
230
1.0
 70
     8
 71
     3
 72
     9
 73
     5
 74
     0
 42
0.00000001
 43
0.00000001
 40
0.0
 40
0.0
 40
0.0
 40
0.0
 40
0.5862283062032699
 40
1.0
 40
1.0
 40
1.0
 40
1.0
 10
84.27335496043304
 20
266.5116149207211
 30
0.0
 10
84.14653144523362
 20
266.8192787172808
 30
0.0
 10
83.93019334989191
 20
267.3440977908468
 30
0.0
 10
83.69331542104285
 20
267.8612618883666
 30
0.0
 10
83.59530203919994
 20
268.0752497529683
 30
0.0
  0
SPLINE
  5
120
330
1F
100
AcDbEntity
  8
0
  6
Continuous
 62
     7
370
    25
100
AcDbSpline
210
0.0
220
0.0
230
1.0
 70
     8
 71
     3
 72
     9
 73
     5
 74
     0
 42
0.00000001
 43
0.00000001
 40
0.0
 40
0.0
 40
0.0
 40
0.0
 40
0.5863847898283642
 40
1.0
 40
1.0
 40
1.0
 40
1.0
 10
80.12785325422624
 20
271.5416688469927
 30
0.0
 10
79.8242636002415
 20
271.6798561366965
 30
0.0
 10
79.3065324802484
 20
271.9155158811181
 30
0.0
 10
78.78127258778433
 20
272.1303844325198
 30
0.0
 10
78.56401710696807
 20
272.219257333567
 30
0.0
  0
ARC
  5
121
330
1F
100
AcDbEntity
  8
0
  6
Continuous
 62
     7
370
    25
100
AcDbCircle
 10
71.5962672179
 20
259.5400995869
 30
0.0
 40
14.72500000000002
100
AcDbArc
 50
35.4249929561
 51
54.5920240815
  0
SPLINE
  5
122
330
1F
100
AcDbEntity
  8
0
  6
Continuous
 62
     7
370
    25
100
AcDbSpline
210
0.0
220
0.0
230
1.0
 70
     8
 71
     3
 72
     9
 73
     5
 74
     0
 42
0.00000001
 43
0.00000001
 40
0.0
 40
0.0
 40
0.0
 40
0.0
 40
0.5862283062032722
 40
1.0
 40
1.0
 40
1.0
 40
1.0
 10
83.97232047113393
 20
252.0471772227766
 30
0.0
 10
84.17535337717975
 20
252.3108415070164
 30
0.0
 10
84.52169097960763
 20
252.7606053301717
 30
0.0
 10
84.85112926156052
 20
253.2243296829107
 30
0.0
 10
84.98744149748565
 20
253.4162056937983
 30
0.0
  0
SPLINE
  5
123
330
1F
100
AcDbEntity
  8
0
  6
Continuous
 62
     7
370
    25
100
AcDbSpline
210
0.0
220
0.0
230
1.0
 70
     8
 71
     3
 72
     9
 73
     5
 74
     0
 42
0.00000001
 43
0.00000001
 40
0.0
 40
0.0
 40
0.0
 40
0.0
 40
0.5863847898283638
 40
1.0
 40
1.0
 40
1.0
 40
1.0
 10
86.25572410058743
 20
258.1523139749192
 30
0.0
 10
86.2236029769586
 20
258.484323972448
 30
0.0
 10
86.1688247422806
 20
259.0505221469027
 30
0.0
 10
86.09227642003677
 20
259.6128448330664
 30
0.0
 10
86.0606148696436
 20
259.8454300490884
 30
0.0
  0
ARC
  5
124
330
1F
100
AcDbEntity
  8
0
  6
Continuous
 62
     7
370
    25
100
AcDbCircle
 10
71.5962672179
 20
259.5400995869
 30
0.0
 40
14.72500000000003
100
AcDbArc
 50
335.4249929561
 51
354.5920240815
  0
SPLINE
  5
125
330
1F
100
AcDbEntity
  8
0
  6
Continuous
 62
     7
370
    25
100
AcDbSpline
210
0.0
220
0.0
230
1.0
 70
    24
 71
     3
 72
    12
 73
     8
 74
     0
 42
0.00000001
 43
0.00000001
 40
0.0
 40
0.0
 40
0.0
 40
0.0
 40
0.3013828945620923
 40
0.410844249379568
 40
0.6247185195336457
 40
0.6986171054378634
 40
1.0
 40
1.0
 40
1.0
 40
1.0
 10
58.66180674136291
 20
252.5631513266996
 30
0.0
 10
58.48593622198162
 20
253.2191193756799
 30
0.0
 10
58.24619006243866
 20
254.1133330339962
 30
0.0
 10
57.87988751979518
 20
255.4795811412952
 30
0.0
 10
57.64653285527971
 20
256.3499555766537
 30
0.0
 10
57.30120367952869
 20
257.6379764824331
 30
0.0
 10
57.08221506335526
 20
258.4547679253966
 30
0.0
 10
56.90634860989615
 20
259.1107208091574
 30
0.0
  0
ARC
  5
126
330
1F
100
AcDbEntity
  8
0
  6
Continuous
 62
     7
370
    25
100
AcDbCircle
 10
57.1961154682
 20
258.8509198863
 30
0.0
 40
0.3891803587968853
100
AcDbArc
 50
99.4944197088
 51
138.1210401579
  0
ARC
  5
127
330
1F
100
AcDbEntity
  8
0
  6
Continuous
 62
     7
370
    25
100
AcDbCircle
 10
58.7827418801
 20
252.9330648894
 30
0.0
 40
0.3891803587978828
100
AcDbArc
 50
251.8959768797
 51
290.5225973288
  0
ARC
  5
128
330
1F
100
AcDbEntity
  8
0
  6
Continuous
 62
     7
370
    25
100
AcDbCircle
 10
59.4676446574
 20
267.3334206927
 30
0.0
 40
0.3891803588376762
100
AcDbArc
 50
191.8959768818
 51
230.5225973267
  0
SPLINE
  5
129
330
1F
100
AcDbEntity
  8
0
  6
Continuous
 62
     7
370
    25
100
AcDbSpline
210
0.0
220
0.0
230
1.0
 70
    24
 71
     3
 72
    12
 73
     8
 74
     0
 42
0.00000001
 43
0.00000001
 40
0.0
 40
0.0
 40
0.0
 40
0.0
 40
0.3013828945620946
 40
0.4108442493795587
 40
0.6247185195336505
 40
0.6986171054378637
 40
0.9999999999999999
 40
0.9999999999999999
 40
0.9999999999999999
 40
0.9999999999999999
 10
59.08682254541388
 20
267.2531968137307
 30
0.0
 10
59.56697228021113
 20
267.7334891757819
 30
0.0
 10
60.22151094495256
 20
268.3882222695639
 30
0.0
 10
61.22156524242418
 20
269.3885736306135
 30
0.0
 10
61.85865428199136
 20
270.0258519158547
 30
0.0
 10
62.80144851912631
 20
270.9689262076128
 30
0.0
 10
63.39931635023975
 20
271.5669716338404
 30
0.0
 10
63.87945498453271
 20
272.0472528920898
 30
0.0
  0
ARC
  5
12A
330
1F
100
AcDbEntity
  8
0
  6
Continuous
 62
     7
370
    25
100
AcDbCircle
 10
63.7993442145
 20
271.6664069702
 30
0.0
 40
0.3891803587970553
100
AcDbArc
 50
39.4944197088
 51
78.1210401579
  0
ARC
  5
12B
330
1F
100
AcDbEntity
  8
0
  6
Continuous
 62
     7
370
    25
100
AcDbCircle
 10
72.2811699951
 20
273.9404553902
 30
0.0
 40
0.3891803588376233
100
AcDbArc
 50
131.8959768818
 51
170.5225973267
  0
SPLINE
  5
12C
330
1F
100
AcDbEntity
  8
0
  6
Continuous
 62
     7
370
    25
100
AcDbSpline
210
0.0
220
0.0
230
1.0
 70
    24
 71
     3
 72
    12
 73
     8
 74
     0
 42
0.00000001
 43
0.00000001
 40
0.0
 40
0.0
 40
0.0
 40
0.0
 40
0.3013828945621506
 40
0.4108442493795785
 40
0.6247185195336599
 40
0.6986171054378616
 40
1.0
 40
1.0
 40
1.0
 40
1.0
 10
72.02128302195736
 20
274.2301450739282
 30
0.0
 10
72.67730327613603
 20
274.054469386999
 30
0.0
 10
73.57158810042043
 20
273.8149888224648
 30
0.0
 10
74.93794494053554
 20
273.4490920762154
 30
0.0
 10
75.80838864461803
 20
273.2159959260982
 30
0.0
 10
77.09651205750397
 20
272.8710493120768
 30
0.0
 10
77.91336850479081
 20
272.6523032953409
 30
0.0
 10
78.56937359254287
 20
272.4766316698295
 30
0.0
  0
ARC
  5
12D
330
1F
100
AcDbEntity
  8
0
  6
Continuous
 62
     7
370
    25
100
AcDbCircle
 10
78.1994959643
 20
272.3555866708
 30
0.0
 40
0.3891803587962244
100
AcDbArc
 50
339.4944197087
 51
18.1210401579
  0
ARC
  5
12E
330
1F
100
AcDbEntity
  8
0
  6
Continuous
 62
     7
370
    25
100
AcDbCircle
 10
84.4097925557
 20
266.1471342843
 30
0.0
 40
0.3891803588373033
100
AcDbArc
 50
71.8959768818
 51
110.5225973267
  0
SPLINE
  5
12F
330
1F
100
AcDbEntity
  8
0
  6
Continuous
 62
     7
370
    25
100
AcDbSpline
210
0.0
220
0.0
230
1.0
 70
    24
 71
     3
 72
    12
 73
     8
 74
     0
 42
0.00000001
 43
0.00000001
 40
0.0
 40
0.0
 40
0.0
 40
0.0
 40
0.3013828945621498
 40
0.4108442493795586
 40
0.6247185195336377
 40
0.6986171054378636
 40
1.0
 40
1.0
 40
1.0
 40
1.0
 10
84.53072769444972
 20
266.5170478470946
 30
0.0
 10
84.70659821383103
 20
265.8610797981141
 30
0.0
 10
84.94634437337398
 20
264.9668661397979
 30
0.0
 10
85.31264691601744
 20
263.6006180324989
 30
0.0
 10
85.54600158053289
 20
262.7302435971407
 30
0.0
 10
85.8913307562839
 20
261.4422226913612
 30
0.0
 10
86.11031937245734
 20
260.6254312483977
 30
0.0
 10
86.28618582591645
 20
259.9694783646369
 30
0.0
  0
ARC
  5
130
330
1F
100
AcDbEntity
  8
0
  6
Continuous
 62
     7
370
    25
100
AcDbCircle
 10
85.9964189677
 20
260.2292792875
 30
0.0
 40
0.3891803587960905
100
AcDbArc
 50
279.4944197087
 51
318.121040158
  0
SPLINE
  5
131
330
1F
100
AcDbEntity
  8
0
  6
Continuous
 62
     7
370
    25
100
AcDbSpline
210
0.0
220
0.0
230
1.0
 70
    24
 71
     3
 72
    12
 73
     8
 74
     0
 42
0.00000001
 43
0.00000001
 40
0.0
 40
0.0
 40
0.0
 40
0.0
 40
0.3013828945621527
 40
0.4108442493795539
 40
0.624718519533646
 40
0.6986171054378585
 40
1.0
 40
1.0
 40
1.0
 40
1.0
 10
84.10571189039865
 20
251.8270023600635
 30
0.0
 10
83.62556215560132
 20
251.3467099980123
 30
0.0
 10
82.9710234908599
 20
250.6919769042302
 30
0.0
 10
81.97096919338831
 20
249.6916255431806
 30
0.0
 10
81.33388015382126
 20
249.0543472579396
 30
0.0
 10
80.3910859166863
 20
248.1112729661815
 30
0.0
 10
79.79321808557286
 20
247.5132275399539
 30
0.0
 10
79.31307945127989
 20
247.0329462817045
 30
0.0
  0
ARC
  5
132
330
1F
100
AcDbEntity
  8
0
  6
Continuous
 62
     7
370
    25
100
AcDbCircle
 10
83.7248897785
 20
251.7467784811
 30
0.0
 40
0.3891803587981695
100
AcDbArc
 50
11.8959768797
 51
50.5225973288
  0
LINE
  5
133
330
1F
100
AcDbEntity
  8
0
  6
Continuous
 62
     7
370
    25
100
AcDbLine
 10
78.5693735925
 20
272.4766316698
 30
0.0
 11
80.2571910546
 21
272.0246509723
 31
0.0
  0
LINE
  5
134
330
1F
100
AcDbEntity
  8
0
  6
Continuous
 62
     7
370
    25
100
AcDbLine
 10
80.2571910546
 20
272.0246509723
 30
0.0
 11
80.1278532542
 21
271.541668847
 31
0.0
  0
LINE
  5
135
330
1F
100
AcDbEntity
  8
0
  6
Continuous
 62
     7
370
    25
100
AcDbLine
 10
63.6962672179
 20
246.8517803805
 30
0.0
 11
62.9353433813
 21
247.0555482015
 31
0.0
  0
LINE
  5
136
330
1F
100
AcDbEntity
  8
0
  6
Continuous
 62
     7
370
    25
100
AcDbLine
 10
62.9353433813
 20
247.0555482015
 30
0.0
 11
63.0646811816
 21
247.5385303268
 31
0.0
  0
LINE
  5
137
330
1F
100
AcDbEntity
  8
0
  6
Continuous
 62
     7
370
    25
100
AcDbLine
 10
86.2861858259
 20
259.9694783646
 30
0.0
 11
86.7386677909
 21
258.2817952168
 31
0.0
  0
LINE
  5
138
330
1F
100
AcDbEntity
  8
0
  6
Continuous
 62
     7
370
    25
100
AcDbLine
 10
86.7386677909
 20
258.2817952168
 30
0.0
 11
86.2557241006
 21
258.1523139749
 31
0.0
  0
LINE
  5
139
330
1F
100
AcDbEntity
  8
0
  6
Continuous
 62
     7
370
    25
100
AcDbLine
 10
56.9063486099
 20
259.1107208092
 30
0.0
 11
56.4538666449
 21
260.798403957
 31
0.0
  0
LINE
  5
13A
330
1F
100
AcDbEntity
  8
0
  6
Continuous
 62
     7
370
    25
100
AcDbLine
 10
56.4538666449
 20
260.798403957
 30
0.0
 11
56.9368103352
 21
260.9278851989
 31
0.0
  0
LINE
  5
13B
330
1F
100
AcDbEntity
  8
0
  6
Continuous
 62
     7
370
    25
100
AcDbLine
 10
63.8794549845
 20
272.0472528921
 30
0.0
 11
65.1147904816
 21
273.2829553424
 31
0.0
  0
LINE
  5
13C
330
1F
100
AcDbEntity
  8
0
  6
Continuous
 62
     7
370
    25
100
AcDbLine
 10
65.4683963715
 20
272.929454459
 30
0.0
 11
65.1147904816
 21
273.2829553424
 31
0.0
  0
LINE
  5
13D
330
1F
100
AcDbEntity
  8
0
  6
Continuous
 62
     7
370
    25
100
AcDbLine
 10
85.3410473874
 20
253.0627048104
 30
0.0
 11
84.1057118904
 21
251.8270023601
 31
0.0
  0
LINE
  5
13E
330
1F
100
AcDbEntity
  8
0
  6
Continuous
 62
     7
370
    25
100
AcDbLine
 10
84.9874414975
 20
253.4162056938
 30
0.0
 11
85.3410473874
 21
253.0627048104
 31
0.0
  0
LINE
  5
13F
330
1F
100
AcDbEntity
  8
0
  6
Continuous
 62
     7
370
    25
100
AcDbLine
 10
70.2041277596
 20
274.1991436461
 30
0.0
 11
70.3334655599
 21
274.6821257714
 31
0.0
  0
LINE
  5
140
330
1F
100
AcDbEntity
  8
0
  6
Continuous
 62
     7
370
    25
100
AcDbLine
 10
70.3334655599
 20
274.6821257714
 30
0.0
 11
72.021283022
 21
274.2301450739
 31
0.0
  0
LINE
  5
141
330
1F
100
AcDbEntity
  8
0
  6
Continuous
 62
     7
370
    25
100
AcDbLine
 10
83.5953020392
 20
268.075249753
 30
0.0
 11
84.0782457295
 21
268.2047309949
 31
0.0
  0
LINE
  5
142
330
1F
100
AcDbEntity
  8
0
  6
Continuous
 62
     7
370
    25
100
AcDbLine
 10
84.0782457295
 20
268.2047309949
 30
0.0
 11
84.5307276944
 21
266.5170478471
 31
0.0
  0
LINE
  5
143
330
1F
100
AcDbEntity
  8
0
  6
Continuous
 62
     7
370
    25
100
AcDbLine
 10
59.1142887063
 20
250.8754681789
 30
0.0
 11
58.6618067414
 21
252.5631513267
 31
0.0
  0
LINE
  5
144
330
1F
100
AcDbEntity
  8
0
  6
Continuous
 62
     7
370
    25
100
AcDbLine
 10
59.1142887063
 20
250.8754681789
 30
0.0
 11
59.5972323966
 21
251.0049494208
 31
0.0
  0
LINE
  5
145
330
1F
100
AcDbEntity
  8
0
  6
Continuous
 62
     7
370
    25
100
AcDbLine
 10
58.2050929383
 20
265.66399348
 30
0.0
 11
57.8514870484
 21
266.0174943634
 31
0.0
  0
LINE
  5
146
330
1F
100
AcDbEntity
  8
0
  6
Continuous
 62
     7
370
    25
100
AcDbLine
 10
57.8514870484
 20
266.0174943634
 30
0.0
 11
59.0868225454
 21
267.2531968137
 31
0.0
  0
LINE
  5
147
330
1F
100
AcDbEntity
  8
0
  6
Continuous
 62
     7
370
    25
100
AcDbLine
 10
83.5953020392
 20
268.075249753
 30
0.0
 11
83.0978542658
 21
269.9306479545
 31
0.0
  0
LINE
  5
148
330
1F
100
AcDbEntity
  8
0
  6
Continuous
 62
     7
370
    25
100
AcDbLine
 10
83.0978542658
 20
269.9306479545
 30
0.0
 11
83.5807979561
 21
270.0601291964
 31
0.0
  0
LINE
  5
149
330
1F
100
AcDbEntity
  8
0
  6
Continuous
 62
     7
370
    25
100
AcDbLine
 10
83.5807979561
 20
270.0601291964
 30
0.0
 11
84.0782457295
 21
268.2047309949
 31
0.0
  0
LINE
  5
14A
330
1F
100
AcDbEntity
  8
0
  6
Continuous
 62
     7
370
    25
100
AcDbLine
 10
55.9504301536
 20
262.8879022331
 30
0.0
 11
56.4393625619
 21
262.7832834004
 31
0.0
  0
LINE
  5
14B
330
1F
100
AcDbEntity
  8
0
  6
Continuous
 62
     7
370
    25
100
AcDbLine
 10
55.9564188716
 20
262.6538021584
 30
0.0
 11
56.4393625619
 21
262.7832834004
 31
0.0
  0
ARC
  5
14C
330
1F
100
AcDbEntity
  8
0
  6
Continuous
 62
     7
370
    25
100
AcDbCircle
 10
56.4393625619
 20
262.7832834004
 30
0.0
 40
0.5000000000000003
100
AcDbArc
 50
167.9223187602
 51
195.0085085188
  0
LINE
  5
14D
330
1F
100
AcDbEntity
  8
0
  6
Continuous
 62
     7
370
    25
100
AcDbLine
 10
62.9353433813
 20
247.0555482015
 30
0.0
 11
61.079797518
 21
247.5524448934
 31
0.0
  0
LINE
  5
14E
330
1F
100
AcDbEntity
  8
0
  6
Continuous
 62
     7
370
    25
100
AcDbLine
 10
61.079797518
 20
247.5524448934
 30
0.0
 11
61.2091353183
 21
248.0354270188
 31
0.0
  0
LINE
  5
14F
330
1F
100
AcDbEntity
  8
0
  6
Continuous
 62
     7
370
    25
100
AcDbLine
 10
61.2091353183
 20
248.0354270188
 30
0.0
 11
63.0646811816
 21
247.5385303268
 31
0.0
  0
LINE
  5
150
330
1F
100
AcDbEntity
  8
0
  6
Continuous
 62
     7
370
    25
100
AcDbLine
 10
70.2041277596
 20
274.1991436461
 30
0.0
 11
68.3485818963
 21
274.696040338
 31
0.0
  0
LINE
  5
151
330
1F
100
AcDbEntity
  8
0
  6
Continuous
 62
     7
370
    25
100
AcDbLine
 10
68.3485818963
 20
274.696040338
 30
0.0
 11
68.4779196966
 21
275.1790224634
 31
0.0
  0
LINE
  5
152
330
1F
100
AcDbEntity
  8
0
  6
Continuous
 62
     7
370
    25
100
AcDbLine
 10
68.4779196966
 20
275.1790224634
 30
0.0
 11
70.3334655599
 21
274.6821257714
 31
0.0
  0
LINE
  5
153
330
1F
100
AcDbEntity
  8
0
  6
Continuous
 62
     7
370
    25
100
AcDbLine
 10
59.5972323966
 20
251.0049494208
 30
0.0
 11
60.09468017
 21
249.1495512193
 31
0.0
  0
ARC
  5
154
330
1F
100
AcDbEntity
  8
0
  6
Continuous
 62
     7
370
    25
100
AcDbCircle
 10
71.5962672179
 20
259.5400995869
 30
0.0
 40
15.50000000000004
100
AcDbArc
 50
222.0946982774
 51
227.9223187602
  0
ARC
  5
155
330
1F
100
AcDbEntity
  8
0
  6
Continuous
 62
     7
370
    25
100
AcDbCircle
 10
71.5962672179
 20
259.5400995869
 30
0.0
 40
15.50000000000001
100
AcDbArc
 50
162.0946982774
 51
167.9223187602
  0
ARC
  5
156
330
1F
100
AcDbEntity
  8
0
  6
Continuous
 62
     7
370
    25
100
AcDbCircle
 10
71.5962672179
 20
259.5400995869
 30
0.0
 40
16.00000000000001
100
AcDbArc
 50
162.0946982774
 51
167.9223187602
  0
LINE
  5
157
330
1F
100
AcDbEntity
  8
0
  6
Continuous
 62
     7
370
    25
100
AcDbLine
 10
56.8469948484
 20
264.3054919705
 30
0.0
 11
56.3712118687
 21
264.4592143054
 31
0.0
  0
LINE
  5
158
330
1F
100
AcDbEntity
  8
0
  6
Continuous
 62
     7
370
    25
100
AcDbLine
 10
84.9874414975
 20
253.4162056938
 30
0.0
 11
86.3455395874
 21
254.7747072033
 31
0.0
  0
LINE
  5
159
330
1F
100
AcDbEntity
  8
0
  6
Continuous
 62
     7
370
    25
100
AcDbLine
 10
86.7531718739
 20
256.2969157734
 30
0.0
 11
86.2557241006
 21
258.1523139749
 31
0.0
  0
ARC
  5
15A
330
1F
100
AcDbEntity
  8
0
  6
Continuous
 62
     7
370
    25
100
AcDbCircle
 10
71.5962672179
 20
259.5400995869
 30
0.0
 40
15.50000000000002
100
AcDbArc
 50
342.0946982774
 51
347.9223187602
  0
LINE
  5
15B
330
1F
100
AcDbEntity
  8
0
  6
Continuous
 62
     7
370
    25
100
AcDbLine
 10
80.2571910546
 20
272.0246509723
 30
0.0
 11
82.1127369179
 21
271.5277542804
 31
0.0
  0
LINE
  5
15C
330
1F
100
AcDbEntity
  8
0
  6
Continuous
 62
     7
370
    25
100
AcDbLine
 10
82.1127369179
 20
271.5277542804
 30
0.0
 11
81.9833991175
 21
271.044772155
 31
0.0
  0
LINE
  5
15D
330
1F
100
AcDbEntity
  8
0
  6
Continuous
 62
     7
370
    25
100
AcDbLine
 10
81.9833991175
 20
271.044772155
 30
0.0
 11
80.1278532542
 21
271.541668847
 31
0.0
  0
ARC
  5
15E
330
1F
100
AcDbEntity
  8
0
  6
Continuous
 62
     7
370
    25
100
AcDbCircle
 10
66.8264944615
 20
274.2879559685
 30
0.0
 40
0.5000000000000394
100
AcDbArc
 50
107.9223187602
 51
135.0085085188
  0
LINE
  5
15F
330
1F
100
AcDbEntity
  8
0
  6
Continuous
 62
     7
370
    25
100
AcDbLine
 10
66.8264944615
 20
274.2879559685
 30
0.0
 11
66.6726308242
 21
274.7636932711
 31
0.0
  0
LINE
  5
160
330
1F
100
AcDbEntity
  8
0
  6
Continuous
 62
     7
370
    25
100
AcDbLine
 10
66.8264944615
 20
274.2879559685
 30
0.0
 11
66.4728885715
 21
274.6414568519
 31
0.0
  0
LINE
  5
161
330
1F
100
AcDbEntity
  8
0
  6
Continuous
 62
     7
370
    25
100
AcDbLine
 10
59.6117364797
 20
249.0200699774
 30
0.0
 11
60.09468017
 21
249.1495512193
 31
0.0
  0
LINE
  5
162
330
1F
100
AcDbEntity
  8
0
  6
Continuous
 62
     7
370
    25
100
AcDbLine
 10
59.7236612329
 20
248.8143722397
 30
0.0
 11
60.09468017
 21
249.1495512193
 31
0.0
  0
ARC
  5
163
330
1F
100
AcDbEntity
  8
0
  6
Continuous
 62
     7
370
    25
100
AcDbCircle
 10
60.09468017
 20
249.1495512193
 30
0.0
 40
0.4999999999999977
100
AcDbArc
 50
195.0085085188
 51
222.0946982774
  0
ARC
  5
164
330
1F
100
AcDbEntity
  8
0
  6
Continuous
 62
     7
370
    25
100
AcDbCircle
 10
71.5962672179
 20
259.5400995869
 30
0.0
 40
16.00000000000001
100
AcDbArc
 50
342.0946982774
 51
347.9223187602
  0
LINE
  5
165
330
1F
100
AcDbEntity
  8
0
  6
Continuous
 62
     7
370
    25
100
AcDbLine
 10
86.8213225671
 20
254.6209848684
 30
0.0
 11
86.3455395874
 21
254.7747072033
 31
0.0
  0
LINE
  5
166
330
1F
100
AcDbEntity
  8
0
  6
Continuous
 62
     7
370
    25
100
AcDbLine
 10
86.7531718739
 20
256.2969157734
 30
0.0
 11
87.2421042822
 21
256.1922969407
 31
0.0
  0
ARC
  5
167
330
1F
100
AcDbEntity
  8
0
  6
Continuous
 62
     7
370
    25
100
AcDbCircle
 10
86.7531718739
 20
256.2969157734
 30
0.0
 40
0.4999999999999987
100
AcDbArc
 50
347.9223187602
 51
15.0085085188
  0
LINE
  5
168
330
1F
100
AcDbEntity
  8
0
  6
Continuous
 62
     7
370
    25
100
AcDbLine
 10
87.2361155642
 20
256.4263970154
 30
0.0
 11
86.7531718739
 21
256.2969157734
 31
0.0
  0
LINE
  5
169
330
1F
100
AcDbEntity
  8
0
  6
Continuous
 62
     7
370
    25
100
AcDbLine
 10
66.8264944615
 20
274.2879559685
 30
0.0
 11
65.4683963715
 21
272.929454459
 31
0.0
  0
ARC
  5
16A
330
1F
100
AcDbEntity
  8
0
  6
Continuous
 62
     7
370
    25
100
AcDbCircle
 10
71.5962672179
 20
259.5400995869
 30
0.0
 40
15.50000000000001
100
AcDbArc
 50
102.0946982774
 51
107.9223187602
  0
ARC
  5
16B
330
1F
100
AcDbEntity
  8
0
  6
Continuous
 62
     7
370
    25
100
AcDbCircle
 10
86.3455395874
 20
254.7747072033
 30
0.0
 40
0.5000000000000204
100
AcDbArc
 50
315.0085085188
 51
342.0946982774
  0
LINE
  5
16C
330
1F
100
AcDbEntity
  8
0
  6
Continuous
 62
     7
370
    25
100
AcDbLine
 10
86.3455395874
 20
254.7747072033
 30
0.0
 11
86.6991454774
 21
254.4212063199
 31
0.0
  0
ARC
  5
16D
330
1F
100
AcDbEntity
  8
0
  6
Continuous
 62
     7
370
    25
100
AcDbCircle
 10
71.5962672179
 20
259.5400995869
 30
0.0
 40
15.5
100
AcDbArc
 50
42.0946982774
 51
47.9223187602
  0
LINE
  5
16E
330
1F
100
AcDbEntity
  8
0
  6
Continuous
 62
     7
370
    25
100
AcDbLine
 10
81.9833991175
 20
271.044772155
 30
0.0
 11
82.3184678885
 21
271.415890625
 31
0.0
  0
ARC
  5
16F
330
1F
100
AcDbEntity
  8
0
  6
Continuous
 62
     7
370
    25
100
AcDbCircle
 10
71.5962672179
 20
259.5400995869
 30
0.0
 40
16.00000000000002
100
AcDbArc
 50
42.0946982774
 51
47.9223187602
  0
LINE
  5
170
330
1F
100
AcDbEntity
  8
0
  6
Continuous
 62
     7
370
    25
100
AcDbLine
 10
83.0978542658
 20
269.9306479545
 30
0.0
 11
83.4688732029
 21
270.2658269341
 31
0.0
  0
LINE
  5
171
330
1F
100
AcDbEntity
  8
0
  6
Continuous
 62
     7
370
    25
100
AcDbLine
 10
65.1147904816
 20
273.2829553424
 30
0.0
 11
66.4728885715
 21
274.6414568519
 31
0.0
  0
LINE
  5
172
330
1F
100
AcDbEntity
  8
0
  6
Continuous
 62
     7
370
    25
100
AcDbLine
 10
58.2050929383
 20
265.66399348
 30
0.0
 11
56.8469948484
 21
264.3054919705
 31
0.0
  0
LINE
  5
173
330
1F
100
AcDbEntity
  8
0
  6
Continuous
 62
     7
370
    25
100
AcDbLine
 10
56.8469948484
 20
264.3054919705
 30
0.0
 11
56.4933889584
 21
264.6589928539
 31
0.0
  0
LINE
  5
174
330
1F
100
AcDbEntity
  8
0
  6
Continuous
 62
     7
370
    25
100
AcDbLine
 10
56.4933889584
 20
264.6589928539
 30
0.0
 11
57.8514870484
 21
266.0174943634
 31
0.0
  0
ARC
  5
175
330
1F
100
AcDbEntity
  8
0
  6
Continuous
 62
     7
370
    25
100
AcDbCircle
 10
56.8469948484
 20
264.3054919705
 30
0.0
 40
0.5000000000000103
100
AcDbArc
 50
135.0085085188
 51
162.0946982774
  0
ARC
  5
176
330
1F
100
AcDbEntity
  8
0
  6
Continuous
 62
     7
370
    25
100
AcDbCircle
 10
81.9833991175
 20
271.044772155
 30
0.0
 40
0.5000000000000152
100
AcDbArc
 50
47.9223187602
 51
75.0085085188
  0
ARC
  5
177
330
1F
100
AcDbEntity
  8
0
  6
Continuous
 62
     7
370
    25
100
AcDbCircle
 10
83.0978542658
 20
269.9306479545
 30
0.0
 40
0.5000000000000266
100
AcDbArc
 50
15.0085085188
 51
42.0946982774
  0
LINE
  5
178
330
1F
100
AcDbEntity
  8
0
  6
Continuous
 62
     7
370
    25
100
AcDbLine
 10
86.6991454774
 20
254.4212063199
 30
0.0
 11
85.3410473874
 21
253.0627048104
 31
0.0
  0
ARC
  5
179
330
1F
100
AcDbEntity
  8
0
  6
Continuous
 62
     7
370
    25
100
AcDbCircle
 10
71.5962672179
 20
259.5400995869
 30
0.0
 40
16.00000000000002
100
AcDbArc
 50
102.0946982774
 51
107.9223187602
  0
LINE
  5
17A
330
1F
100
AcDbEntity
  8
0
  6
Continuous
 62
     7
370
    25
100
AcDbLine
 10
68.3485818963
 20
274.696040338
 30
0.0
 11
68.2438178537
 21
275.1849416526
 31
0.0
  0
ARC
  5
17B
330
1F
100
AcDbEntity
  8
0
  6
Continuous
 62
     7
370
    25
100
AcDbCircle
 10
71.5962672179
 20
259.5400995869
 30
0.0
 40
16.00000000000003
100
AcDbArc
 50
222.0946982774
 51
227.9223187602
  0
LINE
  5
17C
330
1F
100
AcDbEntity
  8
0
  6
Continuous
 62
     7
370
    25
100
AcDbLine
 10
60.8740665473
 20
247.6643085488
 30
0.0
 11
61.2091353183
 21
248.0354270188
 31
0.0
  0
LINE
  5
17D
330
1F
100
AcDbEntity
  8
0
  6
Continuous
 62
     7
370
    25
100
AcDbLine
 10
86.7386677909
 20
258.2817952168
 30
0.0
 11
87.2361155642
 21
256.4263970154
 31
0.0
  0
ARC
  5
17E
330
1F
100
AcDbEntity
  8
0
  6
Continuous
 62
     7
370
    25
100
AcDbCircle
 10
61.2091353183
 20
248.0354270188
 30
0.0
 40
0.4999999999999839
100
AcDbArc
 50
227.9223187602
 51
255.0085085188
  0
LINE
  5
17F
330
1F
100
AcDbEntity
  8
0
  6
Continuous
 62
     7
370
    25
100
AcDbLine
 10
56.4393625619
 20
262.7832834004
 30
0.0
 11
56.9368103352
 21
260.9278851989
 31
0.0
  0
LINE
  5
180
330
1F
100
AcDbEntity
  8
0
  6
Continuous
 62
     7
370
    25
100
AcDbLine
 10
56.4538666449
 20
260.798403957
 30
0.0
 11
55.9564188716
 21
262.6538021584
 31
0.0
  0
ARC
  5
181
330
1F
100
AcDbEntity
  8
0
  6
Continuous
 62
     7
370
    25
100
AcDbCircle
 10
68.3485818963
 20
274.696040338
 30
0.0
 40
0.4999999999999998
100
AcDbArc
 50
75.0085085188
 51
102.0946982774
  0
LINE
  5
182
330
1F
100
AcDbEntity
  8
0
  6
Continuous
 62
     7
370
    25
100
AcDbLine
 10
59.6117364797
 20
249.0200699774
 30
0.0
 11
59.1142887063
 21
250.8754681789
 31
0.0
  0
ARC
  5
183
330
1F
100
AcDbEntity
  8
0
  6
Continuous
 62
     7
370
    25
100
AcDbCircle
 10
71.5962672179
 20
99.8748218134
 30
0.0
 40
9.725000000000016
100
AcDbArc
 50
324.3251241983
 51
215.6748758017
  0
ARC
  5
184
330
1F
100
AcDbEntity
  8
0
  6
Continuous
 62
     7
370
    25
100
AcDbCircle
 10
71.5962672179
 20
99.8748218134
 30
0.0
 40
9.925000000000027
100
AcDbArc
 50
322.7469493593
 51
217.2530506407
  0
ARC
  5
185
330
1F
100
AcDbEntity
  8
0
  6
Continuous
 62
     7
370
    25
100
AcDbCircle
 10
71.5962672179
 20
99.8748218134
 30
0.0
 40
14.22500000000002
100
AcDbArc
 50
303.7355336397
 51
236.2644663603
  0
LINE
  5
186
330
1F
100
AcDbEntity
  8
0
  6
Continuous
 62
     7
370
    25
100
AcDbLine
 10
83.7929305099
 20
92.5541640873
 30
0.0
 11
84.0009124966
 21
92.4293295402
 31
0.0
  0
LINE
  5
187
330
1F
100
AcDbEntity
  8
0
  6
Continuous
 62
     7
370
    25
100
AcDbLine
 10
58.9459591263
 20
92.8548300137
 30
0.0
 11
59.1580600087
 21
92.9725304242
 31
0.0
  0
SPLINE
  5
188
330
1F
100
AcDbEntity
  8
0
  6
Continuous
 62
     7
370
    25
100
AcDbSpline
210
0.0
220
0.0
230
1.0
 70
     8
 71
     3
 72
    11
 73
     7
 74
     0
 42
0.00000001
 43
0.00000001
 40
0.0
 40
0.0
 40
0.0
 40
0.0
 40
0.1446702591042578
 40
0.3907520209323644
 40
0.5962314811354635
 40
0.9999999999999999
 40
0.9999999999999999
 40
0.9999999999999999
 40
0.9999999999999999
 10
57.13319433893967
 20
99.51412446221403
 30
0.0
 10
57.18344696674462
 20
99.18446134824302
 30
0.0
 10
57.31917849852958
 20
98.29404662991307
 30
0.0
 10
57.61188124637223
 20
96.94952377206012
 30
0.0
 10
58.11849323848378
 20
95.04183933408176
 30
0.0
 10
58.61614744342549
 20
93.72652905892659
 30
0.0
 10
58.94595912625378
 20
92.85483001372103
 30
0.0
  0
LINE
  5
189
330
1F
100
AcDbEntity
  8
0
  6
Continuous
 62
     7
370
    25
100
AcDbLine
 10
57.1331943389
 20
99.5141244622
 30
0.0
 11
57.3756888694
 21
99.5201720799
 31
0.0
  0
LINE
  5
18A
330
1F
100
AcDbEntity
  8
0
  6
Continuous
 62
     7
370
    25
100
AcDbLine
 10
59.1916219392
 20
107.3203140866
 30
0.0
 11
59.399603926
 21
107.1954795395
 31
0.0
  0
SPLINE
  5
18B
330
1F
100
AcDbEntity
  8
0
  6
Continuous
 62
     7
370
    25
100
AcDbSpline
210
0.0
220
0.0
230
1.0
 70
     8
 71
     3
 72
    11
 73
     7
 74
     0
 42
0.00000001
 43
0.00000001
 40
0.0
 40
0.0
 40
0.0
 40
0.0
 40
0.1446702591042564
 40
0.3907520209323653
 40
0.5962314811354601
 40
1.0
 40
1.0
 40
1.0
 40
1.0
 10
64.05235770920734
 20
112.2198616677841
 30
0.0
 10
63.79198739172022
 20
112.0115100585125
 30
0.0
 10
63.08873139163543
 20
111.4487557447272
 30
0.0
 10
62.07069181468722
 20
110.5230063004115
 30
0.0
 10
60.67189462504947
 20
109.1304252263918
 30
0.0
 10
59.78162961537729
 20
108.0417889050346
 30
0.0
 10
59.19162193918876
 20
107.3203140866376
 30
0.0
  0
LINE
  5
18C
330
1F
100
AcDbEntity
  8
0
  6
Continuous
 62
     7
370
    25
100
AcDbLine
 10
64.0523577092
 20
112.2198616678
 30
0.0
 11
64.1788423649
 21
112.012879053
 31
0.0
  0
LINE
  5
18D
330
1F
100
AcDbEntity
  8
0
  6
Continuous
 62
     7
370
    25
100
AcDbLine
 10
71.8419300308
 20
114.3403058863
 30
0.0
 11
71.8378111352
 21
114.0977709287
 31
0.0
  0
SPLINE
  5
18E
330
1F
100
AcDbEntity
  8
0
  6
Continuous
 62
     7
370
    25
100
AcDbSpline
210
0.0
220
0.0
230
1.0
 70
     8
 71
     3
 72
    11
 73
     7
 74
     0
 42
0.00000001
 43
0.00000001
 40
0.0
 40
0.0
 40
0.0
 40
0.0
 40
0.1446702591042548
 40
0.3907520209323689
 40
0.5962314811354855
 40
1.0
 40
1.0
 40
1.0
 40
1.0
 10
78.5154305881739
 20
112.5805590189825
 30
0.0
 10
78.20480764288183
 20
112.701870523682
 30
0.0
 10
77.36582011101206
 20
113.0295309282266
 30
0.0
 10
76.05507778622118
 20
113.4483043417639
 30
0.0
 10
74.14966860447187
 20
113.9634077057227
 30
0.0
 10
72.761749389858
 20
114.1900816595205
 30
0.0
 10
71.84193003084121
 20
114.3403058863291
 30
0.0
  0
LINE
  5
18F
330
1F
100
AcDbEntity
  8
0
  6
Continuous
 62
     7
370
    25
100
AcDbLine
 10
78.3994207135
 20
112.3675287865
 30
0.0
 11
78.5154305882
 21
112.580559019
 31
0.0
  0
LINE
  5
190
330
1F
100
AcDbEntity
  8
0
  6
Continuous
 62
     7
370
    25
100
AcDbLine
 10
84.0344744271
 20
106.7771132026
 30
0.0
 11
84.2465753096
 21
106.8948136131
 31
0.0
  0
SPLINE
  5
191
330
1F
100
AcDbEntity
  8
0
  6
Continuous
 62
     7
370
    25
100
AcDbSpline
210
0.0
220
0.0
230
1.0
 70
     8
 71
     3
 72
    11
 73
     7
 74
     0
 42
0.00000001
 43
0.00000001
 40
0.0
 40
0.0
 40
0.0
 40
0.0
 40
0.1446702591042564
 40
0.390752020932357
 40
0.5962314811354748
 40
1.0
 40
1.0
 40
1.0
 40
1.0
 10
86.05934009687283
 20
100.235519164611
 30
0.0
 10
86.00908746906786
 20
100.565182278582
 30
0.0
 10
85.87335593728292
 20
101.4555969969119
 30
0.0
 10
85.58065318944024
 20
102.8001198547649
 30
0.0
 10
85.07404119732871
 20
104.7078042927434
 30
0.0
 10
84.57638699238697
 20
106.0231145678985
 30
0.0
 10
84.2465753095587
 20
106.894813613104
 30
0.0
  0
LINE
  5
192
330
1F
100
AcDbEntity
  8
0
  6
Continuous
 62
     7
370
    25
100
AcDbLine
 10
85.8168455664
 20
100.229471547
 30
0.0
 11
86.0593400969
 21
100.2355191646
 31
0.0
  0
SPLINE
  5
193
330
1F
100
AcDbEntity
  8
0
  6
Continuous
 62
     7
370
    25
100
AcDbSpline
210
0.0
220
0.0
230
1.0
 70
     8
 71
     3
 72
     9
 73
     5
 74
     0
 42
0.00000001
 43
0.00000001
 40
0.0
 40
0.0
 40
0.0
 40
0.0
 40
0.5862283062032634
 40
1.0
 40
1.0
 40
1.0
 40
1.0
 10
59.19162193918876
 20
107.3203140866376
 30
0.0
 10
58.98959982035512
 20
107.0558745297951
 30
0.0
 10
58.64498643902245
 20
106.6047882310881
 30
0.0
 10
58.31732569487263
 20
106.1398061952174
 30
0.0
 10
58.18174895377506
 20
105.9474097906501
 30
0.0
  0
SPLINE
  5
194
330
1F
100
AcDbEntity
  8
0
  6
Continuous
 62
     7
370
    25
100
AcDbSpline
210
0.0
220
0.0
230
1.0
 70
     8
 71
     3
 72
     9
 73
     5
 74
     0
 42
0.00000001
 43
0.00000001
 40
0.0
 40
0.0
 40
0.0
 40
0.0
 40
0.5863847898283621
 40
0.9999999999999999
 40
0.9999999999999999
 40
0.9999999999999999
 40
0.9999999999999999
 10
56.93160533561296
 20
101.2064812586216
 30
0.0
 10
56.96499714906354
 20
100.8745966524153
 30
0.0
 10
57.02194237347898
 20
100.3086123159127
 30
0.0
 10
57.10064269069414
 20
99.74658677460413
 30
0.0
 10
57.13319433893967
 20
99.51412446221403
 30
0.0
  0
ARC
  5
195
330
1F
100
AcDbEntity
  8
0
  6
Continuous
 62
     7
370
    25
100
AcDbCircle
 10
71.5962672179
 20
99.8748218134
 30
0.0
 40
14.72500000000002
100
AcDbArc
 50
155.6443201642
 51
174.8113512896
  0
SPLINE
  5
196
330
1F
100
AcDbEntity
  8
0
  6
Continuous
 62
     7
370
    25
100
AcDbSpline
210
0.0
220
0.0
230
1.0
 70
     8
 71
     3
 72
     9
 73
     5
 74
     0
 42
0.00000001
 43
0.00000001
 40
0.0
 40
0.0
 40
0.0
 40
0.0
 40
0.5862283062032703
 40
1.0
 40
1.0
 40
1.0
 40
1.0
 10
58.94595912625378
 20
92.85483001372103
 30
0.0
 10
59.07395944082807
 20
92.5476539482635
 30
0.0
 10
59.29230494414109
 20
92.02366685619181
 30
0.0
 10
59.53116082743364
 20
91.50741330999979
 30
0.0
 10
59.6299926308369
 20
91.29380220576333
 30
0.0
  0
ARC
  5
197
330
1F
100
AcDbEntity
  8
0
  6
Continuous
 62
     7
370
    25
100
AcDbCircle
 10
71.5962672179
 20
99.8748218134
 30
0.0
 40
14.72500000000002
100
AcDbArc
 50
215.6443201642
 51
234.8113512896
  0
SPLINE
  5
198
330
1F
100
AcDbEntity
  8
0
  6
Continuous
 62
     7
370
    25
100
AcDbSpline
210
0.0
220
0.0
230
1.0
 70
     8
 71
     3
 72
     9
 73
     5
 74
     0
 42
0.00000001
 43
0.00000001
 40
0.0
 40
0.0
 40
0.0
 40
0.0
 40
0.5862283062032724
 40
0.9999999999999999
 40
0.9999999999999999
 40
0.9999999999999999
 40
0.9999999999999999
 10
71.84193003084121
 20
114.3403058863291
 30
0.0
 10
71.5119075974333
 20
114.3830423949442
 30
0.0
 10
70.9489487127876
 20
114.4559431883089
 30
0.0
 10
70.38243208534523
 20
114.5072146986301
 30
0.0
 10
70.1480235408444
 20
114.5284293982992
 30
0.0
  0
SPLINE
  5
199
330
1F
100
AcDbEntity
  8
0
  6
Continuous
 62
     7
370
    25
100
AcDbSpline
210
0.0
220
0.0
230
1.0
 70
     8
 71
     3
 72
     9
 73
     5
 74
     0
 42
0.00000001
 43
0.00000001
 40
0.0
 40
0.0
 40
0.0
 40
0.0
 40
0.5863847898283626
 40
1.0
 40
1.0
 40
1.0
 40
1.0
 10
65.41718718550024
 20
113.2406212639924
 30
0.0
 10
65.14646259212586
 20
113.0457608021626
 30
0.0
 10
64.68477839077812
 20
112.7134526229433
 30
0.0
 10
64.23740015303689
 20
112.3642833782948
 30
0.0
 10
64.05235770920734
 20
112.2198616677841
 30
0.0
  0
ARC
  5
19A
330
1F
100
AcDbEntity
  8
0
  6
Continuous
 62
     7
370
    25
100
AcDbCircle
 10
71.5962672179
 20
99.8748218134
 30
0.0
 40
14.72500000000001
100
AcDbArc
 50
95.6443201642
 51
114.8113512896
  0
SPLINE
  5
19B
330
1F
100
AcDbEntity
  8
0
  6
Continuous
 62
     7
370
    25
100
AcDbSpline
210
0.0
220
0.0
230
1.0
 70
     8
 71
     3
 72
     9
 73
     5
 74
     0
 42
0.00000001
 43
0.00000001
 40
0.0
 40
0.0
 40
0.0
 40
0.0
 40
0.5862283062032938
 40
1.0
 40
1.0
 40
1.0
 40
1.0
 10
84.2465753095587
 20
106.894813613104
 30
0.0
 10
84.1185749949844
 20
107.2019896785616
 30
0.0
 10
83.9002294916714
 20
107.7259767706332
 30
0.0
 10
83.66137360837885
 20
108.2422303168252
 30
0.0
 10
83.5625418049756
 20
108.4558414210616
 30
0.0
  0
SPLINE
  5
19C
330
1F
100
AcDbEntity
  8
0
  6
Continuous
 62
     7
370
    25
100
AcDbSpline
210
0.0
220
0.0
230
1.0
 70
     8
 71
     3
 72
     9
 73
     5
 74
     0
 42
0.00000001
 43
0.00000001
 40
0.0
 40
0.0
 40
0.0
 40
0.0
 40
0.5863847898283572
 40
0.9999999999999999
 40
0.9999999999999999
 40
0.9999999999999999
 40
0.9999999999999999
 10
80.08184906779351
 20
111.9089618187832
 30
0.0
 10
79.77773266096858
 20
112.0459859631598
 30
0.0
 10
79.25910323520539
 20
112.2796621204432
 30
0.0
 10
78.73302468024897
 20
112.4925184171031
 30
0.0
 10
78.5154305881739
 20
112.5805590189825
 30
0.0
  0
ARC
  5
19D
330
1F
100
AcDbEntity
  8
0
  6
Continuous
 62
     7
370
    25
100
AcDbCircle
 10
71.5962672179
 20
99.8748218134
 30
0.0
 40
14.72500000000001
100
AcDbArc
 50
35.6443201642
 51
54.8113512896
  0
SPLINE
  5
19E
330
1F
100
AcDbEntity
  8
0
  6
Continuous
 62
     7
370
    25
100
AcDbSpline
210
0.0
220
0.0
230
1.0
 70
     8
 71
     3
 72
     9
 73
     5
 74
     0
 42
0.00000001
 43
0.00000001
 40
0.0
 40
0.0
 40
0.0
 40
0.0
 40
0.5862283062032945
 40
0.9999999999999999
 40
0.9999999999999999
 40
0.9999999999999999
 40
0.9999999999999999
 10
84.00091249662381
 20
92.42932954018742
 30
0.0
 10
84.20293461545742
 20
92.69376909702997
 30
0.0
 10
84.54754799679007
 20
93.144855395737
 30
0.0
 10
84.87520874093988
 20
93.60983743160762
 30
0.0
 10
85.01078548203745
 20
93.80223383617486
 30
0.0
  0
SPLINE
  5
19F
330
1F
100
AcDbEntity
  8
0
  6
Continuous
 62
     7
370
    25
100
AcDbSpline
210
0.0
220
0.0
230
1.0
 70
     8
 71
     3
 72
     9
 73
     5
 74
     0
 42
0.00000001
 43
0.00000001
 40
0.0
 40
0.0
 40
0.0
 40
0.0
 40
0.5863847898283523
 40
0.9999999999999999
 40
0.9999999999999999
 40
0.9999999999999999
 40
0.9999999999999999
 10
86.26092910019953
 20
98.54316236820334
 30
0.0
 10
86.22753728674896
 20
98.87504697440968
 30
0.0
 10
86.17059206233351
 20
99.44103131091245
 30
0.0
 10
86.09189174511836
 20
100.0030568522208
 30
0.0
 10
86.05934009687283
 20
100.235519164611
 30
0.0
  0
ARC
  5
1A0
330
1F
100
AcDbEntity
  8
0
  6
Continuous
 62
     7
370
    25
100
AcDbCircle
 10
71.5962672179
 20
99.8748218134
 30
0.0
 40
14.725
100
AcDbArc
 50
335.6443201642
 51
354.8113512896
  0
SPLINE
  5
1A1
330
1F
100
AcDbEntity
  8
0
  6
Continuous
 62
     7
370
    25
100
AcDbSpline
210
0.0
220
0.0
230
1.0
 70
    24
 71
     3
 72
    12
 73
     8
 74
     0
 42
0.00000001
 43
0.00000001
 40
0.0
 40
0.0
 40
0.0
 40
0.0
 40
0.3013828945620923
 40
0.4108442493795676
 40
0.624718519533644
 40
0.6986171054378627
 40
1.0
 40
1.0
 40
1.0
 40
1.0
 10
84.13514576190319
 20
92.20966690932671
 30
0.0
 10
83.65683809101388
 20
91.72754006622525
 30
0.0
 10
83.00481052221464
 20
91.07030621342957
 30
0.0
 10
82.00859286942669
 20
90.0661340012473
 30
0.0
 10
81.37394798142495
 20
89.42642162579261
 30
0.0
 10
80.43477071439537
 20
88.4797452531898
 30
0.0
 10
79.83919656517658
 20
87.87941558701098
 30
0.0
 10
79.36089995220519
 20
87.39729989012221
 30
0.0
  0
ARC
  5
1A2
330
1F
100
AcDbEntity
  8
0
  6
Continuous
 62
     7
370
    25
100
AcDbCircle
 10
83.754633535
 20
92.1279858415
 30
0.0
 40
0.3891803587985688
100
AcDbArc
 50
12.1153040879
 51
50.7419245368
  0
SPLINE
  5
1A3
330
1F
100
AcDbEntity
  8
0
  6
Continuous
 62
     7
370
    25
100
AcDbSpline
210
0.0
220
0.0
230
1.0
 70
    24
 71
     3
 72
    12
 73
     8
 74
     0
 42
0.00000001
 43
0.00000001
 40
0.0
 40
0.0
 40
0.0
 40
0.0
 40
0.3013828945620999
 40
0.4108442493795589
 40
0.624718519533652
 40
0.6986171054378619
 40
0.9999999999999999
 40
0.9999999999999999
 40
0.9999999999999999
 40
0.9999999999999999
 10
84.50392536078589
 20
106.9012317154386
 30
0.0
 10
84.6823056193135
 20
106.2459417000728
 30
0.0
 10
84.92547304766208
 20
105.352652335127
 30
0.0
 10
85.29700286679231
 20
103.9878164340229
 30
0.0
 10
85.53368759105044
 20
103.1183416509043
 30
0.0
 10
85.88394474537233
 20
101.8316520926982
 30
0.0
 10
86.10605841231916
 20
101.0157049165481
 30
0.0
 10
86.28443454690236
 20
100.3604300507265
 30
0.0
  0
ARC
  5
1A4
330
1F
100
AcDbEntity
  8
0
  6
Continuous
 62
     7
370
    25
100
AcDbCircle
 10
85.9936753009
 20
100.6191198505
 30
0.0
 40
0.3891803587969077
100
AcDbArc
 50
279.7137469168
 51
318.340367366
  0
ARC
  5
1A5
330
1F
100
AcDbEntity
  8
0
  6
Continuous
 62
     7
370
    25
100
AcDbCircle
 10
84.3844071271
 20
106.5308579266
 30
0.0
 40
0.3891803587987015
100
AcDbArc
 50
72.1153040879
 51
110.7419245368
  0
ARC
  5
1A6
330
1F
100
AcDbEntity
  8
0
  6
Continuous
 62
     7
370
    25
100
AcDbCircle
 10
58.8081273088
 20
93.2187857003
 30
0.0
 40
0.3891803588380826
100
AcDbArc
 50
252.1153040899
 51
290.7419245348
  0
SPLINE
  5
1A7
330
1F
100
AcDbEntity
  8
0
  6
Continuous
 62
     7
370
    25
100
AcDbSpline
210
0.0
220
0.0
230
1.0
 70
    24
 71
     3
 72
    12
 73
     8
 74
     0
 42
0.00000001
 43
0.00000001
 40
0.0
 40
0.0
 40
0.0
 40
0.0
 40
0.3013828945621521
 40
0.4108442493795776
 40
0.624718519533659
 40
0.6986171054378605
 40
1.0
 40
1.0
 40
1.0
 40
1.0
 10
58.6886090750266
 20
92.84841191138649
 30
0.0
 10
58.51022881649894
 20
93.50370192675241
 30
0.0
 10
58.26706138815035
 20
94.39699129169821
 30
0.0
 10
57.89553156902011
 20
95.76182719280233
 30
0.0
 10
57.65884684476201
 20
96.63130197592082
 30
0.0
 10
57.30858969044015
 20
97.91799153412681
 30
0.0
 10
57.08647602349333
 20
98.73393871027692
 30
0.0
 10
56.90809988891013
 20
99.38921357609854
 30
0.0
  0
ARC
  5
1A8
330
1F
100
AcDbEntity
  8
0
  6
Continuous
 62
     7
370
    25
100
AcDbCircle
 10
57.1988591349
 20
99.1305237763
 30
0.0
 40
0.3891803587966828
100
AcDbArc
 50
99.7137469168
 51
138.340367366
  0
ARC
  5
1A9
330
1F
100
AcDbEntity
  8
0
  6
Continuous
 62
     7
370
    25
100
AcDbCircle
 10
59.4379009009
 20
107.6216577853
 30
0.0
 40
0.3891803588379812
100
AcDbArc
 50
192.1153040899
 51
230.7419245348
  0
SPLINE
  5
1AA
330
1F
100
AcDbEntity
  8
0
  6
Continuous
 62
     7
370
    25
100
AcDbSpline
210
0.0
220
0.0
230
1.0
 70
    24
 71
     3
 72
    12
 73
     8
 74
     0
 42
0.00000001
 43
0.00000001
 40
0.0
 40
0.0
 40
0.0
 40
0.0
 40
0.3013828945621495
 40
0.4108442493795577
 40
0.6247185195336368
 40
0.6986171054378629
 40
1.0
 40
1.0
 40
1.0
 40
1.0
 10
59.05738867390938
 20
107.5399767174983
 30
0.0
 10
59.53569634479877
 20
108.0221035605999
 30
0.0
 10
60.18772391359798
 20
108.6793374133956
 30
0.0
 10
61.18394156638593
 20
109.6835096255778
 30
0.0
 10
61.81858645438756
 20
110.3232220010323
 30
0.0
 10
62.75776372141713
 20
111.2698983736352
 30
0.0
 10
63.35333787063593
 20
111.870228039814
 30
0.0
 10
63.83163448360732
 20
112.3523437367027
 30
0.0
  0
ARC
  5
1AB
330
1F
100
AcDbEntity
  8
0
  6
Continuous
 62
     7
370
    25
100
AcDbCircle
 10
63.7529821683
 20
111.9711939434
 30
0.0
 40
0.3891803587972565
100
AcDbArc
 50
39.7137469169
 51
78.340367366
  0
SPLINE
  5
1AC
330
1F
100
AcDbEntity
  8
0
  6
Continuous
 62
     7
370
    25
100
AcDbSpline
210
0.0
220
0.0
230
1.0
 70
    24
 71
     3
 72
    12
 73
     8
 74
     0
 42
0.00000001
 43
0.00000001
 40
0.0
 40
0.0
 40
0.0
 40
0.0
 40
0.3013828945621533
 40
0.4108442493795545
 40
0.6247185195336463
 40
0.698617105437859
 40
1.0
 40
1.0
 40
1.0
 40
1.0
 10
71.96504681678901
 20
114.5663866195243
 30
0.0
 10
72.62173474620606
 20
114.3932234472599
 30
0.0
 10
73.51692974335386
 20
114.1571679351099
 30
0.0
 10
74.88467721527203
 20
113.7965042461881
 30
0.0
 10
75.75600682753175
 20
113.566741838524
 30
0.0
 10
77.04544124888321
 20
113.2267286529211
 30
0.0
 10
77.86312906504882
 20
113.0111111429496
 30
0.0
 10
78.51980181260342
 20
112.8379519740167
 30
0.0
  0
ARC
  5
1AD
330
1F
100
AcDbEntity
  8
0
  6
Continuous
 62
     7
370
    25
100
AcDbCircle
 10
78.1503902513
 20
112.7154919805
 30
0.0
 40
0.3891803587961899
100
AcDbArc
 50
339.7137469168
 51
18.340367366
  0
ARC
  5
1AE
330
1F
100
AcDbEntity
  8
0
  6
Continuous
 62
     7
370
    25
100
AcDbCircle
 10
72.22604081
 20
114.2776938985
 30
0.0
 40
0.3891803587980519
100
AcDbArc
 50
132.1153040878
 51
170.7419245369
  0
LINE
  5
1AF
330
1F
100
AcDbEntity
  8
0
  6
Continuous
 62
     7
370
    25
100
AcDbLine
 10
63.6962672179
 20
87.169177499
 30
0.0
 11
62.9831973576
 21
87.3572081198
 31
0.0
  0
LINE
  5
1B0
330
1F
100
AcDbEntity
  8
0
  6
Continuous
 62
     7
370
    25
100
AcDbLine
 10
63.110685368
 20
87.840681808
 30
0.0
 11
62.9831973576
 21
87.3572081198
 31
0.0
  0
LINE
  5
1B1
330
1F
100
AcDbEntity
  8
0
  6
Continuous
 62
     7
370
    25
100
AcDbLine
 10
86.2844345469
 20
100.3604300507
 30
0.0
 11
86.7433736015
 21
98.6744913567
 31
0.0
  0
LINE
  5
1B2
330
1F
100
AcDbEntity
  8
0
  6
Continuous
 62
     7
370
    25
100
AcDbLine
 10
86.7433736015
 20
98.6744913567
 30
0.0
 11
86.2609291002
 21
98.5431623682
 31
0.0
  0
LINE
  5
1B3
330
1F
100
AcDbEntity
  8
0
  6
Continuous
 62
     7
370
    25
100
AcDbLine
 10
63.8316344836
 20
112.3523437367
 30
0.0
 11
65.0622306946
 21
113.5927659638
 31
0.0
  0
LINE
  5
1B4
330
1F
100
AcDbEntity
  8
0
  6
Continuous
 62
     7
370
    25
100
AcDbLine
 10
65.0622306946
 20
113.5927659638
 30
0.0
 11
65.4171871855
 21
113.240621264
 31
0.0
  0
LINE
  5
1B5
330
1F
100
AcDbEntity
  8
0
  6
Continuous
 62
     7
370
    25
100
AcDbLine
 10
56.9080998889
 20
99.3892135761
 30
0.0
 11
56.4491608344
 21
101.0751522702
 31
0.0
  0
LINE
  5
1B6
330
1F
100
AcDbEntity
  8
0
  6
Continuous
 62
     7
370
    25
100
AcDbLine
 10
56.4491608344
 20
101.0751522702
 30
0.0
 11
56.9316053356
 21
101.2064812586
 31
0.0
  0
LINE
  5
1B7
330
1F
100
AcDbEntity
  8
0
  6
Continuous
 62
     7
370
    25
100
AcDbLine
 10
78.5198018126
 20
112.837951974
 30
0.0
 11
80.2093370782
 21
112.392435507
 31
0.0
  0
LINE
  5
1B8
330
1F
100
AcDbEntity
  8
0
  6
Continuous
 62
     7
370
    25
100
AcDbLine
 10
80.2093370782
 20
112.392435507
 30
0.0
 11
80.0818490678
 21
111.9089618188
 31
0.0
  0
LINE
  5
1B9
330
1F
100
AcDbEntity
  8
0
  6
Continuous
 62
     7
370
    25
100
AcDbLine
 10
59.6299926308
 20
91.2938022058
 30
0.0
 11
59.1475481296
 21
91.1624732173
 31
0.0
  0
LINE
  5
1BA
330
1F
100
AcDbEntity
  8
0
  6
Continuous
 62
     7
370
    25
100
AcDbLine
 10
59.1475481296
 20
91.1624732173
 30
0.0
 11
58.688609075
 21
92.8484119114
 31
0.0
  0
LINE
  5
1BB
330
1F
100
AcDbEntity
  8
0
  6
Continuous
 62
     7
370
    25
100
AcDbLine
 10
85.3657419729
 20
93.4500891364
 30
0.0
 11
84.1351457619
 21
92.2096669093
 31
0.0
  0
LINE
  5
1BC
330
1F
100
AcDbEntity
  8
0
  6
Continuous
 62
     7
370
    25
100
AcDbLine
 10
85.3657419729
 20
93.4500891364
 30
0.0
 11
85.010785482
 21
93.8022338362
 31
0.0
  0
LINE
  5
1BD
330
1F
100
AcDbEntity
  8
0
  6
Continuous
 62
     7
370
    25
100
AcDbLine
 10
58.1817489538
 20
105.9474097907
 30
0.0
 11
57.8267924629
 21
106.2995544904
 31
0.0
  0
LINE
  5
1BE
330
1F
100
AcDbEntity
  8
0
  6
Continuous
 62
     7
370
    25
100
AcDbLine
 10
57.8267924629
 20
106.2995544904
 30
0.0
 11
59.0573886739
 21
107.5399767175
 31
0.0
  0
LINE
  5
1BF
330
1F
100
AcDbEntity
  8
0
  6
Continuous
 62
     7
370
    25
100
AcDbLine
 10
70.2755115512
 20
115.0119030865
 30
0.0
 11
71.9650468168
 21
114.5663866195
 31
0.0
  0
LINE
  5
1C0
330
1F
100
AcDbEntity
  8
0
  6
Continuous
 62
     7
370
    25
100
AcDbLine
 10
70.1480235408
 20
114.5284293983
 30
0.0
 11
70.2755115512
 21
115.0119030865
 31
0.0
  0
LINE
  5
1C1
330
1F
100
AcDbEntity
  8
0
  6
Continuous
 62
     7
370
    25
100
AcDbLine
 10
84.0449863062
 20
108.5871704095
 30
0.0
 11
84.5039253608
 21
106.9012317154
 31
0.0
  0
LINE
  5
1C2
330
1F
100
AcDbEntity
  8
0
  6
Continuous
 62
     7
370
    25
100
AcDbLine
 10
83.562541805
 20
108.4558414211
 30
0.0
 11
84.0449863062
 21
108.5871704095
 31
0.0
  0
LINE
  5
1C3
330
1F
100
AcDbEntity
  8
0
  6
Continuous
 62
     7
370
    25
100
AcDbLine
 10
59.6299926308
 20
91.2938022058
 30
0.0
 11
60.134539173
 21
89.4403218147
 31
0.0
  0
LINE
  5
1C4
330
1F
100
AcDbEntity
  8
0
  6
Continuous
 62
     7
370
    25
100
AcDbLine
 10
60.134539173
 20
89.4403218147
 30
0.0
 11
59.6520946717
 21
89.3089928262
 31
0.0
  0
LINE
  5
1C5
330
1F
100
AcDbEntity
  8
0
  6
Continuous
 62
     7
370
    25
100
AcDbLine
 10
59.6520946717
 20
89.3089928262
 30
0.0
 11
59.1475481296
 21
91.1624732173
 31
0.0
  0
ARC
  5
1C6
330
1F
100
AcDbEntity
  8
0
  6
Continuous
 62
     7
370
    25
100
AcDbCircle
 10
61.2532509929
 20
88.3304718807
 30
0.0
 40
0.4999999999999978
100
AcDbArc
 50
228.1416459683
 51
255.2278357269
  0
LINE
  5
1C7
330
1F
100
AcDbEntity
  8
0
  6
Continuous
 62
     7
370
    25
100
AcDbLine
 10
61.2532509929
 20
88.3304718807
 30
0.0
 11
60.9196053082
 21
87.9580734958
 31
0.0
  0
LINE
  5
1C8
330
1F
100
AcDbEntity
  8
0
  6
Continuous
 62
     7
370
    25
100
AcDbLine
 10
61.2532509929
 20
88.3304718807
 30
0.0
 11
61.1257629825
 21
87.8469981925
 31
0.0
  0
ARC
  5
1C9
330
1F
100
AcDbEntity
  8
0
  6
Continuous
 62
     7
370
    25
100
AcDbCircle
 10
71.5962672179
 20
99.8748218134
 30
0.0
 40
15.50000000000002
100
AcDbArc
 50
162.3140254855
 51
168.1416459683
  0
LINE
  5
1CA
330
1F
100
AcDbEntity
  8
0
  6
Continuous
 62
     7
370
    25
100
AcDbLine
 10
56.4270587935
 20
103.0599616497
 30
0.0
 11
55.9377294895
 21
103.162708096
 31
0.0
  0
ARC
  5
1CB
330
1F
100
AcDbEntity
  8
0
  6
Continuous
 62
     7
370
    25
100
AcDbCircle
 10
71.5962672179
 20
99.8748218134
 30
0.0
 40
16.00000000000002
100
AcDbArc
 50
162.3140254855
 51
168.1416459683
  0
LINE
  5
1CC
330
1F
100
AcDbEntity
  8
0
  6
Continuous
 62
     7
370
    25
100
AcDbLine
 10
56.8288611207
 20
104.5837194722
 30
0.0
 11
56.3524931821
 21
104.7356193967
 31
0.0
  0
ARC
  5
1CD
330
1F
100
AcDbEntity
  8
0
  6
Continuous
 62
     7
370
    25
100
AcDbCircle
 10
60.134539173
 20
89.4403218147
 30
0.0
 40
0.5000000000000129
100
AcDbArc
 50
195.2278357269
 51
222.3140254855
  0
LINE
  5
1CE
330
1F
100
AcDbEntity
  8
0
  6
Continuous
 62
     7
370
    25
100
AcDbLine
 10
60.134539173
 20
89.4403218147
 30
0.0
 11
59.7648060102
 21
89.1037250405
 31
0.0
  0
LINE
  5
1CF
330
1F
100
AcDbEntity
  8
0
  6
Continuous
 62
     7
370
    25
100
AcDbLine
 10
61.2532509929
 20
88.3304718807
 30
0.0
 11
63.110685368
 21
87.840681808
 31
0.0
  0
ARC
  5
1D0
330
1F
100
AcDbEntity
  8
0
  6
Continuous
 62
     7
370
    25
100
AcDbCircle
 10
71.5962672179
 20
99.8748218134
 30
0.0
 40
15.50000000000001
100
AcDbArc
 50
222.3140254855
 51
228.1416459683
  0
ARC
  5
1D1
330
1F
100
AcDbEntity
  8
0
  6
Continuous
 62
     7
370
    25
100
AcDbCircle
 10
71.5962672179
 20
99.8748218134
 30
0.0
 40
15.99999999999999
100
AcDbArc
 50
222.3140254855
 51
228.1416459683
  0
LINE
  5
1D2
330
1F
100
AcDbEntity
  8
0
  6
Continuous
 62
     7
370
    25
100
AcDbLine
 10
58.1817489538
 20
105.9474097907
 30
0.0
 11
56.8288611207
 21
104.5837194722
 31
0.0
  0
LINE
  5
1D3
330
1F
100
AcDbEntity
  8
0
  6
Continuous
 62
     7
370
    25
100
AcDbLine
 10
56.8288611207
 20
104.5837194722
 30
0.0
 11
56.4739046299
 21
104.935864172
 31
0.0
  0
LINE
  5
1D4
330
1F
100
AcDbEntity
  8
0
  6
Continuous
 62
     7
370
    25
100
AcDbLine
 10
56.4739046299
 20
104.935864172
 30
0.0
 11
57.8267924629
 21
106.2995544904
 31
0.0
  0
LINE
  5
1D5
330
1F
100
AcDbEntity
  8
0
  6
Continuous
 62
     7
370
    25
100
AcDbLine
 10
56.4491608344
 20
101.0751522702
 30
0.0
 11
55.9446142922
 21
102.9286326613
 31
0.0
  0
LINE
  5
1D6
330
1F
100
AcDbEntity
  8
0
  6
Continuous
 62
     7
370
    25
100
AcDbLine
 10
55.9446142922
 20
102.9286326613
 30
0.0
 11
56.4270587935
 21
103.0599616497
 31
0.0
  0
LINE
  5
1D7
330
1F
100
AcDbEntity
  8
0
  6
Continuous
 62
     7
370
    25
100
AcDbLine
 10
56.4270587935
 20
103.0599616497
 30
0.0
 11
56.9316053356
 21
101.2064812586
 31
0.0
  0
ARC
  5
1D8
330
1F
100
AcDbEntity
  8
0
  6
Continuous
 62
     7
370
    25
100
AcDbCircle
 10
56.4270587935
 20
103.0599616497
 30
0.0
 40
0.500000000000003
100
AcDbArc
 50
168.1416459683
 51
195.2278357269
  0
ARC
  5
1D9
330
1F
100
AcDbEntity
  8
0
  6
Continuous
 62
     7
370
    25
100
AcDbCircle
 10
56.8288611207
 20
104.5837194722
 30
0.0
 40
0.5000000000000199
100
AcDbArc
 50
135.2278357269
 51
162.3140254855
  0
LINE
  5
1DA
330
1F
100
AcDbEntity
  8
0
  6
Continuous
 62
     7
370
    25
100
AcDbLine
 10
62.9831973576
 20
87.3572081198
 30
0.0
 11
61.1257629825
 21
87.8469981925
 31
0.0
  0
LINE
  5
1DB
330
1F
100
AcDbEntity
  8
0
  6
Continuous
 62
     7
370
    25
100
AcDbLine
 10
70.1480235408
 20
114.5284293983
 30
0.0
 11
68.2905891657
 21
115.018219471
 31
0.0
  0
LINE
  5
1DC
330
1F
100
AcDbEntity
  8
0
  6
Continuous
 62
     7
370
    25
100
AcDbLine
 10
68.2905891657
 20
115.018219471
 30
0.0
 11
68.4180771761
 21
115.5016931592
 31
0.0
  0
LINE
  5
1DD
330
1F
100
AcDbEntity
  8
0
  6
Continuous
 62
     7
370
    25
100
AcDbLine
 10
68.4180771761
 20
115.5016931592
 30
0.0
 11
70.2755115512
 21
115.0119030865
 31
0.0
  0
LINE
  5
1DE
330
1F
100
AcDbEntity
  8
0
  6
Continuous
 62
     7
370
    25
100
AcDbLine
 10
87.2548049463
 20
96.5869355308
 30
0.0
 11
86.7654756423
 21
96.6896819771
 31
0.0
  0
LINE
  5
1DF
330
1F
100
AcDbEntity
  8
0
  6
Continuous
 62
     7
370
    25
100
AcDbLine
 10
87.2479201436
 20
96.8210109656
 30
0.0
 11
86.7654756423
 21
96.6896819771
 31
0.0
  0
ARC
  5
1E0
330
1F
100
AcDbEntity
  8
0
  6
Continuous
 62
     7
370
    25
100
AcDbCircle
 10
86.7654756423
 20
96.6896819771
 30
0.0
 40
0.4999999999999992
100
AcDbArc
 50
348.1416459683
 51
15.2278357269
  0
LINE
  5
1E1
330
1F
100
AcDbEntity
  8
0
  6
Continuous
 62
     7
370
    25
100
AcDbLine
 10
83.562541805
 20
108.4558414211
 30
0.0
 11
83.0579952629
 21
110.3093218121
 31
0.0
  0
LINE
  5
1E2
330
1F
100
AcDbEntity
  8
0
  6
Continuous
 62
     7
370
    25
100
AcDbLine
 10
83.0579952629
 20
110.3093218121
 30
0.0
 11
83.5404397641
 21
110.4406508006
 31
0.0
  0
LINE
  5
1E3
330
1F
100
AcDbEntity
  8
0
  6
Continuous
 62
     7
370
    25
100
AcDbLine
 10
83.5404397641
 20
110.4406508006
 30
0.0
 11
84.0449863062
 21
108.5871704095
 31
0.0
  0
LINE
  5
1E4
330
1F
100
AcDbEntity
  8
0
  6
Continuous
 62
     7
370
    25
100
AcDbLine
 10
86.718629806
 20
94.8137794548
 30
0.0
 11
85.3657419729
 21
93.4500891364
 31
0.0
  0
LINE
  5
1E5
330
1F
100
AcDbEntity
  8
0
  6
Continuous
 62
     7
370
    25
100
AcDbLine
 10
85.010785482
 20
93.8022338362
 30
0.0
 11
86.3636733151
 21
95.1659241546
 31
0.0
  0
LINE
  5
1E6
330
1F
100
AcDbEntity
  8
0
  6
Continuous
 62
     7
370
    25
100
AcDbLine
 10
86.718629806
 20
94.8137794548
 30
0.0
 11
86.3636733151
 21
95.1659241546
 31
0.0
  0
LINE
  5
1E7
330
1F
100
AcDbEntity
  8
0
  6
Continuous
 62
     7
370
    25
100
AcDbLine
 10
81.9392834429
 20
111.4191717461
 30
0.0
 11
80.0818490678
 21
111.9089618188
 31
0.0
  0
ARC
  5
1E8
330
1F
100
AcDbEntity
  8
0
  6
Continuous
 62
     7
370
    25
100
AcDbCircle
 10
71.5962672179
 20
99.8748218134
 30
0.0
 40
15.50000000000002
100
AcDbArc
 50
42.3140254855
 51
48.1416459683
  0
LINE
  5
1E9
330
1F
100
AcDbEntity
  8
0
  6
Continuous
 62
     7
370
    25
100
AcDbLine
 10
65.0622306946
 20
113.5927659638
 30
0.0
 11
66.4151185277
 21
114.9564562822
 31
0.0
  0
LINE
  5
1EA
330
1F
100
AcDbEntity
  8
0
  6
Continuous
 62
     7
370
    25
100
AcDbLine
 10
66.4151185277
 20
114.9564562822
 30
0.0
 11
66.7700750185
 21
114.6043115824
 31
0.0
  0
LINE
  5
1EB
330
1F
100
AcDbEntity
  8
0
  6
Continuous
 62
     7
370
    25
100
AcDbLine
 10
66.7700750185
 20
114.6043115824
 30
0.0
 11
65.4171871855
 21
113.240621264
 31
0.0
  0
ARC
  5
1EC
330
1F
100
AcDbEntity
  8
0
  6
Continuous
 62
     7
370
    25
100
AcDbCircle
 10
66.7700750185
 20
114.6043115824
 30
0.0
 40
0.5000000000000034
100
AcDbArc
 50
108.1416459683
 51
135.2278357269
  0
LINE
  5
1ED
330
1F
100
AcDbEntity
  8
0
  6
Continuous
 62
     7
370
    25
100
AcDbLine
 10
66.7700750185
 20
114.6043115824
 30
0.0
 11
66.6143913992
 21
115.0794564137
 31
0.0
  0
LINE
  5
1EE
330
1F
100
AcDbEntity
  8
0
  6
Continuous
 62
     7
370
    25
100
AcDbLine
 10
86.7433736015
 20
98.6744913567
 30
0.0
 11
87.2479201436
 21
96.8210109656
 31
0.0
  0
LINE
  5
1EF
330
1F
100
AcDbEntity
  8
0
  6
Continuous
 62
     7
370
    25
100
AcDbLine
 10
86.7654756423
 20
96.6896819771
 30
0.0
 11
86.2609291002
 21
98.5431623682
 31
0.0
  0
ARC
  5
1F0
330
1F
100
AcDbEntity
  8
0
  6
Continuous
 62
     7
370
    25
100
AcDbCircle
 10
68.2905891657
 20
115.018219471
 30
0.0
 40
0.5000000000000225
100
AcDbArc
 50
75.2278357269
 51
102.3140254855
  0
LINE
  5
1F1
330
1F
100
AcDbEntity
  8
0
  6
Continuous
 62
     7
370
    25
100
AcDbLine
 10
68.1839543898
 20
115.5067161696
 30
0.0
 11
68.2905891657
 21
115.018219471
 31
0.0
  0
ARC
  5
1F2
330
1F
100
AcDbEntity
  8
0
  6
Continuous
 62
     7
370
    25
100
AcDbCircle
 10
71.5962672179
 20
99.8748218134
 30
0.0
 40
16.00000000000002
100
AcDbArc
 50
342.3140254855
 51
348.1416459683
  0
LINE
  5
1F3
330
1F
100
AcDbEntity
  8
0
  6
Continuous
 62
     7
370
    25
100
AcDbLine
 10
86.8400412537
 20
95.0140242301
 30
0.0
 11
86.3636733151
 21
95.1659241546
 31
0.0
  0
ARC
  5
1F4
330
1F
100
AcDbEntity
  8
0
  6
Continuous
 62
     7
370
    25
100
AcDbCircle
 10
71.5962672179
 20
99.8748218134
 30
0.0
 40
15.5
100
AcDbArc
 50
342.3140254855
 51
348.1416459683
  0
ARC
  5
1F5
330
1F
100
AcDbEntity
  8
0
  6
Continuous
 62
     7
370
    25
100
AcDbCircle
 10
71.5962672179
 20
99.8748218134
 30
0.0
 40
15.50000000000002
100
AcDbArc
 50
102.3140254855
 51
108.1416459683
  0
ARC
  5
1F6
330
1F
100
AcDbEntity
  8
0
  6
Continuous
 62
     7
370
    25
100
AcDbCircle
 10
86.3636733151
 20
95.1659241546
 30
0.0
 40
0.5000000000000199
100
AcDbArc
 50
315.2278357269
 51
342.3140254855
  0
LINE
  5
1F7
330
1F
100
AcDbEntity
  8
0
  6
Continuous
 62
     7
370
    25
100
AcDbLine
 10
80.2093370782
 20
112.392435507
 30
0.0
 11
82.0667714533
 21
111.9026454343
 31
0.0
  0
LINE
  5
1F8
330
1F
100
AcDbEntity
  8
0
  6
Continuous
 62
     7
370
    25
100
AcDbLine
 10
82.0667714533
 20
111.9026454343
 30
0.0
 11
81.9392834429
 21
111.4191717461
 31
0.0
  0
ARC
  5
1F9
330
1F
100
AcDbEntity
  8
0
  6
Continuous
 62
     7
370
    25
100
AcDbCircle
 10
71.5962672179
 20
99.8748218134
 30
0.0
 40
16.00000000000002
100
AcDbArc
 50
102.3140254855
 51
108.1416459683
  0
ARC
  5
1FA
330
1F
100
AcDbEntity
  8
0
  6
Continuous
 62
     7
370
    25
100
AcDbCircle
 10
71.5962672179
 20
99.8748218134
 30
0.0
 40
16.00000000000002
100
AcDbArc
 50
42.3140254855
 51
48.1416459683
  0
LINE
  5
1FB
330
1F
100
AcDbEntity
  8
0
  6
Continuous
 62
     7
370
    25
100
AcDbLine
 10
83.4277284256
 20
110.6459185863
 30
0.0
 11
83.0579952629
 21
110.3093218121
 31
0.0
  0
LINE
  5
1FC
330
1F
100
AcDbEntity
  8
0
  6
Continuous
 62
     7
370
    25
100
AcDbLine
 10
82.2729291276
 20
111.791570131
 30
0.0
 11
81.9392834429
 21
111.4191717461
 31
0.0
  0
ARC
  5
1FD
330
1F
100
AcDbEntity
  8
0
  6
Continuous
 62
     7
370
    25
100
AcDbCircle
 10
83.0579952629
 20
110.3093218121
 30
0.0
 40
0.4999999999999992
100
AcDbArc
 50
15.2278357269
 51
42.3140254855
  0
ARC
  5
1FE
330
1F
100
AcDbEntity
  8
0
  6
Continuous
 62
     7
370
    25
100
AcDbCircle
 10
81.9392834429
 20
111.4191717461
 30
0.0
 40
0.4999999999999931
100
AcDbArc
 50
48.1416459683
 51
75.2278357269
  0
LINE
  5
1FF
330
1F
100
AcDbEntity
  8
0
  6
Continuous
 62
     7
370
    25
100
AcDbLine
 10
71.6939794035
 20
114.6378648531
 30
0.0
 11
71.6939794035
 21
115.3746843137
 31
0.0
  0
LINE
  5
200
330
1F
100
AcDbEntity
  8
0
  6
Continuous
 62
     7
370
    25
100
AcDbLine
 10
71.6939791026
 20
115.3746843056
 30
0.0
 11
71.6845321407
 21
114.9337120812
 31
0.0
  0
SPLINE
  5
201
330
1F
100
AcDbEntity
  8
0
  6
Continuous
 62
     7
370
    25
100
AcDbSpline
210
0.0
220
0.0
230
1.0
 70
     8
 71
     3
 72
    10
 73
     6
 74
     0
 42
0.00000001
 43
0.00000001
 40
0.0
 40
0.0
 40
0.0
 40
0.0
 40
0.1185507756573678
 40
0.594698968475288
 40
1.0
 40
1.0
 40
1.0
 40
1.0
 10
78.11077750762603
 20
112.9458082981706
 30
0.0
 10
78.22688168896313
 20
112.9509582477183
 30
0.0
 10
78.80930754399427
 20
112.9767924918785
 30
0.0
 10
79.3488836145651
 20
113.0237207011398
 30
0.0
 10
79.42644836779988
 20
113.061452743081
 30
0.0
 10
79.4621135809827
 20
113.0788023930642
 30
0.0
  0
SPLINE
  5
202
330
1F
100
AcDbEntity
  8
0
  6
Continuous
 62
     7
370
    25
100
AcDbSpline
210
0.0
220
0.0
230
1.0
 70
     8
 71
     3
 72
    10
 73
     6
 74
     0
 42
0.00000001
 43
0.00000001
 40
0.0
 40
0.0
 40
0.0
 40
0.0
 40
0.1104342948561241
 40
0.5615510453397669
 40
1.0
 40
1.0
 40
1.0
 40
1.0
 10
63.76075493911546
 20
113.7947525865059
 30
0.0
 10
63.75276179713568
 20
113.7997214215013
 30
0.0
 10
63.71211720172138
 20
113.8249876170197
 30
0.0
 10
64.20933612784519
 20
113.8731760186153
 30
0.0
 10
65.008326978722
 20
113.9148449537342
 30
0.0
 10
65.40213341856601
 20
113.9353827295713
 30
0.0
  0
LINE
  5
203
330
1F
100
AcDbEntity
  8
0
  6
Continuous
 62
     7
370
    25
100
AcDbLine
 10
63.7894019928
 20
112.1730224896
 30
0.0
 11
63.6962672179
 21
112.1970440356
 31
0.0
  0
SPLINE
  5
204
330
1F
100
AcDbEntity
  8
0
  6
Continuous
 62
     7
370
    25
100
AcDbSpline
210
0.0
220
0.0
230
1.0
 70
     8
 71
     3
 72
    10
 73
     6
 74
     0
 42
0.00000001
 43
0.00000001
 40
0.0
 40
0.0
 40
0.0
 40
0.0
 40
0.2004880980523283
 40
0.8241881115114907
 40
1.0
 40
1.0
 40
1.0
 40
1.0
 10
78.65674600470201
 20
112.801840923905
 30
0.0
 10
78.77461195734874
 20
112.8086750561026
 30
0.0
 10
79.25914803638341
 20
112.8367695443265
 30
0.0
 10
79.5286195314778
 20
112.8710231294066
 30
0.0
 10
79.45220746534045
 20
112.897064879047
 30
0.0
 10
79.43540452642459
 20
112.9027914344275
 30
0.0
  0
SPLINE
  5
205
330
1F
100
AcDbEntity
  8
0
  6
Continuous
 62
     7
370
    25
100
AcDbSpline
210
0.0
220
0.0
230
1.0
 70
     8
 71
     3
 72
    11
 73
     7
 74
     0
 42
0.00000001
 43
0.00000001
 40
0.0
 40
0.0
 40
0.0
 40
0.0
 40
0.1490643572678534
 40
0.5280439074052601
 40
0.9131337864710661
 40
1.0
 40
1.0
 40
1.0
 40
1.0
 10
63.78940199280358
 20
113.5841336006926
 30
0.0
 10
63.74943208456248
 20
113.5921481712097
 30
0.0
 10
63.60784312987802
 20
113.6205388959247
 30
0.0
 10
63.94400923283394
 20
113.6691533137237
 30
0.0
 10
64.50853267598666
 20
113.7185335223634
 30
0.0
 10
65.10648995460586
 20
113.7436854931458
 30
0.0
 10
65.21654740584066
 20
113.7483148569764
 30
0.0
  0
SPLINE
  5
206
330
1F
100
AcDbEntity
  8
0
  6
Continuous
 62
     7
370
    25
100
AcDbSpline
210
0.0
220
0.0
230
1.0
 70
     8
 71
     3
 72
    13
 73
     9
 74
     0
 42
0.00000001
 43
0.00000001
 40
0.0
 40
0.0
 40
0.0
 40
0.0
 40
0.0526339931071406
 40
0.2751597105632418
 40
0.4930358497599182
 40
0.7158008053949576
 40
0.9375048739253214
 40
1.0
 40
1.0
 40
1.0
 40
1.0
 10
73.99739311039153
 20
114.0304737215175
 30
0.0
 10
74.16789160439781
 20
114.0354799857582
 30
0.0
 10
75.05922272888121
 20
114.0616517074565
 30
0.0
 10
76.46373406304903
 20
114.1100513051537
 30
0.0
 10
78.03940482914335
 20
114.1687819035752
 30
0.0
 10
79.06158466129934
 20
114.2336002233072
 30
0.0
 10
79.53334963495954
 20
114.2821160371708
 30
0.0
 10
79.45306011390086
 20
114.3081727088224
 30
0.0
 10
79.43540452642459
 20
114.3139025455386
 30
0.0
  0
SPLINE
  5
207
330
1F
100
AcDbEntity
  8
0
  6
Continuous
 62
     7
370
    25
100
AcDbSpline
210
0.0
220
0.0
230
1.0
 70
     8
 71
     3
 72
    11
 73
     7
 74
     0
 42
0.00000001
 43
0.00000001
 40
0.0
 40
0.0
 40
0.0
 40
0.0
 40
0.28454423010218
 40
0.5736761980914625
 40
0.8567532726949507
 40
0.9999999999999999
 40
0.9999999999999999
 40
0.9999999999999999
 40
0.9999999999999999
 10
63.69626721790629
 20
115.0192662578569
 30
0.0
 10
63.75404962484603
 20
115.0395345292062
 30
0.0
 10
63.8705460708216
 20
115.0803978594708
 30
0.0
 10
64.81941409156855
 20
115.1460913513846
 30
0.0
 10
65.95412933648994
 20
115.195595526156
 30
0.0
 10
66.88269717318023
 20
115.2269053532555
 30
0.0
 10
67.1947001697081
 20
115.2374255968929
 30
0.0
  0
SPLINE
  5
208
330
1F
100
AcDbEntity
  8
0
  6
Continuous
 62
     7
370
    25
100
AcDbSpline
210
0.0
220
0.0
230
1.0
 70
     8
 71
     3
 72
     9
 73
     5
 74
     0
 42
0.00000001
 43
0.00000001
 40
0.0
 40
0.0
 40
0.0
 40
0.0
 40
0.4191038007461359
 40
1.0
 40
1.0
 40
1.0
 40
1.0
 10
69.17659872418353
 20
115.3016773044601
 30
0.0
 10
69.51498025077035
 20
115.3122465450931
 30
0.0
 10
70.32237337386871
 20
115.3374652155376
 30
0.0
 10
71.1899861427133
 20
115.3610082476782
 30
0.0
 10
71.69397910255925
 20
115.3746843055677
 30
0.0
  0
SPLINE
  5
209
330
1F
100
AcDbEntity
  8
0
  6
Continuous
 62
     7
370
    25
100
AcDbSpline
210
0.0
220
0.0
230
1.0
 70
     8
 71
     3
 72
    12
 73
     8
 74
     0
 42
0.00000001
 43
0.00000001
 40
0.0
 40
0.0
 40
0.0
 40
0.0
 40
0.1770437119962831
 40
0.189410192466292
 40
0.5456463488492478
 40
0.9001853400428856
 40
1.0
 40
1.0
 40
1.0
 40
1.0
 10
76.60397839310257
 20
113.3431387544616
 30
0.0
 10
76.84327071813915
 20
113.3531232389216
 30
0.0
 10
77.09927758124559
 20
113.3638051383346
 30
0.0
 10
77.70980497983585
 20
113.3957006040409
 30
0.0
 10
78.3396283640043
 20
113.4398015905786
 30
0.0
 10
78.76596350777032
 20
113.4883613850356
 30
0.0
 10
78.69346917204383
 20
113.5144088841792
 30
0.0
 10
78.67754325739337
 20
113.5201311277733
 30
0.0
  0
SPLINE
  5
20A
330
1F
100
AcDbEntity
  8
0
  6
Continuous
 62
     7
370
    25
100
AcDbSpline
210
0.0
220
0.0
230
1.0
 70
     8
 71
     3
 72
     9
 73
     5
 74
     0
 42
0.00000001
 43
0.00000001
 40
0.0
 40
0.0
 40
0.0
 40
0.0
 40
0.6293438784973707
 40
1.0
 40
1.0
 40
1.0
 40
1.0
 10
64.56056809542699
 20
114.2378059128367
 30
0.0
 10
64.61401393362475
 20
114.263362589514
 30
0.0
 10
64.69893704168037
 20
114.3039710351516
 30
0.0
 10
65.51898030404638
 20
114.3445155808352
 30
0.0
 10
65.82293435913932
 20
114.3595436648863
 30
0.0
  0
SPLINE
  5
20B
330
1F
100
AcDbEntity
  8
0
  6
Continuous
 62
     7
370
    25
100
AcDbSpline
210
0.0
220
0.0
230
1.0
 70
     8
 71
     3
 72
    12
 73
     8
 74
     0
 42
0.00000001
 43
0.00000001
 40
0.0
 40
0.0
 40
0.0
 40
0.0
 40
0.0884730709538845
 40
0.380120417409704
 40
0.6783143479118207
 40
0.9750876371232502
 40
1.0
 40
1.0
 40
1.0
 40
1.0
 10
75.44225783223581
 20
113.6494748520095
 30
0.0
 10
75.61692786353329
 20
113.6558457914711
 30
0.0
 10
76.36738949541642
 20
113.6832182353271
 30
0.0
 10
77.40425112526793
 20
113.7277087965106
 30
0.0
 10
78.33343977714027
 20
113.7926205505258
 30
0.0
 10
78.75322508726737
 20
113.8370321845574
 30
0.0
 10
78.70431334055353
 20
113.8591111778239
 30
0.0
 10
78.70052545888967
 20
113.8608210454809
 30
0.0
  0
SPLINE
  5
20C
330
1F
100
AcDbEntity
  8
0
  6
Continuous
 62
     7
370
    25
100
AcDbSpline
210
0.0
220
0.0
230
1.0
 70
     8
 71
     3
 72
    10
 73
     6
 74
     0
 42
0.00000001
 43
0.00000001
 40
0.0
 40
0.0
 40
0.0
 40
0.0
 40
0.5587686579618324
 40
0.9354575156651506
 40
1.0
 40
1.0
 40
1.0
 40
1.0
 10
64.48887474233648
 20
114.5784132946106
 30
0.0
 10
64.5929885022892
 20
114.6077302564972
 30
0.0
 10
64.76728961571813
 20
114.6568109841698
 30
0.0
 10
65.58535311343377
 20
114.7118673497866
 30
0.0
 10
66.11993062456861
 20
114.7344320255784
 30
0.0
 10
66.19812760957608
 20
114.7377327435806
 30
0.0
  0
LINE
  5
20D
330
1F
100
AcDbEntity
  8
0
  6
Continuous
 62
     7
370
    25
100
AcDbLine
 10
70.1876259347
 20
114.8866200444
 30
0.0
 11
71.6845290484
 21
114.9337119885
 31
0.0
  0
LWPOLYLINE
  5
20E
330
1F
100
AcDbEntity
  8
0
  6
Continuous
 62
     7
370
    25
100
AcDbPolyline
 90
       17
 70
   128
 43
0.0
 10
63.6962672179
 20
259.5400995869
 10
63.8689011721
 20
261.1826019444
 10
64.3792581025
 20
262.7533190672
 10
65.2050329623
 20
264.18360308
 10
66.3101354277
 20
265.4109437082
 10
67.6462672179
 20
266.3817002768
 10
69.1550329623
 20
267.0534460656
 10
70.7704923581
 20
267.3968225603
 10
72.4220420777
 20
267.3968225603
 10
74.0375014735
 20
267.0534460656
 10
75.5462672179
 20
266.3817002768
 10
76.8823990081
 20
265.4109437082
 10
77.9875014735
 20
264.18360308
 10
78.8132763333
 20
262.7533190672
 10
79.3236332637
 20
261.1826019444
 10
79.4962672179
 20
259.5400995869
 10
79.4962672179
 20
259.5400995869
  0
SPLINE
  5
20F
330
1F
100
AcDbEntity
  8
0
  6
Continuous
 62
     7
370
    25
100
AcDbSpline
210
0.0
220
0.0
230
1.0
 70
     8
 71
     3
 72
    10
 73
     6
 74
     0
 42
0.00000001
 43
0.00000001
 40
0.0
 40
0.0
 40
0.0
 40
0.0
 40
0.0884728695923183
 40
0.7476106965772477
 40
0.9999999999999999
 40
0.9999999999999999
 40
0.9999999999999999
 40
0.9999999999999999
 10
79.45885239807531
 20
259.3729085108111
 30
0.0
 10
79.47224789408389
 20
259.4705847210352
 30
0.0
 10
79.58544209868145
 20
260.2959652009616
 30
0.0
 10
79.3756011750525
 20
261.4496844341247
 30
0.0
 10
78.92189281235903
 20
262.3569260304232
 30
0.0
 10
78.79626721790628
 20
262.608128728497
 30
0.0
  0
ARC
  5
210
330
1F
100
AcDbEntity
  8
0
  6
Continuous
 62
     7
370
    25
100
AcDbCircle
 10
71.5962672179
 20
259.5400995869
 30
0.0
 40
14.99999999999999
100
AcDbArc
 50
58.4711185652
 51
90.0
  0
ARC
  5
211
330
1F
100
AcDbEntity
  8
0
  6
Continuous
 62
     7
370
    25
100
AcDbCircle
 10
71.5962672179
 20
259.5400995869
 30
0.0
 40
15.00000000000001
100
AcDbArc
 50
359.307044506
 51
30.4485750127
  0
ARC
  5
212
330
1F
100
AcDbEntity
  8
0
  6
Continuous
 62
     7
370
    25
100
AcDbCircle
 10
71.5962672179
 20
259.5400995869
 30
0.0
 40
15.00000000000002
100
AcDbArc
 50
302.3234139719
 51
332.1190894223
  0
ARC
  5
213
330
1F
100
AcDbEntity
  8
0
  6
Continuous
 62
     7
370
    25
100
AcDbCircle
 10
71.5962672179
 20
259.5400995869
 30
0.0
 40
15.00000000000001
100
AcDbArc
 50
177.6410635233
 51
212.4310672033
  0
ARC
  5
214
330
1F
100
AcDbEntity
  8
0
  6
Continuous
 62
     7
370
    25
100
AcDbCircle
 10
71.5962672179
 20
259.5400995869
 30
0.0
 40
15.0
100
AcDbArc
 50
119.5361792996
 51
150.5925491844
  0
LINE
  5
215
330
1F
100
AcDbEntity
  8
0
  6
Continuous
 62
     7
370
    25
100
AcDbLine
 10
70.9316992066
 20
274.5253706675
 30
0.0
 11
71.5962672179
 21
274.5400995869
 31
0.0
  0
SPLINE
  5
216
330
1F
100
AcDbEntity
  8
0
  6
Continuous
 62
     7
370
    25
100
AcDbSpline
210
0.0
220
0.0
230
1.0
 70
     8
 71
     3
 72
    46
 73
    42
 74
     0
 42
0.00000001
 43
0.00000001
 40
0.0
 40
0.0
 40
0.0
 40
0.0
 40
0.1250000000000001
 40
0.1250000000000001
 40
0.1562500000000002
 40
0.1562500000000002
 40
0.1875000000000003
 40
0.1875000000000003
 40
0.2500000000000005
 40
0.2500000000000005
 40
0.2812500000000007
 40
0.2812500000000007
 40
0.3125000000000008
 40
0.3125000000000008
 40
0.375000000000001
 40
0.375000000000001
 40
0.4062500000000011
 40
0.4062500000000011
 40
0.4375000000000012
 40
0.4375000000000012
 40
0.4687500000000012
 40
0.4687500000000012
 40
0.5000000000000012
 40
0.5000000000000012
 40
0.5312500000000012
 40
0.5312500000000012
 40
0.5625000000000013
 40
0.5625000000000013
 40
0.6250000000000013
 40
0.6250000000000013
 40
0.6562500000000012
 40
0.6562500000000012
 40
0.6875000000000012
 40
0.6875000000000012
 40
0.7500000000000009
 40
0.7500000000000009
 40
0.8125000000000006
 40
0.8125000000000006
 40
0.8750000000000003
 40
0.8750000000000003
 40
1.0
 40
1.0
 40
1.0
 40
1.0
 10
88.09046925061624
 20
271.5421920761441
 30
0.0
 10
89.33878273259938
 20
270.8423081017176
 30
0.0
 10
90.53948396838219
 20
270.0425549493112
 30
0.0
 10
91.94858706011814
 20
268.8642677036651
 30
0.0
 10
92.2257183427043
 20
268.6194700467342
 30
0.0
 10
92.7692231374718
 20
268.1091083316441
 30
0.0
 10
93.03588445624233
 20
267.8431257625145
 30
0.0
 10
93.80718406052033
 20
267.0202837894402
 30
0.0
 10
94.28675795114715
 20
266.4360129183517
 30
0.0
 10
94.93961673476312
 20
265.4915501642926
 30
0.0
 10
95.14607972095925
 20
265.1653116336295
 30
0.0
 10
95.53288057391569
 20
264.4861705157402
 30
0.0
 10
95.7142530357757
 20
264.1307789901157
 30
0.0
 10
96.20130350754215
 20
263.0399200493444
 30
0.0
 10
96.45200846633284
 20
262.2799550795286
 30
0.0
 10
96.69145603768884
 20
261.0797135484364
 30
0.0
 10
96.74794934561736
 20
260.6692373443684
 30
0.0
 10
96.80833223236718
 20
259.8463587656244
 30
0.0
 10
96.81237275018688
 20
259.4315779818163
 30
0.0
 10
96.76927910488851
 20
258.6153745348614
 30
0.0
 10
96.72243498711838
 20
258.2113883006757
 30
0.0
 10
96.58037485757544
 20
257.4112878388202
 30
0.0
 10
96.48451449290269
 20
257.0132395866847
 30
0.0
 10
96.24909406364296
 20
256.2351188158115
 30
0.0
 10
96.10934711496662
 20
255.8541620510699
 30
0.0
 10
95.79517228365968
 20
255.1183876085864
 30
0.0
 10
95.6214680093264
 20
254.764593036472
 30
0.0
 10
95.05803395726447
 20
253.7391684061895
 30
0.0
 10
94.62637370390853
 20
253.1031644810091
 30
0.0
 10
93.91356894172523
 20
252.2049602233728
 30
0.0
 10
93.66431496614172
 20
251.9143926112843
 30
0.0
 10
93.15383423938844
 20
251.3585497656952
 30
0.0
 10
92.89176336440951
 20
251.0921167300685
 30
0.0
 10
92.08786876253306
 20
250.3227600630166
 30
0.0
 10
91.52849643462399
 20
249.8495497524702
 30
0.0
 10
90.37295615644237
 20
248.9666416316642
 30
0.0
 10
89.77670505383992
 20
248.5570728907807
 30
0.0
 10
88.55380802766287
 20
247.7920307445411
 30
0.0
 10
87.9319818111999
 20
247.4396861026305
 30
0.0
 10
86.05039816637559
 20
246.4629890351455
 30
0.0
 10
84.77020394153324
 20
245.9157347001621
 30
0.0
 10
83.48136548832989
 20
245.4499540438111
 30
0.0
  0
LINE
  5
217
330
1F
100
AcDbEntity
  8
0
  6
Continuous
 62
     7
370
    25
100
AcDbLine
 10
46.7962672179
 20
327.5400995869
 30
0.0
 11
96.3962672179
 21
327.5400995869
 31
0.0
  0
LWPOLYLINE
  5
218
330
1F
100
AcDbEntity
  8
0
  6
Continuous
 62
     7
370
    25
100
AcDbPolyline
 90
        9
 70
   128
 43
0.0
 10
81.83239733
 20
271.5923813058
 10
81.2717979355
 20
272.245835478
 10
80.8386783693
 20
273.0255622797
 10
80.540894815
 20
273.9174185564
 10
80.3838486499
 20
274.9052272822
 10
80.3703884722
 20
275.9710709874
 10
80.5007584304
 20
277.0956167572
 10
80.7725937958
 20
278.2584669033
 10
81.1809638549
 20
279.4385289494
  0
ARC
  5
219
330
1F
100
AcDbEntity
  8
0
  6
Continuous
 62
     7
370
    25
100
AcDbCircle
 10
51.8525071689
 20
272.9305046863
 30
0.0
 40
7.748014529181536
100
AcDbArc
 50
327.7818157888
 51
13.7464277327
  0
SPLINE
  5
21A
330
1F
100
AcDbEntity
  8
0
  6
Continuous
 62
     7
370
    25
100
AcDbSpline
210
0.0
220
0.0
230
1.0
 70
     8
 71
     3
 72
    42
 73
    38
 74
     0
 42
0.00000001
 43
0.00000001
 40
0.0
 40
0.0
 40
0.0
 40
0.0
 40
0.0625000000000004
 40
0.0625000000000004
 40
0.1250000000000007
 40
0.1250000000000007
 40
0.187500000000001
 40
0.187500000000001
 40
0.2500000000000013
 40
0.2500000000000013
 40
0.3750000000000018
 40
0.3750000000000018
 40
0.4062500000000018
 40
0.4062500000000018
 40
0.4375000000000018
 40
0.4375000000000018
 40
0.5000000000000018
 40
0.5000000000000018
 40
0.5312500000000018
 40
0.5312500000000018
 40
0.5625000000000017
 40
0.5625000000000017
 40
0.5937500000000017
 40
0.5937500000000017
 40
0.6250000000000016
 40
0.6250000000000016
 40
0.6875000000000014
 40
0.6875000000000014
 40
0.7187500000000013
 40
0.7187500000000013
 40
0.7500000000000013
 40
0.7500000000000013
 40
0.812500000000001
 40
0.812500000000001
 40
0.8750000000000007
 40
0.8750000000000007
 40
1.0
 40
1.0
 40
1.0
 40
1.0
 10
59.37859444333481
 20
274.771629201864
 30
0.0
 10
59.57241823861015
 20
275.2038026174348
 30
0.0
 10
59.78579858978976
 20
275.6569117480121
 30
0.0
 10
60.2463850756743
 20
276.5706930806028
 30
0.0
 10
60.49437844615164
 20
277.0334225941289
 30
0.0
 10
61.02935078820957
 20
277.9596321914046
 30
0.0
 10
61.31631111324522
 20
278.4232246505201
 30
0.0
 10
61.93524899530691
 20
279.3436850367837
 30
0.0
 10
62.26784778775842
 20
279.8014650149196
 30
0.0
 10
63.3431467501631
 20
281.1489387350673
 30
0.0
 10
64.1478440117138
 20
281.9987893722715
 30
0.0
 10
65.31989887068941
 20
282.9511009524107
 30
0.0
 10
65.56285155316657
 20
283.1359253704137
 30
0.0
 10
66.06855556156933
 20
283.4922259393256
 30
0.0
 10
66.33068091841993
 20
283.6630927694043
 30
0.0
 10
67.13478673388008
 20
284.1425699416803
 30
0.0
 10
67.6986414020687
 20
284.4216099542097
 30
0.0
 10
68.59629018862614
 20
284.7632127689824
 30
0.0
 10
68.90420327092387
 20
284.8641789278461
 30
0.0
 10
69.54008751371441
 20
285.0362235482775
 30
0.0
 10
69.86634457396185
 20
285.1065853206628
 30
0.0
 10
70.52451797410211
 20
285.2107888085129
 30
0.0
 10
70.85977331727494
 20
285.2450393257513
 30
0.0
 10
71.52523717981342
 20
285.2752846843159
 30
0.0
 10
71.85671197131592
 20
285.2716649642938
 30
0.0
 10
72.84744389544525
 20
285.205762226585
 30
0.0
 10
73.50865270783866
 20
285.0861436550766
 30
0.0
 10
74.45865336020191
 20
284.8100027748
 30
0.0
 10
74.76772327040237
 20
284.7023719259722
 30
0.0
 10
75.36392212214426
 20
284.4631280370675
 30
0.0
 10
75.65249796279359
 20
284.3310964742374
 30
0.0
 10
76.49319800303378
 20
283.9026177399077
 30
0.0
 10
77.02047815963614
 20
283.5740135088724
 30
0.0
 10
78.02099481100734
 20
282.8483855802014
 30
0.0
 10
78.4840495647098
 20
282.4586287673417
 30
0.0
 10
79.77790367310577
 20
281.2397993594354
 30
0.0
 10
80.52072438890289
 20
280.3573496342191
 30
0.0
 10
81.18096385494732
 20
279.4385289494368
 30
0.0
  0
SPLINE
  5
21B
330
1F
100
AcDbEntity
  8
0
  6
Continuous
 62
     7
370
    25
100
AcDbSpline
210
0.0
220
0.0
230
1.0
 70
     8
 71
     3
 72
     8
 73
     4
 74
     0
 42
0.00000001
 43
0.00000001
 40
0.0
 40
0.0
 40
0.0
 40
0.0
 40
0.000098823642892
 40
0.000098823642892
 40
0.000098823642892
 40
0.000098823642892
 10
55.64883586867221
 20
317.8222573509697
 30
0.0
 10
55.65154167054272
 20
317.8100164802685
 30
0.0
 10
55.65422539042168
 20
317.7979408202129
 30
0.0
 10
55.65689594107448
 20
317.7860124439655
 30
0.0
  0
SPLINE
  5
21C
330
1F
100
AcDbEntity
  8
0
  6
Continuous
 62
     7
370
    25
100
AcDbSpline
210
0.0
220
0.0
230
1.0
 70
     8
 71
     3
 72
     8
 73
     4
 74
     0
 42
0.00000001
 43
0.00000001
 40
0.0
 40
0.0
 40
0.0
 40
0.0
 40
0.0002560048126404
 40
0.0002560048126404
 40
0.0002560048126404
 40
0.0002560048126404
 10
55.62746848270392
 20
317.9132197820168
 30
0.0
 10
55.63463226254556
 20
317.8842907970661
 30
0.0
 10
55.64182642962931
 20
317.8539675947884
 30
0.0
 10
55.6488358686729
 20
317.8222573509775
 30
0.0
  0
SPLINE
  5
21D
330
1F
100
AcDbEntity
  8
0
  6
Continuous
 62
     7
370
    25
100
AcDbSpline
210
0.0
220
0.0
230
1.0
 70
     8
 71
     3
 72
     8
 73
     4
 74
     0
 42
0.00000001
 43
0.00000001
 40
0.0
 40
0.0
 40
0.0
 40
0.0
 40
0.0002560048126397
 40
0.0002560048126397
 40
0.0002560048126397
 40
0.0002560048126397
 10
87.54369856714044
 20
317.8222573509699
 30
0.0
 10
87.55070800618387
 20
317.8539675947808
 30
0.0
 10
87.55790217326631
 20
317.8842907970741
 30
0.0
 10
87.56506595310805
 20
317.9132197820248
 30
0.0
  0
SPLINE
  5
21E
330
1F
100
AcDbEntity
  8
0
  6
Continuous
 62
     7
370
    25
100
AcDbSpline
210
0.0
220
0.0
230
1.0
 70
     8
 71
     3
 72
     8
 73
     4
 74
     0
 42
0.00000001
 43
0.00000001
 40
0.0000000000000011
 40
0.0000000000000011
 40
0.0000000000000011
 40
0.0000000000000011
 40
0.0000988236428765
 40
0.0000988236428765
 40
0.0000988236428765
 40
0.0000988236428765
 10
87.5356384947395
 20
317.7860124439687
 30
0.0
 10
87.53830904539187
 20
317.7979408202143
 30
0.0
 10
87.54099276527036
 20
317.8100164802707
 30
0.0
 10
87.54369856714045
 20
317.8222573509699
 30
0.0
  0
LINE
  5
21F
330
1F
100
AcDbEntity
  8
0
  6
Continuous
 62
     7
370
    25
100
AcDbLine
 10
87.5356384947
 20
317.786012444
 30
0.0
 11
80.7710804323
 21
317.786012444
 31
0.0
  0
SPLINE
  5
220
330
1F
100
AcDbEntity
  8
0
  6
Continuous
 62
     7
370
    25
100
AcDbSpline
210
0.0
220
0.0
230
1.0
 70
     8
 71
     3
 72
     8
 73
     4
 74
     0
 42
0.00000001
 43
0.00000001
 40
0.0
 40
0.0
 40
0.0
 40
0.0
 40
0.000098823642892
 40
0.000098823642892
 40
0.000098823642892
 40
0.000098823642892
 10
80.69579722401369
 20
317.8222573509697
 30
0.0
 10
80.72082561360928
 20
317.8100164802685
 30
0.0
 10
80.7459245921944
 20
317.7979408202129
 30
0.0
 10
80.77108043234132
 20
317.7860124439656
 30
0.0
  0
SPLINE
  5
221
330
1F
100
AcDbEntity
  8
0
  6
Continuous
 62
     7
370
    25
100
AcDbSpline
210
0.0
220
0.0
230
1.0
 70
     8
 71
     3
 72
     8
 73
     4
 74
     0
 42
0.00000001
 43
0.00000001
 40
0.0
 40
0.0
 40
0.0
 40
0.0
 40
0.0002560048126404
 40
0.0002560048126404
 40
0.0002560048126404
 40
0.0002560048126404
 10
80.50006918940585
 20
317.9132197820168
 30
0.0
 10
80.56573601240206
 20
317.8842907970661
 30
0.0
 10
80.63096063226905
 20
317.8539675947884
 30
0.0
 10
80.69579722401573
 20
317.8222573509775
 30
0.0
  0
SPLINE
  5
222
330
1F
100
AcDbEntity
  8
0
  6
Continuous
 62
     7
370
    25
100
AcDbSpline
210
0.0
220
0.0
230
1.0
 70
     8
 71
     3
 72
    14
 73
    10
 74
     0
 42
0.00000001
 43
0.00000001
 40
0.0
 40
0.0
 40
0.0
 40
0.0
 40
0.25
 40
0.25
 40
0.5
 40
0.5
 40
0.75
 40
0.75
 40
1.0
 40
1.0
 40
1.0
 40
1.0
 10
78.66126398160914
 20
317.9132197820168
 30
0.0
 10
78.81697930331315
 20
317.9750713392284
 30
0.0
 10
78.97487883405208
 20
318.0172814789383
 30
0.0
 10
79.29069877207488
 20
318.07243362672
 30
0.0
 10
79.44867773779477
 20
318.0855078705318
 30
0.0
 10
79.76353490663436
 20
318.085671636294
 30
0.0
 10
79.91660569193401
 20
318.0727616460194
 30
0.0
 10
80.21439448124399
 20
318.0176851593104
 30
0.0
 10
80.35985133648595
 20
317.9749916170466
 30
0.0
 10
80.50006918940622
 20
317.9132197820182
 30
0.0
  0
SPLINE
  5
223
330
1F
100
AcDbEntity
  8
0
  6
Continuous
 62
     7
370
    25
100
AcDbSpline
210
0.0
220
0.0
230
1.0
 70
     8
 71
     3
 72
     8
 73
     4
 74
     0
 42
0.00000001
 43
0.00000001
 40
0.0
 40
0.0
 40
0.0
 40
0.0
 40
0.0002560048126397
 40
0.0002560048126397
 40
0.0002560048126397
 40
0.0002560048126397
 10
78.44416856103358
 20
317.8222573509699
 30
0.0
 10
78.51601459182359
 20
317.8539675947808
 30
0.0
 10
78.58843337876837
 20
317.8842907970741
 30
0.0
 10
78.66126398160608
 20
317.9132197820248
 30
0.0
  0
SPLINE
  5
224
330
1F
100
AcDbEntity
  8
0
  6
Continuous
 62
     7
370
    25
100
AcDbSpline
210
0.0
220
0.0
230
1.0
 70
     8
 71
     3
 72
     8
 73
     4
 74
     0
 42
0.00000001
 43
0.00000001
 40
0.0000000000000011
 40
0.0000000000000011
 40
0.0000000000000011
 40
0.0000000000000011
 40
0.0000988236428765
 40
0.0000988236428765
 40
0.0000988236428765
 40
0.0000988236428765
 10
78.36082528031766
 20
317.7860124439687
 30
0.0
 10
78.388651671113
 20
317.7979408202143
 30
0.0
 10
78.41643436957179
 20
317.8100164802707
 30
0.0
 10
78.44416856103356
 20
317.8222573509699
 30
0.0
  0
LINE
  5
225
330
1F
100
AcDbEntity
  8
0
  6
Continuous
 62
     7
370
    25
100
AcDbLine
 10
78.3608252803
 20
317.786012444
 30
0.0
 11
64.8317091555
 21
317.786012444
 31
0.0
  0
SPLINE
  5
226
330
1F
100
AcDbEntity
  8
0
  6
Continuous
 62
     7
370
    25
100
AcDbSpline
210
0.0
220
0.0
230
1.0
 70
     8
 71
     3
 72
     8
 73
     4
 74
     0
 42
0.00000001
 43
0.00000001
 40
0.0
 40
0.0
 40
0.0
 40
0.0
 40
0.0000988236428927
 40
0.0000988236428927
 40
0.0000988236428927
 40
0.0000988236428927
 10
64.748365874779
 20
317.8222573509699
 30
0.0
 10
64.77610006624532
 20
317.8100164802688
 30
0.0
 10
64.8038827647096
 20
317.7979408202131
 30
0.0
 10
64.83170915550951
 20
317.7860124439655
 30
0.0
  0
SPLINE
  5
227
330
1F
100
AcDbEntity
  8
0
  6
Continuous
 62
     7
370
    25
100
AcDbSpline
210
0.0
220
0.0
230
1.0
 70
     8
 71
     3
 72
     8
 73
     4
 74
     0
 42
0.00000001
 43
0.00000001
 40
0.0
 40
0.0
 40
0.0
 40
0.0
 40
0.0002560048126397
 40
0.0002560048126397
 40
0.0002560048126397
 40
0.0002560048126397
 10
64.53127045420345
 20
317.9132197820168
 30
0.0
 10
64.60410105704109
 20
317.8842907970662
 30
0.0
 10
64.67651984399164
 20
317.8539675947886
 30
0.0
 10
64.74836587478174
 20
317.8222573509777
 30
0.0
  0
SPLINE
  5
228
330
1F
100
AcDbEntity
  8
0
  6
Continuous
 62
     7
370
    25
100
AcDbSpline
210
0.0
220
0.0
230
1.0
 70
     8
 71
     3
 72
    14
 73
    10
 74
     0
 42
0.00000001
 43
0.00000001
 40
0.0
 40
0.0
 40
0.0
 40
0.0
 40
0.250000000000001
 40
0.250000000000001
 40
0.500000000000002
 40
0.500000000000002
 40
0.750000000000001
 40
0.750000000000001
 40
1.0
 40
1.0
 40
1.0
 40
1.0
 10
62.69246524640675
 20
317.9132197820168
 30
0.0
 10
62.83286406324618
 20
317.9750713392284
 30
0.0
 10
62.97671332574695
 20
318.0172814789383
 30
0.0
 10
63.27340918819873
 20
318.07243362672
 30
0.0
 10
63.42614520555859
 20
318.0855078705318
 30
0.0
 10
63.74093976460701
 20
318.085671636294
 30
0.0
 10
63.89919391681492
 20
318.0727616460194
 30
0.0
 10
64.21609733490737
 20
318.0176851593104
 30
0.0
 10
64.37575583828574
 20
317.9749916170466
 30
0.0
 10
64.53127045420382
 20
317.9132197820182
 30
0.0
  0
SPLINE
  5
229
330
1F
100
AcDbEntity
  8
0
  6
Continuous
 62
     7
370
    25
100
AcDbSpline
210
0.0
220
0.0
230
1.0
 70
     8
 71
     3
 72
     8
 73
     4
 74
     0
 42
0.00000001
 43
0.00000001
 40
0.0
 40
0.0
 40
0.0
 40
0.0
 40
0.0002560048126397
 40
0.0002560048126397
 40
0.0002560048126397
 40
0.0002560048126397
 10
62.49673721179943
 20
317.8222573509699
 30
0.0
 10
62.56157380354602
 20
317.8539675947808
 30
0.0
 10
62.62679842340837
 20
317.8842907970741
 30
0.0
 10
62.69246524640435
 20
317.9132197820248
 30
0.0
  0
SPLINE
  5
22A
330
1F
100
AcDbEntity
  8
0
  6
Continuous
 62
     7
370
    25
100
AcDbSpline
210
0.0
220
0.0
230
1.0
 70
     8
 71
     3
 72
     8
 73
     4
 74
     0
 42
0.00000001
 43
0.00000001
 40
0.0000000000000011
 40
0.0000000000000011
 40
0.0000000000000011
 40
0.0000000000000011
 40
0.0000988236428765
 40
0.0000988236428765
 40
0.0000988236428765
 40
0.0000988236428765
 10
62.42145400348445
 20
317.7860124439687
 30
0.0
 10
62.44660984362742
 20
317.7979408202143
 30
0.0
 10
62.47170882220773
 20
317.8100164802707
 30
0.0
 10
62.49673721179942
 20
317.8222573509699
 30
0.0
  0
LINE
  5
22B
330
1F
100
AcDbEntity
  8
0
  6
Continuous
 62
     7
370
    25
100
AcDbLine
 10
62.4214540035
 20
317.786012444
 30
0.0
 11
55.6568959411
 21
317.786012444
 31
0.0
  0
LINE
  5
22C
330
1F
100
AcDbEntity
  8
0
  6
Continuous
 62
     7
370
    25
100
AcDbLine
 10
100.5962672179
 20
270.0313397537
 30
0.0
 11
100.5962672179
 21
244.1475629903
 31
0.0
  0
LINE
  5
22D
330
1F
100
AcDbEntity
  8
0
  6
Continuous
 62
     7
370
    25
100
AcDbLine
 10
100.5962672179
 20
274.9326361835
 30
0.0
 11
100.5962672179
 21
271.3441862489
 31
0.0
  0
ELLIPSE
  5
22E
330
1F
100
AcDbEntity
  8
0
  6
Continuous
 62
     7
370
    25
100
AcDbEllipse
 10
108.8370236067
 20
259.6321328735
 30
0.0
 11
-5.596045292391636
 21
15.00796136777763
 31
0.0
210
0.0
220
0.0
230
1.0
 40
0.4514218124
 41
0.5258794326610087
 42
0.6494913437152853
  0
SPLINE
  5
22F
330
1F
100
AcDbEntity
  8
0
  6
Continuous
 62
     7
370
    25
100
AcDbSpline
210
0.0
220
0.0
230
1.0
 70
     8
 71
     3
 72
     8
 73
     4
 74
     0
 42
0.00000001
 43
0.00000001
 40
0.0000002008695006
 40
0.0000002008695006
 40
0.0000002008695006
 40
0.0000002008695006
 40
0.0003147847660132
 40
0.0003147847660132
 40
0.0003147847660132
 40
0.0003147847660132
 10
100.5962672179063
 20
270.0313397537169
 30
0.0
 10
100.4918598352973
 20
270.0397803096088
 30
0.0
 10
100.3874488207732
 20
270.0481872353553
 30
0.0
 10
100.2830343057024
 20
270.0565613574488
 30
0.0
  0
SPLINE
  5
230
330
1F
100
AcDbEntity
  8
0
  6
Continuous
 62
     7
370
    25
100
AcDbSpline
210
0.0
220
0.0
230
1.0
 70
     8
 71
     3
 72
     9
 73
     5
 74
     0
 42
0.00000001
 43
0.00000001
 40
0.0
 40
0.0
 40
0.0
 40
0.0
 40
0.5163722055578783
 40
1.0
 40
1.0
 40
1.0
 40
1.0
 10
94.95543946398811
 20
275.0376769709399
 30
0.0
 10
94.96553093631707
 20
275.0430144957255
 30
0.0
 10
94.98507395629441
 20
275.0533510799337
 30
0.0
 10
94.9770611568864
 20
275.0491090445001
 30
0.0
 10
94.9731859443814
 20
275.0470574782594
 30
0.0
  0
ARC
  5
231
330
1F
100
AcDbEntity
  8
0
  6
Continuous
 62
     7
370
    25
100
AcDbCircle
 10
79.9503451852
 20
317.957664176
 30
0.0
 40
1.598761347182589
100
AcDbArc
 50
186.1634674732
 51
222.4427022402
  0
SPLINE
  5
232
330
1F
100
AcDbEntity
  8
0
  6
Continuous
 62
     7
370
    25
100
AcDbSpline
210
0.0
220
0.0
230
1.0
 70
     8
 71
     3
 72
    14
 73
    10
 74
     0
 42
0.00000001
 43
0.00000001
 40
0.0
 40
0.0
 40
0.0
 40
0.0
 40
0.2499999999999999
 40
0.2499999999999999
 40
0.4999999999999998
 40
0.4999999999999998
 40
0.7499999999999999
 40
0.7499999999999999
 40
1.0
 40
1.0
 40
1.0
 40
1.0
 10
78.77053512173659
 20
316.8787359766625
 30
0.0
 10
78.18523125182965
 20
316.8166823444753
 30
0.0
 10
77.59735758644467
 20
316.7981578812021
 30
0.0
 10
76.41328385314355
 20
316.7932151650004
 30
0.0
 10
75.81662500000292
 20
316.8086767687975
 30
0.0
 10
74.61672891063631
 20
316.8563411744242
 30
0.0
 10
74.01516640358166
 20
316.8887799147461
 30
0.0
 10
72.80800820455615
 20
316.9607561240167
 30
0.0
 10
72.20023734079176
 20
317.0005716678492
 30
0.0
 10
71.5962672179063
 20
317.0400995868976
 30
0.0
  0
SPLINE
  5
233
330
1F
100
AcDbEntity
  8
0
  6
Continuous
 62
     7
370
    25
100
AcDbSpline
210
0.0
220
0.0
230
1.0
 70
     8
 71
     3
 72
    12
 73
     8
 74
     0
 42
0.00000001
 43
0.00000001
 40
0.0
 40
0.0
 40
0.0
 40
0.0
 40
0.2499999999999999
 40
0.2499999999999999
 40
0.4999999999999999
 40
0.4999999999999999
 40
1.0
 40
1.0
 40
1.0
 40
1.0
 10
78.36082528031724
 20
317.7860124439687
 30
0.0
 10
77.83866715538815
 20
317.6740953322659
 30
0.0
 10
77.3000401178003
 20
317.5947151867208
 30
0.0
 10
76.19699391649186
 20
317.4529673496053
 30
0.0
 10
75.63713889706257
 20
317.3932925526639
 30
0.0
 10
73.93467621201663
 20
317.2273542323619
 30
0.0
 10
72.76404631218733
 20
317.1340792577254
 30
0.0
 10
71.5962672179063
 20
317.0400995868976
 30
0.0
  0
SPLINE
  5
234
330
1F
100
AcDbEntity
  8
0
  6
Continuous
 62
     7
370
    25
100
AcDbSpline
210
0.0
220
0.0
230
1.0
 70
     8
 71
     3
 72
    16
 73
    12
 74
     0
 42
0.00000001
 43
0.00000001
 40
0.0
 40
0.0
 40
0.0
 40
0.0
 40
0.25
 40
0.25
 40
0.5
 40
0.5
 40
0.75
 40
0.75
 40
0.875
 40
0.875
 40
1.0
 40
1.0
 40
1.0
 40
1.0
 10
78.87208332333391
 20
315.2900995868976
 30
0.0
 10
78.23972742262922
 20
315.2900995868976
 30
0.0
 10
77.61864173820722
 20
315.3580947556804
 30
0.0
 10
76.38871670072075
 20
315.5679693335072
 30
0.0
 10
75.78011063529121
 20
315.7112562072984
 30
0.0
 10
74.57030048461638
 20
316.0424873846347
 30
0.0
 10
73.97100333798845
 20
316.230202761554
 30
0.0
 10
73.07795733256137
 20
316.526395212577
 30
0.0
 10
72.78110507020732
 20
316.6276553043844
 30
0.0
 10
72.18821455675487
 20
316.8326568189077
 30
0.0
 10
71.89063746771917
 20
316.9369412652295
 30
0.0
 10
71.5962672179063
 20
317.0400995868976
 30
0.0
  0
SPLINE
  5
235
330
1F
100
AcDbEntity
  8
0
  6
Continuous
 62
     7
370
    25
100
AcDbSpline
210
0.0
220
0.0
230
1.0
 70
     8
 71
     3
 72
     8
 73
     4
 74
     0
 42
0.00000001
 43
0.00000001
 40
0.0
 40
0.0
 40
0.0
 40
0.0
 40
0.0001055072942668
 40
0.0001055072942668
 40
0.0001055072942668
 40
0.0001055072942668
 10
78.87208332333391
 20
316.8899402390786
 30
0.0
 10
78.838245056504
 20
316.8860564160643
 30
0.0
 10
78.80439521790598
 20
316.8823258076226
 30
0.0
 10
78.77053512173663
 20
316.878735976662
 30
0.0
  0
LINE
  5
236
330
1F
100
AcDbEntity
  8
0
  6
Continuous
 62
     7
370
    25
100
AcDbLine
 10
78.8720833233
 20
316.8899402391
 30
0.0
 11
78.8720833233
 21
315.2900995869
 31
0.0
  0
ARC
  5
237
330
1F
100
AcDbEntity
  8
0
  6
Continuous
 62
     7
370
    25
100
AcDbCircle
 10
63.2421892506
 20
317.957664176
 30
0.0
 40
1.598761347194635
100
AcDbArc
 50
317.5572977601
 51
353.8365325269
  0
SPLINE
  5
238
330
1F
100
AcDbEntity
  8
0
  6
Continuous
 62
     7
370
    25
100
AcDbSpline
210
0.0
220
0.0
230
1.0
 70
     8
 71
     3
 72
    18
 73
    14
 74
     0
 42
0.00000001
 43
0.00000001
 40
0.0
 40
0.0
 40
0.0
 40
0.0
 40
0.2500000000000001
 40
0.2500000000000001
 40
0.5000000000000002
 40
0.5000000000000002
 40
0.7500000000000001
 40
0.7500000000000001
 40
0.8749999999999999
 40
0.8749999999999999
 40
0.9375
 40
0.9375
 40
1.0
 40
1.0
 40
1.0
 40
1.0
 10
64.83170915550951
 20
317.7860124439656
 30
0.0
 10
65.35613415701766
 20
317.6736094597526
 30
0.0
 10
65.8934359524909
 20
317.5946444335238
 30
0.0
 10
66.98814928859329
 20
317.4538672084442
 30
0.0
 10
67.54579371806491
 20
317.3942934931342
 30
0.0
 10
68.68040952180385
 20
317.2835739700756
 30
0.0
 10
69.25977212931252
 20
317.2325414036001
 30
0.0
 10
70.13320920023914
 20
317.158923769835
 30
0.0
 10
70.425010641194
 20
317.1349001896517
 30
0.0
 10
70.86365940566417
 20
317.0991925311471
 30
0.0
 10
71.01003356942122
 20
317.0873453477412
 30
0.0
 10
71.30309299953555
 20
317.0636933350449
 30
0.0
 10
71.45120693927696
 20
317.0517736397391
 30
0.0
 10
71.5962672179063
 20
317.0400995868976
 30
0.0
  0
SPLINE
  5
239
330
1F
100
AcDbEntity
  8
0
  6
Continuous
 62
     7
370
    25
100
AcDbSpline
210
0.0
220
0.0
230
1.0
 70
     8
 71
     3
 72
    14
 73
    10
 74
     0
 42
0.00000001
 43
0.00000001
 40
0.0
 40
0.0
 40
0.0
 40
0.0
 40
0.25
 40
0.25
 40
0.5
 40
0.5
 40
0.75
 40
0.75
 40
1.0
 40
1.0
 40
1.0
 40
1.0
 10
64.42199931409368
 20
316.8787359766607
 30
0.0
 10
65.00730318401918
 20
316.8166823444724
 30
0.0
 10
65.59517684942291
 20
316.7981578812004
 30
0.0
 10
66.77925058276215
 20
316.7932151650015
 30
0.0
 10
67.37590943592242
 20
316.8086767688006
 30
0.0
 10
68.57580552532744
 20
316.8563411744315
 30
0.0
 10
69.17736803240143
 20
316.8887799147556
 30
0.0
 10
70.38452623146595
 20
316.96075612403
 30
0.0
 10
70.9922970950003
 20
317.0005716678614
 30
0.0
 10
71.5962672179063
 20
317.0400995868976
 30
0.0
  0
LINE
  5
23A
330
1F
100
AcDbEntity
  8
0
  6
Continuous
 62
     7
370
    25
100
AcDbLine
 10
64.3204511125
 20
315.2900995869
 30
0.0
 11
64.3204511125
 21
316.8899402391
 31
0.0
  0
SPLINE
  5
23B
330
1F
100
AcDbEntity
  8
0
  6
Continuous
 62
     7
370
    25
100
AcDbSpline
210
0.0
220
0.0
230
1.0
 70
     8
 71
     3
 72
     8
 73
     4
 74
     0
 42
0.00000001
 43
0.00000001
 40
0.0
 40
0.0
 40
0.0
 40
0.0
 40
0.0001055072942852
 40
0.0001055072942852
 40
0.0001055072942852
 40
0.0001055072942852
 10
64.42199931409368
 20
316.8787359766607
 30
0.0
 10
64.38813921791842
 20
316.8823258076218
 30
0.0
 10
64.35428937931448
 20
316.8860564160636
 30
0.0
 10
64.32045111247866
 20
316.8899402390786
 30
0.0
  0
SPLINE
  5
23C
330
1F
100
AcDbEntity
  8
0
  6
Continuous
 62
     7
370
    25
100
AcDbSpline
210
0.0
220
0.0
230
1.0
 70
     8
 71
     3
 72
    16
 73
    12
 74
     0
 42
0.00000001
 43
0.00000001
 40
0.0
 40
0.0
 40
0.0
 40
0.0
 40
0.25
 40
0.25
 40
0.5
 40
0.5
 40
0.75
 40
0.75
 40
0.875
 40
0.875
 40
1.0
 40
1.0
 40
1.0
 40
1.0
 10
64.32045111247866
 20
315.2900995868976
 30
0.0
 10
64.95280701318337
 20
315.2900995868976
 30
0.0
 10
65.57389269760537
 20
315.3580947556804
 30
0.0
 10
66.80381773509184
 20
315.5679693335072
 30
0.0
 10
67.41242380052137
 20
315.7112562072984
 30
0.0
 10
68.6222339511962
 20
316.0424873846347
 30
0.0
 10
69.22153109782414
 20
316.230202761554
 30
0.0
 10
70.11457710325121
 20
316.526395212577
 30
0.0
 10
70.41142936560527
 20
316.6276553043844
 30
0.0
 10
71.00431987905773
 20
316.8326568189077
 30
0.0
 10
71.30189696809333
 20
316.9369412652297
 30
0.0
 10
71.5962672179063
 20
317.0400995868976
 30
0.0
  0
ARC
  5
23D
330
1F
100
AcDbEntity
  8
0
  6
Continuous
 62
     7
370
    25
100
AcDbCircle
 10
95.5396700615
 20
285.0316106914
 30
0.0
 40
15.40957518232611
100
AcDbArc
 50
201.2821805457
 51
241.0914009813
  0
LINE
  5
23E
330
1F
100
AcDbEntity
  8
0
  6
Continuous
 62
     7
370
    25
100
AcDbLine
 10
64.3204511125
 20
315.2900995869
 30
0.0
 11
64.0907137184
 21
315.2900995869
 31
0.0
  0
LINE
  5
23F
330
1F
100
AcDbEntity
  8
0
  6
Continuous
 62
     7
370
    25
100
AcDbLine
 10
79.1018207174
 20
315.2900995869
 30
0.0
 11
78.8720833233
 21
315.2900995869
 31
0.0
  0
LINE
  5
240
330
1F
100
AcDbEntity
  8
0
  6
Continuous
 62
     7
370
    25
100
AcDbLine
 10
79.1018207174
 20
304.5400995869
 30
0.0
 11
79.1018207174
 21
315.2900995869
 31
0.0
  0
LINE
  5
241
330
1F
100
AcDbEntity
  8
0
  6
Continuous
 62
     7
370
    25
100
AcDbLine
 10
64.0907137184
 20
304.5400995869
 30
0.0
 11
79.1018207174
 21
304.5400995869
 31
0.0
  0
LINE
  5
242
330
1F
100
AcDbEntity
  8
0
  6
Continuous
 62
     7
370
    25
100
AcDbLine
 10
64.0907137184
 20
315.2900995869
 30
0.0
 11
64.0907137184
 21
304.5400995869
 31
0.0
  0
SPLINE
  5
243
330
1F
100
AcDbEntity
  8
0
  6
Continuous
 62
     7
370
    25
100
AcDbSpline
210
0.0
220
0.0
230
1.0
 70
     8
 71
     3
 72
     8
 73
     4
 74
     0
 42
0.00000001
 43
0.00000001
 40
0.0
 40
0.0
 40
0.0
 40
0.0
 40
0.0002416894103822
 40
0.0002416894103822
 40
0.0002416894103822
 40
0.0002416894103822
 10
79.10182071737142
 20
316.9188828307754
 30
0.0
 10
79.02525318767175
 20
316.9097196699273
 30
0.0
 10
78.94866263134622
 20
316.9000804572134
 30
0.0
 10
78.87208332333387
 20
316.8899402390788
 30
0.0
  0
LINE
  5
244
330
1F
100
AcDbEntity
  8
0
  6
Continuous
 62
     7
370
    25
100
AcDbLine
 10
79.1018207174
 20
315.2900995869
 30
0.0
 11
79.1018207174
 21
316.9188828308
 31
0.0
  0
LINE
  5
245
330
1F
100
AcDbEntity
  8
0
  6
Continuous
 62
     7
370
    25
100
AcDbLine
 10
80.1843524721
 20
302.7900995869
 30
0.0
 11
79.1018207174
 21
302.7900995869
 31
0.0
  0
LINE
  5
246
330
1F
100
AcDbEntity
  8
0
  6
Continuous
 62
     7
370
    25
100
AcDbLine
 10
79.1018207174
 20
302.7900995869
 30
0.0
 11
79.1018207174
 21
304.5400995869
 31
0.0
  0
LINE
  5
247
330
1F
100
AcDbEntity
  8
0
  6
Continuous
 62
     7
370
    25
100
AcDbLine
 10
79.1018207174
 20
304.5400995869
 30
0.0
 11
81.6998969287
 21
304.5400995869
 31
0.0
  0
ARC
  5
248
330
1F
100
AcDbEntity
  8
0
  6
Continuous
 62
     7
370
    25
100
AcDbCircle
 10
80.0580571007
 20
304.4307245869
 30
0.0
 40
1.645478930724586
100
AcDbArc
 50
274.4019496523
 51
3.8112610495
  0
LINE
  5
249
330
1F
100
AcDbEntity
  8
0
  6
Continuous
 62
     7
370
    25
100
AcDbLine
 10
81.6998969287
 20
315.2900995869
 30
0.0
 11
79.1018207174
 21
315.2900995869
 31
0.0
  0
LINE
  5
24A
330
1F
100
AcDbEntity
  8
0
  6
Continuous
 62
     7
370
    25
100
AcDbLine
 10
81.6998969287
 20
315.2900995869
 30
0.0
 11
81.6998969287
 21
304.5400995869
 31
0.0
  0
LINE
  5
24B
330
1F
100
AcDbEntity
  8
0
  6
Continuous
 62
     7
370
    25
100
AcDbLine
 10
64.0907137184
 20
304.5400995869
 30
0.0
 11
64.0907137184
 21
302.7900995869
 31
0.0
  0
LINE
  5
24C
330
1F
100
AcDbEntity
  8
0
  6
Continuous
 62
     7
370
    25
100
AcDbLine
 10
79.1018207174
 20
302.7900995869
 30
0.0
 11
76.2062996038
 21
302.7900995869
 31
0.0
  0
SPLINE
  5
24D
330
1F
100
AcDbEntity
  8
0
  6
Continuous
 62
     7
370
    25
100
AcDbSpline
210
0.0
220
0.0
230
1.0
 70
     8
 71
     3
 72
    14
 73
    10
 74
     0
 42
0.00000001
 43
0.00000001
 40
0.0
 40
0.0
 40
0.0
 40
0.0
 40
0.2500000000000001
 40
0.2500000000000001
 40
0.5000000000000001
 40
0.5000000000000001
 40
0.75
 40
0.75
 40
1.0
 40
1.0
 40
1.0
 40
1.0
 10
66.98623483198149
 20
302.7900995868974
 30
0.0
 10
67.74581306508338
 20
302.7900995868974
 30
0.0
 10
68.51021593367754
 20
302.8095542186296
 30
0.0
 10
70.04878744795376
 20
302.840883704626
 30
0.0
 10
70.82409542901706
 20
302.8528090206746
 30
0.0
 10
72.37422632320472
 20
302.852756263043
 30
0.0
 10
73.14728300646561
 20
302.8408163836304
 30
0.0
 10
74.68301612911542
 20
302.8095353181899
 30
0.0
 10
75.44671766266036
 20
302.7900995868909
 30
0.0
 10
76.20629960383106
 20
302.7900995868909
 30
0.0
  0
LINE
  5
24E
330
1F
100
AcDbEntity
  8
0
  6
Continuous
 62
     7
370
    25
100
AcDbLine
 10
66.986234832
 20
302.7900995869
 30
0.0
 11
64.0907137184
 21
302.7900995869
 31
0.0
  0
SPLINE
  5
24F
330
1F
100
AcDbEntity
  8
0
  6
Continuous
 62
     7
370
    25
100
AcDbSpline
210
0.0
220
0.0
230
1.0
 70
     8
 71
     3
 72
    10
 73
     6
 74
     0
 42
0.00000001
 43
0.00000001
 40
0.0
 40
0.0
 40
0.0
 40
0.0
 40
0.5
 40
0.5
 40
1.0
 40
1.0
 40
1.0
 40
1.0
 10
80.73858514738131
 20
316.9188828307754
 30
0.0
 10
80.49656632820964
 20
316.9613068564615
 30
0.0
 10
80.2417342975044
 20
316.9737279410752
 30
0.0
 10
79.68929122265523
 20
316.9737279410752
 30
0.0
 10
79.39884427681538
 20
316.9613068564618
 30
0.0
 10
79.10182071737121
 20
316.9188828307757
 30
0.0
  0
ARC
  5
250
330
1F
100
AcDbEntity
  8
0
  6
Continuous
 62
     7
370
    25
100
AcDbCircle
 10
79.9377989795
 20
315.348181029
 30
0.0
 40
1.763054915954361
100
AcDbArc
 50
358.1121270215
 51
62.9862857032
  0
LINE
  5
251
330
1F
100
AcDbEntity
  8
0
  6
Continuous
 62
     7
370
    25
100
AcDbLine
 10
61.4926375071
 20
304.5400995869
 30
0.0
 11
64.0907137184
 21
304.5400995869
 31
0.0
  0
LINE
  5
252
330
1F
100
AcDbEntity
  8
0
  6
Continuous
 62
     7
370
    25
100
AcDbLine
 10
64.0907137184
 20
302.7900995869
 30
0.0
 11
63.0081819637
 21
302.7900995869
 31
0.0
  0
ARC
  5
253
330
1F
100
AcDbEntity
  8
0
  6
Continuous
 62
     7
370
    25
100
AcDbCircle
 10
63.1344773351
 20
304.4307245869
 30
0.0
 40
1.645478930724587
100
AcDbArc
 50
176.1887389505
 51
265.5980503477
  0
LINE
  5
254
330
1F
100
AcDbEntity
  8
0
  6
Continuous
 62
     7
370
    25
100
AcDbLine
 10
61.4926375071
 20
304.5400995869
 30
0.0
 11
61.4926375071
 21
315.2900995869
 31
0.0
  0
LINE
  5
255
330
1F
100
AcDbEntity
  8
0
  6
Continuous
 62
     7
370
    25
100
AcDbLine
 10
64.0907137184
 20
315.2900995869
 30
0.0
 11
61.4926375071
 21
315.2900995869
 31
0.0
  0
LINE
  5
256
330
1F
100
AcDbEntity
  8
0
  6
Continuous
 62
     7
370
    25
100
AcDbLine
 10
64.0907137184
 20
315.2900995869
 30
0.0
 11
64.0907137184
 21
316.9188828308
 31
0.0
  0
SPLINE
  5
257
330
1F
100
AcDbEntity
  8
0
  6
Continuous
 62
     7
370
    25
100
AcDbSpline
210
0.0
220
0.0
230
1.0
 70
     8
 71
     3
 72
     8
 73
     4
 74
     0
 42
0.00000001
 43
0.00000001
 40
0.0
 40
0.0
 40
0.0
 40
0.0
 40
0.0002416894103822
 40
0.0002416894103822
 40
0.0002416894103822
 40
0.0002416894103822
 10
64.32045111247866
 20
316.8899402390786
 30
0.0
 10
64.24387180446631
 20
316.9000804572133
 30
0.0
 10
64.16728124814087
 20
316.9097196699275
 30
0.0
 10
64.0907137184412
 20
316.9188828307755
 30
0.0
  0
ARC
  5
258
330
1F
100
AcDbEntity
  8
0
  6
Continuous
 62
     7
370
    25
100
AcDbCircle
 10
63.2547354563
 20
315.348181029
 30
0.0
 40
1.763054915954279
100
AcDbArc
 50
117.0137142968
 51
181.8878729785
  0
SPLINE
  5
259
330
1F
100
AcDbEntity
  8
0
  6
Continuous
 62
     7
370
    25
100
AcDbSpline
210
0.0
220
0.0
230
1.0
 70
     8
 71
     3
 72
    10
 73
     6
 74
     0
 42
0.00000001
 43
0.00000001
 40
0.0
 40
0.0
 40
0.0
 40
0.0
 40
0.5
 40
0.5
 40
1.0
 40
1.0
 40
1.0
 40
1.0
 10
64.09071371844117
 20
316.9188828307754
 30
0.0
 10
63.79369015899699
 20
316.9613068564615
 30
0.0
 10
63.50324321315737
 20
316.9737279410752
 30
0.0
 10
62.9508001383082
 20
316.9737279410752
 30
0.0
 10
62.69596810760314
 20
316.9613068564618
 30
0.0
 10
62.45394928843149
 20
316.9188828307757
 30
0.0
  0
SPLINE
  5
25A
330
1F
100
AcDbEntity
  8
0
  6
Continuous
 62
     7
370
    25
100
AcDbSpline
210
0.0
220
0.0
230
1.0
 70
     8
 71
     3
 72
    26
 73
    22
 74
     0
 42
0.00000001
 43
0.00000001
 40
0.0
 40
0.0
 40
0.0
 40
0.0
 40
0.0164500299912593
 40
0.0742462163199685
 40
0.1327423880177307
 40
0.1909816806447823
 40
0.2480461079420347
 40
0.3053606751456352
 40
0.3637113340690808
 40
0.4221552404295451
 40
0.4797405771634524
 40
0.5366131946726088
 40
0.5946927023357595
 40
0.6532143755230008
 40
0.7112188823310853
 40
0.7680468008763588
 40
0.8257330002977563
 40
0.8842045812241769
 40
0.9425070556221264
 40
0.999702199573512
 40
1.0
 40
1.0
 40
1.0
 40
1.0
 10
104.6210818909914
 20
245.4032027428486
 30
0.0
 10
104.6171663804046
 20
245.396799341825
 30
0.0
 10
104.5994939599784
 20
245.367897978251
 30
0.0
 10
104.5663214460079
 20
245.7750921149688
 30
0.0
 10
104.5219033277778
 20
246.63348403087
 30
0.0
 10
104.4777401855058
 20
247.9442894252026
 30
0.0
 10
104.4366851482549
 20
249.6085303485023
 30
0.0
 10
104.3948753920576
 20
251.5924691278591
 30
0.0
 10
104.3505723962841
 20
253.8499903541835
 30
0.0
 10
104.3061710165432
 20
256.2979596729584
 30
0.0
 10
104.263575571775
 20
258.8294372814982
 30
0.0
 10
104.2231012182882
 20
261.3777512926274
 30
0.0
 10
104.1792448562997
 20
263.88159064364
 30
0.0
 10
104.1347868257638
 20
266.2596624188719
 30
0.0
 10
104.0910966456801
 20
268.4014542256733
 30
0.0
 10
104.050760069165
 20
270.250578497696
 30
0.0
 10
104.0078777517021
 20
271.759276624505
 30
0.0
 10
103.9634750812415
 20
272.8972465021654
 30
0.0
 10
103.9191509709063
 20
273.5385509205817
 30
0.0
 10
103.8915461652639
 20
273.8019973195355
 30
0.0
 10
103.8776214700499
 20
273.7274252035976
 30
0.0
 10
103.8775493432834
 20
273.7270389369318
 30
0.0
  0
SPLINE
  5
25B
330
1F
100
AcDbEntity
  8
0
  6
Continuous
 62
     7
370
    25
100
AcDbSpline
210
0.0
220
0.0
230
1.0
 70
     8
 71
     3
 72
    25
 73
    21
 74
     0
 42
0.00000001
 43
0.00000001
 40
0.0
 40
0.0
 40
0.0
 40
0.0
 40
0.0215032470327911
 40
0.0794326905795686
 40
0.137977979081804
 40
0.1961801315184287
 40
0.2531730772196658
 40
0.3106494027455307
 40
0.3690804726186834
 40
0.4275183282019776
 40
0.4850143577562792
 40
0.5419933453588213
 40
0.6001838701037494
 40
0.6587310143767358
 40
0.7166756175568596
 40
0.7735080400974671
 40
0.8313347916884144
 40
0.8898633893968502
 40
0.9481364667838242
 40
1.0
 40
1.0
 40
1.0
 40
1.0
 10
103.1209581666864
 20
245.4098470524276
 30
0.0
 10
103.115850463873
 20
245.4053672840635
 30
0.0
 10
103.0969826818804
 20
245.3888190830505
 30
0.0
 10
103.0623420046673
 20
245.833253338522
 30
0.0
 10
103.0179114287206
 20
246.7351299779718
 30
0.0
 10
102.9738689171591
 20
248.0794964853721
 30
0.0
 10
102.9331272672147
 20
249.774197781502
 30
0.0
 10
102.8909364978403
 20
251.7844770409227
 30
0.0
 10
102.8465803336106
 20
254.0636987535957
 30
0.0
 10
102.8022168888265
 20
256.5229338199797
 30
0.0
 10
102.7599693414517
 20
259.0584420554031
 30
0.0
 10
102.7192685583462
 20
261.6053190310802
 30
0.0
 10
102.6752536011842
 20
264.1019735715349
 30
0.0
 10
102.630800418725
 20
266.4629158300122
 30
0.0
 10
102.5873313668302
 20
268.5804656060016
 30
0.0
 10
102.5470766097135
 20
270.3996864073185
 30
0.0
 10
102.503909322231
 20
271.8813599650781
 30
0.0
 10
102.459465448294
 20
272.9609721806229
 30
0.0
 10
102.4166478586662
 20
273.6177903762467
 30
0.0
 10
102.3903550627472
 20
273.6801896837633
 30
0.0
 10
102.3779737366195
 20
273.7095736328455
 30
0.0
  0
SPLINE
  5
25C
330
1F
100
AcDbEntity
  8
0
  6
Continuous
 62
     7
370
    25
100
AcDbSpline
210
0.0
220
0.0
230
1.0
 70
     8
 71
     3
 72
    19
 73
    15
 74
     0
 42
0.00000001
 43
0.00000001
 40
0.0
 40
0.0
 40
0.0
 40
0.0
 40
0.0405049747157092
 40
0.1278598869173978
 40
0.2160139750865208
 40
0.3035222268120861
 40
0.3892082826080802
 40
0.4759248509144698
 40
0.5639543536622723
 40
0.6518638156572468
 40
0.7382318133750865
 40
0.8241647923079921
 40
0.9118787408159383
 40
1.0
 40
1.0
 40
1.0
 40
1.0
 10
101.6210802026738
 20
245.4126930664799
 30
0.0
 10
101.6146929190947
 20
245.4120602345528
 30
0.0
 10
101.5945305227011
 20
245.4100626078612
 30
0.0
 10
101.5583594936012
 20
245.8953341495573
 30
0.0
 10
101.5139191341735
 20
246.8400612665488
 30
0.0
 10
101.4700311250706
 20
248.2176811816886
 30
0.0
 10
101.4295274478252
 20
249.9425030675847
 30
0.0
 10
101.3869843773004
 20
251.9787906964357
 30
0.0
 10
101.3425879445501
 20
254.2789222031226
 30
0.0
 10
101.29827654665
 20
256.7481701550261
 30
0.0
 10
101.256402120425
 20
259.288118116202
 30
0.0
 10
101.2154125639874
 20
261.8296129056666
 30
0.0
 10
101.1712227857338
 20
264.3317254980336
 30
0.0
 10
101.1416243434074
 20
265.8654909975272
 30
0.0
 10
101.1267908408232
 20
266.6341501806482
 30
0.0
  0
LINE
  5
25D
330
1F
100
AcDbEntity
  8
0
  6
Continuous
 62
     7
370
    25
100
AcDbLine
 10
101.1267908408
 20
266.6341421059
 30
0.0
 11
101.5955409984
 21
267.0400910501
 31
0.0
  0
SPLINE
  5
25E
330
1F
100
AcDbEntity
  8
0
  6
Continuous
 62
     7
370
    25
100
AcDbSpline
210
0.0
220
0.0
230
1.0
 70
     8
 71
     3
 72
    20
 73
    16
 74
     0
 42
0.00000001
 43
0.00000001
 40
0.0
 40
0.0
 40
0.0
 40
0.0
 40
0.0301300913983253
 40
0.1173732779173708
 40
0.2046214803347964
 40
0.2900758996214763
 40
0.3774520390278674
 40
0.4645422371435466
 40
0.5500454956368058
 40
0.6375284090081356
 40
0.6628523632347554
 40
0.7477699010572199
 40
0.8339655149681383
 40
0.9216104593488298
 40
1.0
 40
1.0
 40
1.0
 40
1.0
 10
105.0901562657004
 20
244.6665445498541
 30
0.0
 10
105.0829406963026
 20
244.6465085222455
 30
0.0
 10
105.0548320848464
 20
244.5684571746484
 30
0.0
 10
105.0026015164622
 20
245.5535219570495
 30
0.0
 10
104.9363640951015
 20
247.5555112554858
 30
0.0
 10
104.8756286020079
 20
250.4942905168832
 30
0.0
 10
104.8089574195611
 20
254.0677604177285
 30
0.0
 10
104.7431900640243
 20
258.0463772977843
 30
0.0
 10
104.6823184140652
 20
262.128333599845
 30
0.0
 10
104.6311642236149
 20
265.1068717250273
 30
0.0
 10
104.5811222766722
 20
267.8288148203629
 30
0.0
 10
104.5335145451467
 20
270.2897536376643
 30
0.0
 10
104.4708340042487
 20
272.7335052252503
 30
0.0
 10
104.4052625232865
 20
274.2819204518504
 30
0.0
 10
104.365288813575
 20
274.4281127950316
 30
0.0
 10
104.3464161032354
 20
274.4971343035844
 30
0.0
  0
SPLINE
  5
25F
330
1F
100
AcDbEntity
  8
0
  6
Continuous
 62
     7
370
    25
100
AcDbSpline
210
0.0
220
0.0
230
1.0
 70
     8
 71
     3
 72
    20
 73
    16
 74
     0
 42
0.00000001
 43
0.00000001
 40
0.0
 40
0.0
 40
0.0
 40
0.0
 40
0.0300214767673944
 40
0.1172744335519374
 40
0.2045324067965852
 40
0.2899963960267491
 40
0.3773823205878807
 40
0.4644822718360596
 40
0.5499951057422503
 40
0.6374878162258156
 40
0.6628146064533441
 40
0.7477416540945464
 40
0.8339469209544942
 40
0.9216016805930903
 40
1.0
 40
1.0
 40
1.0
 40
1.0
 10
103.59007536384
 20
244.6664786564789
 30
0.0
 10
103.582886502828
 20
244.646554521657
 30
0.0
 10
103.5548042865669
 20
244.5687238525209
 30
0.0
 10
103.5026012255254
 20
245.553623012916
 30
0.0
 10
103.436364171221
 20
247.5554848156413
 30
0.0
 10
103.3756285812806
 20
250.4942977164179
 30
0.0
 10
103.3089574251508
 20
254.0677584761677
 30
0.0
 10
103.2431900625563
 20
258.0463778076716
 30
0.0
 10
103.1823184144792
 20
262.1283334560306
 30
0.0
 10
103.1311642235884
 20
265.1068717342403
 30
0.0
 10
103.0811222766861
 20
267.8288148155105
 30
0.0
 10
103.0335145451413
 20
270.2897536395413
 30
0.0
 10
102.9708340042502
 20
272.7335052247352
 30
0.0
 10
102.9052625232861
 20
274.2819204519642
 30
0.0
 10
102.8652888135749
 20
274.428112795068
 30
0.0
 10
102.8464161032354
 20
274.4971343035844
 30
0.0
  0
SPLINE
  5
260
330
1F
100
AcDbEntity
  8
0
  6
Continuous
 62
     7
370
    25
100
AcDbSpline
210
0.0
220
0.0
230
1.0
 70
     8
 71
     3
 72
    17
 73
    13
 74
     0
 42
0.00000001
 43
0.00000001
 40
0.0
 40
0.0
 40
0.0
 40
0.0
 40
0.0455378147311934
 40
0.1769443538592604
 40
0.3083584479824283
 40
0.4370707284446962
 40
0.5686775225094549
 40
0.6998536290110301
 40
0.8286394715629744
 40
0.9604070896159594
 40
0.9985502766627924
 40
1.0
 40
1.0
 40
1.0
 40
1.0
 10
102.0902308920378
 20
244.6666053319082
 30
0.0
 10
102.0829906868319
 20
244.6464659188398
 30
0.0
 10
102.0548577287719
 20
244.5682110562925
 30
0.0
 10
102.0026017634029
 20
245.5534286146044
 30
0.0
 10
101.9363641001463
 20
247.5555367283792
 30
0.0
 10
101.8756283451154
 20
250.4942797245471
 30
0.0
 10
101.8089584693
 20
254.0677781245741
 30
0.0
 10
101.7431861757606
 20
258.0463181292152
 30
0.0
 10
101.6823327755275
 20
262.128550470546
 30
0.0
 10
101.6311257633658
 20
265.1062913025609
 30
0.0
 10
101.6023939011838
 20
266.6734150452102
 30
0.0
 10
101.5957830591977
 20
267.0271391824476
 30
0.0
 10
101.595540998389
 20
267.0400910501359
 30
0.0
  0
SPLINE
  5
261
330
1F
100
AcDbEntity
  8
0
  6
Continuous
 62
     7
370
    25
100
AcDbSpline
210
0.0
220
0.0
230
1.0
 70
     8
 71
     3
 72
    16
 73
    12
 74
     0
 42
0.00000001
 43
0.00000001
 40
0.0
 40
0.0
 40
0.0
 40
0.0
 40
0.25
 40
0.25
 40
0.375
 40
0.375
 40
0.5
 40
0.5
 40
0.75
 40
0.75
 40
1.0
 40
1.0
 40
1.0
 40
1.0
 10
75.89857738094993
 20
301.8132147963274
 30
0.0
 10
75.19882842817464
 20
301.8132147963274
 30
0.0
 10
74.49021240590761
 20
301.8432597065793
 30
0.0
 10
73.41303641495325
 20
301.880268676187
 30
0.0
 10
73.05159940858051
 20
301.8916066232847
 30
0.0
 10
72.32377417546563
 20
301.907369882139
 30
0.0
 10
71.95586584075772
 20
301.9117700211021
 30
0.0
 10
70.85635244748663
 20
301.9116088914079
 30
0.0
 10
70.13230179372587
 20
301.8924038154253
 30
0.0
 10
68.70087291765759
 20
301.8431961268367
 30
0.0
 10
67.99349109818287
 20
301.8132147963274
 30
0.0
 10
67.29395705486266
 20
301.8132147963274
 30
0.0
  0
LWPOLYLINE
  5
262
330
1F
100
AcDbEntity
  8
0
  6
Continuous
 62
     7
370
    25
100
AcDbPolyline
 90
        9
 70
   128
 43
0.0
 10
67.2939570549
 20
301.8132147963
 10
67.2868485848
 20
302.0049875882
 10
67.268524173
 20
302.1887428783
 10
67.239667506
 20
302.3576247308
 10
67.20135523
 20
302.5053321398
 10
67.1550167815
 20
302.6263541209
 10
67.1023810545
 20
302.716175327
 10
67.0454118956
 20
302.7714445161
 10
66.986234832
 20
302.7900995869
  0
LWPOLYLINE
  5
263
330
1F
100
AcDbEntity
  8
0
  6
Continuous
 62
     7
370
    25
100
AcDbPolyline
 90
        9
 70
   128
 43
0.0
 10
76.2062996038
 20
302.7900995869
 10
76.1471225403
 20
302.7714445161
 10
76.0901533813
 20
302.716175327
 10
76.0375176543
 20
302.6263541209
 10
75.9911792058
 20
302.5053321398
 10
75.9528669298
 20
302.3576247308
 10
75.9240102628
 20
302.1887428783
 10
75.905685851
 20
302.0049875882
 10
75.8985773809
 20
301.8132147963
  0
SPLINE
  5
264
330
1F
100
AcDbEntity
  8
0
  6
Continuous
 62
     7
370
    25
100
AcDbSpline
210
0.0
220
0.0
230
1.0
 70
     8
 71
     3
 72
    20
 73
    16
 74
     0
 42
0.00000001
 43
0.00000001
 40
0.0
 40
0.0
 40
0.0
 40
0.0
 40
0.0618604983634788
 40
0.1486736585079682
 40
0.2346251464162643
 40
0.3196413359554091
 40
0.406507619085768
 40
0.4922268384077258
 40
0.577438946469052
 40
0.6643319671795411
 40
0.7497945655650844
 40
0.831875366163091
 40
0.9155956773229004
 40
0.9736782238205747
 40
1.0
 40
1.0
 40
1.0
 40
1.0
 10
105.2835652486855
 20
244.6452350840639
 30
0.0
 10
105.268654891868
 20
244.6581098838185
 30
0.0
 10
105.2328197893979
 20
244.6890527897553
 30
0.0
 10
105.1715851772581
 20
245.9983978184325
 30
0.0
 10
105.1070436911105
 20
248.2836392688176
 30
0.0
 10
105.0454127785658
 20
251.4168846061052
 30
0.0
 10
104.9779432407226
 20
255.1283334584737
 30
0.0
 10
104.9141394911752
 20
259.1646276070809
 30
0.0
 10
104.8519052367902
 20
263.2266180204631
 30
0.0
 10
104.7843344743142
 20
267.0210355101926
 30
0.0
 10
104.7221512119713
 20
270.227339650012
 30
0.0
 10
104.6607701434144
 20
272.6664695341474
 30
0.0
 10
104.6024848526515
 20
274.0031779618647
 30
0.0
 10
104.5602695872788
 20
274.5344027207862
 30
0.0
 10
104.5400501944334
 20
274.4932601781886
 30
0.0
 10
104.5337447077465
 20
274.4804297358207
 30
0.0
  0
SPLINE
  5
265
330
1F
100
AcDbEntity
  8
0
  6
Continuous
 62
     7
370
    25
100
AcDbSpline
210
0.0
220
0.0
230
1.0
 70
     8
 71
     3
 72
    20
 73
    16
 74
     0
 42
0.00000001
 43
0.00000001
 40
0.0
 40
0.0
 40
0.0
 40
0.0
 40
0.0618604983634799
 40
0.1486736585079692
 40
0.2346251464162651
 40
0.3196413359554098
 40
0.4065076190857687
 40
0.4922268384077264
 40
0.5774389464690526
 40
0.6643319671795416
 40
0.7497945655650847
 40
0.8318753661630912
 40
0.9155956773229005
 40
0.9736782238205747
 40
1.0
 40
1.0
 40
1.0
 40
1.0
 10
103.7835652486855
 20
244.6452350840639
 30
0.0
 10
103.768654891868
 20
244.6581098838185
 30
0.0
 10
103.7328197893979
 20
244.6890527897553
 30
0.0
 10
103.6715851772581
 20
245.9983978184325
 30
0.0
 10
103.6070436911105
 20
248.2836392688176
 30
0.0
 10
103.5454127785658
 20
251.4168846061052
 30
0.0
 10
103.4779432407226
 20
255.1283334584737
 30
0.0
 10
103.4141394911751
 20
259.1646276070809
 30
0.0
 10
103.3519052367902
 20
263.2266180204631
 30
0.0
 10
103.2843344743143
 20
267.0210355101926
 30
0.0
 10
103.2221512119713
 20
270.227339650012
 30
0.0
 10
103.1607701434144
 20
272.6664695341474
 30
0.0
 10
103.1024848526515
 20
274.0031779618647
 30
0.0
 10
103.0602695872788
 20
274.5344027207862
 30
0.0
 10
103.0400501944334
 20
274.4932601781886
 30
0.0
 10
103.0337447077465
 20
274.4804297358207
 30
0.0
  0
SPLINE
  5
266
330
1F
100
AcDbEntity
  8
0
  6
Continuous
 62
     7
370
    25
100
AcDbSpline
210
0.0
220
0.0
230
1.0
 70
     8
 71
     3
 72
    20
 73
    16
 74
     0
 42
0.00000001
 43
0.00000001
 40
0.0
 40
0.0
 40
0.0
 40
0.0
 40
0.0618604983634794
 40
0.1486736585079688
 40
0.2346251464162647
 40
0.3196413359554094
 40
0.4065076190857684
 40
0.4922268384077261
 40
0.5774389464690522
 40
0.6643319671795413
 40
0.7497945655650845
 40
0.831875366163091
 40
0.9155956773229004
 40
0.9736782238205746
 40
1.0
 40
1.0
 40
1.0
 40
1.0
 10
102.2835652486855
 20
244.6452350840639
 30
0.0
 10
102.268654891868
 20
244.6581098838185
 30
0.0
 10
102.2328197893978
 20
244.6890527897553
 30
0.0
 10
102.1715851772582
 20
245.9983978184325
 30
0.0
 10
102.1070436911104
 20
248.2836392688176
 30
0.0
 10
102.0454127785658
 20
251.4168846061052
 30
0.0
 10
101.9779432407226
 20
255.1283334584737
 30
0.0
 10
101.9141394911751
 20
259.1646276070809
 30
0.0
 10
101.8519052367902
 20
263.2266180204631
 30
0.0
 10
101.7843344743143
 20
267.0210355101926
 30
0.0
 10
101.7221512119713
 20
270.227339650012
 30
0.0
 10
101.6607701434144
 20
272.6664695341474
 30
0.0
 10
101.6024848526515
 20
274.0031779618647
 30
0.0
 10
101.5602695872788
 20
274.5344027207862
 30
0.0
 10
101.5400501944334
 20
274.4932601781886
 30
0.0
 10
101.5337447077465
 20
274.4804297358207
 30
0.0
  0
SPLINE
  5
267
330
1F
100
AcDbEntity
  8
0
  6
Continuous
 62
     7
370
    25
100
AcDbSpline
210
0.0
220
0.0
230
1.0
 70
     8
 71
     3
 72
    11
 73
     7
 74
     0
 42
0.00000001
 43
0.00000001
 40
0.0
 40
0.0
 40
0.0
 40
0.0
 40
0.2474075001062629
 40
0.5946117337590725
 40
0.9383697589346252
 40
0.9999999999999999
 40
0.9999999999999999
 40
0.9999999999999999
 40
0.9999999999999999
 10
100.7835652486855
 20
244.6452350840639
 30
0.0
 10
100.7686459657353
 20
244.6579590477954
 30
0.0
 10
100.7327894104666
 20
244.6885394389777
 30
0.0
 10
100.6717650423945
 20
246.0014372244855
 30
0.0
 10
100.6240405889198
 20
247.65929554249
 30
0.0
 10
100.5999323393608
 20
248.7653475335189
 30
0.0
 10
100.5962672179063
 20
248.9334980610861
 30
0.0
  0
SPLINE
  5
268
330
1F
100
AcDbEntity
  8
0
  6
Continuous
 62
     7
370
    25
100
AcDbSpline
210
0.0
220
0.0
230
1.0
 70
     8
 71
     3
 72
    15
 73
    11
 74
     0
 42
0.00000001
 43
0.00000001
 40
0.0
 40
0.0
 40
0.0
 40
0.0
 40
0.1122133095843806
 40
0.241530972348188
 40
0.3698946365368481
 40
0.4955864455027768
 40
0.6228041543764761
 40
0.7519414805897797
 40
0.8808960593436865
 40
1.0
 40
1.0
 40
1.0
 40
1.0
 10
105.3462672179063
 20
261.4358626742136
 30
0.0
 10
105.3336680748024
 20
262.1740764200462
 30
0.0
 10
105.3065493373202
 20
263.7630277172868
 30
0.0
 10
105.263733833153
 20
266.0531986542902
 30
0.0
 10
105.2199098878989
 20
268.2210175524344
 30
0.0
 10
105.179399010679
 20
270.0964835472977
 30
0.0
 10
105.136843773234
 20
271.6426947529538
 30
0.0
 10
105.0924623523324
 20
272.7975674911755
 30
0.0
 10
105.0489634859307
 20
273.5397228539036
 30
0.0
 10
105.0218664863929
 20
273.6548639446576
 30
0.0
 10
105.0088560103465
 20
273.7101483093022
 30
0.0
  0
SPLINE
  5
269
330
1F
100
AcDbEntity
  8
0
  6
Continuous
 62
     7
370
    25
100
AcDbSpline
210
0.0
220
0.0
230
1.0
 70
     8
 71
     3
 72
    25
 73
    21
 74
     0
 42
0.00000001
 43
0.00000001
 40
0.0
 40
0.0
 40
0.0
 40
0.0
 40
0.0258606171074922
 40
0.0836232908106762
 40
0.1420855461127279
 40
0.2002910734332706
 40
0.257322417869475
 40
0.3146037509074272
 40
0.372920576995751
 40
0.4313305986589752
 40
0.488882550631646
 40
0.5457221919735024
 40
0.6037680231889334
 40
0.6622557657867829
 40
0.7202266440966301
 40
0.7770216150440427
 40
0.8346743652246198
 40
0.8931120437650916
 40
0.9513807161373413
 40
1.0
 40
1.0
 40
1.0
 40
1.0
 10
104.2528373503636
 20
245.4069908703208
 30
0.0
 10
104.2466868935418
 20
245.3944223750338
 30
0.0
 10
104.2267986813893
 20
245.3537806945951
 30
0.0
 10
104.1913395521465
 20
245.7698495637722
 30
0.0
 10
104.1468985981796
 20
246.634887085477
 30
0.0
 10
104.1027415453707
 20
247.9439186609988
 30
0.0
 10
104.0616849007084
 20
249.6086242292501
 30
0.0
 10
104.0198755839942
 20
251.5924374141889
 30
0.0
 10
103.9755724731883
 20
253.8499923096394
 30
0.0
 10
103.9311711245373
 20
256.2979515357779
 30
0.0
 10
103.8885756641876
 20
258.8294335511454
 30
0.0
 10
103.8481013154406
 20
261.3777390337468
 30
0.0
 10
103.804244968822
 20
263.8816087480337
 30
0.0
 10
103.7597868980699
 20
266.2595677726601
 30
0.0
 10
103.7160968635891
 20
268.4017764833995
 30
0.0
 10
103.6757597321845
 20
270.2493737141305
 30
0.0
 10
103.6328795150809
 20
271.7638596869731
 30
0.0
 10
103.5884689182994
 20
272.8798977262443
 30
0.0
 10
103.5463505415443
 20
273.5670257399755
 30
0.0
 10
103.5206643314044
 20
273.6544759551827
 30
0.0
 10
103.508980647048
 20
273.694253746683
 30
0.0
  0
SPLINE
  5
26A
330
1F
100
AcDbEntity
  8
0
  6
Continuous
 62
     7
370
    25
100
AcDbSpline
210
0.0
220
0.0
230
1.0
 70
     8
 71
     3
 72
    25
 73
    21
 74
     0
 42
0.00000001
 43
0.00000001
 40
0.0
 40
0.0
 40
0.0
 40
0.0
 40
0.0306625631786156
 40
0.0885484705021826
 40
0.1470497624920669
 40
0.20520817885068
 40
0.2621582977095582
 40
0.3195914265962251
 40
0.3779785848303975
 40
0.4363725263071757
 40
0.4938253520571863
 40
0.550761517894036
 40
0.6089083107884802
 40
0.6674114578735391
 40
0.7253125193171517
 40
0.7821022333723134
 40
0.8398855255011143
 40
0.8983701389669358
 40
0.9565994268673164
 40
0.9999999999999999
 40
0.9999999999999999
 40
0.9999999999999999
 40
0.9999999999999999
 10
102.7525352201061
 20
245.4070613077582
 30
0.0
 10
102.745256339496
 20
245.3981516557322
 30
0.0
 10
102.7242361220653
 20
245.3724220370109
 30
0.0
 10
102.6873597169289
 20
245.8287913643404
 30
0.0
 10
102.6429068403535
 20
246.7363203187065
 30
0.0
 10
102.598870261677
 20
248.0791808730355
 30
0.0
 10
102.5581270459074
 20
249.7742762116572
 30
0.0
 10
102.515936707584
 20
251.7844483239357
 30
0.0
 10
102.4715804307116
 20
254.0636984162071
 30
0.0
 10
102.4272170162685
 20
256.5229252431923
 30
0.0
 10
102.3849694488345
 20
259.0584356870833
 30
0.0
 10
102.344268681662
 20
261.6053110073136
 30
0.0
 10
102.3002537092984
 20
264.1019701997863
 30
0.0
 10
102.2558006008661
 20
266.4628967601251
 30
0.0
 10
102.2123312717798
 20
268.5805067316294
 30
0.0
 10
102.1720775073327
 20
270.3995099247072
 30
0.0
 10
102.1289064578381
 20
271.8820137716646
 30
0.0
 10
102.0844768574114
 20
272.9584887040602
 30
0.0
 10
102.0437507391373
 20
273.5931787883108
 30
0.0
 10
102.0194493935043
 20
273.6554440994958
 30
0.0
 10
102.0090716136111
 20
273.6820342194097
 30
0.0
  0
SPLINE
  5
26B
330
1F
100
AcDbEntity
  8
0
  6
Continuous
 62
     7
370
    25
100
AcDbSpline
210
0.0
220
0.0
230
1.0
 70
     8
 71
     3
 72
    19
 73
    15
 74
     0
 42
0.00000001
 43
0.00000001
 40
0.0
 40
0.0
 40
0.0
 40
0.0
 40
0.0532475561386665
 40
0.13944234649094
 40
0.2264257037311121
 40
0.3127718059995515
 40
0.3973199112399597
 40
0.4828848336205108
 40
0.5697452583404895
 40
0.656487241056014
 40
0.7417082352434683
 40
0.8264999749873021
 40
0.9130490345028696
 40
1.0
 40
1.0
 40
1.0
 40
1.0
 10
101.2524891533136
 20
245.4036787821741
 30
0.0
 10
101.2439902475611
 20
245.4003347203233
 30
0.0
 10
101.2217336888254
 20
245.3915774389548
 30
0.0
 10
101.1833759970721
 20
245.8915374329034
 30
0.0
 10
101.1389149041065
 20
246.8410705671001
 30
0.0
 10
101.0950323981092
 20
248.2174120952662
 30
0.0
 10
101.0545272683496
 20
249.9425681868679
 30
0.0
 10
101.0119846006957
 20
251.9787643471319
 30
0.0
 10
100.9675880631338
 20
254.2789198114308
 30
0.0
 10
100.923276692299
 20
256.7481607659074
 30
0.0
 10
100.8814022452196
 20
259.2881103185186
 30
0.0
 10
100.8404127032751
 20
261.8296046930707
 30
0.0
 10
100.7962229294633
 20
264.3317176520925
 30
0.0
 10
100.7666244867876
 20
265.8654835518629
 30
0.0
 10
100.7517909836357
 20
266.6341429559284
 30
0.0
  0
ELLIPSE
  5
26C
330
1F
100
AcDbEntity
  8
0
  6
Continuous
 62
     7
370
    25
100
AcDbEllipse
 10
92.9352840121
 20
259.5400995869
 30
0.0
 11
5.514779443589617
 21
14.79197504224373
 31
0.0
210
0.0
220
0.0
230
1.0
 40
0.4514183623
 41
5.402723445751576
 42
5.7332432573451
  0
LINE
  5
26D
330
1F
100
AcDbEntity
  8
0
  6
Continuous
 62
     7
370
    25
100
AcDbLine
 10
101.1267814384
 20
270.8499764673
 30
0.0
 11
100.7517815812
 21
270.8499764672
 31
0.0
  0
ELLIPSE
  5
26E
330
1F
100
AcDbEntity
  8
0
  6
Continuous
 62
     7
370
    25
100
AcDbEllipse
 10
108.943294192
 20
259.5400995869
 30
0.0
 11
-5.514823779167059
 21
14.79197426083272
 31
0.0
210
0.0
220
0.0
230
1.0
 40
0.4514155752
 41
0.5499417359511724
 42
0.6106875643056922
  0
ARC
  5
26F
330
1F
100
AcDbEntity
  8
0
  6
Continuous
 62
     7
370
    25
100
AcDbCircle
 10
63.1689104163
 20
317.9828348891
 30
0.0
 40
1.587597143789193
100
AcDbArc
 50
316.4967713478
 51
354.1948906197
  0
ARC
  5
270
330
1F
100
AcDbEntity
  8
0
  6
Continuous
 62
     7
370
    25
100
AcDbCircle
 10
80.0236240195
 20
317.9828348891
 30
0.0
 40
1.587597143789229
100
AcDbArc
 50
185.8051093803
 51
223.5032286522
  0
ARC
  5
271
330
1F
100
AcDbEntity
  8
0
  6
Continuous
 62
     7
370
    25
100
AcDbCircle
 10
62.9971874797
 20
317.998153247
 30
0.0
 40
1.536432317410641
100
AcDbArc
 50
315.3759149485
 51
356.8310931139
  0
ARC
  5
272
330
1F
100
AcDbEntity
  8
0
  6
Continuous
 62
     7
370
    25
100
AcDbCircle
 10
80.1953469561
 20
317.998153247
 30
0.0
 40
1.536432317410524
100
AcDbArc
 50
183.1689068861
 51
224.6240850515
  0
ARC
  5
273
330
1F
100
AcDbEntity
  8
0
  6
Continuous
 62
     7
370
    25
100
AcDbCircle
 10
81.4731370198
 20
317.6208584137
 30
0.0
 40
1.016039454124111
100
AcDbArc
 50
163.2769349669
 51
223.7009200217
  0
ARC
  5
274
330
1F
100
AcDbEntity
  8
0
  6
Continuous
 62
     7
370
    25
100
AcDbCircle
 10
61.719397416
 20
317.6208584137
 30
0.0
 40
1.016039454124084
100
AcDbArc
 50
316.2990799783
 51
16.7230650331
  0
SPLINE
  5
275
330
1F
100
AcDbEntity
  8
0
  6
Continuous
 62
     7
370
    25
100
AcDbSpline
210
0.0
220
0.0
230
1.0
 70
     8
 71
     3
 72
    12
 73
     8
 74
     0
 42
0.00000001
 43
0.00000001
 40
0.0
 40
0.0
 40
0.0
 40
0.0
 40
0.5000000000000004
 40
0.5000000000000004
 40
0.7500000000000002
 40
0.7500000000000002
 40
1.0
 40
1.0
 40
1.0
 40
1.0
 10
59.378594443335
 20
274.7716292018639
 30
0.0
 10
59.21592558948682
 20
274.408922682395
 30
0.0
 10
59.06202811821178
 20
274.0777816729903
 30
0.0
 10
58.84324641429193
 20
273.6901640812314
 30
0.0
 10
58.77206177083102
 20
273.5799633324488
 30
0.0
 10
58.64068945938148
 20
273.4273567461758
 30
0.0
 10
58.57913227849588
 20
273.383685155922
 30
0.0
 10
58.52499681661774
 20
273.3836851559217
 30
0.0
  0
SPLINE
  5
276
330
1F
100
AcDbEntity
  8
0
  6
Continuous
 62
     7
370
    25
100
AcDbSpline
210
0.0
220
0.0
230
1.0
 70
     8
 71
     3
 72
    16
 73
    12
 74
     0
 42
0.00000001
 43
0.00000001
 40
0.0
 40
0.0
 40
0.0
 40
0.0
 40
0.2500000000000006
 40
0.2500000000000006
 40
0.3750000000000008
 40
0.3750000000000008
 40
0.5000000000000009
 40
0.5000000000000009
 40
0.7500000000000004
 40
0.7500000000000004
 40
1.0
 40
1.0
 40
1.0
 40
1.0
 10
62.23031969027393
 20
301.8132147963274
 30
0.0
 10
61.68439740134585
 20
301.8132147963274
 30
0.0
 10
61.18339563887574
 20
301.8432597065793
 30
0.0
 10
60.49706278983682
 20
301.880268676187
 30
0.0
 10
60.27920381808331
 20
301.8916066232847
 30
0.0
 10
59.86561309443474
 20
301.907369882139
 30
0.0
 10
59.66914297511507
 20
301.9117700211021
 30
0.0
 10
59.11985988642475
 20
301.9116088914079
 30
0.0
 10
58.80812805350352
 20
301.8924038154253
 30
0.0
 10
58.2891026681645
 20
301.8431961268367
 30
0.0
 10
58.0817889472705
 20
301.8132147963274
 30
0.0
 10
57.9280095272303
 20
301.8132147963274
 30
0.0
  0
LINE
  5
277
330
1F
100
AcDbEntity
  8
0
  6
Continuous
 62
     7
370
    25
100
AcDbLine
 10
67.2939570549
 20
301.8132147963
 30
0.0
 11
62.2303196903
 21
301.8132147963
 31
0.0
  0
LINE
  5
278
330
1F
100
AcDbEntity
  8
0
  6
Continuous
 62
     7
370
    25
100
AcDbLine
 10
80.9622147455
 20
301.8132147963
 30
0.0
 11
75.8985773809
 21
301.8132147963
 31
0.0
  0
SPLINE
  5
279
330
1F
100
AcDbEntity
  8
0
  6
Continuous
 62
     7
370
    25
100
AcDbSpline
210
0.0
220
0.0
230
1.0
 70
     8
 71
     3
 72
    16
 73
    12
 74
     0
 42
0.00000001
 43
0.00000001
 40
0.0
 40
0.0
 40
0.0
 40
0.0
 40
0.2499999999999997
 40
0.2499999999999997
 40
0.3749999999999997
 40
0.3749999999999997
 40
0.4999999999999997
 40
0.4999999999999997
 40
0.7499999999999998
 40
0.7499999999999998
 40
1.0
 40
1.0
 40
1.0
 40
1.0
 10
85.26452490858229
 20
301.8132147963274
 30
0.0
 10
85.11069824473505
 20
301.8132147963274
 30
0.0
 10
84.90308398493815
 20
301.8432597065793
 30
0.0
 10
84.51224084302272
 20
301.880268676187
 30
0.0
 10
84.3686628084035
 20
301.8916066232847
 30
0.0
 10
84.05442829893718
 20
301.9073698821389
 30
0.0
 10
83.88299008354893
 20
301.9117700211021
 30
0.0
 10
83.33275977896817
 20
301.9116088914079
 30
0.0
 10
82.92044095812865
 20
301.8924038154253
 30
0.0
 10
82.00803746739938
 20
301.8431961268367
 30
0.0
 10
81.50796936881866
 20
301.8132147963274
 30
0.0
 10
80.96221474553865
 20
301.8132147963274
 30
0.0
  0
LINE
  5
27A
330
1F
100
AcDbEntity
  8
0
  6
Continuous
 62
     7
370
    25
100
AcDbLine
 10
81.6998969287
 20
304.5400995869
 30
0.0
 11
89.2054504282
 21
304.5400995869
 31
0.0
  0
ARC
  5
27B
330
1F
100
AcDbEntity
  8
0
  6
Continuous
 62
     7
370
    25
100
AcDbCircle
 10
87.5636106002
 20
304.4307245869
 30
0.0
 40
1.645478930724587
100
AcDbArc
 50
274.4019496523
 51
3.8112610495
  0
LINE
  5
27C
330
1F
100
AcDbEntity
  8
0
  6
Continuous
 62
     7
370
    25
100
AcDbLine
 10
87.6899059716
 20
302.7900995869
 30
0.0
 11
86.2421454148
 21
302.7900995869
 31
0.0
  0
SPLINE
  5
27D
330
1F
100
AcDbEntity
  8
0
  6
Continuous
 62
     7
370
    25
100
AcDbSpline
210
0.0
220
0.0
230
1.0
 70
     8
 71
     3
 72
    14
 73
    10
 74
     0
 42
0.00000001
 43
0.00000001
 40
0.0
 40
0.0
 40
0.0
 40
0.0
 40
0.25
 40
0.25
 40
0.5
 40
0.5
 40
0.75
 40
0.75
 40
1.0
 40
1.0
 40
1.0
 40
1.0
 10
81.63211302887215
 20
302.7900995868974
 30
0.0
 10
82.14732676036877
 20
302.7900995868974
 30
0.0
 10
82.62951032609367
 20
302.8095542186296
 30
0.0
 10
83.53217901816805
 20
302.840883704626
 30
0.0
 10
83.95311659965459
 20
302.8528090206746
 30
0.0
 10
84.72801596277597
 20
302.852756263043
 30
0.0
 10
85.0811822936245
 20
302.8408163836303
 30
0.0
 10
85.71578773012801
 20
302.8095353181899
 30
0.0
 10
85.99777972026588
 20
302.7900995868908
 30
0.0
 10
86.24214541479684
 20
302.7900995868909
 30
0.0
  0
LINE
  5
27E
330
1F
100
AcDbEntity
  8
0
  6
Continuous
 62
     7
370
    25
100
AcDbLine
 10
81.6321130289
 20
302.7900995869
 30
0.0
 11
80.1843524721
 21
302.7900995869
 31
0.0
  0
LINE
  5
27F
330
1F
100
AcDbEntity
  8
0
  6
Continuous
 62
     7
370
    25
100
AcDbLine
 10
81.8147656257
 20
315.2900995869
 30
0.0
 11
81.6998969287
 21
315.2900995869
 31
0.0
  0
SPLINE
  5
280
330
1F
100
AcDbEntity
  8
0
  6
Continuous
 62
     7
370
    25
100
AcDbSpline
210
0.0
220
0.0
230
1.0
 70
     8
 71
     3
 72
    16
 73
    12
 74
     0
 42
0.00000001
 43
0.00000001
 40
0.0
 40
0.0
 40
0.0
 40
0.0
 40
0.2499999999999999
 40
0.2499999999999999
 40
0.4999999999999998
 40
0.4999999999999998
 40
0.7499999999999997
 40
0.7499999999999997
 40
0.8749999999999998
 40
0.8749999999999998
 40
1.0
 40
1.0
 40
1.0
 40
1.0
 10
81.81476562574349
 20
315.2900995868976
 30
0.0
 10
82.13045264914099
 20
315.2900995868976
 30
0.0
 10
82.44096665660875
 20
315.3579450793277
 30
0.0
 10
83.05633213195438
 20
315.5679017908162
 30
0.0
 10
83.3614149980298
 20
315.7115751674655
 30
0.0
 10
83.96667205677349
 20
316.0430874004032
 30
0.0
 10
84.26580988272985
 20
316.230528180557
 30
0.0
 10
84.71211773250117
 20
316.5265915348263
 30
0.0
 10
84.86047966735146
 20
316.6278098162056
 30
0.0
 10
85.15680379621205
 20
316.8327296164798
 30
0.0
 10
85.3054144586869
 20
316.9368893339018
 30
0.0
 10
85.45267367845733
 20
317.0400995868976
 30
0.0
  0
SPLINE
  5
281
330
1F
100
AcDbEntity
  8
0
  6
Continuous
 62
     7
370
    25
100
AcDbSpline
210
0.0
220
0.0
230
1.0
 70
     8
 71
     3
 72
    16
 73
    12
 74
     0
 42
0.00000001
 43
0.00000001
 40
0.0
 40
0.0
 40
0.0
 40
0.0
 40
0.2499999999999998
 40
0.2499999999999998
 40
0.4999999999999996
 40
0.4999999999999996
 40
0.7499999999999993
 40
0.7499999999999993
 40
0.8749999999999997
 40
0.8749999999999997
 40
1.0
 40
1.0
 40
1.0
 40
1.0
 10
89.09058173117113
 20
315.2900995868976
 30
0.0
 10
88.77440378081877
 20
315.2900995868976
 30
0.0
 10
88.46386093860778
 20
315.3580947556804
 30
0.0
 10
87.84889841986454
 20
315.5679693335072
 30
0.0
 10
87.54459538714977
 20
315.7112562072984
 30
0.0
 10
86.93969031181237
 20
316.0424873846348
 30
0.0
 10
86.64004173849838
 20
316.230202761554
 30
0.0
 10
86.19351873578486
 20
316.526395212577
 30
0.0
 10
86.04509260460783
 20
316.6276553043844
 30
0.0
 10
85.74864734788162
 20
316.8326568189077
 30
0.0
 10
85.59985880336451
 20
316.9369412652339
 30
0.0
 10
85.45267367845733
 20
317.0400995868976
 30
0.0
  0
LINE
  5
282
330
1F
100
AcDbEntity
  8
0
  6
Continuous
 62
     7
370
    25
100
AcDbLine
 10
89.2054504282
 20
315.2900995869
 30
0.0
 11
89.0905817312
 21
315.2900995869
 31
0.0
  0
LINE
  5
283
330
1F
100
AcDbEntity
  8
0
  6
Continuous
 62
     7
370
    25
100
AcDbLine
 10
89.2054504282
 20
304.5400995869
 30
0.0
 11
89.2054504282
 21
315.2900995869
 31
0.0
  0
SPLINE
  5
284
330
1F
100
AcDbEntity
  8
0
  6
Continuous
 62
     7
370
    25
100
AcDbSpline
210
0.0
220
0.0
230
1.0
 70
     8
 71
     3
 72
     8
 73
     4
 74
     0
 42
0.00000001
 43
0.00000001
 40
0.0000000000000002
 40
0.0000000000000002
 40
0.0000000000000002
 40
0.0000000000000002
 40
0.0002416894103824
 40
0.0002416894103824
 40
0.0002416894103824
 40
0.0002416894103824
 10
80.91343401148235
 20
316.8899402390786
 30
0.0
 10
80.85533518212807
 20
316.9000804572132
 30
0.0
 10
80.79706548785171
 20
316.9097196699275
 30
0.0
 10
80.7385851473813
 20
316.9188828307755
 30
0.0
  0
ARC
  5
285
330
1F
100
AcDbEntity
  8
0
  6
Continuous
 62
     7
370
    25
100
AcDbCircle
 10
80.0382945516
 20
315.3430766472
 30
0.0
 40
1.777260826753796
100
AcDbArc
 50
358.291859247
 51
60.5009498435
  0
LINE
  5
286
330
1F
100
AcDbEntity
  8
0
  6
Continuous
 62
     7
370
    25
100
AcDbLine
 10
61.4926375071
 20
315.2900995869
 30
0.0
 11
61.3777688101
 21
315.2900995869
 31
0.0
  0
ARC
  5
287
330
1F
100
AcDbEntity
  8
0
  6
Continuous
 62
     7
370
    25
100
AcDbCircle
 10
63.1542398842
 20
315.3430766472
 30
0.0
 40
1.777260826753842
100
AcDbArc
 50
119.4990501565
 51
181.708140753
  0
SPLINE
  5
288
330
1F
100
AcDbEntity
  8
0
  6
Continuous
 62
     7
370
    25
100
AcDbSpline
210
0.0
220
0.0
230
1.0
 70
     8
 71
     3
 72
     8
 73
     4
 74
     0
 42
0.00000001
 43
0.00000001
 40
0.0
 40
0.0
 40
0.0
 40
0.0
 40
0.0002416894103822
 40
0.0002416894103822
 40
0.0002416894103822
 40
0.0002416894103822
 10
62.45394928843128
 20
316.9188828307754
 30
0.0
 10
62.39546894796091
 20
316.9097196699273
 30
0.0
 10
62.33719925368463
 20
316.9000804572134
 30
0.0
 10
62.2791004243304
 20
316.8899402390788
 30
0.0
  0
LINE
  5
289
330
1F
100
AcDbEntity
  8
0
  6
Continuous
 62
     7
370
    25
100
AcDbLine
 10
54.1019527046
 20
315.2900995869
 30
0.0
 11
53.9870840076
 21
315.2900995869
 31
0.0
  0
SPLINE
  5
28A
330
1F
100
AcDbEntity
  8
0
  6
Continuous
 62
     7
370
    25
100
AcDbSpline
210
0.0
220
0.0
230
1.0
 70
     8
 71
     3
 72
    16
 73
    12
 74
     0
 42
0.00000001
 43
0.00000001
 40
0.0
 40
0.0
 40
0.0
 40
0.0
 40
0.2500000000000003
 40
0.2500000000000003
 40
0.5000000000000006
 40
0.5000000000000006
 40
0.7500000000000004
 40
0.7500000000000004
 40
0.8750000000000003
 40
0.8750000000000003
 40
1.0
 40
1.0
 40
1.0
 40
1.0
 10
54.10195270464146
 20
315.2900995868976
 30
0.0
 10
54.41763972803895
 20
315.2900995868976
 30
0.0
 10
54.72815373550672
 20
315.3579450793277
 30
0.0
 10
55.34351921085234
 20
315.5679017908162
 30
0.0
 10
55.64860207692775
 20
315.7115751674655
 30
0.0
 10
56.25385913567145
 20
316.0430874004032
 30
0.0
 10
56.55299696162781
 20
316.230528180557
 30
0.0
 10
56.99930481139913
 20
316.5265915348263
 30
0.0
 10
57.14766674624941
 20
316.6278098162057
 30
0.0
 10
57.44399087511
 20
316.8327296164798
 30
0.0
 10
57.5926015375858
 20
316.9368893338963
 30
0.0
 10
57.73986075735527
 20
317.0400995868976
 30
0.0
  0
SPLINE
  5
28B
330
1F
100
AcDbEntity
  8
0
  6
Continuous
 62
     7
370
    25
100
AcDbSpline
210
0.0
220
0.0
230
1.0
 70
     8
 71
     3
 72
    16
 73
    12
 74
     0
 42
0.00000001
 43
0.00000001
 40
0.0
 40
0.0
 40
0.0
 40
0.0
 40
0.2499999999999999
 40
0.2499999999999999
 40
0.4999999999999998
 40
0.4999999999999998
 40
0.7499999999999997
 40
0.7499999999999997
 40
0.8749999999999998
 40
0.8749999999999998
 40
1.0
 40
1.0
 40
1.0
 40
1.0
 10
61.37776881006908
 20
315.2900995868976
 30
0.0
 10
61.06159085971673
 20
315.2900995868976
 30
0.0
 10
60.75104801750574
 20
315.3580947556804
 30
0.0
 10
60.1360854987625
 20
315.5679693335072
 30
0.0
 10
59.83178246604773
 20
315.7112562072984
 30
0.0
 10
59.22687739071032
 20
316.0424873846347
 30
0.0
 10
58.92722881739634
 20
316.230202761554
 30
0.0
 10
58.48070581468281
 20
316.526395212577
 30
0.0
 10
58.33227968350578
 20
316.6276553043843
 30
0.0
 10
58.03583442677957
 20
316.8326568189077
 30
0.0
 10
57.8870458822618
 20
316.9369412652301
 30
0.0
 10
57.73986075735527
 20
317.0400995868976
 30
0.0
  0
LINE
  5
28C
330
1F
100
AcDbEntity
  8
0
  6
Continuous
 62
     7
370
    25
100
AcDbLine
 10
53.9870840076
 20
304.5400995869
 30
0.0
 11
61.4926375071
 21
304.5400995869
 31
0.0
  0
LINE
  5
28D
330
1F
100
AcDbEntity
  8
0
  6
Continuous
 62
     7
370
    25
100
AcDbLine
 10
53.9870840076
 20
315.2900995869
 30
0.0
 11
53.9870840076
 21
304.5400995869
 31
0.0
  0
ARC
  5
28E
330
1F
100
AcDbEntity
  8
0
  6
Continuous
 62
     7
370
    25
100
AcDbCircle
 10
55.6289238356
 20
304.4307245869
 30
0.0
 40
1.645478930724587
100
AcDbArc
 50
176.1887389505
 51
265.5980503477
  0
LINE
  5
28F
330
1F
100
AcDbEntity
  8
0
  6
Continuous
 62
     7
370
    25
100
AcDbLine
 10
63.0081819637
 20
302.7900995869
 30
0.0
 11
61.5604214069
 21
302.7900995869
 31
0.0
  0
SPLINE
  5
290
330
1F
100
AcDbEntity
  8
0
  6
Continuous
 62
     7
370
    25
100
AcDbSpline
210
0.0
220
0.0
230
1.0
 70
     8
 71
     3
 72
    14
 73
    10
 74
     0
 42
0.00000001
 43
0.00000001
 40
0.0
 40
0.0
 40
0.0
 40
0.0
 40
0.25
 40
0.25
 40
0.5
 40
0.5
 40
0.75
 40
0.75
 40
1.0
 40
1.0
 40
1.0
 40
1.0
 10
56.95038902101565
 20
302.7900995868974
 30
0.0
 10
57.19475352262091
 20
302.7900995868974
 30
0.0
 10
57.47697282549019
 20
302.8095542186296
 30
0.0
 10
58.11287564769201
 20
302.840883704626
 30
0.0
 10
58.46724604726876
 20
302.8528090206746
 30
0.0
 10
59.24247757833505
 20
302.852756263043
 30
0.0
 10
59.66236793074741
 20
302.8408163836303
 30
0.0
 10
60.56349561689369
 20
302.8095353181899
 30
0.0
 10
61.04520516030077
 20
302.7900995868909
 30
0.0
 10
61.5604214069405
 20
302.7900995868909
 30
0.0
  0
LINE
  5
291
330
1F
100
AcDbEntity
  8
0
  6
Continuous
 62
     7
370
    25
100
AcDbLine
 10
56.950389021
 20
302.7900995869
 30
0.0
 11
55.5026284642
 21
302.7900995869
 31
0.0
  0
SPLINE
  5
292
330
1F
100
AcDbEntity
  8
0
  6
Continuous
 62
     7
370
    25
100
AcDbSpline
210
0.0
220
0.0
230
1.0
 70
     8
 71
     3
 72
     8
 73
     4
 74
     0
 42
0.00000001
 43
0.00000001
 40
0.0
 40
0.0
 40
0.0
 40
0.0
 40
0.000105507294285
 40
0.000105507294285
 40
0.000105507294285
 40
0.000105507294285
 10
80.98702613805558
 20
316.8787359766607
 30
0.0
 10
80.96247346928223
 20
316.8823258076218
 30
0.0
 10
80.93794029244506
 20
316.8860564160636
 30
0.0
 10
80.91343401148235
 20
316.8899402390786
 30
0.0
  0
SPLINE
  5
293
330
1F
100
AcDbEntity
  8
0
  6
Continuous
 62
     7
370
    25
100
AcDbSpline
210
0.0
220
0.0
230
1.0
 70
     8
 71
     3
 72
    14
 73
    10
 74
     0
 42
0.00000001
 43
0.00000001
 40
0.0
 40
0.0
 40
0.0
 40
0.0
 40
0.25
 40
0.25
 40
0.5
 40
0.5
 40
0.75
 40
0.75
 40
1.0
 40
1.0
 40
1.0
 40
1.0
 10
80.98702613805558
 20
316.8787359766607
 30
0.0
 10
81.41144229963979
 20
316.8166823444746
 30
0.0
 10
81.83014085430423
 20
316.7981578812018
 30
0.0
 10
82.64063412316135
 20
316.7932151650006
 30
0.0
 10
83.03338715847988
 20
316.8086767687977
 30
0.0
 10
83.78617391813454
 20
316.8563411744246
 30
0.0
 10
84.1452823550772
 20
316.8887799147465
 30
0.0
 10
84.82700401976578
 20
316.9607561240169
 30
0.0
 10
85.15068861701528
 20
317.0005716678518
 30
0.0
 10
85.45267367845732
 20
317.0400995868976
 30
0.0
  0
SPLINE
  5
294
330
1F
100
AcDbEntity
  8
0
  6
Continuous
 62
     7
370
    25
100
AcDbSpline
210
0.0
220
0.0
230
1.0
 70
     8
 71
     3
 72
    14
 73
    10
 74
     0
 42
0.00000001
 43
0.00000001
 40
0.0
 40
0.0
 40
0.0
 40
0.0
 40
0.25
 40
0.25
 40
0.5
 40
0.5
 40
0.75
 40
0.75
 40
1.0
 40
1.0
 40
1.0
 40
1.0
 10
62.20550829776983
 20
316.8787359766625
 30
0.0
 10
61.78109213618446
 20
316.8166823444753
 30
0.0
 10
61.36239358151875
 20
316.7981578812021
 30
0.0
 10
60.55190031265921
 20
316.7932151650004
 30
0.0
 10
60.15914727733951
 20
316.8086767687975
 30
0.0
 10
59.40636051768261
 20
316.8563411744242
 30
0.0
 10
59.0472520807389
 20
316.8887799147461
 30
0.0
 10
58.36553041604843
 20
316.9607561240168
 30
0.0
 10
58.04184581879818
 20
317.0005716678547
 30
0.0
 10
57.73986075735527
 20
317.0400995868976
 30
0.0
  0
SPLINE
  5
295
330
1F
100
AcDbEntity
  8
0
  6
Continuous
 62
     7
370
    25
100
AcDbSpline
210
0.0
220
0.0
230
1.0
 70
     8
 71
     3
 72
     8
 73
     4
 74
     0
 42
0.00000001
 43
0.00000001
 40
0.0
 40
0.0
 40
0.0
 40
0.0
 40
0.0001055072942668
 40
0.0001055072942668
 40
0.0001055072942668
 40
0.0001055072942668
 10
62.27910042433037
 20
316.8899402390786
 30
0.0
 10
62.25459414337187
 20
316.8860564160643
 30
0.0
 10
62.23006096653902
 20
316.8823258076226
 30
0.0
 10
62.2055082977699
 20
316.878735976662
 30
0.0
  0
ARC
  5
296
330
1F
100
AcDbEntity
  8
0
  6
Continuous
 62
     7
370
    25
100
AcDbCircle
 10
81.8313153863
 20
301.9353630536
 30
0.0
 40
0.8776423648443815
100
AcDbArc
 50
103.119007754
 51
188.0002668541
  0
ARC
  5
297
330
1F
100
AcDbEntity
  8
0
  6
Continuous
 62
     7
370
    25
100
AcDbCircle
 10
61.3612190495
 20
301.9353630536
 30
0.0
 40
0.8776423648443361
100
AcDbArc
 50
351.9997331459
 51
76.880992246
  0
LINE
  5
298
330
1F
100
AcDbEntity
  8
0
  6
Continuous
 62
     7
370
    25
100
AcDbLine
 10
100.7517909836
 20
266.6341414787
 30
0.0
 11
101.1267908408
 21
266.6341421059
 31
0.0
  0
ARC
  5
299
330
1F
100
AcDbEntity
  8
0
  6
Continuous
 62
     7
370
    25
100
AcDbCircle
 10
81.6573238033
 20
317.5551519581
 30
0.0
 40
0.997937199216192
100
AcDbArc
 50
164.4750771131
 51
221.8041723328
  0
ARC
  5
29A
330
1F
100
AcDbEntity
  8
0
  6
Continuous
 62
     7
370
    25
100
AcDbCircle
 10
61.5352106325
 20
317.5551519581
 30
0.0
 40
0.9979371992167279
100
AcDbArc
 50
318.1958276672
 51
15.5249228869
  0
ARC
  5
29B
330
1F
100
AcDbEntity
  8
0
  6
Continuous
 62
     7
370
    25
100
AcDbCircle
 10
81.7459643301
 20
317.5387123268
 30
0.0
 40
1.005761384292104
100
AcDbArc
 50
165.7659488811
 51
221.0103806761
  0
ARC
  5
29C
330
1F
100
AcDbEntity
  8
0
  6
Continuous
 62
     7
370
    25
100
AcDbCircle
 10
61.4465701057
 20
317.5387123268
 30
0.0
 40
1.005761384288367
100
AcDbArc
 50
318.9896193238
 51
14.2340511189
  0
SPLINE
  5
29D
330
1F
100
AcDbEntity
  8
0
  6
Continuous
 62
     7
370
    25
100
AcDbSpline
210
0.0
220
0.0
230
1.0
 70
     8
 71
     3
 72
    12
 73
     8
 74
     0
 42
0.00000001
 43
0.00000001
 40
0.0
 40
0.0
 40
0.0
 40
0.0
 40
0.25
 40
0.25
 40
0.5
 40
0.5
 40
1.0
 40
1.0
 40
1.0
 40
1.0
 10
62.42145400348406
 20
317.7860124439687
 30
0.0
 10
61.94940836822044
 20
317.6740953322659
 30
0.0
 10
61.49227634611856
 20
317.5947151867208
 30
0.0
 10
60.61583572917429
 20
317.4529673496053
 30
0.0
 10
60.2000345382264
 20
317.3932925526639
 30
0.0
 10
59.02091675901553
 20
317.2273542323619
 30
0.0
 10
58.32375030449599
 20
317.1340792577204
 30
0.0
 10
57.73986075735527
 20
317.0400995868976
 30
0.0
  0
SPLINE
  5
29E
330
1F
100
AcDbEntity
  8
0
  6
Continuous
 62
     7
370
    25
100
AcDbSpline
210
0.0
220
0.0
230
1.0
 70
     8
 71
     3
 72
    18
 73
    14
 74
     0
 42
0.00000001
 43
0.00000001
 40
0.0
 40
0.0
 40
0.0
 40
0.0
 40
0.2499999999999999
 40
0.2499999999999999
 40
0.4999999999999999
 40
0.4999999999999999
 40
0.7499999999999998
 40
0.7499999999999998
 40
0.8749999999999998
 40
0.8749999999999998
 40
0.9374999999999999
 40
0.9374999999999999
 40
1.0
 40
1.0
 40
1.0
 40
1.0
 10
80.77108043234132
 20
317.7860124439656
 30
0.0
 10
81.2451753877331
 20
317.6736094597704
 30
0.0
 10
81.7008933444929
 20
317.5946444335495
 30
0.0
 10
82.57093817213473
 20
317.453867208485
 30
0.0
 10
82.98552395914884
 20
317.3942934931807
 30
0.0
 10
83.77199957011305
 20
317.283573970134
 30
0.0
 10
84.14527101663776
 20
317.2325414036641
 30
0.0
 10
84.66542456020767
 20
317.1589237699076
 30
0.0
 10
84.8321963733523
 20
317.1349001897273
 30
0.0
 10
85.07241783567713
 20
317.0991925312276
 30
0.0
 10
85.15083478333636
 20
317.0873453478234
 30
0.0
 10
85.30434185240723
 20
317.0636933351306
 30
0.0
 10
85.3801435391541
 20
317.0517736397335
 30
0.0
 10
85.45267367845732
 20
317.0400995868976
 30
0.0
  0
SPLINE
  5
29F
330
1F
100
AcDbEntity
  8
0
  6
Continuous
 62
     7
370
    25
100
AcDbSpline
210
0.0
220
0.0
230
1.0
 70
     8
 71
     3
 72
    18
 73
    14
 74
     0
 42
0.00000001
 43
0.00000001
 40
0.0
 40
0.0
 40
0.0
 40
0.0
 40
0.2499999999999999
 40
0.2499999999999999
 40
0.4999999999999998
 40
0.4999999999999998
 40
0.7500000000000001
 40
0.7500000000000001
 40
0.8750000000000002
 40
0.8750000000000002
 40
0.9375000000000001
 40
0.9375000000000001
 40
1.0
 40
1.0
 40
1.0
 40
1.0
 10
55.65689594107448
 20
317.7860124439656
 30
0.0
 10
55.70722598710815
 20
317.6736094597703
 30
0.0
 10
55.78880982573492
 20
317.5946444335495
 30
0.0
 10
56.01347833401625
 20
317.453867208485
 30
0.0
 10
56.1565369763811
 20
317.3942934931807
 30
0.0
 10
56.50467716896461
 20
317.2835739701341
 30
0.0
 10
56.71076832984879
 20
317.2325414036641
 30
0.0
 10
57.06405185706406
 20
317.1589237699076
 30
0.0
 10
57.18908148482698
 20
317.1349001897273
 30
0.0
 10
57.38750878690106
 20
317.0991925312276
 30
0.0
 10
57.45546600297509
 20
317.0873453478234
 30
0.0
 10
57.59501836397091
 20
317.0636933351306
 30
0.0
 10
57.66733061805221
 20
317.0517736397369
 30
0.0
 10
57.73986075735527
 20
317.0400995868976
 30
0.0
  0
SPLINE
  5
2A0
330
1F
100
AcDbEntity
  8
0
  6
Continuous
 62
     7
370
    25
100
AcDbSpline
210
0.0
220
0.0
230
1.0
 70
     8
 71
     3
 72
    12
 73
     8
 74
     0
 42
0.00000001
 43
0.00000001
 40
0.0
 40
0.0
 40
0.0
 40
0.0
 40
0.2500000000000001
 40
0.2500000000000001
 40
0.5000000000000002
 40
0.5000000000000002
 40
1.0
 40
1.0
 40
1.0
 40
1.0
 10
87.53563849473947
 20
317.7860124439687
 30
0.0
 10
87.485526005074
 20
317.6740953322659
 30
0.0
 10
87.40403098958805
 20
317.5947151867207
 30
0.0
 10
87.17742540522387
 20
317.4529673496053
 30
0.0
 10
87.03337157674247
 20
317.3932925526639
 30
0.0
 10
86.5100266709074
 20
317.2273542323619
 30
0.0
 10
86.03656322559777
 20
317.1340792577265
 30
0.0
 10
85.45267367845732
 20
317.0400995868976
 30
0.0
  0
LINE
  5
2A1
330
1F
100
AcDbEntity
  8
0
  6
Continuous
 62
     7
370
    25
100
AcDbLine
 10
100.7517815812
 20
270.8499764672
 30
0.0
 11
100.7517909836
 21
266.6341414787
 31
0.0
  0
LINE
  5
2A2
330
1F
100
AcDbEntity
  8
0
  6
Continuous
 62
     7
370
    25
100
AcDbLine
 10
100.5962672179
 20
270.2309395942
 30
0.0
 11
100.5962672179
 21
271.3441862489
 31
0.0
  0
LINE
  5
2A3
330
1F
100
AcDbEntity
  8
0
  6
Continuous
 62
     7
370
    25
100
AcDbLine
 10
101.1267814384
 20
270.8499764673
 30
0.0
 11
101.1267908408
 21
266.6341421059
 31
0.0
  0
ARC
  5
2A4
330
1F
100
AcDbEntity
  8
0
  6
Continuous
 62
     7
370
    25
100
AcDbCircle
 10
86.2529830524
 20
301.8016330039
 30
0.0
 40
0.9885259936317717
100
AcDbArc
 50
90.628170975
 51
179.3286944278
  0
ARC
  5
2A5
330
1F
100
AcDbEntity
  8
0
  6
Continuous
 62
     7
370
    25
100
AcDbCircle
 10
56.9395513834
 20
301.8016330039
 30
0.0
 40
0.9885259936317433
100
AcDbArc
 50
0.6713055722
 51
89.371829025
  0
SPLINE
  5
2A6
330
1F
100
AcDbEntity
  8
0
  6
Continuous
 62
     7
370
    25
100
AcDbSpline
210
0.0
220
0.0
230
1.0
 70
     8
 71
     3
 72
     8
 73
     4
 74
     0
 42
0.00000001
 43
0.00000001
 40
0.0
 40
0.0
 40
0.0
 40
0.0
 40
1.0
 40
1.0
 40
1.0
 40
1.0
 10
83.4813654883299
 20
245.4499540438111
 30
0.0
 10
82.6732622366749
 20
245.2132895379013
 30
0.0
 10
81.85584438707575
 20
244.9872937274509
 30
0.0
 10
81.0236971593776
 20
244.768506650774
 30
0.0
  0
SPLINE
  5
2A7
330
1F
100
AcDbEntity
  8
0
  6
Continuous
 62
     7
370
    25
100
AcDbSpline
210
0.0
220
0.0
230
1.0
 70
     8
 71
     3
 72
    10
 73
     6
 74
     0
 42
0.00000001
 43
0.00000001
 40
0.0
 40
0.0
 40
0.0
 40
0.0
 40
0.5
 40
0.5
 40
1.0
 40
1.0
 40
1.0
 40
1.0
 10
57.18917434910873
 20
268.1108910339585
 30
0.0
 10
57.36723045823175
 20
268.0662740941626
 30
0.0
 10
57.55766585376272
 20
268.1107685068235
 30
0.0
 10
57.96378596936241
 20
268.3523871950275
 30
0.0
 10
58.17812292285607
 20
268.5477435410651
 30
0.0
 10
58.40751343033346
 20
268.7996909581815
 30
0.0
  0
ARC
  5
2A8
330
1F
100
AcDbEntity
  8
0
  6
Continuous
 62
     7
370
    25
100
AcDbCircle
 10
48.3799682892
 20
273.1482440047
 30
0.0
 40
10.14776016461608
100
AcDbArc
 50
330.2378582576
 51
1.3294554288
  0
SPLINE
  5
2A9
330
1F
100
AcDbEntity
  8
0
  6
Continuous
 62
     7
370
    25
100
AcDbSpline
210
0.0
220
0.0
230
1.0
 70
     8
 71
     3
 72
    14
 73
    10
 74
     0
 42
0.00000001
 43
0.00000001
 40
0.0
 40
0.0
 40
0.0
 40
0.0
 40
0.2499999999999999
 40
0.2499999999999999
 40
0.4999999999999998
 40
0.4999999999999998
 40
0.7499999999999999
 40
0.7499999999999999
 40
1.0
 40
1.0
 40
1.0
 40
1.0
 10
88.16129404187306
 20
316.8787359766625
 30
0.0
 10
88.0004063335515
 20
316.8166823444753
 30
0.0
 10
87.83123122283223
 20
316.7981578812021
 30
0.0
 10
87.45765075839064
 20
316.7932151650004
 30
0.0
 10
87.25374494056972
 20
316.8086767687975
 30
0.0
 10
86.80663561085998
 20
316.8563411744242
 30
0.0
 10
86.56418154074905
 20
316.8887799147462
 30
0.0
 10
86.038745006414
 20
316.9607561240168
 30
0.0
 10
85.75465873989992
 20
317.000571667846
 30
0.0
 10
85.45267367845732
 20
317.0400995868976
 30
0.0
  0
SPLINE
  5
2AA
330
1F
100
AcDbEntity
  8
0
  6
Continuous
 62
     7
370
    25
100
AcDbSpline
210
0.0
220
0.0
230
1.0
 70
     8
 71
     3
 72
     8
 73
     4
 74
     0
 42
0.00000001
 43
0.00000001
 40
0.0
 40
0.0
 40
0.0
 40
0.0
 40
0.0001055072942668
 40
0.0001055072942668
 40
0.0001055072942668
 40
0.0001055072942668
 10
88.18925011690983
 20
316.8899402390786
 30
0.0
 10
88.17991813103842
 20
316.8860564160643
 30
0.0
 10
88.17060146927327
 20
316.8823258076226
 30
0.0
 10
88.16129404187302
 20
316.878735976662
 30
0.0
  0
ARC
  5
2AB
330
1F
100
AcDbEntity
  8
0
  6
Continuous
 62
     7
370
    25
100
AcDbCircle
 10
87.314110657
 20
315.3430766472
 30
0.0
 40
1.777260826753881
100
AcDbArc
 50
358.291859247
 51
60.5009498435
  0
ARC
  5
2AC
330
1F
100
AcDbEntity
  8
0
  6
Continuous
 62
     7
370
    25
100
AcDbCircle
 10
88.5383466461
 20
317.8081139664
 30
0.0
 40
1.002951700818446
100
AcDbArc
 50
181.2626993566
 51
247.9173961432
  0
ARC
  5
2AD
330
1F
100
AcDbEntity
  8
0
  6
Continuous
 62
     7
370
    25
100
AcDbCircle
 10
55.8784237788
 20
315.3430766472
 30
0.0
 40
1.777260826753877
100
AcDbArc
 50
119.4990501565
 51
181.708140753
  0
SPLINE
  5
2AE
330
1F
100
AcDbEntity
  8
0
  6
Continuous
 62
     7
370
    25
100
AcDbSpline
210
0.0
220
0.0
230
1.0
 70
     8
 71
     3
 72
     8
 73
     4
 74
     0
 42
0.00000001
 43
0.00000001
 40
0.0
 40
0.0
 40
0.0
 40
0.0
 40
0.000105507294285
 40
0.000105507294285
 40
0.000105507294285
 40
0.000105507294285
 10
55.0312403939444
 20
316.8787359766607
 30
0.0
 10
55.02193296654255
 20
316.8823258076218
 30
0.0
 10
55.01261630477583
 20
316.8860564160636
 30
0.0
 10
55.00328431890281
 20
316.8899402390786
 30
0.0
  0
SPLINE
  5
2AF
330
1F
100
AcDbEntity
  8
0
  6
Continuous
 62
     7
370
    25
100
AcDbSpline
210
0.0
220
0.0
230
1.0
 70
     8
 71
     3
 72
    14
 73
    10
 74
     0
 42
0.00000001
 43
0.00000001
 40
0.0
 40
0.0
 40
0.0
 40
0.0
 40
0.25
 40
0.25
 40
0.5
 40
0.5
 40
0.75
 40
0.75
 40
1.0
 40
1.0
 40
1.0
 40
1.0
 10
55.0312403939444
 20
316.8787359766607
 30
0.0
 10
55.19212810226572
 20
316.8166823444746
 30
0.0
 10
55.36130321298482
 20
316.7981578812018
 30
0.0
 10
55.73488367742598
 20
316.7932151650006
 30
0.0
 10
55.93878949524664
 20
316.8086767687977
 30
0.0
 10
56.38589882495562
 20
316.8563411744246
 30
0.0
 10
56.62835289506609
 20
316.8887799147465
 30
0.0
 10
57.15378942940001
 20
316.9607561240169
 30
0.0
 10
57.43787569591316
 20
317.0005716678539
 30
0.0
 10
57.73986075735527
 20
317.0400995868976
 30
0.0
  0
ARC
  5
2B0
330
1F
100
AcDbEntity
  8
0
  6
Continuous
 62
     7
370
    25
100
AcDbCircle
 10
54.6541877897
 20
317.8081139664
 30
0.0
 40
1.00295170081884
100
AcDbArc
 50
292.082603857
 51
358.7373006436
  0
SPLINE
  5
2B1
330
1F
100
AcDbEntity
  8
0
  6
Continuous
 62
     7
370
    25
100
AcDbSpline
210
0.0
220
0.0
230
1.0
 70
     8
 71
     3
 72
     8
 73
     4
 74
     0
 42
0.00000001
 43
0.00000001
 40
0.0
 40
0.0
 40
0.0
 40
0.0
 40
0.0002416894103822
 40
0.0002416894103822
 40
0.0002416894103822
 40
0.0002416894103822
 10
88.24413864684645
 20
316.9188828307754
 30
0.0
 10
88.22605145761713
 20
316.9097196699273
 30
0.0
 10
88.2077305955679
 20
316.9000804572134
 30
0.0
 10
88.18925011690976
 20
316.8899402390788
 30
0.0
  0
ARC
  5
2B2
330
1F
100
AcDbEntity
  8
0
  6
Continuous
 62
     7
370
    25
100
AcDbCircle
 10
87.4433524789
 20
315.348181029
 30
0.0
 40
1.763054915954374
100
AcDbArc
 50
358.1121270215
 51
62.9862857032
  0
ARC
  5
2B3
330
1F
100
AcDbEntity
  8
0
  6
Continuous
 62
     7
370
    25
100
AcDbCircle
 10
55.7491819569
 20
315.348181029
 30
0.0
 40
1.763054915954425
100
AcDbArc
 50
117.0137142968
 51
181.8878729785
  0
SPLINE
  5
2B4
330
1F
100
AcDbEntity
  8
0
  6
Continuous
 62
     7
370
    25
100
AcDbSpline
210
0.0
220
0.0
230
1.0
 70
     8
 71
     3
 72
     8
 73
     4
 74
     0
 42
0.00000001
 43
0.00000001
 40
0.0000000000000002
 40
0.0000000000000002
 40
0.0000000000000002
 40
0.0000000000000002
 40
0.0002416894103824
 40
0.0002416894103824
 40
0.0002416894103824
 40
0.0002416894103824
 10
55.00328431890281
 20
316.8899402390786
 30
0.0
 10
54.98480384024466
 20
316.9000804572132
 30
0.0
 10
54.96648297819551
 20
316.9097196699275
 30
0.0
 10
54.94839578896618
 20
316.9188828307755
 30
0.0
  0
LINE
  5
2B5
330
1F
100
AcDbEntity
  8
0
  6
Continuous
 62
     7
370
    25
100
AcDbLine
 10
87.8573742168
 20
302.7900995869
 30
0.0
 11
87.6899059716
 21
302.7900995869
 31
0.0
  0
LINE
  5
2B6
330
1F
100
AcDbEntity
  8
0
  6
Continuous
 62
     7
370
    25
100
AcDbLine
 10
55.5026284642
 20
302.7900995869
 30
0.0
 11
55.335160219
 21
302.7900995869
 31
0.0
  0
ARC
  5
2B7
330
1F
100
AcDbEntity
  8
0
  6
Continuous
 62
     7
370
    25
100
AcDbCircle
 10
54.6468740765
 20
317.826378253
 30
0.0
 40
1.001970266457841
100
AcDbArc
 50
290.8369281334
 51
359.7643533258
  0
ARC
  5
2B8
330
1F
100
AcDbEntity
  8
0
  6
Continuous
 62
     7
370
    25
100
AcDbCircle
 10
88.5456603593
 20
317.826378253
 30
0.0
 40
1.001970266458001
100
AcDbArc
 50
180.2356466742
 51
249.1630718665
  0
ARC
  5
2B9
330
1F
100
AcDbEntity
  8
0
  6
Continuous
 62
     7
370
    25
100
AcDbCircle
 10
54.6271809556
 20
317.8673048611
 30
0.0
 40
1.001340759618054
100
AcDbArc
 50
288.7103891537
 51
2.6281302339
  0
ARC
  5
2BA
330
1F
100
AcDbEntity
  8
0
  6
Continuous
 62
     7
370
    25
100
AcDbCircle
 10
88.5653534802
 20
317.8673048611
 30
0.0
 40
1.001340759618061
100
AcDbArc
 50
177.3718697661
 51
251.2896108463
  0
ARC
  5
2BB
330
1F
100
AcDbEntity
  8
0
  6
Continuous
 62
     7
370
    25
100
AcDbCircle
 10
147.7076248773
 20
258.1667901453
 30
0.0
 40
7.434376658333572
100
AcDbArc
 50
356.0704737418
 51
3.9295262582
  0
ARC
  5
2BC
330
1F
100
AcDbEntity
  8
0
  6
Continuous
 62
     7
370
    25
100
AcDbCircle
 10
152.0837376524
 20
259.1224412017
 30
0.0
 40
3.375347654718817
100
AcDbArc
 50
334.2741059287
 51
346.2044345254
  0
SPLINE
  5
2BD
330
1F
100
AcDbEntity
  8
0
  6
Continuous
 62
     7
370
    25
100
AcDbSpline
210
0.0
220
0.0
230
1.0
 70
     8
 71
     3
 72
    11
 73
     7
 74
     0
 42
0.00000001
 43
0.00000001
 40
0.0
 40
0.0
 40
0.0
 40
0.0
 40
0.2395169344448012
 40
0.5201992197674279
 40
0.7997922979048708
 40
1.0
 40
1.0
 40
1.0
 40
1.0
 10
155.3898739919754
 20
258.2828683639696
 30
0.0
 10
155.3942785845805
 20
258.3218080774678
 30
0.0
 10
155.4038447793129
 20
258.406380003986
 30
0.0
 10
155.400399127177
 20
258.4428068502947
 30
0.0
 10
155.3856013570164
 20
258.4115752603681
 30
0.0
 10
155.3687481518369
 20
258.3452410180099
 30
0.0
 10
155.3617157716888
 20
258.3175615585761
 30
0.0
  0
ARC
  5
2BE
330
1F
100
AcDbEntity
  8
0
  6
Continuous
 62
     7
370
    25
100
AcDbCircle
 10
147.7027062762
 20
259.8676209507
 30
0.0
 40
7.745894944105514
100
AcDbArc
 50
349.3094308212
 51
351.4102179213
  0
SPLINE
  5
2BF
330
1F
100
AcDbEntity
  8
0
  6
Continuous
 62
     7
370
    25
100
AcDbSpline
210
0.0
220
0.0
230
1.0
 70
     8
 71
     3
 72
    10
 73
     6
 74
     0
 42
0.00000001
 43
0.00000001
 40
0.0
 40
0.0
 40
0.0
 40
0.0
 40
0.2263048787387459
 40
0.6771582524837825
 40
1.0
 40
1.0
 40
1.0
 40
1.0
 10
155.3994243708011
 20
259.2372988442427
 30
0.0
 10
155.399386861757
 20
259.1966735470421
 30
0.0
 10
155.3992746257375
 20
259.0751129540388
 30
0.0
 10
155.3852555146058
 20
258.887518564552
 30
0.0
 10
155.3686463291153
 20
258.7627600548419
 30
0.0
 10
155.3617157716888
 20
258.7107017515316
 30
0.0
  0
SPLINE
  5
2C0
330
1F
100
AcDbEntity
  8
0
  6
Continuous
 62
     7
370
    25
100
AcDbSpline
210
0.0
220
0.0
230
1.0
 70
     8
 71
     3
 72
    11
 73
     7
 74
     0
 42
0.00000001
 43
0.00000001
 40
0.0
 40
0.0
 40
0.0
 40
0.0
 40
0.3307540669562939
 40
0.6616399873463897
 40
0.9896169167736587
 40
1.0
 40
1.0
 40
1.0
 40
1.0
 10
155.3617157716888
 20
261.0033325491432
 30
0.0
 10
155.3714641084931
 20
260.9361951562292
 30
0.0
 10
155.3909646682267
 20
260.8018936064196
 30
0.0
 10
155.4019430896411
 20
260.68690481681
 30
0.0
 10
155.4037664456388
 20
260.6367340285577
 30
0.0
 10
155.3979111285245
 20
260.650318842945
 30
0.0
 10
155.3977314493584
 20
260.6507357132994
 30
0.0
  0
ARC
  5
2C1
330
1F
100
AcDbEntity
  8
0
  6
Continuous
 62
     7
370
    25
100
AcDbCircle
 10
147.6397865163
 20
259.8349173509
 30
0.0
 40
7.809826214497448
100
AcDbArc
 50
8.6042304424
 51
16.5896030164
  0
ARC
  5
2C2
330
1F
100
AcDbEntity
  8
0
  6
Continuous
 62
     7
370
    25
100
AcDbCircle
 10
152.2590554261
 20
261.7478181327
 30
0.0
 40
2.882940696890219
100
AcDbArc
 50
353.6888017346
 51
6.3111982654
  0
ARC
  5
2C3
330
1F
100
AcDbEntity
  8
0
  6
Continuous
 62
     7
370
    25
100
AcDbCircle
 10
147.6397865163
 20
259.2010822241
 30
0.0
 40
7.809826214500316
100
AcDbArc
 50
8.6042304424
 51
16.5896030164
  0
SPLINE
  5
2C4
330
1F
100
AcDbEntity
  8
0
  6
Continuous
 62
     7
370
    25
100
AcDbSpline
210
0.0
220
0.0
230
1.0
 70
     8
 71
     3
 72
    12
 73
     8
 74
     0
 42
0.00000001
 43
0.00000001
 40
0.0
 40
0.0
 40
0.0
 40
0.0
 40
0.2133534395476129
 40
0.4267919313634462
 40
0.6383539739091513
 40
0.8490950351927571
 40
1.0
 40
1.0
 40
1.0
 40
1.0
 10
155.3617157716888
 20
259.3365085797369
 30
0.0
 10
155.3713749154162
 20
259.3874888767012
 30
0.0
 10
155.3906970534396
 20
259.4894697936673
 30
0.0
 10
155.4030101234477
 20
259.71587862618
 30
0.0
 10
155.400672683151
 20
259.964309495877
 30
0.0
 10
155.3855551641371
 20
260.1923974631763
 30
0.0
 10
155.3687345517562
 20
260.3173557552522
 30
0.0
 10
155.3617157716888
 20
260.3694974222627
 30
0.0
  0
ARC
  5
2C5
330
1F
100
AcDbEntity
  8
0
  6
Continuous
 62
     7
370
    25
100
AcDbCircle
 10
152.0837376524
 20
260.1413882229
 30
0.0
 40
3.375347654716707
100
AcDbArc
 50
334.2741059287
 51
346.2044345254
  0
LINE
  5
2C6
330
1F
100
AcDbEntity
  8
0
  6
Continuous
 62
     7
370
    25
100
AcDbLine
 10
152.8011942324
 20
266.6900995869
 30
0.0
 11
152.8011942324
 21
252.3901118196
 31
0.0
  0
LINE
  5
2C7
330
1F
100
AcDbEntity
  8
0
  6
Continuous
 62
     7
370
    25
100
AcDbLine
 10
154.7011942324
 20
264.8690048065
 30
0.0
 11
154.7011942324
 21
254.2111852503
 31
0.0
  0
LWPOLYLINE
  5
2C8
330
1F
100
AcDbEntity
  8
0
  6
Continuous
 62
     7
370
    25
100
AcDbPolyline
 90
        3
 70
   128
 43
0.0
 10
138.4549934211
 20
251.4949187064
 10
144.4464672179
 20
251.5558990473
 10
147.9343111751
 20
251.5916456534
  0
LINE
  5
2C9
330
1F
100
AcDbEntity
  8
0
  6
Continuous
 62
     7
370
    25
100
AcDbLine
 10
138.4549934211
 20
267.9759030495
 30
0.0
 11
138.4549934211
 21
251.4949187064
 31
0.0
  0
LWPOLYLINE
  5
2CA
330
1F
100
AcDbEntity
  8
0
  6
Continuous
 62
     7
370
    25
100
AcDbPolyline
 90
        3
 70
   128
 43
0.0
 10
147.0008909612
 20
267.8739538179
 10
144.4464672179
 20
267.9045416045
 10
138.4549934042
 20
267.9759027944
  0
SPLINE
  5
2CB
330
1F
100
AcDbEntity
  8
0
  6
Continuous
 62
     7
370
    25
100
AcDbSpline
210
0.0
220
0.0
230
1.0
 70
     8
 71
     3
 72
    11
 73
     7
 74
     0
 42
0.00000001
 43
0.00000001
 40
0.0
 40
0.0
 40
0.0
 40
0.0
 40
0.2499999999999902
 40
0.4999999999999971
 40
0.7499999999999954
 40
0.9999999999999999
 40
0.9999999999999999
 40
0.9999999999999999
 40
0.9999999999999999
 10
138.4549934211249
 20
251.494917169077
 30
0.0
 10
138.3886223683876
 20
251.5006627189007
 30
0.0
 10
138.2558802629128
 20
251.512153818548
 30
0.0
 10
138.0874165221321
 20
251.6134842375449
 30
0.0
 10
137.9693291630971
 20
251.7599199278893
 30
0.0
 10
137.9539545329699
 20
251.8764978090695
 30
0.0
 10
137.9462672179063
 20
251.9347867496596
 30
0.0
  0
LINE
  5
2CC
330
1F
100
AcDbEntity
  8
0
  6
Continuous
 62
     7
370
    25
100
AcDbLine
 10
137.9462672179
 20
251.9348470723
 30
0.0
 11
137.9462672179
 21
267.5145524206
 31
0.0
  0
SPLINE
  5
2CD
330
1F
100
AcDbEntity
  8
0
  6
Continuous
 62
     7
370
    25
100
AcDbSpline
210
0.0
220
0.0
230
1.0
 70
     8
 71
     3
 72
    11
 73
     7
 74
     0
 42
0.00000001
 43
0.00000001
 40
0.0
 40
0.0
 40
0.0
 40
0.0
 40
0.2499999999999905
 40
0.5000000000000016
 40
0.7499999999999969
 40
1.0
 40
1.0
 40
1.0
 40
1.0
 10
138.4549934211249
 20
267.9759027942206
 30
0.0
 10
138.3886223683876
 20
267.9698766635793
 30
0.0
 10
138.2558802629128
 20
267.957824402297
 30
0.0
 10
138.0874165221321
 20
267.851545567104
 30
0.0
 10
137.969329163097
 20
267.6979587690374
 30
0.0
 10
137.9539545329699
 20
267.5756878700936
 30
0.0
 10
137.9462672179063
 20
267.5145524206218
 30
0.0
  0
LINE
  5
2CE
330
1F
100
AcDbEntity
  8
0
  6
Continuous
 62
     7
370
    25
100
AcDbLine
 10
152.7962672179
 20
267.9395432412
 30
0.0
 11
152.7962672179
 21
251.1406559326
 31
0.0
  0
SPLINE
  5
2CF
330
1F
100
AcDbEntity
  8
0
  6
Continuous
 62
     7
370
    25
100
AcDbSpline
210
0.0
220
0.0
230
1.0
 70
     8
 71
     3
 72
    12
 73
     8
 74
     0
 42
0.00000001
 43
0.00000001
 40
0.0
 40
0.0
 40
0.0
 40
0.0
 40
0.1662426524176546
 40
0.3368059756191302
 40
0.605418107125459
 40
0.8801435087136195
 40
1.0
 40
1.0
 40
1.0
 40
1.0
 10
142.5375012478502
 20
247.5739886833061
 30
0.0
 10
142.6369579551254
 20
247.7609306333839
 30
0.0
 10
142.8384562640043
 20
248.1396731820888
 30
0.0
 10
143.6607040200268
 20
248.9102233187172
 30
0.0
 10
145.0225331870134
 20
249.8785937571878
 30
0.0
 10
146.5836393756723
 20
250.8177344319517
 30
0.0
 10
147.5538790678339
 20
251.4102067900952
 30
0.0
 10
147.8485948855368
 20
251.5901736342753
 30
0.0
  0
LINE
  5
2D0
330
1F
100
AcDbEntity
  8
0
  6
Continuous
 62
     7
370
    25
100
AcDbLine
 10
142.5375012479
 20
247.5739886833
 30
0.0
 11
138.4549934211
 21
247.5053878099
 31
0.0
  0
LINE
  5
2D1
330
1F
100
AcDbEntity
  8
0
  6
Continuous
 62
     7
370
    25
100
AcDbLine
 10
138.4549934211
 20
251.4949174843
 30
0.0
 11
138.4549934211
 21
247.5053878099
 31
0.0
  0
LWPOLYLINE
  5
2D2
330
1F
100
AcDbEntity
  8
0
  6
Continuous
 62
     7
370
    25
100
AcDbPolyline
 90
        3
 70
   128
 43
0.0
 10
147.8485948855
 20
251.5901736343
 10
144.4462672179
 20
251.5556436155
 10
138.4549934381
 20
251.4949171692
  0
ARC
  5
2D3
330
1F
100
AcDbEntity
  8
0
  6
Continuous
 62
     7
370
    25
100
AcDbCircle
 10
138.4374830815
 20
247.9963879836
 30
0.0
 40
0.4913123065720397
100
AcDbArc
 50
181.1352754124
 51
272.0424505137
  0
LINE
  5
2D4
330
1F
100
AcDbEntity
  8
0
  6
Continuous
 62
     7
370
    25
100
AcDbLine
 10
137.9462672179
 20
247.9866536142
 30
0.0
 11
137.9462672179
 21
251.9348458492
 31
0.0
  0
LINE
  5
2D5
330
1F
100
AcDbEntity
  8
0
  6
Continuous
 62
     7
370
    25
100
AcDbLine
 10
147.8485948855
 20
251.5901736343
 30
0.0
 11
147.8897048419
 21
251.5908786729
 31
0.0
  0
LINE
  5
2D6
330
1F
100
AcDbEntity
  8
0
  6
Continuous
 62
     7
370
    25
100
AcDbLine
 10
147.9343111751
 20
251.5916456534
 30
0.0
 11
147.8897048419
 21
251.5908786729
 31
0.0
  0
LINE
  5
2D7
330
1F
100
AcDbEntity
  8
0
  6
Continuous
 62
     7
370
    25
100
AcDbLine
 10
142.4811720308
 20
270.8627597437
 30
0.0
 11
142.4811720308
 21
270.8994982946
 31
0.0
  0
SPLINE
  5
2D8
330
1F
100
AcDbEntity
  8
0
  6
Continuous
 62
     7
370
    25
100
AcDbSpline
210
0.0
220
0.0
230
1.0
 70
     8
 71
     3
 72
    12
 73
     8
 74
     0
 42
0.00000001
 43
0.00000001
 40
0.0
 40
0.0
 40
0.0
 40
0.0
 40
0.0460732444350178
 40
0.2494607408078306
 40
0.4779405209378891
 40
0.7057893369168756
 40
1.0
 40
1.0
 40
1.0
 40
1.0
 10
146.9301810179234
 20
267.8752878473132
 30
0.0
 10
146.8282085769263
 20
267.9313467889357
 30
0.0
 10
146.2760850834531
 20
268.23487447138
 30
0.0
 10
145.2321051281408
 20
268.7851938983942
 30
0.0
 10
143.9608268526289
 20
269.4921682142767
 30
0.0
 10
142.7940638280517
 20
270.2393335412961
 30
0.0
 10
142.5939485472738
 20
270.6380563925167
 30
0.0
 10
142.4811720307809
 20
270.8627597436651
 30
0.0
  0
LWPOLYLINE
  5
2D9
330
1F
100
AcDbEntity
  8
0
  6
Continuous
 62
     7
370
    25
100
AcDbPolyline
 90
        3
 70
   128
 43
0.0
 10
146.9301810179
 20
267.8752878473
 10
144.4462672179
 20
267.9047973828
 10
138.4549934211
 20
267.9759043316
  0
LINE
  5
2DA
330
1F
100
AcDbEntity
  8
0
  6
Continuous
 62
     7
370
    25
100
AcDbLine
 10
138.4549934211
 20
270.9687050002
 30
0.0
 11
138.4549934211
 21
267.9759043316
 31
0.0
  0
LINE
  5
2DB
330
1F
100
AcDbEntity
  8
0
  6
Continuous
 62
     7
370
    25
100
AcDbLine
 10
142.4811720308
 20
270.8994982946
 30
0.0
 11
138.4549934211
 21
270.9687050002
 31
0.0
  0
ARC
  5
2DC
330
1F
100
AcDbEntity
  8
0
  6
Continuous
 62
     7
370
    25
100
AcDbCircle
 10
138.4426416931
 20
270.4724686851
 30
0.0
 40
0.4963900136583499
100
AcDbArc
 50
88.5741555685
 51
179.5466524836
  0
LINE
  5
2DD
330
1F
100
AcDbEntity
  8
0
  6
Continuous
 62
     7
370
    25
100
AcDbLine
 10
137.9462672179
 20
267.5146016052
 30
0.0
 11
137.9462672179
 21
270.4763962838
 31
0.0
  0
LINE
  5
2DE
330
1F
100
AcDbEntity
  8
0
  6
Continuous
 62
     7
370
    25
100
AcDbLine
 10
146.9683568219
 20
267.8745683198
 30
0.0
 11
146.9301810179
 21
267.8752878473
 31
0.0
  0
LINE
  5
2DF
330
1F
100
AcDbEntity
  8
0
  6
Continuous
 62
     7
370
    25
100
AcDbLine
 10
146.9683568219
 20
267.8745683198
 30
0.0
 11
147.0008909612
 21
267.8739538179
 31
0.0
  0
LINE
  5
2E0
330
1F
100
AcDbEntity
  8
0
  6
Continuous
 62
     7
370
    25
100
AcDbLine
 10
142.4811720308
 20
247.2943462425
 30
0.0
 11
142.5375012479
 21
247.5739886833
 31
0.0
  0
LINE
  5
2E1
330
1F
100
AcDbEntity
  8
0
  6
Continuous
 62
     7
370
    25
100
AcDbLine
 10
137.9462672179
 20
247.6694187433
 30
0.0
 11
137.9462672179
 21
247.9866536142
 31
0.0
  0
LINE
  5
2E2
330
1F
100
AcDbEntity
  8
0
  6
Continuous
 62
     7
370
    25
100
AcDbLine
 10
137.9462672179
 20
270.4763962838
 30
0.0
 11
137.9462672179
 21
270.6058731597
 31
0.0
  0
SPLINE
  5
2E3
330
1F
100
AcDbEntity
  8
0
  6
Continuous
 62
     7
370
    25
100
AcDbSpline
210
0.0
220
0.0
230
1.0
 70
     8
 71
     3
 72
    11
 73
     7
 74
     0
 42
0.00000001
 43
0.00000001
 40
0.0
 40
0.0
 40
0.0
 40
0.0
 40
0.2431641197380916
 40
0.4936284730588941
 40
0.742170607686329
 40
1.0
 40
1.0
 40
1.0
 40
1.0
 10
127.9962672179063
 20
249.2773332928535
 30
0.0
 10
128.2064075411151
 20
249.4697633411028
 30
0.0
 10
128.6329969860767
 20
249.8604005411561
 30
0.0
 10
128.8433814162196
 20
250.4800774173733
 30
0.0
 10
128.6526947225527
 20
251.1128288326792
 30
0.0
 10
128.217735552158
 20
251.5139953298485
 30
0.0
 10
127.9962672179063
 20
251.7182574351975
 30
0.0
  0
LINE
  5
2E4
330
1F
100
AcDbEntity
  8
0
  6
Continuous
 62
     7
370
    25
100
AcDbLine
 10
127.9962672179
 20
253.65094273
 30
0.0
 11
127.9962672179
 21
251.7182574352
 31
0.0
  0
SPLINE
  5
2E5
330
1F
100
AcDbEntity
  8
0
  6
Continuous
 62
     7
370
    25
100
AcDbSpline
210
0.0
220
0.0
230
1.0
 70
     8
 71
     3
 72
    11
 73
     7
 74
     0
 42
0.00000001
 43
0.00000001
 40
0.0
 40
0.0
 40
0.0
 40
0.0
 40
0.2431641197380915
 40
0.4936284730588935
 40
0.7421706076863288
 40
1.0
 40
1.0
 40
1.0
 40
1.0
 10
127.9962672179063
 20
253.6509427299977
 30
0.0
 10
128.2064075411151
 20
254.2644218460863
 30
0.0
 10
128.6329969860767
 20
255.5097978483292
 30
0.0
 10
128.8433814162196
 20
257.4853667667022
 30
0.0
 10
128.6526947225527
 20
259.5026181393301
 30
0.0
 10
128.217735552158
 20
260.7815622040792
 30
0.0
 10
127.9962672179063
 20
261.4327626635707
 30
0.0
  0
LINE
  5
2E6
330
1F
100
AcDbEntity
  8
0
  6
Continuous
 62
     7
370
    25
100
AcDbLine
 10
127.9962672179
 20
263.913709024
 30
0.0
 11
127.9962672179
 21
261.4327626636
 31
0.0
  0
SPLINE
  5
2E7
330
1F
100
AcDbEntity
  8
0
  6
Continuous
 62
     7
370
    25
100
AcDbSpline
210
0.0
220
0.0
230
1.0
 70
     8
 71
     3
 72
    13
 73
     9
 74
     0
 42
0.00000001
 43
0.00000001
 40
0.0
 40
0.0
 40
0.0
 40
0.0
 40
0.0290865078712631
 40
0.2691317361521218
 40
0.5086847447945269
 40
0.7393528760311808
 40
0.9704551097945743
 40
1.0
 40
1.0
 40
1.0
 40
1.0
 10
127.9962672179063
 20
263.9137090240413
 30
0.0
 10
128.02376506435
 20
263.9633837318049
 30
0.0
 10
128.2781972287951
 20
264.4230140319577
 30
0.0
 10
128.6495423850166
 20
265.31995762184
 30
0.0
 10
128.8443830198687
 20
266.6160213161298
 30
0.0
 10
128.6326354496746
 20
267.8936580594852
 30
0.0
 10
128.2705467657772
 20
268.758989718955
 30
0.0
 10
128.0241920357222
 20
269.2041454887225
 30
0.0
 10
127.9962672179063
 20
269.2546048152704
 30
0.0
  0
LINE
  5
2E8
330
1F
100
AcDbEntity
  8
0
  6
Continuous
 62
     7
370
    25
100
AcDbLine
 10
127.9962672179
 20
269.8028658809
 30
0.0
 11
127.9962672179
 21
269.2546048153
 31
0.0
  0
LINE
  5
2E9
330
1F
100
AcDbEntity
  8
0
  6
Continuous
 62
     7
370
    25
100
AcDbLine
 10
127.9962672179
 20
269.8028658809
 30
0.0
 11
128.2676660539
 21
269.5209897607
 31
0.0
  0
LINE
  5
2EA
330
1F
100
AcDbEntity
  8
0
  6
Continuous
 62
     7
370
    25
100
AcDbLine
 10
129.9962672179
 20
267.7900995869
 30
0.0
 11
129.9962672179
 21
251.2900995869
 31
0.0
  0
LINE
  5
2EB
330
1F
100
AcDbEntity
  8
0
  6
Continuous
 62
     7
370
    25
100
AcDbLine
 10
125.4462672179
 20
253.65094273
 30
0.0
 11
125.1962672179
 21
254.3361125314
 31
0.0
  0
LINE
  5
2EC
330
1F
100
AcDbEntity
  8
0
  6
Continuous
 62
     7
370
    25
100
AcDbLine
 10
125.1962672179
 20
260.7475928622
 30
0.0
 11
125.4462672179
 21
261.4327626636
 31
0.0
  0
LINE
  5
2ED
330
1F
100
AcDbEntity
  8
0
  6
Continuous
 62
     7
370
    25
100
AcDbLine
 10
127.9962672179
 20
261.4327626636
 30
0.0
 11
125.4462672179
 21
261.4327626636
 31
0.0
  0
LINE
  5
2EE
330
1F
100
AcDbEntity
  8
0
  6
Continuous
 62
     7
370
    25
100
AcDbLine
 10
125.4462672179
 20
253.65094273
 30
0.0
 11
127.9962672179
 21
253.65094273
 31
0.0
  0
LINE
  5
2EF
330
1F
100
AcDbEntity
  8
0
  6
Continuous
 62
     7
370
    25
100
AcDbLine
 10
125.1962672179
 20
260.7475928622
 30
0.0
 11
125.1962672179
 21
254.3361125314
 31
0.0
  0
SPLINE
  5
2F0
330
1F
100
AcDbEntity
  8
0
  6
Continuous
 62
     7
370
    25
100
AcDbSpline
210
0.0
220
0.0
230
1.0
 70
     8
 71
     3
 72
    37
 73
    33
 74
     0
 42
0.00000001
 43
0.00000001
 40
0.0
 40
0.0
 40
0.0
 40
0.0
 40
0.0211269937515028
 40
0.0509674319314426
 40
0.0939121876813107
 40
0.1380055345844025
 40
0.1685936551814746
 40
0.2034016143438843
 40
0.2430817374539045
 40
0.2674211029497332
 40
0.2942159408519459
 40
0.3085749896336068
 40
0.3348307356314549
 40
0.3716746307889922
 40
0.3993727958556372
 40
0.4336130441788228
 40
0.4706344587332016
 40
0.5036804050729912
 40
0.5379226491310637
 40
0.5921927714338988
 40
0.6406127161982201
 40
0.6763794332087268
 40
0.6994787579318584
 40
0.7215821479455272
 40
0.7462959685804091
 40
0.7691544113249211
 40
0.7992291815621841
 40
0.8508751277415623
 40
0.8967211870004188
 40
0.9342837688850693
 40
0.9896231731342312
 40
0.9999999999999999
 40
0.9999999999999999
 40
0.9999999999999999
 40
0.9999999999999999
 10
122.2257514034837
 20
268.9185977526526
 30
0.0
 10
122.2305795891777
 20
268.9117013230327
 30
0.0
 10
122.2422272579661
 20
268.8950641567915
 30
0.0
 10
122.2646375042221
 20
268.7416680492872
 30
0.0
 10
122.2927733484903
 20
268.4410335103023
 30
0.0
 10
122.321150760166
 20
267.9822779537414
 30
0.0
 10
122.347252460427
 20
267.4445223177486
 30
0.0
 10
122.3714182009763
 20
266.8385389001604
 30
0.0
 10
122.3935782197205
 20
266.1797041560128
 30
0.0
 10
122.414626983628
 20
265.5123810968989
 30
0.0
 10
122.4300790540036
 20
264.9979819397577
 30
0.0
 10
122.4462449268314
 20
264.4443553445264
 30
0.0
 10
122.4648865267214
 20
263.7821679201016
 30
0.0
 10
122.4867926883365
 20
262.9647235119532
 30
0.0
 10
122.5104620966152
 20
262.0409214009749
 30
0.0
 10
122.5337725925691
 20
261.0893109489248
 30
0.0
 10
122.5578072996775
 20
260.0669393972685
 30
0.0
 10
122.5807975423388
 20
259.0388197943395
 30
0.0
 10
122.609635213538
 20
257.8475038953694
 30
0.0
 10
122.6426105309155
 20
256.5336504558227
 30
0.0
 10
122.6757621126436
 20
255.2775888127278
 30
0.0
 10
122.7012890699322
 20
254.3695648506504
 30
0.0
 10
122.7202884948861
 20
253.7258241905098
 30
0.0
 10
122.7361196377388
 20
253.200164500002
 30
0.0
 10
122.7520771389736
 20
252.7101435210563
 30
0.0
 10
122.7695587598688
 20
252.205692435002
 30
0.0
 10
122.7945398436163
 20
251.5922261277335
 30
0.0
 10
122.8253841736778
 20
250.979162147728
 30
0.0
 10
122.8576729437787
 20
250.5093730464987
 30
0.0
 10
122.8906735415856
 20
250.2228339313363
 30
0.0
 10
122.9134679058604
 20
250.0739874441356
 30
0.0
 10
122.9290059845672
 20
250.1643302708181
 30
0.0
 10
122.9314595025159
 20
250.1785957248033
 30
0.0
  0
SPLINE
  5
2F1
330
1F
100
AcDbEntity
  8
0
  6
Continuous
 62
     7
370
    25
100
AcDbSpline
210
0.0
220
0.0
230
1.0
 70
     8
 71
     3
 72
     9
 73
     5
 74
     0
 42
0.00000001
 43
0.00000001
 40
0.0
 40
0.0
 40
0.0
 40
0.0
 40
0.3778463394530082
 40
1.0
 40
1.0
 40
1.0
 40
1.0
 10
122.5462672179063
 20
250.209427181024
 30
0.0
 10
122.5492109023097
 20
250.1902861047205
 30
0.0
 10
122.5570015941758
 20
250.1396277436226
 30
0.0
 10
122.564748674877
 20
250.1507457322545
 30
0.0
 10
122.5695685494939
 20
250.1576628295799
 30
0.0
  0
SPLINE
  5
2F2
330
1F
100
AcDbEntity
  8
0
  6
Continuous
 62
     7
370
    25
100
AcDbSpline
210
0.0
220
0.0
230
1.0
 70
     8
 71
     3
 72
    19
 73
    15
 74
     0
 42
0.00000001
 43
0.00000001
 40
0.0
 40
0.0
 40
0.0
 40
0.0
 40
0.0116170662670731
 40
0.113535640759194
 40
0.214610105026198
 40
0.3150983769383461
 40
0.4172270045692673
 40
0.5171040895858737
 40
0.6189937460196075
 40
0.7201236928709885
 40
0.7891819895881051
 40
0.8593761442120823
 40
0.9300281720465686
 40
1.0
 40
1.0
 40
1.0
 40
1.0
 10
122.6675957189818
 20
268.1252831452689
 30
0.0
 10
122.6702147197581
 20
268.1343655342921
 30
0.0
 10
122.6958106769859
 20
268.2231293266012
 30
0.0
 10
122.747950906073
 20
267.5888605442287
 30
0.0
 10
122.8179578821054
 20
266.2164557995146
 30
0.0
 10
122.8862195863164
 20
264.112909255957
 30
0.0
 10
122.9601387871317
 20
261.5934400108576
 30
0.0
 10
123.0264013428269
 20
258.8592907728291
 30
0.0
 10
123.0992587036315
 20
256.1990399171255
 30
0.0
 10
123.1627123018188
 20
254.1028728118663
 30
0.0
 10
123.2158060265659
 20
252.6189306564815
 30
0.0
 10
123.2659822276648
 20
251.6594947776006
 30
0.0
 10
123.316024128601
 20
251.0008421821326
 30
0.0
 10
123.3474819420828
 20
250.9937416579552
 30
0.0
 10
123.3631347678456
 20
250.9902085685421
 30
0.0
  0
SPLINE
  5
2F3
330
1F
100
AcDbEntity
  8
0
  6
Continuous
 62
     7
370
    25
100
AcDbSpline
210
0.0
220
0.0
230
1.0
 70
     8
 71
     3
 72
    27
 73
    23
 74
     0
 42
0.00000001
 43
0.00000001
 40
0.0
 40
0.0
 40
0.0
 40
0.0
 40
0.0151436181910958
 40
0.0478952108099445
 40
0.1018265553387763
 40
0.1557578997567095
 40
0.20968924417263
 40
0.2633179399052675
 40
0.316601024208937
 40
0.3698841080331792
 40
0.4231671918580442
 40
0.4764502756799137
 40
0.5292521002054252
 40
0.5818869257002748
 40
0.63452175081419
 40
0.6871565759276635
 40
0.7397806675130874
 40
0.7917672369352944
 40
0.8437538056994794
 40
0.8957403742085736
 40
0.9500942275614135
 40
1.0
 40
1.0
 40
1.0
 40
1.0
 10
123.2462782810918
 20
268.8783861383465
 30
0.0
 10
123.2483930762728
 20
268.8787850604868
 30
0.0
 10
123.2550816073579
 20
268.8800467444362
 30
0.0
 10
123.2699369542662
 20
268.7563806559972
 30
0.0
 10
123.2909188129129
 20
268.4360623310752
 30
0.0
 10
123.3152690607233
 20
267.8127683795308
 30
0.0
 10
123.3391683998245
 20
266.9670651734493
 30
0.0
 10
123.3614702262511
 20
265.9225091810987
 30
0.0
 10
123.3851913668021
 20
264.7089089483245
 30
0.0
 10
123.4094669516955
 20
263.3590085599286
 30
0.0
 10
123.4337847057559
 20
261.9074129147546
 30
0.0
 10
123.4572521523235
 20
260.3987483611971
 30
0.0
 10
123.4796723566397
 20
258.8764380574456
 30
0.0
 10
123.5036950821917
 20
257.3825086244562
 30
0.0
 10
123.5279986943298
 20
255.953444970737
 30
0.0
 10
123.5522739143229
 20
254.6273045503157
 30
0.0
 10
123.5751450385521
 20
253.444885721429
 30
0.0
 10
123.5980472583714
 20
252.4384796606323
 30
0.0
 10
123.6222054796564
 20
251.6323164603378
 30
0.0
 10
123.6469185333812
 20
251.0435457798853
 30
0.0
 10
123.67100904813
 20
250.6795686137087
 30
0.0
 10
123.6862420058085
 20
250.6606460477585
 30
0.0
 10
123.6935335389758
 20
250.6515884162631
 30
0.0
  0
SPLINE
  5
2F4
330
1F
100
AcDbEntity
  8
0
  6
Continuous
 62
     7
370
    25
100
AcDbSpline
210
0.0
220
0.0
230
1.0
 70
     8
 71
     3
 72
    19
 73
    15
 74
     0
 42
0.00000001
 43
0.00000001
 40
0.0
 40
0.0
 40
0.0
 40
0.0
 40
0.0264473451393358
 40
0.1282685078808418
 40
0.2292463687550467
 40
0.3296385954352545
 40
0.4316696113480225
 40
0.5250608802530473
 40
0.6198403916451376
 40
0.6403641216750366
 40
0.7411675443732292
 40
0.8417263866439164
 40
0.9437095912249688
 40
0.9999999999999999
 40
0.9999999999999999
 40
0.9999999999999999
 40
0.9999999999999999
 10
122.8339106569508
 20
268.0961210002338
 30
0.0
 10
122.8398632202904
 20
268.1201365805675
 30
0.0
 10
122.8687329012966
 20
268.2366111317584
 30
0.0
 10
122.9242839143899
 20
267.6006356319223
 30
0.0
 10
122.9943640637333
 20
266.2132870810555
 30
0.0
 10
123.0625943970887
 20
264.1139492458504
 30
0.0
 10
123.1350024222856
 20
261.6458204741047
 30
0.0
 10
123.1984182861795
 20
259.041812420419
 30
0.0
 10
123.2481912128347
 20
257.1946819590443
 30
0.0
 10
123.2994913970764
 20
255.4123746600516
 30
0.0
 10
123.3503803051738
 20
253.7118190322363
 30
0.0
 10
123.4191602793448
 20
252.0011702518875
 30
0.0
 10
123.4822624550879
 20
251.0427856043014
 30
0.0
 10
123.5176867045372
 20
251.020899481418
 30
0.0
 10
123.5302854279742
 20
251.0131156267534
 30
0.0
  0
LINE
  5
2F5
330
1F
100
AcDbEntity
  8
0
  6
Continuous
 62
     7
370
    25
100
AcDbLine
 10
123.6962672179
 20
268.4400995869
 30
0.0
 11
123.6962672179
 21
250.6400995869
 31
0.0
  0
LINE
  5
2F6
330
1F
100
AcDbEntity
  8
0
  6
Continuous
 62
     7
370
    25
100
AcDbLine
 10
125.4462672179
 20
263.913709024
 30
0.0
 11
125.1962672179
 21
264.3839615536
 31
0.0
  0
LINE
  5
2F7
330
1F
100
AcDbEntity
  8
0
  6
Continuous
 62
     7
370
    25
100
AcDbLine
 10
125.4462672179
 20
263.913709024
 30
0.0
 11
125.4462672179
 21
261.4327626636
 31
0.0
  0
LINE
  5
2F8
330
1F
100
AcDbEntity
  8
0
  6
Continuous
 62
     7
370
    25
100
AcDbLine
 10
125.1962672179
 20
260.7475928622
 30
0.0
 11
125.1962672179
 21
264.3839615536
 31
0.0
  0
LINE
  5
2F9
330
1F
100
AcDbEntity
  8
0
  6
Continuous
 62
     7
370
    25
100
AcDbLine
 10
125.4462672179
 20
263.913709024
 30
0.0
 11
127.9962672179
 21
263.913709024
 31
0.0
  0
LINE
  5
2FA
330
1F
100
AcDbEntity
  8
0
  6
Continuous
 62
     7
370
    25
100
AcDbLine
 10
125.1962672179
 20
268.7843522857
 30
0.0
 11
125.4462672179
 21
269.2546048153
 31
0.0
  0
LINE
  5
2FB
330
1F
100
AcDbEntity
  8
0
  6
Continuous
 62
     7
370
    25
100
AcDbLine
 10
127.9962672179
 20
269.2546048153
 30
0.0
 11
125.4462672179
 21
269.2546048153
 31
0.0
  0
LINE
  5
2FC
330
1F
100
AcDbEntity
  8
0
  6
Continuous
 62
     7
370
    25
100
AcDbLine
 10
125.1962672179
 20
268.7843522857
 30
0.0
 11
125.1962672179
 21
264.3839615536
 31
0.0
  0
LINE
  5
2FD
330
1F
100
AcDbEntity
  8
0
  6
Continuous
 62
     7
370
    25
100
AcDbLine
 10
125.4462672179
 20
253.65094273
 30
0.0
 11
125.4462672179
 21
251.7182574352
 31
0.0
  0
LINE
  5
2FE
330
1F
100
AcDbEntity
  8
0
  6
Continuous
 62
     7
370
    25
100
AcDbLine
 10
125.1962672179
 20
251.5033401634
 30
0.0
 11
125.4462672179
 21
251.7182574352
 31
0.0
  0
LINE
  5
2FF
330
1F
100
AcDbEntity
  8
0
  6
Continuous
 62
     7
370
    25
100
AcDbLine
 10
125.1962672179
 20
251.5033401634
 30
0.0
 11
125.1962672179
 21
254.3361125314
 31
0.0
  0
LINE
  5
300
330
1F
100
AcDbEntity
  8
0
  6
Continuous
 62
     7
370
    25
100
AcDbLine
 10
127.9962672179
 20
251.7182574352
 30
0.0
 11
125.4462672179
 21
251.7182574352
 31
0.0
  0
LINE
  5
301
330
1F
100
AcDbEntity
  8
0
  6
Continuous
 62
     7
370
    25
100
AcDbLine
 10
125.4462672179
 20
249.2773332929
 30
0.0
 11
125.1962672179
 21
249.4922505647
 31
0.0
  0
LINE
  5
302
330
1F
100
AcDbEntity
  8
0
  6
Continuous
 62
     7
370
    25
100
AcDbLine
 10
125.4462672179
 20
249.2773332929
 30
0.0
 11
127.9962672179
 21
249.2773332929
 31
0.0
  0
LINE
  5
303
330
1F
100
AcDbEntity
  8
0
  6
Continuous
 62
     7
370
    25
100
AcDbLine
 10
125.1962672179
 20
251.5033401634
 30
0.0
 11
125.1962672179
 21
249.4922505647
 31
0.0
  0
LINE
  5
304
330
1F
100
AcDbEntity
  8
0
  6
Continuous
 62
     7
370
    25
100
AcDbLine
 10
125.4462672179
 20
269.8028658809
 30
0.0
 11
125.1962672179
 21
269.5879486091
 31
0.0
  0
LINE
  5
305
330
1F
100
AcDbEntity
  8
0
  6
Continuous
 62
     7
370
    25
100
AcDbLine
 10
125.4462672179
 20
269.8028658809
 30
0.0
 11
125.4462672179
 21
269.2546048153
 31
0.0
  0
LINE
  5
306
330
1F
100
AcDbEntity
  8
0
  6
Continuous
 62
     7
370
    25
100
AcDbLine
 10
125.1962672179
 20
268.7843522857
 30
0.0
 11
125.1962672179
 21
269.5879486091
 31
0.0
  0
LINE
  5
307
330
1F
100
AcDbEntity
  8
0
  6
Continuous
 62
     7
370
    25
100
AcDbLine
 10
125.4462672179
 20
269.8028658809
 30
0.0
 11
127.9962672179
 21
269.8028658809
 31
0.0
  0
LINE
  5
308
330
1F
100
AcDbEntity
  8
0
  6
Continuous
 62
     7
370
    25
100
AcDbLine
 10
106.4318103103
 20
276.8143042111
 30
0.0
 11
106.2463156859
 21
276.6010706072
 31
0.0
  0
SPLINE
  5
309
330
1F
100
AcDbEntity
  8
0
  6
Continuous
 62
     7
370
    25
100
AcDbSpline
210
0.0
220
0.0
230
1.0
 70
     8
 71
     3
 72
     9
 73
     5
 74
     0
 42
0.00000001
 43
0.00000001
 40
0.0
 40
0.0
 40
0.0
 40
0.0
 40
0.5841917497409933
 40
1.0
 40
1.0
 40
1.0
 40
1.0
 10
106.8462672179063
 20
276.9824003231803
 30
0.0
 10
106.8200992540856
 20
277.0280158786066
 30
0.0
 10
106.775305804277
 20
277.106099068666
 30
0.0
 10
106.5326913867631
 20
276.9000013449592
 30
0.0
 10
106.431810310329
 20
276.8143042110822
 30
0.0
  0
LINE
  5
30A
330
1F
100
AcDbEntity
  8
0
  6
Continuous
 62
     7
370
    25
100
AcDbLine
 10
106.8462672179
 20
276.9824003232
 30
0.0
 11
106.8462672179
 21
276.6766362093
 31
0.0
  0
SPLINE
  5
30B
330
1F
100
AcDbEntity
  8
0
  6
Continuous
 62
     7
370
    25
100
AcDbSpline
210
0.0
220
0.0
230
1.0
 70
     8
 71
     3
 72
     9
 73
     5
 74
     0
 42
0.00000001
 43
0.00000001
 40
0.0
 40
0.0
 40
0.0
 40
0.0
 40
0.5850553834536155
 40
1.0
 40
1.0
 40
1.0
 40
1.0
 10
106.4318103103289
 20
275.5432052511632
 30
0.0
 10
106.5683644443533
 20
275.8314678805895
 30
0.0
 10
106.8017682175452
 20
276.3241778659666
 30
0.0
 10
106.8332175052705
 20
276.5732747841408
 30
0.0
 10
106.8462672179063
 20
276.6766362093355
 30
0.0
  0
SPLINE
  5
30C
330
1F
100
AcDbEntity
  8
0
  6
Continuous
 62
     7
370
    25
100
AcDbSpline
210
0.0
220
0.0
230
1.0
 70
     8
 71
     3
 72
    11
 73
     7
 74
     0
 42
0.00000001
 43
0.00000001
 40
0.0
 40
0.0
 40
0.0
 40
0.0
 40
0.2328716322111436
 40
0.4710265024313159
 40
0.7311421212560255
 40
1.0
 40
1.0
 40
1.0
 40
1.0
 10
106.4318103103289
 20
267.6350847978583
 30
0.0
 10
106.1614135756562
 20
268.2348403661979
 30
0.0
 10
105.6144855235254
 20
269.4479583616633
 30
0.0
 10
105.3132612055417
 20
271.412354397612
 30
0.0
 10
105.5209129709515
 20
273.48372145251
 30
0.0
 10
106.1248508027317
 20
274.8491883675799
 30
0.0
 10
106.4318103103289
 20
275.5432052511632
 30
0.0
  0
SPLINE
  5
30D
330
1F
100
AcDbEntity
  8
0
  6
Continuous
 62
     7
370
    25
100
AcDbSpline
210
0.0
220
0.0
230
1.0
 70
     8
 71
     3
 72
     9
 73
     5
 74
     0
 42
0.00000001
 43
0.00000001
 40
0.0
 40
0.0
 40
0.0
 40
0.0
 40
0.5841917497409221
 40
1.0
 40
1.0
 40
1.0
 40
1.0
 10
106.8462672179063
 20
265.655082506698
 30
0.0
 10
106.8200992540857
 20
266.0949129003372
 30
0.0
 10
106.775305804277
 20
266.8477999341481
 30
0.0
 10
106.532691386763
 20
267.4038673702336
 30
0.0
 10
106.4318103103289
 20
267.6350847978583
 30
0.0
  0
LINE
  5
30E
330
1F
100
AcDbEntity
  8
0
  6
Continuous
 62
     7
370
    25
100
AcDbLine
 10
106.8462672179
 20
265.6550825067
 30
0.0
 11
106.8462672179
 21
264.2714636198
 31
0.0
  0
SPLINE
  5
30F
330
1F
100
AcDbEntity
  8
0
  6
Continuous
 62
     7
370
    25
100
AcDbSpline
210
0.0
220
0.0
230
1.0
 70
     8
 71
     3
 72
     9
 73
     5
 74
     0
 42
0.00000001
 43
0.00000001
 40
0.0
 40
0.0
 40
0.0
 40
0.0
 40
0.5850553834536159
 40
0.9999999999999999
 40
0.9999999999999999
 40
0.9999999999999999
 40
0.9999999999999999
 10
106.4318103103289
 20
261.8832112181557
 30
0.0
 10
106.5683644443533
 20
262.344130176879
 30
0.0
 10
106.8017682175452
 20
263.1319512477708
 30
0.0
 10
106.8332175052705
 20
263.9372918658524
 30
0.0
 10
106.8462672179063
 20
264.2714636198115
 30
0.0
  0
SPLINE
  5
310
330
1F
100
AcDbEntity
  8
0
  6
Continuous
 62
     7
370
    25
100
AcDbSpline
210
0.0
220
0.0
230
1.0
 70
     8
 71
     3
 72
    11
 73
     7
 74
     0
 42
0.00000001
 43
0.00000001
 40
0.0
 40
0.0
 40
0.0
 40
0.0
 40
0.232871632211145
 40
0.4710265024313184
 40
0.7311421212560268
 40
1.0
 40
1.0
 40
1.0
 40
1.0
 10
106.4318103103289
 20
250.3608801736733
 30
0.0
 10
106.1614135756562
 20
251.2347391702561
 30
0.0
 10
105.6144855235253
 20
253.0022827000121
 30
0.0
 10
105.3132612055417
 20
255.8644572916007
 30
0.0
 10
105.5209129709514
 20
258.8824913569764
 30
0.0
 10
106.1248508027317
 20
260.872011106786
 30
0.0
 10
106.4318103103289
 20
261.8832112181557
 30
0.0
  0
SPLINE
  5
311
330
1F
100
AcDbEntity
  8
0
  6
Continuous
 62
     7
370
    25
100
AcDbSpline
210
0.0
220
0.0
230
1.0
 70
     8
 71
     3
 72
     9
 73
     5
 74
     0
 42
0.00000001
 43
0.00000001
 40
0.0
 40
0.0
 40
0.0
 40
0.0
 40
0.5841917497409224
 40
1.0
 40
1.0
 40
1.0
 40
1.0
 10
106.8462672179063
 20
248.2127817704148
 30
0.0
 10
106.8200992540857
 20
248.6069966086278
 30
0.0
 10
106.775305804277
 20
249.2818004523792
 30
0.0
 10
106.532691386763
 20
250.0439656121716
 30
0.0
 10
106.4318103103289
 20
250.3608801736733
 30
0.0
  0
LINE
  5
312
330
1F
100
AcDbEntity
  8
0
  6
Continuous
 62
     7
370
    25
100
AcDbLine
 10
106.8462672179
 20
248.2127817704
 30
0.0
 11
106.8462672179
 21
247.1349269974
 31
0.0
  0
SPLINE
  5
313
330
1F
100
AcDbEntity
  8
0
  6
Continuous
 62
     7
370
    25
100
AcDbSpline
210
0.0
220
0.0
230
1.0
 70
     8
 71
     3
 72
     9
 73
     5
 74
     0
 42
0.00000001
 43
0.00000001
 40
0.0
 40
0.0
 40
0.0
 40
0.0
 40
0.5850553834536166
 40
1.0
 40
1.0
 40
1.0
 40
1.0
 10
106.4318103103289
 20
245.8801055538897
 30
0.0
 10
106.5683644443533
 20
246.0527618831868
 30
0.0
 10
106.8017682175452
 20
246.3478729687013
 30
0.0
 10
106.8332175052705
 20
246.9041166686088
 30
0.0
 10
106.8462672179063
 20
247.1349269973732
 30
0.0
  0
SPLINE
  5
314
330
1F
100
AcDbEntity
  8
0
  6
Continuous
 62
     7
370
    25
100
AcDbSpline
210
0.0
220
0.0
230
1.0
 70
     8
 71
     3
 72
    11
 73
     7
 74
     0
 42
0.00000001
 43
0.00000001
 40
0.0
 40
0.0
 40
0.0
 40
0.0
 40
0.2082530096508319
 40
0.4878593266940604
 40
0.7405205934271741
 40
1.0
 40
1.0
 40
1.0
 40
1.0
 10
106.2504561472439
 20
242.4790908792719
 30
0.0
 10
106.0289595586734
 20
242.7100938655461
 30
0.0
 10
105.5100754534873
 20
243.2512479239534
 30
0.0
 10
105.3145034195274
 20
244.1109742806222
 30
0.0
 10
105.5927540206348
 20
245.0255459765509
 30
0.0
 10
106.1496535419809
 20
245.5927353599416
 30
0.0
 10
106.4318103103289
 20
245.8801055538897
 30
0.0
  0
SPLINE
  5
315
330
1F
100
AcDbEntity
  8
0
  6
Continuous
 62
     7
370
    25
100
AcDbSpline
210
0.0
220
0.0
230
1.0
 70
     8
 71
     3
 72
     9
 73
     5
 74
     0
 42
0.00000001
 43
0.00000001
 40
0.0
 40
0.0
 40
0.0
 40
0.0
 40
0.3607400128961872
 40
0.9999999999999999
 40
0.9999999999999999
 40
0.9999999999999999
 40
0.9999999999999999
 10
106.7588993114654
 20
242.0739480268218
 30
0.0
 10
106.7449314257347
 20
242.060592948689
 30
0.0
 10
106.7062113358327
 20
242.0235716101753
 30
0.0
 10
106.5388181049465
 20
242.1713964545827
 30
0.0
 10
106.4318103103289
 20
242.2658949627121
 30
0.0
  0
LINE
  5
316
330
1F
100
AcDbEntity
  8
0
  6
Continuous
 62
     7
370
    25
100
AcDbLine
 10
105.3462672179
 20
243.3400995869
 30
0.0
 11
105.3462672179
 21
275.7400995869
 31
0.0
  0
SPLINE
  5
317
330
1F
100
AcDbEntity
  8
0
  6
Continuous
 62
     7
370
    25
100
AcDbSpline
210
0.0
220
0.0
230
1.0
 70
     8
 71
     3
 72
     9
 73
     5
 74
     0
 42
0.00000001
 43
0.00000001
 40
0.0
 40
0.0
 40
0.0
 40
0.0
 40
0.8988656309358721
 40
1.0
 40
1.0
 40
1.0
 40
1.0
 10
113.7107241254842
 20
242.2658949627126
 30
0.0
 10
113.5618106209995
 20
242.135942277426
 30
0.0
 10
113.3961423616296
 20
241.9913681822398
 30
0.0
 10
113.361922624562
 20
242.0343924405917
 30
0.0
 10
113.3584618330442
 20
242.0387436718146
 30
0.0
  0
SPLINE
  5
318
330
1F
100
AcDbEntity
  8
0
  6
Continuous
 62
     7
370
    25
100
AcDbSpline
210
0.0
220
0.0
230
1.0
 70
     8
 71
     3
 72
    11
 73
     7
 74
     0
 42
0.00000001
 43
0.00000001
 40
0.0
 40
0.0
 40
0.0
 40
0.0
 40
0.2530349537076498
 40
0.5121108427205003
 40
0.7834992320411528
 40
1.0
 40
1.0
 40
1.0
 40
1.0
 10
113.7107241254836
 20
245.8801055538898
 30
0.0
 10
113.9866102709609
 20
245.5999703495999
 30
0.0
 10
114.5449690446604
 20
245.0330120166008
 30
0.0
 10
114.8268099699885
 20
244.1278717459447
 30
0.0
 10
114.6371426382267
 20
243.2608206815729
 30
0.0
 10
114.1198218130715
 20
242.7193484886744
 30
0.0
 10
113.8902607452426
 20
242.479070253666
 30
0.0
  0
SPLINE
  5
319
330
1F
100
AcDbEntity
  8
0
  6
Continuous
 62
     7
370
    25
100
AcDbSpline
210
0.0
220
0.0
230
1.0
 70
     8
 71
     3
 72
     9
 73
     5
 74
     0
 42
0.00000001
 43
0.00000001
 40
0.0
 40
0.0
 40
0.0
 40
0.0
 40
0.5841917497409944
 40
1.0
 40
1.0
 40
1.0
 40
1.0
 10
113.2962672179063
 20
247.1349269973732
 30
0.0
 10
113.3224351817269
 20
246.8167902194294
 30
0.0
 10
113.3672286315356
 20
246.2722142679803
 30
0.0
 10
113.6098430490495
 20
245.9952638306462
 30
0.0
 10
113.7107241254836
 20
245.8801055538898
 30
0.0
  0
LINE
  5
31A
330
1F
100
AcDbEntity
  8
0
  6
Continuous
 62
     7
370
    25
100
AcDbLine
 10
113.2962672179
 20
247.1349269974
 30
0.0
 11
113.2962672179
 21
248.2127817704
 31
0.0
  0
SPLINE
  5
31B
330
1F
100
AcDbEntity
  8
0
  6
Continuous
 62
     7
370
    25
100
AcDbSpline
210
0.0
220
0.0
230
1.0
 70
     8
 71
     3
 72
     9
 73
     5
 74
     0
 42
0.00000001
 43
0.00000001
 40
0.0
 40
0.0
 40
0.0
 40
0.0
 40
0.5850553834536184
 40
1.0
 40
1.0
 40
1.0
 40
1.0
 10
113.7107241254837
 20
250.3608801736733
 30
0.0
 10
113.5741699914593
 20
249.9132962177434
 30
0.0
 10
113.3407662182674
 20
249.1482678655765
 30
0.0
 10
113.3093169305421
 20
248.4871210728172
 30
0.0
 10
113.2962672179063
 20
248.2127817704148
 30
0.0
  0
SPLINE
  5
31C
330
1F
100
AcDbEntity
  8
0
  6
Continuous
 62
     7
370
    25
100
AcDbSpline
210
0.0
220
0.0
230
1.0
 70
     8
 71
     3
 72
    11
 73
     7
 74
     0
 42
0.00000001
 43
0.00000001
 40
0.0
 40
0.0
 40
0.0
 40
0.0
 40
0.232871632211147
 40
0.4710265024313226
 40
0.7311421212560292
 40
0.9999999999999999
 40
0.9999999999999999
 40
0.9999999999999999
 40
0.9999999999999999
 10
113.7107241254837
 20
261.8832112181557
 30
0.0
 10
113.9811208601564
 20
261.0093522215728
 30
0.0
 10
114.5280489122872
 20
259.2418086918168
 30
0.0
 10
114.8292732302709
 20
256.3796341002283
 30
0.0
 10
114.6216214648611
 20
253.3616000348526
 30
0.0
 10
114.0176836330809
 20
251.372080285043
 30
0.0
 10
113.7107241254837
 20
250.3608801736733
 30
0.0
  0
SPLINE
  5
31D
330
1F
100
AcDbEntity
  8
0
  6
Continuous
 62
     7
370
    25
100
AcDbSpline
210
0.0
220
0.0
230
1.0
 70
     8
 71
     3
 72
     9
 73
     5
 74
     0
 42
0.00000001
 43
0.00000001
 40
0.0
 40
0.0
 40
0.0
 40
0.0
 40
0.5841917497409245
 40
1.0
 40
1.0
 40
1.0
 40
1.0
 10
113.2962672179063
 20
264.2714636198115
 30
0.0
 10
113.3224351817269
 20
263.7968636329668
 30
0.0
 10
113.3672286315356
 20
262.9844591663596
 30
0.0
 10
113.6098430490496
 20
262.2066363587849
 30
0.0
 10
113.7107241254837
 20
261.8832112181557
 30
0.0
  0
LINE
  5
31E
330
1F
100
AcDbEntity
  8
0
  6
Continuous
 62
     7
370
    25
100
AcDbLine
 10
113.2962672179
 20
264.2714636198
 30
0.0
 11
113.2962672179
 21
265.6550825067
 31
0.0
  0
SPLINE
  5
31F
330
1F
100
AcDbEntity
  8
0
  6
Continuous
 62
     7
370
    25
100
AcDbSpline
210
0.0
220
0.0
230
1.0
 70
     8
 71
     3
 72
     9
 73
     5
 74
     0
 42
0.00000001
 43
0.00000001
 40
0.0
 40
0.0
 40
0.0
 40
0.0
 40
0.5850553834536174
 40
0.9999999999999999
 40
0.9999999999999999
 40
0.9999999999999999
 40
0.9999999999999999
 10
113.7107241254836
 20
267.6350847978583
 30
0.0
 10
113.5741699914593
 20
267.2998147016999
 30
0.0
 10
113.3407662182674
 20
266.7267576789964
 30
0.0
 10
113.3093169305421
 20
265.9693604213468
 30
0.0
 10
113.2962672179063
 20
265.655082506698
 30
0.0
  0
SPLINE
  5
320
330
1F
100
AcDbEntity
  8
0
  6
Continuous
 62
     7
370
    25
100
AcDbSpline
210
0.0
220
0.0
230
1.0
 70
     8
 71
     3
 72
    11
 73
     7
 74
     0
 42
0.00000001
 43
0.00000001
 40
0.0
 40
0.0
 40
0.0
 40
0.0
 40
0.2328716322111485
 40
0.4710265024313253
 40
0.7311421212560306
 40
1.0
 40
1.0
 40
1.0
 40
1.0
 10
113.7107241254837
 20
275.5432052511632
 30
0.0
 10
113.9811208601564
 20
274.9434496828235
 30
0.0
 10
114.5280489122872
 20
273.7303316873582
 30
0.0
 10
114.8292732302708
 20
271.7659356514094
 30
0.0
 10
114.6216214648611
 20
269.6945685965114
 30
0.0
 10
114.0176836330809
 20
268.3291016814416
 30
0.0
 10
113.7107241254836
 20
267.6350847978583
 30
0.0
  0
SPLINE
  5
321
330
1F
100
AcDbEntity
  8
0
  6
Continuous
 62
     7
370
    25
100
AcDbSpline
210
0.0
220
0.0
230
1.0
 70
     8
 71
     3
 72
     9
 73
     5
 74
     0
 42
0.00000001
 43
0.00000001
 40
0.0
 40
0.0
 40
0.0
 40
0.0
 40
0.5841917497409229
 40
0.9999999999999999
 40
0.9999999999999999
 40
0.9999999999999999
 40
0.9999999999999999
 10
113.2962672179063
 20
276.6766362093355
 30
0.0
 10
113.3224351817269
 20
276.5201730004346
 30
0.0
 10
113.3672286315356
 20
276.2523444852765
 30
0.0
 10
113.6098430490495
 20
275.7514721150359
 30
0.0
 10
113.7107241254837
 20
275.5432052511632
 30
0.0
  0
LINE
  5
322
330
1F
100
AcDbEntity
  8
0
  6
Continuous
 62
     7
370
    25
100
AcDbLine
 10
113.2962672179
 20
276.6766362093
 30
0.0
 11
113.2962672179
 21
276.9824003232
 31
0.0
  0
SPLINE
  5
323
330
1F
100
AcDbEntity
  8
0
  6
Continuous
 62
     7
370
    25
100
AcDbSpline
210
0.0
220
0.0
230
1.0
 70
     8
 71
     3
 72
     9
 73
     5
 74
     0
 42
0.00000001
 43
0.00000001
 40
0.0
 40
0.0
 40
0.0
 40
0.0
 40
0.5850553834536191
 40
1.0
 40
1.0
 40
1.0
 40
1.0
 10
113.7107241254836
 20
276.8143042110822
 30
0.0
 10
113.5741699914593
 20
276.9266180708535
 30
0.0
 10
113.3407662182674
 20
277.1185894003171
 30
0.0
 10
113.3093169305421
 20
277.0223389354267
 30
0.0
 10
113.2962672179063
 20
276.9824003231803
 30
0.0
  0
LINE
  5
324
330
1F
100
AcDbEntity
  8
0
  6
Continuous
 62
     7
370
    25
100
AcDbLine
 10
113.8948108963
 20
276.6010819678
 30
0.0
 11
113.7107241255
 21
276.8143042111
 31
0.0
  0
LINE
  5
325
330
1F
100
AcDbEntity
  8
0
  6
Continuous
 62
     7
370
    25
100
AcDbLine
 10
114.7962672179
 20
244.1205913332
 30
0.0
 11
114.7962672179
 21
243.3400995869
 31
0.0
  0
LINE
  5
326
330
1F
100
AcDbEntity
  8
0
  6
Continuous
 62
     7
370
    25
100
AcDbLine
 10
114.7962672179
 20
275.7400995869
 30
0.0
 11
114.7962672179
 21
244.1205913332
 31
0.0
  0
LINE
  5
327
330
1F
100
AcDbEntity
  8
0
  6
Continuous
 62
     7
370
    25
100
AcDbLine
 10
106.4318103103
 20
250.3608801737
 30
0.0
 11
113.7107241255
 21
250.3608801737
 31
0.0
  0
LINE
  5
328
330
1F
100
AcDbEntity
  8
0
  6
Continuous
 62
     7
370
    25
100
AcDbLine
 10
113.7107241255
 20
261.8832112182
 30
0.0
 11
106.4318103103
 21
261.8832112182
 31
0.0
  0
LINE
  5
329
330
1F
100
AcDbEntity
  8
0
  6
Continuous
 62
     7
370
    25
100
AcDbLine
 10
122.5462672179
 20
248.9650995869
 30
0.0
 11
122.5462672179
 21
270.1150995869
 31
0.0
  0
LINE
  5
32A
330
1F
100
AcDbEntity
  8
0
  6
Continuous
 62
     7
370
    25
100
AcDbLine
 10
106.8462672179
 20
264.2714636198
 30
0.0
 11
113.2962672179
 21
264.2714636198
 31
0.0
  0
LINE
  5
32B
330
1F
100
AcDbEntity
  8
0
  6
Continuous
 62
     7
370
    25
100
AcDbLine
 10
113.2962672179
 20
265.6550825067
 30
0.0
 11
106.8462672179
 21
265.6550825067
 31
0.0
  0
LINE
  5
32C
330
1F
100
AcDbEntity
  8
0
  6
Continuous
 62
     7
370
    25
100
AcDbLine
 10
106.4318103103
 20
267.6350847979
 30
0.0
 11
113.7107241255
 21
267.6350847979
 31
0.0
  0
LINE
  5
32D
330
1F
100
AcDbEntity
  8
0
  6
Continuous
 62
     7
370
    25
100
AcDbLine
 10
113.7107241255
 20
275.5432052512
 30
0.0
 11
106.4318103103
 21
275.5432052512
 31
0.0
  0
LINE
  5
32E
330
1F
100
AcDbEntity
  8
0
  6
Continuous
 62
     7
370
    25
100
AcDbLine
 10
113.2962672179
 20
248.2127817704
 30
0.0
 11
106.8462672179
 21
248.2127817704
 31
0.0
  0
LINE
  5
32F
330
1F
100
AcDbEntity
  8
0
  6
Continuous
 62
     7
370
    25
100
AcDbLine
 10
106.8462672179
 20
247.1349269974
 30
0.0
 11
113.2962672179
 21
247.1349269974
 31
0.0
  0
LINE
  5
330
330
1F
100
AcDbEntity
  8
0
  6
Continuous
 62
     7
370
    25
100
AcDbLine
 10
113.7107241255
 20
245.8801055539
 30
0.0
 11
106.4318103103
 21
245.8801055539
 31
0.0
  0
LINE
  5
331
330
1F
100
AcDbEntity
  8
0
  6
Continuous
 62
     7
370
    25
100
AcDbLine
 10
106.4318103103
 20
242.2658949627
 30
0.0
 11
113.7107241255
 21
242.2658949627
 31
0.0
  0
LINE
  5
332
330
1F
100
AcDbEntity
  8
0
  6
Continuous
 62
     7
370
    25
100
AcDbLine
 10
106.8462672179
 20
276.6766362093
 30
0.0
 11
113.2962672179
 21
276.6766362093
 31
0.0
  0
LINE
  5
333
330
1F
100
AcDbEntity
  8
0
  6
Continuous
 62
     7
370
    25
100
AcDbLine
 10
113.2962672179
 20
276.9824003232
 30
0.0
 11
106.8462672179
 21
276.9824003232
 31
0.0
  0
LINE
  5
334
330
1F
100
AcDbEntity
  8
0
  6
Continuous
 62
     8
370
    25
100
AcDbLine
 10
79.4962672179
 20
-20.6251781866
 30
0.0
 11
63.6962672179
 21
-20.6251781866
 31
0.0
  0
LINE
  5
335
330
1F
100
AcDbEntity
  8
0
  6
Continuous
 62
     8
370
    25
100
AcDbLine
 10
79.4962672179
 20
67.9748218134
 30
0.0
 11
63.6962672179
 21
67.9748218134
 31
0.0
  0
ARC
  5
336
330
1F
100
AcDbEntity
  8
0
  6
Continuous
 62
     8
370
    25
100
AcDbCircle
 10
71.5962672179
 20
-52.5251781866
 30
0.0
 40
10.01875000000001
100
AcDbArc
 50
180.0
 51
37.952440683
  0
ARC
  5
337
330
1F
100
AcDbEntity
  8
0
  6
Continuous
 62
     8
370
    25
100
AcDbCircle
 10
71.5962672179
 20
-52.5251781866
 30
0.0
 40
10.01875000000001
100
AcDbArc
 50
142.047559317
 51
180.0
  0
ARC
  5
338
330
1F
100
AcDbEntity
  8
0
  6
Continuous
 62
     8
370
    25
100
AcDbCircle
 10
71.5962672179
 20
99.8748218134
 30
0.0
 40
9.37499999999999
100
AcDbArc
 50
132.4825302596
 51
212.5772063232
  0
ARC
  5
339
330
1F
100
AcDbEntity
  8
0
  6
Continuous
 62
     8
370
    25
100
AcDbCircle
 10
71.5962672179
 20
99.8748218134
 30
0.0
 40
9.37499999999999
100
AcDbArc
 50
327.4227936768
 51
132.4825302596
  0
ARC
  5
33A
330
1F
100
AcDbEntity
  8
0
  6
Continuous
 62
     8
370
    25
100
AcDbCircle
 10
71.5962672179
 20
259.5400995869
 30
0.0
 40
9.374999999999968
100
AcDbArc
 50
327.4227936768
 51
212.5772063232
  0
ARC
  5
33B
330
1F
100
AcDbEntity
  8
0
  6
Continuous
 62
     8
370
    25
100
AcDbCircle
 10
71.5962672179
 20
259.5400995869
 30
0.0
 40
11.05993649053892
100
AcDbArc
 50
135.0085085188
 51
224.4149728023
  0
ARC
  5
33C
330
1F
100
AcDbEntity
  8
0
  6
Continuous
 62
     8
370
    25
100
AcDbCircle
 10
71.5962672179
 20
259.5400995869
 30
0.0
 40
11.05993649053892
100
AcDbArc
 50
315.5850271977
 51
135.0085085188
  0
ARC
  5
33D
330
1F
100
AcDbEntity
  8
0
  6
Continuous
 62
     8
370
    25
100
AcDbCircle
 10
71.5962672179
 20
259.5400995869
 30
0.0
 40
11.30993649053892
100
AcDbArc
 50
314.3068486059
 51
135.0085085188
  0
ARC
  5
33E
330
1F
100
AcDbEntity
  8
0
  6
Continuous
 62
     8
370
    25
100
AcDbCircle
 10
71.5962672179
 20
259.5400995869
 30
0.0
 40
11.30993649053892
100
AcDbArc
 50
135.0085085188
 51
225.6931513941
  0
SPLINE
  5
33F
330
1F
100
AcDbEntity
  8
0
  6
Continuous
 62
     8
370
    25
100
AcDbSpline
210
0.0
220
0.0
230
1.0
 70
     8
 71
     3
 72
    11
 73
     7
 74
     0
 42
0.00000001
 43
0.00000001
 40
0.0
 40
0.0
 40
0.0
 40
0.0
 40
0.0753615859333378
 40
0.341383728164928
 40
0.5635135023576414
 40
0.9999999999999999
 40
0.9999999999999999
 40
0.9999999999999999
 40
0.9999999999999999
 10
79.4962672179063
 20
247.4917100651886
 30
0.0
 10
79.62180812321044
 20
247.5920061974715
 30
0.0
 10
80.1905013342031
 20
248.0463420123991
 30
0.0
 10
81.08020367675911
 20
248.8565222120973
 30
0.0
 10
82.48553822031451
 20
250.2422438335322
 30
0.0
 10
83.37971820995377
 20
251.3277661542383
 30
0.0
 10
83.97232047113393
 20
252.0471772227766
 30
0.0
  0
LINE
  5
340
330
1F
100
AcDbEntity
  8
0
  6
Continuous
 62
     8
370
    25
100
AcDbLine
 10
63.0646811816
 20
247.5385303268
 30
0.0
 11
63.6962672179
 21
247.2568046876
 31
0.0
  0
ARC
  5
341
330
1F
100
AcDbEntity
  8
0
  6
Continuous
 62
     8
370
    25
100
AcDbCircle
 10
71.5962672179
 20
99.8748218134
 30
0.0
 40
11.05993649053891
100
AcDbArc
 50
315.5850271977
 51
224.4149728023
  0
ARC
  5
342
330
1F
100
AcDbEntity
  8
0
  6
Continuous
 62
     8
370
    25
100
AcDbCircle
 10
71.5962672179
 20
99.8748218134
 30
0.0
 40
11.30993649053893
100
AcDbArc
 50
314.3068486059
 51
225.6931513941
  0
SPLINE
  5
343
330
1F
100
AcDbEntity
  8
0
  6
Continuous
 62
     8
370
    25
100
AcDbSpline
210
0.0
220
0.0
230
1.0
 70
     8
 71
     3
 72
    11
 73
     7
 74
     0
 42
0.00000001
 43
0.00000001
 40
0.0
 40
0.0
 40
0.0
 40
0.0
 40
0.083864626223239
 40
0.3474404100092007
 40
0.5675274630788933
 40
1.0
 40
1.0
 40
1.0
 40
1.0
 10
79.49626721790634
 20
87.81930901506449
 30
0.0
 10
79.63688622607985
 20
87.93243678347149
 30
0.0
 10
80.21945277475606
 20
88.40111064525111
 30
0.0
 10
81.12114495950601
 20
89.22748762246884
 30
0.0
 10
82.52099256736963
 20
90.61878846772257
 30
0.0
 10
83.41104542230387
 20
91.70768335903956
 30
0.0
 10
84.00091249662381
 20
92.42932954018742
 30
0.0
  0
LINE
  5
344
330
1F
100
AcDbEntity
  8
0
  6
Continuous
 62
     8
370
    25
100
AcDbLine
 10
63.110685368
 20
87.840681808
 30
0.0
 11
63.6962672179
 21
87.5821598625
 31
0.0
  0
LINE
  5
345
330
1F
100
AcDbEntity
  8
0
  6
Continuous
 62
     8
370
    25
100
AcDbLine
 10
63.6962672179
 20
227.6400995869
 30
0.0
 11
79.4962672179
 21
227.6400995869
 31
0.0
  0
SPLINE
  5
346
330
1F
100
AcDbEntity
  8
0
  6
Continuous
 62
     8
370
    25
100
AcDbSpline
210
0.0
220
0.0
230
1.0
 70
     8
 71
     3
 72
    15
 73
    11
 74
     0
 42
0.00000001
 43
0.00000001
 40
0.0
 40
0.0
 40
0.0
 40
0.0
 40
0.0107787084091961
 40
0.2108808836320217
 40
0.4104645284794022
 40
0.5433415559442091
 40
0.6758485533752796
 40
0.8489282333513993
 40
0.9228986929879006
 40
1.0
 40
1.0
 40
1.0
 40
1.0
 10
81.83239733004321
 20
271.592381305761
 30
0.0
 10
81.80528711138305
 20
271.6127830899159
 30
0.0
 10
81.27488711822284
 20
272.0119353915571
 30
0.0
 10
80.12454380947187
 20
272.7851161677666
 30
0.0
 10
78.28074058756798
 20
273.7111242198914
 30
0.0
 10
76.3695709542993
 20
274.3885986948605
 30
0.0
 10
74.33268918417966
 20
274.877390406427
 30
0.0
 10
72.3523312053766
 20
275.0671193274197
 30
0.0
 10
70.6499858136999
 20
275.0394958551882
 30
0.0
 10
69.88216605368699
 20
274.9523785146733
 30
0.0
 10
69.49029993363018
 20
274.9079171241294
 30
0.0
  0
SPLINE
  5
347
330
1F
100
AcDbEntity
  8
0
  6
Continuous
 62
     8
370
    25
100
AcDbSpline
210
0.0
220
0.0
230
1.0
 70
     8
 71
     3
 72
    13
 73
     9
 74
     0
 42
0.00000001
 43
0.00000001
 40
0.0
 40
0.0
 40
0.0
 40
0.0
 40
0.0173628928551205
 40
0.207348034584578
 40
0.3978365996627525
 40
0.6689774403639468
 40
0.9403574696387034
 40
0.9999999999999999
 40
0.9999999999999999
 40
0.9999999999999999
 40
0.9999999999999999
 10
65.87543773627968
 20
274.0438285454215
 30
0.0
 10
65.8057515362264
 20
274.0188314151815
 30
0.0
 10
64.9735574577806
 20
273.7203151558931
 30
0.0
 10
63.56034997284596
 20
273.0547887559991
 30
0.0
 10
61.64766416860439
 20
271.8668037891782
 30
0.0
 10
59.96053844065019
 20
270.4774518862151
 30
0.0
 10
58.93572573840079
 20
269.4047746891238
 30
0.0
 10
58.48815518570846
 20
268.8920686128987
 30
0.0
 10
58.40751343033346
 20
268.7996909581815
 30
0.0
  0
SPLINE
  5
348
330
1F
100
AcDbEntity
  8
0
  6
Continuous
 62
     8
370
    25
100
AcDbSpline
210
0.0
220
0.0
230
1.0
 70
     8
 71
     3
 72
    12
 73
     8
 74
     0
 42
0.00000001
 43
0.00000001
 40
0.0
 40
0.0
 40
0.0
 40
0.0
 40
0.1741481490569403
 40
0.4113680498783468
 40
0.6390662730338839
 40
0.8662245340675443
 40
1.0
 40
1.0
 40
1.0
 40
1.0
 10
79.49626721790628
 20
245.6671181515519
 30
0.0
 10
79.91053204082577
 20
245.9426346533371
 30
0.0
 10
80.88909720652194
 20
246.5934522856945
 30
0.0
 10
82.38686070953582
 20
247.9672474244958
 30
0.0
 10
83.91889364553565
 20
249.7841142425411
 30
0.0
 10
85.12237582854024
 20
251.6814723493674
 30
0.0
 10
85.71432373493901
 20
253.1217388002436
 30
0.0
 10
85.93372164948657
 20
253.6555551247872
 30
0.0
  0
SPLINE
  5
349
330
1F
100
AcDbEntity
  8
0
  6
Continuous
 62
     8
370
    25
100
AcDbSpline
210
0.0
220
0.0
230
1.0
 70
     8
 71
     3
 72
    15
 73
    11
 74
     0
 42
0.00000001
 43
0.00000001
 40
0.0
 40
0.0
 40
0.0
 40
0.0
 40
0.0661124802786796
 40
0.1495733146090942
 40
0.2772422231803947
 40
0.4050932271047833
 40
0.47341356844302
 40
0.6588011134607531
 40
0.8447177037573624
 40
1.0
 40
1.0
 40
1.0
 40
1.0
 10
86.87314403619789
 20
257.7802209871875
 30
0.0
 10
86.92319076743415
 20
258.0747549392971
 30
0.0
 10
87.03641682467484
 20
258.7411105093231
 30
0.0
 10
87.02829674842027
 20
260.0547455298422
 30
0.0
 10
86.92293557653034
 20
261.6287074770239
 30
0.0
 10
86.66130172954337
 20
263.0636517749209
 30
0.0
 10
86.2469473627661
 20
264.6455061132814
 30
0.0
 10
85.62588388245454
 20
266.3014265693746
 30
0.0
 10
84.74036138625826
 20
268.0336428804434
 30
0.0
 10
84.0777400254404
 20
268.9255073731066
 30
0.0
 10
83.77617583368453
 20
269.3314019167926
 30
0.0
  0
ARC
  5
34A
330
1F
100
AcDbEntity
  8
0
  6
Continuous
 62
     8
370
    25
100
AcDbCircle
 10
71.5962672179
 20
259.5400995869
 30
0.0
 40
16.11469077681543
100
AcDbArc
 50
144.927984031
 51
240.6439119643
  0
ARC
  5
34B
330
1F
100
AcDbEntity
  8
0
  6
Continuous
 62
     8
370
    25
100
AcDbCircle
 10
84.8687865272
 20
277.7592023988
 30
0.0
 40
7.002175156530015
100
AcDbArc
 50
251.3878905348
 51
297.3933940112
  0
ARC
  5
34C
330
1F
100
AcDbEntity
  8
0
  6
Continuous
 62
     8
370
    25
100
AcDbCircle
 10
81.365339582
 20
239.8065418371
 30
0.0
 40
6.027077813606251
100
AcDbArc
 50
69.4462127364
 51
108.0660123474
  0
LINE
  5
34D
330
1F
100
AcDbEntity
  8
0
  6
Continuous
 62
     8
370
    25
100
AcDbLine
 10
96.8962672179
 20
327.0400995869
 30
0.0
 11
46.2962672179
 21
327.0400995869
 31
0.0
  0
LINE
  5
34E
330
1F
100
AcDbEntity
  8
0
  6
Continuous
 62
     8
370
    25
100
AcDbLine
 10
96.614047682
 20
323.4035417469
 30
0.0
 11
46.5784867539
 21
323.4035417469
 31
0.0
  0
LINE
  5
34F
330
1F
100
AcDbEntity
  8
0
  6
Continuous
 62
     8
370
    25
100
AcDbLine
 10
46.2962672179
 20
323.8536213726
 30
0.0
 11
96.8962672179
 21
323.8536213726
 31
0.0
  0
LINE
  5
350
330
1F
100
AcDbEntity
  8
0
  6
Continuous
 62
     8
370
    25
100
AcDbLine
 10
54.4673890741
 20
319.5863309468
 30
0.0
 11
88.7251453617
 21
319.5863309468
 31
0.0
  0
SPLINE
  5
351
330
1F
100
AcDbEntity
  8
0
  6
Continuous
 62
     8
370
    25
100
AcDbSpline
210
0.0
220
0.0
230
1.0
 70
     8
 71
     3
 72
    10
 73
     6
 74
     0
 42
0.00000001
 43
0.00000001
 40
0.0
 40
0.0
 40
0.0
 40
0.0
 40
0.0003129369198057
 40
0.8869595043293946
 40
1.0
 40
1.0
 40
1.0
 40
1.0
 10
55.57372009694755
 20
318.0855360769903
 30
0.0
 10
55.57371447504818
 20
318.0855540998686
 30
0.0
 10
55.55778028268104
 20
318.1366364816445
 30
0.0
 10
55.59468338568957
 20
318.0406953029391
 30
0.0
 10
55.6241378888061
 20
317.9261698486864
 30
0.0
 10
55.62746848270392
 20
317.9132197820168
 30
0.0
  0
LINE
  5
352
330
1F
100
AcDbEntity
  8
0
  6
Continuous
 62
     8
370
    25
100
AcDbLine
 10
87.5650659531
 20
317.913219782
 30
0.0
 11
87.6188149438
 21
318.0855380165
 31
0.0
  0
SPLINE
  5
353
330
1F
100
AcDbEntity
  8
0
  6
Continuous
 62
     8
370
    25
100
AcDbSpline
210
0.0
220
0.0
230
1.0
 70
     8
 71
     3
 72
    13
 73
     9
 74
     0
 42
0.00000001
 43
0.00000001
 40
0.0
 40
0.0
 40
0.0
 40
0.0
 40
0.0624921984852711
 40
0.2801652555532278
 40
0.346931167506171
 40
0.5028718320925426
 40
0.6630421850501999
 40
1.0
 40
1.0
 40
1.0
 40
1.0
 10
94.9731859443814
 20
275.0470574782594
 30
0.0
 10
94.96723224168784
 20
275.0439032252453
 30
0.0
 10
94.94054057973548
 20
275.0297620664577
 30
0.0
 10
94.50418139185405
 20
274.7985416806713
 30
0.0
 10
93.67508343511366
 20
274.3627129832685
 30
0.0
 10
92.76723127386913
 20
273.8890329899545
 30
0.0
 10
90.93142108872686
 20
272.9401485596662
 30
0.0
 10
89.23816977960499
 20
272.1069448375667
 30
0.0
 10
88.09046925061624
 20
271.5421920761441
 30
0.0
  0
LINE
  5
354
330
1F
100
AcDbEntity
  8
0
  6
Continuous
 62
     8
370
    25
100
AcDbLine
 10
83.4813654883
 20
245.4499540438
 30
0.0
 11
83.4813654883
 21
243.7890569057
 31
0.0
  0
LINE
  5
355
330
1F
100
AcDbEntity
  8
0
  6
Continuous
 62
     8
370
    25
100
AcDbLine
 10
100.5962672179
 20
266.7688283508
 30
0.0
 11
100.7517909836
 21
266.6341414787
 31
0.0
  0
LINE
  5
356
330
1F
100
AcDbEntity
  8
0
  6
Continuous
 62
     8
370
    25
100
AcDbLine
 10
58.2761843146
 20
273.3836851559
 30
0.0
 11
58.5249968166
 21
273.3836851559
 31
0.0
  0
SPLINE
  5
357
330
1F
100
AcDbEntity
  8
0
  6
Continuous
 62
     8
370
    25
100
AcDbSpline
210
0.0
220
0.0
230
1.0
 70
     8
 71
     3
 72
    13
 73
     9
 74
     0
 42
0.00000001
 43
0.00000001
 40
0.0
 40
0.0
 40
0.0
 40
0.0
 40
0.3303824594534193
 40
0.4871650594317134
 40
0.6474432086157422
 40
0.8620994843334038
 40
0.9364418460707511
 40
0.9999999999999999
 40
0.9999999999999999
 40
0.9999999999999999
 40
0.9999999999999999
 10
81.18096385494731
 20
279.4385289494368
 30
0.0
 10
81.85033250301393
 20
280.3818266927757
 30
0.0
 10
82.83734924039335
 20
281.7727652491256
 30
0.0
 10
83.89625081572143
 20
283.3371590960676
 30
0.0
 10
84.63237165678379
 20
284.4347195014955
 30
0.0
 10
85.02126195516594
 20
285.0219905963488
 30
0.0
 10
85.1924927250739
 20
285.2808965834085
 30
0.0
 10
85.15680536045318
 20
285.226944659137
 30
0.0
 10
85.14035710423798
 20
285.2020782930393
 30
0.0
  0
LINE
  5
358
330
1F
100
AcDbEntity
  8
0
  6
Continuous
 62
     8
370
    25
100
AcDbLine
 10
57.9280095272
 20
301.8132147963
 30
0.0
 11
57.6188541495
 21
301.8132147963
 31
0.0
  0
LINE
  5
359
330
1F
100
AcDbEntity
  8
0
  6
Continuous
 62
     8
370
    25
100
AcDbLine
 10
85.5736802863
 20
301.8132147963
 30
0.0
 11
85.2645249086
 21
301.8132147963
 31
0.0
  0
ARC
  5
35A
330
1F
100
AcDbEntity
  8
0
  6
Continuous
 62
     8
370
    25
100
AcDbCircle
 10
79.4823864044
 20
239.1141417708
 30
0.0
 40
5.860672405008782
100
AcDbArc
 50
74.7523207299
 51
89.864296668
  0
LINE
  5
35B
330
1F
100
AcDbEntity
  8
0
  6
Continuous
 62
     8
370
    25
100
AcDbLine
 10
79.4962672179
 20
244.3570600395
 30
0.0
 11
81.0236971594
 21
244.7685066508
 31
0.0
  0
ARC
  5
35C
330
1F
100
AcDbEntity
  8
0
  6
Continuous
 62
     8
370
    25
100
AcDbCircle
 10
71.5962672179
 20
259.5400995869
 30
0.0
 40
16.76373439777597
100
AcDbArc
 50
149.2515511975
 51
241.8841832281
  0
LINE
  5
35D
330
1F
100
AcDbEntity
  8
0
  6
Continuous
 62
     8
370
    25
100
AcDbLine
 10
57.1891743491
 20
268.110891034
 30
0.0
 11
56.9149343775
 21
268.110891034
 31
0.0
  0
LINE
  5
35E
330
1F
100
AcDbEntity
  8
0
  6
Continuous
 62
     8
370
    25
100
AcDbLine
 10
89.2054504282
 20
304.5400995869
 30
0.0
 11
89.6073742168
 21
304.5400995869
 31
0.0
  0
LINE
  5
35F
330
1F
100
AcDbEntity
  8
0
  6
Continuous
 62
     8
370
    25
100
AcDbLine
 10
89.6073742168
 20
315.2900995869
 30
0.0
 11
89.2054504282
 21
315.2900995869
 31
0.0
  0
LINE
  5
360
330
1F
100
AcDbEntity
  8
0
  6
Continuous
 62
     8
370
    25
100
AcDbLine
 10
88.3346562021
 20
316.9736661477
 30
0.0
 11
88.2441386468
 21
316.9188828308
 31
0.0
  0
LINE
  5
361
330
1F
100
AcDbEntity
  8
0
  6
Continuous
 62
     8
370
    25
100
AcDbLine
 10
53.9870840076
 20
315.2900995869
 30
0.0
 11
53.585160219
 21
315.2900995869
 31
0.0
  0
SPLINE
  5
362
330
1F
100
AcDbEntity
  8
0
  6
Continuous
 62
     8
370
    25
100
AcDbSpline
210
0.0
220
0.0
230
1.0
 70
    24
 71
     3
 72
     9
 73
     5
 74
     0
 42
0.00000001
 43
0.00000001
 40
0.0
 40
0.0
 40
0.0
 40
0.0
 40
0.9976117587265201
 40
1.0
 40
1.0
 40
1.0
 40
1.0
 10
54.94839578896614
 20
316.9188828307754
 30
0.0
 10
54.88805482589522
 20
316.9554025765227
 30
0.0
 10
54.82756940905536
 20
316.9920097490302
 30
0.0
 10
54.85792058732822
 20
316.9736405143149
 30
0.0
 10
54.85799307326487
 20
316.9735966441503
 30
0.0
  0
LINE
  5
363
330
1F
100
AcDbEntity
  8
0
  6
Continuous
 62
     8
370
    25
100
AcDbLine
 10
53.585160219
 20
304.5400995869
 30
0.0
 11
53.9870840076
 21
304.5400995869
 31
0.0
  0
LINE
  5
364
330
1F
100
AcDbEntity
  8
0
  6
Continuous
 62
     8
370
    25
100
AcDbLine
 10
155.3617157717
 20
258.3175615586
 30
0.0
 11
155.1404729477
 21
258.3175615586
 31
0.0
  0
LINE
  5
365
330
1F
100
AcDbEntity
  8
0
  6
Continuous
 62
     8
370
    25
100
AcDbLine
 10
155.2388039049
 20
261.0033325491
 30
0.0
 11
155.3617157717
 21
261.0033325491
 31
0.0
  0
LINE
  5
366
330
1F
100
AcDbEntity
  8
0
  6
Continuous
 62
     8
370
    25
100
AcDbLine
 10
155.3617157717
 20
258.7107017515
 30
0.0
 11
155.140779298
 21
258.7107017515
 31
0.0
  0
LINE
  5
367
330
1F
100
AcDbEntity
  8
0
  6
Continuous
 62
     8
370
    25
100
AcDbLine
 10
154.4061992219
 20
253.6149819528
 30
0.0
 11
154.4061992219
 21
265.4652273581
 31
0.0
  0
LINE
  5
368
330
1F
100
AcDbEntity
  8
0
  6
Continuous
 62
     8
370
    25
100
AcDbLine
 10
147.9343111751
 20
251.5916456534
 30
0.0
 11
147.9343111751
 21
250.5644415427
 31
0.0
  0
LINE
  5
369
330
1F
100
AcDbEntity
  8
0
  6
Continuous
 62
     8
370
    25
100
AcDbLine
 10
147.0008909612
 20
268.5320505416
 30
0.0
 11
147.0008909612
 21
267.8739538179
 31
0.0
  0
LINE
  5
36A
330
1F
100
AcDbEntity
  8
0
  6
Continuous
 62
     8
370
    25
100
AcDbLine
 10
152.3049934211
 20
250.6407320851
 30
0.0
 11
152.3049934211
 21
268.4394670887
 31
0.0
  0
SPLINE
  5
36B
330
1F
100
AcDbEntity
  8
0
  6
Continuous
 62
     8
370
    25
100
AcDbSpline
210
0.0
220
0.0
230
1.0
 70
     8
 71
     3
 72
    10
 73
     6
 74
     0
 42
0.00000001
 43
0.00000001
 40
0.0
 40
0.0
 40
0.0
 40
0.0
 40
0.3134538186177145
 40
0.9610893236855556
 40
1.0
 40
1.0
 40
1.0
 40
1.0
 10
147.8897048418725
 20
251.5908786728537
 30
0.0
 10
147.6996339329031
 20
251.3814375960948
 30
0.0
 10
147.116852322013
 20
250.7392645841282
 30
0.0
 10
146.4801585947827
 20
250.2178117811173
 30
0.0
 10
146.1263737481638
 20
250.0369932556712
 30
0.0
 10
146.1063226459582
 20
250.0267451888899
 30
0.0
  0
ARC
  5
36C
330
1F
100
AcDbEntity
  8
0
  6
Continuous
 62
     8
370
    25
100
AcDbCircle
 10
142.5852194669
 20
249.4943561874
 30
0.0
 40
1.920960275289249
100
AcDbArc
 50
268.5765797176
 51
339.0957782955
  0
SPLINE
  5
36D
330
1F
100
AcDbEntity
  8
0
  6
Continuous
 62
     8
370
    25
100
AcDbSpline
210
0.0
220
0.0
230
1.0
 70
     8
 71
     3
 72
    11
 73
     7
 74
     0
 42
0.00000001
 43
0.00000001
 40
0.0
 40
0.0
 40
0.0
 40
0.0
 40
0.186985029706169
 40
0.8392317873888462
 40
0.8428766719154469
 40
1.0
 40
1.0
 40
1.0
 40
1.0
 10
145.8482086061762
 20
268.7959471951416
 30
0.0
 10
145.9135858255212
 20
268.7698626504693
 30
0.0
 10
146.2070138113424
 20
268.652789219067
 30
0.0
 10
146.5363716860306
 20
268.3443423820401
 30
0.0
 10
146.8467451295328
 20
268.013871686455
 30
0.0
 10
146.9082481640896
 20
267.9434213900422
 30
0.0
 10
146.968356821889
 20
267.8745683197918
 30
0.0
  0
ARC
  5
36E
330
1F
100
AcDbEntity
  8
0
  6
Continuous
 62
     8
370
    25
100
AcDbCircle
 10
142.4537561695
 20
268.8595555593
 30
0.0
 40
2.003391782418982
100
AcDbArc
 50
30.7754701024
 51
89.2158986631
  0
LINE
  5
36F
330
1F
100
AcDbEntity
  8
0
  6
Continuous
 62
     8
370
    25
100
AcDbLine
 10
142.4811720308
 20
247.2397721048
 30
0.0
 11
142.4811720308
 21
247.2943462425
 31
0.0
  0
LINE
  5
370
330
1F
100
AcDbEntity
  8
0
  6
Continuous
 62
     8
370
    25
100
AcDbLine
 10
138.4549934211
 20
247.5053878099
 30
0.0
 11
138.4549934211
 21
247.1694948958
 31
0.0
  0
ARC
  5
371
330
1F
100
AcDbEntity
  8
0
  6
Continuous
 62
     8
370
    25
100
AcDbCircle
 10
142.4499737621
 20
249.2927159388
 30
0.0
 40
1.998613212970863
100
AcDbArc
 50
270.8944210494
 51
342.7591951313
  0
ARC
  5
372
330
1F
100
AcDbEntity
  8
0
  6
Continuous
 62
     8
370
    25
100
AcDbCircle
 10
142.4535314304
 20
268.896881222
 30
0.0
 40
2.00280781454379
100
AcDbArc
 50
29.913570219
 51
89.2092401415
  0
LINE
  5
373
330
1F
100
AcDbEntity
  8
0
  6
Continuous
 62
     8
370
    25
100
AcDbLine
 10
142.4811720308
 20
270.8994982946
 30
0.0
 11
142.4811720308
 21
271.0355197982
 31
0.0
  0
LINE
  5
374
330
1F
100
AcDbEntity
  8
0
  6
Continuous
 62
     8
370
    25
100
AcDbLine
 10
138.4549934211
 20
271.1057970073
 30
0.0
 11
138.4549934211
 21
270.9687050002
 31
0.0
  0
ENDSEC
  0
SECTION
  2
OBJECTS
  0
DICTIONARY
  5
C
330
0
100
AcDbDictionary
281
     1
  3
ACAD_GROUP
350
D
  3
ACAD_LAYOUT
350
1A
  3
ACAD_MLINESTYLE
350
17
  3
ACAD_PLOTSETTINGS
350
19
  3
ACAD_PLOTSTYLENAME
350
E
  3
ACAD_SCALELIST
350
47
  3
DWGPROPS
350
375
  0
DICTIONARY
  5
D
102
{ACAD_REACTORS
330
C
102
}
330
C
100
AcDbDictionary
281
     1
  0
DICTIONARY
  5
1A
102
{ACAD_REACTORS
330
C
102
}
330
C
100
AcDbDictionary
281
     1
  3
Layout1
350
1E
  3
Layout2
350
26
  3
Model
350
22
  0
DICTIONARY
  5
17
102
{ACAD_REACTORS
330
C
102
}
330
C
100
AcDbDictionary
281
     1
  3
Standard
350
18
  0
DICTIONARY
  5
19
102
{ACAD_REACTORS
330
C
102
}
330
C
100
AcDbDictionary
281
     1
  0
ACDBDICTIONARYWDFLT
  5
E
102
{ACAD_REACTORS
330
C
102
}
330
C
100
AcDbDictionary
281
     1
  3
Normal
350
F
100
AcDbDictionaryWithDefault
340
F
  0
DICTIONARY
  5
47
102
{ACAD_REACTORS
330
C
102
}
330
C
100
AcDbDictionary
281
     1
  3
A0
350
48
  3
A1
350
49
  3
A2
350
4A
  3
A3
350
4B
  3
A4
350
4C
  3
A5
350
4D
  3
A6
350
4E
  3
A7
350
4F
  3
A8
350
50
  3
A9
350
51
  3
B0
350
52
  3
B1
350
53
  3
B2
350
54
  3
B3
350
55
  3
B4
350
56
  3
B5
350
57
  3
B6
350
58
  3
B7
350
59
  3
B8
350
5A
  3
B9
350
5B
  3
C0
350
5C
  3
C1
350
5D
  3
C2
350
5E
  3
C3
350
5F
  3
C4
350
60
  3
C5
350
61
  3
C6
350
62
  3
C7
350
63
  3
C8
350
64
  3
C9
350
65
  3
D0
350
66
  3
D1
350
67
  3
D2
350
68
  0
XRECORD
  5
375
102
{ACAD_REACTORS
330
C
102
}
330
C
100
AcDbXrecord
280
     1
  1
DWGPROPS COOKIE
  2

  3

  4

  6

  7

  8
vishesh
  9

300
=
301
=
302
=
303
=
304
=
305
=
306
=
307
=
308
=
309
=
 40
0.0
 41
2460383.486749433
 42
2460383.486749907
  1

 90
        0
  0
LAYOUT
  5
1E
102
{ACAD_REACTORS
330
1A
102
}
330
1A
100
AcDbPlotSettings
  1

  2
none_device
  4

  6

 40
0.0
 41
0.0
 42
0.0
 43
0.0
 44
0.0
 45
0.0
 46
0.0
 47
0.0
 48
0.0
 49
0.0
140
0.0
141
0.0
142
1.0
143
1.0
 70
   688
 72
     1
 73
     0
 74
     5
  7

 75
    16
147
1.0
148
0.0
149
0.0
100
AcDbLayout
  1
Layout1
 70
     1
 71
     1
 10
0.0
 20
0.0
 11
420.0
 21
297.0
 12
0.0
 22
0.0
 32
0.0
 14
1.0000000000E+20
 24
1.0000000000E+20
 34
1.0000000000E+20
 15
-1.0000000000E+20
 25
-1.0000000000E+20
 35
-1.0000000000E+20
146
0.0
 13
0.0
 23
0.0
 33
0.0
 16
1.0
 26
0.0
 36
0.0
 17
0.0
 27
1.0
 37
0.0
 76
     0
330
1B
  0
LAYOUT
  5
26
102
{ACAD_REACTORS
330
1A
102
}
330
1A
100
AcDbPlotSettings
  1

  2
none_device
  4

  6

 40
0.0
 41
0.0
 42
0.0
 43
0.0
 44
0.0
 45
0.0
 46
0.0
 47
0.0
 48
0.0
 49
0.0
140
0.0
141
0.0
142
1.0
143
1.0
 70
   688
 72
     1
 73
     0
 74
     5
  7

 75
    16
147
1.0
148
0.0
149
0.0
100
AcDbLayout
  1
Layout2
 70
     1
 71
     2
 10
0.0
 20
0.0
 11
0.0
 21
0.0
 12
0.0
 22
0.0
 32
0.0
 14
0.0
 24
0.0
 34
0.0
 15
0.0
 25
0.0
 35
0.0
146
0.0
 13
0.0
 23
0.0
 33
0.0
 16
1.0
 26
0.0
 36
0.0
 17
0.0
 27
1.0
 37
0.0
 76
     0
330
23
  0
LAYOUT
  5
22
102
{ACAD_REACTORS
330
1A
102
}
330
1A
100
AcDbPlotSettings
  1

  2
none_device
  4
Letter_(8.50_x_11.00_Inches)
  6

 40
6.35
 41
6.35
 42
6.35000508
 43
6.35000508
 44
215.9
 45
279.4
 46
0.0
 47
0.0
 48
0.0
 49
0.0
140
0.0
141
0.0
142
1.0
143
1.0
 70
  1712
 72
     1
 73
     0
 74
     0
  7

 75
     0
147
1.0
148
0.0
149
0.0
100
AcDbLayout
  1
Model
 70
     1
 71
     0
 10
0.0
 20
0.0
 11
279.4
 21
215.9
 12
0.0
 22
0.0
 32
0.0
 14
0.0
 24
0.0
 34
0.0
 15
279.4
 25
215.9
 35
0.0
146
0.0
 13
0.0
 23
0.0
 33
0.0
 16
1.0
 26
0.0
 36
0.0
 17
0.0
 27
1.0
 37
0.0
 76
     0
330
1F
331
29
  0
MLINESTYLE
  5
18
102
{ACAD_REACTORS
330
17
102
}
330
17
100
AcDbMlineStyle
  2
Standard
 70
     0
  3

 62
   256
 51
90.0
 52
90.0
 71
     2
 49
0.5
 62
   256
  6
BYLAYER
 49
-0.5
 62
   256
  6
BYLAYER
  0
ACDBPLACEHOLDER
  5
F
102
{ACAD_REACTORS
330
E
102
}
330
E
  0
SCALE
  5
48
102
{ACAD_REACTORS
330
47
102
}
330
47
100
AcDbScale
 70
     0
300
1:1
140
1.0
141
1.0
290
     1
  0
SCALE
  5
49
102
{ACAD_REACTORS
330
47
102
}
330
47
100
AcDbScale
 70
     0
300
1:2
140
1.0
141
2.0
290
     0
  0
SCALE
  5
4A
102
{ACAD_REACTORS
330
47
102
}
330
47
100
AcDbScale
 70
     0
300
1:4
140
1.0
141
4.0
290
     0
  0
SCALE
  5
4B
102
{ACAD_REACTORS
330
47
102
}
330
47
100
AcDbScale
 70
     0
300
1:5
140
1.0
141
5.0
290
     0
  0
SCALE
  5
4C
102
{ACAD_REACTORS
330
47
102
}
330
47
100
AcDbScale
 70
     0
300
1:8
140
1.0
141
8.0
290
     0
  0
SCALE
  5
4D
102
{ACAD_REACTORS
330
47
102
}
330
47
100
AcDbScale
 70
     0
300
1:10
140
1.0
141
10.0
290
     0
  0
SCALE
  5
4E
102
{ACAD_REACTORS
330
47
102
}
330
47
100
AcDbScale
 70
     0
300
1:16
140
1.0
141
16.0
290
     0
  0
SCALE
  5
4F
102
{ACAD_REACTORS
330
47
102
}
330
47
100
AcDbScale
 70
     0
300
1:20
140
1.0
141
20.0
290
     0
  0
SCALE
  5
50
102
{ACAD_REACTORS
330
47
102
}
330
47
100
AcDbScale
 70
     0
300
1:30
140
1.0
141
30.0
290
     0
  0
SCALE
  5
51
102
{ACAD_REACTORS
330
47
102
}
330
47
100
AcDbScale
 70
     0
300
1:40
140
1.0
141
40.0
290
     0
  0
SCALE
  5
52
102
{ACAD_REACTORS
330
47
102
}
330
47
100
AcDbScale
 70
     0
300
1:50
140
1.0
141
50.0
290
     0
  0
SCALE
  5
53
102
{ACAD_REACTORS
330
47
102
}
330
47
100
AcDbScale
 70
     0
300
1:100
140
1.0
141
100.0
290
     0
  0
SCALE
  5
54
102
{ACAD_REACTORS
330
47
102
}
330
47
100
AcDbScale
 70
     0
300
2:1
140
2.0
141
1.0
290
     0
  0
SCALE
  5
55
102
{ACAD_REACTORS
330
47
102
}
330
47
100
AcDbScale
 70
     0
300
4:1
140
4.0
141
1.0
290
     0
  0
SCALE
  5
56
102
{ACAD_REACTORS
330
47
102
}
330
47
100
AcDbScale
 70
     0
300
8:1
140
8.0
141
1.0
290
     0
  0
SCALE
  5
57
102
{ACAD_REACTORS
330
47
102
}
330
47
100
AcDbScale
 70
     0
300
10:1
140
10.0
141
1.0
290
     0
  0
SCALE
  5
58
102
{ACAD_REACTORS
330
47
102
}
330
47
100
AcDbScale
 70
     0
300
100:1
140
100.0
141
1.0
290
     0
  0
SCALE
  5
59
102
{ACAD_REACTORS
330
47
102
}
330
47
100
AcDbScale
 70
     0
300
1/128" = 1'-0"
140
0.0078125
141
12.0
290
     0
  0
SCALE
  5
5A
102
{ACAD_REACTORS
330
47
102
}
330
47
100
AcDbScale
 70
     0
300
1/64" = 1'-0"
140
0.015625
141
12.0
290
     0
  0
SCALE
  5
5B
102
{ACAD_REACTORS
330
47
102
}
330
47
100
AcDbScale
 70
     0
300
1/32" = 1'-0"
140
0.03125
141
12.0
290
     0
  0
SCALE
  5
5C
102
{ACAD_REACTORS
330
47
102
}
330
47
100
AcDbScale
 70
     0
300
1/16" = 1'-0"
140
0.0625
141
12.0
290
     0
  0
SCALE
  5
5D
102
{ACAD_REACTORS
330
47
102
}
330
47
100
AcDbScale
 70
     0
300
3/32" = 1'-0"
140
0.09375
141
12.0
290
     0
  0
SCALE
  5
5E
102
{ACAD_REACTORS
330
47
102
}
330
47
100
AcDbScale
 70
     0
300
1/8" = 1'-0"
140
0.125
141
12.0
290
     0
  0
SCALE
  5
5F
102
{ACAD_REACTORS
330
47
102
}
330
47
100
AcDbScale
 70
     0
300
3/16" = 1'-0"
140
0.1875
141
12.0
290
     0
  0
SCALE
  5
60
102
{ACAD_REACTORS
330
47
102
}
330
47
100
AcDbScale
 70
     0
300
1/4" = 1'-0"
140
0.25
141
12.0
290
     0
  0
SCALE
  5
61
102
{ACAD_REACTORS
330
47
102
}
330
47
100
AcDbScale
 70
     0
300
3/8" = 1'-0"
140
0.375
141
12.0
290
     0
  0
SCALE
  5
62
102
{ACAD_REACTORS
330
47
102
}
330
47
100
AcDbScale
 70
     0
300
1/2" = 1'-0"
140
0.5
141
12.0
290
     0
  0
SCALE
  5
63
102
{ACAD_REACTORS
330
47
102
}
330
47
100
AcDbScale
 70
     0
300
3/4" = 1'-0"
140
0.75
141
12.0
290
     0
  0
SCALE
  5
64
102
{ACAD_REACTORS
330
47
102
}
330
47
100
AcDbScale
 70
     0
300
1" = 1'-0"
140
1.0
141
12.0
290
     0
  0
SCALE
  5
65
102
{ACAD_REACTORS
330
47
102
}
330
47
100
AcDbScale
 70
     0
300
1-1/2" = 1'-0"
140
1.5
141
12.0
290
     0
  0
SCALE
  5
66
102
{ACAD_REACTORS
330
47
102
}
330
47
100
AcDbScale
 70
     0
300
3" = 1'-0"
140
3.0
141
12.0
290
     0
  0
SCALE
  5
67
102
{ACAD_REACTORS
330
47
102
}
330
47
100
AcDbScale
 70
     0
300
6" = 1'-0"
140
6.0
141
12.0
290
     0
  0
SCALE
  5
68
102
{ACAD_REACTORS
330
47
102
}
330
47
100
AcDbScale
 70
     0
300
1'-0" = 1'-0"
140
12.0
141
12.0
290
     0
  0
ENDSEC
  0
EOF
