  0
SECTION
  2
HEADER
  9
$ACADVER
  1
AC1015
  9
$ACADMAINTVER
 70
     6
  9
$DWGCODEPAGE
  3
ANSI_1252
  9
$INSBASE
 10
0.0
 20
0.0
 30
0.0
  9
$EXTMIN
 10
0.0
 20
0.0
 30
0.0
  9
$EXTMAX
 10
279.4
 20
215.9
 30
0.0
  9
$LIMMIN
 10
0.0
 20
0.0
  9
$LIMMAX
 10
279.4
 20
215.9
  9
$ORTHOMODE
 70
     0
  9
$REGENMODE
 70
     1
  9
$FILLMODE
 70
     1
  9
$QTEXTMODE
 70
     0
  9
$MIRRTEXT
 70
     1
  9
$LTSCALE
 40
1.0
  9
$ATTMODE
 70
     1
  9
$TEXTSIZE
 40
3.5
  9
$TRACEWID
 40
1.0
  9
$TEXTSTYLE
  7
Standard
  9
$CLAYER
  8
0
  9
$CELTYPE
  6
ByLayer
  9
$CECOLOR
 62
   256
  9
$CELTSCALE
 40
1.0
  9
$DISPSILH
 70
     0
  9
$DIMSCALE
 40
1.0
  9
$DIMASZ
 40
3.556
  9
$DIMEXO
 40
1.0
  9
$DIMDLI
 40
3.75
  9
$DIMRND
 40
0.0
  9
$DIMDLE
 40
0.0
  9
$DIMEXE
 40
1.0
  9
$DIMTP
 40
0.0
  9
$DIMTM
 40
0.0
  9
$DIMTXT
 40
3.5
  9
$DIMCEN
 40
2.5
  9
$DIMTSZ
 40
0.0
  9
$DIMTOL
 70
     0
  9
$DIMLIM
 70
     0
  9
$DIMTIH
 70
     1
  9
$DIMTOH
 70
     1
  9
$DIMSE1
 70
     0
  9
$DIMSE2
 70
     0
  9
$DIMTAD
 70
     1
  9
$DIMZIN
 70
     1
  9
$DIMBLK
  1

  9
$DIMASO
 70
     1
  9
$DIMSHO
 70
     1
  9
$DIMPOST
  1

  9
$DIMAPOST
  1

  9
$DIMALT
 70
     0
  9
$DIMALTD
 70
     3
  9
$DIMALTF
 40
0.0393700787
  9
$DIMLFAC
 40
10.0
  9
$DIMTOFL
 70
     1
  9
$DIMTVP
 40
0.0
  9
$DIMTIX
 70
     0
  9
$DIMSOXD
 70
     0
  9
$DIMSAH
 70
     0
  9
$DIMBLK1
  1

  9
$DIMBLK2
  1

  9
$DIMSTYLE
  2
ISO-25
  9
$DIMCLRD
 70
     0
  9
$DIMCLRE
 70
     0
  9
$DIMCLRT
 70
     0
  9
$DIMTFAC
 40
1.0
  9
$DIMGAP
 40
1.524
  9
$DIMJUST
 70
     0
  9
$DIMSD1
 70
     0
  9
$DIMSD2
 70
     0
  9
$DIMTOLJ
 70
     0
  9
$DIMTZIN
 70
     1
  9
$DIMALTZ
 70
     0
  9
$DIMALTTZ
 70
     0
  9
$DIMUPT
 70
     0
  9
$DIMDEC
 70
     2
  9
$DIMTDEC
 70
     2
  9
$DIMALTU
 70
     2
  9
$DIMALTTD
 70
     3
  9
$DIMTXSTY
  7
Standard
  9
$DIMAUNIT
 70
     0
  9
$DIMADEC
 70
     2
  9
$DIMALTRND
 40
0.0
  9
$DIMAZIN
 70
     0
  9
$DIMDSEP
 70
    44
  9
$DIMATFIT
 70
     3
  9
$DIMFRAC
 70
     0
  9
$DIMLDRBLK
  1

  9
$DIMLUNIT
 70
     2
  9
$DIMLWD
 70
    -2
  9
$DIMLWE
 70
    -2
  9
$DIMTMOVE
 70
     0
  9
$LUNITS
 70
     2
  9
$LUPREC
 70
     2
  9
$SKETCHINC
 40
1.0
  9
$FILLETRAD
 40
10.0
  9
$AUNITS
 70
     0
  9
$AUPREC
 70
     2
  9
$MENU
  1
.
  9
$ELEVATION
 40
0.0
  9
$PELEVATION
 40
0.0
  9
$THICKNESS
 40
0.0
  9
$LIMCHECK
 70
     0
  9
$CHAMFERA
 40
0.0
  9
$CHAMFERB
 40
0.0
  9
$CHAMFERC
 40
0.0
  9
$CHAMFERD
 40
0.0
  9
$SKPOLY
 70
     0
  9
$TDCREATE
 40
2460383.721060498
  9
$TDUCREATE
 40
2460383.491893831
  9
$TDUPDATE
 40
2460383.721060972
  9
$TDUUPDATE
 40
2460383.491894306
  9
$TDINDWG
 40
0.0000000116
  9
$TDUSRTIMER
 40
0.0000000116
  9
$USRTIMER
 70
     1
  9
$ANGBASE
 50
0.0
  9
$ANGDIR
 70
     0
  9
$PDMODE
 70
     0
  9
$PDSIZE
 40
-1.0
  9
$PLINEWID
 40
0.0
  9
$SPLFRAME
 70
     0
  9
$SPLINETYPE
 70
     6
  9
$SPLINESEGS
 70
     8
  9
$HANDSEED
  5
375
  9
$SURFTAB1
 70
     6
  9
$SURFTAB2
 70
     6
  9
$SURFTYPE
 70
     6
  9
$SURFU
 70
     6
  9
$SURFV
 70
     6
  9
$UCSBASE
  2

  9
$UCSNAME
  2

  9
$UCSORG
 10
0.0
 20
0.0
 30
0.0
  9
$UCSXDIR
 10
1.0
 20
0.0
 30
0.0
  9
$UCSYDIR
 10
0.0
 20
1.0
 30
0.0
  9
$UCSORTHOREF
  2

  9
$UCSORTHOVIEW
 70
     0
  9
$UCSORGTOP
 10
0.0
 20
0.0
 30
0.0
  9
$UCSORGBOTTOM
 10
0.0
 20
0.0
 30
0.0
  9
$UCSORGLEFT
 10
0.0
 20
0.0
 30
0.0
  9
$UCSORGRIGHT
 10
0.0
 20
0.0
 30
0.0
  9
$UCSORGFRONT
 10
0.0
 20
0.0
 30
0.0
  9
$UCSORGBACK
 10
0.0
 20
0.0
 30
0.0
  9
$PUCSBASE
  2

  9
$PUCSNAME
  2

  9
$PUCSORG
 10
0.0
 20
0.0
 30
0.0
  9
$PUCSXDIR
 10
1.0
 20
0.0
 30
0.0
  9
$PUCSYDIR
 10
0.0
 20
1.0
 30
0.0
  9
$PUCSORTHOREF
  2

  9
$PUCSORTHOVIEW
 70
     0
  9
$PUCSORGTOP
 10
0.0
 20
0.0
 30
0.0
  9
$PUCSORGBOTTOM
 10
0.0
 20
0.0
 30
0.0
  9
$PUCSORGLEFT
 10
0.0
 20
0.0
 30
0.0
  9
$PUCSORGRIGHT
 10
0.0
 20
0.0
 30
0.0
  9
$PUCSORGFRONT
 10
0.0
 20
0.0
 30
0.0
  9
$PUCSORGBACK
 10
0.0
 20
0.0
 30
0.0
  9
$USERI1
 70
     0
  9
$USERI2
 70
     0
  9
$USERI3
 70
     0
  9
$USERI4
 70
     0
  9
$USERI5
 70
     0
  9
$USERR1
 40
0.0
  9
$USERR2
 40
0.0
  9
$USERR3
 40
0.0
  9
$USERR4
 40
0.0
  9
$USERR5
 40
0.0
  9
$WORLDVIEW
 70
     1
  9
$SHADEDGE
 70
     3
  9
$SHADEDIF
 70
    70
  9
$TILEMODE
 70
     1
  9
$MAXACTVP
 70
    64
  9
$PINSBASE
 10
0.0
 20
0.0
 30
0.0
  9
$PLIMCHECK
 70
     0
  9
$PEXTMIN
 10
1.0000000000E+20
 20
1.0000000000E+20
 30
1.0000000000E+20
  9
$PEXTMAX
 10
-1.0000000000E+20
 20
-1.0000000000E+20
 30
-1.0000000000E+20
  9
$PLIMMIN
 10
0.0
 20
0.0
  9
$PLIMMAX
 10
420.0
 20
297.0
  9
$UNITMODE
 70
     0
  9
$VISRETAIN
 70
     1
  9
$PLINEGEN
 70
     0
  9
$PSLTSCALE
 70
     1
  9
$TREEDEPTH
 70
  3020
  9
$CMLSTYLE
  2
Standard
  9
$CMLJUST
 70
     0
  9
$CMLSCALE
 40
20.0
  9
$PROXYGRAPHICS
 70
     1
  9
$MEASUREMENT
 70
     1
  9
$CELWEIGHT
370
    -1
  9
$ENDCAPS
280
     0
  9
$JOINSTYLE
280
     0
  9
$LWDISPLAY
290
     1
  9
$INSUNITS
 70
     4
  9
$HYPERLINKBASE
  1

  9
$STYLESHEET
  1

  9
$XEDIT
290
     1
  9
$CEPSNTYPE
380
     0
  9
$PSTYLEMODE
290
     1
  9
$FINGERPRINTGUID
  2
{01d59f00-fa32-4262-8659-0970430679a2}
  9
$VERSIONGUID
  2
{FAEB1C32-E019-11D5-929B-00C0DF256EC4}
  9
$EXTNAMES
290
     1
  9
$PSVPSCALE
 40
0.0
  9
$OLESTARTUP
290
     0
  0
ENDSEC
  0
SECTION
  2
CLASSES
  0
CLASS
  1
ACDBDICTIONARYWDFLT
  2
AcDbDictionaryWithDefault
  3
ObjectDBX Classes
 90
        0
280
     0
281
     0
  0
CLASS
  1
VISUALSTYLE
  2
AcDbVisualStyle
  3
ObjectDBX Classes
 90
     4095
280
     0
281
     0
  0
CLASS
  1
MATERIAL
  2
AcDbMaterial
  3
ObjectDBX Classes
 90
     1153
280
     0
281
     0
  0
CLASS
  1
SCALE
  2
AcDbScale
  3
ObjectDBX Classes
 90
     1153
280
     0
281
     0
  0
CLASS
  1
TABLESTYLE
  2
AcDbTableStyle
  3
ObjectDBX Classes
 90
     4095
280
     0
281
     0
  0
CLASS
  1
MLEADERSTYLE
  2
AcDbMLeaderStyle
  3
ACDB_MLEADERSTYLE_CLASS
 90
     4095
280
     0
281
     0
  0
CLASS
  1
SUN
  2
AcDbSun
  3
SCENEOE
 90
     1153
280
     0
281
     0
  0
CLASS
  1
ACDBPLACEHOLDER
  2
AcDbPlaceHolder
  3
ObjectDBX Classes
 90
        0
280
     0
281
     0
  0
CLASS
  1
LAYOUT
  2
AcDbLayout
  3
ObjectDBX Classes
 90
        0
280
     0
281
     0
  0
ENDSEC
  0
SECTION
  2
TABLES
  0
TABLE
  2
VPORT
  5
8
330
0
100
AcDbSymbolTable
 70
     1
  0
VPORT
  5
29
330
8
100
AcDbSymbolTableRecord
100
AcDbViewportTableRecord
  2
*Active
 70
     0
 10
0.0
 20
0.0
 11
1.0
 21
1.0
 12
139.7
 22
107.95
 13
0.0
 23
0.0
 14
10.0
 24
10.0
 15
10.0
 25
10.0
 16
0.0
 26
0.0
 36
1.0
 17
0.0
 27
0.0
 37
0.0
 40
215.9
 41
1.2941176471
 42
50.0
 43
0.0
 44
0.0
 50
0.0
 51
0.0
 71
     0
 72
  2000
 73
     1
 74
     3
 75
     0
 76
     0
 77
     0
 78
     0
281
     0
 65
     1
110
0.0
120
0.0
130
0.0
111
1.0
121
0.0
131
0.0
112
0.0
122
1.0
132
0.0
 79
     0
146
0.0
  0
ENDTAB
  0
TABLE
  2
LTYPE
  5
5
330
0
100
AcDbSymbolTable
 70
     6
  0
LTYPE
  5
14
330
5
100
AcDbSymbolTableRecord
100
AcDbLinetypeTableRecord
  2
ByBlock
 70
     0
  3

 72
    65
 73
     0
 40
0.0
  0
LTYPE
  5
15
330
5
100
AcDbSymbolTableRecord
100
AcDbLinetypeTableRecord
  2
ByLayer
 70
     0
  3

 72
    65
 73
     0
 40
0.0
  0
LTYPE
  5
16
330
5
100
AcDbSymbolTableRecord
100
AcDbLinetypeTableRecord
  2
Continuous
 70
     0
  3
Solid line
 72
    65
 73
     0
 40
0.0
  0
LTYPE
  5
6E
330
5
100
AcDbSymbolTableRecord
100
AcDbLinetypeTableRecord
  2
HIDDEN
 70
     0
  3
Hidden __ __ __ __ __ __ __ __ __ __ __ __ __ __
 72
    65
 73
     2
 40
1.905
 49
1.27
 74
     0
 49
-0.635
 74
     0
  0
LTYPE
  5
6F
330
5
100
AcDbSymbolTableRecord
100
AcDbLinetypeTableRecord
  2
PHANTOM
 70
     0
  3
Phantom ______  __  __  ______  __  __  ______
 72
    65
 73
     6
 40
12.7
 49
6.35
 74
     0
 49
-1.27
 74
     0
 49
1.27
 74
     0
 49
-1.27
 74
     0
 49
1.27
 74
     0
 49
-1.27
 74
     0
  0
LTYPE
  5
70
330
5
100
AcDbSymbolTableRecord
100
AcDbLinetypeTableRecord
  2
CENTER
 70
     0
  3
Center ____ _ ____ _ ____ _ ____ _ ____ _ ____
 72
    65
 73
     4
 40
10.16
 49
6.35
 74
     0
 49
-1.27
 74
     0
 49
1.27
 74
     0
 49
-1.27
 74
     0
  0
LTYPE
  5
71
330
5
100
AcDbSymbolTableRecord
100
AcDbLinetypeTableRecord
  2
CENTERX2
 70
     0
  3
Center (2x) ________  __  ________  __  _____
 72
    65
 73
     4
 40
20.32
 49
12.7
 74
     0
 49
-2.54
 74
     0
 49
2.54
 74
     0
 49
-2.54
 74
     0
  0
LTYPE
  5
72
330
5
100
AcDbSymbolTableRecord
100
AcDbLinetypeTableRecord
  2
DOT2
 70
     0
  3
Dot (.5x) ........................................
 72
    65
 73
     2
 40
0.635
 49
0.0
 74
     0
 49
-0.635
 74
     0
  0
ENDTAB
  0
TABLE
  2
LAYER
  5
2
330
0
100
AcDbSymbolTable
 70
     1
  0
LAYER
  5
10
330
2
100
AcDbSymbolTableRecord
100
AcDbLayerTableRecord
  2
0
 70
     0
 62
     7
  6
Continuous
370
    -3
390
F
  0
ENDTAB
  0
TABLE
  2
STYLE
  5
3
330
0
100
AcDbSymbolTable
 70
     1
  0
STYLE
  5
11
330
3
100
AcDbSymbolTableRecord
100
AcDbTextStyleTableRecord
  2
Standard
 70
     0
 40
0.0
 41
1.0
 50
0.0
 71
     0
 42
3.5
  3
txt
  4

  0
ENDTAB
  0
TABLE
  2
VIEW
  5
6
330
0
100
AcDbSymbolTable
 70
     0
  0
ENDTAB
  0
TABLE
  2
UCS
  5
7
330
0
100
AcDbSymbolTable
 70
     0
  0
ENDTAB
  0
TABLE
  2
APPID
  5
9
330
0
100
AcDbSymbolTable
 70
     1
  0
APPID
  5
12
330
9
100
AcDbSymbolTableRecord
100
AcDbRegAppTableRecord
  2
ACAD
 70
     0
  0
ENDTAB
  0
TABLE
  2
DIMSTYLE
  5
A
330
0
100
AcDbSymbolTable
 70
     1
100
AcDbDimStyleTable
  0
DIMSTYLE
105
27
330
A
100
AcDbSymbolTableRecord
100
AcDbDimStyleTableRecord
  2
ISO-25
 70
     0
 41
2.5
 42
0.625
 43
3.75
 44
1.25
 73
     0
 74
     0
 77
     1
 78
     8
140
2.5
141
2.5
143
0.0393700787
147
0.625
171
     3
172
     1
178
     0
271
     2
272
     2
274
     3
278
    44
283
     0
284
     8
340
11
  0
ENDTAB
  0
TABLE
  2
BLOCK_RECORD
  5
1
330
0
100
AcDbSymbolTable
 70
     1
  0
BLOCK_RECORD
  5
1F
330
1
100
AcDbSymbolTableRecord
100
AcDbBlockTableRecord
  2
*Model_Space
340
22
  0
BLOCK_RECORD
  5
1B
330
1
100
AcDbSymbolTableRecord
100
AcDbBlockTableRecord
  2
*Paper_Space
340
1E
  0
BLOCK_RECORD
  5
23
330
1
100
AcDbSymbolTableRecord
100
AcDbBlockTableRecord
  2
*Paper_Space0
340
26
  0
ENDTAB
  0
ENDSEC
  0
SECTION
  2
BLOCKS
  0
BLOCK
  5
20
330
1F
100
AcDbEntity
  8
0
100
AcDbBlockBegin
  2
*Model_Space
 70
     0
 10
0.0
 20
0.0
 30
0.0
  3
*Model_Space
  1

  0
ENDBLK
  5
21
330
1F
100
AcDbEntity
  8
0
100
AcDbBlockEnd
  0
BLOCK
  5
1C
330
1B
100
AcDbEntity
 67
     1
  8
0
100
AcDbBlockBegin
  2
*Paper_Space
 70
     0
 10
0.0
 20
0.0
 30
0.0
  3
*Paper_Space
  1

  0
ENDBLK
  5
1D
330
1B
100
AcDbEntity
 67
     1
  8
0
100
AcDbBlockEnd
  0
BLOCK
  5
24
330
23
100
AcDbEntity
  8
0
100
AcDbBlockBegin
  2
*Paper_Space0
 70
     0
 10
0.0
 20
0.0
 30
0.0
  3
*Paper_Space0
  1

  0
ENDBLK
  5
25
330
23
100
AcDbEntity
  8
0
100
AcDbBlockEnd
  0
ENDSEC
  0
SECTION
  2
ENTITIES
  0
LINE
  5
73
330
1F
100
AcDbEntity
  8
0
  6
Continuous
 62
     7
370
    25
100
AcDbLine
 10
73.3139512995
 20
-59.3237713839
 30
0.0
 11
73.3139512995
 21
-91.2237713839
 31
0.0
  0
LINE
  5
74
330
1F
100
AcDbEntity
  8
0
  6
Continuous
 62
     7
370
    25
100
AcDbLine
 10
89.1139512995
 20
-91.2237713839
 30
0.0
 11
89.1139512995
 21
-59.3237713839
 31
0.0
  0
LINE
  5
75
330
1F
100
AcDbEntity
  8
0
  6
Continuous
 62
     7
370
    25
100
AcDbLine
 10
89.1139512995
 20
-59.3237713839
 30
0.0
 11
89.1139512995
 21
29.2762286161
 31
0.0
  0
LINE
  5
76
330
1F
100
AcDbEntity
  8
0
  6
Continuous
 62
     7
370
    25
100
AcDbLine
 10
73.3139512995
 20
29.2762286161
 30
0.0
 11
73.3139512995
 21
-59.3237713839
 31
0.0
  0
LINE
  5
77
330
1F
100
AcDbEntity
  8
0
  6
Continuous
 62
     7
370
    25
100
AcDbLine
 10
73.3139512995
 20
61.1762286161
 30
0.0
 11
73.3139512995
 21
29.2762286161
 31
0.0
  0
LINE
  5
78
330
1F
100
AcDbEntity
  8
0
  6
Continuous
 62
     7
370
    25
100
AcDbLine
 10
89.1139512995
 20
29.2762286161
 30
0.0
 11
89.1139512995
 21
61.1762286161
 31
0.0
  0
LINE
  5
79
330
1F
100
AcDbEntity
  8
0
  6
Continuous
 62
     7
370
    25
100
AcDbLine
 10
73.3139512995
 20
73.6747557895
 30
0.0
 11
73.3139512995
 21
73.4984508384
 31
0.0
  0
LINE
  5
7A
330
1F
100
AcDbEntity
  8
0
  6
Continuous
 62
     7
370
    25
100
AcDbLine
 10
73.3139512995
 20
75.0858669006
 30
0.0
 11
73.3139512995
 21
74.9095619495
 31
0.0
  0
LINE
  5
7B
330
1F
100
AcDbEntity
  8
0
  6
Continuous
 62
     7
370
    25
100
AcDbLine
 10
73.3139512995
 20
264.1415063896
 30
0.0
 11
73.3139512995
 21
76.3206730606
 31
0.0
  0
LINE
  5
7C
330
1F
100
AcDbEntity
  8
0
  6
Continuous
 62
     7
370
    25
100
AcDbLine
 10
89.1139512995
 20
75.6153093483
 30
0.0
 11
89.1139512995
 21
264.1415063896
 31
0.0
  0
LINE
  5
7D
330
1F
100
AcDbEntity
  8
0
  6
Continuous
 62
     7
370
    25
100
AcDbLine
 10
89.1139512995
 20
74.2041982371
 30
0.0
 11
89.1139512995
 21
74.3802091958
 31
0.0
  0
SPLINE
  5
7E
330
1F
100
AcDbEntity
  8
0
  6
Continuous
 62
     7
370
    25
100
AcDbSpline
210
0.0
220
0.0
230
1.0
 70
     8
 71
     3
 72
     9
 73
     5
 74
     0
 42
0.00000001
 43
0.00000001
 40
0.0
 40
0.0
 40
0.0
 40
0.0
 40
0.9063874715195723
 40
1.0
 40
1.0
 40
1.0
 40
1.0
 10
73.97359444512284
 20
74.81702273821524
 30
0.0
 10
74.0905133576438
 20
74.7434979157919
 30
0.0
 10
74.21950776256969
 20
74.66237938234613
 30
0.0
 10
74.34970137845657
 20
74.58120655707651
 30
0.0
 10
74.36188913203176
 20
74.57360776365907
 30
0.0
  0
SPLINE
  5
7F
330
1F
100
AcDbEntity
  8
0
  6
Continuous
 62
     7
370
    25
100
AcDbSpline
210
0.0
220
0.0
230
1.0
 70
     8
 71
     3
 72
     9
 73
     5
 74
     0
 42
0.00000001
 43
0.00000001
 40
0.0
 40
0.0
 40
0.0
 40
0.0
 40
0.4998223175949667
 40
1.0
 40
1.0
 40
1.0
 40
1.0
 10
73.97359444512284
 20
76.22813384932637
 30
0.0
 10
74.09033753289751
 20
76.15462320878011
 30
0.0
 10
74.32390671071335
 20
76.00754966292472
 30
0.0
 10
74.5608866070493
 20
75.86032965091857
 30
0.0
 10
74.6794186623752
 20
75.78669348650962
 30
0.0
  0
LINE
  5
80
330
1F
100
AcDbEntity
  8
0
  6
Continuous
 62
     7
370
    25
100
AcDbLine
 10
88.7372461653
 20
73.9812069568
 30
0.0
 11
89.1041853536
 21
74.1933135771
 31
0.0
  0
SPLINE
  5
81
330
1F
100
AcDbEntity
  8
0
  6
Continuous
 62
     7
370
    25
100
AcDbSpline
210
0.0
220
0.0
230
1.0
 70
     8
 71
     3
 72
     9
 73
     5
 74
     0
 42
0.00000001
 43
0.00000001
 40
0.0
 40
0.0
 40
0.0
 40
0.0
 40
0.5002979672026454
 40
1.0
 40
1.0
 40
1.0
 40
1.0
 10
88.33935497431888
 20
75.16229655925855
 30
0.0
 10
88.46690061560584
 20
75.23603227337874
 30
0.0
 10
88.72183997104656
 20
75.3834158706628
 30
0.0
 10
88.97678753677197
 20
75.53078435634683
 30
0.0
 10
89.10418535362169
 20
75.60442468821338
 30
0.0
  0
SPLINE
  5
82
330
1F
100
AcDbEntity
  8
0
  6
Continuous
 62
     7
370
    25
100
AcDbSpline
210
0.0
220
0.0
230
1.0
 70
     8
 71
     3
 72
     9
 73
     5
 74
     0
 42
0.00000001
 43
0.00000001
 40
0.0
 40
0.0
 40
0.0
 40
0.0
 40
0.499609354435869
 40
0.9999999999999999
 40
0.9999999999999999
 40
0.9999999999999999
 40
0.9999999999999999
 10
74.08874313139798
 20
74.12776846714758
 30
0.0
 10
73.96109087359129
 20
74.0539730503764
 30
0.0
 10
73.70558673486107
 20
73.90626681526302
 30
0.0
 10
73.45032625813755
 20
73.75872367226677
 30
0.0
 10
73.32259630340285
 20
73.68489446369433
 30
0.0
  0
SPLINE
  5
83
330
1F
100
AcDbEntity
  8
0
  6
Continuous
 62
     7
370
    25
100
AcDbSpline
210
0.0
220
0.0
230
1.0
 70
     8
 71
     3
 72
     9
 73
     5
 74
     0
 42
0.00000001
 43
0.00000001
 40
0.0
 40
0.0
 40
0.0
 40
0.0
 40
0.499447853159424
 40
1.0
 40
1.0
 40
1.0
 40
1.0
 10
74.08874313139798
 20
75.5388795782587
 30
0.0
 10
73.9611116764729
 20
75.46509540260344
 30
0.0
 10
73.70556656977614
 20
75.31736391234165
 30
0.0
 10
73.45034700464498
 20
75.16984598835464
 30
0.0
 10
73.32259630340285
 20
75.09600557480545
 30
0.0
  0
SPLINE
  5
84
330
1F
100
AcDbEntity
  8
0
  6
Continuous
 62
     7
370
    25
100
AcDbSpline
210
0.0
220
0.0
230
1.0
 70
     8
 71
     3
 72
     9
 73
     5
 74
     0
 42
0.00000001
 43
0.00000001
 40
0.0
 40
0.0
 40
0.0
 40
0.0
 40
0.5030280328440033
 40
0.9999999999999999
 40
0.9999999999999999
 40
0.9999999999999999
 40
0.9999999999999999
 10
89.10530563000805
 20
74.39045040985687
 30
0.0
 10
88.97856096578322
 20
74.46369513831146
 30
0.0
 10
88.72659754436462
 20
74.60930278574315
 30
0.0
 10
88.47513484940755
 20
74.75440000435968
 30
0.0
 10
88.35016493922839
 20
74.82650925452447
 30
0.0
  0
LINE
  5
85
330
1F
100
AcDbEntity
  8
0
  6
Continuous
 62
     7
370
    25
100
AcDbLine
 10
89.1139512995
 20
264.1415063896
 30
0.0
 11
89.1139512995
 21
296.0415063896
 31
0.0
  0
LINE
  5
86
330
1F
100
AcDbEntity
  8
0
  6
Continuous
 62
     7
370
    25
100
AcDbLine
 10
73.3139512995
 20
296.0415063896
 30
0.0
 11
73.3139512995
 21
264.1415063896
 31
0.0
  0
SPLINE
  5
87
330
1F
100
AcDbEntity
  8
0
  6
Continuous
 62
     7
370
    25
100
AcDbSpline
210
0.0
220
0.0
230
1.0
 70
     8
 71
     3
 72
     9
 73
     5
 74
     0
 42
0.00000001
 43
0.00000001
 40
0.0
 40
0.0
 40
0.0
 40
0.0
 40
0.5076989760041425
 40
1.0
 40
1.0
 40
1.0
 40
1.0
 10
74.07773763063562
 20
75.87968012385122
 30
0.0
 10
74.07773812869728
 20
75.82092879170938
 30
0.0
 10
74.07773910971488
 20
75.70520799076502
 30
0.0
 10
74.07773813970492
 20
75.58948701572737
 30
0.0
 10
74.07773766216803
 20
75.53251746121853
 30
0.0
  0
SPLINE
  5
88
330
1F
100
AcDbEntity
  8
0
  6
Continuous
 62
     7
370
    25
100
AcDbSpline
210
0.0
220
0.0
230
1.0
 70
     8
 71
     3
 72
     9
 73
     5
 74
     0
 42
0.00000001
 43
0.00000001
 40
0.0
 40
0.0
 40
0.0
 40
0.0
 40
0.5082925981315147
 40
0.9999999999999999
 40
0.9999999999999999
 40
0.9999999999999999
 40
0.9999999999999999
 10
88.35016496816704
 20
73.41023559515486
 30
0.0
 10
88.35016479635591
 20
73.46906186022167
 30
0.0
 10
88.35016445833972
 20
73.5847949346026
 30
0.0
 10
88.35016479286625
 20
73.70052795738118
 30
0.0
 10
88.35016495735543
 20
73.75743474132199
 30
0.0
  0
SPLINE
  5
89
330
1F
100
AcDbEntity
  8
0
  6
Continuous
 62
     7
370
    25
100
AcDbSpline
210
0.0
220
0.0
230
1.0
 70
     8
 71
     3
 72
     9
 73
     5
 74
     0
 42
0.00000001
 43
0.00000001
 40
0.0
 40
0.0
 40
0.0
 40
0.0
 40
0.5084219880787614
 40
1.0
 40
1.0
 40
1.0
 40
1.0
 10
88.35016496816704
 20
74.82134670626597
 30
0.0
 10
88.35016447050936
 20
74.88018796675338
 30
0.0
 10
88.35016349168137
 20
74.99592108189617
 30
0.0
 10
88.35016446056565
 20
75.11165402292741
 30
0.0
 10
88.35016493684786
 20
75.16854579199334
 30
0.0
  0
ARC
  5
8A
330
1F
100
AcDbEntity
  8
0
  6
Continuous
 62
     7
370
    25
100
AcDbCircle
 10
154.4525579717
 20
296.0415063896
 30
0.0
 40
10.63000000000001
100
AcDbArc
 50
6.8045131671
 51
21.8505108422
  0
ARC
  5
8B
330
1F
100
AcDbEntity
  8
0
  6
Continuous
 62
     7
370
    25
100
AcDbCircle
 10
154.4525579717
 20
296.0415063896
 30
0.0
 40
10.63000000000003
100
AcDbArc
 50
338.1494891578
 51
353.2222631339
  0
LINE
  5
8C
330
1F
100
AcDbEntity
  8
0
  6
Continuous
 62
     7
370
    25
100
AcDbLine
 10
165.015415531
 20
294.9321264731
 30
0.0
 11
164.7549988026
 21
294.9321264731
 31
0.0
  0
LINE
  5
8D
330
1F
100
AcDbEntity
  8
0
  6
Continuous
 62
     7
370
    25
100
AcDbLine
 10
164.9318424661
 20
297.1508863062
 30
0.0
 11
165.015415531
 21
297.1508863062
 31
0.0
  0
LINE
  5
8E
330
1F
100
AcDbEntity
  8
0
  6
Continuous
 62
     7
370
    25
100
AcDbLine
 10
162.4188783141
 20
288.8915063896
 30
0.0
 11
164.0238833036
 21
290.1163786185
 31
0.0
  0
LINE
  5
8F
330
1F
100
AcDbEntity
  8
0
  6
Continuous
 62
     7
370
    25
100
AcDbLine
 10
164.0238833036
 20
301.9666341608
 30
0.0
 11
162.4188783141
 21
303.1915063896
 31
0.0
  0
ARC
  5
90
330
1F
100
AcDbEntity
  8
0
  6
Continuous
 62
     7
370
    25
100
AcDbCircle
 10
163.5688783141
 20
290.712592053
 30
0.0
 40
0.7499999999999841
100
AcDbArc
 50
307.3493490446
 51
0.0
  0
ARC
  5
91
330
1F
100
AcDbEntity
  8
0
  6
Continuous
 62
     7
370
    25
100
AcDbCircle
 10
163.5688783141
 20
301.3704207262
 30
0.0
 40
0.7500000000000294
100
AcDbArc
 50
0.0
 51
52.6506509554
  0
LINE
  5
92
330
1F
100
AcDbEntity
  8
0
  6
Continuous
 62
     7
370
    25
100
AcDbLine
 10
162.4188783141
 20
300.5415063896
 30
0.0
 11
162.4139512995
 21
300.5377598057
 31
0.0
  0
LINE
  5
93
330
1F
100
AcDbEntity
  8
0
  6
Continuous
 62
     7
370
    25
100
AcDbLine
 10
162.4139512995
 20
291.5452529736
 30
0.0
 11
162.4188783141
 21
291.5415063896
 31
0.0
  0
LINE
  5
94
330
1F
100
AcDbEntity
  8
0
  6
Continuous
 62
     7
370
    25
100
AcDbLine
 10
157.5519952567
 20
287.0658483454
 30
0.0
 11
161.9226775028
 21
287.1421388878
 31
0.0
  0
LINE
  5
95
330
1F
100
AcDbEntity
  8
0
  6
Continuous
 62
     7
370
    25
100
AcDbLine
 10
161.9226775028
 20
304.9408738915
 30
0.0
 11
156.6185750428
 21
305.0334573443
 31
0.0
  0
ARC
  5
96
330
1F
100
AcDbEntity
  8
0
  6
Continuous
 62
     7
370
    25
100
AcDbCircle
 10
161.9139512995
 20
287.6420627354
 30
0.0
 40
0.5000000000000616
100
AcDbArc
 50
271.0
 51
0.0
  0
ARC
  5
97
330
1F
100
AcDbEntity
  8
0
  6
Continuous
 62
     7
370
    25
100
AcDbCircle
 10
161.9139512995
 20
304.4409500439
 30
0.0
 40
0.5000000000000616
100
AcDbArc
 50
0.0
 51
89.0
  0
SPLINE
  5
98
330
1F
100
AcDbEntity
  8
0
  6
Continuous
 62
     7
370
    25
100
AcDbSpline
210
0.0
220
0.0
230
1.0
 70
     8
 71
     3
 72
    12
 73
     8
 74
     0
 42
0.00000001
 43
0.00000001
 40
0.0
 40
0.0
 40
0.0
 40
0.0
 40
0.1327422392511773
 40
0.3349184880450778
 40
0.5798348459827192
 40
0.873737009692967
 40
1.0
 40
1.0
 40
1.0
 40
1.0
 10
153.942776189181
 20
285.1810058586788
 30
0.0
 10
153.9454461326547
 20
285.1852824539844
 30
0.0
 10
153.9521825975242
 20
285.1960726202634
 30
0.0
 10
154.1707676582446
 20
285.4278404521947
 30
0.0
 10
154.6200557240288
 20
285.7880685144932
 30
0.0
 10
155.16512606519
 20
286.17150377444
 30
0.0
 10
155.6002583489474
 20
286.4375077886528
 30
0.0
 10
155.7310190814856
 20
286.5174441230848
 30
0.0
  0
ARC
  5
99
330
1F
100
AcDbEntity
  8
0
  6
Continuous
 62
     7
370
    25
100
AcDbCircle
 10
157.6139512995
 20
283.5163890276
 30
0.0
 40
3.550000000000008
100
AcDbArc
 50
91.0
 51
121.7654088545
  0
ARC
  5
9A
330
1F
100
AcDbEntity
  8
0
  6
Continuous
 62
     7
370
    25
100
AcDbCircle
 10
156.6639512995
 20
307.6330613517
 30
0.0
 40
2.600000000000026
100
AcDbArc
 50
242.9558679133
 51
269.0
  0
SPLINE
  5
9B
330
1F
100
AcDbEntity
  8
0
  6
Continuous
 62
     7
370
    25
100
AcDbSpline
210
0.0
220
0.0
230
1.0
 70
     8
 71
     3
 72
    12
 73
     8
 74
     0
 42
0.00000001
 43
0.00000001
 40
0.0
 40
0.0
 40
0.0
 40
0.0
 40
0.1913603396445386
 40
0.5117150225188261
 40
0.7673957697497845
 40
0.9696862091088837
 40
1.0
 40
1.0
 40
1.0
 40
1.0
 10
155.4724449324503
 20
305.3265507835125
 30
0.0
 10
155.2943573569477
 20
305.4191561453096
 30
0.0
 10
154.8181349177633
 20
305.6667913391296
 30
0.0
 10
154.2554860714741
 20
305.9966509001111
 30
0.0
 10
153.8651342691269
 20
306.2477288220527
 30
0.0
 10
153.715530306796
 20
306.3893131919103
 30
0.0
 10
153.7420438109647
 20
306.3581602385972
 30
0.0
 10
153.7454991428832
 20
306.354100277558
 30
0.0
  0
LINE
  5
9C
330
1F
100
AcDbEntity
  8
0
  6
Continuous
 62
     7
370
    25
100
AcDbLine
 10
148.0726775028
 20
283.6709016985
 30
0.0
 11
152.0988561124
 21
283.7411789075
 31
0.0
  0
ARC
  5
9D
330
1F
100
AcDbEntity
  8
0
  6
Continuous
 62
     7
370
    25
100
AcDbCircle
 10
148.0639512995
 20
284.1708255461
 30
0.0
 40
0.5000000000000058
100
AcDbArc
 50
180.0
 51
271.0
  0
LINE
  5
9E
330
1F
100
AcDbEntity
  8
0
  6
Continuous
 62
     7
370
    25
100
AcDbLine
 10
162.4438708424
 20
299.979121618
 30
0.0
 11
162.4139512995
 21
300.0914972983
 31
0.0
  0
ARC
  5
9F
330
1F
100
AcDbEntity
  8
0
  6
Continuous
 62
     7
370
    25
100
AcDbCircle
 10
152.0639512995
 20
305.5372312106
 30
0.0
 40
2.000000000000026
100
AcDbArc
 50
20.1261770501
 51
89.0
  0
ARC
  5
A0
330
1F
100
AcDbEntity
  8
0
  6
Continuous
 62
     7
370
    25
100
AcDbCircle
 10
148.0639512995
 20
307.1072799624
 30
0.0
 40
0.5
100
AcDbArc
 50
89.0
 51
180.0
  0
LINE
  5
A1
330
1F
100
AcDbEntity
  8
0
  6
Continuous
 62
     7
370
    25
100
AcDbLine
 10
152.0988561124
 20
307.5369266009
 30
0.0
 11
148.0726775028
 21
307.60720381
 31
0.0
  0
ARC
  5
A2
330
1F
100
AcDbEntity
  8
0
  6
Continuous
 62
     7
370
    25
100
AcDbCircle
 10
152.0639512995
 20
285.7408742978
 30
0.0
 40
2.000000000000013
100
AcDbArc
 50
271.0
 51
344.7554881719
  0
LINE
  5
A3
330
1F
100
AcDbEntity
  8
0
  6
Continuous
 62
     7
370
    25
100
AcDbLine
 10
147.5639512995
 20
301.6915063896
 30
0.0
 11
139.6139512995
 21
301.6915063896
 31
0.0
  0
LINE
  5
A4
330
1F
100
AcDbEntity
  8
0
  6
Continuous
 62
     7
370
    25
100
AcDbLine
 10
139.6139512995
 20
290.3915063896
 30
0.0
 11
147.5639512995
 21
290.3915063896
 31
0.0
  0
LINE
  5
A5
330
1F
100
AcDbEntity
  8
0
  6
Continuous
 62
     7
370
    25
100
AcDbLine
 10
137.9058069084
 20
286.0406583887
 30
0.0
 11
139.6139512995
 21
287.7915063896
 31
0.0
  0
LINE
  5
A6
330
1F
100
AcDbEntity
  8
0
  6
Continuous
 62
     7
370
    25
100
AcDbLine
 10
139.6139512995
 20
304.2915063896
 30
0.0
 11
137.9058069084
 21
306.0423543906
 31
0.0
  0
LINE
  5
A7
330
1F
100
AcDbEntity
  8
0
  6
Continuous
 62
     7
370
    25
100
AcDbLine
 10
132.1872526311
 20
286.6415063896
 30
0.0
 11
132.540030812
 21
286.6415063896
 31
0.0
  0
SPLINE
  5
A8
330
1F
100
AcDbEntity
  8
0
  6
Continuous
 62
     7
370
    25
100
AcDbSpline
210
0.0
220
0.0
230
1.0
 70
     8
 71
     3
 72
     9
 73
     5
 74
     0
 42
0.00000001
 43
0.00000001
 40
0.0
 40
0.0
 40
0.0
 40
0.0
 40
0.5017901106541904
 40
1.0
 40
1.0
 40
1.0
 40
1.0
 10
132.5487772711697
 20
286.6491658420522
 30
0.0
 10
132.622654611465
 20
286.777043518769
 30
0.0
 10
132.7698821847604
 20
287.0318864780095
 30
0.0
 10
132.9171624956382
 20
287.2866898819744
 30
0.0
 10
132.9905390030234
 20
287.4136354576688
 30
0.0
  0
SPLINE
  5
A9
330
1F
100
AcDbEntity
  8
0
  6
Continuous
 62
     7
370
    25
100
AcDbSpline
210
0.0
220
0.0
230
1.0
 70
     8
 71
     3
 72
     9
 73
     5
 74
     0
 42
0.00000001
 43
0.00000001
 40
0.0
 40
0.0
 40
0.0
 40
0.0
 40
0.4988103511399682
 40
1.0
 40
1.0
 40
1.0
 40
1.0
 10
132.2849848625782
 20
304.6693748829792
 30
0.0
 10
132.2115250277527
 20
304.7964789708146
 30
0.0
 10
132.0642549587622
 20
305.0512934259376
 30
0.0
 10
131.9170171042205
 20
305.3061254983195
 30
0.0
 10
131.8432230156038
 20
305.4338446951949
 30
0.0
  0
LINE
  5
AA
330
1F
100
AcDbEntity
  8
0
  6
Continuous
 62
     7
370
    25
100
AcDbLine
 10
133.1478658394
 20
287.4136098447
 30
0.0
 11
133.2920464144
 21
287.1641137467
 31
0.0
  0
SPLINE
  5
AB
330
1F
100
AcDbEntity
  8
0
  6
Continuous
 62
     7
370
    25
100
AcDbSpline
210
0.0
220
0.0
230
1.0
 70
     8
 71
     3
 72
     9
 73
     5
 74
     0
 42
0.00000001
 43
0.00000001
 40
0.0
 40
0.0
 40
0.0
 40
0.0
 40
0.4989150937459075
 40
1.0
 40
1.0
 40
1.0
 40
1.0
 10
132.8840416253676
 20
305.4338601554931
 30
0.0
 10
132.8105830795481
 20
305.3067258162028
 30
0.0
 10
132.6633465121632
 20
305.0519042225409
 30
0.0
 10
132.5160940381359
 20
304.7970850182244
 30
0.0
 10
132.4423080459922
 20
304.6693989611177
 30
0.0
  0
LINE
  5
AC
330
1F
100
AcDbEntity
  8
0
  6
Continuous
 62
     7
370
    25
100
AcDbLine
 10
133.3139512995
 20
304.9415063896
 30
0.0
 11
132.8698135554
 21
305.3856441338
 31
0.0
  0
SPLINE
  5
AD
330
1F
100
AcDbEntity
  8
0
  6
Continuous
 62
     7
370
    25
100
AcDbSpline
210
0.0
220
0.0
230
1.0
 70
     8
 71
     3
 72
     9
 73
     5
 74
     0
 42
0.00000001
 43
0.00000001
 40
0.0
 40
0.0
 40
0.0
 40
0.0
 40
0.5165667873823608
 40
1.0
 40
1.0
 40
1.0
 40
1.0
 10
132.9806310926869
 20
287.4053006585227
 30
0.0
 10
133.0102919670348
 20
287.4053061649035
 30
0.0
 10
133.0677112109205
 20
287.4053168244757
 30
0.0
 10
133.1249811215136
 20
287.4053062913503
 30
0.0
 10
133.152667298378
 20
287.4053011992876
 30
0.0
  0
SPLINE
  5
AE
330
1F
100
AcDbEntity
  8
0
  6
Continuous
 62
     7
370
    25
100
AcDbSpline
210
0.0
220
0.0
230
1.0
 70
     8
 71
     3
 72
     9
 73
     5
 74
     0
 42
0.00000001
 43
0.00000001
 40
0.0
 40
0.0
 40
0.0
 40
0.0
 40
0.512086911069741
 40
1.0
 40
1.0
 40
1.0
 40
1.0
 10
132.4514636416404
 20
304.6777120782323
 30
0.0
 10
132.4222358191916
 20
304.6777142084659
 30
0.0
 10
132.365159917002
 20
304.6777183683722
 30
0.0
 10
132.3080373278684
 20
304.6777143042447
 30
0.0
 10
132.2801664689565
 20
304.6777123213037
 30
0.0
  0
LINE
  5
AF
330
1F
100
AcDbEntity
  8
0
  6
Continuous
 62
     7
370
    25
100
AcDbLine
 10
133.3139512995
 20
287.9165063896
 30
0.0
 11
134.8139512995
 21
287.9165063896
 31
0.0
  0
LINE
  5
B0
330
1F
100
AcDbEntity
  8
0
  6
Continuous
 62
     7
370
    25
100
AcDbLine
 10
134.8139512995
 20
304.1665063896
 30
0.0
 11
133.3139512995
 21
304.1665063896
 31
0.0
  0
SPLINE
  5
B1
330
1F
100
AcDbEntity
  8
0
  6
Continuous
 62
     7
370
    25
100
AcDbSpline
210
0.0
220
0.0
230
1.0
 70
     8
 71
     3
 72
     9
 73
     5
 74
     0
 42
0.00000001
 43
0.00000001
 40
0.0
 40
0.0
 40
0.0
 40
0.0
 40
0.2985650935669252
 40
1.0
 40
1.0
 40
1.0
 40
1.0
 10
134.7874790155591
 20
287.0181794712244
 30
0.0
 10
134.7901136960925
 20
287.0136200888688
 30
0.0
 10
134.7989381721956
 20
286.998349106246
 30
0.0
 10
134.8077619757314
 20
286.9830777282152
 30
0.0
 10
134.813951299539
 20
286.9723658505951
 30
0.0
  0
LINE
  5
B2
330
1F
100
AcDbEntity
  8
0
  6
Continuous
 62
     7
370
    25
100
AcDbLine
 10
115.836480181
 20
313.1140352711
 30
0.0
 11
114.9639512995
 21
312.2415063896
 31
0.0
  0
LINE
  5
B3
330
1F
100
AcDbEntity
  8
0
  6
Continuous
 62
     7
370
    25
100
AcDbLine
 10
114.9639512995
 20
279.8415063896
 30
0.0
 11
115.836480181
 21
278.9689775081
 31
0.0
  0
LINE
  5
B4
330
1F
100
AcDbEntity
  8
0
  6
Continuous
 62
     7
370
    25
100
AcDbLine
 10
123.5414224181
 20
278.9689775081
 30
0.0
 11
124.4139512995
 21
279.8415063896
 31
0.0
  0
LINE
  5
B5
330
1F
100
AcDbEntity
  8
0
  6
Continuous
 62
     7
370
    25
100
AcDbLine
 10
124.4139512995
 20
312.2415063896
 30
0.0
 11
123.5414224181
 21
313.1140352711
 31
0.0
  0
ARC
  5
B6
330
1F
100
AcDbEntity
  8
0
  6
Continuous
 62
     7
370
    25
100
AcDbCircle
 10
124.4139512995
 20
290.3005180175
 30
0.0
 40
9.134011627907
100
AcDbArc
 50
270.0
 51
328.0464183091
  0
ARC
  5
B7
330
1F
100
AcDbEntity
  8
0
  6
Continuous
 62
     7
370
    25
100
AcDbCircle
 10
124.4139512995
 20
301.7824947617
 30
0.0
 40
9.134011627907
100
AcDbArc
 50
31.9535816909
 51
90.0
  0
LINE
  5
B8
330
1F
100
AcDbEntity
  8
0
  6
Continuous
 62
     7
370
    25
100
AcDbLine
 10
122.9761459147
 20
313.5566035281
 30
0.0
 11
116.3765833931
 21
313.5566035281
 31
0.0
  0
LINE
  5
B9
330
1F
100
AcDbEntity
  8
0
  6
Continuous
 62
     7
370
    25
100
AcDbLine
 10
116.3765833931
 20
278.5264092512
 30
0.0
 11
122.9761459147
 21
278.5264092512
 31
0.0
  0
ARC
  5
BA
330
1F
100
AcDbEntity
  8
0
  6
Continuous
 62
     7
370
    25
100
AcDbCircle
 10
56.4139512995
 20
360.3550281754
 30
0.0
 40
0.50000000000004
100
AcDbArc
 50
180.0
 51
244.1790080258
  0
ARC
  5
BB
330
1F
100
AcDbEntity
  8
0
  6
Continuous
 62
     7
370
    25
100
AcDbCircle
 10
106.0139512995
 20
360.3550281754
 30
0.0
 40
0.50000000000004
100
AcDbArc
 50
295.8209919742
 51
0.0
  0
LINE
  5
BC
330
1F
100
AcDbEntity
  8
0
  6
Continuous
 62
     7
370
    25
100
AcDbLine
 10
106.5139512995
 20
360.3550281754
 30
0.0
 11
106.5139512995
 21
363.5415063896
 31
0.0
  0
LINE
  5
BD
330
1F
100
AcDbEntity
  8
0
  6
Continuous
 62
     7
370
    25
100
AcDbLine
 10
55.9139512995
 20
363.5415063896
 30
0.0
 11
55.9139512995
 21
360.3550281754
 31
0.0
  0
ARC
  5
BE
330
1F
100
AcDbEntity
  8
0
  6
Continuous
 62
     7
370
    25
100
AcDbCircle
 10
56.4139512995
 20
363.5415063896
 30
0.0
 40
0.5
100
AcDbArc
 50
90.0
 51
180.0
  0
ARC
  5
BF
330
1F
100
AcDbEntity
  8
0
  6
Continuous
 62
     7
370
    25
100
AcDbCircle
 10
106.0139512995
 20
363.5415063896
 30
0.0
 40
0.5
100
AcDbArc
 50
0.0
 51
90.0
  0
LINE
  5
C0
330
1F
100
AcDbEntity
  8
0
  6
Continuous
 62
     7
370
    25
100
AcDbLine
 10
56.1961708355
 20
359.9049485496
 30
0.0
 11
64.0850731557
 21
356.0877377495
 31
0.0
  0
LINE
  5
C1
330
1F
100
AcDbEntity
  8
0
  6
Continuous
 62
     7
370
    25
100
AcDbLine
 10
98.3428294433
 20
356.0877377495
 30
0.0
 11
106.2317317636
 21
359.9049485496
 31
0.0
  0
ARC
  5
C2
330
1F
100
AcDbEntity
  8
0
  6
Continuous
 62
     7
370
    25
100
AcDbCircle
 10
99.2139512995
 20
354.2874192467
 30
0.0
 40
1.999999999999995
100
AcDbArc
 50
115.8209919742
 51
171.4096175468
  0
ARC
  5
C3
330
1F
100
AcDbEntity
  8
0
  6
Continuous
 62
     7
370
    25
100
AcDbCircle
 10
63.2139512995
 20
354.2874192467
 30
0.0
 40
2.000000000000004
100
AcDbArc
 50
8.6121549306
 51
64.1790080258
  0
LINE
  5
C4
330
1F
100
AcDbEntity
  8
0
  6
Continuous
 62
     7
370
    25
100
AcDbLine
 10
93.09904957
 20
280.2904637084
 30
0.0
 11
110.2139512995
 21
280.648969793
 31
0.0
  0
LINE
  5
C5
330
1F
100
AcDbEntity
  8
0
  6
Continuous
 62
     7
370
    25
100
AcDbLine
 10
110.2139512995
 20
311.4340429862
 30
0.0
 11
104.5909404916
 21
311.5518282718
 31
0.0
  0
SPLINE
  5
C6
330
1F
100
AcDbEntity
  8
0
  6
Continuous
 62
     7
370
    25
100
AcDbSpline
210
0.0
220
0.0
230
1.0
 70
     8
 71
     3
 72
     9
 73
     5
 74
     0
 42
0.00000001
 43
0.00000001
 40
0.0
 40
0.0
 40
0.0
 40
0.0
 40
0.499996177972525
 40
1.0
 40
1.0
 40
1.0
 40
1.0
 10
111.2388932837056
 20
281.858853964241
 30
0.0
 10
111.3170763449859
 20
281.72348893443
 30
0.0
 10
111.4734436628269
 20
281.4527568053168
 30
0.0
 10
111.6298073203736
 20
281.1820227200436
 30
0.0
 10
111.7079897467732
 20
281.0466546426539
 30
0.0
  0
SPLINE
  5
C7
330
1F
100
AcDbEntity
  8
0
  6
Continuous
 62
     7
370
    25
100
AcDbSpline
210
0.0
220
0.0
230
1.0
 70
     8
 71
     3
 72
     9
 73
     5
 74
     0
 42
0.00000001
 43
0.00000001
 40
0.0
 40
0.0
 40
0.0
 40
0.0
 40
0.4999960105738552
 40
1.0
 40
1.0
 40
1.0
 40
1.0
 10
112.7387325128601
 20
281.8591336448432
 30
0.0
 10
112.8169168581624
 20
281.723766494933
 30
0.0
 10
112.9732867964198
 20
281.4530300349464
 30
0.0
 10
113.1296529141334
 20
281.182291470174
 30
0.0
 10
113.2078365968013
 20
281.0469211076962
 30
0.0
  0
SPLINE
  5
C8
330
1F
100
AcDbEntity
  8
0
  6
Continuous
 62
     7
370
    25
100
AcDbSpline
210
0.0
220
0.0
230
1.0
 70
     8
 71
     3
 72
     9
 73
     5
 74
     0
 42
0.00000001
 43
0.00000001
 40
0.0
 40
0.0
 40
0.0
 40
0.0
 40
0.4999960910112508
 40
0.9999999999999999
 40
0.9999999999999999
 40
0.9999999999999999
 40
0.9999999999999999
 10
114.238815863662
 20
281.8589877816983
 30
0.0
 10
114.3169995946591
 20
281.7236216467703
 30
0.0
 10
114.4733682791402
 20
281.4528872603192
 30
0.0
 10
114.6297332200736
 20
281.1821508583371
 30
0.0
 10
114.7079163017691
 20
281.0467815990405
 30
0.0
  0
LINE
  5
C9
330
1F
100
AcDbEntity
  8
0
  6
Continuous
 62
     7
370
    25
100
AcDbLine
 10
114.9920397661
 20
310.2296065706
 30
0.0
 11
114.9888966987
 21
310.2241646807
 31
0.0
  0
SPLINE
  5
CA
330
1F
100
AcDbEntity
  8
0
  6
Continuous
 62
     7
370
    25
100
AcDbSpline
210
0.0
220
0.0
230
1.0
 70
     8
 71
     3
 72
     9
 73
     5
 74
     0
 42
0.00000001
 43
0.00000001
 40
0.0
 40
0.0
 40
0.0
 40
0.0
 40
0.5035653169057785
 40
1.0
 40
1.0
 40
1.0
 40
1.0
 10
113.9578235038757
 20
311.0360685825393
 30
0.0
 10
113.8796403727865
 20
310.9006991819699
 30
0.0
 10
113.7243812068662
 20
310.6318772515771
 30
0.0
 10
113.5691183184518
 20
310.3630575633371
 30
0.0
 10
113.4920404356455
 20
310.229606146596
 30
0.0
  0
SPLINE
  5
CB
330
1F
100
AcDbEntity
  8
0
  6
Continuous
 62
     7
370
    25
100
AcDbSpline
210
0.0
220
0.0
230
1.0
 70
     8
 71
     3
 72
     9
 73
     5
 74
     0
 42
0.00000001
 43
0.00000001
 40
0.0
 40
0.0
 40
0.0
 40
0.0
 40
0.5000038267495277
 40
1.0
 40
1.0
 40
1.0
 40
1.0
 10
112.4578971836585
 20
311.0361978817775
 30
0.0
 10
112.3797147132148
 20
310.9008296780556
 30
0.0
 10
112.2233509690572
 20
310.6300953426767
 30
0.0
 10
112.0669835601586
 20
310.3593632042841
 30
0.0
 10
111.9888004540883
 20
310.2239981711119
 30
0.0
  0
SPLINE
  5
CC
330
1F
100
AcDbEntity
  8
0
  6
Continuous
 62
     7
370
    25
100
AcDbSpline
210
0.0
220
0.0
230
1.0
 70
     8
 71
     3
 72
     9
 73
     5
 74
     0
 42
0.00000001
 43
0.00000001
 40
0.0
 40
0.0
 40
0.0
 40
0.0
 40
0.4987844281256523
 40
1.0
 40
1.0
 40
1.0
 40
1.0
 10
114.6265077783632
 20
310.2241614624346
 30
0.0
 10
114.5485084004793
 20
310.3591905365696
 30
0.0
 10
114.3921294650402
 20
310.6299068350764
 30
0.0
 10
114.2357793812487
 20
310.9006533254282
 30
0.0
 10
114.1574142845886
 20
311.0363556824228
 30
0.0
  0
SPLINE
  5
CD
330
1F
100
AcDbEntity
  8
0
  6
Continuous
 62
     7
370
    25
100
AcDbSpline
210
0.0
220
0.0
230
1.0
 70
     8
 71
     3
 72
     9
 73
     5
 74
     0
 42
0.00000001
 43
0.00000001
 40
0.0
 40
0.0
 40
0.0
 40
0.0
 40
0.4984739077222043
 40
0.9999999999999999
 40
0.9999999999999999
 40
0.9999999999999999
 40
0.9999999999999999
 10
113.1265077783632
 20
310.2241614624346
 30
0.0
 10
113.0485536710084
 20
310.3591010397021
 30
0.0
 10
112.8921681387927
 20
310.6298064370699
 30
0.0
 10
112.7358246324018
 20
310.9005638001579
 30
0.0
 10
112.6574142845886
 20
311.0363556824228
 30
0.0
  0
SPLINE
  5
CE
330
1F
100
AcDbEntity
  8
0
  6
Continuous
 62
     7
370
    25
100
AcDbSpline
210
0.0
220
0.0
230
1.0
 70
     8
 71
     3
 72
     9
 73
     5
 74
     0
 42
0.00000001
 43
0.00000001
 40
0.0
 40
0.0
 40
0.0
 40
0.0
 40
0.4981617098938687
 40
1.0
 40
1.0
 40
1.0
 40
1.0
 10
111.6265077783632
 20
310.2241614624346
 30
0.0
 10
111.5485988378058
 20
310.3590090744275
 30
0.0
 10
111.3922059657522
 20
310.6296995135253
 30
0.0
 10
111.2358697724947
 20
310.9004717874622
 30
0.0
 10
111.1574142845886
 20
311.0363556824228
 30
0.0
  0
LINE
  5
CF
330
1F
100
AcDbEntity
  8
0
  6
Continuous
 62
     7
370
    25
100
AcDbLine
 10
114.9074151914
 20
281.0466586553
 30
0.0
 11
114.9542846526
 21
281.1278136451
 31
0.0
  0
SPLINE
  5
D0
330
1F
100
AcDbEntity
  8
0
  6
Continuous
 62
     7
370
    25
100
AcDbSpline
210
0.0
220
0.0
230
1.0
 70
     8
 71
     3
 72
     9
 73
     5
 74
     0
 42
0.00000001
 43
0.00000001
 40
0.0
 40
0.0
 40
0.0
 40
0.0
 40
0.5012156693466765
 40
1.0
 40
1.0
 40
1.0
 40
1.0
 10
113.4074151913539
 20
281.0466586552759
 30
0.0
 10
113.485780287297
 20
281.1823610825049
 30
0.0
 10
113.6421303392522
 20
281.4531076603323
 30
0.0
 10
113.7985093318643
 20
281.7238239141051
 30
0.0
 10
113.8765087230225
 20
281.8588529395402
 30
0.0
  0
SPLINE
  5
D1
330
1F
100
AcDbEntity
  8
0
  6
Continuous
 62
     7
370
    25
100
AcDbSpline
210
0.0
220
0.0
230
1.0
 70
     8
 71
     3
 72
     9
 73
     5
 74
     0
 42
0.00000001
 43
0.00000001
 40
0.0
 40
0.0
 40
0.0
 40
0.0
 40
0.5015262135375156
 40
1.0
 40
1.0
 40
1.0
 40
1.0
 10
111.9074151913539
 20
281.0466586552759
 30
0.0
 10
111.9858255367259
 20
281.1824506226132
 30
0.0
 10
112.1421690004482
 20
281.4532080898641
 30
0.0
 10
112.2985546007112
 20
281.723913425747
 30
0.0
 10
112.3765087230225
 20
281.8588529395402
 30
0.0
  0
SPLINE
  5
D2
330
1F
100
AcDbEntity
  8
0
  6
Continuous
 62
     7
370
    25
100
AcDbSpline
210
0.0
220
0.0
230
1.0
 70
     8
 71
     3
 72
     9
 73
     5
 74
     0
 42
0.00000001
 43
0.00000001
 40
0.0
 40
0.0
 40
0.0
 40
0.0
 40
0.5018384349021675
 40
1.0
 40
1.0
 40
1.0
 40
1.0
 10
110.4074151913539
 20
281.0466586552759
 30
0.0
 10
110.4858706751092
 20
281.1825426501945
 30
0.0
 10
110.6422068149877
 20
281.4533150451887
 30
0.0
 10
110.7985997658505
 20
281.7240054058275
 30
0.0
 10
110.8765087230225
 20
281.8588529395402
 30
0.0
  0
LINE
  5
D3
330
1F
100
AcDbEntity
  8
0
  6
Continuous
 62
     7
370
    25
100
AcDbLine
 10
111.1514287894
 20
311.0415063896
 30
0.0
 11
110.2139512995
 21
311.0415063896
 31
0.0
  0
LINE
  5
D4
330
1F
100
AcDbEntity
  8
0
  6
Continuous
 62
     7
370
    25
100
AcDbLine
 10
112.6514287894
 20
311.0415063896
 30
0.0
 11
112.4641001849
 21
311.0415063896
 31
0.0
  0
LINE
  5
D5
330
1F
100
AcDbEntity
  8
0
  6
Continuous
 62
     7
370
    25
100
AcDbLine
 10
114.1514287894
 20
311.0415063896
 30
0.0
 11
113.9641001849
 21
311.0415063896
 31
0.0
  0
LINE
  5
D6
330
1F
100
AcDbEntity
  8
0
  6
Continuous
 62
     7
370
    25
100
AcDbLine
 10
114.7140037607
 20
281.0415063896
 30
0.0
 11
114.9012493303
 21
281.0415063896
 31
0.0
  0
LINE
  5
D7
330
1F
100
AcDbEntity
  8
0
  6
Continuous
 62
     7
370
    25
100
AcDbLine
 10
113.2140037607
 20
281.0415063896
 30
0.0
 11
113.4012493303
 21
281.0415063896
 31
0.0
  0
LINE
  5
D8
330
1F
100
AcDbEntity
  8
0
  6
Continuous
 62
     7
370
    25
100
AcDbLine
 10
111.7140037607
 20
281.0415063896
 30
0.0
 11
111.9012493303
 21
281.0415063896
 31
0.0
  0
LINE
  5
D9
330
1F
100
AcDbEntity
  8
0
  6
Continuous
 62
     7
370
    25
100
AcDbLine
 10
110.2139512995
 20
281.0415063896
 30
0.0
 11
110.4012493303
 21
281.0415063896
 31
0.0
  0
LINE
  5
DA
330
1F
100
AcDbEntity
  8
0
  6
Continuous
 62
     7
370
    25
100
AcDbLine
 10
67.2365382311
 20
338.314621599
 30
0.0
 11
67.8938683962
 21
309.8850919587
 31
0.0
  0
LINE
  5
DB
330
1F
100
AcDbEntity
  8
0
  6
Continuous
 62
     7
370
    25
100
AcDbLine
 10
94.8072655324
 20
321.7023469606
 30
0.0
 11
95.191364368
 21
338.314621599
 31
0.0
  0
SPLINE
  5
DC
330
1F
100
AcDbEntity
  8
0
  6
Continuous
 62
     7
370
    25
100
AcDbSpline
210
0.0
220
0.0
230
1.0
 70
     8
 71
     3
 72
     9
 73
     5
 74
     0
 42
0.00000001
 43
0.00000001
 40
0.0
 40
0.0
 40
0.0
 40
0.0
 40
0.5027752844605446
 40
1.0
 40
1.0
 40
1.0
 40
1.0
 10
114.9952392554864
 20
310.2296073776457
 30
0.0
 10
114.9329245915952
 20
310.2295837776199
 30
0.0
 10
114.808983208999
 20
310.2295368381091
 30
0.0
 10
114.6850067292759
 20
310.2295834285059
 30
0.0
 10
114.623362559412
 20
310.2296065944027
 30
0.0
  0
SPLINE
  5
DD
330
1F
100
AcDbEntity
  8
0
  6
Continuous
 62
     7
370
    25
100
AcDbSpline
210
0.0
220
0.0
230
1.0
 70
     8
 71
     3
 72
     9
 73
     5
 74
     0
 42
0.00000001
 43
0.00000001
 40
0.0
 40
0.0
 40
0.0
 40
0.0
 40
0.5024505677200923
 40
0.9999999999999999
 40
0.9999999999999999
 40
0.9999999999999999
 40
0.9999999999999999
 10
113.4952392554864
 20
310.2296073776457
 30
0.0
 10
113.4329729381974
 20
310.2295714129353
 30
0.0
 10
113.3090476781035
 20
310.2294998343309
 30
0.0
 10
113.1850550731138
 20
310.2295708503782
 30
0.0
 10
113.1233626228943
 20
310.2296061843721
 30
0.0
  0
SPLINE
  5
DE
330
1F
100
AcDbEntity
  8
0
  6
Continuous
 62
     7
370
    25
100
AcDbSpline
210
0.0
220
0.0
230
1.0
 70
     8
 71
     3
 72
     9
 73
     5
 74
     0
 42
0.00000001
 43
0.00000001
 40
0.0
 40
0.0
 40
0.0
 40
0.0
 40
0.5021449888945024
 40
1.0
 40
1.0
 40
1.0
 40
1.0
 10
111.9952392554864
 20
310.2296073776457
 30
0.0
 10
111.9330224993484
 20
310.2295564658962
 30
0.0
 10
111.8091205237955
 20
310.2294550773518
 30
0.0
 10
111.6851046288465
 20
310.2295556288733
 30
0.0
 10
111.6233626940895
 20
310.2296056889521
 30
0.0
  0
SPLINE
  5
DF
330
1F
100
AcDbEntity
  8
0
  6
Continuous
 62
     7
370
    25
100
AcDbSpline
210
0.0
220
0.0
230
1.0
 70
     8
 71
     3
 72
     9
 73
     5
 74
     0
 42
0.00000001
 43
0.00000001
 40
0.0
 40
0.0
 40
0.0
 40
0.0
 40
0.5057289412931915
 40
1.0
 40
1.0
 40
1.0
 40
1.0
 10
113.8702404397732
 20
281.8534054142328
 30
0.0
 10
113.9329258107007
 20
281.8534291956016
 30
0.0
 10
114.0568763419223
 20
281.8534762195443
 30
0.0
 10
114.1807917832086
 20
281.8534293774046
 30
0.0
 10
114.2420395995633
 20
281.8534062246904
 30
0.0
  0
SPLINE
  5
E0
330
1F
100
AcDbEntity
  8
0
  6
Continuous
 62
     7
370
    25
100
AcDbSpline
210
0.0
220
0.0
230
1.0
 70
     8
 71
     3
 72
     9
 73
     5
 74
     0
 42
0.00000001
 43
0.00000001
 40
0.0
 40
0.0
 40
0.0
 40
0.0
 40
0.5060529424439243
 40
1.0
 40
1.0
 40
1.0
 40
1.0
 10
112.3702404397732
 20
281.8534054142328
 30
0.0
 10
112.4329742035917
 20
281.8534416618301
 30
0.0
 10
112.5569410034201
 20
281.8535132899037
 30
0.0
 10
112.6808404721244
 20
281.8534419083574
 30
0.0
 10
112.7420402501237
 20
281.8534066496526
 30
0.0
  0
SPLINE
  5
E1
330
1F
100
AcDbEntity
  8
0
  6
Continuous
 62
     7
370
    25
100
AcDbSpline
210
0.0
220
0.0
230
1.0
 70
     8
 71
     3
 72
     9
 73
     5
 74
     0
 42
0.00000001
 43
0.00000001
 40
0.0
 40
0.0
 40
0.0
 40
0.0
 40
0.5063601542004668
 40
1.0
 40
1.0
 40
1.0
 40
1.0
 10
110.8702404397732
 20
281.8534054142328
 30
0.0
 10
110.9330238438948
 20
281.8534567438184
 30
0.0
 10
111.0570134659075
 20
281.8535581135354
 30
0.0
 10
111.180889192372
 20
281.8534570525615
 30
0.0
 10
111.2420391868823
 20
281.853407164838
 30
0.0
  0
SPLINE
  5
E2
330
1F
100
AcDbEntity
  8
0
  6
Continuous
 62
     7
370
    25
100
AcDbSpline
210
0.0
220
0.0
230
1.0
 70
     8
 71
     3
 72
    17
 73
    13
 74
     0
 42
0.00000001
 43
0.00000001
 40
0.0
 40
0.0
 40
0.0
 40
0.0
 40
0.0859340669813116
 40
0.1884010616342805
 40
0.2935245345422816
 40
0.4001272578306004
 40
0.5074837726170078
 40
0.6220623439023609
 40
0.7298900256109802
 40
0.8317884781181256
 40
0.9283870455482373
 40
1.0
 40
1.0
 40
1.0
 40
1.0
 10
104.5724315260241
 20
311.5315948884604
 30
0.0
 10
104.1235824683791
 20
311.5535740313734
 30
0.0
 10
103.1395299040772
 20
311.6017609030541
 30
0.0
 10
101.6437315741228
 20
311.9788487209553
 30
0.0
 10
100.1249879936426
 20
312.6127835286371
 30
0.0
 10
98.71108812475453
 20
313.5093050314108
 30
0.0
 10
97.4293594688207
 20
314.6606050555824
 30
0.0
 10
96.36218016951011
 20
316.0230930527807
 30
0.0
 10
95.55948405929044
 20
317.5236529617345
 30
0.0
 10
95.05122048807802
 20
319.0449819793743
 30
0.0
 10
94.79236780706945
 20
320.4400326521696
 30
0.0
 10
94.79559257897296
 20
321.3193964697604
 30
0.0
 10
94.79696546616202
 20
321.6937694039751
 30
0.0
  0
ARC
  5
E3
330
1F
100
AcDbEntity
  8
0
  6
Continuous
 62
     7
370
    25
100
AcDbCircle
 10
94.1461705641
 20
230.3014295347
 30
0.0
 40
50.00000000000001
100
AcDbArc
 50
91.2
 51
95.7762782441
  0
ARC
  5
E4
330
1F
100
AcDbEntity
  8
0
  6
Continuous
 62
     7
370
    25
100
AcDbCircle
 10
66.2368054233
 20
338.2915063896
 30
0.0
 40
1.0
100
AcDbArc
 50
1.3245219123
 51
90.0
  0
ARC
  5
E5
330
1F
100
AcDbEntity
  8
0
  6
Continuous
 62
     7
370
    25
100
AcDbCircle
 10
96.1910971758
 20
338.2915063896
 30
0.0
 40
1.0
100
AcDbArc
 50
90.0
 51
178.6754780877
  0
ARC
  5
E6
330
1F
100
AcDbEntity
  8
0
  6
Continuous
 62
     7
370
    25
100
AcDbCircle
 10
57.8965403177
 20
309.6539398644
 30
0.0
 40
10.0
100
AcDbArc
 50
329.7241140142
 51
1.3245219123
  0
ARC
  5
E7
330
1F
100
AcDbEntity
  8
0
  6
Continuous
 62
     7
370
    25
100
AcDbCircle
 10
81.2139512995
 20
296.0415063896
 30
0.0
 40
17.00000000000001
100
AcDbArc
 50
149.7241140142
 51
242.3088110772
  0
ARC
  5
E8
330
1F
100
AcDbEntity
  8
0
  6
Continuous
 62
     7
370
    25
100
AcDbCircle
 10
64.9528443006
 20
351.7915063896
 30
0.0
 40
1.750000000000008
100
AcDbArc
 50
105.8492995417
 51
180.0
  0
ARC
  5
E9
330
1F
100
AcDbEntity
  8
0
  6
Continuous
 62
     7
370
    25
100
AcDbCircle
 10
97.4750582985
 20
341.0415063896
 30
0.0
 40
1.75
100
AcDbArc
 50
270.0
 51
0.0
  0
LINE
  5
EA
330
1F
100
AcDbEntity
  8
0
  6
Continuous
 62
     7
370
    25
100
AcDbLine
 10
99.2250582985
 20
341.0415063896
 30
0.0
 11
99.2250582985
 21
351.7915063896
 31
0.0
  0
LINE
  5
EB
330
1F
100
AcDbEntity
  8
0
  6
Continuous
 62
     7
370
    25
100
AcDbLine
 10
63.2028443006
 20
351.7915063896
 30
0.0
 11
63.2028443006
 21
341.0415063896
 31
0.0
  0
ARC
  5
EC
330
1F
100
AcDbEntity
  8
0
  6
Continuous
 62
     7
370
    25
100
AcDbCircle
 10
64.9528443006
 20
341.0415063896
 30
0.0
 40
1.750000000000007
100
AcDbArc
 50
180.0
 51
270.0
  0
ARC
  5
ED
330
1F
100
AcDbEntity
  8
0
  6
Continuous
 62
     7
370
    25
100
AcDbCircle
 10
97.4750582985
 20
351.7915063896
 30
0.0
 40
1.750000000000018
100
AcDbArc
 50
0.0
 51
74.1552676611
  0
ARC
  5
EE
330
1F
100
AcDbEntity
  8
0
  6
Continuous
 62
     7
370
    25
100
AcDbCircle
 10
98.2252332898
 20
354.437208089
 30
0.0
 40
1.000000000000008
100
AcDbArc
 50
171.4133710458
 51
254.1356649369
  0
ARC
  5
EF
330
1F
100
AcDbEntity
  8
0
  6
Continuous
 62
     7
370
    25
100
AcDbCircle
 10
64.2026693092
 20
354.437208089
 30
0.0
 40
0.9999999999999943
100
AcDbArc
 50
285.8464245101
 51
8.564110451
  0
ARC
  5
F0
330
1F
100
AcDbEntity
  8
0
  6
Continuous
 62
     7
370
    25
100
AcDbCircle
 10
81.2139512995
 20
-91.2237713839
 30
0.0
 40
11.55000000000001
100
AcDbArc
 50
133.1556534408
 51
278.8713752893
  0
ARC
  5
F1
330
1F
100
AcDbEntity
  8
0
  6
Continuous
 62
     7
370
    25
100
AcDbCircle
 10
81.2139512995
 20
-91.2237713839
 30
0.0
 40
11.55000000000001
100
AcDbArc
 50
278.8713752893
 51
46.8443465592
  0
ARC
  5
F2
330
1F
100
AcDbEntity
  8
0
  6
Continuous
 62
     7
370
    25
100
AcDbCircle
 10
81.2139512995
 20
-91.2237713839
 30
0.0
 40
10.79999999999998
100
AcDbArc
 50
137.0107360705
 51
278.8713752893
  0
ARC
  5
F3
330
1F
100
AcDbEntity
  8
0
  6
Continuous
 62
     7
370
    25
100
AcDbCircle
 10
81.2139512995
 20
-91.2237713839
 30
0.0
 40
10.80000000000001
100
AcDbArc
 50
278.8713752893
 51
42.9892639295
  0
ARC
  5
F4
330
1F
100
AcDbEntity
  8
0
  6
Continuous
 62
     7
370
    25
100
AcDbCircle
 10
81.2139512995
 20
-91.2237713839
 30
0.0
 40
7.900000000000006
100
AcDbArc
 50
180.0
 51
0.0
  0
ARC
  5
F5
330
1F
100
AcDbEntity
  8
0
  6
Continuous
 62
     7
370
    25
100
AcDbCircle
 10
81.2139512995
 20
61.1762286161
 30
0.0
 40
7.900000000000006
100
AcDbArc
 50
0.0
 51
180.0
  0
LINE
  5
F6
330
1F
100
AcDbEntity
  8
0
  6
Continuous
 62
     7
370
    25
100
AcDbLine
 10
91.9362005296
 20
-91.0911443632
 30
0.0
 11
91.5429267681
 21
-94.111311993
 31
0.0
  0
ARC
  5
F7
330
1F
100
AcDbEntity
  8
0
  6
Continuous
 62
     7
370
    25
100
AcDbCircle
 10
81.2139512995
 20
-91.2237713839
 30
0.0
 40
10.72500000000002
100
AcDbArc
 50
137.442311014
 51
344.3812764616
  0
ARC
  5
F8
330
1F
100
AcDbEntity
  8
0
  6
Continuous
 62
     7
370
    25
100
AcDbCircle
 10
81.2139512995
 20
-91.2237713839
 30
0.0
 40
10.725
100
AcDbArc
 50
0.7086742957
 51
42.557688986
  0
LINE
  5
F9
330
1F
100
AcDbEntity
  8
0
  6
Continuous
 62
     7
370
    25
100
AcDbLine
 10
91.9381309294
 20
-91.091120461
 30
0.0
 11
91.9362005296
 21
-91.0911443632
 31
0.0
  0
ARC
  5
FA
330
1F
100
AcDbEntity
  8
0
  6
Continuous
 62
     7
370
    25
100
AcDbCircle
 10
81.2139512995
 20
296.0415063896
 30
0.0
 40
8.25
100
AcDbArc
 50
343.2508741362
 51
196.7491258638
  0
ARC
  5
FB
330
1F
100
AcDbEntity
  8
0
  6
Continuous
 62
     7
370
    25
100
AcDbCircle
 10
81.2139512995
 20
296.0415063896
 30
0.0
 40
8.049999999999997
100
AcDbArc
 50
348.9219835539
 51
191.0780164461
  0
ARC
  5
FC
330
1F
100
AcDbEntity
  8
0
  6
Continuous
 62
     7
370
    25
100
AcDbCircle
 10
81.2139512995
 20
296.0415063896
 30
0.0
 40
9.574999999999973
100
AcDbArc
 50
325.5951096848
 51
214.4048903152
  0
ARC
  5
FD
330
1F
100
AcDbEntity
  8
0
  6
Continuous
 62
     7
370
    25
100
AcDbCircle
 10
81.2139512995
 20
61.1762286161
 30
0.0
 40
9.574999999999978
100
AcDbArc
 50
325.5951096848
 51
132.4825302596
  0
ARC
  5
FE
330
1F
100
AcDbEntity
  8
0
  6
Continuous
 62
     7
370
    25
100
AcDbCircle
 10
81.2139512995
 20
61.1762286161
 30
0.0
 40
9.574999999999969
100
AcDbArc
 50
132.4825302596
 51
214.4048903152
  0
ARC
  5
FF
330
1F
100
AcDbEntity
  8
0
  6
Continuous
 62
     7
370
    25
100
AcDbCircle
 10
81.2139512995
 20
61.1762286161
 30
0.0
 40
8.249999999999995
100
AcDbArc
 50
343.2508741362
 51
132.4825302596
  0
ARC
  5
100
330
1F
100
AcDbEntity
  8
0
  6
Continuous
 62
     7
370
    25
100
AcDbCircle
 10
81.2139512995
 20
61.1762286161
 30
0.0
 40
8.250000000000005
100
AcDbArc
 50
132.4825302596
 51
196.7491258638
  0
ARC
  5
101
330
1F
100
AcDbEntity
  8
0
  6
Continuous
 62
     7
370
    25
100
AcDbCircle
 10
81.2139512995
 20
61.1762286161
 30
0.0
 40
8.050000000000008
100
AcDbArc
 50
42.4825302596
 51
191.0780164461
  0
ARC
  5
102
330
1F
100
AcDbEntity
  8
0
  6
Continuous
 62
     7
370
    25
100
AcDbCircle
 10
81.2139512995
 20
61.1762286161
 30
0.0
 40
8.049999999999985
100
AcDbArc
 50
348.9219835539
 51
42.4825302596
  0
ARC
  5
103
330
1F
100
AcDbEntity
  8
0
  6
Continuous
 62
     7
370
    25
100
AcDbCircle
 10
81.2139512995
 20
61.1762286161
 30
0.0
 40
9.925000000000004
100
AcDbArc
 50
322.7469493593
 51
217.2530506407
  0
ARC
  5
104
330
1F
100
AcDbEntity
  8
0
  6
Continuous
 62
     7
370
    25
100
AcDbCircle
 10
81.2139512995
 20
61.1762286161
 30
0.0
 40
9.72500000000001
100
AcDbArc
 50
324.3251241983
 51
215.6748758017
  0
ARC
  5
105
330
1F
100
AcDbEntity
  8
0
  6
Continuous
 62
     7
370
    25
100
AcDbCircle
 10
81.2139512995
 20
61.1762286161
 30
0.0
 40
14.22500000000001
100
AcDbArc
 50
303.7355336397
 51
236.2644663603
  0
LINE
  5
106
330
1F
100
AcDbEntity
  8
0
  6
Continuous
 62
     7
370
    25
100
AcDbLine
 10
93.4106145915
 20
53.85557089
 30
0.0
 11
93.6185965783
 21
53.7307363429
 31
0.0
  0
LINE
  5
107
330
1F
100
AcDbEntity
  8
0
  6
Continuous
 62
     7
370
    25
100
AcDbLine
 10
93.6521585087
 20
68.0785200053
 30
0.0
 11
93.8642593912
 21
68.1962204158
 31
0.0
  0
SPLINE
  5
108
330
1F
100
AcDbEntity
  8
0
  6
Continuous
 62
     7
370
    25
100
AcDbSpline
210
0.0
220
0.0
230
1.0
 70
     8
 71
     3
 72
    11
 73
     7
 74
     0
 42
0.00000001
 43
0.00000001
 40
0.0
 40
0.0
 40
0.0
 40
0.0
 40
0.1446702591042593
 40
0.390752020932359
 40
0.5962314811354757
 40
0.9999999999999999
 40
0.9999999999999999
 40
0.9999999999999999
 40
0.9999999999999999
 10
95.67702417850549
 20
61.53692596733201
 30
0.0
 10
95.62677155070054
 20
61.86658908130308
 30
0.0
 10
95.4910400189156
 20
62.75700379963295
 30
0.0
 10
95.1983372710729
 20
64.10152665748603
 30
0.0
 10
94.69172527896141
 20
66.0092110954644
 30
0.0
 10
94.19407107401965
 20
67.32452137061956
 30
0.0
 10
93.86425939119137
 20
68.19622041582507
 30
0.0
  0
LINE
  5
109
330
1F
100
AcDbEntity
  8
0
  6
Continuous
 62
     7
370
    25
100
AcDbLine
 10
95.4345296481
 20
61.5308783497
 30
0.0
 11
95.6770241785
 21
61.5369259673
 31
0.0
  0
LINE
  5
10A
330
1F
100
AcDbEntity
  8
0
  6
Continuous
 62
     7
370
    25
100
AcDbLine
 10
81.4596141125
 20
75.6417126891
 30
0.0
 11
81.4554952168
 21
75.3991777314
 31
0.0
  0
SPLINE
  5
10B
330
1F
100
AcDbEntity
  8
0
  6
Continuous
 62
     7
370
    25
100
AcDbSpline
210
0.0
220
0.0
230
1.0
 70
     8
 71
     3
 72
    11
 73
     7
 74
     0
 42
0.00000001
 43
0.00000001
 40
0.0
 40
0.0
 40
0.0
 40
0.0
 40
0.1446702591042551
 40
0.3907520209323686
 40
0.5962314811354842
 40
1.0
 40
1.0
 40
1.0
 40
1.0
 10
88.13311466980659
 20
73.88196582170359
 30
0.0
 10
87.8224917245145
 20
74.00327732640302
 30
0.0
 10
86.98350419264473
 20
74.33093773094762
 30
0.0
 10
85.67276186785384
 20
74.74971114448495
 30
0.0
 10
83.76735268610454
 20
75.26481450844366
 30
0.0
 10
82.37943347149066
 20
75.49148846224149
 30
0.0
 10
81.45961411247389
 20
75.64171268905012
 30
0.0
  0
LINE
  5
10C
330
1F
100
AcDbEntity
  8
0
  6
Continuous
 62
     7
370
    25
100
AcDbLine
 10
88.0171047951
 20
73.6689355892
 30
0.0
 11
88.1331146698
 21
73.8819658217
 31
0.0
  0
LINE
  5
10D
330
1F
100
AcDbEntity
  8
0
  6
Continuous
 62
     7
370
    25
100
AcDbLine
 10
68.8093060208
 20
68.6217208894
 30
0.0
 11
69.0172880076
 21
68.4968863422
 31
0.0
  0
SPLINE
  5
10E
330
1F
100
AcDbEntity
  8
0
  6
Continuous
 62
     7
370
    25
100
AcDbSpline
210
0.0
220
0.0
230
1.0
 70
     8
 71
     3
 72
    11
 73
     7
 74
     0
 42
0.00000001
 43
0.00000001
 40
0.0
 40
0.0
 40
0.0
 40
0.0
 40
0.144670259104254
 40
0.3907520209323634
 40
0.5962314811354625
 40
1.0
 40
1.0
 40
1.0
 40
1.0
 10
73.67004179083999
 20
73.52126847050505
 30
0.0
 10
73.40967147335287
 20
73.3129168612335
 30
0.0
 10
72.70641547326808
 20
72.75016254744818
 30
0.0
 10
71.68837589631988
 20
71.82441310313258
 30
0.0
 10
70.28957870668214
 20
70.4318320291128
 30
0.0
 10
69.39931369700996
 20
69.3431957077556
 30
0.0
 10
68.80930602082141
 20
68.62172088935867
 30
0.0
  0
LINE
  5
10F
330
1F
100
AcDbEntity
  8
0
  6
Continuous
 62
     7
370
    25
100
AcDbLine
 10
73.6700417908
 20
73.5212684705
 30
0.0
 11
73.7965264466
 21
73.3142858557
 31
0.0
  0
LINE
  5
110
330
1F
100
AcDbEntity
  8
0
  6
Continuous
 62
     7
370
    25
100
AcDbLine
 10
68.5636432079
 20
54.1562368164
 30
0.0
 11
68.7757440903
 21
54.273937227
 31
0.0
  0
SPLINE
  5
111
330
1F
100
AcDbEntity
  8
0
  6
Continuous
 62
     7
370
    25
100
AcDbSpline
210
0.0
220
0.0
230
1.0
 70
     8
 71
     3
 72
    11
 73
     7
 74
     0
 42
0.00000001
 43
0.00000001
 40
0.0
 40
0.0
 40
0.0
 40
0.0
 40
0.1446702591042539
 40
0.3907520209323646
 40
0.59623148113546
 40
0.9999999999999999
 40
0.9999999999999999
 40
0.9999999999999999
 40
0.9999999999999999
 10
66.7508784205723
 20
60.81553126493503
 30
0.0
 10
66.80113104837726
 20
60.48586815096396
 30
0.0
 10
66.93686258016226
 20
59.59545343263414
 30
0.0
 10
67.22956532800488
 20
58.25093057478117
 30
0.0
 10
67.73617732011645
 20
56.34324613680272
 30
0.0
 10
68.23383152505816
 20
55.02793586164761
 30
0.0
 10
68.56364320788644
 20
54.15623681644205
 30
0.0
  0
LINE
  5
112
330
1F
100
AcDbEntity
  8
0
  6
Continuous
 62
     7
370
    25
100
AcDbLine
 10
66.7508784206
 20
60.8155312649
 30
0.0
 11
66.993372951
 21
60.8215788826
 31
0.0
  0
SPLINE
  5
113
330
1F
100
AcDbEntity
  8
0
  6
Continuous
 62
     7
370
    25
100
AcDbSpline
210
0.0
220
0.0
230
1.0
 70
     8
 71
     3
 72
     9
 73
     5
 74
     0
 42
0.00000001
 43
0.00000001
 40
0.0
 40
0.0
 40
0.0
 40
0.0
 40
0.5862283062032544
 40
1.0
 40
1.0
 40
1.0
 40
1.0
 10
68.80930602082141
 20
68.6217208893587
 30
0.0
 10
68.60728390198778
 20
68.35728133251618
 30
0.0
 10
68.2626705206551
 20
67.90619503380918
 30
0.0
 10
67.93500977650528
 20
67.4412129979384
 30
0.0
 10
67.79943303540772
 20
67.24881659337115
 30
0.0
  0
SPLINE
  5
114
330
1F
100
AcDbEntity
  8
0
  6
Continuous
 62
     7
370
    25
100
AcDbSpline
210
0.0
220
0.0
230
1.0
 70
     8
 71
     3
 72
     9
 73
     5
 74
     0
 42
0.00000001
 43
0.00000001
 40
0.0
 40
0.0
 40
0.0
 40
0.0
 40
0.5863847898283628
 40
1.0
 40
1.0
 40
1.0
 40
1.0
 10
66.54928941724562
 20
62.50788806134266
 30
0.0
 10
66.5826812306962
 20
62.1760034551363
 30
0.0
 10
66.63962645511162
 20
61.61001911863362
 30
0.0
 10
66.71832677232679
 20
61.04799357732518
 30
0.0
 10
66.7508784205723
 20
60.81553126493505
 30
0.0
  0
ARC
  5
115
330
1F
100
AcDbEntity
  8
0
  6
Continuous
 62
     7
370
    25
100
AcDbCircle
 10
81.2139512995
 20
61.1762286161
 30
0.0
 40
14.72500000000003
100
AcDbArc
 50
155.6443201642
 51
174.8113512896
  0
SPLINE
  5
116
330
1F
100
AcDbEntity
  8
0
  6
Continuous
 62
     7
370
    25
100
AcDbSpline
210
0.0
220
0.0
230
1.0
 70
     8
 71
     3
 72
     9
 73
     5
 74
     0
 42
0.00000001
 43
0.00000001
 40
0.0
 40
0.0
 40
0.0
 40
0.0
 40
0.5862283062032778
 40
1.0
 40
1.0
 40
1.0
 40
1.0
 10
68.56364320788644
 20
54.15623681644205
 30
0.0
 10
68.69164352246072
 20
53.8490607509845
 30
0.0
 10
68.90998902577375
 20
53.3250736589129
 30
0.0
 10
69.1488449090663
 20
52.80882011272081
 30
0.0
 10
69.24767671246957
 20
52.59520900848441
 30
0.0
  0
ARC
  5
117
330
1F
100
AcDbEntity
  8
0
  6
Continuous
 62
     7
370
    25
100
AcDbCircle
 10
81.2139512995
 20
61.1762286161
 30
0.0
 40
14.725
100
AcDbArc
 50
215.6443201642
 51
234.8113512896
  0
SPLINE
  5
118
330
1F
100
AcDbEntity
  8
0
  6
Continuous
 62
     7
370
    25
100
AcDbSpline
210
0.0
220
0.0
230
1.0
 70
     8
 71
     3
 72
     9
 73
     5
 74
     0
 42
0.00000001
 43
0.00000001
 40
0.0
 40
0.0
 40
0.0
 40
0.0
 40
0.5862283062032944
 40
1.0
 40
1.0
 40
1.0
 40
1.0
 10
93.61859657825649
 20
53.73073634290845
 30
0.0
 10
93.8206186970901
 20
53.99517589975095
 30
0.0
 10
94.16523207842276
 20
54.44626219845794
 30
0.0
 10
94.49289282257256
 20
54.91124423432863
 30
0.0
 10
94.62846956367012
 20
55.10364063889589
 30
0.0
  0
SPLINE
  5
119
330
1F
100
AcDbEntity
  8
0
  6
Continuous
 62
     7
370
    25
100
AcDbSpline
210
0.0
220
0.0
230
1.0
 70
     8
 71
     3
 72
     9
 73
     5
 74
     0
 42
0.00000001
 43
0.00000001
 40
0.0
 40
0.0
 40
0.0
 40
0.0
 40
0.5863847898283613
 40
1.0
 40
1.0
 40
1.0
 40
1.0
 10
95.87861318183222
 20
59.84456917092437
 30
0.0
 10
95.84522136838164
 20
60.17645377713065
 30
0.0
 10
95.7882761439662
 20
60.74243811363345
 30
0.0
 10
95.70957582675102
 20
61.30446365494183
 30
0.0
 10
95.67702417850549
 20
61.53692596733198
 30
0.0
  0
ARC
  5
11A
330
1F
100
AcDbEntity
  8
0
  6
Continuous
 62
     7
370
    25
100
AcDbCircle
 10
81.2139512995
 20
61.1762286161
 30
0.0
 40
14.72500000000002
100
AcDbArc
 50
335.6443201642
 51
354.8113512896
  0
SPLINE
  5
11B
330
1F
100
AcDbEntity
  8
0
  6
Continuous
 62
     7
370
    25
100
AcDbSpline
210
0.0
220
0.0
230
1.0
 70
     8
 71
     3
 72
     9
 73
     5
 74
     0
 42
0.00000001
 43
0.00000001
 40
0.0
 40
0.0
 40
0.0
 40
0.0
 40
0.5862283062032669
 40
1.0
 40
1.0
 40
1.0
 40
1.0
 10
81.45961411247389
 20
75.64171268905015
 30
0.0
 10
81.12959167906595
 20
75.6844491976652
 30
0.0
 10
80.56663279442026
 20
75.75734999102984
 30
0.0
 10
80.0001161669779
 20
75.80862150135115
 30
0.0
 10
79.76570762247707
 20
75.82983620102033
 30
0.0
  0
SPLINE
  5
11C
330
1F
100
AcDbEntity
  8
0
  6
Continuous
 62
     7
370
    25
100
AcDbSpline
210
0.0
220
0.0
230
1.0
 70
     8
 71
     3
 72
     9
 73
     5
 74
     0
 42
0.00000001
 43
0.00000001
 40
0.0
 40
0.0
 40
0.0
 40
0.0
 40
0.5863847898283567
 40
1.0
 40
1.0
 40
1.0
 40
1.0
 10
75.0348712671329
 20
74.54202806671343
 30
0.0
 10
74.76414667375852
 20
74.34716760488364
 30
0.0
 10
74.30246247241077
 20
74.01485942566433
 30
0.0
 10
73.85508423466953
 20
73.66569018101576
 30
0.0
 10
73.67004179083999
 20
73.52126847050505
 30
0.0
  0
ARC
  5
11D
330
1F
100
AcDbEntity
  8
0
  6
Continuous
 62
     7
370
    25
100
AcDbCircle
 10
81.2139512995
 20
61.1762286161
 30
0.0
 40
14.72500000000007
100
AcDbArc
 50
95.6443201642
 51
114.8113512896
  0
SPLINE
  5
11E
330
1F
100
AcDbEntity
  8
0
  6
Continuous
 62
     7
370
    25
100
AcDbSpline
210
0.0
220
0.0
230
1.0
 70
     8
 71
     3
 72
     9
 73
     5
 74
     0
 42
0.00000001
 43
0.00000001
 40
0.0
 40
0.0
 40
0.0
 40
0.0
 40
0.5862283062032707
 40
1.0
 40
1.0
 40
1.0
 40
1.0
 10
93.86425939119137
 20
68.19622041582507
 30
0.0
 10
93.73625907661706
 20
68.50339648128259
 30
0.0
 10
93.51791357330404
 20
69.0273835733542
 30
0.0
 10
93.27905769001151
 20
69.54363711954622
 30
0.0
 10
93.18022588660827
 20
69.75724822378268
 30
0.0
  0
SPLINE
  5
11F
330
1F
100
AcDbEntity
  8
0
  6
Continuous
 62
     7
370
    25
100
AcDbSpline
210
0.0
220
0.0
230
1.0
 70
     8
 71
     3
 72
     9
 73
     5
 74
     0
 42
0.00000001
 43
0.00000001
 40
0.0
 40
0.0
 40
0.0
 40
0.0
 40
0.5863847898283562
 40
1.0
 40
1.0
 40
1.0
 40
1.0
 10
89.69953314942619
 20
73.21036862150426
 30
0.0
 10
89.39541674260126
 20
73.34739276588078
 30
0.0
 10
88.87678731683806
 20
73.58106892316415
 30
0.0
 10
88.35070876188166
 20
73.7939252198242
 30
0.0
 10
88.13311466980659
 20
73.88196582170359
 30
0.0
  0
ARC
  5
120
330
1F
100
AcDbEntity
  8
0
  6
Continuous
 62
     7
370
    25
100
AcDbCircle
 10
81.2139512995
 20
61.1762286161
 30
0.0
 40
14.72500000000005
100
AcDbArc
 50
35.6443201642
 51
54.8113512896
  0
ARC
  5
121
330
1F
100
AcDbEntity
  8
0
  6
Continuous
 62
     7
370
    25
100
AcDbCircle
 10
68.4258113904
 20
54.520192503
 30
0.0
 40
0.3891803588383752
100
AcDbArc
 50
252.1153040899
 51
290.7419245348
  0
SPLINE
  5
122
330
1F
100
AcDbEntity
  8
0
  6
Continuous
 62
     7
370
    25
100
AcDbSpline
210
0.0
220
0.0
230
1.0
 70
    24
 71
     3
 72
    12
 73
     8
 74
     0
 42
0.00000001
 43
0.00000001
 40
0.0
 40
0.0
 40
0.0
 40
0.0
 40
0.3013828945621546
 40
0.4108442493795801
 40
0.6247185195336642
 40
0.6986171054378617
 40
1.0
 40
1.0
 40
1.0
 40
1.0
 10
68.30629315665927
 20
54.14981871410748
 30
0.0
 10
68.12791289813161
 20
54.80510872947345
 30
0.0
 10
67.88474546978303
 20
55.69839809441932
 30
0.0
 10
67.51321565065275
 20
57.06323399552326
 30
0.0
 10
67.27653092639468
 20
57.9327087786419
 30
0.0
 10
66.92627377207278
 20
59.2193983368478
 30
0.0
 10
66.70416010512598
 20
60.03534551299797
 30
0.0
 10
66.52578397054278
 20
60.69062037881956
 30
0.0
  0
ARC
  5
123
330
1F
100
AcDbEntity
  8
0
  6
Continuous
 62
     7
370
    25
100
AcDbCircle
 10
66.8165432166
 20
60.431930579
 30
0.0
 40
0.3891803587962895
100
AcDbArc
 50
99.7137469168
 51
138.340367366
  0
SPLINE
  5
124
330
1F
100
AcDbEntity
  8
0
  6
Continuous
 62
     7
370
    25
100
AcDbSpline
210
0.0
220
0.0
230
1.0
 70
    24
 71
     3
 72
    12
 73
     8
 74
     0
 42
0.00000001
 43
0.00000001
 40
0.0
 40
0.0
 40
0.0
 40
0.0
 40
0.3013828945620891
 40
0.4108442493795678
 40
0.6247185195336439
 40
0.6986171054378654
 40
0.9999999999999999
 40
0.9999999999999999
 40
0.9999999999999999
 40
0.9999999999999999
 10
93.75282984353586
 20
53.51107371204772
 30
0.0
 10
93.27452217264656
 20
53.0289468689463
 30
0.0
 10
92.62249460384729
 20
52.37171301615062
 30
0.0
 10
91.6262769510594
 20
51.36754080396835
 30
0.0
 10
90.99163206305758
 20
50.72782842851365
 30
0.0
 10
90.05245479602809
 20
49.7811520559108
 30
0.0
 10
89.45688064680927
 20
49.18082238973204
 30
0.0
 10
88.97858403383786
 20
48.69870669284326
 30
0.0
  0
ARC
  5
125
330
1F
100
AcDbEntity
  8
0
  6
Continuous
 62
     7
370
    25
100
AcDbCircle
 10
93.3723176166
 20
53.4293926442
 30
0.0
 40
0.3891803587983912
100
AcDbArc
 50
12.1153040878
 51
50.7419245368
  0
ARC
  5
126
330
1F
100
AcDbEntity
  8
0
  6
Continuous
 62
     7
370
    25
100
AcDbCircle
 10
69.0555849825
 20
68.923064588
 30
0.0
 40
0.3891803588381382
100
AcDbArc
 50
192.1153040899
 51
230.7419245348
  0
SPLINE
  5
127
330
1F
100
AcDbEntity
  8
0
  6
Continuous
 62
     7
370
    25
100
AcDbSpline
210
0.0
220
0.0
230
1.0
 70
    24
 71
     3
 72
    12
 73
     8
 74
     0
 42
0.00000001
 43
0.00000001
 40
0.0
 40
0.0
 40
0.0
 40
0.0
 40
0.3013828945621511
 40
0.4108442493795617
 40
0.6247185195336399
 40
0.6986171054378653
 40
1.0
 40
1.0
 40
1.0
 40
1.0
 10
68.67507275554203
 20
68.84138352021935
 30
0.0
 10
69.15338042643143
 20
69.3235103633209
 30
0.0
 10
69.80540799523067
 20
69.98074421611663
 30
0.0
 10
70.80162564801856
 20
70.98491642829879
 30
0.0
 10
71.43627053602023
 20
71.6246288037534
 30
0.0
 10
72.3754478030498
 20
72.57130517635629
 30
0.0
 10
72.9710219522686
 20
73.17163484253508
 30
0.0
 10
73.44931856523996
 20
73.65375053942383
 30
0.0
  0
ARC
  5
128
330
1F
100
AcDbEntity
  8
0
  6
Continuous
 62
     7
370
    25
100
AcDbCircle
 10
73.3706662499
 20
73.2726007461
 30
0.0
 40
0.3891803587970274
100
AcDbArc
 50
39.7137469168
 51
78.340367366
  0
SPLINE
  5
129
330
1F
100
AcDbEntity
  8
0
  6
Continuous
 62
     7
370
    25
100
AcDbSpline
210
0.0
220
0.0
230
1.0
 70
    24
 71
     3
 72
    12
 73
     8
 74
     0
 42
0.00000001
 43
0.00000001
 40
0.0
 40
0.0
 40
0.0
 40
0.0
 40
0.3013828945620962
 40
0.410844249379559
 40
0.6247185195336519
 40
0.6986171054378583
 40
1.0
 40
1.0
 40
1.0
 40
1.0
 10
94.12160944241855
 20
68.2026385181596
 30
0.0
 10
94.29998970094617
 20
67.54734850279375
 30
0.0
 10
94.54315712929476
 20
66.65405913784802
 30
0.0
 10
94.91468694842499
 20
65.28922323674394
 30
0.0
 10
95.15137167268308
 20
64.41974845362536
 30
0.0
 10
95.50162882700504
 20
63.13305889541923
 30
0.0
 10
95.72374249395185
 20
62.3171117192691
 30
0.0
 10
95.90211862853502
 20
61.66183685344753
 30
0.0
  0
ARC
  5
12A
330
1F
100
AcDbEntity
  8
0
  6
Continuous
 62
     7
370
    25
100
AcDbCircle
 10
95.6113593825
 20
61.9205266533
 30
0.0
 40
0.3891803587969278
100
AcDbArc
 50
279.7137469168
 51
318.340367366
  0
ARC
  5
12B
330
1F
100
AcDbEntity
  8
0
  6
Continuous
 62
     7
370
    25
100
AcDbCircle
 10
94.0020912087
 20
67.8322647293
 30
0.0
 40
0.3891803587982162
100
AcDbArc
 50
72.1153040878
 51
110.7419245368
  0
SPLINE
  5
12C
330
1F
100
AcDbEntity
  8
0
  6
Continuous
 62
     7
370
    25
100
AcDbSpline
210
0.0
220
0.0
230
1.0
 70
    24
 71
     3
 72
    12
 73
     8
 74
     0
 42
0.00000001
 43
0.00000001
 40
0.0
 40
0.0
 40
0.0
 40
0.0
 40
0.3013828945621542
 40
0.4108442493795543
 40
0.6247185195336471
 40
0.6986171054378594
 40
0.9999999999999999
 40
0.9999999999999999
 40
0.9999999999999999
 40
0.9999999999999999
 10
81.58273089842167
 20
75.86779342224537
 30
0.0
 10
82.23941882783872
 20
75.69463024998093
 30
0.0
 10
83.13461382498652
 20
75.45857473783089
 30
0.0
 10
84.50236129690471
 20
75.0979110489092
 30
0.0
 10
85.37369090916441
 20
74.86814864124503
 30
0.0
 10
86.66312533051587
 20
74.5281354556421
 30
0.0
 10
87.4808131466815
 20
74.31251794567068
 30
0.0
 10
88.1374858942361
 20
74.13935877673781
 30
0.0
  0
ARC
  5
12D
330
1F
100
AcDbEntity
  8
0
  6
Continuous
 62
     7
370
    25
100
AcDbCircle
 10
87.7680743329
 20
74.0168987832
 30
0.0
 40
0.3891803587967563
100
AcDbArc
 50
339.7137469168
 51
18.340367366
  0
ARC
  5
12E
330
1F
100
AcDbEntity
  8
0
  6
Continuous
 62
     7
370
    25
100
AcDbCircle
 10
81.8437248916
 20
75.5791007012
 30
0.0
 40
0.3891803587980845
100
AcDbArc
 50
132.1153040878
 51
170.7419245369
  0
LINE
  5
12F
330
1F
100
AcDbEntity
  8
0
  6
Continuous
 62
     7
370
    25
100
AcDbLine
 10
73.3139512995
 20
48.4705843017
 30
0.0
 11
72.6008814393
 21
48.6586149225
 31
0.0
  0
LINE
  5
130
330
1F
100
AcDbEntity
  8
0
  6
Continuous
 62
     7
370
    25
100
AcDbLine
 10
72.7283694497
 20
49.1420886108
 30
0.0
 11
72.6008814393
 21
48.6586149225
 31
0.0
  0
LINE
  5
131
330
1F
100
AcDbEntity
  8
0
  6
Continuous
 62
     7
370
    25
100
AcDbLine
 10
73.4493185652
 20
73.6537505394
 30
0.0
 11
74.6799147763
 21
74.8941727665
 31
0.0
  0
LINE
  5
132
330
1F
100
AcDbEntity
  8
0
  6
Continuous
 62
     7
370
    25
100
AcDbLine
 10
74.6799147763
 20
74.8941727665
 30
0.0
 11
75.0348712671
 21
74.5420280667
 31
0.0
  0
LINE
  5
133
330
1F
100
AcDbEntity
  8
0
  6
Continuous
 62
     7
370
    25
100
AcDbLine
 10
66.5257839705
 20
60.6906203788
 30
0.0
 11
66.066844916
 21
62.3765590729
 31
0.0
  0
LINE
  5
134
330
1F
100
AcDbEntity
  8
0
  6
Continuous
 62
     7
370
    25
100
AcDbLine
 10
66.066844916
 20
62.3765590729
 30
0.0
 11
66.5492894172
 21
62.5078880613
 31
0.0
  0
LINE
  5
135
330
1F
100
AcDbEntity
  8
0
  6
Continuous
 62
     7
370
    25
100
AcDbLine
 10
95.9021186285
 20
61.6618368534
 30
0.0
 11
96.3610576831
 21
59.9758981594
 31
0.0
  0
LINE
  5
136
330
1F
100
AcDbEntity
  8
0
  6
Continuous
 62
     7
370
    25
100
AcDbLine
 10
96.3610576831
 20
59.9758981594
 30
0.0
 11
95.8786131818
 21
59.8445691709
 31
0.0
  0
LINE
  5
137
330
1F
100
AcDbEntity
  8
0
  6
Continuous
 62
     7
370
    25
100
AcDbLine
 10
88.1374858942
 20
74.1393587767
 30
0.0
 11
89.8270211598
 21
73.6938423097
 31
0.0
  0
LINE
  5
138
330
1F
100
AcDbEntity
  8
0
  6
Continuous
 62
     7
370
    25
100
AcDbLine
 10
89.8270211598
 20
73.6938423097
 30
0.0
 11
89.6995331494
 21
73.2103686215
 31
0.0
  0
LINE
  5
139
330
1F
100
AcDbEntity
  8
0
  6
Continuous
 62
     7
370
    25
100
AcDbLine
 10
69.2476767125
 20
52.5952090085
 30
0.0
 11
68.7652322112
 21
52.46388002
 31
0.0
  0
LINE
  5
13A
330
1F
100
AcDbEntity
  8
0
  6
Continuous
 62
     7
370
    25
100
AcDbLine
 10
68.7652322112
 20
52.46388002
 30
0.0
 11
68.3062931567
 21
54.1498187141
 31
0.0
  0
LINE
  5
13B
330
1F
100
AcDbEntity
  8
0
  6
Continuous
 62
     7
370
    25
100
AcDbLine
 10
79.8931956329
 20
76.3133098892
 30
0.0
 11
81.5827308984
 21
75.8677934222
 31
0.0
  0
LINE
  5
13C
330
1F
100
AcDbEntity
  8
0
  6
Continuous
 62
     7
370
    25
100
AcDbLine
 10
79.7657076225
 20
75.829836201
 30
0.0
 11
79.8931956329
 21
76.3133098892
 31
0.0
  0
LINE
  5
13D
330
1F
100
AcDbEntity
  8
0
  6
Continuous
 62
     7
370
    25
100
AcDbLine
 10
93.6626703879
 20
69.8885772122
 30
0.0
 11
94.1216094424
 21
68.2026385182
 31
0.0
  0
LINE
  5
13E
330
1F
100
AcDbEntity
  8
0
  6
Continuous
 62
     7
370
    25
100
AcDbLine
 10
93.1802258866
 20
69.7572482238
 30
0.0
 11
93.6626703879
 21
69.8885772122
 31
0.0
  0
LINE
  5
13F
330
1F
100
AcDbEntity
  8
0
  6
Continuous
 62
     7
370
    25
100
AcDbLine
 10
67.7994330354
 20
67.2488165934
 30
0.0
 11
67.4444765445
 21
67.6009612932
 31
0.0
  0
LINE
  5
140
330
1F
100
AcDbEntity
  8
0
  6
Continuous
 62
     7
370
    25
100
AcDbLine
 10
67.4444765445
 20
67.6009612932
 30
0.0
 11
68.6750727555
 21
68.8413835202
 31
0.0
  0
LINE
  5
141
330
1F
100
AcDbEntity
  8
0
  6
Continuous
 62
     7
370
    25
100
AcDbLine
 10
94.9834260545
 20
54.7514959391
 30
0.0
 11
93.7528298435
 21
53.511073712
 31
0.0
  0
LINE
  5
142
330
1F
100
AcDbEntity
  8
0
  6
Continuous
 62
     7
370
    25
100
AcDbLine
 10
94.9834260545
 20
54.7514959391
 30
0.0
 11
94.6284695637
 21
55.1036406389
 31
0.0
  0
ARC
  5
143
330
1F
100
AcDbEntity
  8
0
  6
Continuous
 62
     7
370
    25
100
AcDbCircle
 10
70.8709350745
 20
49.6318786834
 30
0.0
 40
0.4999999999999666
100
AcDbArc
 50
228.1416459683
 51
255.2278357269
  0
LINE
  5
144
330
1F
100
AcDbEntity
  8
0
  6
Continuous
 62
     7
370
    25
100
AcDbLine
 10
70.8709350745
 20
49.6318786834
 30
0.0
 11
70.5372893898
 21
49.2594802985
 31
0.0
  0
LINE
  5
145
330
1F
100
AcDbEntity
  8
0
  6
Continuous
 62
     7
370
    25
100
AcDbLine
 10
70.8709350745
 20
49.6318786834
 30
0.0
 11
70.7434470641
 21
49.1484049952
 31
0.0
  0
ARC
  5
146
330
1F
100
AcDbEntity
  8
0
  6
Continuous
 62
     7
370
    25
100
AcDbCircle
 10
69.7522232546
 20
50.7417286174
 30
0.0
 40
0.500000000000011
100
AcDbArc
 50
195.2278357269
 51
222.3140254855
  0
LINE
  5
147
330
1F
100
AcDbEntity
  8
0
  6
Continuous
 62
     7
370
    25
100
AcDbLine
 10
69.7522232546
 20
50.7417286174
 30
0.0
 11
69.2697787533
 21
50.6103996289
 31
0.0
  0
LINE
  5
148
330
1F
100
AcDbEntity
  8
0
  6
Continuous
 62
     7
370
    25
100
AcDbLine
 10
69.7522232546
 20
50.7417286174
 30
0.0
 11
69.3824900918
 21
50.4051318432
 31
0.0
  0
LINE
  5
149
330
1F
100
AcDbEntity
  8
0
  6
Continuous
 62
     7
370
    25
100
AcDbLine
 10
69.2476767125
 20
52.5952090085
 30
0.0
 11
69.7522232546
 21
50.7417286174
 31
0.0
  0
LINE
  5
14A
330
1F
100
AcDbEntity
  8
0
  6
Continuous
 62
     7
370
    25
100
AcDbLine
 10
70.8709350745
 20
49.6318786834
 30
0.0
 11
72.7283694497
 21
49.1420886108
 31
0.0
  0
ARC
  5
14B
330
1F
100
AcDbEntity
  8
0
  6
Continuous
 62
     7
370
    25
100
AcDbCircle
 10
81.2139512995
 20
61.1762286161
 30
0.0
 40
15.50000000000004
100
AcDbArc
 50
222.3140254855
 51
228.1416459683
  0
LINE
  5
14C
330
1F
100
AcDbEntity
  8
0
  6
Continuous
 62
     7
370
    25
100
AcDbLine
 10
72.6008814393
 20
48.6586149225
 30
0.0
 11
70.7434470641
 21
49.1484049952
 31
0.0
  0
LINE
  5
14D
330
1F
100
AcDbEntity
  8
0
  6
Continuous
 62
     7
370
    25
100
AcDbLine
 10
69.2697787533
 20
50.6103996289
 30
0.0
 11
68.7652322112
 21
52.46388002
 31
0.0
  0
LINE
  5
14E
330
1F
100
AcDbEntity
  8
0
  6
Continuous
 62
     7
370
    25
100
AcDbLine
 10
66.066844916
 20
62.3765590729
 30
0.0
 11
65.5622983739
 21
64.230039464
 31
0.0
  0
LINE
  5
14F
330
1F
100
AcDbEntity
  8
0
  6
Continuous
 62
     7
370
    25
100
AcDbLine
 10
65.5622983739
 20
64.230039464
 30
0.0
 11
66.0447428751
 21
64.3613684524
 31
0.0
  0
LINE
  5
150
330
1F
100
AcDbEntity
  8
0
  6
Continuous
 62
     7
370
    25
100
AcDbLine
 10
66.0447428751
 20
64.3613684524
 30
0.0
 11
66.5492894172
 21
62.5078880613
 31
0.0
  0
ARC
  5
151
330
1F
100
AcDbEntity
  8
0
  6
Continuous
 62
     7
370
    25
100
AcDbCircle
 10
81.2139512995
 20
61.1762286161
 30
0.0
 40
16.00000000000001
100
AcDbArc
 50
222.3140254855
 51
228.1416459683
  0
LINE
  5
152
330
1F
100
AcDbEntity
  8
0
  6
Continuous
 62
     7
370
    25
100
AcDbLine
 10
96.3610576831
 20
59.9758981594
 30
0.0
 11
96.8656042252
 21
58.1224177683
 31
0.0
  0
LINE
  5
153
330
1F
100
AcDbEntity
  8
0
  6
Continuous
 62
     7
370
    25
100
AcDbLine
 10
96.8656042252
 20
58.1224177683
 30
0.0
 11
96.383159724
 21
57.9910887798
 31
0.0
  0
LINE
  5
154
330
1F
100
AcDbEntity
  8
0
  6
Continuous
 62
     7
370
    25
100
AcDbLine
 10
96.383159724
 20
57.9910887798
 30
0.0
 11
95.8786131818
 21
59.8445691709
 31
0.0
  0
LINE
  5
155
330
1F
100
AcDbEntity
  8
0
  6
Continuous
 62
     7
370
    25
100
AcDbLine
 10
96.872489028
 20
57.8883423335
 30
0.0
 11
96.383159724
 21
57.9910887798
 31
0.0
  0
ARC
  5
156
330
1F
100
AcDbEntity
  8
0
  6
Continuous
 62
     7
370
    25
100
AcDbCircle
 10
96.383159724
 20
57.9910887798
 30
0.0
 40
0.500000000000011
100
AcDbArc
 50
348.1416459683
 51
15.2278357269
  0
LINE
  5
157
330
1F
100
AcDbEntity
  8
0
  6
Continuous
 62
     7
370
    25
100
AcDbLine
 10
67.7994330354
 20
67.2488165934
 30
0.0
 11
66.4465452024
 21
65.885126275
 31
0.0
  0
ARC
  5
158
330
1F
100
AcDbEntity
  8
0
  6
Continuous
 62
     7
370
    25
100
AcDbCircle
 10
81.2139512995
 20
61.1762286161
 30
0.0
 40
15.50000000000004
100
AcDbArc
 50
162.3140254855
 51
168.1416459683
  0
LINE
  5
159
330
1F
100
AcDbEntity
  8
0
  6
Continuous
 62
     7
370
    25
100
AcDbLine
 10
96.3363138876
 20
56.1151862575
 30
0.0
 11
95.9813573967
 21
56.4673309573
 31
0.0
  0
LINE
  5
15A
330
1F
100
AcDbEntity
  8
0
  6
Continuous
 62
     7
370
    25
100
AcDbLine
 10
96.4577253353
 20
56.3154310328
 30
0.0
 11
95.9813573967
 21
56.4673309573
 31
0.0
  0
ARC
  5
15B
330
1F
100
AcDbEntity
  8
0
  6
Continuous
 62
     7
370
    25
100
AcDbCircle
 10
95.9813573967
 20
56.4673309573
 30
0.0
 40
0.5000000000000215
100
AcDbArc
 50
315.2278357269
 51
342.3140254855
  0
ARC
  5
15C
330
1F
100
AcDbEntity
  8
0
  6
Continuous
 62
     7
370
    25
100
AcDbCircle
 10
81.2139512995
 20
61.1762286161
 30
0.0
 40
16.00000000000003
100
AcDbArc
 50
342.3140254855
 51
348.1416459683
  0
ARC
  5
15D
330
1F
100
AcDbEntity
  8
0
  6
Continuous
 62
     7
370
    25
100
AcDbCircle
 10
81.2139512995
 20
61.1762286161
 30
0.0
 40
15.50000000000001
100
AcDbArc
 50
342.3140254855
 51
348.1416459683
  0
LINE
  5
15E
330
1F
100
AcDbEntity
  8
0
  6
Continuous
 62
     7
370
    25
100
AcDbLine
 10
96.3363138876
 20
56.1151862575
 30
0.0
 11
94.9834260545
 21
54.7514959391
 31
0.0
  0
LINE
  5
15F
330
1F
100
AcDbEntity
  8
0
  6
Continuous
 62
     7
370
    25
100
AcDbLine
 10
94.6284695637
 20
55.1036406389
 30
0.0
 11
95.9813573967
 21
56.4673309573
 31
0.0
  0
LINE
  5
160
330
1F
100
AcDbEntity
  8
0
  6
Continuous
 62
     7
370
    25
100
AcDbLine
 10
66.4465452024
 20
65.885126275
 30
0.0
 11
66.0915887115
 21
66.2372709747
 31
0.0
  0
LINE
  5
161
330
1F
100
AcDbEntity
  8
0
  6
Continuous
 62
     7
370
    25
100
AcDbLine
 10
66.0915887115
 20
66.2372709747
 30
0.0
 11
67.4444765445
 21
67.6009612932
 31
0.0
  0
LINE
  5
162
330
1F
100
AcDbEntity
  8
0
  6
Continuous
 62
     7
370
    25
100
AcDbLine
 10
89.8270211598
 20
73.6938423097
 30
0.0
 11
91.684455535
 21
73.2040522371
 31
0.0
  0
LINE
  5
163
330
1F
100
AcDbEntity
  8
0
  6
Continuous
 62
     7
370
    25
100
AcDbLine
 10
91.684455535
 20
73.2040522371
 30
0.0
 11
91.5569675246
 21
72.7205785488
 31
0.0
  0
LINE
  5
164
330
1F
100
AcDbEntity
  8
0
  6
Continuous
 62
     7
370
    25
100
AcDbLine
 10
91.5569675246
 20
72.7205785488
 30
0.0
 11
89.6995331494
 21
73.2103686215
 31
0.0
  0
LINE
  5
165
330
1F
100
AcDbEntity
  8
0
  6
Continuous
 62
     7
370
    25
100
AcDbLine
 10
79.7657076225
 20
75.829836201
 30
0.0
 11
77.9082732473
 21
76.3196262737
 31
0.0
  0
LINE
  5
166
330
1F
100
AcDbEntity
  8
0
  6
Continuous
 62
     7
370
    25
100
AcDbLine
 10
77.9082732473
 20
76.3196262737
 30
0.0
 11
78.0357612577
 21
76.8030999619
 31
0.0
  0
LINE
  5
167
330
1F
100
AcDbEntity
  8
0
  6
Continuous
 62
     7
370
    25
100
AcDbLine
 10
78.0357612577
 20
76.8030999619
 30
0.0
 11
79.8931956329
 21
76.3133098892
 31
0.0
  0
ARC
  5
168
330
1F
100
AcDbEntity
  8
0
  6
Continuous
 62
     7
370
    25
100
AcDbCircle
 10
76.3877591002
 20
75.9057183851
 30
0.0
 40
0.5000000000000236
100
AcDbArc
 50
108.1416459683
 51
135.2278357269
  0
LINE
  5
169
330
1F
100
AcDbEntity
  8
0
  6
Continuous
 62
     7
370
    25
100
AcDbLine
 10
76.3877591002
 20
75.9057183851
 30
0.0
 11
76.2320754808
 21
76.3808632164
 31
0.0
  0
LINE
  5
16A
330
1F
100
AcDbEntity
  8
0
  6
Continuous
 62
     7
370
    25
100
AcDbLine
 10
76.0328026093
 20
76.2578630849
 30
0.0
 11
76.3877591002
 21
75.9057183851
 31
0.0
  0
LINE
  5
16B
330
1F
100
AcDbEntity
  8
0
  6
Continuous
 62
     7
370
    25
100
AcDbLine
 10
76.3877591002
 20
75.9057183851
 30
0.0
 11
75.0348712671
 21
74.5420280667
 31
0.0
  0
ARC
  5
16C
330
1F
100
AcDbEntity
  8
0
  6
Continuous
 62
     7
370
    25
100
AcDbCircle
 10
81.2139512995
 20
61.1762286161
 30
0.0
 40
15.50000000000004
100
AcDbArc
 50
102.3140254855
 51
108.1416459683
  0
LINE
  5
16D
330
1F
100
AcDbEntity
  8
0
  6
Continuous
 62
     7
370
    25
100
AcDbLine
 10
93.1802258866
 20
69.7572482238
 30
0.0
 11
92.6756793445
 21
71.6107286149
 31
0.0
  0
ARC
  5
16E
330
1F
100
AcDbEntity
  8
0
  6
Continuous
 62
     7
370
    25
100
AcDbCircle
 10
81.2139512995
 20
61.1762286161
 30
0.0
 40
15.50000000000003
100
AcDbArc
 50
42.3140254855
 51
48.1416459683
  0
ARC
  5
16F
330
1F
100
AcDbEntity
  8
0
  6
Continuous
 62
     7
370
    25
100
AcDbCircle
 10
81.2139512995
 20
61.1762286161
 30
0.0
 40
16.00000000000007
100
AcDbArc
 50
102.3140254855
 51
108.1416459683
  0
LINE
  5
170
330
1F
100
AcDbEntity
  8
0
  6
Continuous
 62
     7
370
    25
100
AcDbLine
 10
77.8016384714
 20
76.8081229723
 30
0.0
 11
77.9082732473
 21
76.3196262737
 31
0.0
  0
ARC
  5
171
330
1F
100
AcDbEntity
  8
0
  6
Continuous
 62
     7
370
    25
100
AcDbCircle
 10
66.4465452024
 20
65.885126275
 30
0.0
 40
0.5000000000000036
100
AcDbArc
 50
135.2278357269
 51
162.3140254855
  0
LINE
  5
172
330
1F
100
AcDbEntity
  8
0
  6
Continuous
 62
     7
370
    25
100
AcDbLine
 10
66.4465452024
 20
65.885126275
 30
0.0
 11
65.9701772638
 21
66.0370261994
 31
0.0
  0
ARC
  5
173
330
1F
100
AcDbEntity
  8
0
  6
Continuous
 62
     7
370
    25
100
AcDbCircle
 10
77.9082732473
 20
76.3196262737
 30
0.0
 40
0.5000000000000322
100
AcDbArc
 50
75.2278357269
 51
102.3140254855
  0
LINE
  5
174
330
1F
100
AcDbEntity
  8
0
  6
Continuous
 62
     7
370
    25
100
AcDbLine
 10
74.6799147763
 20
74.8941727665
 30
0.0
 11
76.0328026093
 21
76.2578630849
 31
0.0
  0
LINE
  5
175
330
1F
100
AcDbEntity
  8
0
  6
Continuous
 62
     7
370
    25
100
AcDbLine
 10
91.8906132093
 20
73.0929769338
 30
0.0
 11
91.5569675246
 21
72.7205785488
 31
0.0
  0
ARC
  5
176
330
1F
100
AcDbEntity
  8
0
  6
Continuous
 62
     7
370
    25
100
AcDbCircle
 10
91.5569675246
 20
72.7205785488
 30
0.0
 40
0.5000000000000225
100
AcDbArc
 50
48.1416459683
 51
75.2278357269
  0
ARC
  5
177
330
1F
100
AcDbEntity
  8
0
  6
Continuous
 62
     7
370
    25
100
AcDbCircle
 10
66.0447428751
 20
64.3613684524
 30
0.0
 40
0.4999999999999989
100
AcDbArc
 50
168.1416459683
 51
195.2278357269
  0
LINE
  5
178
330
1F
100
AcDbEntity
  8
0
  6
Continuous
 62
     7
370
    25
100
AcDbLine
 10
66.0447428751
 20
64.3613684524
 30
0.0
 11
65.5554135711
 21
64.4641148988
 31
0.0
  0
ARC
  5
179
330
1F
100
AcDbEntity
  8
0
  6
Continuous
 62
     7
370
    25
100
AcDbCircle
 10
81.2139512995
 20
61.1762286161
 30
0.0
 40
16.00000000000002
100
AcDbArc
 50
42.3140254855
 51
48.1416459683
  0
LINE
  5
17A
330
1F
100
AcDbEntity
  8
0
  6
Continuous
 62
     7
370
    25
100
AcDbLine
 10
93.0454125072
 20
71.947325389
 30
0.0
 11
92.6756793445
 21
71.6107286149
 31
0.0
  0
ARC
  5
17B
330
1F
100
AcDbEntity
  8
0
  6
Continuous
 62
     7
370
    25
100
AcDbCircle
 10
81.2139512995
 20
61.1762286161
 30
0.0
 40
16.00000000000003
100
AcDbArc
 50
162.3140254855
 51
168.1416459683
  0
LINE
  5
17C
330
1F
100
AcDbEntity
  8
0
  6
Continuous
 62
     7
370
    25
100
AcDbLine
 10
92.6756793445
 20
71.6107286149
 30
0.0
 11
93.1581238457
 21
71.7420576033
 31
0.0
  0
LINE
  5
17D
330
1F
100
AcDbEntity
  8
0
  6
Continuous
 62
     7
370
    25
100
AcDbLine
 10
93.1581238457
 20
71.7420576033
 30
0.0
 11
93.6626703879
 21
69.8885772122
 31
0.0
  0
ARC
  5
17E
330
1F
100
AcDbEntity
  8
0
  6
Continuous
 62
     7
370
    25
100
AcDbCircle
 10
92.6756793445
 20
71.6107286149
 30
0.0
 40
0.5000000000000129
100
AcDbArc
 50
15.2278357269
 51
42.3140254855
  0
ARC
  5
17F
330
1F
100
AcDbEntity
  8
0
  6
Continuous
 62
     7
370
    25
100
AcDbCircle
 10
81.2139512995
 20
296.0415063896
 30
0.0
 40
9.92500000000006
100
AcDbArc
 50
322.7469493593
 51
135.0085085188
  0
ARC
  5
180
330
1F
100
AcDbEntity
  8
0
  6
Continuous
 62
     7
370
    25
100
AcDbCircle
 10
81.2139512995
 20
296.0415063896
 30
0.0
 40
9.92500000000006
100
AcDbArc
 50
135.0085085188
 51
217.2530506407
  0
ARC
  5
181
330
1F
100
AcDbEntity
  8
0
  6
Continuous
 62
     7
370
    25
100
AcDbCircle
 10
81.2139512995
 20
296.0415063896
 30
0.0
 40
9.72500000000008
100
AcDbArc
 50
135.0085085188
 51
215.6748758017
  0
ARC
  5
182
330
1F
100
AcDbEntity
  8
0
  6
Continuous
 62
     7
370
    25
100
AcDbCircle
 10
81.2139512995
 20
296.0415063896
 30
0.0
 40
9.72500000000008
100
AcDbArc
 50
324.3251241983
 51
135.0085085188
  0
ARC
  5
183
330
1F
100
AcDbEntity
  8
0
  6
Continuous
 62
     7
370
    25
100
AcDbCircle
 10
81.2139512995
 20
296.0415063896
 30
0.0
 40
14.22500000000004
100
AcDbArc
 50
303.7355336397
 51
135.0085085188
  0
ARC
  5
184
330
1F
100
AcDbEntity
  8
0
  6
Continuous
 62
     7
370
    25
100
AcDbCircle
 10
81.2139512995
 20
296.0415063896
 30
0.0
 40
14.22500000000004
100
AcDbArc
 50
135.0085085188
 51
236.2644663603
  0
LINE
  5
185
330
1F
100
AcDbEntity
  8
0
  6
Continuous
 62
     7
370
    25
100
AcDbLine
 10
68.7494134394
 20
289.1868786876
 30
0.0
 11
68.536863557
 21
289.0699910558
 31
0.0
  0
SPLINE
  5
186
330
1F
100
AcDbEntity
  8
0
  6
Continuous
 62
     7
370
    25
100
AcDbSpline
210
0.0
220
0.0
230
1.0
 70
     8
 71
     3
 72
    11
 73
     7
 74
     0
 42
0.00000001
 43
0.00000001
 40
0.0
 40
0.0
 40
0.0
 40
0.0
 40
0.1446702591042513
 40
0.3907520209323659
 40
0.5962314811354612
 40
1.0
 40
1.0
 40
1.0
 40
1.0
 10
66.74960364780165
 20
295.736175927427
 30
0.0
 10
66.79859396606186
 20
295.4063228631223
 30
0.0
 10
66.93091602026165
 20
294.5153950920255
 30
0.0
 10
67.21846982693337
 20
293.1697616270163
 30
0.0
 10
67.71777554354006
 20
291.2601518692857
 30
0.0
 10
68.21039113065548
 20
289.9429462243859
 30
0.0
 10
68.53686355701227
 20
289.0699910557941
 30
0.0
  0
LINE
  5
187
330
1F
100
AcDbEntity
  8
0
  6
Continuous
 62
     7
370
    25
100
AcDbLine
 10
66.9921195517
 20
295.7412952384
 30
0.0
 11
66.7496036478
 21
295.7361759274
 31
0.0
  0
LINE
  5
188
330
1F
100
AcDbEntity
  8
0
  6
Continuous
 62
     7
370
    25
100
AcDbLine
 10
93.5900045528
 20
288.5485840255
 30
0.0
 11
93.382501953
 21
288.6742138073
 31
0.0
  0
LINE
  5
189
330
1F
100
AcDbEntity
  8
0
  6
Continuous
 62
     7
370
    25
100
AcDbLine
 10
69.045400646
 20
303.4087989719
 30
0.0
 11
68.8378980463
 21
303.5344287537
 31
0.0
  0
SPLINE
  5
18A
330
1F
100
AcDbEntity
  8
0
  6
Continuous
 62
     7
370
    25
100
AcDbSpline
210
0.0
220
0.0
230
1.0
 70
     8
 71
     3
 72
    11
 73
     7
 74
     0
 42
0.00000001
 43
0.00000001
 40
0.0
 40
0.0
 40
0.0
 40
0.0
 40
0.1446702591042548
 40
0.3907520209323661
 40
0.5962314811354799
 40
1.0
 40
1.0
 40
1.0
 40
1.0
 10
73.71735353686343
 20
308.4153336740969
 30
0.0
 10
73.4561875627896
 20
308.2079802817918
 30
0.0
 10
72.75078250718259
 20
307.6479221358253
 30
0.0
 10
71.72920664563802
 20
306.7260765017882
 30
0.0
 10
70.325088942432
 20
305.3388601880866
 30
0.0
 10
69.43066318549826
 20
304.2536397528946
 30
0.0
 10
68.83789804631127
 20
303.5344287537386
 30
0.0
  0
LINE
  5
18B
330
1F
100
AcDbEntity
  8
0
  6
Continuous
 62
     7
370
    25
100
AcDbLine
 10
73.7173535369
 20
308.4153336741
 30
0.0
 11
73.8430449421
 21
308.207868396
 31
0.0
  0
LINE
  5
18C
330
1F
100
AcDbEntity
  8
0
  6
Continuous
 62
     7
370
    25
100
AcDbLine
 10
93.8910390421
 20
303.0130217234
 30
0.0
 11
93.6784891597
 21
302.8961340916
 31
0.0
  0
SPLINE
  5
18D
330
1F
100
AcDbEntity
  8
0
  6
Continuous
 62
     7
370
    25
100
AcDbSpline
210
0.0
220
0.0
230
1.0
 70
     8
 71
     3
 72
    11
 73
     7
 74
     0
 42
0.00000001
 43
0.00000001
 40
0.0
 40
0.0
 40
0.0
 40
0.0
 40
0.1446702591042545
 40
0.390752020932363
 40
0.596231481135461
 40
1.0
 40
1.0
 40
1.0
 40
1.0
 10
95.67829895127626
 20
296.3468368518094
 30
0.0
 10
95.62930863301607
 20
296.6766899161141
 30
0.0
 10
95.49698657881626
 20
297.5676176872108
 30
0.0
 10
95.20943277214458
 20
298.91325115222
 30
0.0
 10
94.71012705553787
 20
300.8228609099506
 30
0.0
 10
94.21751146842247
 20
302.1400665548503
 30
0.0
 10
93.8910390420657
 20
303.0130217234421
 30
0.0
  0
LINE
  5
18E
330
1F
100
AcDbEntity
  8
0
  6
Continuous
 62
     7
370
    25
100
AcDbLine
 10
95.6782989513
 20
296.3468368518
 30
0.0
 11
95.4357830474
 21
296.3417175409
 31
0.0
  0
LINE
  5
18F
330
1F
100
AcDbEntity
  8
0
  6
Continuous
 62
     7
370
    25
100
AcDbLine
 10
81.5149857888
 20
310.5059440876
 30
0.0
 11
81.5099385062
 21
310.2634266739
 31
0.0
  0
SPLINE
  5
190
330
1F
100
AcDbEntity
  8
0
  6
Continuous
 62
     7
370
    25
100
AcDbSpline
210
0.0
220
0.0
230
1.0
 70
     8
 71
     3
 72
    11
 73
     7
 74
     0
 42
0.00000001
 43
0.00000001
 40
0.0
 40
0.0
 40
0.0
 40
0.0
 40
0.1446702591042539
 40
0.390752020932363
 40
0.5962314811354601
 40
1.0
 40
1.0
 40
1.0
 40
1.0
 10
88.18170118860074
 20
308.7206641362881
 30
0.0
 10
87.87154489626673
 20
308.8431638082876
 30
0.0
 10
87.0338177864599
 20
309.174033433418
 30
0.0
 10
85.72468811824372
 20
309.5978212643899
 30
0.0
 10
83.82126469843098
 20
310.1202147084191
 30
0.0
 10
82.43422335438184
 20
310.3521999181268
 30
0.0
 10
81.51498578883806
 20
310.5059440875626
 30
0.0
  0
LINE
  5
191
330
1F
100
AcDbEntity
  8
0
  6
Continuous
 62
     7
370
    25
100
AcDbLine
 10
88.1817011886
 20
308.7206641363
 30
0.0
 11
88.06487669
 21
308.5080795473
 31
0.0
  0
SPLINE
  5
192
330
1F
100
AcDbEntity
  8
0
  6
Continuous
 62
     7
370
    25
100
AcDbSpline
210
0.0
220
0.0
230
1.0
 70
     8
 71
     3
 72
     9
 73
     5
 74
     0
 42
0.00000001
 43
0.00000001
 40
0.0
 40
0.0
 40
0.0
 40
0.0
 40
0.5862283062032532
 40
1.0
 40
1.0
 40
1.0
 40
1.0
 10
93.8910390420657
 20
303.0130217234421
 30
0.0
 10
93.7642155268663
 20
303.3206855200019
 30
0.0
 10
93.5478774315246
 20
303.8455045935679
 30
0.0
 10
93.31099950267553
 20
304.3626686910876
 30
0.0
 10
93.2129861208326
 20
304.5766565556893
 30
0.0
  0
SPLINE
  5
193
330
1F
100
AcDbEntity
  8
0
  6
Continuous
 62
     7
370
    25
100
AcDbSpline
210
0.0
220
0.0
230
1.0
 70
     8
 71
     3
 72
     9
 73
     5
 74
     0
 42
0.00000001
 43
0.00000001
 40
0.0
 40
0.0
 40
0.0
 40
0.0
 40
0.5863847898283538
 40
1.0
 40
1.0
 40
1.0
 40
1.0
 10
89.74553733585891
 20
308.0430756497138
 30
0.0
 10
89.44194768187417
 20
308.1812629394175
 30
0.0
 10
88.92421656188107
 20
308.4169226838391
 30
0.0
 10
88.398956669417
 20
308.6317912352408
 30
0.0
 10
88.18170118860074
 20
308.7206641362881
 30
0.0
  0
ARC
  5
194
330
1F
100
AcDbEntity
  8
0
  6
Continuous
 62
     7
370
    25
100
AcDbCircle
 10
81.2139512995
 20
296.0415063896
 30
0.0
 40
14.72500000000005
100
AcDbArc
 50
35.4249929561
 51
54.5920240815
  0
SPLINE
  5
195
330
1F
100
AcDbEntity
  8
0
  6
Continuous
 62
     7
370
    25
100
AcDbSpline
210
0.0
220
0.0
230
1.0
 70
     8
 71
     3
 72
     9
 73
     5
 74
     0
 42
0.00000001
 43
0.00000001
 40
0.0
 40
0.0
 40
0.0
 40
0.0
 40
0.5862283062032789
 40
1.0
 40
1.0
 40
1.0
 40
1.0
 10
81.51498578883806
 20
310.5059440875626
 30
0.0
 10
81.18512936759284
 20
310.5499435998825
 30
0.0
 10
80.62245366982323
 20
310.6249988502933
 30
0.0
 10
80.0561374590213
 20
310.6784385950741
 30
0.0
 10
79.82181184125325
 20
310.7005504487881
 30
0.0
  0
SPLINE
  5
196
330
1F
100
AcDbEntity
  8
0
  6
Continuous
 62
     7
370
    25
100
AcDbSpline
210
0.0
220
0.0
230
1.0
 70
     8
 71
     3
 72
     9
 73
     5
 74
     0
 42
0.00000001
 43
0.00000001
 40
0.0
 40
0.0
 40
0.0
 40
0.0
 40
0.5863847898283724
 40
1.0
 40
1.0
 40
1.0
 40
1.0
 10
75.08608045317777
 20
309.4308612616916
 30
0.0
 10
74.81461192282185
 20
309.2370385538665
 30
0.0
 10
74.35165903750676
 20
308.9065001238337
 30
0.0
 10
73.90294746728651
 20
308.5590459890715
 30
0.0
 10
73.71735353686343
 20
308.4153336740969
 30
0.0
  0
ARC
  5
197
330
1F
100
AcDbEntity
  8
0
  6
Continuous
 62
     7
370
    25
100
AcDbCircle
 10
81.2139512995
 20
296.0415063896
 30
0.0
 40
14.72500000000002
100
AcDbArc
 50
95.4249929561
 51
114.5920240815
  0
SPLINE
  5
198
330
1F
100
AcDbEntity
  8
0
  6
Continuous
 62
     7
370
    25
100
AcDbSpline
210
0.0
220
0.0
230
1.0
 70
     8
 71
     3
 72
     9
 73
     5
 74
     0
 42
0.00000001
 43
0.00000001
 40
0.0
 40
0.0
 40
0.0
 40
0.0
 40
0.5862283062032673
 40
1.0
 40
1.0
 40
1.0
 40
1.0
 10
93.5900045527666
 20
288.5485840254976
 30
0.0
 10
93.79303745881242
 20
288.8122483097375
 30
0.0
 10
94.13937506124032
 20
289.2620121328927
 30
0.0
 10
94.4688133431932
 20
289.7257364856317
 30
0.0
 10
94.60512557911835
 20
289.9176124965194
 30
0.0
  0
SPLINE
  5
199
330
1F
100
AcDbEntity
  8
0
  6
Continuous
 62
     7
370
    25
100
AcDbSpline
210
0.0
220
0.0
230
1.0
 70
     8
 71
     3
 72
     9
 73
     5
 74
     0
 42
0.00000001
 43
0.00000001
 40
0.0
 40
0.0
 40
0.0
 40
0.0
 40
0.5863847898283563
 40
1.0
 40
1.0
 40
1.0
 40
1.0
 10
95.87340818222012
 20
294.6537207776403
 30
0.0
 10
95.84128705859129
 20
294.9857307751691
 30
0.0
 10
95.7865088239133
 20
295.5519289496237
 30
0.0
 10
95.70996050166944
 20
296.1142516357875
 30
0.0
 10
95.67829895127626
 20
296.3468368518094
 30
0.0
  0
ARC
  5
19A
330
1F
100
AcDbEntity
  8
0
  6
Continuous
 62
     7
370
    25
100
AcDbCircle
 10
81.2139512995
 20
296.0415063896
 30
0.0
 40
14.72500000000004
100
AcDbArc
 50
335.4249929561
 51
354.5920240815
  0
SPLINE
  5
19B
330
1F
100
AcDbEntity
  8
0
  6
Continuous
 62
     7
370
    25
100
AcDbSpline
210
0.0
220
0.0
230
1.0
 70
     8
 71
     3
 72
     9
 73
     5
 74
     0
 42
0.00000001
 43
0.00000001
 40
0.0
 40
0.0
 40
0.0
 40
0.0
 40
0.5862283062032917
 40
1.0
 40
1.0
 40
1.0
 40
1.0
 10
68.53686355701227
 20
289.0699910557941
 30
0.0
 10
68.66368707221169
 20
288.7623272592344
 30
0.0
 10
68.88002516755337
 20
288.2375081856684
 30
0.0
 10
69.11690309640241
 20
287.7203440881487
 30
0.0
 10
69.21491647824533
 20
287.506356223547
 30
0.0
  0
ARC
  5
19C
330
1F
100
AcDbEntity
  8
0
  6
Continuous
 62
     7
370
    25
100
AcDbCircle
 10
81.2139512995
 20
296.0415063896
 30
0.0
 40
14.72500000000006
100
AcDbArc
 50
215.4249929561
 51
234.5920240815
  0
SPLINE
  5
19D
330
1F
100
AcDbEntity
  8
0
  6
Continuous
 62
     7
370
    25
100
AcDbSpline
210
0.0
220
0.0
230
1.0
 70
     8
 71
     3
 72
     9
 73
     5
 74
     0
 42
0.00000001
 43
0.00000001
 40
0.0
 40
0.0
 40
0.0
 40
0.0
 40
0.5863847898283806
 40
1.0
 40
1.0
 40
1.0
 40
1.0
 10
66.55449441685779
 20
297.4292920015961
 30
0.0
 10
66.58661554048665
 20
297.0972820040673
 30
0.0
 10
66.64139377516467
 20
296.5310838296127
 30
0.0
 10
66.71794209740848
 20
295.9687611434488
 30
0.0
 10
66.74960364780165
 20
295.736175927427
 30
0.0
  0
ARC
  5
19E
330
1F
100
AcDbEntity
  8
0
  6
Continuous
 62
     7
370
    25
100
AcDbCircle
 10
81.2139512995
 20
296.0415063896
 30
0.0
 40
14.72500000000004
100
AcDbArc
 50
155.4249929561
 51
174.5920240815
  0
SPLINE
  5
19F
330
1F
100
AcDbEntity
  8
0
  6
Continuous
 62
     7
370
    25
100
AcDbSpline
210
0.0
220
0.0
230
1.0
 70
     8
 71
     3
 72
     9
 73
     5
 74
     0
 42
0.00000001
 43
0.00000001
 40
0.0
 40
0.0
 40
0.0
 40
0.0
 40
0.5862283062032893
 40
1.0
 40
1.0
 40
1.0
 40
1.0
 10
68.83789804631127
 20
303.5344287537386
 30
0.0
 10
68.63486514026549
 20
303.2707644694988
 30
0.0
 10
68.28852753783762
 20
302.8210006463435
 30
0.0
 10
67.95908925588475
 20
302.3572762936046
 30
0.0
 10
67.82277701995962
 20
302.165400282717
 30
0.0
  0
ARC
  5
1A0
330
1F
100
AcDbEntity
  8
0
  6
Continuous
 62
     7
370
    25
100
AcDbCircle
 10
81.8988540768
 20
310.4418621929
 30
0.0
 40
0.3891803588383042
100
AcDbArc
 50
131.8959768818
 51
170.5225973267
  0
SPLINE
  5
1A1
330
1F
100
AcDbEntity
  8
0
  6
Continuous
 62
     7
370
    25
100
AcDbSpline
210
0.0
220
0.0
230
1.0
 70
    24
 71
     3
 72
    12
 73
     8
 74
     0
 42
0.00000001
 43
0.00000001
 40
0.0
 40
0.0
 40
0.0
 40
0.0
 40
0.301382894562155
 40
0.4108442493795783
 40
0.6247185195336633
 40
0.6986171054378618
 40
0.9999999999999999
 40
0.9999999999999999
 40
0.9999999999999999
 40
0.9999999999999999
 10
81.63896710359
 20
310.7315518766493
 30
0.0
 10
82.29498735776868
 20
310.55587618972
 30
0.0
 10
83.18927218205307
 20
310.3163956251859
 30
0.0
 10
84.55562902216822
 20
309.9504988789365
 30
0.0
 10
85.4260727262507
 20
309.7174027288192
 30
0.0
 10
86.71419613913665
 20
309.3724561147979
 30
0.0
 10
87.53105258642347
 20
309.1537100980619
 30
0.0
 10
88.18705767417555
 20
308.9780384725506
 30
0.0
  0
ARC
  5
1A2
330
1F
100
AcDbEntity
  8
0
  6
Continuous
 62
     7
370
    25
100
AcDbCircle
 10
87.8171800459
 20
308.8569934736
 30
0.0
 40
0.3891803587963594
100
AcDbArc
 50
339.4944197087
 51
18.1210401579
  0
SPLINE
  5
1A3
330
1F
100
AcDbEntity
  8
0
  6
Continuous
 62
     7
370
    25
100
AcDbSpline
210
0.0
220
0.0
230
1.0
 70
    24
 71
     3
 72
    12
 73
     8
 74
     0
 42
0.00000001
 43
0.00000001
 40
0.0
 40
0.0
 40
0.0
 40
0.0
 40
0.3013828945620893
 40
0.4108442493795669
 40
0.6247185195336443
 40
0.698617105437864
 40
0.9999999999999999
 40
0.9999999999999999
 40
0.9999999999999999
 40
0.9999999999999999
 10
68.27949082299554
 20
289.0645581294206
 30
0.0
 10
68.10362030361428
 20
289.7205261784009
 30
0.0
 10
67.86387414407133
 20
290.6147398367173
 30
0.0
 10
67.49757160142784
 20
291.9809879440163
 30
0.0
 10
67.26421693691239
 20
292.8513623793746
 30
0.0
 10
66.91888776116134
 20
294.1393832851541
 30
0.0
 10
66.69989914498792
 20
294.9561747281176
 30
0.0
 10
66.52403269152882
 20
295.6121276118785
 30
0.0
  0
ARC
  5
1A4
330
1F
100
AcDbEntity
  8
0
  6
Continuous
 62
     7
370
    25
100
AcDbCircle
 10
66.8137995498
 20
295.352326689
 30
0.0
 40
0.3891803587970711
100
AcDbArc
 50
99.4944197088
 51
138.1210401579
  0
ARC
  5
1A5
330
1F
100
AcDbEntity
  8
0
  6
Continuous
 62
     7
370
    25
100
AcDbCircle
 10
68.4004259618
 20
289.4344716921
 30
0.0
 40
0.3891803587989207
100
AcDbArc
 50
251.8959768798
 51
290.5225973287
  0
ARC
  5
1A6
330
1F
100
AcDbEntity
  8
0
  6
Continuous
 62
     7
370
    25
100
AcDbCircle
 10
94.0274766373
 20
302.648541087
 30
0.0
 40
0.3891803588393412
100
AcDbArc
 50
71.8959768819
 51
110.5225973266
  0
SPLINE
  5
1A7
330
1F
100
AcDbEntity
  8
0
  6
Continuous
 62
     7
370
    25
100
AcDbSpline
210
0.0
220
0.0
230
1.0
 70
    24
 71
     3
 72
    12
 73
     8
 74
     0
 42
0.00000001
 43
0.00000001
 40
0.0
 40
0.0
 40
0.0
 40
0.0
 40
0.3013828945621516
 40
0.41084424937956
 40
0.6247185195336407
 40
0.6986171054378663
 40
1.0
 40
1.0
 40
1.0
 40
1.0
 10
94.14841177608238
 20
303.0184546498157
 30
0.0
 10
94.32428229546369
 20
302.3624866008352
 30
0.0
 10
94.56402845500665
 20
301.4682729425189
 30
0.0
 10
94.93033099765013
 20
300.10202483522
 30
0.0
 10
95.16368566216558
 20
299.2316503998617
 30
0.0
 10
95.5090148379166
 20
297.9436294940822
 30
0.0
 10
95.72800345409001
 20
297.1268380511187
 30
0.0
 10
95.90386990754914
 20
296.4708851673579
 30
0.0
  0
ARC
  5
1A8
330
1F
100
AcDbEntity
  8
0
  6
Continuous
 62
     7
370
    25
100
AcDbCircle
 10
95.6141030493
 20
296.7306860902
 30
0.0
 40
0.3891803587962299
100
AcDbArc
 50
279.4944197087
 51
318.1210401579
  0
ARC
  5
1A9
330
1F
100
AcDbEntity
  8
0
  6
Continuous
 62
     7
370
    25
100
AcDbCircle
 10
69.085328739
 20
303.8348274955
 30
0.0
 40
0.3891803588379885
100
AcDbArc
 50
191.8959768818
 51
230.5225973267
  0
SPLINE
  5
1AA
330
1F
100
AcDbEntity
  8
0
  6
Continuous
 62
     7
370
    25
100
AcDbSpline
210
0.0
220
0.0
230
1.0
 70
    24
 71
     3
 72
    12
 73
     8
 74
     0
 42
0.00000001
 43
0.00000001
 40
0.0
 40
0.0
 40
0.0
 40
0.0
 40
0.3013828945620948
 40
0.4108442493795591
 40
0.6247185195336501
 40
0.698617105437864
 40
0.9999999999999999
 40
0.9999999999999999
 40
0.9999999999999999
 40
0.9999999999999999
 10
68.70450662704653
 20
303.7546036164518
 30
0.0
 10
69.18465636184379
 20
304.2348959785029
 30
0.0
 10
69.83919502658523
 20
304.8896290722849
 30
0.0
 10
70.83924932405681
 20
305.8899804333346
 30
0.0
 10
71.47633836362402
 20
306.5272587185758
 30
0.0
 10
72.41913260075897
 20
307.4703330103338
 30
0.0
 10
73.01700043187242
 20
308.0683784365614
 30
0.0
 10
73.49713906616539
 20
308.5486596948108
 30
0.0
  0
ARC
  5
1AB
330
1F
100
AcDbEntity
  8
0
  6
Continuous
 62
     7
370
    25
100
AcDbCircle
 10
73.4170282962
 20
308.1678137729
 30
0.0
 40
0.3891803587952307
100
AcDbArc
 50
39.4944197087
 51
78.121040158
  0
SPLINE
  5
1AC
330
1F
100
AcDbEntity
  8
0
  6
Continuous
 62
     7
370
    25
100
AcDbSpline
210
0.0
220
0.0
230
1.0
 70
    24
 71
     3
 72
    12
 73
     8
 74
     0
 42
0.00000001
 43
0.00000001
 40
0.0
 40
0.0
 40
0.0
 40
0.0
 40
0.3013828945621544
 40
0.4108442493795549
 40
0.6247185195336477
 40
0.69861710543786
 40
1.0
 40
1.0
 40
1.0
 40
1.0
 10
93.72339597203133
 20
288.3284091627846
 30
0.0
 10
93.24324623723399
 20
287.8481168007333
 30
0.0
 10
92.58870757249257
 20
287.1933837069512
 30
0.0
 10
91.58865327502102
 20
286.1930323459017
 30
0.0
 10
90.95156423545392
 20
285.5557540606606
 30
0.0
 10
90.00876999831897
 20
284.6126797689025
 30
0.0
 10
89.41090216720553
 20
284.0146343426749
 30
0.0
 10
88.93076353291256
 20
283.5343530844255
 30
0.0
  0
ARC
  5
1AD
330
1F
100
AcDbEntity
  8
0
  6
Continuous
 62
     7
370
    25
100
AcDbCircle
 10
93.3425738601
 20
288.2481852838
 30
0.0
 40
0.3891803587976978
100
AcDbArc
 50
11.8959768797
 51
50.5225973288
  0
LINE
  5
1AE
330
1F
100
AcDbEntity
  8
0
  6
Continuous
 62
     7
370
    25
100
AcDbLine
 10
66.5240326915
 20
295.6121276119
 30
0.0
 11
66.0715507266
 21
297.2998107597
 31
0.0
  0
LINE
  5
1AF
330
1F
100
AcDbEntity
  8
0
  6
Continuous
 62
     7
370
    25
100
AcDbLine
 10
66.0715507266
 20
297.2998107597
 30
0.0
 11
66.5544944169
 21
297.4292920016
 31
0.0
  0
LINE
  5
1B0
330
1F
100
AcDbEntity
  8
0
  6
Continuous
 62
     7
370
    25
100
AcDbLine
 10
95.9038699075
 20
296.4708851674
 30
0.0
 11
96.3563518725
 21
294.7832020196
 31
0.0
  0
LINE
  5
1B1
330
1F
100
AcDbEntity
  8
0
  6
Continuous
 62
     7
370
    25
100
AcDbLine
 10
96.3563518725
 20
294.7832020196
 30
0.0
 11
95.8734081822
 21
294.6537207776
 31
0.0
  0
LINE
  5
1B2
330
1F
100
AcDbEntity
  8
0
  6
Continuous
 62
     7
370
    25
100
AcDbLine
 10
88.1870576742
 20
308.9780384726
 30
0.0
 11
89.8748751362
 21
308.5260577751
 31
0.0
  0
LINE
  5
1B3
330
1F
100
AcDbEntity
  8
0
  6
Continuous
 62
     7
370
    25
100
AcDbLine
 10
89.8748751362
 20
308.5260577751
 30
0.0
 11
89.7455373359
 21
308.0430756497
 31
0.0
  0
LINE
  5
1B4
330
1F
100
AcDbEntity
  8
0
  6
Continuous
 62
     7
370
    25
100
AcDbLine
 10
73.4971390662
 20
308.5486596948
 30
0.0
 11
74.7324745632
 21
309.7843621451
 31
0.0
  0
LINE
  5
1B5
330
1F
100
AcDbEntity
  8
0
  6
Continuous
 62
     7
370
    25
100
AcDbLine
 10
75.0860804532
 20
309.4308612617
 30
0.0
 11
74.7324745632
 21
309.7843621451
 31
0.0
  0
LINE
  5
1B6
330
1F
100
AcDbEntity
  8
0
  6
Continuous
 62
     7
370
    25
100
AcDbLine
 10
73.3301293731
 20
283.3488548563
 30
0.0
 11
72.5530274629
 21
283.5569550042
 31
0.0
  0
LINE
  5
1B7
330
1F
100
AcDbEntity
  8
0
  6
Continuous
 62
     7
370
    25
100
AcDbLine
 10
72.5530274629
 20
283.5569550042
 30
0.0
 11
72.6823652632
 21
284.0399371295
 31
0.0
  0
LINE
  5
1B8
330
1F
100
AcDbEntity
  8
0
  6
Continuous
 62
     7
370
    25
100
AcDbLine
 10
94.9587314691
 20
289.5641116131
 30
0.0
 11
93.723395972
 21
288.3284091628
 31
0.0
  0
LINE
  5
1B9
330
1F
100
AcDbEntity
  8
0
  6
Continuous
 62
     7
370
    25
100
AcDbLine
 10
94.6051255791
 20
289.9176124965
 30
0.0
 11
94.9587314691
 21
289.5641116131
 31
0.0
  0
LINE
  5
1BA
330
1F
100
AcDbEntity
  8
0
  6
Continuous
 62
     7
370
    25
100
AcDbLine
 10
79.8218118413
 20
310.7005504488
 30
0.0
 11
79.9511496416
 21
311.1835325741
 31
0.0
  0
LINE
  5
1BB
330
1F
100
AcDbEntity
  8
0
  6
Continuous
 62
     7
370
    25
100
AcDbLine
 10
79.9511496416
 20
311.1835325741
 30
0.0
 11
81.6389671036
 21
310.7315518766
 31
0.0
  0
LINE
  5
1BC
330
1F
100
AcDbEntity
  8
0
  6
Continuous
 62
     7
370
    25
100
AcDbLine
 10
68.731972788
 20
287.3768749816
 30
0.0
 11
68.279490823
 21
289.0645581294
 31
0.0
  0
LINE
  5
1BD
330
1F
100
AcDbEntity
  8
0
  6
Continuous
 62
     7
370
    25
100
AcDbLine
 10
68.731972788
 20
287.3768749816
 30
0.0
 11
69.2149164782
 21
287.5063562235
 31
0.0
  0
LINE
  5
1BE
330
1F
100
AcDbEntity
  8
0
  6
Continuous
 62
     7
370
    25
100
AcDbLine
 10
93.2129861208
 20
304.5766565557
 30
0.0
 11
93.6959298111
 21
304.7061377976
 31
0.0
  0
LINE
  5
1BF
330
1F
100
AcDbEntity
  8
0
  6
Continuous
 62
     7
370
    25
100
AcDbLine
 10
93.6959298111
 20
304.7061377976
 30
0.0
 11
94.1484117761
 21
303.0184546498
 31
0.0
  0
LINE
  5
1C0
330
1F
100
AcDbEntity
  8
0
  6
Continuous
 62
     7
370
    25
100
AcDbLine
 10
67.82277702
 20
302.1654002827
 30
0.0
 11
67.46917113
 21
302.5189011661
 31
0.0
  0
LINE
  5
1C1
330
1F
100
AcDbEntity
  8
0
  6
Continuous
 62
     7
370
    25
100
AcDbLine
 10
67.46917113
 20
302.5189011661
 30
0.0
 11
68.704506627
 21
303.7546036165
 31
0.0
  0
LINE
  5
1C2
330
1F
100
AcDbEntity
  8
0
  6
Continuous
 62
     7
370
    25
100
AcDbLine
 10
69.2149164782
 20
287.5063562235
 30
0.0
 11
69.7123642516
 21
285.6509580221
 31
0.0
  0
LINE
  5
1C3
330
1F
100
AcDbEntity
  8
0
  6
Continuous
 62
     7
370
    25
100
AcDbLine
 10
70.8268193999
 20
284.5368338215
 30
0.0
 11
72.6823652632
 21
284.0399371295
 31
0.0
  0
ARC
  5
1C4
330
1F
100
AcDbEntity
  8
0
  6
Continuous
 62
     7
370
    25
100
AcDbCircle
 10
81.2139512995
 20
296.0415063896
 30
0.0
 40
15.50000000000006
100
AcDbArc
 50
222.0946982774
 51
227.9223187602
  0
LINE
  5
1C5
330
1F
100
AcDbEntity
  8
0
  6
Continuous
 62
     7
370
    25
100
AcDbLine
 10
69.2294205613
 20
285.5214767801
 30
0.0
 11
68.731972788
 21
287.3768749816
 31
0.0
  0
LINE
  5
1C6
330
1F
100
AcDbEntity
  8
0
  6
Continuous
 62
     7
370
    25
100
AcDbLine
 10
69.2294205613
 20
285.5214767801
 30
0.0
 11
69.7123642516
 21
285.6509580221
 31
0.0
  0
LINE
  5
1C7
330
1F
100
AcDbEntity
  8
0
  6
Continuous
 62
     7
370
    25
100
AcDbLine
 10
69.3413453146
 20
285.3157790425
 30
0.0
 11
69.7123642516
 21
285.6509580221
 31
0.0
  0
ARC
  5
1C8
330
1F
100
AcDbEntity
  8
0
  6
Continuous
 62
     7
370
    25
100
AcDbCircle
 10
69.7123642516
 20
285.6509580221
 30
0.0
 40
0.4999999999999967
100
AcDbArc
 50
195.0085085188
 51
222.0946982774
  0
ARC
  5
1C9
330
1F
100
AcDbEntity
  8
0
  6
Continuous
 62
     7
370
    25
100
AcDbCircle
 10
81.2139512995
 20
296.0415063896
 30
0.0
 40
16.00000000000004
100
AcDbArc
 50
222.0946982774
 51
227.9223187602
  0
LINE
  5
1CA
330
1F
100
AcDbEntity
  8
0
  6
Continuous
 62
     7
370
    25
100
AcDbLine
 10
70.491750629
 20
284.1657153515
 30
0.0
 11
70.8268193999
 21
284.5368338215
 31
0.0
  0
ARC
  5
1CB
330
1F
100
AcDbEntity
  8
0
  6
Continuous
 62
     7
370
    25
100
AcDbCircle
 10
77.966265978
 20
311.1974471408
 30
0.0
 40
0.5000000000000524
100
AcDbArc
 50
75.0085085188
 51
102.0946982774
  0
LINE
  5
1CC
330
1F
100
AcDbEntity
  8
0
  6
Continuous
 62
     7
370
    25
100
AcDbLine
 10
77.966265978
 20
311.1974471408
 30
0.0
 11
78.0956037783
 21
311.6804292661
 31
0.0
  0
LINE
  5
1CD
330
1F
100
AcDbEntity
  8
0
  6
Continuous
 62
     7
370
    25
100
AcDbLine
 10
77.966265978
 20
311.1974471408
 30
0.0
 11
77.8615019353
 21
311.6863484553
 31
0.0
  0
LINE
  5
1CE
330
1F
100
AcDbEntity
  8
0
  6
Continuous
 62
     7
370
    25
100
AcDbLine
 10
93.2129861208
 20
304.5766565557
 30
0.0
 11
92.7155383475
 21
306.4320547572
 31
0.0
  0
LINE
  5
1CF
330
1F
100
AcDbEntity
  8
0
  6
Continuous
 62
     7
370
    25
100
AcDbLine
 10
91.6010831992
 20
307.5461789577
 30
0.0
 11
89.7455373359
 21
308.0430756497
 31
0.0
  0
ARC
  5
1D0
330
1F
100
AcDbEntity
  8
0
  6
Continuous
 62
     7
370
    25
100
AcDbCircle
 10
81.2139512995
 20
296.0415063896
 30
0.0
 40
15.50000000000004
100
AcDbArc
 50
42.0946982774
 51
47.9223187602
  0
ARC
  5
1D1
330
1F
100
AcDbEntity
  8
0
  6
Continuous
 62
     7
370
    25
100
AcDbCircle
 10
81.2139512995
 20
296.0415063896
 30
0.0
 40
15.50000000000004
100
AcDbArc
 50
102.0946982774
 51
107.9223187602
  0
LINE
  5
1D2
330
1F
100
AcDbEntity
  8
0
  6
Continuous
 62
     7
370
    25
100
AcDbLine
 10
76.4441785431
 20
310.7893627712
 30
0.0
 11
76.2903149058
 21
311.2651000738
 31
0.0
  0
ARC
  5
1D3
330
1F
100
AcDbEntity
  8
0
  6
Continuous
 62
     7
370
    25
100
AcDbCircle
 10
81.2139512995
 20
296.0415063896
 30
0.0
 40
16.00000000000006
100
AcDbArc
 50
102.0946982774
 51
107.9223187602
  0
LINE
  5
1D4
330
1F
100
AcDbEntity
  8
0
  6
Continuous
 62
     7
370
    25
100
AcDbLine
 10
76.4441785431
 20
310.7893627712
 30
0.0
 11
75.0860804532
 21
309.4308612617
 31
0.0
  0
LINE
  5
1D5
330
1F
100
AcDbEntity
  8
0
  6
Continuous
 62
     7
370
    25
100
AcDbLine
 10
74.7324745632
 20
309.7843621451
 30
0.0
 11
76.0905726532
 21
311.1428636546
 31
0.0
  0
LINE
  5
1D6
330
1F
100
AcDbEntity
  8
0
  6
Continuous
 62
     7
370
    25
100
AcDbLine
 10
76.4441785431
 20
310.7893627712
 30
0.0
 11
76.0905726532
 21
311.1428636546
 31
0.0
  0
LINE
  5
1D7
330
1F
100
AcDbEntity
  8
0
  6
Continuous
 62
     7
370
    25
100
AcDbLine
 10
79.8218118413
 20
310.7005504488
 30
0.0
 11
77.966265978
 21
311.1974471408
 31
0.0
  0
LINE
  5
1D8
330
1F
100
AcDbEntity
  8
0
  6
Continuous
 62
     7
370
    25
100
AcDbLine
 10
78.0956037783
 20
311.6804292661
 30
0.0
 11
79.9511496416
 21
311.1835325741
 31
0.0
  0
LINE
  5
1D9
330
1F
100
AcDbEntity
  8
0
  6
Continuous
 62
     7
370
    25
100
AcDbLine
 10
72.5530274629
 20
283.5569550042
 30
0.0
 11
70.6974815996
 21
284.0538516961
 31
0.0
  0
LINE
  5
1DA
330
1F
100
AcDbEntity
  8
0
  6
Continuous
 62
     7
370
    25
100
AcDbLine
 10
70.6974815996
 20
284.0538516961
 30
0.0
 11
70.8268193999
 21
284.5368338215
 31
0.0
  0
ARC
  5
1DB
330
1F
100
AcDbEntity
  8
0
  6
Continuous
 62
     7
370
    25
100
AcDbCircle
 10
70.8268193999
 20
284.5368338215
 30
0.0
 40
0.4999999999999857
100
AcDbArc
 50
227.9223187602
 51
255.0085085188
  0
ARC
  5
1DC
330
1F
100
AcDbEntity
  8
0
  6
Continuous
 62
     7
370
    25
100
AcDbCircle
 10
76.4441785431
 20
310.7893627712
 30
0.0
 40
0.4999999999999722
100
AcDbArc
 50
107.9223187602
 51
135.0085085188
  0
LINE
  5
1DD
330
1F
100
AcDbEntity
  8
0
  6
Continuous
 62
     7
370
    25
100
AcDbLine
 10
89.8748751362
 20
308.5260577751
 30
0.0
 11
91.7304209995
 21
308.0291610831
 31
0.0
  0
LINE
  5
1DE
330
1F
100
AcDbEntity
  8
0
  6
Continuous
 62
     7
370
    25
100
AcDbLine
 10
91.7304209995
 20
308.0291610831
 30
0.0
 11
91.6010831992
 21
307.5461789577
 31
0.0
  0
ARC
  5
1DF
330
1F
100
AcDbEntity
  8
0
  6
Continuous
 62
     7
370
    25
100
AcDbCircle
 10
81.2139512995
 20
296.0415063896
 30
0.0
 40
16.00000000000004
100
AcDbArc
 50
342.0946982774
 51
347.9223187602
  0
LINE
  5
1E0
330
1F
100
AcDbEntity
  8
0
  6
Continuous
 62
     7
370
    25
100
AcDbLine
 10
96.4390066487
 20
291.1223916711
 30
0.0
 11
95.9632236691
 21
291.276114006
 31
0.0
  0
ARC
  5
1E1
330
1F
100
AcDbEntity
  8
0
  6
Continuous
 62
     7
370
    25
100
AcDbCircle
 10
81.2139512995
 20
296.0415063896
 30
0.0
 40
15.50000000000003
100
AcDbArc
 50
342.0946982774
 51
347.9223187602
  0
LINE
  5
1E2
330
1F
100
AcDbEntity
  8
0
  6
Continuous
 62
     7
370
    25
100
AcDbLine
 10
96.3708559556
 20
292.7983225762
 30
0.0
 11
96.8597883638
 21
292.6937037435
 31
0.0
  0
LINE
  5
1E3
330
1F
100
AcDbEntity
  8
0
  6
Continuous
 62
     7
370
    25
100
AcDbLine
 10
92.7155383475
 20
306.4320547572
 30
0.0
 11
93.1984820378
 21
306.5615359991
 31
0.0
  0
LINE
  5
1E4
330
1F
100
AcDbEntity
  8
0
  6
Continuous
 62
     7
370
    25
100
AcDbLine
 10
93.1984820378
 20
306.5615359991
 30
0.0
 11
93.6959298111
 21
304.7061377976
 31
0.0
  0
ARC
  5
1E5
330
1F
100
AcDbEntity
  8
0
  6
Continuous
 62
     7
370
    25
100
AcDbCircle
 10
95.9632236691
 20
291.276114006
 30
0.0
 40
0.5000000000000253
100
AcDbArc
 50
315.0085085188
 51
342.0946982774
  0
LINE
  5
1E6
330
1F
100
AcDbEntity
  8
0
  6
Continuous
 62
     7
370
    25
100
AcDbLine
 10
95.9632236691
 20
291.276114006
 30
0.0
 11
96.316829559
 21
290.9226131226
 31
0.0
  0
ARC
  5
1E7
330
1F
100
AcDbEntity
  8
0
  6
Continuous
 62
     7
370
    25
100
AcDbCircle
 10
96.3708559556
 20
292.7983225762
 30
0.0
 40
0.5000000000000261
100
AcDbArc
 50
347.9223187602
 51
15.0085085188
  0
LINE
  5
1E8
330
1F
100
AcDbEntity
  8
0
  6
Continuous
 62
     7
370
    25
100
AcDbLine
 10
96.8537996459
 20
292.9278038181
 30
0.0
 11
96.3708559556
 21
292.7983225762
 31
0.0
  0
LINE
  5
1E9
330
1F
100
AcDbEntity
  8
0
  6
Continuous
 62
     7
370
    25
100
AcDbLine
 10
94.6051255791
 20
289.9176124965
 30
0.0
 11
95.9632236691
 21
291.276114006
 31
0.0
  0
LINE
  5
1EA
330
1F
100
AcDbEntity
  8
0
  6
Continuous
 62
     7
370
    25
100
AcDbLine
 10
96.316829559
 20
290.9226131226
 30
0.0
 11
94.9587314691
 21
289.5641116131
 31
0.0
  0
LINE
  5
1EB
330
1F
100
AcDbEntity
  8
0
  6
Continuous
 62
     7
370
    25
100
AcDbLine
 10
96.3563518725
 20
294.7832020196
 30
0.0
 11
96.8537996459
 21
292.9278038181
 31
0.0
  0
LINE
  5
1EC
330
1F
100
AcDbEntity
  8
0
  6
Continuous
 62
     7
370
    25
100
AcDbLine
 10
96.3708559556
 20
292.7983225762
 30
0.0
 11
95.8734081822
 21
294.6537207776
 31
0.0
  0
LINE
  5
1ED
330
1F
100
AcDbEntity
  8
0
  6
Continuous
 62
     7
370
    25
100
AcDbLine
 10
67.82277702
 20
302.1654002827
 30
0.0
 11
66.46467893
 21
300.8068987732
 31
0.0
  0
LINE
  5
1EE
330
1F
100
AcDbEntity
  8
0
  6
Continuous
 62
     7
370
    25
100
AcDbLine
 10
66.46467893
 20
300.8068987732
 30
0.0
 11
66.11107304
 21
301.1603996566
 31
0.0
  0
LINE
  5
1EF
330
1F
100
AcDbEntity
  8
0
  6
Continuous
 62
     7
370
    25
100
AcDbLine
 10
66.11107304
 20
301.1603996566
 30
0.0
 11
67.46917113
 21
302.5189011661
 31
0.0
  0
LINE
  5
1F0
330
1F
100
AcDbEntity
  8
0
  6
Continuous
 62
     7
370
    25
100
AcDbLine
 10
91.6010831992
 20
307.5461789577
 30
0.0
 11
91.9361519701
 21
307.9172974277
 31
0.0
  0
ARC
  5
1F1
330
1F
100
AcDbEntity
  8
0
  6
Continuous
 62
     7
370
    25
100
AcDbCircle
 10
81.2139512995
 20
296.0415063896
 30
0.0
 40
16.00000000000002
100
AcDbArc
 50
42.0946982774
 51
47.9223187602
  0
LINE
  5
1F2
330
1F
100
AcDbEntity
  8
0
  6
Continuous
 62
     7
370
    25
100
AcDbLine
 10
92.7155383475
 20
306.4320547572
 30
0.0
 11
93.0865572845
 21
306.7672337368
 31
0.0
  0
ARC
  5
1F3
330
1F
100
AcDbEntity
  8
0
  6
Continuous
 62
     7
370
    25
100
AcDbCircle
 10
91.6010831992
 20
307.5461789577
 30
0.0
 40
0.4999999999999499
100
AcDbArc
 50
47.9223187602
 51
75.0085085188
  0
LINE
  5
1F4
330
1F
100
AcDbEntity
  8
0
  6
Continuous
 62
     7
370
    25
100
AcDbLine
 10
66.46467893
 20
300.8068987732
 30
0.0
 11
65.9888959503
 21
300.9606211081
 31
0.0
  0
ARC
  5
1F5
330
1F
100
AcDbEntity
  8
0
  6
Continuous
 62
     7
370
    25
100
AcDbCircle
 10
66.46467893
 20
300.8068987732
 30
0.0
 40
0.5000000000000563
100
AcDbArc
 50
135.0085085188
 51
162.0946982774
  0
LINE
  5
1F6
330
1F
100
AcDbEntity
  8
0
  6
Continuous
 62
     7
370
    25
100
AcDbLine
 10
66.0715507266
 20
297.2998107597
 30
0.0
 11
65.5741029532
 21
299.1552089612
 31
0.0
  0
LINE
  5
1F7
330
1F
100
AcDbEntity
  8
0
  6
Continuous
 62
     7
370
    25
100
AcDbLine
 10
65.5741029532
 20
299.1552089612
 30
0.0
 11
66.0570466435
 21
299.2846902031
 31
0.0
  0
LINE
  5
1F8
330
1F
100
AcDbEntity
  8
0
  6
Continuous
 62
     7
370
    25
100
AcDbLine
 10
66.0570466435
 20
299.2846902031
 30
0.0
 11
66.5544944169
 21
297.4292920016
 31
0.0
  0
ARC
  5
1F9
330
1F
100
AcDbEntity
  8
0
  6
Continuous
 62
     7
370
    25
100
AcDbCircle
 10
92.7155383475
 20
306.4320547572
 30
0.0
 40
0.5000000000000372
100
AcDbArc
 50
15.0085085188
 51
42.0946982774
  0
LINE
  5
1FA
330
1F
100
AcDbEntity
  8
0
  6
Continuous
 62
     7
370
    25
100
AcDbLine
 10
65.5681142352
 20
299.3893090358
 30
0.0
 11
66.0570466435
 21
299.2846902031
 31
0.0
  0
ARC
  5
1FB
330
1F
100
AcDbEntity
  8
0
  6
Continuous
 62
     7
370
    25
100
AcDbCircle
 10
66.0570466435
 20
299.2846902031
 30
0.0
 40
0.500000000000054
100
AcDbArc
 50
167.9223187602
 51
195.0085085188
  0
ARC
  5
1FC
330
1F
100
AcDbEntity
  8
0
  6
Continuous
 62
     7
370
    25
100
AcDbCircle
 10
81.2139512995
 20
296.0415063896
 30
0.0
 40
15.50000000000001
100
AcDbArc
 50
162.0946982774
 51
167.9223187602
  0
ARC
  5
1FD
330
1F
100
AcDbEntity
  8
0
  6
Continuous
 62
     7
370
    25
100
AcDbCircle
 10
81.2139512995
 20
296.0415063896
 30
0.0
 40
16.00000000000006
100
AcDbArc
 50
162.0946982774
 51
167.9223187602
  0
LINE
  5
1FE
330
1F
100
AcDbEntity
  8
0
  6
Continuous
 62
     7
370
    25
100
AcDbLine
 10
81.3116634852
 20
75.9392716558
 30
0.0
 11
81.3116634852
 21
76.6760911164
 31
0.0
  0
LINE
  5
1FF
330
1F
100
AcDbEntity
  8
0
  6
Continuous
 62
     7
370
    25
100
AcDbLine
 10
81.3116631842
 20
76.6760911083
 30
0.0
 11
81.3022162223
 21
76.2351188839
 31
0.0
  0
SPLINE
  5
200
330
1F
100
AcDbEntity
  8
0
  6
Continuous
 62
     7
370
    25
100
AcDbSpline
210
0.0
220
0.0
230
1.0
 70
     8
 71
     3
 72
    10
 73
     6
 74
     0
 42
0.00000001
 43
0.00000001
 40
0.0
 40
0.0
 40
0.0
 40
0.0
 40
0.118550775657315
 40
0.5946989684752633
 40
1.0
 40
1.0
 40
1.0
 40
1.0
 10
87.72846158925886
 20
74.24721510089161
 30
0.0
 10
87.8445657705959
 20
74.25236505043931
 30
0.0
 10
88.42699162562698
 20
74.27819929459959
 30
0.0
 10
88.96656769619776
 20
74.32512750386078
 30
0.0
 10
89.04413244943254
 20
74.36285954580202
 30
0.0
 10
89.07979766261536
 20
74.3802091957852
 30
0.0
  0
SPLINE
  5
201
330
1F
100
AcDbEntity
  8
0
  6
Continuous
 62
     7
370
    25
100
AcDbSpline
210
0.0
220
0.0
230
1.0
 70
     8
 71
     3
 72
    10
 73
     6
 74
     0
 42
0.00000001
 43
0.00000001
 40
0.0
 40
0.0
 40
0.0
 40
0.0
 40
0.110434294856123
 40
0.5615510453397761
 40
1.0
 40
1.0
 40
1.0
 40
1.0
 10
73.3784390207481
 20
75.0961593892269
 30
0.0
 10
73.37044587876834
 20
75.1011282242223
 30
0.0
 10
73.32980128335403
 20
75.1263944197407
 30
0.0
 10
73.82702020947782
 20
75.17458282133624
 30
0.0
 10
74.62601106035463
 20
75.21625175645511
 30
0.0
 10
75.01981750019863
 20
75.23678953229229
 30
0.0
  0
LINE
  5
202
330
1F
100
AcDbEntity
  8
0
  6
Continuous
 62
     7
370
    25
100
AcDbLine
 10
73.4070860744
 20
73.4744292923
 30
0.0
 11
73.3139512995
 21
73.4984508384
 31
0.0
  0
SPLINE
  5
203
330
1F
100
AcDbEntity
  8
0
  6
Continuous
 62
     7
370
    25
100
AcDbSpline
210
0.0
220
0.0
230
1.0
 70
     8
 71
     3
 72
    10
 73
     6
 74
     0
 42
0.00000001
 43
0.00000001
 40
0.0
 40
0.0
 40
0.0
 40
0.0
 40
0.20048809805226
 40
0.8241881115114759
 40
1.0
 40
1.0
 40
1.0
 40
1.0
 10
88.27443008633483
 20
74.103247726626
 30
0.0
 10
88.3922960389815
 20
74.11008185882362
 30
0.0
 10
88.87683211801611
 20
74.13817634704759
 30
0.0
 10
89.14630361311046
 20
74.17242993212759
 30
0.0
 10
89.06989154697311
 20
74.19847168176801
 30
0.0
 10
89.05308860805727
 20
74.20419823714849
 30
0.0
  0
SPLINE
  5
204
330
1F
100
AcDbEntity
  8
0
  6
Continuous
 62
     7
370
    25
100
AcDbSpline
210
0.0
220
0.0
230
1.0
 70
     8
 71
     3
 72
    11
 73
     7
 74
     0
 42
0.00000001
 43
0.00000001
 40
0.0
 40
0.0
 40
0.0
 40
0.0
 40
0.1490643572678564
 40
0.5280439074052643
 40
0.9131337864710696
 40
1.0
 40
1.0
 40
1.0
 40
1.0
 10
73.40708607443625
 20
74.88554040341364
 30
0.0
 10
73.36711616619513
 20
74.89355497393075
 30
0.0
 10
73.22552721151068
 20
74.9219456986458
 30
0.0
 10
73.56169331446661
 20
74.97056011644473
 30
0.0
 10
74.12621675761932
 20
75.01994032508449
 30
0.0
 10
74.7241740362385
 20
75.0450922958669
 30
0.0
 10
74.83423148747329
 20
75.04972165969743
 30
0.0
  0
SPLINE
  5
205
330
1F
100
AcDbEntity
  8
0
  6
Continuous
 62
     7
370
    25
100
AcDbSpline
210
0.0
220
0.0
230
1.0
 70
     8
 71
     3
 72
    13
 73
     9
 74
     0
 42
0.00000001
 43
0.00000001
 40
0.0
 40
0.0
 40
0.0
 40
0.0
 40
0.0526339931071272
 40
0.2751597105632321
 40
0.4930358497599114
 40
0.7158008053949537
 40
0.9375048739253206
 40
1.0
 40
1.0
 40
1.0
 40
1.0
 10
83.61507719202433
 20
75.33188052423853
 30
0.0
 10
83.78557568603057
 20
75.33688678847928
 30
0.0
 10
84.67690681051391
 20
75.36305851017747
 30
0.0
 10
86.08141814468169
 20
75.41145810787472
 30
0.0
 10
87.65708891077603
 20
75.47018870629616
 30
0.0
 10
88.679268742932
 20
75.5350070260282
 30
0.0
 10
89.1510337165922
 20
75.5835228398917
 30
0.0
 10
89.07074419553354
 20
75.60957951154343
 30
0.0
 10
89.05308860805727
 20
75.61530934825959
 30
0.0
  0
SPLINE
  5
206
330
1F
100
AcDbEntity
  8
0
  6
Continuous
 62
     7
370
    25
100
AcDbSpline
210
0.0
220
0.0
230
1.0
 70
     8
 71
     3
 72
    11
 73
     7
 74
     0
 42
0.00000001
 43
0.00000001
 40
0.0
 40
0.0
 40
0.0
 40
0.0
 40
0.2845442301021893
 40
0.5736761980914795
 40
0.8567532726949784
 40
0.9999999999999999
 40
0.9999999999999999
 40
0.9999999999999999
 40
0.9999999999999999
 10
73.31395129953896
 20
76.32067306057789
 30
0.0
 10
73.37173370647868
 20
76.3409413319272
 30
0.0
 10
73.48823015245426
 20
76.3818046621918
 30
0.0
 10
74.43709817320124
 20
76.44749815410573
 30
0.0
 10
75.57181341812255
 20
76.49700232887699
 30
0.0
 10
76.50038125481277
 20
76.5283121559765
 30
0.0
 10
76.81238425134057
 20
76.53883239961392
 30
0.0
  0
SPLINE
  5
207
330
1F
100
AcDbEntity
  8
0
  6
Continuous
 62
     7
370
    25
100
AcDbSpline
210
0.0
220
0.0
230
1.0
 70
     8
 71
     3
 72
     9
 73
     5
 74
     0
 42
0.00000001
 43
0.00000001
 40
0.0
 40
0.0
 40
0.0
 40
0.0
 40
0.4191038007461112
 40
1.0
 40
1.0
 40
1.0
 40
1.0
 10
78.7942828058163
 20
76.60308410718119
 30
0.0
 10
79.13266433240308
 20
76.61365334781422
 30
0.0
 10
79.94005745550139
 20
76.63887201825864
 30
0.0
 10
80.80767022434596
 20
76.6624150503993
 30
0.0
 10
81.31166318419191
 20
76.67609110828869
 30
0.0
  0
SPLINE
  5
208
330
1F
100
AcDbEntity
  8
0
  6
Continuous
 62
     7
370
    25
100
AcDbSpline
210
0.0
220
0.0
230
1.0
 70
     8
 71
     3
 72
    10
 73
     6
 74
     0
 42
0.00000001
 43
0.00000001
 40
0.0
 40
0.0
 40
0.0
 40
0.0
 40
0.3784320096400046
 40
0.8269845572509702
 40
1.0
 40
1.0
 40
1.0
 40
1.0
 10
85.05829913908914
 20
74.9513148408443
 30
0.0
 10
85.72627432456142
 20
74.97714922930967
 30
0.0
 10
87.18599535486723
 20
75.03360491953315
 30
0.0
 10
88.26048506569347
 20
75.10745877902797
 30
0.0
 10
88.20863571218132
 20
75.15004048026528
 30
0.0
 10
88.19420327841173
 20
75.1618932333137
 30
0.0
  0
SPLINE
  5
209
330
1F
100
AcDbEntity
  8
0
  6
Continuous
 62
     7
370
    25
100
AcDbSpline
210
0.0
220
0.0
230
1.0
 70
     8
 71
     3
 72
    10
 73
     6
 74
     0
 42
0.00000001
 43
0.00000001
 40
0.0
 40
0.0
 40
0.0
 40
0.0
 40
0.5587716290983472
 40
0.9354579502773704
 40
1.0
 40
1.0
 40
1.0
 40
1.0
 10
74.10655251891885
 20
75.87981902701091
 30
0.0
 10
74.21066724005924
 20
75.90913634099664
 30
0.0
 10
74.38496911681852
 20
75.95821741995728
 30
0.0
 10
75.20303717036408
 20
76.01327415240647
 30
0.0
 10
75.73761470304895
 20
76.03583882828649
 30
0.0
 10
75.81581169120871
 20
76.03913954630166
 30
0.0
  0
LINE
  5
20A
330
1F
100
AcDbEntity
  8
0
  6
Continuous
 62
     7
370
    25
100
AcDbLine
 10
79.7871493648
 20
76.1874555206
 30
0.0
 11
81.30221313
 21
76.2351187912
 31
0.0
  0
SPLINE
  5
20B
330
1F
100
AcDbEntity
  8
0
  6
Continuous
 62
     7
370
    25
100
AcDbSpline
210
0.0
220
0.0
230
1.0
 70
     8
 71
     3
 72
    11
 73
     7
 74
     0
 42
0.00000001
 43
0.00000001
 40
0.0
 40
0.0
 40
0.0
 40
0.0
 40
0.1645023907646333
 40
0.1770963833301178
 40
0.7192827891772104
 40
1.0
 40
1.0
 40
1.0
 40
1.0
 10
86.21401571749122
 20
74.64656194378361
 30
0.0
 10
86.4651797295169
 20
74.65598415269947
 30
0.0
 10
86.73557238427213
 20
74.66612770814704
 30
0.0
 10
87.52086594785318
 20
74.70737858937309
 30
0.0
 10
88.3069458840991
 20
74.75904657110661
 30
0.0
 10
88.22606241765934
 20
74.80552121988315
 30
0.0
 10
88.19847063091702
 20
74.82137512247172
 30
0.0
  0
SPLINE
  5
20C
330
1F
100
AcDbEntity
  8
0
  6
Continuous
 62
     7
370
    25
100
AcDbSpline
210
0.0
220
0.0
230
1.0
 70
     8
 71
     3
 72
     9
 73
     5
 74
     0
 42
0.00000001
 43
0.00000001
 40
0.0
 40
0.0
 40
0.0
 40
0.0
 40
0.6294453738587871
 40
0.9999999999999999
 40
0.9999999999999999
 40
0.9999999999999999
 40
0.9999999999999999
 10
74.17805567685306
 20
75.53917935846522
 30
0.0
 10
74.23150911672907
 20
75.56474715920616
 30
0.0
 10
74.31643060808634
 20
75.60536672970878
 30
0.0
 10
75.13667360405563
 20
75.64592238275495
 30
0.0
 10
75.44061844077198
 20
75.66095046760735
 30
0.0
  0
ARC
  5
20D
330
1F
100
AcDbEntity
  8
0
  6
Continuous
 62
     7
370
    25
100
AcDbCircle
 10
81.2139512995
 20
296.0415063896
 30
0.0
 40
7.900000000000006
100
AcDbArc
 50
0.0
 51
180.0
  0
SPLINE
  5
20E
330
1F
100
AcDbEntity
  8
0
  6
Continuous
 62
     7
370
    25
100
AcDbSpline
210
0.0
220
0.0
230
1.0
 70
     8
 71
     3
 72
     9
 73
     5
 74
     0
 42
0.00000001
 43
0.00000001
 40
0.0
 40
0.0
 40
0.0
 40
0.0
 40
0.7231137779630502
 40
1.0
 40
1.0
 40
1.0
 40
1.0
 10
89.11294070908005
 20
296.1678642463497
 30
0.0
 10
89.06990579776581
 20
296.9152172618528
 30
0.0
 10
89.01039246442089
 20
297.9487379031113
 30
0.0
 10
88.5432865041651
 20
298.8578225248054
 30
0.0
 10
88.41395129953894
 20
299.1095355312182
 30
0.0
  0
ARC
  5
20F
330
1F
100
AcDbEntity
  8
0
  6
Continuous
 62
     7
370
    25
100
AcDbCircle
 10
157.3253089589
 20
294.668196948
 30
0.0
 40
7.43437665833275
100
AcDbArc
 50
356.0704737418
 51
3.9295262582
  0
ARC
  5
210
330
1F
100
AcDbEntity
  8
0
  6
Continuous
 62
     7
370
    25
100
AcDbCircle
 10
161.7014217341
 20
295.6238480044
 30
0.0
 40
3.375347654717446
100
AcDbArc
 50
334.2741059287
 51
346.2044345254
  0
SPLINE
  5
211
330
1F
100
AcDbEntity
  8
0
  6
Continuous
 62
     7
370
    25
100
AcDbSpline
210
0.0
220
0.0
230
1.0
 70
     8
 71
     3
 72
    11
 73
     7
 74
     0
 42
0.00000001
 43
0.00000001
 40
0.0
 40
0.0
 40
0.0
 40
0.0
 40
0.2347626302005695
 40
0.5171996541108629
 40
0.7985406614504728
 40
1.0
 40
1.0
 40
1.0
 40
1.0
 10
165.0078358978789
 20
294.7869705697361
 30
0.0
 10
165.0121154889599
 20
294.8248447928916
 30
0.0
 10
165.0215437485808
 20
294.9082845426464
 30
0.0
 10
165.0180711648684
 20
294.9441515536683
 30
0.0
 10
165.0032874723985
 20
294.9129925492343
 30
0.0
 10
164.9864328322448
 20
294.8466509080557
 30
0.0
 10
164.9793998533214
 20
294.8189683612972
 30
0.0
  0
ARC
  5
212
330
1F
100
AcDbEntity
  8
0
  6
Continuous
 62
     7
370
    25
100
AcDbCircle
 10
157.3203903579
 20
296.3690277534
 30
0.0
 40
7.745894944075792
100
AcDbArc
 50
349.3094308212
 51
351.4102179214
  0
SPLINE
  5
213
330
1F
100
AcDbEntity
  8
0
  6
Continuous
 62
     7
370
    25
100
AcDbSpline
210
0.0
220
0.0
230
1.0
 70
     8
 71
     3
 72
    11
 73
     7
 74
     0
 42
0.00000001
 43
0.00000001
 40
0.0
 40
0.0
 40
0.0
 40
0.0
 40
0.2349550601255053
 40
0.5173210611905111
 40
0.7985913212939711
 40
1.0
 40
1.0
 40
1.0
 40
1.0
 10
165.0078247200251
 20
296.0415063896182
 30
0.0
 10
165.0121093347255
 20
295.9832031396906
 30
0.0
 10
165.021543144844
 20
295.8548317860059
 30
0.0
 10
165.0180716555049
 20
295.6162216005177
 30
0.0
 10
165.0032873895493
 20
295.3893900184508
 30
0.0
 10
164.9864328078524
 20
295.2643036598926
 30
0.0
 10
164.9793998533214
 20
295.2121085542527
 30
0.0
  0
SPLINE
  5
214
330
1F
100
AcDbEntity
  8
0
  6
Continuous
 62
     7
370
    25
100
AcDbSpline
210
0.0
220
0.0
230
1.0
 70
     8
 71
     3
 72
    11
 73
     7
 74
     0
 42
0.00000001
 43
0.00000001
 40
0.0
 40
0.0
 40
0.0
 40
0.0
 40
0.3307540669562893
 40
0.6616399873463896
 40
0.9896169167736562
 40
1.0
 40
1.0
 40
1.0
 40
1.0
 10
164.9793998533214
 20
297.5047393518643
 30
0.0
 10
164.9891481901257
 20
297.4376019589503
 30
0.0
 10
165.0086487498593
 20
297.3033004091407
 30
0.0
 10
165.0196271712738
 20
297.1883116195311
 30
0.0
 10
165.0214505272712
 20
297.1381408312787
 30
0.0
 10
165.0155952101571
 20
297.151725645666
 30
0.0
 10
165.015415530991
 20
297.1521425160204
 30
0.0
  0
ARC
  5
215
330
1F
100
AcDbEntity
  8
0
  6
Continuous
 62
     7
370
    25
100
AcDbCircle
 10
157.2574705979
 20
296.3363241537
 30
0.0
 40
7.809826214494908
100
AcDbArc
 50
8.6042304424
 51
16.5896030164
  0
ARC
  5
216
330
1F
100
AcDbEntity
  8
0
  6
Continuous
 62
     7
370
    25
100
AcDbCircle
 10
161.8767395077
 20
298.2492249355
 30
0.0
 40
2.882940696889739
100
AcDbArc
 50
353.6888017346
 51
6.3111982654
  0
ARC
  5
217
330
1F
100
AcDbEntity
  8
0
  6
Continuous
 62
     7
370
    25
100
AcDbCircle
 10
157.2574705979
 20
295.7024890268
 30
0.0
 40
7.809826214502489
100
AcDbArc
 50
8.6042304424
 51
16.5896030164
  0
SPLINE
  5
218
330
1F
100
AcDbEntity
  8
0
  6
Continuous
 62
     7
370
    25
100
AcDbSpline
210
0.0
220
0.0
230
1.0
 70
     8
 71
     3
 72
    12
 73
     8
 74
     0
 42
0.00000001
 43
0.00000001
 40
0.0
 40
0.0
 40
0.0
 40
0.0
 40
0.2133534395476138
 40
0.4267919313634461
 40
0.6383539739091598
 40
0.8490950351927609
 40
1.0
 40
1.0
 40
1.0
 40
1.0
 10
164.9793998533214
 20
295.8379153824579
 30
0.0
 10
164.9890589970488
 20
295.8888956794223
 30
0.0
 10
165.0083811350723
 20
295.9908765963883
 30
0.0
 10
165.0206942050804
 20
296.2172854289011
 30
0.0
 10
165.0183567647836
 20
296.465716298598
 30
0.0
 10
165.0032392457698
 20
296.6938042658974
 30
0.0
 10
164.9864186333889
 20
296.8187625579732
 30
0.0
 10
164.9793998533214
 20
296.8709042249837
 30
0.0
  0
ARC
  5
219
330
1F
100
AcDbEntity
  8
0
  6
Continuous
 62
     7
370
    25
100
AcDbCircle
 10
161.7014217341
 20
296.6427950256
 30
0.0
 40
3.375347654717162
100
AcDbArc
 50
334.2741059287
 51
346.2044345254
  0
LINE
  5
21A
330
1F
100
AcDbEntity
  8
0
  6
Continuous
 62
     7
370
    25
100
AcDbLine
 10
162.4188783141
 20
303.1915063896
 30
0.0
 11
162.4188783141
 21
288.8915186223
 31
0.0
  0
LINE
  5
21B
330
1F
100
AcDbEntity
  8
0
  6
Continuous
 62
     7
370
    25
100
AcDbLine
 10
164.3188783141
 20
301.3704116092
 30
0.0
 11
164.3188783141
 21
290.712592053
 31
0.0
  0
LWPOLYLINE
  5
21C
330
1F
100
AcDbEntity
  8
0
  6
Continuous
 62
     7
370
    25
100
AcDbPolyline
 90
        3
 70
   128
 43
0.0
 10
148.0726775028
 20
287.9963255091
 10
154.0641512995
 20
288.05730585
 10
157.5519952567
 20
288.0930524561
  0
LINE
  5
21D
330
1F
100
AcDbEntity
  8
0
  6
Continuous
 62
     7
370
    25
100
AcDbLine
 10
148.0726775028
 20
304.4773098522
 30
0.0
 11
148.0726775028
 21
287.9963255091
 31
0.0
  0
LWPOLYLINE
  5
21E
330
1F
100
AcDbEntity
  8
0
  6
Continuous
 62
     7
370
    25
100
AcDbPolyline
 90
        3
 70
   128
 43
0.0
 10
156.6185750428
 20
304.3753606207
 10
154.0641512995
 20
304.4059484072
 10
148.0726774858
 20
304.4773095971
  0
SPLINE
  5
21F
330
1F
100
AcDbEntity
  8
0
  6
Continuous
 62
     7
370
    25
100
AcDbSpline
210
0.0
220
0.0
230
1.0
 70
     8
 71
     3
 72
    11
 73
     7
 74
     0
 42
0.00000001
 43
0.00000001
 40
0.0
 40
0.0
 40
0.0
 40
0.0
 40
0.2499999999999937
 40
0.500000000000001
 40
0.7499999999999979
 40
1.0
 40
1.0
 40
1.0
 40
1.0
 10
148.0726775027576
 20
287.9963239717981
 30
0.0
 10
148.0063064500202
 20
288.0020695216218
 30
0.0
 10
147.8735643445455
 20
288.0135606212691
 30
0.0
 10
147.7051006037648
 20
288.114891040266
 30
0.0
 10
147.5870132447297
 20
288.2613267306103
 30
0.0
 10
147.5716386146025
 20
288.3779046117905
 30
0.0
 10
147.563951299539
 20
288.4361935523806
 30
0.0
  0
LINE
  5
220
330
1F
100
AcDbEntity
  8
0
  6
Continuous
 62
     7
370
    25
100
AcDbLine
 10
147.5639512995
 20
288.436253875
 30
0.0
 11
147.5639512995
 21
304.0159592233
 31
0.0
  0
SPLINE
  5
221
330
1F
100
AcDbEntity
  8
0
  6
Continuous
 62
     7
370
    25
100
AcDbSpline
210
0.0
220
0.0
230
1.0
 70
     8
 71
     3
 72
    11
 73
     7
 74
     0
 42
0.00000001
 43
0.00000001
 40
0.0
 40
0.0
 40
0.0
 40
0.0
 40
0.2499999999999895
 40
0.5000000000000012
 40
0.7499999999999961
 40
1.0
 40
1.0
 40
1.0
 40
1.0
 10
148.0726775027576
 20
304.4773095969416
 30
0.0
 10
148.0063064500202
 20
304.4712834663003
 30
0.0
 10
147.8735643445455
 20
304.459231205018
 30
0.0
 10
147.7051006037648
 20
304.352952369825
 30
0.0
 10
147.5870132447297
 20
304.1993655717584
 30
0.0
 10
147.5716386146025
 20
304.0770946728147
 30
0.0
 10
147.563951299539
 20
304.0159592233428
 30
0.0
  0
LINE
  5
222
330
1F
100
AcDbEntity
  8
0
  6
Continuous
 62
     7
370
    25
100
AcDbLine
 10
162.4139512995
 20
304.4409500439
 30
0.0
 11
162.4139512995
 21
287.6420627354
 31
0.0
  0
SPLINE
  5
223
330
1F
100
AcDbEntity
  8
0
  6
Continuous
 62
     7
370
    25
100
AcDbSpline
210
0.0
220
0.0
230
1.0
 70
     8
 71
     3
 72
    12
 73
     8
 74
     0
 42
0.00000001
 43
0.00000001
 40
0.0
 40
0.0
 40
0.0
 40
0.0
 40
0.1662426524176538
 40
0.3368059756191286
 40
0.6054181071254578
 40
0.880143508713619
 40
1.0
 40
1.0
 40
1.0
 40
1.0
 10
152.1551853294828
 20
284.0753954860271
 30
0.0
 10
152.2546420367581
 20
284.262337436105
 30
0.0
 10
152.456140345637
 20
284.6410799848099
 30
0.0
 10
153.2783881016595
 20
285.4116301214382
 30
0.0
 10
154.6402172686461
 20
286.3800005599088
 30
0.0
 10
156.2013234573049
 20
287.3191412346727
 30
0.0
 10
157.1715631494666
 20
287.9116135928162
 30
0.0
 10
157.4662789671694
 20
288.0915804369964
 30
0.0
  0
LINE
  5
224
330
1F
100
AcDbEntity
  8
0
  6
Continuous
 62
     7
370
    25
100
AcDbLine
 10
152.1551853295
 20
284.075395486
 30
0.0
 11
148.0726775028
 21
284.0067946126
 31
0.0
  0
LINE
  5
225
330
1F
100
AcDbEntity
  8
0
  6
Continuous
 62
     7
370
    25
100
AcDbLine
 10
148.0726775028
 20
287.996324287
 30
0.0
 11
148.0726775028
 21
284.0067946126
 31
0.0
  0
LWPOLYLINE
  5
226
330
1F
100
AcDbEntity
  8
0
  6
Continuous
 62
     7
370
    25
100
AcDbPolyline
 90
        3
 70
   128
 43
0.0
 10
157.4662789672
 20
288.091580437
 10
154.0639512995
 20
288.0570504182
 10
148.0726775197
 20
287.996323972
  0
ARC
  5
227
330
1F
100
AcDbEntity
  8
0
  6
Continuous
 62
     7
370
    25
100
AcDbCircle
 10
148.0551671631
 20
284.4977947863
 30
0.0
 40
0.4913123065720113
100
AcDbArc
 50
181.1352754124
 51
272.0424505137
  0
LINE
  5
228
330
1F
100
AcDbEntity
  8
0
  6
Continuous
 62
     7
370
    25
100
AcDbLine
 10
147.5639512995
 20
284.4880604169
 30
0.0
 11
147.5639512995
 21
288.4362526519
 31
0.0
  0
LINE
  5
229
330
1F
100
AcDbEntity
  8
0
  6
Continuous
 62
     7
370
    25
100
AcDbLine
 10
157.4662789672
 20
288.091580437
 30
0.0
 11
157.5073889235
 21
288.0922854756
 31
0.0
  0
LINE
  5
22A
330
1F
100
AcDbEntity
  8
0
  6
Continuous
 62
     7
370
    25
100
AcDbLine
 10
157.5519952567
 20
288.0930524561
 30
0.0
 11
157.5073889235
 21
288.0922854756
 31
0.0
  0
LINE
  5
22B
330
1F
100
AcDbEntity
  8
0
  6
Continuous
 62
     7
370
    25
100
AcDbLine
 10
152.0988561124
 20
307.3641665464
 30
0.0
 11
152.0988561124
 21
307.4009050973
 31
0.0
  0
SPLINE
  5
22C
330
1F
100
AcDbEntity
  8
0
  6
Continuous
 62
     7
370
    25
100
AcDbSpline
210
0.0
220
0.0
230
1.0
 70
     8
 71
     3
 72
    12
 73
     8
 74
     0
 42
0.00000001
 43
0.00000001
 40
0.0
 40
0.0
 40
0.0
 40
0.0
 40
0.0460732444350178
 40
0.249460740807831
 40
0.4779405209378898
 40
0.705789336916876
 40
1.0
 40
1.0
 40
1.0
 40
1.0
 10
156.547865099556
 20
304.3766946500343
 30
0.0
 10
156.445892658559
 20
304.4327535916568
 30
0.0
 10
155.8937691650858
 20
304.7362812741011
 30
0.0
 10
154.8497892097734
 20
305.2866007011152
 30
0.0
 10
153.5785109342616
 20
305.9935750169977
 30
0.0
 10
152.4117479096843
 20
306.7407403440171
 30
0.0
 10
152.2116326289064
 20
307.1394631952378
 30
0.0
 10
152.0988561124135
 20
307.3641665463861
 30
0.0
  0
LWPOLYLINE
  5
22D
330
1F
100
AcDbEntity
  8
0
  6
Continuous
 62
     7
370
    25
100
AcDbPolyline
 90
        3
 70
   128
 43
0.0
 10
156.5478650996
 20
304.37669465
 10
154.0639512995
 20
304.4062041855
 10
148.0726775028
 20
304.4773111343
  0
LINE
  5
22E
330
1F
100
AcDbEntity
  8
0
  6
Continuous
 62
     7
370
    25
100
AcDbLine
 10
148.0726775028
 20
307.470111803
 30
0.0
 11
148.0726775028
 21
304.4773111343
 31
0.0
  0
LINE
  5
22F
330
1F
100
AcDbEntity
  8
0
  6
Continuous
 62
     7
370
    25
100
AcDbLine
 10
152.0988561124
 20
307.4009050973
 30
0.0
 11
148.0726775028
 21
307.470111803
 31
0.0
  0
ARC
  5
230
330
1F
100
AcDbEntity
  8
0
  6
Continuous
 62
     7
370
    25
100
AcDbCircle
 10
148.0603257747
 20
306.9738754878
 30
0.0
 40
0.4963900136583504
100
AcDbArc
 50
88.5741555685
 51
179.5466524836
  0
LINE
  5
231
330
1F
100
AcDbEntity
  8
0
  6
Continuous
 62
     7
370
    25
100
AcDbLine
 10
147.5639512995
 20
304.0160084079
 30
0.0
 11
147.5639512995
 21
306.9778030866
 31
0.0
  0
LINE
  5
232
330
1F
100
AcDbEntity
  8
0
  6
Continuous
 62
     7
370
    25
100
AcDbLine
 10
156.5860409035
 20
304.3759751225
 30
0.0
 11
156.5478650996
 21
304.37669465
 31
0.0
  0
LINE
  5
233
330
1F
100
AcDbEntity
  8
0
  6
Continuous
 62
     7
370
    25
100
AcDbLine
 10
156.5860409035
 20
304.3759751225
 30
0.0
 11
156.6185750428
 21
304.3753606207
 31
0.0
  0
LINE
  5
234
330
1F
100
AcDbEntity
  8
0
  6
Continuous
 62
     7
370
    25
100
AcDbLine
 10
152.0988561124
 20
283.7957530452
 30
0.0
 11
152.1551853295
 21
284.075395486
 31
0.0
  0
LINE
  5
235
330
1F
100
AcDbEntity
  8
0
  6
Continuous
 62
     7
370
    25
100
AcDbLine
 10
147.5639512995
 20
284.1708255461
 30
0.0
 11
147.5639512995
 21
284.4880604169
 31
0.0
  0
LINE
  5
236
330
1F
100
AcDbEntity
  8
0
  6
Continuous
 62
     7
370
    25
100
AcDbLine
 10
147.5639512995
 20
306.9778030866
 30
0.0
 11
147.5639512995
 21
307.1072799624
 31
0.0
  0
SPLINE
  5
237
330
1F
100
AcDbEntity
  8
0
  6
Continuous
 62
     7
370
    25
100
AcDbSpline
210
0.0
220
0.0
230
1.0
 70
     8
 71
     3
 72
    11
 73
     7
 74
     0
 42
0.00000001
 43
0.00000001
 40
0.0
 40
0.0
 40
0.0
 40
0.0
 40
0.2431641197380914
 40
0.4936284730588937
 40
0.7421706076863286
 40
0.9999999999999999
 40
0.9999999999999999
 40
0.9999999999999999
 40
0.9999999999999999
 10
137.613951299539
 20
285.7787400955746
 30
0.0
 10
137.8240916227477
 20
285.9711701438238
 30
0.0
 10
138.2506810677094
 20
286.3618073438772
 30
0.0
 10
138.4610654978523
 20
286.9814842200943
 30
0.0
 10
138.2703788041854
 20
287.6142356354002
 30
0.0
 10
137.8354196337907
 20
288.0154021325695
 30
0.0
 10
137.613951299539
 20
288.2196642379185
 30
0.0
  0
LINE
  5
238
330
1F
100
AcDbEntity
  8
0
  6
Continuous
 62
     7
370
    25
100
AcDbLine
 10
137.6139512995
 20
290.1523495327
 30
0.0
 11
137.6139512995
 21
288.2196642379
 31
0.0
  0
SPLINE
  5
239
330
1F
100
AcDbEntity
  8
0
  6
Continuous
 62
     7
370
    25
100
AcDbSpline
210
0.0
220
0.0
230
1.0
 70
     8
 71
     3
 72
    11
 73
     7
 74
     0
 42
0.00000001
 43
0.00000001
 40
0.0
 40
0.0
 40
0.0
 40
0.0
 40
0.243164119738091
 40
0.4936284730588926
 40
0.7421706076863281
 40
1.0
 40
1.0
 40
1.0
 40
1.0
 10
137.613951299539
 20
290.1523495327187
 30
0.0
 10
137.8240916227477
 20
290.7658286488074
 30
0.0
 10
138.2506810677094
 20
292.0112046510502
 30
0.0
 10
138.4610654978523
 20
293.9867735694232
 30
0.0
 10
138.2703788041853
 20
296.0040249420511
 30
0.0
 10
137.8354196337907
 20
297.2829690068003
 30
0.0
 10
137.613951299539
 20
297.9341694662917
 30
0.0
  0
LINE
  5
23A
330
1F
100
AcDbEntity
  8
0
  6
Continuous
 62
     7
370
    25
100
AcDbLine
 10
137.6139512995
 20
300.4151158268
 30
0.0
 11
137.6139512995
 21
297.9341694663
 31
0.0
  0
SPLINE
  5
23B
330
1F
100
AcDbEntity
  8
0
  6
Continuous
 62
     7
370
    25
100
AcDbSpline
210
0.0
220
0.0
230
1.0
 70
     8
 71
     3
 72
    13
 73
     9
 74
     0
 42
0.00000001
 43
0.00000001
 40
0.0
 40
0.0
 40
0.0
 40
0.0
 40
0.0290865078712627
 40
0.2691317361521214
 40
0.5086847447945265
 40
0.7393528760311802
 40
0.9704551097945733
 40
1.0
 40
1.0
 40
1.0
 40
1.0
 10
137.613951299539
 20
300.4151158267624
 30
0.0
 10
137.6414491459826
 20
300.4647905345259
 30
0.0
 10
137.8958813104278
 20
300.9244208346787
 30
0.0
 10
138.2672264666492
 20
301.8213644245611
 30
0.0
 10
138.4620671015014
 20
303.1174281188508
 30
0.0
 10
138.2503195313072
 20
304.3950648622063
 30
0.0
 10
137.8882308474099
 20
305.260396521676
 30
0.0
 10
137.6418761173549
 20
305.7055522914436
 30
0.0
 10
137.613951299539
 20
305.7560116179914
 30
0.0
  0
LINE
  5
23C
330
1F
100
AcDbEntity
  8
0
  6
Continuous
 62
     7
370
    25
100
AcDbLine
 10
137.6139512995
 20
306.3042726837
 30
0.0
 11
137.6139512995
 21
305.756011618
 31
0.0
  0
LINE
  5
23D
330
1F
100
AcDbEntity
  8
0
  6
Continuous
 62
     7
370
    25
100
AcDbLine
 10
137.6139512995
 20
306.3042726837
 30
0.0
 11
137.8853501355
 21
306.0223965634
 31
0.0
  0
LINE
  5
23E
330
1F
100
AcDbEntity
  8
0
  6
Continuous
 62
     7
370
    25
100
AcDbLine
 10
139.6139512995
 20
304.2915063896
 30
0.0
 11
139.6139512995
 21
287.7915063896
 31
0.0
  0
LINE
  5
23F
330
1F
100
AcDbEntity
  8
0
  6
Continuous
 62
     7
370
    25
100
AcDbLine
 10
135.0639512995
 20
290.1523495327
 30
0.0
 11
134.8139512995
 21
290.8375193341
 31
0.0
  0
LINE
  5
240
330
1F
100
AcDbEntity
  8
0
  6
Continuous
 62
     7
370
    25
100
AcDbLine
 10
134.8139512995
 20
297.2489996649
 30
0.0
 11
135.0639512995
 21
297.9341694663
 31
0.0
  0
LINE
  5
241
330
1F
100
AcDbEntity
  8
0
  6
Continuous
 62
     7
370
    25
100
AcDbLine
 10
137.6139512995
 20
297.9341694663
 30
0.0
 11
135.0639512995
 21
297.9341694663
 31
0.0
  0
LINE
  5
242
330
1F
100
AcDbEntity
  8
0
  6
Continuous
 62
     7
370
    25
100
AcDbLine
 10
135.0639512995
 20
290.1523495327
 30
0.0
 11
137.6139512995
 21
290.1523495327
 31
0.0
  0
LINE
  5
243
330
1F
100
AcDbEntity
  8
0
  6
Continuous
 62
     7
370
    25
100
AcDbLine
 10
134.8139512995
 20
297.2489996649
 30
0.0
 11
134.8139512995
 21
290.8375193341
 31
0.0
  0
SPLINE
  5
244
330
1F
100
AcDbEntity
  8
0
  6
Continuous
 62
     7
370
    25
100
AcDbSpline
210
0.0
220
0.0
230
1.0
 70
     8
 71
     3
 72
    36
 73
    32
 74
     0
 42
0.00000001
 43
0.00000001
 40
0.0
 40
0.0
 40
0.0
 40
0.0
 40
0.0211307361570606
 40
0.0509764602296828
 40
0.093928823152368
 40
0.1380299806880764
 40
0.1686235196212287
 40
0.2034376446159066
 40
0.2431247966063716
 40
0.2674684735427092
 40
0.2942680578443126
 40
0.3086296501674063
 40
0.3348900470706736
 40
0.3717404687032793
 40
0.3994435401834012
 40
0.4336898537753663
 40
0.4707178262503463
 40
0.5037696263019644
 40
0.538017935982338
 40
0.5922976716172774
 40
0.6407261934215932
 40
0.6764992460973668
 40
0.6996026626019525
 40
0.7217099679786204
 40
0.7464281663844609
 40
0.7692906582409366
 40
0.7993707558801287
 40
0.8510258505487932
 40
0.9342721280055684
 40
0.9896213349979143
 40
1.0
 40
1.0
 40
1.0
 40
1.0
 10
131.8434354851164
 20
305.4200045553736
 30
0.0
 10
131.8482636708104
 20
305.4131081257538
 30
0.0
 10
131.8599113395987
 20
305.3964709595126
 30
0.0
 10
131.8823215858548
 20
305.2430748520083
 30
0.0
 10
131.910457430123
 20
304.9424403130233
 30
0.0
 10
131.9388348417986
 20
304.4836847564625
 30
0.0
 10
131.9649365420597
 20
303.9459291204697
 30
0.0
 10
131.9891022826089
 20
303.3399457028815
 30
0.0
 10
132.0112623013532
 20
302.6811109587339
 30
0.0
 10
132.0323110652607
 20
302.0137878996198
 30
0.0
 10
132.0477631356363
 20
301.499388742479
 30
0.0
 10
132.063929008464
 20
300.9457621472468
 30
0.0
 10
132.0825706083542
 20
300.2835747228289
 30
0.0
 10
132.1044767699687
 20
299.4661303146449
 30
0.0
 10
132.1281461782495
 20
298.5423282037828
 30
0.0
 10
132.151456674194
 20
297.5907177512163
 30
0.0
 10
132.1754913813402
 20
296.5683462016465
 30
0.0
 10
132.1984816238715
 20
295.540226591544
 30
0.0
 10
132.2273192956569
 20
294.3489107249173
 30
0.0
 10
132.2602946096665
 20
293.0350570995845
 30
0.0
 10
132.2934462025948
 20
291.7789960743262
 30
0.0
 10
132.318973132572
 20
290.8709706056671
 30
0.0
 10
132.3379726196937
 20
290.2272333748831
 30
0.0
 10
132.3538035559712
 20
289.7015622890971
 30
0.0
 10
132.3697618908381
 20
289.2115872956686
 30
0.0
 10
132.3872402530436
 20
288.7069564510397
 30
0.0
 10
132.4122411626174
 20
288.0945837926266
 30
0.0
 10
132.4519602363166
 20
287.2927675255215
 30
0.0
 10
132.4981644609259
 20
286.7789384587072
 30
0.0
 10
132.5311553090068
 20
286.5757191147284
 30
0.0
 10
132.5466905191554
 20
286.6657813758416
 30
0.0
 10
132.5491435841486
 20
286.6800025275243
 30
0.0
  0
SPLINE
  5
245
330
1F
100
AcDbEntity
  8
0
  6
Continuous
 62
     7
370
    25
100
AcDbSpline
210
0.0
220
0.0
230
1.0
 70
     8
 71
     3
 72
     9
 73
     5
 74
     0
 42
0.00000001
 43
0.00000001
 40
0.0
 40
0.0
 40
0.0
 40
0.0
 40
0.6519386397286381
 40
0.9999999999999999
 40
0.9999999999999999
 40
0.9999999999999999
 40
0.9999999999999999
 10
132.1455591706983
 20
286.8121303371864
 30
0.0
 10
132.1546425334265
 20
286.7465193968793
 30
0.0
 10
132.1685753825854
 20
286.6458796490428
 30
0.0
 10
132.1824302775417
 20
286.6556640577105
 30
0.0
 10
132.1872526311266
 20
286.6590696323009
 30
0.0
  0
SPLINE
  5
246
330
1F
100
AcDbEntity
  8
0
  6
Continuous
 62
     7
370
    25
100
AcDbSpline
210
0.0
220
0.0
230
1.0
 70
     8
 71
     3
 72
    19
 73
    15
 74
     0
 42
0.00000001
 43
0.00000001
 40
0.0
 40
0.0
 40
0.0
 40
0.0
 40
0.011597675057144
 40
0.1135182491026833
 40
0.2145946963624002
 40
0.3150849397666791
 40
0.4172155710720777
 40
0.5170946155898619
 40
0.6189862710096669
 40
0.7201182019422806
 40
0.7891778535228653
 40
0.8593733852948497
 40
0.9300267992604163
 40
1.0
 40
1.0
 40
1.0
 40
1.0
 10
132.2852931045597
 20
304.626728460427
 30
0.0
 10
132.2879076927405
 20
304.6357933048175
 30
0.0
 10
132.3134993282151
 20
304.7245201624448
 30
0.0
 10
132.3656350713139
 20
304.0902495009746
 30
0.0
 10
132.4356419415691
 20
302.7178673341428
 30
0.0
 10
132.5039036739865
 20
300.614314769984
 30
0.0
 10
132.5778228671764
 20
298.0948471525252
 30
0.0
 10
132.644085424891
 20
295.360697483461
 30
0.0
 10
132.7169427851471
 20
292.700446744834
 30
0.0
 10
132.7803963834719
 20
290.6042796102254
 30
0.0
 10
132.8334901081939
 20
289.1203374601972
 30
0.0
 10
132.8836663092987
 20
288.1609015800526
 30
0.0
 10
132.9337082102334
 20
287.5022489849203
 30
0.0
 10
132.9651660237154
 20
287.4951484606984
 30
0.0
 10
132.9808188494783
 20
287.4916153712631
 30
0.0
  0
SPLINE
  5
247
330
1F
100
AcDbEntity
  8
0
  6
Continuous
 62
     7
370
    25
100
AcDbSpline
210
0.0
220
0.0
230
1.0
 70
     8
 71
     3
 72
    27
 73
    23
 74
     0
 42
0.00000001
 43
0.00000001
 40
0.0
 40
0.0
 40
0.0
 40
0.0
 40
0.0151436181910954
 40
0.0478952108099446
 40
0.1018265553387762
 40
0.1557578997567095
 40
0.2096892441726297
 40
0.2633179399052672
 40
0.3166010242089368
 40
0.3698841080331789
 40
0.423167191858044
 40
0.4764502756799134
 40
0.529252100205425
 40
0.5818869257002746
 40
0.6345217508141898
 40
0.6871565759276632
 40
0.7397806675130871
 40
0.7917672369352939
 40
0.8437538056994792
 40
0.8957403742085731
 40
0.9500942275614135
 40
1.0
 40
1.0
 40
1.0
 40
1.0
 10
132.8639623627245
 20
305.3797929410675
 30
0.0
 10
132.8660771579054
 20
305.3801918632079
 30
0.0
 10
132.8727656889905
 20
305.3814535471572
 30
0.0
 10
132.8876210358989
 20
305.2577874587182
 30
0.0
 10
132.9086028945456
 20
304.9374691337962
 30
0.0
 10
132.932953142356
 20
304.3141751822519
 30
0.0
 10
132.9568524814571
 20
303.4684719761703
 30
0.0
 10
132.9791543078838
 20
302.4239159838197
 30
0.0
 10
133.0028754484348
 20
301.2103157510455
 30
0.0
 10
133.0271510333282
 20
299.8604153626496
 30
0.0
 10
133.0514687873886
 20
298.4088197174757
 30
0.0
 10
133.0749362339561
 20
296.9001551639182
 30
0.0
 10
133.0973564382723
 20
295.3778448601667
 30
0.0
 10
133.1213791638243
 20
293.8839154271772
 30
0.0
 10
133.1456827759624
 20
292.4548517734581
 30
0.0
 10
133.1699579959556
 20
291.1287113530367
 30
0.0
 10
133.1928291201848
 20
289.9462925241501
 30
0.0
 10
133.215731340004
 20
288.9398864633533
 30
0.0
 10
133.2398895612891
 20
288.1337232630589
 30
0.0
 10
133.2646026150139
 20
287.5449525826063
 30
0.0
 10
133.2886931297626
 20
287.1809754164298
 30
0.0
 10
133.3039260874412
 20
287.1620528504795
 30
0.0
 10
133.3112176206085
 20
287.1529952189841
 30
0.0
  0
SPLINE
  5
248
330
1F
100
AcDbEntity
  8
0
  6
Continuous
 62
     7
370
    25
100
AcDbSpline
210
0.0
220
0.0
230
1.0
 70
     8
 71
     3
 72
    19
 73
    15
 74
     0
 42
0.00000001
 43
0.00000001
 40
0.0
 40
0.0
 40
0.0
 40
0.0
 40
0.0264466120661166
 40
0.1282649525066636
 40
0.2292400144547324
 40
0.329629458441539
 40
0.4316576462365925
 40
0.5250463265022738
 40
0.6198232107754169
 40
0.6403463719241385
 40
0.74114700053131
 40
0.8417030554903092
 40
0.9436834332788916
 40
1.0
 40
1.0
 40
1.0
 40
1.0
 10
132.4515947385834
 20
304.5975278029549
 30
0.0
 10
132.457547301923
 20
304.6215433832903
 30
0.0
 10
132.4864169829292
 20
304.7380179344896
 30
0.0
 10
132.5419679960237
 20
304.1020424344482
 30
0.0
 10
132.6120481453621
 20
302.7146938844714
 30
0.0
 10
132.6802784787358
 20
300.6153560459829
 30
0.0
 10
132.7526865038651
 20
298.1472272863099
 30
0.0
 10
132.8161023679929
 20
295.5432191908806
 30
0.0
 10
132.8658752940074
 20
293.6960888438346
 30
0.0
 10
132.9171754794939
 20
291.9137813227466
 30
0.0
 10
132.9680643682638
 20
290.2132291431639
 30
0.0
 10
133.0368444276046
 20
288.5025651676567
 30
0.0
 10
133.0999530904086
 20
287.5441261802231
 30
0.0
 10
133.1353834311481
 20
287.5222563269289
 30
0.0
 10
133.1479883184654
 20
287.5144757910755
 30
0.0
  0
LINE
  5
249
330
1F
100
AcDbEntity
  8
0
  6
Continuous
 62
     7
370
    25
100
AcDbLine
 10
133.3139512995
 20
304.9415063896
 30
0.0
 11
133.3139512995
 21
287.1415063896
 31
0.0
  0
LINE
  5
24A
330
1F
100
AcDbEntity
  8
0
  6
Continuous
 62
     7
370
    25
100
AcDbLine
 10
135.0639512995
 20
300.4151158268
 30
0.0
 11
134.8139512995
 21
300.8853683564
 31
0.0
  0
LINE
  5
24B
330
1F
100
AcDbEntity
  8
0
  6
Continuous
 62
     7
370
    25
100
AcDbLine
 10
135.0639512995
 20
300.4151158268
 30
0.0
 11
135.0639512995
 21
297.9341694663
 31
0.0
  0
LINE
  5
24C
330
1F
100
AcDbEntity
  8
0
  6
Continuous
 62
     7
370
    25
100
AcDbLine
 10
134.8139512995
 20
297.2489996649
 30
0.0
 11
134.8139512995
 21
300.8853683564
 31
0.0
  0
LINE
  5
24D
330
1F
100
AcDbEntity
  8
0
  6
Continuous
 62
     7
370
    25
100
AcDbLine
 10
135.0639512995
 20
300.4151158268
 30
0.0
 11
137.6139512995
 21
300.4151158268
 31
0.0
  0
LINE
  5
24E
330
1F
100
AcDbEntity
  8
0
  6
Continuous
 62
     7
370
    25
100
AcDbLine
 10
134.8139512995
 20
305.2857590884
 30
0.0
 11
135.0639512995
 21
305.756011618
 31
0.0
  0
LINE
  5
24F
330
1F
100
AcDbEntity
  8
0
  6
Continuous
 62
     7
370
    25
100
AcDbLine
 10
137.6139512995
 20
305.756011618
 30
0.0
 11
135.0639512995
 21
305.756011618
 31
0.0
  0
LINE
  5
250
330
1F
100
AcDbEntity
  8
0
  6
Continuous
 62
     7
370
    25
100
AcDbLine
 10
134.8139512995
 20
305.2857590884
 30
0.0
 11
134.8139512995
 21
300.8853683564
 31
0.0
  0
LINE
  5
251
330
1F
100
AcDbEntity
  8
0
  6
Continuous
 62
     7
370
    25
100
AcDbLine
 10
135.0639512995
 20
290.1523495327
 30
0.0
 11
135.0639512995
 21
288.2196642379
 31
0.0
  0
LINE
  5
252
330
1F
100
AcDbEntity
  8
0
  6
Continuous
 62
     7
370
    25
100
AcDbLine
 10
134.8139512995
 20
288.0047469661
 30
0.0
 11
135.0639512995
 21
288.2196642379
 31
0.0
  0
LINE
  5
253
330
1F
100
AcDbEntity
  8
0
  6
Continuous
 62
     7
370
    25
100
AcDbLine
 10
134.8139512995
 20
288.0047469661
 30
0.0
 11
134.8139512995
 21
290.8375193341
 31
0.0
  0
LINE
  5
254
330
1F
100
AcDbEntity
  8
0
  6
Continuous
 62
     7
370
    25
100
AcDbLine
 10
137.6139512995
 20
288.2196642379
 30
0.0
 11
135.0639512995
 21
288.2196642379
 31
0.0
  0
LINE
  5
255
330
1F
100
AcDbEntity
  8
0
  6
Continuous
 62
     7
370
    25
100
AcDbLine
 10
135.0639512995
 20
285.7787400956
 30
0.0
 11
134.8139512995
 21
285.9936573674
 31
0.0
  0
LINE
  5
256
330
1F
100
AcDbEntity
  8
0
  6
Continuous
 62
     7
370
    25
100
AcDbLine
 10
135.0639512995
 20
285.7787400956
 30
0.0
 11
137.6139512995
 21
285.7787400956
 31
0.0
  0
LINE
  5
257
330
1F
100
AcDbEntity
  8
0
  6
Continuous
 62
     7
370
    25
100
AcDbLine
 10
134.8139512995
 20
288.0047469661
 30
0.0
 11
134.8139512995
 21
285.9936573674
 31
0.0
  0
LINE
  5
258
330
1F
100
AcDbEntity
  8
0
  6
Continuous
 62
     7
370
    25
100
AcDbLine
 10
135.0639512995
 20
306.3042726837
 30
0.0
 11
134.8139512995
 21
306.0893554118
 31
0.0
  0
LINE
  5
259
330
1F
100
AcDbEntity
  8
0
  6
Continuous
 62
     7
370
    25
100
AcDbLine
 10
135.0639512995
 20
306.3042726837
 30
0.0
 11
135.0639512995
 21
305.756011618
 31
0.0
  0
LINE
  5
25A
330
1F
100
AcDbEntity
  8
0
  6
Continuous
 62
     7
370
    25
100
AcDbLine
 10
134.8139512995
 20
305.2857590884
 30
0.0
 11
134.8139512995
 21
306.0893554118
 31
0.0
  0
LINE
  5
25B
330
1F
100
AcDbEntity
  8
0
  6
Continuous
 62
     7
370
    25
100
AcDbLine
 10
135.0639512995
 20
306.3042726837
 30
0.0
 11
137.6139512995
 21
306.3042726837
 31
0.0
  0
LINE
  5
25C
330
1F
100
AcDbEntity
  8
0
  6
Continuous
 62
     7
370
    25
100
AcDbLine
 10
116.049494392
 20
313.3157110138
 30
0.0
 11
115.8634238476
 21
313.1018153666
 31
0.0
  0
SPLINE
  5
25D
330
1F
100
AcDbEntity
  8
0
  6
Continuous
 62
     7
370
    25
100
AcDbSpline
210
0.0
220
0.0
230
1.0
 70
     8
 71
     3
 72
     9
 73
     5
 74
     0
 42
0.00000001
 43
0.00000001
 40
0.0
 40
0.0
 40
0.0
 40
0.0
 40
0.5841917497409969
 40
1.0
 40
1.0
 40
1.0
 40
1.0
 10
116.463951299539
 20
313.4838071259014
 30
0.0
 10
116.4377833357183
 20
313.5294226813276
 30
0.0
 10
116.3929898859097
 20
313.6075058713871
 30
0.0
 10
116.1503754683958
 20
313.4014081476802
 30
0.0
 10
116.0494943919617
 20
313.3157110138033
 30
0.0
  0
LINE
  5
25E
330
1F
100
AcDbEntity
  8
0
  6
Continuous
 62
     7
370
    25
100
AcDbLine
 10
116.4639512995
 20
313.4838071259
 30
0.0
 11
116.4639512995
 21
313.1780430121
 31
0.0
  0
SPLINE
  5
25F
330
1F
100
AcDbEntity
  8
0
  6
Continuous
 62
     7
370
    25
100
AcDbSpline
210
0.0
220
0.0
230
1.0
 70
     8
 71
     3
 72
     9
 73
     5
 74
     0
 42
0.00000001
 43
0.00000001
 40
0.0
 40
0.0
 40
0.0
 40
0.0
 40
0.5850553834536127
 40
1.0
 40
1.0
 40
1.0
 40
1.0
 10
116.0494943919616
 20
312.0446120538842
 30
0.0
 10
116.1860485259859
 20
312.3328746833105
 30
0.0
 10
116.4194522991779
 20
312.8255846686877
 30
0.0
 10
116.4509015869031
 20
313.0746815868618
 30
0.0
 10
116.463951299539
 20
313.1780430120565
 30
0.0
  0
SPLINE
  5
260
330
1F
100
AcDbEntity
  8
0
  6
Continuous
 62
     7
370
    25
100
AcDbSpline
210
0.0
220
0.0
230
1.0
 70
     8
 71
     3
 72
    11
 73
     7
 74
     0
 42
0.00000001
 43
0.00000001
 40
0.0
 40
0.0
 40
0.0
 40
0.0
 40
0.232871632211144
 40
0.4710265024313159
 40
0.7311421212560256
 40
0.9999999999999999
 40
0.9999999999999999
 40
0.9999999999999999
 40
0.9999999999999999
 10
116.0494943919616
 20
304.1364916005793
 30
0.0
 10
115.7790976572888
 20
304.736247168919
 30
0.0
 10
115.232169605158
 20
305.9493651643843
 30
0.0
 10
114.9309452871744
 20
307.9137612003331
 30
0.0
 10
115.1385970525841
 20
309.985128255231
 30
0.0
 10
115.7425348843644
 20
311.3505951703009
 30
0.0
 10
116.0494943919616
 20
312.0446120538842
 30
0.0
  0
SPLINE
  5
261
330
1F
100
AcDbEntity
  8
0
  6
Continuous
 62
     7
370
    25
100
AcDbSpline
210
0.0
220
0.0
230
1.0
 70
     8
 71
     3
 72
     9
 73
     5
 74
     0
 42
0.00000001
 43
0.00000001
 40
0.0
 40
0.0
 40
0.0
 40
0.0
 40
0.5841917497409228
 40
1.0
 40
1.0
 40
1.0
 40
1.0
 10
116.463951299539
 20
302.1564893094191
 30
0.0
 10
116.4377833357183
 20
302.5963197030583
 30
0.0
 10
116.3929898859097
 20
303.3492067368692
 30
0.0
 10
116.1503754683957
 20
303.9052741729546
 30
0.0
 10
116.0494943919616
 20
304.1364916005793
 30
0.0
  0
LINE
  5
262
330
1F
100
AcDbEntity
  8
0
  6
Continuous
 62
     7
370
    25
100
AcDbLine
 10
116.4639512995
 20
302.1564893094
 30
0.0
 11
116.4639512995
 21
300.7728704225
 31
0.0
  0
SPLINE
  5
263
330
1F
100
AcDbEntity
  8
0
  6
Continuous
 62
     7
370
    25
100
AcDbSpline
210
0.0
220
0.0
230
1.0
 70
     8
 71
     3
 72
     9
 73
     5
 74
     0
 42
0.00000001
 43
0.00000001
 40
0.0
 40
0.0
 40
0.0
 40
0.0
 40
0.5850553834536169
 40
1.0
 40
1.0
 40
1.0
 40
1.0
 10
116.0494943919616
 20
298.3846180208768
 30
0.0
 10
116.1860485259859
 20
298.8455369796001
 30
0.0
 10
116.4194522991779
 20
299.6333580504918
 30
0.0
 10
116.4509015869031
 20
300.4386986685734
 30
0.0
 10
116.463951299539
 20
300.7728704225325
 30
0.0
  0
SPLINE
  5
264
330
1F
100
AcDbEntity
  8
0
  6
Continuous
 62
     7
370
    25
100
AcDbSpline
210
0.0
220
0.0
230
1.0
 70
     8
 71
     3
 72
    11
 73
     7
 74
     0
 42
0.00000001
 43
0.00000001
 40
0.0
 40
0.0
 40
0.0
 40
0.0
 40
0.2328716322111452
 40
0.4710265024313183
 40
0.7311421212560267
 40
1.0
 40
1.0
 40
1.0
 40
1.0
 10
116.0494943919616
 20
286.8622869763944
 30
0.0
 10
115.7790976572888
 20
287.7361459729772
 30
0.0
 10
115.232169605158
 20
289.5036895027332
 30
0.0
 10
114.9309452871744
 20
292.3658640943218
 30
0.0
 10
115.1385970525841
 20
295.3838981596975
 30
0.0
 10
115.7425348843644
 20
297.3734179095071
 30
0.0
 10
116.0494943919616
 20
298.3846180208768
 30
0.0
  0
SPLINE
  5
265
330
1F
100
AcDbEntity
  8
0
  6
Continuous
 62
     7
370
    25
100
AcDbSpline
210
0.0
220
0.0
230
1.0
 70
     8
 71
     3
 72
     9
 73
     5
 74
     0
 42
0.00000001
 43
0.00000001
 40
0.0
 40
0.0
 40
0.0
 40
0.0
 40
0.5841917497409206
 40
1.0
 40
1.0
 40
1.0
 40
1.0
 10
116.463951299539
 20
284.7141885731359
 30
0.0
 10
116.4377833357183
 20
285.1084034113488
 30
0.0
 10
116.3929898859097
 20
285.7832072551002
 30
0.0
 10
116.1503754683957
 20
286.5453724148927
 30
0.0
 10
116.0494943919616
 20
286.8622869763944
 30
0.0
  0
LINE
  5
266
330
1F
100
AcDbEntity
  8
0
  6
Continuous
 62
     7
370
    25
100
AcDbLine
 10
116.4639512995
 20
284.7141885731
 30
0.0
 11
116.4639512995
 21
283.6363338001
 31
0.0
  0
SPLINE
  5
267
330
1F
100
AcDbEntity
  8
0
  6
Continuous
 62
     7
370
    25
100
AcDbSpline
210
0.0
220
0.0
230
1.0
 70
     8
 71
     3
 72
     9
 73
     5
 74
     0
 42
0.00000001
 43
0.00000001
 40
0.0
 40
0.0
 40
0.0
 40
0.0
 40
0.5850553834536156
 40
1.0
 40
1.0
 40
1.0
 40
1.0
 10
116.0494943919616
 20
282.3815123566108
 30
0.0
 10
116.1860485259859
 20
282.5541686859078
 30
0.0
 10
116.4194522991778
 20
282.8492797714223
 30
0.0
 10
116.4509015869031
 20
283.4055234713298
 30
0.0
 10
116.463951299539
 20
283.6363338000942
 30
0.0
  0
SPLINE
  5
268
330
1F
100
AcDbEntity
  8
0
  6
Continuous
 62
     7
370
    25
100
AcDbSpline
210
0.0
220
0.0
230
1.0
 70
     8
 71
     3
 72
    11
 73
     7
 74
     0
 42
0.00000001
 43
0.00000001
 40
0.0
 40
0.0
 40
0.0
 40
0.0
 40
0.2080974851588106
 40
0.487758725846782
 40
0.7404696233529092
 40
1.0
 40
1.0
 40
1.0
 40
1.0
 10
115.8675806055102
 20
278.9811555627633
 30
0.0
 10
115.6463048697273
 20
279.2119414756878
 30
0.0
 10
115.1276577036461
 20
279.7528795016591
 30
0.0
 10
114.9322008433786
 20
280.612381946692
 30
0.0
 10
115.2104348075143
 20
281.526952566075
 30
0.0
 10
115.7673365156582
 20
282.0941420909691
 30
0.0
 10
116.0494943919616
 20
282.3815123566108
 30
0.0
  0
SPLINE
  5
269
330
1F
100
AcDbEntity
  8
0
  6
Continuous
 62
     7
370
    25
100
AcDbSpline
210
0.0
220
0.0
230
1.0
 70
     8
 71
     3
 72
     9
 73
     5
 74
     0
 42
0.00000001
 43
0.00000001
 40
0.0
 40
0.0
 40
0.0
 40
0.0
 40
0.3607400128961893
 40
1.0
 40
1.0
 40
1.0
 40
1.0
 10
116.376583393098
 20
278.5753548295429
 30
0.0
 10
116.3626155073674
 20
278.56199975141
 30
0.0
 10
116.3238954174653
 20
278.5249784128964
 30
0.0
 10
116.1565021865792
 20
278.6728032573037
 30
0.0
 10
116.0494943919616
 20
278.7673017654332
 30
0.0
  0
LINE
  5
26A
330
1F
100
AcDbEntity
  8
0
  6
Continuous
 62
     7
370
    25
100
AcDbLine
 10
114.9639512995
 20
279.8415063896
 30
0.0
 11
114.9639512995
 21
312.2415063896
 31
0.0
  0
SPLINE
  5
26B
330
1F
100
AcDbEntity
  8
0
  6
Continuous
 62
     7
370
    25
100
AcDbSpline
210
0.0
220
0.0
230
1.0
 70
     8
 71
     3
 72
     9
 73
     5
 74
     0
 42
0.00000001
 43
0.00000001
 40
0.0
 40
0.0
 40
0.0
 40
0.0
 40
0.8988656309358773
 40
1.0
 40
1.0
 40
1.0
 40
1.0
 10
123.3284082071169
 20
278.7673017654336
 30
0.0
 10
123.1794947026322
 20
278.6373490801471
 30
0.0
 10
123.0138264432622
 20
278.4927749849608
 30
0.0
 10
122.9796067061947
 20
278.5357992433127
 30
0.0
 10
122.9761459146768
 20
278.5401504745356
 30
0.0
  0
SPLINE
  5
26C
330
1F
100
AcDbEntity
  8
0
  6
Continuous
 62
     7
370
    25
100
AcDbSpline
210
0.0
220
0.0
230
1.0
 70
     8
 71
     3
 72
    11
 73
     7
 74
     0
 42
0.00000001
 43
0.00000001
 40
0.0
 40
0.0
 40
0.0
 40
0.0
 40
0.253084489028463
 40
0.5122110959642295
 40
0.7836526135611658
 40
1.0
 40
1.0
 40
1.0
 40
1.0
 10
123.3284082071162
 20
282.3815123566108
 30
0.0
 10
123.6042954090854
 20
282.1013770855847
 30
0.0
 10
124.1626563209912
 20
281.5344186175197
 30
0.0
 10
124.4444806553765
 20
280.6292793948775
 30
0.0
 10
124.2549247327244
 20
279.7624516247936
 30
0.0
 10
123.7378387916707
 20
279.2211949265356
 30
0.0
 10
123.5084973880723
 20
278.9811331475739
 30
0.0
  0
SPLINE
  5
26D
330
1F
100
AcDbEntity
  8
0
  6
Continuous
 62
     7
370
    25
100
AcDbSpline
210
0.0
220
0.0
230
1.0
 70
     8
 71
     3
 72
     9
 73
     5
 74
     0
 42
0.00000001
 43
0.00000001
 40
0.0
 40
0.0
 40
0.0
 40
0.0
 40
0.5841917497409931
 40
1.0
 40
1.0
 40
1.0
 40
1.0
 10
122.9139512995389
 20
283.6363338000942
 30
0.0
 10
122.9401192633596
 20
283.3181970221504
 30
0.0
 10
122.9849127131682
 20
282.7736210707014
 30
0.0
 10
123.2275271306822
 20
282.4966706333672
 30
0.0
 10
123.3284082071162
 20
282.3815123566108
 30
0.0
  0
LINE
  5
26E
330
1F
100
AcDbEntity
  8
0
  6
Continuous
 62
     7
370
    25
100
AcDbLine
 10
122.9139512995
 20
283.6363338001
 30
0.0
 11
122.9139512995
 21
284.7141885731
 31
0.0
  0
SPLINE
  5
26F
330
1F
100
AcDbEntity
  8
0
  6
Continuous
 62
     7
370
    25
100
AcDbSpline
210
0.0
220
0.0
230
1.0
 70
     8
 71
     3
 72
     9
 73
     5
 74
     0
 42
0.00000001
 43
0.00000001
 40
0.0
 40
0.0
 40
0.0
 40
0.0
 40
0.58505538345362
 40
1.0
 40
1.0
 40
1.0
 40
1.0
 10
123.3284082071163
 20
286.8622869763944
 30
0.0
 10
123.191854073092
 20
286.4147030204645
 30
0.0
 10
122.9584502999001
 20
285.6496746682975
 30
0.0
 10
122.9270010121748
 20
284.9885278755382
 30
0.0
 10
122.9139512995389
 20
284.7141885731359
 30
0.0
  0
SPLINE
  5
270
330
1F
100
AcDbEntity
  8
0
  6
Continuous
 62
     7
370
    25
100
AcDbSpline
210
0.0
220
0.0
230
1.0
 70
     8
 71
     3
 72
    11
 73
     7
 74
     0
 42
0.00000001
 43
0.00000001
 40
0.0
 40
0.0
 40
0.0
 40
0.0
 40
0.2328716322111472
 40
0.4710265024313228
 40
0.7311421212560293
 40
1.0
 40
1.0
 40
1.0
 40
1.0
 10
123.3284082071163
 20
298.3846180208768
 30
0.0
 10
123.5988049417891
 20
297.5107590242939
 30
0.0
 10
124.1457329939199
 20
295.7432154945379
 30
0.0
 10
124.4469573119035
 20
292.8810409029493
 30
0.0
 10
124.2393055464938
 20
289.8630068375736
 30
0.0
 10
123.6353677147136
 20
287.873487087764
 30
0.0
 10
123.3284082071163
 20
286.8622869763944
 30
0.0
  0
SPLINE
  5
271
330
1F
100
AcDbEntity
  8
0
  6
Continuous
 62
     7
370
    25
100
AcDbSpline
210
0.0
220
0.0
230
1.0
 70
     8
 71
     3
 72
     9
 73
     5
 74
     0
 42
0.00000001
 43
0.00000001
 40
0.0
 40
0.0
 40
0.0
 40
0.0
 40
0.5841917497409245
 40
1.0
 40
1.0
 40
1.0
 40
1.0
 10
122.9139512995389
 20
300.7728704225325
 30
0.0
 10
122.9401192633596
 20
300.2982704356879
 30
0.0
 10
122.9849127131682
 20
299.4858659690806
 30
0.0
 10
123.2275271306822
 20
298.7080431615059
 30
0.0
 10
123.3284082071163
 20
298.3846180208768
 30
0.0
  0
LINE
  5
272
330
1F
100
AcDbEntity
  8
0
  6
Continuous
 62
     7
370
    25
100
AcDbLine
 10
122.9139512995
 20
300.7728704225
 30
0.0
 11
122.9139512995
 21
302.1564893094
 31
0.0
  0
SPLINE
  5
273
330
1F
100
AcDbEntity
  8
0
  6
Continuous
 62
     7
370
    25
100
AcDbSpline
210
0.0
220
0.0
230
1.0
 70
     8
 71
     3
 72
     9
 73
     5
 74
     0
 42
0.00000001
 43
0.00000001
 40
0.0
 40
0.0
 40
0.0
 40
0.0
 40
0.5850553834536156
 40
1.0
 40
1.0
 40
1.0
 40
1.0
 10
123.3284082071163
 20
304.1364916005793
 30
0.0
 10
123.191854073092
 20
303.8012215044208
 30
0.0
 10
122.9584502999001
 20
303.2281644817174
 30
0.0
 10
122.9270010121748
 20
302.4707672240678
 30
0.0
 10
122.9139512995389
 20
302.1564893094191
 30
0.0
  0
SPLINE
  5
274
330
1F
100
AcDbEntity
  8
0
  6
Continuous
 62
     7
370
    25
100
AcDbSpline
210
0.0
220
0.0
230
1.0
 70
     8
 71
     3
 72
    11
 73
     7
 74
     0
 42
0.00000001
 43
0.00000001
 40
0.0
 40
0.0
 40
0.0
 40
0.0
 40
0.2328716322111487
 40
0.4710265024313253
 40
0.731142121256031
 40
1.0
 40
1.0
 40
1.0
 40
1.0
 10
123.3284082071163
 20
312.0446120538842
 30
0.0
 10
123.5988049417891
 20
311.4448564855446
 30
0.0
 10
124.1457329939199
 20
310.2317384900792
 30
0.0
 10
124.4469573119035
 20
308.2673424541304
 30
0.0
 10
124.2393055464938
 20
306.1959753992325
 30
0.0
 10
123.6353677147135
 20
304.8305084841626
 30
0.0
 10
123.3284082071163
 20
304.1364916005793
 30
0.0
  0
SPLINE
  5
275
330
1F
100
AcDbEntity
  8
0
  6
Continuous
 62
     7
370
    25
100
AcDbSpline
210
0.0
220
0.0
230
1.0
 70
     8
 71
     3
 72
     9
 73
     5
 74
     0
 42
0.00000001
 43
0.00000001
 40
0.0
 40
0.0
 40
0.0
 40
0.0
 40
0.5841917497409231
 40
1.0
 40
1.0
 40
1.0
 40
1.0
 10
122.9139512995389
 20
313.1780430120565
 30
0.0
 10
122.9401192633596
 20
313.0215798031557
 30
0.0
 10
122.9849127131682
 20
312.7537512879975
 30
0.0
 10
123.2275271306822
 20
312.252878917757
 30
0.0
 10
123.3284082071163
 20
312.0446120538842
 30
0.0
  0
LINE
  5
276
330
1F
100
AcDbEntity
  8
0
  6
Continuous
 62
     7
370
    25
100
AcDbLine
 10
122.9139512995
 20
313.1780430121
 30
0.0
 11
122.9139512995
 21
313.4838071259
 31
0.0
  0
SPLINE
  5
277
330
1F
100
AcDbEntity
  8
0
  6
Continuous
 62
     7
370
    25
100
AcDbSpline
210
0.0
220
0.0
230
1.0
 70
     8
 71
     3
 72
     9
 73
     5
 74
     0
 42
0.00000001
 43
0.00000001
 40
0.0
 40
0.0
 40
0.0
 40
0.0
 40
0.5850553834536242
 40
1.0
 40
1.0
 40
1.0
 40
1.0
 10
123.3284082071163
 20
313.3157110138032
 30
0.0
 10
123.191854073092
 20
313.4280248735746
 30
0.0
 10
122.9584502999001
 20
313.6199962030382
 30
0.0
 10
122.9270010121748
 20
313.5237457381477
 30
0.0
 10
122.913951299539
 20
313.4838071259014
 30
0.0
  0
LINE
  5
278
330
1F
100
AcDbEntity
  8
0
  6
Continuous
 62
     7
370
    25
100
AcDbLine
 10
123.5130653236
 20
313.1018281561
 30
0.0
 11
123.3284082071
 21
313.3157110138
 31
0.0
  0
LINE
  5
279
330
1F
100
AcDbEntity
  8
0
  6
Continuous
 62
     7
370
    25
100
AcDbLine
 10
124.4139512995
 20
280.6219981359
 30
0.0
 11
124.4139512995
 21
279.8415063896
 31
0.0
  0
LINE
  5
27A
330
1F
100
AcDbEntity
  8
0
  6
Continuous
 62
     7
370
    25
100
AcDbLine
 10
124.4139512995
 20
312.2415063896
 30
0.0
 11
124.4139512995
 21
280.6219981359
 31
0.0
  0
LINE
  5
27B
330
1F
100
AcDbEntity
  8
0
  6
Continuous
 62
     7
370
    25
100
AcDbLine
 10
116.049494392
 20
286.8622869764
 30
0.0
 11
123.3284082071
 21
286.8622869764
 31
0.0
  0
LINE
  5
27C
330
1F
100
AcDbEntity
  8
0
  6
Continuous
 62
     7
370
    25
100
AcDbLine
 10
123.3284082071
 20
298.3846180209
 30
0.0
 11
116.049494392
 21
298.3846180209
 31
0.0
  0
LINE
  5
27D
330
1F
100
AcDbEntity
  8
0
  6
Continuous
 62
     7
370
    25
100
AcDbLine
 10
132.1639512995
 20
285.4665063896
 30
0.0
 11
132.1639512995
 21
306.6165063896
 31
0.0
  0
LINE
  5
27E
330
1F
100
AcDbEntity
  8
0
  6
Continuous
 62
     7
370
    25
100
AcDbLine
 10
116.4639512995
 20
300.7728704225
 30
0.0
 11
122.9139512995
 21
300.7728704225
 31
0.0
  0
LINE
  5
27F
330
1F
100
AcDbEntity
  8
0
  6
Continuous
 62
     7
370
    25
100
AcDbLine
 10
122.9139512995
 20
302.1564893094
 30
0.0
 11
116.4639512995
 21
302.1564893094
 31
0.0
  0
LINE
  5
280
330
1F
100
AcDbEntity
  8
0
  6
Continuous
 62
     7
370
    25
100
AcDbLine
 10
116.049494392
 20
304.1364916006
 30
0.0
 11
123.3284082071
 21
304.1364916006
 31
0.0
  0
LINE
  5
281
330
1F
100
AcDbEntity
  8
0
  6
Continuous
 62
     7
370
    25
100
AcDbLine
 10
123.3284082071
 20
312.0446120539
 30
0.0
 11
116.049494392
 21
312.0446120539
 31
0.0
  0
LINE
  5
282
330
1F
100
AcDbEntity
  8
0
  6
Continuous
 62
     7
370
    25
100
AcDbLine
 10
122.9139512995
 20
284.7141885731
 30
0.0
 11
116.4639512995
 21
284.7141885731
 31
0.0
  0
LINE
  5
283
330
1F
100
AcDbEntity
  8
0
  6
Continuous
 62
     7
370
    25
100
AcDbLine
 10
116.4639512995
 20
283.6363338001
 30
0.0
 11
122.9139512995
 21
283.6363338001
 31
0.0
  0
LINE
  5
284
330
1F
100
AcDbEntity
  8
0
  6
Continuous
 62
     7
370
    25
100
AcDbLine
 10
123.3284082071
 20
282.3815123566
 30
0.0
 11
116.049494392
 21
282.3815123566
 31
0.0
  0
LINE
  5
285
330
1F
100
AcDbEntity
  8
0
  6
Continuous
 62
     7
370
    25
100
AcDbLine
 10
116.049494392
 20
278.7673017654
 30
0.0
 11
123.3284082071
 21
278.7673017654
 31
0.0
  0
LINE
  5
286
330
1F
100
AcDbEntity
  8
0
  6
Continuous
 62
     7
370
    25
100
AcDbLine
 10
116.4639512995
 20
313.1780430121
 30
0.0
 11
122.9139512995
 21
313.1780430121
 31
0.0
  0
LINE
  5
287
330
1F
100
AcDbEntity
  8
0
  6
Continuous
 62
     7
370
    25
100
AcDbLine
 10
122.9139512995
 20
313.4838071259
 30
0.0
 11
116.4639512995
 21
313.4838071259
 31
0.0
  0
ARC
  5
288
330
1F
100
AcDbEntity
  8
0
  6
Continuous
 62
     7
370
    25
100
AcDbCircle
 10
81.2139512995
 20
296.0415063896
 30
0.0
 40
15.00000000000001
100
AcDbArc
 50
59.0546031809
 51
90.0
  0
ARC
  5
289
330
1F
100
AcDbEntity
  8
0
  6
Continuous
 62
     7
370
    25
100
AcDbCircle
 10
81.2139512995
 20
296.0415063896
 30
0.0
 40
15.0
100
AcDbArc
 50
358.8386767013
 51
30.383383222
  0
ARC
  5
28A
330
1F
100
AcDbEntity
  8
0
  6
Continuous
 62
     7
370
    25
100
AcDbCircle
 10
81.2139512995
 20
296.0415063896
 30
0.0
 40
14.99999999999999
100
AcDbArc
 50
302.3321424699
 51
331.1140059561
  0
ARC
  5
28B
330
1F
100
AcDbEntity
  8
0
  6
Continuous
 62
     7
370
    25
100
AcDbCircle
 10
81.2139512995
 20
296.0415063896
 30
0.0
 40
15.00000000000001
100
AcDbArc
 50
179.6560457448
 51
210.5876452319
  0
ARC
  5
28C
330
1F
100
AcDbEntity
  8
0
  6
Continuous
 62
     7
370
    25
100
AcDbCircle
 10
81.2139512995
 20
296.0415063896
 30
0.0
 40
14.99999999999999
100
AcDbArc
 50
117.7483022357
 51
152.4424937067
  0
LINE
  5
28D
330
1F
100
AcDbEntity
  8
0
  6
Continuous
 62
     7
370
    25
100
AcDbLine
 10
80.6535469689
 20
311.0310343003
 30
0.0
 11
81.2139512995
 21
311.0415063896
 31
0.0
  0
SPLINE
  5
28E
330
1F
100
AcDbEntity
  8
0
  6
Continuous
 62
     7
370
    25
100
AcDbSpline
210
0.0
220
0.0
230
1.0
 70
     8
 71
     3
 72
    46
 73
    42
 74
     0
 42
0.00000001
 43
0.00000001
 40
0.0
 40
0.0
 40
0.0
 40
0.0
 40
0.1249999999999999
 40
0.1249999999999999
 40
0.1562499999999999
 40
0.1562499999999999
 40
0.1874999999999999
 40
0.1874999999999999
 40
0.25
 40
0.25
 40
0.2812500000000001
 40
0.2812500000000001
 40
0.3125000000000002
 40
0.3125000000000002
 40
0.3750000000000003
 40
0.3750000000000003
 40
0.4062500000000004
 40
0.4062500000000004
 40
0.4375000000000005
 40
0.4375000000000005
 40
0.4687500000000006
 40
0.4687500000000006
 40
0.5000000000000007
 40
0.5000000000000007
 40
0.5312500000000008
 40
0.5312500000000008
 40
0.5625000000000008
 40
0.5625000000000008
 40
0.6250000000000011
 40
0.6250000000000011
 40
0.656250000000001
 40
0.656250000000001
 40
0.687500000000001
 40
0.687500000000001
 40
0.7500000000000008
 40
0.7500000000000008
 40
0.8125000000000007
 40
0.8125000000000007
 40
0.8750000000000004
 40
0.8750000000000004
 40
1.0
 40
1.0
 40
1.0
 40
1.0
 10
97.7081533322489
 20
308.0435988788652
 30
0.0
 10
98.95646681423204
 20
307.3437149044387
 30
0.0
 10
100.1571680500148
 20
306.5439617520322
 30
0.0
 10
101.5662711417508
 20
305.3656745063861
 30
0.0
 10
101.843402424337
 20
305.1208768494553
 30
0.0
 10
102.3869072191044
 20
304.6105151343651
 30
0.0
 10
102.653568537875
 20
304.3445325652356
 30
0.0
 10
103.424868142153
 20
303.5216905921613
 30
0.0
 10
103.9044420327798
 20
302.9374197210728
 30
0.0
 10
104.5573008163958
 20
301.9929569670137
 30
0.0
 10
104.7637638025919
 20
301.6667184363505
 30
0.0
 10
105.1505646555483
 20
300.9875773184613
 30
0.0
 10
105.3319371174084
 20
300.6321857928367
 30
0.0
 10
105.8189875891748
 20
299.5413268520655
 30
0.0
 10
106.0696925479655
 20
298.7813618822497
 30
0.0
 10
106.3091401193215
 20
297.5811203511575
 30
0.0
 10
106.36563342725
 20
297.1706441470895
 30
0.0
 10
106.4260163139998
 20
296.3477655683454
 30
0.0
 10
106.4300568318195
 20
295.9329847845373
 30
0.0
 10
106.3869631865212
 20
295.1167813375824
 30
0.0
 10
106.340119068751
 20
294.7127951033967
 30
0.0
 10
106.1980589392081
 20
293.9126946415412
 30
0.0
 10
106.1021985745354
 20
293.5146463894057
 30
0.0
 10
105.8667781452756
 20
292.7365256185326
 30
0.0
 10
105.7270311965993
 20
292.355568853791
 30
0.0
 10
105.4128563652923
 20
291.6197944113075
 30
0.0
 10
105.2391520909591
 20
291.2659998391931
 30
0.0
 10
104.6757180388971
 20
290.2405752089106
 30
0.0
 10
104.2440577855412
 20
289.6045712837302
 30
0.0
 10
103.5312530233579
 20
288.7063670260939
 30
0.0
 10
103.2819990477744
 20
288.4157994140054
 30
0.0
 10
102.7715183210211
 20
287.8599565684162
 30
0.0
 10
102.5094474460422
 20
287.5935235327896
 30
0.0
 10
101.7055528441657
 20
286.8241668657377
 30
0.0
 10
101.1461805162567
 20
286.3509565551911
 30
0.0
 10
99.99064023807503
 20
285.4680484343852
 30
0.0
 10
99.39438913547257
 20
285.0584796935017
 30
0.0
 10
98.17149210929553
 20
284.2934375472621
 30
0.0
 10
97.54966589283256
 20
283.9410929053516
 30
0.0
 10
95.66808224800826
 20
282.9643958378666
 30
0.0
 10
94.3878880231659
 20
282.4171415028832
 30
0.0
 10
93.09904956996255
 20
281.9513608465321
 30
0.0
  0
LINE
  5
28F
330
1F
100
AcDbEntity
  8
0
  6
Continuous
 62
     7
370
    25
100
AcDbLine
 10
56.4139512995
 20
364.0415063896
 30
0.0
 11
106.0139511552
 21
364.0415063896
 31
0.0
  0
LWPOLYLINE
  5
290
330
1F
100
AcDbEntity
  8
0
  6
Continuous
 62
     7
370
    25
100
AcDbPolyline
 90
        9
 70
   128
 43
0.0
 10
91.4500814117
 20
308.0937881085
 10
90.8894820171
 20
308.7472422807
 10
90.4563624509
 20
309.5269690824
 10
90.1585788966
 20
310.4188253592
 10
90.0015327316
 20
311.4066340849
 10
89.9880725538
 20
312.4724777902
 10
90.118442512
 20
313.59702356
 10
90.3902778775
 20
314.759873706
 10
90.7986479366
 20
315.9399357522
  0
ARC
  5
291
330
1F
100
AcDbEntity
  8
0
  6
Continuous
 62
     7
370
    25
100
AcDbCircle
 10
61.4701912505
 20
309.4319114891
 30
0.0
 40
7.748014529181534
100
AcDbArc
 50
327.7818157888
 51
13.7464277328
  0
SPLINE
  5
292
330
1F
100
AcDbEntity
  8
0
  6
Continuous
 62
     7
370
    25
100
AcDbSpline
210
0.0
220
0.0
230
1.0
 70
     8
 71
     3
 72
    42
 73
    38
 74
     0
 42
0.00000001
 43
0.00000001
 40
0.0
 40
0.0
 40
0.0
 40
0.0
 40
0.0624999999999998
 40
0.0624999999999998
 40
0.1249999999999997
 40
0.1249999999999997
 40
0.1874999999999996
 40
0.1874999999999996
 40
0.2499999999999995
 40
0.2499999999999995
 40
0.3749999999999996
 40
0.3749999999999996
 40
0.4062499999999997
 40
0.4062499999999997
 40
0.4374999999999998
 40
0.4374999999999998
 40
0.4999999999999999
 40
0.4999999999999999
 40
0.5312499999999999
 40
0.5312499999999999
 40
0.5625
 40
0.5625
 40
0.59375
 40
0.59375
 40
0.625
 40
0.625
 40
0.6875
 40
0.6875
 40
0.71875
 40
0.71875
 40
0.75
 40
0.75
 40
0.8125
 40
0.8125
 40
0.875
 40
0.875
 40
1.0
 40
1.0
 40
1.0
 40
1.0
 10
68.99627852496748
 20
311.273036004585
 30
0.0
 10
69.1901023202428
 20
311.7052094201559
 30
0.0
 10
69.40348267142244
 20
312.1583185507332
 30
0.0
 10
69.86406915730697
 20
313.0720998833239
 30
0.0
 10
70.11206252778429
 20
313.5348293968499
 30
0.0
 10
70.64703486984223
 20
314.4610389941257
 30
0.0
 10
70.93399519487788
 20
314.9246314532411
 30
0.0
 10
71.55293307693957
 20
315.8450918395047
 30
0.0
 10
71.88553186939109
 20
316.3028718176407
 30
0.0
 10
72.96083083179576
 20
317.6503455377884
 30
0.0
 10
73.76552809334646
 20
318.5001961749926
 30
0.0
 10
74.93758295232209
 20
319.4525077551317
 30
0.0
 10
75.18053563479923
 20
319.6373321731347
 30
0.0
 10
75.686239643202
 20
319.9936327420466
 30
0.0
 10
75.94836500005259
 20
320.1644995721253
 30
0.0
 10
76.75247081551274
 20
320.6439767444014
 30
0.0
 10
77.31632548370138
 20
320.9230167569308
 30
0.0
 10
78.21397427025882
 20
321.2646195717035
 30
0.0
 10
78.52188735255655
 20
321.365585730567
 30
0.0
 10
79.15777159534709
 20
321.5376303509986
 30
0.0
 10
79.48402865559451
 20
321.6079921233838
 30
0.0
 10
80.14220205573478
 20
321.7121956112339
 30
0.0
 10
80.4774573989076
 20
321.7464461284723
 30
0.0
 10
81.14292126144608
 20
321.7766914870369
 30
0.0
 10
81.47439605294859
 20
321.7730717670149
 30
0.0
 10
82.46512797707791
 20
321.707169029306
 30
0.0
 10
83.12633678947132
 20
321.5875504577976
 30
0.0
 10
84.07633744183458
 20
321.311409577521
 30
0.0
 10
84.38540735203505
 20
321.2037787286932
 30
0.0
 10
84.98160620377692
 20
320.9645348397885
 30
0.0
 10
85.27018204442625
 20
320.8325032769584
 30
0.0
 10
86.11088208466646
 20
320.4040245426287
 30
0.0
 10
86.63816224126882
 20
320.0754203115935
 30
0.0
 10
87.63867889264002
 20
319.3497923829224
 30
0.0
 10
88.10173364634247
 20
318.9600355700628
 30
0.0
 10
89.39558775473843
 20
317.7412061621565
 30
0.0
 10
90.13840847053555
 20
316.8587564369401
 30
0.0
 10
90.79864793657997
 20
315.9399357521579
 30
0.0
  0
SPLINE
  5
293
330
1F
100
AcDbEntity
  8
0
  6
Continuous
 62
     7
370
    25
100
AcDbSpline
210
0.0
220
0.0
230
1.0
 70
     8
 71
     3
 72
     8
 73
     4
 74
     0
 42
0.00000001
 43
0.00000001
 40
0.0
 40
0.0
 40
0.0
 40
0.0
 40
0.000098823642892
 40
0.000098823642892
 40
0.000098823642892
 40
0.000098823642892
 10
65.26651995030487
 20
354.3236641536907
 30
0.0
 10
65.26922575217537
 20
354.3114232829896
 30
0.0
 10
65.27190947205435
 20
354.299347622934
 30
0.0
 10
65.27458002270714
 20
354.2874192466866
 30
0.0
  0
SPLINE
  5
294
330
1F
100
AcDbEntity
  8
0
  6
Continuous
 62
     7
370
    25
100
AcDbSpline
210
0.0
220
0.0
230
1.0
 70
     8
 71
     3
 72
     8
 73
     4
 74
     0
 42
0.00000001
 43
0.00000001
 40
0.0
 40
0.0
 40
0.0
 40
0.0
 40
0.0002560048126404
 40
0.0002560048126404
 40
0.0002560048126404
 40
0.0002560048126404
 10
65.24515256433658
 20
354.4146265847379
 30
0.0
 10
65.25231634417821
 20
354.3856975997871
 30
0.0
 10
65.25951051126196
 20
354.3553743975095
 30
0.0
 10
65.26651995030555
 20
354.3236641536985
 30
0.0
  0
SPLINE
  5
295
330
1F
100
AcDbEntity
  8
0
  6
Continuous
 62
     7
370
    25
100
AcDbSpline
210
0.0
220
0.0
230
1.0
 70
     8
 71
     3
 72
     8
 73
     4
 74
     0
 42
0.00000001
 43
0.00000001
 40
0.0
 40
0.0
 40
0.0
 40
0.0
 40
0.0002560048126397
 40
0.0002560048126397
 40
0.0002560048126397
 40
0.0002560048126397
 10
97.1613826487731
 20
354.323664153691
 30
0.0
 10
97.16839208781653
 20
354.3553743975019
 30
0.0
 10
97.17558625489897
 20
354.3856975997952
 30
0.0
 10
97.1827500347407
 20
354.4146265847458
 30
0.0
  0
SPLINE
  5
296
330
1F
100
AcDbEntity
  8
0
  6
Continuous
 62
     7
370
    25
100
AcDbSpline
210
0.0
220
0.0
230
1.0
 70
     8
 71
     3
 72
     8
 73
     4
 74
     0
 42
0.00000001
 43
0.00000001
 40
0.0000000000000011
 40
0.0000000000000011
 40
0.0000000000000011
 40
0.0000000000000011
 40
0.0000988236428765
 40
0.0000988236428765
 40
0.0000988236428765
 40
0.0000988236428765
 10
97.15332257637216
 20
354.2874192466898
 30
0.0
 10
97.15599312702453
 20
354.2993476229353
 30
0.0
 10
97.15867684690302
 20
354.3114232829918
 30
0.0
 10
97.16138264877311
 20
354.323664153691
 30
0.0
  0
LINE
  5
297
330
1F
100
AcDbEntity
  8
0
  6
Continuous
 62
     7
370
    25
100
AcDbLine
 10
97.1533225764
 20
354.2874192467
 30
0.0
 11
90.388764514
 21
354.2874192467
 31
0.0
  0
SPLINE
  5
298
330
1F
100
AcDbEntity
  8
0
  6
Continuous
 62
     7
370
    25
100
AcDbSpline
210
0.0
220
0.0
230
1.0
 70
     8
 71
     3
 72
     8
 73
     4
 74
     0
 42
0.00000001
 43
0.00000001
 40
0.0
 40
0.0
 40
0.0
 40
0.0
 40
0.000098823642892
 40
0.000098823642892
 40
0.000098823642892
 40
0.000098823642892
 10
90.31348130564635
 20
354.3236641536907
 30
0.0
 10
90.33850969524194
 20
354.3114232829896
 30
0.0
 10
90.36360867382706
 20
354.299347622934
 30
0.0
 10
90.38876451397398
 20
354.2874192466866
 30
0.0
  0
SPLINE
  5
299
330
1F
100
AcDbEntity
  8
0
  6
Continuous
 62
     7
370
    25
100
AcDbSpline
210
0.0
220
0.0
230
1.0
 70
     8
 71
     3
 72
     8
 73
     4
 74
     0
 42
0.00000001
 43
0.00000001
 40
0.0
 40
0.0
 40
0.0
 40
0.0
 40
0.0002560048126404
 40
0.0002560048126404
 40
0.0002560048126404
 40
0.0002560048126404
 10
90.11775327103851
 20
354.4146265847379
 30
0.0
 10
90.18342009403472
 20
354.3856975997871
 30
0.0
 10
90.24864471390171
 20
354.3553743975095
 30
0.0
 10
90.3134813056484
 20
354.3236641536985
 30
0.0
  0
SPLINE
  5
29A
330
1F
100
AcDbEntity
  8
0
  6
Continuous
 62
     7
370
    25
100
AcDbSpline
210
0.0
220
0.0
230
1.0
 70
     8
 71
     3
 72
    14
 73
    10
 74
     0
 42
0.00000001
 43
0.00000001
 40
0.0
 40
0.0
 40
0.0
 40
0.0
 40
0.25
 40
0.25
 40
0.5
 40
0.5
 40
0.75
 40
0.75
 40
1.0
 40
1.0
 40
1.0
 40
1.0
 10
88.2789480632418
 20
354.4146265847379
 30
0.0
 10
88.43466338494581
 20
354.4764781419494
 30
0.0
 10
88.59256291568474
 20
354.5186882816593
 30
0.0
 10
88.90838285370754
 20
354.5738404294411
 30
0.0
 10
89.06636181942743
 20
354.5869146732529
 30
0.0
 10
89.38121898826702
 20
354.587078439015
 30
0.0
 10
89.53428977356667
 20
354.5741684487405
 30
0.0
 10
89.83207856287665
 20
354.5190919620314
 30
0.0
 10
89.9775354181186
 20
354.4763984197676
 30
0.0
 10
90.11775327103888
 20
354.4146265847392
 30
0.0
  0
SPLINE
  5
29B
330
1F
100
AcDbEntity
  8
0
  6
Continuous
 62
     7
370
    25
100
AcDbSpline
210
0.0
220
0.0
230
1.0
 70
     8
 71
     3
 72
     8
 73
     4
 74
     0
 42
0.00000001
 43
0.00000001
 40
0.0
 40
0.0
 40
0.0
 40
0.0
 40
0.0002560048126397
 40
0.0002560048126397
 40
0.0002560048126397
 40
0.0002560048126397
 10
88.06185264266624
 20
354.323664153691
 30
0.0
 10
88.13369867345625
 20
354.3553743975019
 30
0.0
 10
88.20611746040103
 20
354.3856975997952
 30
0.0
 10
88.27894806323874
 20
354.4146265847458
 30
0.0
  0
SPLINE
  5
29C
330
1F
100
AcDbEntity
  8
0
  6
Continuous
 62
     7
370
    25
100
AcDbSpline
210
0.0
220
0.0
230
1.0
 70
     8
 71
     3
 72
     8
 73
     4
 74
     0
 42
0.00000001
 43
0.00000001
 40
0.0000000000000011
 40
0.0000000000000011
 40
0.0000000000000011
 40
0.0000000000000011
 40
0.0000988236428765
 40
0.0000988236428765
 40
0.0000988236428765
 40
0.0000988236428765
 10
87.97850936195032
 20
354.2874192466897
 30
0.0
 10
88.00633575274566
 20
354.2993476229353
 30
0.0
 10
88.03411845120445
 20
354.3114232829918
 30
0.0
 10
88.06185264266622
 20
354.323664153691
 30
0.0
  0
LINE
  5
29D
330
1F
100
AcDbEntity
  8
0
  6
Continuous
 62
     7
370
    25
100
AcDbLine
 10
87.978509362
 20
354.2874192467
 30
0.0
 11
74.4493932371
 21
354.2874192467
 31
0.0
  0
SPLINE
  5
29E
330
1F
100
AcDbEntity
  8
0
  6
Continuous
 62
     7
370
    25
100
AcDbSpline
210
0.0
220
0.0
230
1.0
 70
     8
 71
     3
 72
     8
 73
     4
 74
     0
 42
0.00000001
 43
0.00000001
 40
0.0
 40
0.0
 40
0.0
 40
0.0
 40
0.0000988236428927
 40
0.0000988236428927
 40
0.0000988236428927
 40
0.0000988236428927
 10
74.36604995641166
 20
354.323664153691
 30
0.0
 10
74.39378414787798
 20
354.3114232829898
 30
0.0
 10
74.42156684634226
 20
354.2993476229341
 30
0.0
 10
74.44939323714217
 20
354.2874192466866
 30
0.0
  0
SPLINE
  5
29F
330
1F
100
AcDbEntity
  8
0
  6
Continuous
 62
     7
370
    25
100
AcDbSpline
210
0.0
220
0.0
230
1.0
 70
     8
 71
     3
 72
     8
 73
     4
 74
     0
 42
0.00000001
 43
0.00000001
 40
0.0
 40
0.0
 40
0.0
 40
0.0
 40
0.0002560048126397
 40
0.0002560048126397
 40
0.0002560048126397
 40
0.0002560048126397
 10
74.14895453583611
 20
354.4146265847379
 30
0.0
 10
74.22178513867375
 20
354.3856975997872
 30
0.0
 10
74.2942039256243
 20
354.3553743975096
 30
0.0
 10
74.3660499564144
 20
354.3236641536988
 30
0.0
  0
SPLINE
  5
2A0
330
1F
100
AcDbEntity
  8
0
  6
Continuous
 62
     7
370
    25
100
AcDbSpline
210
0.0
220
0.0
230
1.0
 70
     8
 71
     3
 72
    14
 73
    10
 74
     0
 42
0.00000001
 43
0.00000001
 40
0.0
 40
0.0
 40
0.0
 40
0.0
 40
0.25
 40
0.25
 40
0.5
 40
0.5
 40
0.75
 40
0.75
 40
1.0
 40
1.0
 40
1.0
 40
1.0
 10
72.3101493280394
 20
354.4146265847379
 30
0.0
 10
72.45054814487884
 20
354.4764781419494
 30
0.0
 10
72.5943974073796
 20
354.5186882816593
 30
0.0
 10
72.8910932698314
 20
354.5738404294411
 30
0.0
 10
73.04382928719123
 20
354.5869146732529
 30
0.0
 10
73.35862384623967
 20
354.587078439015
 30
0.0
 10
73.51687799844758
 20
354.5741684487405
 30
0.0
 10
73.83378141654003
 20
354.5190919620314
 30
0.0
 10
73.9934399199184
 20
354.4763984197676
 30
0.0
 10
74.14895453583648
 20
354.4146265847392
 30
0.0
  0
SPLINE
  5
2A1
330
1F
100
AcDbEntity
  8
0
  6
Continuous
 62
     7
370
    25
100
AcDbSpline
210
0.0
220
0.0
230
1.0
 70
     8
 71
     3
 72
     8
 73
     4
 74
     0
 42
0.00000001
 43
0.00000001
 40
0.0
 40
0.0
 40
0.0
 40
0.0
 40
0.0002560048126397
 40
0.0002560048126397
 40
0.0002560048126397
 40
0.0002560048126397
 10
72.1144212934321
 20
354.323664153691
 30
0.0
 10
72.17925788517867
 20
354.3553743975019
 30
0.0
 10
72.24448250504103
 20
354.3856975997952
 30
0.0
 10
72.310149328037
 20
354.4146265847458
 30
0.0
  0
SPLINE
  5
2A2
330
1F
100
AcDbEntity
  8
0
  6
Continuous
 62
     7
370
    25
100
AcDbSpline
210
0.0
220
0.0
230
1.0
 70
     8
 71
     3
 72
     8
 73
     4
 74
     0
 42
0.00000001
 43
0.00000001
 40
0.0000000000000011
 40
0.0000000000000011
 40
0.0000000000000011
 40
0.0000000000000011
 40
0.0000988236428765
 40
0.0000988236428765
 40
0.0000988236428765
 40
0.0000988236428765
 10
72.03913808511712
 20
354.2874192466897
 30
0.0
 10
72.06429392526007
 20
354.2993476229353
 30
0.0
 10
72.08939290384039
 20
354.3114232829918
 30
0.0
 10
72.11442129343209
 20
354.323664153691
 30
0.0
  0
LINE
  5
2A3
330
1F
100
AcDbEntity
  8
0
  6
Continuous
 62
     7
370
    25
100
AcDbLine
 10
72.0391380851
 20
354.2874192467
 30
0.0
 11
65.2745800227
 21
354.2874192467
 31
0.0
  0
LINE
  5
2A4
330
1F
100
AcDbEntity
  8
0
  6
Continuous
 62
     7
370
    25
100
AcDbLine
 10
110.2139512995
 20
306.5327465564
 30
0.0
 11
110.2139512995
 21
280.648969793
 31
0.0
  0
LINE
  5
2A5
330
1F
100
AcDbEntity
  8
0
  6
Continuous
 62
     7
370
    25
100
AcDbLine
 10
110.2139512995
 20
311.4340429862
 30
0.0
 11
110.2139512995
 21
307.8455930516
 31
0.0
  0
ELLIPSE
  5
2A6
330
1F
100
AcDbEntity
  8
0
  6
Continuous
 62
     7
370
    25
100
AcDbEllipse
 10
118.4547076883
 20
296.1335396763
 30
0.0
 11
-5.596045292391636
 21
15.00796136777751
 31
0.0
210
0.0
220
0.0
230
1.0
 40
0.4514218124
 41
0.5258794326610039
 42
0.6494913437152808
  0
SPLINE
  5
2A7
330
1F
100
AcDbEntity
  8
0
  6
Continuous
 62
     7
370
    25
100
AcDbSpline
210
0.0
220
0.0
230
1.0
 70
     8
 71
     3
 72
     8
 73
     4
 74
     0
 42
0.00000001
 43
0.00000001
 40
0.0000002008695006
 40
0.0000002008695006
 40
0.0000002008695006
 40
0.0000002008695006
 40
0.0003147847660132
 40
0.0003147847660132
 40
0.0003147847660132
 40
0.0003147847660132
 10
110.2139512995389
 20
306.5327465564379
 30
0.0
 10
110.1095439169299
 20
306.5411871123298
 30
0.0
 10
110.0051329024058
 20
306.5495940380763
 30
0.0
 10
109.9007183873351
 20
306.5579681601699
 30
0.0
  0
SPLINE
  5
2A8
330
1F
100
AcDbEntity
  8
0
  6
Continuous
 62
     7
370
    25
100
AcDbSpline
210
0.0
220
0.0
230
1.0
 70
     8
 71
     3
 72
     9
 73
     5
 74
     0
 42
0.00000001
 43
0.00000001
 40
0.0
 40
0.0
 40
0.0
 40
0.0
 40
0.5175405756447717
 40
1.0
 40
1.0
 40
1.0
 40
1.0
 10
104.573016022314
 20
311.5390269079785
 30
0.0
 10
104.583160389489
 20
311.5443924104068
 30
0.0
 10
104.6027614945083
 20
311.5547597181711
 30
0.0
 10
104.5947400483231
 20
311.5505131013078
 30
0.0
 10
104.5908700260141
 20
311.5484642809805
 30
0.0
  0
ARC
  5
2A9
330
1F
100
AcDbEntity
  8
0
  6
Continuous
 62
     7
370
    25
100
AcDbCircle
 10
89.5680292669
 20
354.4590709787
 30
0.0
 40
1.59876134718267
100
AcDbArc
 50
186.1634674732
 51
222.4427022402
  0
SPLINE
  5
2AA
330
1F
100
AcDbEntity
  8
0
  6
Continuous
 62
     7
370
    25
100
AcDbSpline
210
0.0
220
0.0
230
1.0
 70
     8
 71
     3
 72
    14
 73
    10
 74
     0
 42
0.00000001
 43
0.00000001
 40
0.0
 40
0.0
 40
0.0
 40
0.0
 40
0.25
 40
0.25
 40
0.5
 40
0.5
 40
0.75
 40
0.75
 40
1.0
 40
1.0
 40
1.0
 40
1.0
 10
88.38821920336925
 20
353.3801427793836
 30
0.0
 10
87.80291533346231
 20
353.3180891471964
 30
0.0
 10
87.21504166807733
 20
353.2995646839232
 30
0.0
 10
86.03096793477621
 20
353.2946219677214
 30
0.0
 10
85.43430908163558
 20
353.3100835715184
 30
0.0
 10
84.23441299226897
 20
353.3577479771453
 30
0.0
 10
83.63285048521432
 20
353.3901867174672
 30
0.0
 10
82.4256922861888
 20
353.4621629267378
 30
0.0
 10
81.81792142242442
 20
353.5019784705703
 30
0.0
 10
81.21395129953896
 20
353.5415063896186
 30
0.0
  0
SPLINE
  5
2AB
330
1F
100
AcDbEntity
  8
0
  6
Continuous
 62
     7
370
    25
100
AcDbSpline
210
0.0
220
0.0
230
1.0
 70
     8
 71
     3
 72
    12
 73
     8
 74
     0
 42
0.00000001
 43
0.00000001
 40
0.0
 40
0.0
 40
0.0
 40
0.0
 40
0.2499999999999999
 40
0.2499999999999999
 40
0.4999999999999998
 40
0.4999999999999998
 40
1.0
 40
1.0
 40
1.0
 40
1.0
 10
87.9785093619499
 20
354.2874192466896
 30
0.0
 10
87.45635123702081
 20
354.1755021349869
 30
0.0
 10
86.91772419943295
 20
354.0961219894418
 30
0.0
 10
85.81467799812452
 20
353.9543741523263
 30
0.0
 10
85.25482297869523
 20
353.894699355385
 30
0.0
 10
83.55236029364929
 20
353.728761035083
 30
0.0
 10
82.38173039381999
 20
353.6354860604464
 30
0.0
 10
81.21395129953896
 20
353.5415063896186
 30
0.0
  0
SPLINE
  5
2AC
330
1F
100
AcDbEntity
  8
0
  6
Continuous
 62
     7
370
    25
100
AcDbSpline
210
0.0
220
0.0
230
1.0
 70
     8
 71
     3
 72
    16
 73
    12
 74
     0
 42
0.00000001
 43
0.00000001
 40
0.0
 40
0.0
 40
0.0
 40
0.0
 40
0.25
 40
0.25
 40
0.5
 40
0.5
 40
0.75
 40
0.75
 40
0.875
 40
0.875
 40
1.0
 40
1.0
 40
1.0
 40
1.0
 10
88.48976740496657
 20
351.7915063896186
 30
0.0
 10
87.85741150426188
 20
351.7915063896186
 30
0.0
 10
87.23632581983988
 20
351.8595015584015
 30
0.0
 10
86.00640078235341
 20
352.0693761362282
 30
0.0
 10
85.39779471692387
 20
352.2126630100195
 30
0.0
 10
84.18798456624906
 20
352.5438941873558
 30
0.0
 10
83.58868741962111
 20
352.7316095642751
 30
0.0
 10
82.69564141419403
 20
353.0278020152981
 30
0.0
 10
82.39878915183998
 20
353.1290621071054
 30
0.0
 10
81.80589863838753
 20
353.3340636216288
 30
0.0
 10
81.50832154935183
 20
353.4383480679506
 30
0.0
 10
81.21395129953896
 20
353.5415063896186
 30
0.0
  0
SPLINE
  5
2AD
330
1F
100
AcDbEntity
  8
0
  6
Continuous
 62
     7
370
    25
100
AcDbSpline
210
0.0
220
0.0
230
1.0
 70
     8
 71
     3
 72
     8
 73
     4
 74
     0
 42
0.00000001
 43
0.00000001
 40
0.0
 40
0.0
 40
0.0
 40
0.0
 40
0.0001055072942668
 40
0.0001055072942668
 40
0.0001055072942668
 40
0.0001055072942668
 10
88.48976740496657
 20
353.3913470417996
 30
0.0
 10
88.45592913813665
 20
353.3874632187853
 30
0.0
 10
88.42207929953864
 20
353.3837326103437
 30
0.0
 10
88.38821920336929
 20
353.3801427793831
 30
0.0
  0
LINE
  5
2AE
330
1F
100
AcDbEntity
  8
0
  6
Continuous
 62
     7
370
    25
100
AcDbLine
 10
88.489767405
 20
353.3913470418
 30
0.0
 11
88.489767405
 21
351.7915063896
 31
0.0
  0
LINE
  5
2AF
330
1F
100
AcDbEntity
  8
0
  6
Continuous
 62
     7
370
    25
100
AcDbLine
 10
73.9381351941
 20
351.7915063896
 30
0.0
 11
73.9381351941
 21
353.3913470418
 31
0.0
  0
SPLINE
  5
2B0
330
1F
100
AcDbEntity
  8
0
  6
Continuous
 62
     7
370
    25
100
AcDbSpline
210
0.0
220
0.0
230
1.0
 70
     8
 71
     3
 72
     8
 73
     4
 74
     0
 42
0.00000001
 43
0.00000001
 40
0.0
 40
0.0
 40
0.0
 40
0.0
 40
0.0001055072942852
 40
0.0001055072942852
 40
0.0001055072942852
 40
0.0001055072942852
 10
74.03968339572634
 20
353.3801427793817
 30
0.0
 10
74.00582329955108
 20
353.3837326103429
 30
0.0
 10
73.97197346094714
 20
353.3874632187847
 30
0.0
 10
73.93813519411133
 20
353.3913470417996
 30
0.0
  0
SPLINE
  5
2B1
330
1F
100
AcDbEntity
  8
0
  6
Continuous
 62
     7
370
    25
100
AcDbSpline
210
0.0
220
0.0
230
1.0
 70
     8
 71
     3
 72
    14
 73
    10
 74
     0
 42
0.00000001
 43
0.00000001
 40
0.0
 40
0.0
 40
0.0
 40
0.0
 40
0.2500000000000001
 40
0.2500000000000001
 40
0.5000000000000002
 40
0.5000000000000002
 40
0.7500000000000001
 40
0.7500000000000001
 40
1.0
 40
1.0
 40
1.0
 40
1.0
 10
74.03968339572634
 20
353.3801427793817
 30
0.0
 10
74.62498726565184
 20
353.3180891471935
 30
0.0
 10
75.21286093105557
 20
353.2995646839213
 30
0.0
 10
76.3969346643948
 20
353.2946219677226
 30
0.0
 10
76.99359351755508
 20
353.3100835715216
 30
0.0
 10
78.1934896069601
 20
353.3577479771526
 30
0.0
 10
78.79505211403409
 20
353.3901867174766
 30
0.0
 10
80.00221031309862
 20
353.462162926751
 30
0.0
 10
80.60998117663296
 20
353.5019784705825
 30
0.0
 10
81.21395129953896
 20
353.5415063896186
 30
0.0
  0
SPLINE
  5
2B2
330
1F
100
AcDbEntity
  8
0
  6
Continuous
 62
     7
370
    25
100
AcDbSpline
210
0.0
220
0.0
230
1.0
 70
     8
 71
     3
 72
    16
 73
    12
 74
     0
 42
0.00000001
 43
0.00000001
 40
0.0
 40
0.0
 40
0.0
 40
0.0
 40
0.2499999999999999
 40
0.2499999999999999
 40
0.4999999999999999
 40
0.4999999999999999
 40
0.75
 40
0.75
 40
0.875
 40
0.875
 40
1.0
 40
1.0
 40
1.0
 40
1.0
 10
73.93813519411133
 20
351.7915063896186
 30
0.0
 10
74.57049109481603
 20
351.7915063896186
 30
0.0
 10
75.19157677923803
 20
351.8595015584015
 30
0.0
 10
76.4215018167245
 20
352.0693761362282
 30
0.0
 10
77.03010788215403
 20
352.2126630100195
 30
0.0
 10
78.23991803282885
 20
352.5438941873558
 30
0.0
 10
78.8392151794568
 20
352.7316095642751
 30
0.0
 10
79.73226118488387
 20
353.0278020152981
 30
0.0
 10
80.02911344723795
 20
353.1290621071054
 30
0.0
 10
80.62200396069039
 20
353.3340636216288
 30
0.0
 10
80.91958104972599
 20
353.4383480679508
 30
0.0
 10
81.21395129953896
 20
353.5415063896186
 30
0.0
  0
ARC
  5
2B3
330
1F
100
AcDbEntity
  8
0
  6
Continuous
 62
     7
370
    25
100
AcDbCircle
 10
72.8598733322
 20
354.4590709787
 30
0.0
 40
1.598761347194619
100
AcDbArc
 50
317.5572977601
 51
353.8365325269
  0
SPLINE
  5
2B4
330
1F
100
AcDbEntity
  8
0
  6
Continuous
 62
     7
370
    25
100
AcDbSpline
210
0.0
220
0.0
230
1.0
 70
     8
 71
     3
 72
    18
 73
    14
 74
     0
 42
0.00000001
 43
0.00000001
 40
0.0
 40
0.0
 40
0.0
 40
0.0
 40
0.2500000000000001
 40
0.2500000000000001
 40
0.5000000000000001
 40
0.5000000000000001
 40
0.7500000000000002
 40
0.7500000000000002
 40
0.8750000000000003
 40
0.8750000000000003
 40
0.9375000000000002
 40
0.9375000000000002
 40
1.0
 40
1.0
 40
1.0
 40
1.0
 10
74.44939323714217
 20
354.2874192466867
 30
0.0
 10
74.97381823865032
 20
354.1750162624737
 30
0.0
 10
75.51112003412356
 20
354.0960512362448
 30
0.0
 10
76.60583337022595
 20
353.9552740111652
 30
0.0
 10
77.16347779969757
 20
353.8957002958552
 30
0.0
 10
78.29809360343651
 20
353.7849807727966
 30
0.0
 10
78.87745621094518
 20
353.7339482063212
 30
0.0
 10
79.7508932818718
 20
353.6603305725561
 30
0.0
 10
80.04269472282667
 20
353.6363069923727
 30
0.0
 10
80.48134348729683
 20
353.6005993338682
 30
0.0
 10
80.62771765105389
 20
353.5887521504623
 30
0.0
 10
80.92077708116823
 20
353.565100137766
 30
0.0
 10
81.06889102090962
 20
353.5531804424601
 30
0.0
 10
81.21395129953896
 20
353.5415063896186
 30
0.0
  0
ARC
  5
2B5
330
1F
100
AcDbEntity
  8
0
  6
Continuous
 62
     7
370
    25
100
AcDbCircle
 10
105.1573541432
 20
321.5330174941
 30
0.0
 40
15.40957518232612
100
AcDbArc
 50
201.2821805457
 51
241.0914009813
  0
LINE
  5
2B6
330
1F
100
AcDbEntity
  8
0
  6
Continuous
 62
     7
370
    25
100
AcDbLine
 10
88.719504799
 20
351.7915063896
 30
0.0
 11
88.489767405
 21
351.7915063896
 31
0.0
  0
SPLINE
  5
2B7
330
1F
100
AcDbEntity
  8
0
  6
Continuous
 62
     7
370
    25
100
AcDbSpline
210
0.0
220
0.0
230
1.0
 70
     8
 71
     3
 72
     8
 73
     4
 74
     0
 42
0.00000001
 43
0.00000001
 40
0.0
 40
0.0
 40
0.0
 40
0.0
 40
0.0002416894103822
 40
0.0002416894103822
 40
0.0002416894103822
 40
0.0002416894103822
 10
88.71950479900408
 20
353.4202896334963
 30
0.0
 10
88.64293726930441
 20
353.4111264726484
 30
0.0
 10
88.56634671297888
 20
353.4014872599345
 30
0.0
 10
88.48976740496653
 20
353.3913470417999
 30
0.0
  0
LINE
  5
2B8
330
1F
100
AcDbEntity
  8
0
  6
Continuous
 62
     7
370
    25
100
AcDbLine
 10
88.719504799
 20
351.7915063896
 30
0.0
 11
88.719504799
 21
353.4202896335
 31
0.0
  0
LINE
  5
2B9
330
1F
100
AcDbEntity
  8
0
  6
Continuous
 62
     7
370
    25
100
AcDbLine
 10
91.3175810104
 20
351.7915063896
 30
0.0
 11
88.719504799
 21
351.7915063896
 31
0.0
  0
SPLINE
  5
2BA
330
1F
100
AcDbEntity
  8
0
  6
Continuous
 62
     7
370
    25
100
AcDbSpline
210
0.0
220
0.0
230
1.0
 70
     8
 71
     3
 72
    10
 73
     6
 74
     0
 42
0.00000001
 43
0.00000001
 40
0.0
 40
0.0
 40
0.0
 40
0.0
 40
0.5
 40
0.5
 40
1.0
 40
1.0
 40
1.0
 40
1.0
 10
90.35626922901398
 20
353.4202896334963
 30
0.0
 10
90.1142504098423
 20
353.4627136591826
 30
0.0
 10
89.85941837913705
 20
353.4751347437962
 30
0.0
 10
89.30697530428789
 20
353.4751347437962
 30
0.0
 10
89.01652835844804
 20
353.4627136591829
 30
0.0
 10
88.71950479900387
 20
353.4202896334968
 30
0.0
  0
ARC
  5
2BB
330
1F
100
AcDbEntity
  8
0
  6
Continuous
 62
     7
370
    25
100
AcDbCircle
 10
89.5554830611
 20
351.8495878318
 30
0.0
 40
1.76305491595408
100
AcDbArc
 50
358.1121270215
 51
62.9862857032
  0
LINE
  5
2BC
330
1F
100
AcDbEntity
  8
0
  6
Continuous
 62
     7
370
    25
100
AcDbLine
 10
91.3175810104
 20
351.7915063896
 30
0.0
 11
91.3175810104
 21
341.0415063896
 31
0.0
  0
LINE
  5
2BD
330
1F
100
AcDbEntity
  8
0
  6
Continuous
 62
     7
370
    25
100
AcDbLine
 10
88.719504799
 20
341.0415063896
 30
0.0
 11
91.3175810104
 21
341.0415063896
 31
0.0
  0
LINE
  5
2BE
330
1F
100
AcDbEntity
  8
0
  6
Continuous
 62
     7
370
    25
100
AcDbLine
 10
88.719504799
 20
341.0415063896
 30
0.0
 11
88.719504799
 21
351.7915063896
 31
0.0
  0
LINE
  5
2BF
330
1F
100
AcDbEntity
  8
0
  6
Continuous
 62
     7
370
    25
100
AcDbLine
 10
89.8020365537
 20
339.2915063896
 30
0.0
 11
88.719504799
 21
339.2915063896
 31
0.0
  0
LINE
  5
2C0
330
1F
100
AcDbEntity
  8
0
  6
Continuous
 62
     7
370
    25
100
AcDbLine
 10
88.719504799
 20
339.2915063896
 30
0.0
 11
88.719504799
 21
341.0415063896
 31
0.0
  0
ARC
  5
2C1
330
1F
100
AcDbEntity
  8
0
  6
Continuous
 62
     7
370
    25
100
AcDbCircle
 10
89.6757411823
 20
340.9321313896
 30
0.0
 40
1.645478930724525
100
AcDbArc
 50
274.4019496523
 51
3.8112610495
  0
LINE
  5
2C2
330
1F
100
AcDbEntity
  8
0
  6
Continuous
 62
     7
370
    25
100
AcDbLine
 10
71.1103215887
 20
341.0415063896
 30
0.0
 11
73.7083978001
 21
341.0415063896
 31
0.0
  0
LINE
  5
2C3
330
1F
100
AcDbEntity
  8
0
  6
Continuous
 62
     7
370
    25
100
AcDbLine
 10
73.7083978001
 20
341.0415063896
 30
0.0
 11
73.7083978001
 21
339.2915063896
 31
0.0
  0
LINE
  5
2C4
330
1F
100
AcDbEntity
  8
0
  6
Continuous
 62
     7
370
    25
100
AcDbLine
 10
73.7083978001
 20
339.2915063896
 30
0.0
 11
72.6258660453
 21
339.2915063896
 31
0.0
  0
ARC
  5
2C5
330
1F
100
AcDbEntity
  8
0
  6
Continuous
 62
     7
370
    25
100
AcDbCircle
 10
72.7521614167
 20
340.9321313896
 30
0.0
 40
1.645478930724525
100
AcDbArc
 50
176.1887389505
 51
265.5980503477
  0
LINE
  5
2C6
330
1F
100
AcDbEntity
  8
0
  6
Continuous
 62
     7
370
    25
100
AcDbLine
 10
73.7083978001
 20
351.7915063896
 30
0.0
 11
71.1103215887
 21
351.7915063896
 31
0.0
  0
ARC
  5
2C7
330
1F
100
AcDbEntity
  8
0
  6
Continuous
 62
     7
370
    25
100
AcDbCircle
 10
72.872419538
 20
351.8495878318
 30
0.0
 40
1.763054915954093
100
AcDbArc
 50
117.0137142968
 51
181.8878729785
  0
SPLINE
  5
2C8
330
1F
100
AcDbEntity
  8
0
  6
Continuous
 62
     7
370
    25
100
AcDbSpline
210
0.0
220
0.0
230
1.0
 70
     8
 71
     3
 72
    10
 73
     6
 74
     0
 42
0.00000001
 43
0.00000001
 40
0.0
 40
0.0
 40
0.0
 40
0.0
 40
0.5
 40
0.5
 40
1.0
 40
1.0
 40
1.0
 40
1.0
 10
73.70839780007383
 20
353.4202896334963
 30
0.0
 10
73.41137424062966
 20
353.4627136591826
 30
0.0
 10
73.12092729479002
 20
353.4751347437962
 30
0.0
 10
72.56848421994086
 20
353.4751347437962
 30
0.0
 10
72.3136521892358
 20
353.4627136591829
 30
0.0
 10
72.07163337006415
 20
353.4202896334968
 30
0.0
  0
LINE
  5
2C9
330
1F
100
AcDbEntity
  8
0
  6
Continuous
 62
     7
370
    25
100
AcDbLine
 10
73.7083978001
 20
351.7915063896
 30
0.0
 11
73.7083978001
 21
353.4202896335
 31
0.0
  0
LINE
  5
2CA
330
1F
100
AcDbEntity
  8
0
  6
Continuous
 62
     7
370
    25
100
AcDbLine
 10
73.9381351941
 20
351.7915063896
 30
0.0
 11
73.7083978001
 21
351.7915063896
 31
0.0
  0
LINE
  5
2CB
330
1F
100
AcDbEntity
  8
0
  6
Continuous
 62
     7
370
    25
100
AcDbLine
 10
73.7083978001
 20
341.0415063896
 30
0.0
 11
88.719504799
 21
341.0415063896
 31
0.0
  0
LINE
  5
2CC
330
1F
100
AcDbEntity
  8
0
  6
Continuous
 62
     7
370
    25
100
AcDbLine
 10
73.7083978001
 20
351.7915063896
 30
0.0
 11
73.7083978001
 21
341.0415063896
 31
0.0
  0
SPLINE
  5
2CD
330
1F
100
AcDbEntity
  8
0
  6
Continuous
 62
     7
370
    25
100
AcDbSpline
210
0.0
220
0.0
230
1.0
 70
     8
 71
     3
 72
     8
 73
     4
 74
     0
 42
0.00000001
 43
0.00000001
 40
0.0
 40
0.0
 40
0.0
 40
0.0
 40
0.0002416894103822
 40
0.0002416894103822
 40
0.0002416894103822
 40
0.0002416894103822
 10
73.93813519411133
 20
353.3913470417996
 30
0.0
 10
73.86155588609897
 20
353.4014872599343
 30
0.0
 10
73.78496532977353
 20
353.4111264726486
 30
0.0
 10
73.70839780007385
 20
353.4202896334966
 30
0.0
  0
LINE
  5
2CE
330
1F
100
AcDbEntity
  8
0
  6
Continuous
 62
     7
370
    25
100
AcDbLine
 10
71.1103215887
 20
341.0415063896
 30
0.0
 11
71.1103215887
 21
351.7915063896
 31
0.0
  0
LINE
  5
2CF
330
1F
100
AcDbEntity
  8
0
  6
Continuous
 62
     7
370
    25
100
AcDbLine
 10
88.719504799
 20
339.2915063896
 30
0.0
 11
85.8239836855
 21
339.2915063896
 31
0.0
  0
SPLINE
  5
2D0
330
1F
100
AcDbEntity
  8
0
  6
Continuous
 62
     7
370
    25
100
AcDbSpline
210
0.0
220
0.0
230
1.0
 70
     8
 71
     3
 72
    14
 73
    10
 74
     0
 42
0.00000001
 43
0.00000001
 40
0.0
 40
0.0
 40
0.0
 40
0.0
 40
0.25
 40
0.25
 40
0.5
 40
0.5
 40
0.75
 40
0.75
 40
1.0
 40
1.0
 40
1.0
 40
1.0
 10
76.60391891361415
 20
339.2915063896184
 30
0.0
 10
77.36349714671606
 20
339.2915063896184
 30
0.0
 10
78.1279000153102
 20
339.3109610213506
 30
0.0
 10
79.66647152958642
 20
339.3422905073471
 30
0.0
 10
80.44177951064972
 20
339.3542158233956
 30
0.0
 10
81.99191040483738
 20
339.3541630657641
 30
0.0
 10
82.76496708809827
 20
339.3422231863514
 30
0.0
 10
84.30070021074809
 20
339.310942120911
 30
0.0
 10
85.06440174429302
 20
339.2915063896119
 30
0.0
 10
85.82398368546372
 20
339.2915063896119
 30
0.0
  0
LINE
  5
2D1
330
1F
100
AcDbEntity
  8
0
  6
Continuous
 62
     7
370
    25
100
AcDbLine
 10
76.6039189136
 20
339.2915063896
 30
0.0
 11
73.7083978001
 21
339.2915063896
 31
0.0
  0
SPLINE
  5
2D2
330
1F
100
AcDbEntity
  8
0
  6
Continuous
 62
     7
370
    25
100
AcDbSpline
210
0.0
220
0.0
230
1.0
 70
     8
 71
     3
 72
    26
 73
    22
 74
     0
 42
0.00000001
 43
0.00000001
 40
0.0
 40
0.0
 40
0.0
 40
0.0
 40
0.0164500299912593
 40
0.0742462163199685
 40
0.1327423880177306
 40
0.1909816806447822
 40
0.2480461079420347
 40
0.3053606751456352
 40
0.3637113340690808
 40
0.4221552404295451
 40
0.4797405771634524
 40
0.5366131946726088
 40
0.5946927023357595
 40
0.6532143755230008
 40
0.7112188823310853
 40
0.7680468008763588
 40
0.8257330002977563
 40
0.8842045812241769
 40
0.9425070556221264
 40
0.999702199573512
 40
1.0
 40
1.0
 40
1.0
 40
1.0
 10
114.2387659726241
 20
281.9046095455696
 30
0.0
 10
114.2348504620373
 20
281.898206144546
 30
0.0
 10
114.217178041611
 20
281.8693047809721
 30
0.0
 10
114.1840055276406
 20
282.2764989176899
 30
0.0
 10
114.1395874094105
 20
283.134890833591
 30
0.0
 10
114.0954242671385
 20
284.4456962279236
 30
0.0
 10
114.0543692298876
 20
286.1099371512233
 30
0.0
 10
114.0125594736902
 20
288.0938759305802
 30
0.0
 10
113.9682564779167
 20
290.3513971569046
 30
0.0
 10
113.9238550981759
 20
292.7993664756794
 30
0.0
 10
113.8812596534076
 20
295.3308440842193
 30
0.0
 10
113.8407852999208
 20
297.8791580953484
 30
0.0
 10
113.7969289379323
 20
300.3829974463611
 30
0.0
 10
113.7524709073964
 20
302.7610692215929
 30
0.0
 10
113.7087807273128
 20
304.9028610283943
 30
0.0
 10
113.6684441507977
 20
306.751985300417
 30
0.0
 10
113.6255618333348
 20
308.2606834272261
 30
0.0
 10
113.5811591628741
 20
309.3986533048865
 30
0.0
 10
113.536835052539
 20
310.0399577233027
 30
0.0
 10
113.5092302468965
 20
310.3034041222565
 30
0.0
 10
113.4953055516825
 20
310.2288320063186
 30
0.0
 10
113.4952334249161
 20
310.2284457396528
 30
0.0
  0
SPLINE
  5
2D3
330
1F
100
AcDbEntity
  8
0
  6
Continuous
 62
     7
370
    25
100
AcDbSpline
210
0.0
220
0.0
230
1.0
 70
     8
 71
     3
 72
    25
 73
    21
 74
     0
 42
0.00000001
 43
0.00000001
 40
0.0
 40
0.0
 40
0.0
 40
0.0
 40
0.0215054780825402
 40
0.0794365881361052
 40
0.1379835608616765
 40
0.196187387650343
 40
0.2531819729173179
 40
0.3106599519147292
 40
0.3690927027253911
 40
0.4275322394414049
 40
0.4850299230340959
 40
0.5420105498008311
 40
0.600202748563297
 40
0.6587515771130059
 40
0.7166978472360278
 40
0.7735319047244633
 40
0.8313603198679692
 40
0.8898906013195823
 40
0.948165355098958
 40
1.0
 40
1.0
 40
1.0
 40
1.0
 10
112.7386434032127
 20
281.9112533659795
 30
0.0
 10
112.7335353187811
 20
281.9067729123452
 30
0.0
 10
112.7146671588826
 20
281.8902230849644
 30
0.0
 10
112.6800260897848
 20
282.3346592577922
 30
0.0
 10
112.6355955094208
 20
283.2365370170804
 30
0.0
 10
112.5915529990352
 20
284.5809032263898
 30
0.0
 10
112.5508113487822
 20
286.2756046007592
 30
0.0
 10
112.5086205794909
 20
288.2858838391004
 30
0.0
 10
112.4642644152382
 20
290.5651055575977
 30
0.0
 10
112.4199009704615
 20
293.0243406221626
 30
0.0
 10
112.3776534230804
 20
295.5598488589987
 30
0.0
 10
112.3369526399924
 20
298.1067258308321
 30
0.0
 10
112.2929376827655
 20
300.6033803855506
 30
0.0
 10
112.2484845005496
 20
302.9643225905286
 30
0.0
 10
112.2050154477607
 20
305.0818725631224
 30
0.0
 10
112.1647606939304
 20
306.9010926417669
 30
0.0
 10
112.121593393974
 20
308.3827689425529
 30
0.0
 10
112.0771495672455
 20
309.4623707768947
 30
0.0
 10
112.0343395203983
 20
310.1191079171842
 30
0.0
 10
112.0080539013479
 20
310.1815066338401
 30
0.0
 10
111.995679792091
 20
310.2108811954935
 30
0.0
  0
SPLINE
  5
2D4
330
1F
100
AcDbEntity
  8
0
  6
Continuous
 62
     7
370
    25
100
AcDbSpline
210
0.0
220
0.0
230
1.0
 70
     8
 71
     3
 72
    19
 73
    15
 74
     0
 42
0.00000001
 43
0.00000001
 40
0.0
 40
0.0
 40
0.0
 40
0.0
 40
0.0405097087457854
 40
0.1278641899491146
 40
0.2160178431768426
 40
0.3035256631474902
 40
0.3892112961790566
 40
0.475927436636597
 40
0.5639565050576937
 40
0.6518655333182286
 40
0.7382331049070233
 40
0.8241656598572129
 40
0.911879175595359
 40
0.9999999999999999
 40
0.9999999999999999
 40
0.9999999999999999
 40
0.9999999999999999
 10
111.238766633656
 20
281.9140965647402
 30
0.0
 10
111.232378575355
 20
281.9134628879124
 30
0.0
 10
111.2122154113805
 20
281.9114627606147
 30
0.0
 10
111.1760435819275
 20
282.39673940028
 30
0.0
 10
111.1316032140192
 20
283.3414684836029
 30
0.0
 10
111.0877152071694
 20
284.7190878763456
 30
0.0
 10
111.0472115293325
 20
286.443909899374
 30
0.0
 10
111.0046684589673
 20
288.4801974911958
 30
0.0
 10
110.9602720261735
 20
290.7803290079883
 30
0.0
 10
110.9159606282851
 20
293.2495769571839
 30
0.0
 10
110.874086202057
 20
295.7895249190718
 30
0.0
 10
110.8330966456202
 20
298.3310197083472
 30
0.0
 10
110.7889068673664
 20
300.8331323007649
 30
0.0
 10
110.75930842504
 20
302.3668978002517
 30
0.0
 10
110.7444749224559
 20
303.1355569833693
 30
0.0
  0
LINE
  5
2D5
330
1F
100
AcDbEntity
  8
0
  6
Continuous
 62
     7
370
    25
100
AcDbLine
 10
110.7444749225
 20
303.1355489087
 30
0.0
 11
111.21322508
 21
303.5414978529
 31
0.0
  0
SPLINE
  5
2D6
330
1F
100
AcDbEntity
  8
0
  6
Continuous
 62
     7
370
    25
100
AcDbSpline
210
0.0
220
0.0
230
1.0
 70
     8
 71
     3
 72
    20
 73
    16
 74
     0
 42
0.00000001
 43
0.00000001
 40
0.0
 40
0.0
 40
0.0
 40
0.0
 40
0.0301300913983253
 40
0.1173732779173708
 40
0.2046214803347964
 40
0.2900758996214763
 40
0.3774520390278673
 40
0.4645422371435465
 40
0.5500454956368058
 40
0.6375284090081355
 40
0.6628523632347553
 40
0.7477699010572197
 40
0.8339655149681382
 40
0.9216104593488298
 40
1.0
 40
1.0
 40
1.0
 40
1.0
 10
114.707840347333
 20
281.1679513525752
 30
0.0
 10
114.7006247779353
 20
281.1479153249666
 30
0.0
 10
114.672516166479
 20
281.0698639773695
 30
0.0
 10
114.6202855980949
 20
282.0549287597705
 30
0.0
 10
114.5540481767341
 20
284.0569180582068
 30
0.0
 10
114.4933126836405
 20
286.9956973196042
 30
0.0
 10
114.4266415011938
 20
290.5691672204496
 30
0.0
 10
114.3608741456569
 20
294.5477841005052
 30
0.0
 10
114.3000024956979
 20
298.629740402566
 30
0.0
 10
114.2488483052476
 20
301.6082785277483
 30
0.0
 10
114.1988063583048
 20
304.3302216230839
 30
0.0
 10
114.1511986267794
 20
306.7911604403853
 30
0.0
 10
114.0885180858814
 20
309.2349120279713
 30
0.0
 10
114.0229466049191
 20
310.7833272545715
 30
0.0
 10
113.9829728952077
 20
310.9295195977526
 30
0.0
 10
113.964100184868
 20
310.9985411063054
 30
0.0
  0
SPLINE
  5
2D7
330
1F
100
AcDbEntity
  8
0
  6
Continuous
 62
     7
370
    25
100
AcDbSpline
210
0.0
220
0.0
230
1.0
 70
     8
 71
     3
 72
    20
 73
    16
 74
     0
 42
0.00000001
 43
0.00000001
 40
0.0
 40
0.0
 40
0.0
 40
0.0
 40
0.030021476767391
 40
0.1172744335519343
 40
0.2045324067965824
 40
0.2899963960267467
 40
0.3773823205878785
 40
0.4644822718360577
 40
0.5499951057422486
 40
0.6374878162258143
 40
0.6628146064533428
 40
0.7477416540945454
 40
0.8339469209544935
 40
0.9216016805930901
 40
1.0
 40
1.0
 40
1.0
 40
1.0
 10
113.2077594454726
 20
281.1678854592
 30
0.0
 10
113.2005705844607
 20
281.147961324378
 30
0.0
 10
113.1724883681996
 20
281.070130655242
 30
0.0
 10
113.1202853071581
 20
282.055029815637
 30
0.0
 10
113.0540482528537
 20
284.0568916183623
 30
0.0
 10
112.9933126629133
 20
286.995704519139
 30
0.0
 10
112.9266415067835
 20
290.5691652788888
 30
0.0
 10
112.860874144189
 20
294.5477846103926
 30
0.0
 10
112.8000024961119
 20
298.6297402587516
 30
0.0
 10
112.7488483052211
 20
301.6082785369613
 30
0.0
 10
112.6988063583188
 20
304.3302216182315
 30
0.0
 10
112.651198626774
 20
306.7911604422624
 30
0.0
 10
112.5885180858829
 20
309.2349120274562
 30
0.0
 10
112.5229466049188
 20
310.7833272546853
 30
0.0
 10
112.4829728952076
 20
310.9295195977891
 30
0.0
 10
112.464100184868
 20
310.9985411063054
 30
0.0
  0
SPLINE
  5
2D8
330
1F
100
AcDbEntity
  8
0
  6
Continuous
 62
     7
370
    25
100
AcDbSpline
210
0.0
220
0.0
230
1.0
 70
     8
 71
     3
 72
    17
 73
    13
 74
     0
 42
0.00000001
 43
0.00000001
 40
0.0
 40
0.0
 40
0.0
 40
0.0
 40
0.0455378147311934
 40
0.1769443538592604
 40
0.3083584479824283
 40
0.4370707284446962
 40
0.5686775225094549
 40
0.6998536290110301
 40
0.8286394715629744
 40
0.9604070896159594
 40
0.9985502766627924
 40
1.0
 40
1.0
 40
1.0
 40
1.0
 10
111.7079149736705
 20
281.1680121346293
 30
0.0
 10
111.7006747684645
 20
281.1478727215608
 30
0.0
 10
111.6725418104045
 20
281.0696178590135
 30
0.0
 10
111.6202858450356
 20
282.0548354173255
 30
0.0
 10
111.5540481817789
 20
284.0569435311002
 30
0.0
 10
111.493312426748
 20
286.9956865272682
 30
0.0
 10
111.4266425509327
 20
290.5691849272951
 30
0.0
 10
111.3608702573933
 20
294.5477249319363
 30
0.0
 10
111.3000168571601
 20
298.629957273267
 30
0.0
 10
111.2488098449984
 20
301.607698105282
 30
0.0
 10
111.2200779828164
 20
303.1748218479311
 30
0.0
 10
111.2134671408303
 20
303.5285459851686
 30
0.0
 10
111.2132250800217
 20
303.5414978528569
 30
0.0
  0
SPLINE
  5
2D9
330
1F
100
AcDbEntity
  8
0
  6
Continuous
 62
     7
370
    25
100
AcDbSpline
210
0.0
220
0.0
230
1.0
 70
     8
 71
     3
 72
    16
 73
    12
 74
     0
 42
0.00000001
 43
0.00000001
 40
0.0
 40
0.0
 40
0.0
 40
0.0
 40
0.25
 40
0.25
 40
0.375
 40
0.375
 40
0.5
 40
0.5
 40
0.75
 40
0.75
 40
1.0
 40
1.0
 40
1.0
 40
1.0
 10
85.51626146258259
 20
338.3146215990485
 30
0.0
 10
84.8165125098073
 20
338.3146215990485
 30
0.0
 10
84.10789648754027
 20
338.3446665093004
 30
0.0
 10
83.03072049658591
 20
338.3816754789081
 30
0.0
 10
82.66928349021318
 20
338.3930134260057
 30
0.0
 10
81.94145825709829
 20
338.40877668486
 30
0.0
 10
81.57354992239038
 20
338.4131768238232
 30
0.0
 10
80.47403652911929
 20
338.4130156941289
 30
0.0
 10
79.74998587535853
 20
338.3938106181463
 30
0.0
 10
78.31855699929025
 20
338.3446029295578
 30
0.0
 10
77.61117517981553
 20
338.3146215990485
 30
0.0
 10
76.91164113649532
 20
338.3146215990485
 30
0.0
  0
LWPOLYLINE
  5
2DA
330
1F
100
AcDbEntity
  8
0
  6
Continuous
 62
     7
370
    25
100
AcDbPolyline
 90
        9
 70
   128
 43
0.0
 10
76.9116411365
 20
338.314621599
 10
76.9045326664
 20
338.5063943909
 10
76.8862082547
 20
338.6901496811
 10
76.8573515876
 20
338.8590315335
 10
76.8190393116
 20
339.0067389425
 10
76.7727008631
 20
339.1277609237
 10
76.7200651362
 20
339.2175821297
 10
76.6630959772
 20
339.2728513188
 10
76.6039189136
 20
339.2915063896
  0
LWPOLYLINE
  5
2DB
330
1F
100
AcDbEntity
  8
0
  6
Continuous
 62
     7
370
    25
100
AcDbPolyline
 90
        9
 70
   128
 43
0.0
 10
85.8239836855
 20
339.2915063896
 10
85.7648066219
 20
339.2728513188
 10
85.7078374629
 20
339.2175821297
 10
85.655201736
 20
339.1277609237
 10
85.6088632875
 20
339.0067389425
 10
85.5705510115
 20
338.8590315335
 10
85.5416943444
 20
338.6901496811
 10
85.5233699327
 20
338.5063943909
 10
85.5162614626
 20
338.314621599
  0
SPLINE
  5
2DC
330
1F
100
AcDbEntity
  8
0
  6
Continuous
 62
     7
370
    25
100
AcDbSpline
210
0.0
220
0.0
230
1.0
 70
     8
 71
     3
 72
    20
 73
    16
 74
     0
 42
0.00000001
 43
0.00000001
 40
0.0
 40
0.0
 40
0.0
 40
0.0
 40
0.0618604983634789
 40
0.1486736585079683
 40
0.2346251464162644
 40
0.3196413359554091
 40
0.4065076190857682
 40
0.492226838407726
 40
0.5774389464690521
 40
0.6643319671795412
 40
0.7497945655650844
 40
0.831875366163091
 40
0.9155956773229004
 40
0.9736782238205747
 40
1.0
 40
1.0
 40
1.0
 40
1.0
 10
114.9012493303181
 20
281.1466418867849
 30
0.0
 10
114.8863389735007
 20
281.1595166865395
 30
0.0
 10
114.8505038710305
 20
281.1904595924764
 30
0.0
 10
114.7892692588908
 20
282.4998046211536
 30
0.0
 10
114.7247277727431
 20
284.7850460715386
 30
0.0
 10
114.6630968601985
 20
287.9182914088262
 30
0.0
 10
114.5956273223552
 20
291.6297402611947
 30
0.0
 10
114.5318235728078
 20
295.666034409802
 30
0.0
 10
114.4695893184229
 20
299.7280248231842
 30
0.0
 10
114.4020185559469
 20
303.5224423129137
 30
0.0
 10
114.3398352936039
 20
306.7287464527329
 30
0.0
 10
114.2784542250471
 20
309.1678763368684
 30
0.0
 10
114.2201689342841
 20
310.5045847645857
 30
0.0
 10
114.1779536689115
 20
311.0358095235072
 30
0.0
 10
114.1577342760661
 20
310.9946669809096
 30
0.0
 10
114.1514287893791
 20
310.9818365385417
 30
0.0
  0
SPLINE
  5
2DD
330
1F
100
AcDbEntity
  8
0
  6
Continuous
 62
     7
370
    25
100
AcDbSpline
210
0.0
220
0.0
230
1.0
 70
     8
 71
     3
 72
    20
 73
    16
 74
     0
 42
0.00000001
 43
0.00000001
 40
0.0
 40
0.0
 40
0.0
 40
0.0
 40
0.0618604983634799
 40
0.1486736585079692
 40
0.2346251464162652
 40
0.3196413359554098
 40
0.4065076190857688
 40
0.4922268384077265
 40
0.5774389464690527
 40
0.6643319671795417
 40
0.7497945655650846
 40
0.8318753661630912
 40
0.9155956773229005
 40
0.9736782238205747
 40
1.0
 40
1.0
 40
1.0
 40
1.0
 10
113.4012493303181
 20
281.1466418867849
 30
0.0
 10
113.3863389735007
 20
281.1595166865395
 30
0.0
 10
113.3505038710305
 20
281.1904595924764
 30
0.0
 10
113.2892692588908
 20
282.4998046211535
 30
0.0
 10
113.2247277727431
 20
284.7850460715386
 30
0.0
 10
113.1630968601985
 20
287.9182914088262
 30
0.0
 10
113.0956273223552
 20
291.6297402611947
 30
0.0
 10
113.0318235728078
 20
295.666034409802
 30
0.0
 10
112.9695893184229
 20
299.7280248231842
 30
0.0
 10
112.9020185559469
 20
303.5224423129137
 30
0.0
 10
112.8398352936039
 20
306.7287464527329
 30
0.0
 10
112.7784542250471
 20
309.1678763368684
 30
0.0
 10
112.7201689342841
 20
310.5045847645857
 30
0.0
 10
112.6779536689115
 20
311.0358095235072
 30
0.0
 10
112.6577342760661
 20
310.9946669809096
 30
0.0
 10
112.6514287893791
 20
310.9818365385417
 30
0.0
  0
SPLINE
  5
2DE
330
1F
100
AcDbEntity
  8
0
  6
Continuous
 62
     7
370
    25
100
AcDbSpline
210
0.0
220
0.0
230
1.0
 70
     8
 71
     3
 72
    20
 73
    16
 74
     0
 42
0.00000001
 43
0.00000001
 40
0.0
 40
0.0
 40
0.0
 40
0.0
 40
0.0618604983634794
 40
0.1486736585079687
 40
0.2346251464162648
 40
0.3196413359554094
 40
0.4065076190857684
 40
0.4922268384077261
 40
0.5774389464690524
 40
0.6643319671795413
 40
0.7497945655650845
 40
0.831875366163091
 40
0.9155956773229004
 40
0.9736782238205746
 40
0.9999999999999999
 40
0.9999999999999999
 40
0.9999999999999999
 40
0.9999999999999999
 10
111.9012493303181
 20
281.1466418867849
 30
0.0
 10
111.8863389735007
 20
281.1595166865395
 30
0.0
 10
111.8505038710305
 20
281.1904595924764
 30
0.0
 10
111.7892692588908
 20
282.4998046211535
 30
0.0
 10
111.7247277727431
 20
284.7850460715386
 30
0.0
 10
111.6630968601985
 20
287.9182914088262
 30
0.0
 10
111.5956273223552
 20
291.6297402611947
 30
0.0
 10
111.5318235728078
 20
295.666034409802
 30
0.0
 10
111.4695893184229
 20
299.7280248231842
 30
0.0
 10
111.4020185559469
 20
303.5224423129137
 30
0.0
 10
111.3398352936039
 20
306.7287464527329
 30
0.0
 10
111.2784542250471
 20
309.1678763368684
 30
0.0
 10
111.2201689342841
 20
310.5045847645857
 30
0.0
 10
111.1779536689115
 20
311.0358095235072
 30
0.0
 10
111.1577342760661
 20
310.9946669809096
 30
0.0
 10
111.1514287893791
 20
310.9818365385417
 30
0.0
  0
SPLINE
  5
2DF
330
1F
100
AcDbEntity
  8
0
  6
Continuous
 62
     7
370
    25
100
AcDbSpline
210
0.0
220
0.0
230
1.0
 70
     8
 71
     3
 72
    11
 73
     7
 74
     0
 42
0.00000001
 43
0.00000001
 40
0.0
 40
0.0
 40
0.0
 40
0.0
 40
0.247407500106263
 40
0.5946117337590727
 40
0.9383697589346256
 40
0.9999999999999999
 40
0.9999999999999999
 40
0.9999999999999999
 40
0.9999999999999999
 10
110.4012493303181
 20
281.1466418867849
 30
0.0
 10
110.3863300473679
 20
281.1593658505165
 30
0.0
 10
110.3504734920992
 20
281.1899462416987
 30
0.0
 10
110.2894491240271
 20
282.5028440272066
 30
0.0
 10
110.2417246705525
 20
284.1607023452111
 30
0.0
 10
110.2176164209934
 20
285.26675433624
 30
0.0
 10
110.2139512995389
 20
285.4349048638071
 30
0.0
  0
SPLINE
  5
2E0
330
1F
100
AcDbEntity
  8
0
  6
Continuous
 62
     7
370
    25
100
AcDbSpline
210
0.0
220
0.0
230
1.0
 70
     8
 71
     3
 72
    15
 73
    11
 74
     0
 42
0.00000001
 43
0.00000001
 40
0.0
 40
0.0
 40
0.0
 40
0.0
 40
0.1122126098017221
 40
0.2415294661170061
 40
0.3698923298064516
 40
0.4955833549353422
 40
0.6228002704562132
 40
0.751936791345605
 40
0.8808905659152462
 40
1.0
 40
1.0
 40
1.0
 40
1.0
 10
114.963951299539
 20
297.9372694769346
 30
0.0
 10
114.9513521564361
 20
298.6754832225135
 30
0.0
 10
114.9242334189561
 20
300.2644345192078
 30
0.0
 10
114.8814179147705
 20
302.5546054607762
 30
0.0
 10
114.8375939695875
 20
304.7224243413414
 30
0.0
 10
114.7970830921067
 20
306.5978904006507
 30
0.0
 10
114.7545278556474
 20
308.1441013627959
 30
0.0
 10
114.7101464310051
 20
309.2989750251356
 30
0.0
 10
114.6666468590593
 20
310.0411392913306
 30
0.0
 10
114.6395491844212
 20
310.1562817644329
 30
0.0
 10
114.6265380300922
 20
310.21156829759
 30
0.0
  0
SPLINE
  5
2E1
330
1F
100
AcDbEntity
  8
0
  6
Continuous
 62
     7
370
    25
100
AcDbSpline
210
0.0
220
0.0
230
1.0
 70
     8
 71
     3
 72
    25
 73
    21
 74
     0
 42
0.00000001
 43
0.00000001
 40
0.0
 40
0.0
 40
0.0
 40
0.0
 40
0.025884708229041
 40
0.083646014492707
 40
0.1421068857937579
 40
0.200311035190927
 40
0.2573410295006717
 40
0.3146210064940814
 40
0.3729364520242101
 40
0.4313450909229819
 40
0.4888956804446368
 40
0.5457339761982997
 40
0.6037784332709086
 40
0.6622647912643862
 40
0.720234297205802
 40
0.7770279236225218
 40
0.8346793089658457
 40
0.8931156040871323
 40
0.9513828970411496
 40
1.0
 40
1.0
 40
1.0
 40
1.0
 10
113.8705391476883
 20
281.9084076076733
 30
0.0
 10
113.8643828352201
 20
281.8958213691212
 30
0.0
 10
113.8444888114056
 20
281.8551491435344
 30
0.0
 10
113.80902367513
 20
282.2712443311482
 30
0.0
 10
113.764582668723
 20
283.1362971157729
 30
0.0
 10
113.7204256299021
 20
284.4453246200318
 30
0.0
 10
113.6793689815678
 20
286.1100312570474
 30
0.0
 10
113.6375596658387
 20
288.0938441552731
 30
0.0
 10
113.5932565547636
 20
290.3513991290411
 30
0.0
 10
113.5488552061851
 20
292.7993583340905
 30
0.0
 10
113.5062597458162
 20
295.3308403550498
 30
0.0
 10
113.4657853970748
 20
297.8791458360467
 30
0.0
 10
113.4219290504526
 20
300.3830155512478
 30
0.0
 10
113.3774709797093
 20
302.7609745738326
 30
0.0
 10
113.3337809451976
 20
304.9031832917141
 30
0.0
 10
113.293443813906
 20
306.7507804963317
 30
0.0
 10
113.2505635963743
 20
308.2652665680623
 30
0.0
 10
113.2061530012152
 20
309.3813042325544
 30
0.0
 10
113.1640348811284
 20
310.0684292870282
 30
0.0
 10
113.1383489159671
 20
310.1558792432871
 30
0.0
 10
113.1266654779669
 20
310.1956564576399
 30
0.0
  0
SPLINE
  5
2E2
330
1F
100
AcDbEntity
  8
0
  6
Continuous
 62
     7
370
    25
100
AcDbSpline
210
0.0
220
0.0
230
1.0
 70
     8
 71
     3
 72
    25
 73
    21
 74
     0
 42
0.00000001
 43
0.00000001
 40
0.0
 40
0.0
 40
0.0
 40
0.0
 40
0.0306627135381577
 40
0.088548904715963
 40
0.147050483577738
 40
0.2052091851268879
 40
0.2621595832511928
 40
0.3195929937718155
 40
0.3779804383182027
 40
0.4363746661404585
 40
0.493827773621012
 40
0.5507642186548672
 40
0.6089112966828503
 40
0.6674147306488968
 40
0.7253160760210587
 40
0.7821060685550726
 40
0.8398896440349192
 40
0.8983745442908453
 40
0.9566041177292942
 40
1.0
 40
1.0
 40
1.0
 40
1.0
 10
112.3702193017388
 20
281.9084681104792
 30
0.0
 10
112.3629404211286
 20
281.8995584584533
 30
0.0
 10
112.341920203698
 20
281.8738288397319
 30
0.0
 10
112.3050437985615
 20
282.3301981670614
 30
0.0
 10
112.2605909219862
 20
283.2377271214276
 30
0.0
 10
112.2165543433096
 20
284.5805876757564
 30
0.0
 10
112.1758111275401
 20
286.275683014379
 30
0.0
 10
112.1336207892166
 20
288.2858551266538
 30
0.0
 10
112.0892645123442
 20
290.5651052189393
 30
0.0
 10
112.0449010979013
 20
293.0243320458718
 30
0.0
 10
112.0026535304665
 20
295.5598424899558
 30
0.0
 10
111.9619527632973
 20
298.1067178094696
 30
0.0
 10
111.9179377909212
 20
300.6033770046723
 30
0.0
 10
111.8734846825356
 20
302.964303554752
 30
0.0
 10
111.8300153532778
 20
305.081913563963
 30
0.0
 10
111.789761589461
 20
306.9009166184384
 30
0.0
 10
111.746590537574
 20
308.383420991485
 30
0.0
 10
111.7021609462015
 20
309.4598939328537
 30
0.0
 10
111.6614360443361
 20
310.0945713670296
 30
0.0
 10
111.6371358578579
 20
310.156836618334
 30
0.0
 10
111.6267592447918
 20
310.1834249912598
 30
0.0
  0
SPLINE
  5
2E3
330
1F
100
AcDbEntity
  8
0
  6
Continuous
 62
     7
370
    25
100
AcDbSpline
210
0.0
220
0.0
230
1.0
 70
     8
 71
     3
 72
    19
 73
    15
 74
     0
 42
0.00000001
 43
0.00000001
 40
0.0
 40
0.0
 40
0.0
 40
0.0
 40
0.0532475561386642
 40
0.1394423464909378
 40
0.2264257037311102
 40
0.3127718059995497
 40
0.3973199112399582
 40
0.4828848336205094
 40
0.5697452583404884
 40
0.6564872410560131
 40
0.7417082352434675
 40
0.8264999749873017
 40
0.9130490345028692
 40
1.0
 40
1.0
 40
1.0
 40
1.0
 10
110.8701732349463
 20
281.9050855848951
 30
0.0
 10
110.8616743291938
 20
281.9017415230444
 30
0.0
 10
110.839417770458
 20
281.8929842416758
 30
0.0
 10
110.8010600787047
 20
282.3929442356244
 30
0.0
 10
110.7565989857392
 20
283.3424773698211
 30
0.0
 10
110.7127164797419
 20
284.7188188979872
 30
0.0
 10
110.6722113499823
 20
286.443974989589
 30
0.0
 10
110.6296686823283
 20
288.4801711498529
 30
0.0
 10
110.5852721447664
 20
290.7803266141519
 30
0.0
 10
110.5409607739316
 20
293.2495675686284
 30
0.0
 10
110.4990863268523
 20
295.7895171212397
 30
0.0
 10
110.4580967849078
 20
298.3310114957916
 30
0.0
 10
110.413907011096
 20
300.8331244548136
 30
0.0
 10
110.3843085684202
 20
302.3668903545839
 30
0.0
 10
110.3694750652684
 20
303.1355497586493
 30
0.0
  0
ELLIPSE
  5
2E4
330
1F
100
AcDbEntity
  8
0
  6
Continuous
 62
     7
370
    25
100
AcDbEllipse
 10
102.5529680937
 20
296.0415063896
 30
0.0
 11
5.514779443589616
 21
14.79197504224379
 31
0.0
210
0.0
220
0.0
230
1.0
 40
0.4514183623
 41
5.402723445751572
 42
5.733243257345098
  0
LINE
  5
2E5
330
1F
100
AcDbEntity
  8
0
  6
Continuous
 62
     7
370
    25
100
AcDbLine
 10
110.74446552
 20
307.35138327
 30
0.0
 11
110.3694656628
 21
307.3513832699
 31
0.0
  0
ELLIPSE
  5
2E6
330
1F
100
AcDbEntity
  8
0
  6
Continuous
 62
     7
370
    25
100
AcDbEllipse
 10
118.5609782736
 20
296.0415063896
 30
0.0
 11
-5.514823779167059
 21
14.79197426083272
 31
0.0
210
0.0
220
0.0
230
1.0
 40
0.4514155752
 41
0.5499417359511735
 42
0.6106875643056934
  0
ARC
  5
2E7
330
1F
100
AcDbEntity
  8
0
  6
Continuous
 62
     7
370
    25
100
AcDbCircle
 10
72.786594498
 20
354.4842416918
 30
0.0
 40
1.587597143788355
100
AcDbArc
 50
316.4967713478
 51
354.1948906197
  0
ARC
  5
2E8
330
1F
100
AcDbEntity
  8
0
  6
Continuous
 62
     7
370
    25
100
AcDbCircle
 10
89.6413081011
 20
354.4842416918
 30
0.0
 40
1.587597143788438
100
AcDbArc
 50
185.8051093803
 51
223.5032286522
  0
ARC
  5
2E9
330
1F
100
AcDbEntity
  8
0
  6
Continuous
 62
     7
370
    25
100
AcDbCircle
 10
72.6148715614
 20
354.4995600497
 30
0.0
 40
1.536432317411237
100
AcDbArc
 50
315.3759149485
 51
356.8310931139
  0
ARC
  5
2EA
330
1F
100
AcDbEntity
  8
0
  6
Continuous
 62
     7
370
    25
100
AcDbCircle
 10
89.8130310377
 20
354.4995600497
 30
0.0
 40
1.536432317411024
100
AcDbArc
 50
183.1689068861
 51
224.6240850515
  0
ARC
  5
2EB
330
1F
100
AcDbEntity
  8
0
  6
Continuous
 62
     7
370
    25
100
AcDbCircle
 10
71.3370814976
 20
354.1222652164
 30
0.0
 40
1.016039454124388
100
AcDbArc
 50
316.2990799783
 51
16.723065033
  0
ARC
  5
2EC
330
1F
100
AcDbEntity
  8
0
  6
Continuous
 62
     7
370
    25
100
AcDbCircle
 10
91.0908211015
 20
354.1222652164
 30
0.0
 40
1.016039454124328
100
AcDbArc
 50
163.2769349669
 51
223.7009200217
  0
SPLINE
  5
2ED
330
1F
100
AcDbEntity
  8
0
  6
Continuous
 62
     7
370
    25
100
AcDbSpline
210
0.0
220
0.0
230
1.0
 70
     8
 71
     3
 72
    12
 73
     8
 74
     0
 42
0.00000001
 43
0.00000001
 40
0.0
 40
0.0
 40
0.0
 40
0.0
 40
0.5000000000000004
 40
0.5000000000000004
 40
0.7500000000000002
 40
0.7500000000000002
 40
1.0
 40
1.0
 40
1.0
 40
1.0
 10
68.99627852496765
 20
311.2730360045849
 30
0.0
 10
68.83360967111949
 20
310.9103294851161
 30
0.0
 10
68.67971219984445
 20
310.5791884757114
 30
0.0
 10
68.46093049592459
 20
310.1915708839525
 30
0.0
 10
68.38974585246369
 20
310.0813701351698
 30
0.0
 10
68.25837354101415
 20
309.9287635488968
 30
0.0
 10
68.19681636012855
 20
309.8850919586431
 30
0.0
 10
68.1426808982504
 20
309.8850919586428
 30
0.0
  0
SPLINE
  5
2EE
330
1F
100
AcDbEntity
  8
0
  6
Continuous
 62
     7
370
    25
100
AcDbSpline
210
0.0
220
0.0
230
1.0
 70
     8
 71
     3
 72
    16
 73
    12
 74
     0
 42
0.00000001
 43
0.00000001
 40
0.0
 40
0.0
 40
0.0
 40
0.0
 40
0.2500000000000001
 40
0.2500000000000001
 40
0.3750000000000002
 40
0.3750000000000002
 40
0.5000000000000001
 40
0.5000000000000001
 40
0.7500000000000001
 40
0.7500000000000001
 40
1.0
 40
1.0
 40
1.0
 40
1.0
 10
71.84800377190659
 20
338.3146215990485
 30
0.0
 10
71.30208148297851
 20
338.3146215990485
 30
0.0
 10
70.80107972050841
 20
338.3446665093004
 30
0.0
 10
70.11474687146949
 20
338.3816754789081
 30
0.0
 10
69.89688789971596
 20
338.3930134260057
 30
0.0
 10
69.48329717606741
 20
338.40877668486
 30
0.0
 10
69.28682705674773
 20
338.4131768238232
 30
0.0
 10
68.73754396805741
 20
338.4130156941289
 30
0.0
 10
68.42581213513618
 20
338.3938106181463
 30
0.0
 10
67.90678674979716
 20
338.3446029295578
 30
0.0
 10
67.69947302890316
 20
338.3146215990485
 30
0.0
 10
67.54569360886296
 20
338.3146215990485
 30
0.0
  0
LINE
  5
2EF
330
1F
100
AcDbEntity
  8
0
  6
Continuous
 62
     7
370
    25
100
AcDbLine
 10
76.9116411365
 20
338.314621599
 30
0.0
 11
71.8480037719
 21
338.314621599
 31
0.0
  0
LINE
  5
2F0
330
1F
100
AcDbEntity
  8
0
  6
Continuous
 62
     7
370
    25
100
AcDbLine
 10
90.5798988272
 20
338.314621599
 30
0.0
 11
85.5162614626
 21
338.314621599
 31
0.0
  0
SPLINE
  5
2F1
330
1F
100
AcDbEntity
  8
0
  6
Continuous
 62
     7
370
    25
100
AcDbSpline
210
0.0
220
0.0
230
1.0
 70
     8
 71
     3
 72
    16
 73
    12
 74
     0
 42
0.00000001
 43
0.00000001
 40
0.0
 40
0.0
 40
0.0
 40
0.0
 40
0.2499999999999998
 40
0.2499999999999998
 40
0.3749999999999998
 40
0.3749999999999998
 40
0.4999999999999999
 40
0.4999999999999999
 40
0.7499999999999999
 40
0.7499999999999999
 40
1.0
 40
1.0
 40
1.0
 40
1.0
 10
94.88220899021495
 20
338.3146215990485
 30
0.0
 10
94.72838232636771
 20
338.3146215990485
 30
0.0
 10
94.52076806657081
 20
338.3446665093004
 30
0.0
 10
94.12992492465538
 20
338.3816754789081
 30
0.0
 10
93.98634689003616
 20
338.3930134260057
 30
0.0
 10
93.67211238056984
 20
338.40877668486
 30
0.0
 10
93.5006741651816
 20
338.4131768238232
 30
0.0
 10
92.95044386060083
 20
338.4130156941289
 30
0.0
 10
92.53812503976131
 20
338.3938106181463
 30
0.0
 10
91.62572154903204
 20
338.3446029295578
 30
0.0
 10
91.12565345045134
 20
338.3146215990485
 30
0.0
 10
90.5798988271713
 20
338.3146215990485
 30
0.0
  0
LINE
  5
2F2
330
1F
100
AcDbEntity
  8
0
  6
Continuous
 62
     7
370
    25
100
AcDbLine
 10
91.4324497074
 20
351.7915063896
 30
0.0
 11
91.3175810104
 21
351.7915063896
 31
0.0
  0
SPLINE
  5
2F3
330
1F
100
AcDbEntity
  8
0
  6
Continuous
 62
     7
370
    25
100
AcDbSpline
210
0.0
220
0.0
230
1.0
 70
     8
 71
     3
 72
     8
 73
     4
 74
     0
 42
0.00000001
 43
0.00000001
 40
0.0000000000000002
 40
0.0000000000000002
 40
0.0000000000000002
 40
0.0000000000000002
 40
0.0002416894103824
 40
0.0002416894103824
 40
0.0002416894103824
 40
0.0002416894103824
 10
90.53111809311501
 20
353.3913470417996
 30
0.0
 10
90.47301926376073
 20
353.4014872599342
 30
0.0
 10
90.41474956948437
 20
353.4111264726486
 30
0.0
 10
90.35626922901396
 20
353.4202896334966
 30
0.0
  0
ARC
  5
2F4
330
1F
100
AcDbEntity
  8
0
  6
Continuous
 62
     7
370
    25
100
AcDbCircle
 10
89.6559786332
 20
351.8444834499
 30
0.0
 40
1.777260826753894
100
AcDbArc
 50
358.291859247
 51
60.5009498435
  0
LINE
  5
2F5
330
1F
100
AcDbEntity
  8
0
  6
Continuous
 62
     7
370
    25
100
AcDbLine
 10
91.3175810104
 20
341.0415063896
 30
0.0
 11
98.8231345098
 21
341.0415063896
 31
0.0
  0
ARC
  5
2F6
330
1F
100
AcDbEntity
  8
0
  6
Continuous
 62
     7
370
    25
100
AcDbCircle
 10
97.1812946818
 20
340.9321313896
 30
0.0
 40
1.645478930724526
100
AcDbArc
 50
274.4019496523
 51
3.8112610495
  0
LINE
  5
2F7
330
1F
100
AcDbEntity
  8
0
  6
Continuous
 62
     7
370
    25
100
AcDbLine
 10
97.3075900532
 20
339.2915063896
 30
0.0
 11
95.8598294964
 21
339.2915063896
 31
0.0
  0
SPLINE
  5
2F8
330
1F
100
AcDbEntity
  8
0
  6
Continuous
 62
     7
370
    25
100
AcDbSpline
210
0.0
220
0.0
230
1.0
 70
     8
 71
     3
 72
    14
 73
    10
 74
     0
 42
0.00000001
 43
0.00000001
 40
0.0
 40
0.0
 40
0.0
 40
0.0
 40
0.2499999999999999
 40
0.2499999999999999
 40
0.4999999999999998
 40
0.4999999999999998
 40
0.7499999999999999
 40
0.7499999999999999
 40
1.0
 40
1.0
 40
1.0
 40
1.0
 10
91.24979711050482
 20
339.2915063896184
 30
0.0
 10
91.76501084200143
 20
339.2915063896184
 30
0.0
 10
92.24719440772633
 20
339.3109610213506
 30
0.0
 10
93.14986309980071
 20
339.3422905073471
 30
0.0
 10
93.57080068128725
 20
339.3542158233956
 30
0.0
 10
94.34570004440863
 20
339.3541630657641
 30
0.0
 10
94.69886637525715
 20
339.3422231863514
 30
0.0
 10
95.33347181176067
 20
339.3109421209109
 30
0.0
 10
95.61546380189856
 20
339.2915063896119
 30
0.0
 10
95.8598294964295
 20
339.2915063896119
 30
0.0
  0
LINE
  5
2F9
330
1F
100
AcDbEntity
  8
0
  6
Continuous
 62
     7
370
    25
100
AcDbLine
 10
91.2497971105
 20
339.2915063896
 30
0.0
 11
89.8020365537
 21
339.2915063896
 31
0.0
  0
SPLINE
  5
2FA
330
1F
100
AcDbEntity
  8
0
  6
Continuous
 62
     7
370
    25
100
AcDbSpline
210
0.0
220
0.0
230
1.0
 70
     8
 71
     3
 72
    16
 73
    12
 74
     0
 42
0.00000001
 43
0.00000001
 40
0.0
 40
0.0
 40
0.0
 40
0.0
 40
0.2500000000000001
 40
0.2500000000000001
 40
0.5000000000000001
 40
0.5000000000000001
 40
0.7500000000000002
 40
0.7500000000000002
 40
0.8750000000000001
 40
0.8750000000000001
 40
1.0
 40
1.0
 40
1.0
 40
1.0
 10
91.43244970737615
 20
351.7915063896186
 30
0.0
 10
91.74813673077365
 20
351.7915063896186
 30
0.0
 10
92.05865073824141
 20
351.8593518820488
 30
0.0
 10
92.67401621358704
 20
352.0693085935373
 30
0.0
 10
92.97909907966246
 20
352.2129819701865
 30
0.0
 10
93.58435613840615
 20
352.5444942031243
 30
0.0
 10
93.8834939643625
 20
352.7319349832781
 30
0.0
 10
94.32980181413383
 20
353.0279983375474
 30
0.0
 10
94.47816374898412
 20
353.1292166189267
 30
0.0
 10
94.7744878778447
 20
353.3341364192008
 30
0.0
 10
94.92309854031956
 20
353.4382961366228
 30
0.0
 10
95.07035776008999
 20
353.5415063896186
 30
0.0
  0
SPLINE
  5
2FB
330
1F
100
AcDbEntity
  8
0
  6
Continuous
 62
     7
370
    25
100
AcDbSpline
210
0.0
220
0.0
230
1.0
 70
     8
 71
     3
 72
    16
 73
    12
 74
     0
 42
0.00000001
 43
0.00000001
 40
0.0
 40
0.0
 40
0.0
 40
0.0
 40
0.2499999999999998
 40
0.2499999999999998
 40
0.4999999999999996
 40
0.4999999999999996
 40
0.7499999999999993
 40
0.7499999999999993
 40
0.8749999999999997
 40
0.8749999999999997
 40
1.0
 40
1.0
 40
1.0
 40
1.0
 10
98.70826581280379
 20
351.7915063896186
 30
0.0
 10
98.39208786245143
 20
351.7915063896186
 30
0.0
 10
98.08154502024044
 20
351.8595015584015
 30
0.0
 10
97.4665825014972
 20
352.0693761362282
 30
0.0
 10
97.16227946878243
 20
352.2126630100195
 30
0.0
 10
96.55737439344503
 20
352.5438941873558
 30
0.0
 10
96.25772582013104
 20
352.7316095642751
 30
0.0
 10
95.81120281741752
 20
353.0278020152981
 30
0.0
 10
95.66277668624049
 20
353.1290621071054
 30
0.0
 10
95.36633142951428
 20
353.3340636216288
 30
0.0
 10
95.21754288499717
 20
353.4383480679549
 30
0.0
 10
95.07035776008999
 20
353.5415063896186
 30
0.0
  0
LINE
  5
2FC
330
1F
100
AcDbEntity
  8
0
  6
Continuous
 62
     7
370
    25
100
AcDbLine
 10
98.8231345098
 20
351.7915063896
 30
0.0
 11
98.7082658128
 21
351.7915063896
 31
0.0
  0
LINE
  5
2FD
330
1F
100
AcDbEntity
  8
0
  6
Continuous
 62
     7
370
    25
100
AcDbLine
 10
98.8231345098
 20
341.0415063896
 30
0.0
 11
98.8231345098
 21
351.7915063896
 31
0.0
  0
ARC
  5
2FE
330
1F
100
AcDbEntity
  8
0
  6
Continuous
 62
     7
370
    25
100
AcDbCircle
 10
65.2466079173
 20
340.9321313896
 30
0.0
 40
1.645478930724531
100
AcDbArc
 50
176.1887389505
 51
265.5980503477
  0
LINE
  5
2FF
330
1F
100
AcDbEntity
  8
0
  6
Continuous
 62
     7
370
    25
100
AcDbLine
 10
63.6047680893
 20
341.0415063896
 30
0.0
 11
71.1103215887
 21
341.0415063896
 31
0.0
  0
LINE
  5
300
330
1F
100
AcDbEntity
  8
0
  6
Continuous
 62
     7
370
    25
100
AcDbLine
 10
72.6258660453
 20
339.2915063896
 30
0.0
 11
71.1781054886
 21
339.2915063896
 31
0.0
  0
SPLINE
  5
301
330
1F
100
AcDbEntity
  8
0
  6
Continuous
 62
     7
370
    25
100
AcDbSpline
210
0.0
220
0.0
230
1.0
 70
     8
 71
     3
 72
    14
 73
    10
 74
     0
 42
0.00000001
 43
0.00000001
 40
0.0
 40
0.0
 40
0.0
 40
0.0
 40
0.25
 40
0.25
 40
0.5
 40
0.5
 40
0.75
 40
0.75
 40
1.0
 40
1.0
 40
1.0
 40
1.0
 10
66.56807310264831
 20
339.2915063896184
 30
0.0
 10
66.81243760425356
 20
339.2915063896184
 30
0.0
 10
67.09465690712285
 20
339.3109610213506
 30
0.0
 10
67.73055972932468
 20
339.3422905073471
 30
0.0
 10
68.08493012890142
 20
339.3542158233956
 30
0.0
 10
68.8601616599677
 20
339.3541630657641
 30
0.0
 10
69.28005201238008
 20
339.3422231863514
 30
0.0
 10
70.18117969852636
 20
339.310942120911
 30
0.0
 10
70.66288924193343
 20
339.2915063896119
 30
0.0
 10
71.17810548857317
 20
339.2915063896119
 30
0.0
  0
LINE
  5
302
330
1F
100
AcDbEntity
  8
0
  6
Continuous
 62
     7
370
    25
100
AcDbLine
 10
66.5680731026
 20
339.2915063896
 30
0.0
 11
65.1203125459
 21
339.2915063896
 31
0.0
  0
LINE
  5
303
330
1F
100
AcDbEntity
  8
0
  6
Continuous
 62
     7
370
    25
100
AcDbLine
 10
63.7196367863
 20
351.7915063896
 30
0.0
 11
63.6047680893
 21
351.7915063896
 31
0.0
  0
SPLINE
  5
304
330
1F
100
AcDbEntity
  8
0
  6
Continuous
 62
     7
370
    25
100
AcDbSpline
210
0.0
220
0.0
230
1.0
 70
     8
 71
     3
 72
    16
 73
    12
 74
     0
 42
0.00000001
 43
0.00000001
 40
0.0
 40
0.0
 40
0.0
 40
0.0
 40
0.2500000000000001
 40
0.2500000000000001
 40
0.5000000000000002
 40
0.5000000000000002
 40
0.75
 40
0.75
 40
0.875
 40
0.875
 40
1.0
 40
1.0
 40
1.0
 40
1.0
 10
63.71963678627412
 20
351.7915063896186
 30
0.0
 10
64.03532380967161
 20
351.7915063896186
 30
0.0
 10
64.34583781713937
 20
351.8593518820488
 30
0.0
 10
64.96120329248501
 20
352.0693085935373
 30
0.0
 10
65.26628615856042
 20
352.2129819701865
 30
0.0
 10
65.87154321730411
 20
352.5444942031243
 30
0.0
 10
66.17068104326046
 20
352.7319349832781
 30
0.0
 10
66.61698889303179
 20
353.0279983375474
 30
0.0
 10
66.76535082788207
 20
353.1292166189267
 30
0.0
 10
67.06167495674268
 20
353.3341364192008
 30
0.0
 10
67.21028561921847
 20
353.4382961366174
 30
0.0
 10
67.35754483898792
 20
353.5415063896186
 30
0.0
  0
SPLINE
  5
305
330
1F
100
AcDbEntity
  8
0
  6
Continuous
 62
     7
370
    25
100
AcDbSpline
210
0.0
220
0.0
230
1.0
 70
     8
 71
     3
 72
    16
 73
    12
 74
     0
 42
0.00000001
 43
0.00000001
 40
0.0
 40
0.0
 40
0.0
 40
0.0
 40
0.2499999999999999
 40
0.2499999999999999
 40
0.4999999999999998
 40
0.4999999999999998
 40
0.7499999999999997
 40
0.7499999999999997
 40
0.8749999999999998
 40
0.8749999999999998
 40
1.0
 40
1.0
 40
1.0
 40
1.0
 10
70.99545289170175
 20
351.7915063896186
 30
0.0
 10
70.67927494134939
 20
351.7915063896186
 30
0.0
 10
70.3687320991384
 20
351.8595015584015
 30
0.0
 10
69.75376958039517
 20
352.0693761362282
 30
0.0
 10
69.44946654768039
 20
352.2126630100194
 30
0.0
 10
68.84456147234299
 20
352.5438941873558
 30
0.0
 10
68.544912899029
 20
352.7316095642751
 30
0.0
 10
68.09838989631548
 20
353.0278020152981
 30
0.0
 10
67.94996376513843
 20
353.1290621071054
 30
0.0
 10
67.65351850841222
 20
353.3340636216288
 30
0.0
 10
67.50472996389446
 20
353.4383480679511
 30
0.0
 10
67.35754483898792
 20
353.5415063896186
 30
0.0
  0
LINE
  5
306
330
1F
100
AcDbEntity
  8
0
  6
Continuous
 62
     7
370
    25
100
AcDbLine
 10
71.1103215887
 20
351.7915063896
 30
0.0
 11
70.9954528917
 21
351.7915063896
 31
0.0
  0
LINE
  5
307
330
1F
100
AcDbEntity
  8
0
  6
Continuous
 62
     7
370
    25
100
AcDbLine
 10
63.6047680893
 20
351.7915063896
 30
0.0
 11
63.6047680893
 21
341.0415063896
 31
0.0
  0
ARC
  5
308
330
1F
100
AcDbEntity
  8
0
  6
Continuous
 62
     7
370
    25
100
AcDbCircle
 10
72.7719239659
 20
351.8444834499
 30
0.0
 40
1.777260826753845
100
AcDbArc
 50
119.4990501565
 51
181.708140753
  0
SPLINE
  5
309
330
1F
100
AcDbEntity
  8
0
  6
Continuous
 62
     7
370
    25
100
AcDbSpline
210
0.0
220
0.0
230
1.0
 70
     8
 71
     3
 72
     8
 73
     4
 74
     0
 42
0.00000001
 43
0.00000001
 40
0.0
 40
0.0
 40
0.0
 40
0.0
 40
0.0002416894103822
 40
0.0002416894103822
 40
0.0002416894103822
 40
0.0002416894103822
 10
72.07163337006394
 20
353.4202896334963
 30
0.0
 10
72.01315302959357
 20
353.4111264726484
 30
0.0
 10
71.9548833353173
 20
353.4014872599345
 30
0.0
 10
71.89678450596307
 20
353.3913470417999
 30
0.0
  0
SPLINE
  5
30A
330
1F
100
AcDbEntity
  8
0
  6
Continuous
 62
     7
370
    25
100
AcDbSpline
210
0.0
220
0.0
230
1.0
 70
     8
 71
     3
 72
    14
 73
    10
 74
     0
 42
0.00000001
 43
0.00000001
 40
0.0
 40
0.0
 40
0.0
 40
0.0
 40
0.25
 40
0.25
 40
0.5
 40
0.5
 40
0.75
 40
0.75
 40
1.0
 40
1.0
 40
1.0
 40
1.0
 10
71.82319237940249
 20
353.3801427793836
 30
0.0
 10
71.39877621781713
 20
353.3180891471964
 30
0.0
 10
70.98007766315139
 20
353.2995646839232
 30
0.0
 10
70.16958439429187
 20
353.2946219677214
 30
0.0
 10
69.77683135897217
 20
353.3100835715184
 30
0.0
 10
69.02404459931529
 20
353.3577479771453
 30
0.0
 10
68.66493616237157
 20
353.3901867174672
 30
0.0
 10
67.98321449768109
 20
353.4621629267377
 30
0.0
 10
67.65952990043084
 20
353.5019784705758
 30
0.0
 10
67.35754483898792
 20
353.5415063896186
 30
0.0
  0
SPLINE
  5
30B
330
1F
100
AcDbEntity
  8
0
  6
Continuous
 62
     7
370
    25
100
AcDbSpline
210
0.0
220
0.0
230
1.0
 70
     8
 71
     3
 72
     8
 73
     4
 74
     0
 42
0.00000001
 43
0.00000001
 40
0.0
 40
0.0
 40
0.0
 40
0.0
 40
0.0001055072942668
 40
0.0001055072942668
 40
0.0001055072942668
 40
0.0001055072942668
 10
71.89678450596304
 20
353.3913470417996
 30
0.0
 10
71.87227822500452
 20
353.3874632187853
 30
0.0
 10
71.84774504817167
 20
353.3837326103437
 30
0.0
 10
71.82319237940257
 20
353.3801427793831
 30
0.0
  0
SPLINE
  5
30C
330
1F
100
AcDbEntity
  8
0
  6
Continuous
 62
     7
370
    25
100
AcDbSpline
210
0.0
220
0.0
230
1.0
 70
     8
 71
     3
 72
     8
 73
     4
 74
     0
 42
0.00000001
 43
0.00000001
 40
0.0
 40
0.0
 40
0.0
 40
0.0
 40
0.000105507294285
 40
0.000105507294285
 40
0.000105507294285
 40
0.000105507294285
 10
90.60471021968824
 20
353.3801427793817
 30
0.0
 10
90.58015755091489
 20
353.3837326103428
 30
0.0
 10
90.55562437407772
 20
353.3874632187847
 30
0.0
 10
90.53111809311501
 20
353.3913470417996
 30
0.0
  0
SPLINE
  5
30D
330
1F
100
AcDbEntity
  8
0
  6
Continuous
 62
     7
370
    25
100
AcDbSpline
210
0.0
220
0.0
230
1.0
 70
     8
 71
     3
 72
    14
 73
    10
 74
     0
 42
0.00000001
 43
0.00000001
 40
0.0
 40
0.0
 40
0.0
 40
0.0
 40
0.25
 40
0.25
 40
0.5
 40
0.5
 40
0.75
 40
0.75
 40
1.0
 40
1.0
 40
1.0
 40
1.0
 10
90.60471021968824
 20
353.3801427793817
 30
0.0
 10
91.02912638127245
 20
353.3180891471956
 30
0.0
 10
91.4478249359369
 20
353.2995646839228
 30
0.0
 10
92.25831820479401
 20
353.2946219677216
 30
0.0
 10
92.65107124011254
 20
353.3100835715188
 30
0.0
 10
93.4038579997672
 20
353.3577479771457
 30
0.0
 10
93.76296643670986
 20
353.3901867174675
 30
0.0
 10
94.44468810139844
 20
353.462162926738
 30
0.0
 10
94.76837269864794
 20
353.5019784705728
 30
0.0
 10
95.07035776008998
 20
353.5415063896186
 30
0.0
  0
ARC
  5
30E
330
1F
100
AcDbEntity
  8
0
  6
Continuous
 62
     7
370
    25
100
AcDbCircle
 10
91.448999468
 20
338.4367698563
 30
0.0
 40
0.8776423648442877
100
AcDbArc
 50
103.119007754
 51
188.0002668541
  0
ARC
  5
30F
330
1F
100
AcDbEntity
  8
0
  6
Continuous
 62
     7
370
    25
100
AcDbCircle
 10
70.9789031311
 20
338.4367698563
 30
0.0
 40
0.8776423648442737
100
AcDbArc
 50
351.9997331459
 51
76.880992246
  0
LINE
  5
310
330
1F
100
AcDbEntity
  8
0
  6
Continuous
 62
     7
370
    25
100
AcDbLine
 10
110.3694750653
 20
303.1355482814
 30
0.0
 11
110.7444749225
 21
303.1355489087
 31
0.0
  0
ARC
  5
311
330
1F
100
AcDbEntity
  8
0
  6
Continuous
 62
     7
370
    25
100
AcDbCircle
 10
91.2750078849
 20
354.0565587609
 30
0.0
 40
0.9979371992159757
100
AcDbArc
 50
164.4750771131
 51
221.8041723328
  0
ARC
  5
312
330
1F
100
AcDbEntity
  8
0
  6
Continuous
 62
     7
370
    25
100
AcDbCircle
 10
71.1528947141
 20
354.0565587609
 30
0.0
 40
0.9979371992166104
100
AcDbArc
 50
318.1958276672
 51
15.5249228869
  0
ARC
  5
313
330
1F
100
AcDbEntity
  8
0
  6
Continuous
 62
     7
370
    25
100
AcDbCircle
 10
91.3636484118
 20
354.0401191295
 30
0.0
 40
1.005761384292121
100
AcDbArc
 50
165.7659488811
 51
221.0103806761
  0
ARC
  5
314
330
1F
100
AcDbEntity
  8
0
  6
Continuous
 62
     7
370
    25
100
AcDbCircle
 10
71.0642541873
 20
354.0401191295
 30
0.0
 40
1.005761384288413
100
AcDbArc
 50
318.9896193238
 51
14.2340511189
  0
SPLINE
  5
315
330
1F
100
AcDbEntity
  8
0
  6
Continuous
 62
     7
370
    25
100
AcDbSpline
210
0.0
220
0.0
230
1.0
 70
     8
 71
     3
 72
    12
 73
     8
 74
     0
 42
0.00000001
 43
0.00000001
 40
0.0
 40
0.0
 40
0.0
 40
0.0
 40
0.25
 40
0.25
 40
0.5
 40
0.5
 40
1.0
 40
1.0
 40
1.0
 40
1.0
 10
72.03913808511672
 20
354.2874192466896
 30
0.0
 10
71.5670924498531
 20
354.1755021349869
 30
0.0
 10
71.10996042775122
 20
354.0961219894418
 30
0.0
 10
70.23351981080694
 20
353.9543741523263
 30
0.0
 10
69.81771861985905
 20
353.894699355385
 30
0.0
 10
68.6386008406482
 20
353.728761035083
 30
0.0
 10
67.94143438612865
 20
353.6354860604415
 30
0.0
 10
67.35754483898792
 20
353.5415063896186
 30
0.0
  0
SPLINE
  5
316
330
1F
100
AcDbEntity
  8
0
  6
Continuous
 62
     7
370
    25
100
AcDbSpline
210
0.0
220
0.0
230
1.0
 70
     8
 71
     3
 72
    18
 73
    14
 74
     0
 42
0.00000001
 43
0.00000001
 40
0.0
 40
0.0
 40
0.0
 40
0.0
 40
0.2500000000000003
 40
0.2500000000000003
 40
0.5000000000000006
 40
0.5000000000000006
 40
0.7500000000000009
 40
0.7500000000000009
 40
0.875000000000001
 40
0.875000000000001
 40
0.9375000000000004
 40
0.9375000000000004
 40
1.0
 40
1.0
 40
1.0
 40
1.0
 10
90.38876451397398
 20
354.2874192466867
 30
0.0
 10
90.86285946936576
 20
354.1750162624914
 30
0.0
 10
91.31857742612556
 20
354.0960512362706
 30
0.0
 10
92.18862225376739
 20
353.955274011206
 30
0.0
 10
92.60320804078151
 20
353.8957002959017
 30
0.0
 10
93.38968365174571
 20
353.7849807728551
 30
0.0
 10
93.76295509827042
 20
353.7339482063851
 30
0.0
 10
94.28310864184033
 20
353.6603305726287
 30
0.0
 10
94.44988045498496
 20
353.6363069924483
 30
0.0
 10
94.69010191730979
 20
353.6005993339487
 30
0.0
 10
94.76851886496904
 20
353.5887521505443
 30
0.0
 10
94.9220259340399
 20
353.5651001378516
 30
0.0
 10
94.99782762078677
 20
353.5531804424546
 30
0.0
 10
95.07035776008998
 20
353.5415063896186
 30
0.0
  0
SPLINE
  5
317
330
1F
100
AcDbEntity
  8
0
  6
Continuous
 62
     7
370
    25
100
AcDbSpline
210
0.0
220
0.0
230
1.0
 70
     8
 71
     3
 72
    18
 73
    14
 74
     0
 42
0.00000001
 43
0.00000001
 40
0.0
 40
0.0
 40
0.0
 40
0.0
 40
0.2499999999999997
 40
0.2499999999999997
 40
0.4999999999999994
 40
0.4999999999999994
 40
0.7499999999999991
 40
0.7499999999999991
 40
0.8749999999999992
 40
0.8749999999999992
 40
0.9374999999999997
 40
0.9374999999999997
 40
1.0
 40
1.0
 40
1.0
 40
1.0
 10
65.27458002270714
 20
354.2874192466866
 30
0.0
 10
65.3249100687408
 20
354.1750162624914
 30
0.0
 10
65.40649390736758
 20
354.0960512362706
 30
0.0
 10
65.6311624156489
 20
353.955274011206
 30
0.0
 10
65.77422105801377
 20
353.8957002959017
 30
0.0
 10
66.12236125059727
 20
353.7849807728551
 30
0.0
 10
66.32845241148144
 20
353.7339482063851
 30
0.0
 10
66.68173593869672
 20
353.6603305726286
 30
0.0
 10
66.80676556645965
 20
353.6363069924483
 30
0.0
 10
67.00519286853373
 20
353.6005993339487
 30
0.0
 10
67.07315008460775
 20
353.5887521505444
 30
0.0
 10
67.21270244560357
 20
353.5651001378517
 30
0.0
 10
67.28501469968487
 20
353.553180442458
 30
0.0
 10
67.35754483898792
 20
353.5415063896186
 30
0.0
  0
SPLINE
  5
318
330
1F
100
AcDbEntity
  8
0
  6
Continuous
 62
     7
370
    25
100
AcDbSpline
210
0.0
220
0.0
230
1.0
 70
     8
 71
     3
 72
    12
 73
     8
 74
     0
 42
0.00000001
 43
0.00000001
 40
0.0
 40
0.0
 40
0.0
 40
0.0
 40
0.2499999999999999
 40
0.2499999999999999
 40
0.4999999999999999
 40
0.4999999999999999
 40
1.0
 40
1.0
 40
1.0
 40
1.0
 10
97.15332257637213
 20
354.2874192466896
 30
0.0
 10
97.10321008670665
 20
354.1755021349869
 30
0.0
 10
97.02171507122071
 20
354.0961219894418
 30
0.0
 10
96.79510948685653
 20
353.9543741523263
 30
0.0
 10
96.65105565837513
 20
353.894699355385
 30
0.0
 10
96.12771075254005
 20
353.728761035083
 30
0.0
 10
95.65424730723043
 20
353.6354860604476
 30
0.0
 10
95.07035776008998
 20
353.5415063896186
 30
0.0
  0
LINE
  5
319
330
1F
100
AcDbEntity
  8
0
  6
Continuous
 62
     7
370
    25
100
AcDbLine
 10
110.3694656628
 20
307.3513832699
 30
0.0
 11
110.3694750653
 21
303.1355482814
 31
0.0
  0
LINE
  5
31A
330
1F
100
AcDbEntity
  8
0
  6
Continuous
 62
     7
370
    25
100
AcDbLine
 10
110.2139512995
 20
306.7323463969
 30
0.0
 11
110.2139512995
 21
307.8455930516
 31
0.0
  0
LINE
  5
31B
330
1F
100
AcDbEntity
  8
0
  6
Continuous
 62
     7
370
    25
100
AcDbLine
 10
110.74446552
 20
307.35138327
 30
0.0
 11
110.7444749225
 21
303.1355489087
 31
0.0
  0
ARC
  5
31C
330
1F
100
AcDbEntity
  8
0
  6
Continuous
 62
     7
370
    25
100
AcDbCircle
 10
95.8706671341
 20
338.3030398066
 30
0.0
 40
0.9885259936317291
100
AcDbArc
 50
90.628170975
 51
179.3286944278
  0
ARC
  5
31D
330
1F
100
AcDbEntity
  8
0
  6
Continuous
 62
     7
370
    25
100
AcDbCircle
 10
66.557235465
 20
338.3030398066
 30
0.0
 40
0.988525993631715
100
AcDbArc
 50
0.6713055722
 51
89.371829025
  0
SPLINE
  5
31E
330
1F
100
AcDbEntity
  8
0
  6
Continuous
 62
     7
370
    25
100
AcDbSpline
210
0.0
220
0.0
230
1.0
 70
     8
 71
     3
 72
     8
 73
     4
 74
     0
 42
0.00000001
 43
0.00000001
 40
0.0
 40
0.0
 40
0.0
 40
0.0
 40
1.0
 40
1.0
 40
1.0
 40
1.0
 10
93.09904956996256
 20
281.9513608465322
 30
0.0
 10
92.29094631830756
 20
281.7146963406223
 30
0.0
 10
91.47352846870841
 20
281.488700530172
 30
0.0
 10
90.64138124101027
 20
281.2699134534951
 30
0.0
  0
SPLINE
  5
31F
330
1F
100
AcDbEntity
  8
0
  6
Continuous
 62
     7
370
    25
100
AcDbSpline
210
0.0
220
0.0
230
1.0
 70
     8
 71
     3
 72
    10
 73
     6
 74
     0
 42
0.00000001
 43
0.00000001
 40
0.0
 40
0.0
 40
0.0
 40
0.0
 40
0.5
 40
0.5
 40
1.0
 40
1.0
 40
1.0
 40
1.0
 10
66.80685843074139
 20
304.6122978366795
 30
0.0
 10
66.9849145398644
 20
304.5676808968837
 30
0.0
 10
67.17534993539539
 20
304.6121753095445
 30
0.0
 10
67.58147005099508
 20
304.8537939977485
 30
0.0
 10
67.79580700448872
 20
305.0491503437861
 30
0.0
 10
68.02519751196611
 20
305.3010977609025
 30
0.0
  0
ARC
  5
320
330
1F
100
AcDbEntity
  8
0
  6
Continuous
 62
     7
370
    25
100
AcDbCircle
 10
57.9976523708
 20
309.6496508074
 30
0.0
 40
10.14776016461666
100
AcDbArc
 50
330.2378582576
 51
1.3294554288
  0
ARC
  5
321
330
1F
100
AcDbEntity
  8
0
  6
Continuous
 62
     7
370
    25
100
AcDbCircle
 10
98.1560307278
 20
354.3095207691
 30
0.0
 40
1.002951700818475
100
AcDbArc
 50
181.2626993566
 51
247.9173961432
  0
SPLINE
  5
322
330
1F
100
AcDbEntity
  8
0
  6
Continuous
 62
     7
370
    25
100
AcDbSpline
210
0.0
220
0.0
230
1.0
 70
     8
 71
     3
 72
    14
 73
    10
 74
     0
 42
0.00000001
 43
0.00000001
 40
0.0
 40
0.0
 40
0.0
 40
0.0
 40
0.2499999999999999
 40
0.2499999999999999
 40
0.4999999999999998
 40
0.4999999999999998
 40
0.7499999999999999
 40
0.7499999999999999
 40
1.0
 40
1.0
 40
1.0
 40
1.0
 10
97.77897812350572
 20
353.3801427793836
 30
0.0
 10
97.61809041518416
 20
353.3180891471964
 30
0.0
 10
97.44891530446488
 20
353.2995646839232
 30
0.0
 10
97.07533484002329
 20
353.2946219677214
 30
0.0
 10
96.87142902220238
 20
353.3100835715184
 30
0.0
 10
96.42431969249265
 20
353.3577479771453
 30
0.0
 10
96.18186562238171
 20
353.3901867174671
 30
0.0
 10
95.65642908804666
 20
353.4621629267377
 30
0.0
 10
95.37234282153258
 20
353.501978470567
 30
0.0
 10
95.07035776008998
 20
353.5415063896186
 30
0.0
  0
SPLINE
  5
323
330
1F
100
AcDbEntity
  8
0
  6
Continuous
 62
     7
370
    25
100
AcDbSpline
210
0.0
220
0.0
230
1.0
 70
     8
 71
     3
 72
     8
 73
     4
 74
     0
 42
0.00000001
 43
0.00000001
 40
0.0
 40
0.0
 40
0.0
 40
0.0
 40
0.0001055072942668
 40
0.0001055072942668
 40
0.0001055072942668
 40
0.0001055072942668
 10
97.80693419854249
 20
353.3913470417996
 30
0.0
 10
97.79760221267108
 20
353.3874632187853
 30
0.0
 10
97.78828555090593
 20
353.3837326103437
 30
0.0
 10
97.77897812350568
 20
353.3801427793831
 30
0.0
  0
ARC
  5
324
330
1F
100
AcDbEntity
  8
0
  6
Continuous
 62
     7
370
    25
100
AcDbCircle
 10
96.9317947386
 20
351.8444834499
 30
0.0
 40
1.777260826753922
100
AcDbArc
 50
358.291859247
 51
60.5009498435
  0
ARC
  5
325
330
1F
100
AcDbEntity
  8
0
  6
Continuous
 62
     7
370
    25
100
AcDbCircle
 10
65.4961078605
 20
351.8444834499
 30
0.0
 40
1.777260826753958
100
AcDbArc
 50
119.4990501565
 51
181.708140753
  0
SPLINE
  5
326
330
1F
100
AcDbEntity
  8
0
  6
Continuous
 62
     7
370
    25
100
AcDbSpline
210
0.0
220
0.0
230
1.0
 70
     8
 71
     3
 72
     8
 73
     4
 74
     0
 42
0.00000001
 43
0.00000001
 40
0.0
 40
0.0
 40
0.0
 40
0.0
 40
0.000105507294285
 40
0.000105507294285
 40
0.000105507294285
 40
0.000105507294285
 10
64.64892447557706
 20
353.3801427793817
 30
0.0
 10
64.63961704817521
 20
353.3837326103428
 30
0.0
 10
64.63030038640849
 20
353.3874632187846
 30
0.0
 10
64.62096840053546
 20
353.3913470417996
 30
0.0
  0
SPLINE
  5
327
330
1F
100
AcDbEntity
  8
0
  6
Continuous
 62
     7
370
    25
100
AcDbSpline
210
0.0
220
0.0
230
1.0
 70
     8
 71
     3
 72
    14
 73
    10
 74
     0
 42
0.00000001
 43
0.00000001
 40
0.0
 40
0.0
 40
0.0
 40
0.0
 40
0.2500000000000001
 40
0.2500000000000001
 40
0.5000000000000002
 40
0.5000000000000002
 40
0.7500000000000001
 40
0.7500000000000001
 40
1.0
 40
1.0
 40
1.0
 40
1.0
 10
64.64892447557706
 20
353.3801427793817
 30
0.0
 10
64.80981218389836
 20
353.3180891471956
 30
0.0
 10
64.97898729461748
 20
353.2995646839228
 30
0.0
 10
65.35256775905862
 20
353.2946219677216
 30
0.0
 10
65.5564735768793
 20
353.3100835715188
 30
0.0
 10
66.00358290658828
 20
353.3577479771457
 30
0.0
 10
66.24603697669876
 20
353.3901867174675
 30
0.0
 10
66.77147351103267
 20
353.462162926738
 30
0.0
 10
67.05555977754582
 20
353.5019784705748
 30
0.0
 10
67.35754483898792
 20
353.5415063896186
 30
0.0
  0
ARC
  5
328
330
1F
100
AcDbEntity
  8
0
  6
Continuous
 62
     7
370
    25
100
AcDbCircle
 10
64.2718718713
 20
354.3095207691
 30
0.0
 40
1.00295170081895
100
AcDbArc
 50
292.082603857
 51
358.7373006436
  0
SPLINE
  5
329
330
1F
100
AcDbEntity
  8
0
  6
Continuous
 62
     7
370
    25
100
AcDbSpline
210
0.0
220
0.0
230
1.0
 70
     8
 71
     3
 72
     8
 73
     4
 74
     0
 42
0.00000001
 43
0.00000001
 40
0.0
 40
0.0
 40
0.0
 40
0.0
 40
0.0002416894103822
 40
0.0002416894103822
 40
0.0002416894103822
 40
0.0002416894103822
 10
97.86182272847911
 20
353.4202896334963
 30
0.0
 10
97.84373553924979
 20
353.4111264726484
 30
0.0
 10
97.82541467720056
 20
353.4014872599345
 30
0.0
 10
97.80693419854242
 20
353.3913470417999
 30
0.0
  0
ARC
  5
32A
330
1F
100
AcDbEntity
  8
0
  6
Continuous
 62
     7
370
    25
100
AcDbCircle
 10
97.0610365606
 20
351.8495878318
 30
0.0
 40
1.763054915954093
100
AcDbArc
 50
358.1121270215
 51
62.9862857032
  0
ARC
  5
32B
330
1F
100
AcDbEntity
  8
0
  6
Continuous
 62
     7
370
    25
100
AcDbCircle
 10
65.3668660385
 20
351.8495878318
 30
0.0
 40
1.7630549159541
100
AcDbArc
 50
117.0137142968
 51
181.8878729785
  0
SPLINE
  5
32C
330
1F
100
AcDbEntity
  8
0
  6
Continuous
 62
     7
370
    25
100
AcDbSpline
210
0.0
220
0.0
230
1.0
 70
     8
 71
     3
 72
     8
 73
     4
 74
     0
 42
0.00000001
 43
0.00000001
 40
0.0000000000000002
 40
0.0000000000000002
 40
0.0000000000000002
 40
0.0000000000000002
 40
0.0002416894103823
 40
0.0002416894103823
 40
0.0002416894103823
 40
0.0002416894103823
 10
64.62096840053546
 20
353.3913470417996
 30
0.0
 10
64.60248792187731
 20
353.4014872599342
 30
0.0
 10
64.58416705982816
 20
353.4111264726486
 30
0.0
 10
64.56607987059884
 20
353.4202896334966
 30
0.0
  0
LINE
  5
32D
330
1F
100
AcDbEntity
  8
0
  6
Continuous
 62
     7
370
    25
100
AcDbLine
 10
97.4750582985
 20
339.2915063896
 30
0.0
 11
97.3075900532
 21
339.2915063896
 31
0.0
  0
LINE
  5
32E
330
1F
100
AcDbEntity
  8
0
  6
Continuous
 62
     7
370
    25
100
AcDbLine
 10
65.1203125459
 20
339.2915063896
 30
0.0
 11
64.9528443006
 21
339.2915063896
 31
0.0
  0
ARC
  5
32F
330
1F
100
AcDbEntity
  8
0
  6
Continuous
 62
     7
370
    25
100
AcDbCircle
 10
64.2645581581
 20
354.3277850557
 30
0.0
 40
1.001970266457674
100
AcDbArc
 50
290.8369281334
 51
359.7643533258
  0
ARC
  5
330
330
1F
100
AcDbEntity
  8
0
  6
Continuous
 62
     7
370
    25
100
AcDbCircle
 10
98.163344441
 20
354.3277850557
 30
0.0
 40
1.001970266457745
100
AcDbArc
 50
180.2356466742
 51
249.1630718666
  0
ARC
  5
331
330
1F
100
AcDbEntity
  8
0
  6
Continuous
 62
     7
370
    25
100
AcDbCircle
 10
64.2448650372
 20
354.3687116639
 30
0.0
 40
1.001340759618277
100
AcDbArc
 50
288.7103891537
 51
2.628130234
  0
ARC
  5
332
330
1F
100
AcDbEntity
  8
0
  6
Continuous
 62
     7
370
    25
100
AcDbCircle
 10
98.1830375619
 20
354.3687116639
 30
0.0
 40
1.001340759618263
100
AcDbArc
 50
177.371869766
 51
251.2896108463
  0
LINE
  5
333
330
1F
100
AcDbEntity
  8
0
  6
Continuous
 62
     8
370
    25
100
AcDbLine
 10
89.1139512995
 20
-59.3237713839
 30
0.0
 11
73.3139512995
 21
-59.3237713839
 31
0.0
  0
LINE
  5
334
330
1F
100
AcDbEntity
  8
0
  6
Continuous
 62
     8
370
    25
100
AcDbLine
 10
89.1139512995
 20
29.2762286161
 30
0.0
 11
73.3139512995
 21
29.2762286161
 31
0.0
  0
ARC
  5
335
330
1F
100
AcDbEntity
  8
0
  6
Continuous
 62
     8
370
    25
100
AcDbCircle
 10
81.2139512995
 20
-91.2237713839
 30
0.0
 40
10.01875000000001
100
AcDbArc
 50
180.0
 51
37.952440683
  0
ARC
  5
336
330
1F
100
AcDbEntity
  8
0
  6
Continuous
 62
     8
370
    25
100
AcDbCircle
 10
81.2139512995
 20
-91.2237713839
 30
0.0
 40
10.01875000000002
100
AcDbArc
 50
142.047559317
 51
180.0
  0
ARC
  5
337
330
1F
100
AcDbEntity
  8
0
  6
Continuous
 62
     8
370
    25
100
AcDbCircle
 10
81.2139512995
 20
296.0415063896
 30
0.0
 40
9.37499999999997
100
AcDbArc
 50
327.4227936768
 51
212.5772063232
  0
ARC
  5
338
330
1F
100
AcDbEntity
  8
0
  6
Continuous
 62
     8
370
    25
100
AcDbCircle
 10
81.2139512995
 20
61.1762286161
 30
0.0
 40
9.374999999999964
100
AcDbArc
 50
132.4825302596
 51
212.5772063232
  0
ARC
  5
339
330
1F
100
AcDbEntity
  8
0
  6
Continuous
 62
     8
370
    25
100
AcDbCircle
 10
81.2139512995
 20
61.1762286161
 30
0.0
 40
9.37499999999998
100
AcDbArc
 50
327.4227936768
 51
132.4825302596
  0
ARC
  5
33A
330
1F
100
AcDbEntity
  8
0
  6
Continuous
 62
     8
370
    25
100
AcDbCircle
 10
81.2139512995
 20
61.1762286161
 30
0.0
 40
11.05993649053891
100
AcDbArc
 50
315.5850271977
 51
224.4149728023
  0
ARC
  5
33B
330
1F
100
AcDbEntity
  8
0
  6
Continuous
 62
     8
370
    25
100
AcDbCircle
 10
81.2139512995
 20
61.1762286161
 30
0.0
 40
11.30993649053891
100
AcDbArc
 50
314.3068486059
 51
225.6931513941
  0
SPLINE
  5
33C
330
1F
100
AcDbEntity
  8
0
  6
Continuous
 62
     8
370
    25
100
AcDbSpline
210
0.0
220
0.0
230
1.0
 70
     8
 71
     3
 72
    11
 73
     7
 74
     0
 42
0.00000001
 43
0.00000001
 40
0.0
 40
0.0
 40
0.0
 40
0.0
 40
0.0838646262232357
 40
0.3474404100092015
 40
0.5675274630788971
 40
0.9999999999999999
 40
0.9999999999999999
 40
0.9999999999999999
 40
0.9999999999999999
 10
89.113951299539
 20
49.12071581778552
 30
0.0
 10
89.25457030771251
 20
49.23384358619251
 30
0.0
 10
89.83713685638875
 20
49.70251744797199
 30
0.0
 10
90.7388290411387
 20
50.52889442518985
 30
0.0
 10
92.13867664900229
 20
51.92019527044364
 30
0.0
 10
93.02872950393655
 20
53.00909016176061
 30
0.0
 10
93.61859657825649
 20
53.73073634290845
 30
0.0
  0
LINE
  5
33D
330
1F
100
AcDbEntity
  8
0
  6
Continuous
 62
     8
370
    25
100
AcDbLine
 10
72.7283694497
 20
49.1420886108
 30
0.0
 11
73.3139512995
 21
48.8835666652
 31
0.0
  0
ARC
  5
33E
330
1F
100
AcDbEntity
  8
0
  6
Continuous
 62
     8
370
    25
100
AcDbCircle
 10
81.2139512995
 20
296.0415063896
 30
0.0
 40
11.05993649053897
100
AcDbArc
 50
135.0085085188
 51
224.4149728023
  0
ARC
  5
33F
330
1F
100
AcDbEntity
  8
0
  6
Continuous
 62
     8
370
    25
100
AcDbCircle
 10
81.2139512995
 20
296.0415063896
 30
0.0
 40
11.05993649053897
100
AcDbArc
 50
315.5850271977
 51
135.0085085188
  0
ARC
  5
340
330
1F
100
AcDbEntity
  8
0
  6
Continuous
 62
     8
370
    25
100
AcDbCircle
 10
81.2139512995
 20
296.0415063896
 30
0.0
 40
11.30993649053893
100
AcDbArc
 50
314.3068486059
 51
135.0085085188
  0
ARC
  5
341
330
1F
100
AcDbEntity
  8
0
  6
Continuous
 62
     8
370
    25
100
AcDbCircle
 10
81.2139512995
 20
296.0415063896
 30
0.0
 40
11.30993649053893
100
AcDbArc
 50
135.0085085188
 51
225.6931513941
  0
SPLINE
  5
342
330
1F
100
AcDbEntity
  8
0
  6
Continuous
 62
     8
370
    25
100
AcDbSpline
210
0.0
220
0.0
230
1.0
 70
     8
 71
     3
 72
    11
 73
     7
 74
     0
 42
0.00000001
 43
0.00000001
 40
0.0
 40
0.0
 40
0.0
 40
0.0
 40
0.0753615859333411
 40
0.3413837281649308
 40
0.5635135023576416
 40
1.0
 40
1.0
 40
1.0
 40
1.0
 10
89.11395129953895
 20
283.9931168679096
 30
0.0
 10
89.2394922048431
 20
284.0934130001925
 30
0.0
 10
89.80818541583578
 20
284.5477488151201
 30
0.0
 10
90.69788775839177
 20
285.3579290148184
 30
0.0
 10
92.10322230194718
 20
286.7436506362532
 30
0.0
 10
92.99740229158643
 20
287.8291729569593
 30
0.0
 10
93.5900045527666
 20
288.5485840254976
 30
0.0
  0
LINE
  5
343
330
1F
100
AcDbEntity
  8
0
  6
Continuous
 62
     8
370
    25
100
AcDbLine
 10
72.6823652632
 20
284.0399371295
 30
0.0
 11
73.3139512995
 21
283.7582114903
 31
0.0
  0
LINE
  5
344
330
1F
100
AcDbEntity
  8
0
  6
Continuous
 62
     8
370
    25
100
AcDbLine
 10
73.3139512995
 20
264.1415063896
 30
0.0
 11
89.1139512995
 21
264.1415063896
 31
0.0
  0
LINE
  5
345
330
1F
100
AcDbEntity
  8
0
  6
Continuous
 62
     8
370
    25
100
AcDbLine
 10
164.9793998533
 20
294.8189683613
 30
0.0
 11
164.7581570294
 21
294.8189683613
 31
0.0
  0
LINE
  5
346
330
1F
100
AcDbEntity
  8
0
  6
Continuous
 62
     8
370
    25
100
AcDbLine
 10
164.8564879865
 20
297.5047393519
 30
0.0
 11
164.9793998533
 21
297.5047393519
 31
0.0
  0
LINE
  5
347
330
1F
100
AcDbEntity
  8
0
  6
Continuous
 62
     8
370
    25
100
AcDbLine
 10
164.9793998533
 20
295.2121085543
 30
0.0
 11
164.7584633796
 21
295.2121085543
 31
0.0
  0
LINE
  5
348
330
1F
100
AcDbEntity
  8
0
  6
Continuous
 62
     8
370
    25
100
AcDbLine
 10
164.0238833036
 20
290.1163887555
 30
0.0
 11
164.0238833036
 21
301.9666341608
 31
0.0
  0
LINE
  5
349
330
1F
100
AcDbEntity
  8
0
  6
Continuous
 62
     8
370
    25
100
AcDbLine
 10
157.5519952567
 20
288.0930524561
 30
0.0
 11
157.5519952567
 21
287.0658483454
 31
0.0
  0
LINE
  5
34A
330
1F
100
AcDbEntity
  8
0
  6
Continuous
 62
     8
370
    25
100
AcDbLine
 10
156.6185750428
 20
305.0334573443
 30
0.0
 11
156.6185750428
 21
304.3753606207
 31
0.0
  0
LINE
  5
34B
330
1F
100
AcDbEntity
  8
0
  6
Continuous
 62
     8
370
    25
100
AcDbLine
 10
161.9226775028
 20
287.1421388878
 30
0.0
 11
161.9226775028
 21
304.9408738915
 31
0.0
  0
SPLINE
  5
34C
330
1F
100
AcDbEntity
  8
0
  6
Continuous
 62
     8
370
    25
100
AcDbSpline
210
0.0
220
0.0
230
1.0
 70
     8
 71
     3
 72
    10
 73
     6
 74
     0
 42
0.00000001
 43
0.00000001
 40
0.0
 40
0.0
 40
0.0
 40
0.0
 40
0.3133575171709644
 40
0.9607940511866138
 40
1.0
 40
1.0
 40
1.0
 40
1.0
 10
157.5073889235051
 20
288.0922854755747
 30
0.0
 10
157.3173169767632
 20
287.8828421923479
 30
0.0
 10
156.7345321839303
 20
287.2406624150699
 30
0.0
 10
156.097669938416
 20
286.7191070863781
 30
0.0
 10
155.743738321339
 20
286.5382322745525
 30
0.0
 10
155.7235295151413
 20
286.5279046749771
 30
0.0
  0
ARC
  5
34D
330
1F
100
AcDbEntity
  8
0
  6
Continuous
 62
     8
370
    25
100
AcDbCircle
 10
152.2028974304
 20
285.9957882146
 30
0.0
 40
1.92098534000695
100
AcDbArc
 50
268.5767808302
 51
339.0730598864
  0
SPLINE
  5
34E
330
1F
100
AcDbEntity
  8
0
  6
Continuous
 62
     8
370
    25
100
AcDbSpline
210
0.0
220
0.0
230
1.0
 70
     8
 71
     3
 72
    11
 73
     7
 74
     0
 42
0.00000001
 43
0.00000001
 40
0.0
 40
0.0
 40
0.0
 40
0.0
 40
0.1869850297061659
 40
0.8392317873888431
 40
0.8428766719154442
 40
1.0
 40
1.0
 40
1.0
 40
1.0
 10
155.4658926878089
 20
305.2973539978626
 30
0.0
 10
155.5312699071538
 20
305.2712694531903
 30
0.0
 10
155.8246978929751
 20
305.154196021788
 30
0.0
 10
156.1540557676632
 20
304.8457491847611
 30
0.0
 10
156.4644292111655
 20
304.5152784891761
 30
0.0
 10
156.5259322457223
 20
304.4448281927632
 30
0.0
 10
156.5860409035217
 20
304.3759751225129
 30
0.0
  0
ARC
  5
34F
330
1F
100
AcDbEntity
  8
0
  6
Continuous
 62
     8
370
    25
100
AcDbCircle
 10
152.0714060993
 20
305.3608556311
 30
0.0
 40
2.00349897097755
100
AcDbArc
 50
30.9842367032
 51
89.2149638557
  0
LINE
  5
350
330
1F
100
AcDbEntity
  8
0
  6
Continuous
 62
     8
370
    25
100
AcDbLine
 10
152.0988561124
 20
283.7411789075
 30
0.0
 11
152.0988561124
 21
283.7957530452
 31
0.0
  0
LINE
  5
351
330
1F
100
AcDbEntity
  8
0
  6
Continuous
 62
     8
370
    25
100
AcDbLine
 10
148.0726775028
 20
284.0067946126
 30
0.0
 11
148.0726775028
 21
283.6709016985
 31
0.0
  0
ARC
  5
352
330
1F
100
AcDbEntity
  8
0
  6
Continuous
 62
     8
370
    25
100
AcDbCircle
 10
152.0676800397
 20
285.7940526198
 30
0.0
 40
1.998542753423243
100
AcDbArc
 50
270.8938161749
 51
343.1119015857
  0
ARC
  5
353
330
1F
100
AcDbEntity
  8
0
  6
Continuous
 62
     8
370
    25
100
AcDbCircle
 10
152.0711827571
 20
305.3981856036
 30
0.0
 40
2.002910678234346
100
AcDbArc
 50
30.1234234115
 51
89.2083436718
  0
LINE
  5
354
330
1F
100
AcDbEntity
  8
0
  6
Continuous
 62
     8
370
    25
100
AcDbLine
 10
152.0988561124
 20
307.4009050973
 30
0.0
 11
152.0988561124
 21
307.5369266009
 31
0.0
  0
LINE
  5
355
330
1F
100
AcDbEntity
  8
0
  6
Continuous
 62
     8
370
    25
100
AcDbLine
 10
148.0726775028
 20
307.60720381
 30
0.0
 11
148.0726775028
 21
307.470111803
 31
0.0
  0
SPLINE
  5
356
330
1F
100
AcDbEntity
  8
0
  6
Continuous
 62
     8
370
    25
100
AcDbSpline
210
0.0
220
0.0
230
1.0
 70
     8
 71
     3
 72
    15
 73
    11
 74
     0
 42
0.00000001
 43
0.00000001
 40
0.0
 40
0.0
 40
0.0
 40
0.0
 40
0.0107787084091962
 40
0.2108808836320221
 40
0.410464528479403
 40
0.5433415559442102
 40
0.6758485533752809
 40
0.8489282333514011
 40
0.9228986929879025
 40
1.0
 40
1.0
 40
1.0
 40
1.0
 10
91.45008141167587
 20
308.093788108482
 30
0.0
 10
91.4229711930157
 20
308.1141898926369
 30
0.0
 10
90.89257119985547
 20
308.5133421942781
 30
0.0
 10
89.74222789110455
 20
309.2865229704876
 30
0.0
 10
87.89842466920064
 20
310.2125310226124
 30
0.0
 10
85.98725503593197
 20
310.8900054975815
 30
0.0
 10
83.95037326581232
 20
311.378797209148
 30
0.0
 10
81.97001528700926
 20
311.5685261301408
 30
0.0
 10
80.26766989533257
 20
311.5409026579093
 30
0.0
 10
79.49985013531966
 20
311.4537853173944
 30
0.0
 10
79.10798401526287
 20
311.4093239268505
 30
0.0
  0
SPLINE
  5
357
330
1F
100
AcDbEntity
  8
0
  6
Continuous
 62
     8
370
    25
100
AcDbSpline
210
0.0
220
0.0
230
1.0
 70
     8
 71
     3
 72
    13
 73
     9
 74
     0
 42
0.00000001
 43
0.00000001
 40
0.0
 40
0.0
 40
0.0
 40
0.0
 40
0.0173628928551239
 40
0.2073480345845805
 40
0.3978365996627544
 40
0.6689774403639477
 40
0.9403574696387036
 40
0.9999999999999999
 40
0.9999999999999999
 40
0.9999999999999999
 40
0.9999999999999999
 10
75.4931218179124
 20
310.5452353481426
 30
0.0
 10
75.42343561785908
 20
310.5202382179025
 30
0.0
 10
74.59124153941326
 20
310.2217219586141
 30
0.0
 10
73.17803405447862
 20
309.5561955587202
 30
0.0
 10
71.26534825023704
 20
308.3682105918992
 30
0.0
 10
69.57822252228286
 20
306.9788586889362
 30
0.0
 10
68.55340982003345
 20
305.9061814918448
 30
0.0
 10
68.10583926734112
 20
305.3934754156197
 30
0.0
 10
68.02519751196611
 20
305.3010977609025
 30
0.0
  0
SPLINE
  5
358
330
1F
100
AcDbEntity
  8
0
  6
Continuous
 62
     8
370
    25
100
AcDbSpline
210
0.0
220
0.0
230
1.0
 70
     8
 71
     3
 72
    12
 73
     8
 74
     0
 42
0.00000001
 43
0.00000001
 40
0.0
 40
0.0
 40
0.0
 40
0.0
 40
0.1741481490569407
 40
0.411368049878348
 40
0.639066273033886
 40
0.8662245340675473
 40
0.9999999999999999
 40
0.9999999999999999
 40
0.9999999999999999
 40
0.9999999999999999
 10
89.11395129953895
 20
282.1685249542729
 30
0.0
 10
89.52821612245843
 20
282.4440414560581
 30
0.0
 10
90.5067812881546
 20
283.0948590884155
 30
0.0
 10
92.00454479116848
 20
284.4686542272168
 30
0.0
 10
93.53657772716832
 20
286.285521045262
 30
0.0
 10
94.7400599101729
 20
288.1828791520884
 30
0.0
 10
95.33200781657166
 20
289.6231456029647
 30
0.0
 10
95.5514057311192
 20
290.1569619275082
 30
0.0
  0
SPLINE
  5
359
330
1F
100
AcDbEntity
  8
0
  6
Continuous
 62
     8
370
    25
100
AcDbSpline
210
0.0
220
0.0
230
1.0
 70
     8
 71
     3
 72
    15
 73
    11
 74
     0
 42
0.00000001
 43
0.00000001
 40
0.0
 40
0.0
 40
0.0
 40
0.0
 40
0.0661124802786755
 40
0.1495733146090909
 40
0.2772422231803925
 40
0.4050932271047824
 40
0.4734135684430196
 40
0.6588011134607544
 40
0.8447177037573658
 40
0.9999999999999999
 40
0.9999999999999999
 40
0.9999999999999999
 40
0.9999999999999999
 10
96.49082811783056
 20
294.2816277899087
 30
0.0
 10
96.54087484906681
 20
294.5761617420181
 30
0.0
 10
96.6541009063075
 20
295.2425173120442
 30
0.0
 10
96.64598083005293
 20
296.5561523325633
 30
0.0
 10
96.54061965816297
 20
298.1301142797449
 30
0.0
 10
96.27898581117604
 20
299.5650585776419
 30
0.0
 10
95.86463144439875
 20
301.1469129160025
 30
0.0
 10
95.2435679640872
 20
302.8028333720957
 30
0.0
 10
94.35804546789092
 20
304.5350496831644
 30
0.0
 10
93.6954241070731
 20
305.4269141758276
 30
0.0
 10
93.39385991531722
 20
305.8328087195136
 30
0.0
  0
ARC
  5
35A
330
1F
100
AcDbEntity
  8
0
  6
Continuous
 62
     8
370
    25
100
AcDbCircle
 10
81.2139512995
 20
296.0415063896
 30
0.0
 40
16.11469077681543
100
AcDbArc
 50
144.927984031
 51
240.6439119643
  0
ARC
  5
35B
330
1F
100
AcDbEntity
  8
0
  6
Continuous
 62
     8
370
    25
100
AcDbCircle
 10
94.4864706088
 20
314.2606092015
 30
0.0
 40
7.002175156533879
100
AcDbArc
 50
251.3878905349
 51
297.3933940112
  0
ARC
  5
35C
330
1F
100
AcDbEntity
  8
0
  6
Continuous
 62
     8
370
    25
100
AcDbCircle
 10
90.9830236636
 20
276.3079486398
 30
0.0
 40
6.027077813605416
100
AcDbArc
 50
69.4462127364
 51
108.0660123474
  0
LINE
  5
35D
330
1F
100
AcDbEntity
  8
0
  6
Continuous
 62
     8
370
    25
100
AcDbLine
 10
106.2317317636
 20
359.9049485496
 30
0.0
 11
56.1961708355
 21
359.9049485496
 31
0.0
  0
LINE
  5
35E
330
1F
100
AcDbEntity
  8
0
  6
Continuous
 62
     8
370
    25
100
AcDbLine
 10
55.9139512995
 20
360.3550281754
 30
0.0
 11
106.5139512995
 21
360.3550281754
 31
0.0
  0
LINE
  5
35F
330
1F
100
AcDbEntity
  8
0
  6
Continuous
 62
     8
370
    25
100
AcDbLine
 10
106.5139512995
 20
363.5415063896
 30
0.0
 11
55.9139512995
 21
363.5415063896
 31
0.0
  0
LINE
  5
360
330
1F
100
AcDbEntity
  8
0
  6
Continuous
 62
     8
370
    25
100
AcDbLine
 10
64.0850731557
 20
356.0877377495
 30
0.0
 11
98.3428294433
 21
356.0877377495
 31
0.0
  0
SPLINE
  5
361
330
1F
100
AcDbEntity
  8
0
  6
Continuous
 62
     8
370
    25
100
AcDbSpline
210
0.0
220
0.0
230
1.0
 70
     8
 71
     3
 72
    10
 73
     6
 74
     0
 42
0.00000001
 43
0.00000001
 40
0.0
 40
0.0
 40
0.0
 40
0.0
 40
0.0003276655167405
 40
0.8869611697784756
 40
1.0
 40
1.0
 40
1.0
 40
1.0
 10
65.19140497235115
 20
354.5869403348969
 30
0.0
 10
65.1913990856669
 20
354.5869592065912
 30
0.0
 10
65.17546435926901
 20
354.6380431905769
 30
0.0
 10
65.21236744277583
 20
354.5421021743477
 30
0.0
 10
65.24182196794511
 20
354.4275766583854
 30
0.0
 10
65.24515256433658
 20
354.4146265847379
 30
0.0
  0
LINE
  5
362
330
1F
100
AcDbEntity
  8
0
  6
Continuous
 62
     8
370
    25
100
AcDbLine
 10
97.1827500347
 20
354.4146265847
 30
0.0
 11
97.2364982669
 21
354.5869423874
 31
0.0
  0
SPLINE
  5
363
330
1F
100
AcDbEntity
  8
0
  6
Continuous
 62
     8
370
    25
100
AcDbSpline
210
0.0
220
0.0
230
1.0
 70
     8
 71
     3
 72
    13
 73
     9
 74
     0
 42
0.00000001
 43
0.00000001
 40
0.0
 40
0.0
 40
0.0
 40
0.0
 40
0.0624921984852712
 40
0.280165255553228
 40
0.3469311675061709
 40
0.5028718320925426
 40
0.6630421850501997
 40
1.0
 40
1.0
 40
1.0
 40
1.0
 10
104.5908700260141
 20
311.5484642809805
 30
0.0
 10
104.5849163233205
 20
311.5453100279664
 30
0.0
 10
104.5582246613681
 20
311.5311688691787
 30
0.0
 10
104.1218654734867
 20
311.2999484833924
 30
0.0
 10
103.2927675167464
 20
310.8641197859896
 30
0.0
 10
102.3849153555018
 20
310.3904397926756
 30
0.0
 10
100.5491051703595
 20
309.4415553623872
 30
0.0
 10
98.85585386123766
 20
308.6083516402878
 30
0.0
 10
97.7081533322489
 20
308.0435988788652
 30
0.0
  0
LINE
  5
364
330
1F
100
AcDbEntity
  8
0
  6
Continuous
 62
     8
370
    25
100
AcDbLine
 10
93.09904957
 20
281.9513608465
 30
0.0
 11
93.09904957
 21
280.2904637084
 31
0.0
  0
LINE
  5
365
330
1F
100
AcDbEntity
  8
0
  6
Continuous
 62
     8
370
    25
100
AcDbLine
 10
110.2139512995
 20
303.2702351535
 30
0.0
 11
110.3694750653
 21
303.1355482814
 31
0.0
  0
LINE
  5
366
330
1F
100
AcDbEntity
  8
0
  6
Continuous
 62
     8
370
    25
100
AcDbLine
 10
67.8938683962
 20
309.8850919587
 30
0.0
 11
68.1426808982
 21
309.8850919587
 31
0.0
  0
SPLINE
  5
367
330
1F
100
AcDbEntity
  8
0
  6
Continuous
 62
     8
370
    25
100
AcDbSpline
210
0.0
220
0.0
230
1.0
 70
     8
 71
     3
 72
    13
 73
     9
 74
     0
 42
0.00000001
 43
0.00000001
 40
0.0
 40
0.0
 40
0.0
 40
0.0
 40
0.3303824594534193
 40
0.4871650594317135
 40
0.6474432086157422
 40
0.862099484333404
 40
0.9364418460707512
 40
0.9999999999999999
 40
0.9999999999999999
 40
0.9999999999999999
 40
0.9999999999999999
 10
90.79864793657997
 20
315.9399357521579
 30
0.0
 10
91.46801658464659
 20
316.8832334954968
 30
0.0
 10
92.45503332202601
 20
318.2741720518467
 30
0.0
 10
93.5139348973541
 20
319.8385658987887
 30
0.0
 10
94.25005573841646
 20
320.9361263042165
 30
0.0
 10
94.6389460367986
 20
321.5233973990699
 30
0.0
 10
94.81017680670656
 20
321.7823033861296
 30
0.0
 10
94.77448944208584
 20
321.7283514618581
 30
0.0
 10
94.75804118587064
 20
321.7034850957604
 30
0.0
  0
LINE
  5
368
330
1F
100
AcDbEntity
  8
0
  6
Continuous
 62
     8
370
    25
100
AcDbLine
 10
67.5456936089
 20
338.314621599
 30
0.0
 11
67.2365382311
 21
338.314621599
 31
0.0
  0
LINE
  5
369
330
1F
100
AcDbEntity
  8
0
  6
Continuous
 62
     8
370
    25
100
AcDbLine
 10
95.191364368
 20
338.314621599
 30
0.0
 11
94.8822089902
 21
338.314621599
 31
0.0
  0
ARC
  5
36A
330
1F
100
AcDbEntity
  8
0
  6
Continuous
 62
     8
370
    25
100
AcDbCircle
 10
89.100070486
 20
275.6155485736
 30
0.0
 40
5.860672405015007
100
AcDbArc
 50
74.7523207299
 51
89.864296668
  0
LINE
  5
36B
330
1F
100
AcDbEntity
  8
0
  6
Continuous
 62
     8
370
    25
100
AcDbLine
 10
89.1139512995
 20
280.8584668423
 30
0.0
 11
90.641381241
 21
281.2699134535
 31
0.0
  0
ARC
  5
36C
330
1F
100
AcDbEntity
  8
0
  6
Continuous
 62
     8
370
    25
100
AcDbCircle
 10
81.2139512995
 20
296.0415063896
 30
0.0
 40
16.76373439777599
100
AcDbArc
 50
149.2515511975
 51
241.8841832281
  0
LINE
  5
36D
330
1F
100
AcDbEntity
  8
0
  6
Continuous
 62
     8
370
    25
100
AcDbLine
 10
66.8068584307
 20
304.6122978367
 30
0.0
 11
66.5326184591
 21
304.6122978367
 31
0.0
  0
LINE
  5
36E
330
1F
100
AcDbEntity
  8
0
  6
Continuous
 62
     8
370
    25
100
AcDbLine
 10
63.6047680893
 20
351.7915063896
 30
0.0
 11
63.2028443006
 21
351.7915063896
 31
0.0
  0
LINE
  5
36F
330
1F
100
AcDbEntity
  8
0
  6
Continuous
 62
     8
370
    25
100
AcDbLine
 10
64.5660798706
 20
353.4202896335
 30
0.0
 11
64.4756771549
 21
353.4750034469
 31
0.0
  0
LINE
  5
370
330
1F
100
AcDbEntity
  8
0
  6
Continuous
 62
     8
370
    25
100
AcDbLine
 10
98.8231345098
 20
341.0415063896
 30
0.0
 11
99.2250582985
 21
341.0415063896
 31
0.0
  0
LINE
  5
371
330
1F
100
AcDbEntity
  8
0
  6
Continuous
 62
     8
370
    25
100
AcDbLine
 10
99.2250582985
 20
351.7915063896
 30
0.0
 11
98.8231345098
 21
351.7915063896
 31
0.0
  0
LINE
  5
372
330
1F
100
AcDbEntity
  8
0
  6
Continuous
 62
     8
370
    25
100
AcDbLine
 10
63.2028443006
 20
341.0415063896
 30
0.0
 11
63.6047680893
 21
341.0415063896
 31
0.0
  0
SPLINE
  5
373
330
1F
100
AcDbEntity
  8
0
  6
Continuous
 62
     8
370
    25
100
AcDbSpline
210
0.0
220
0.0
230
1.0
 70
    24
 71
     3
 72
     9
 73
     5
 74
     0
 42
0.00000001
 43
0.00000001
 40
0.0
 40
0.0
 40
0.0
 40
0.0
 40
0.0011254209461464
 40
1.0
 40
1.0
 40
1.0
 40
1.0
 10
97.95234028372198
 20
353.4750729504167
 30
0.0
 10
97.95237435541186
 20
353.4750935713911
 30
0.0
 10
97.9826489739904
 20
353.4934164704095
 30
0.0
 10
97.9222018369977
 20
353.4568324657504
 30
0.0
 10
97.86182272847911
 20
353.4202896334963
 30
0.0
  0
ENDSEC
  0
SECTION
  2
OBJECTS
  0
DICTIONARY
  5
C
330
0
100
AcDbDictionary
281
     1
  3
ACAD_GROUP
350
D
  3
ACAD_LAYOUT
350
1A
  3
ACAD_MLINESTYLE
350
17
  3
ACAD_PLOTSETTINGS
350
19
  3
ACAD_PLOTSTYLENAME
350
E
  3
ACAD_SCALELIST
350
47
  3
DWGPROPS
350
374
  0
DICTIONARY
  5
D
102
{ACAD_REACTORS
330
C
102
}
330
C
100
AcDbDictionary
281
     1
  0
DICTIONARY
  5
1A
102
{ACAD_REACTORS
330
C
102
}
330
C
100
AcDbDictionary
281
     1
  3
Layout1
350
1E
  3
Layout2
350
26
  3
Model
350
22
  0
DICTIONARY
  5
17
102
{ACAD_REACTORS
330
C
102
}
330
C
100
AcDbDictionary
281
     1
  3
Standard
350
18
  0
DICTIONARY
  5
19
102
{ACAD_REACTORS
330
C
102
}
330
C
100
AcDbDictionary
281
     1
  0
ACDBDICTIONARYWDFLT
  5
E
102
{ACAD_REACTORS
330
C
102
}
330
C
100
AcDbDictionary
281
     1
  3
Normal
350
F
100
AcDbDictionaryWithDefault
340
F
  0
DICTIONARY
  5
47
102
{ACAD_REACTORS
330
C
102
}
330
C
100
AcDbDictionary
281
     1
  3
A0
350
48
  3
A1
350
49
  3
A2
350
4A
  3
A3
350
4B
  3
A4
350
4C
  3
A5
350
4D
  3
A6
350
4E
  3
A7
350
4F
  3
A8
350
50
  3
A9
350
51
  3
B0
350
52
  3
B1
350
53
  3
B2
350
54
  3
B3
350
55
  3
B4
350
56
  3
B5
350
57
  3
B6
350
58
  3
B7
350
59
  3
B8
350
5A
  3
B9
350
5B
  3
C0
350
5C
  3
C1
350
5D
  3
C2
350
5E
  3
C3
350
5F
  3
C4
350
60
  3
C5
350
61
  3
C6
350
62
  3
C7
350
63
  3
C8
350
64
  3
C9
350
65
  3
D0
350
66
  3
D1
350
67
  3
D2
350
68
  0
XRECORD
  5
374
102
{ACAD_REACTORS
330
C
102
}
330
C
100
AcDbXrecord
280
     1
  1
DWGPROPS COOKIE
  2

  3

  4

  6

  7

  8
vishesh
  9

300
=
301
=
302
=
303
=
304
=
305
=
306
=
307
=
308
=
309
=
 40
0.0
 41
2460383.491893831
 42
2460383.491894306
  1

 90
        0
  0
LAYOUT
  5
1E
102
{ACAD_REACTORS
330
1A
102
}
330
1A
100
AcDbPlotSettings
  1

  2
none_device
  4

  6

 40
0.0
 41
0.0
 42
0.0
 43
0.0
 44
0.0
 45
0.0
 46
0.0
 47
0.0
 48
0.0
 49
0.0
140
0.0
141
0.0
142
1.0
143
1.0
 70
   688
 72
     1
 73
     0
 74
     5
  7

 75
    16
147
1.0
148
0.0
149
0.0
100
AcDbLayout
  1
Layout1
 70
     1
 71
     1
 10
0.0
 20
0.0
 11
420.0
 21
297.0
 12
0.0
 22
0.0
 32
0.0
 14
1.0000000000E+20
 24
1.0000000000E+20
 34
1.0000000000E+20
 15
-1.0000000000E+20
 25
-1.0000000000E+20
 35
-1.0000000000E+20
146
0.0
 13
0.0
 23
0.0
 33
0.0
 16
1.0
 26
0.0
 36
0.0
 17
0.0
 27
1.0
 37
0.0
 76
     0
330
1B
  0
LAYOUT
  5
26
102
{ACAD_REACTORS
330
1A
102
}
330
1A
100
AcDbPlotSettings
  1

  2
none_device
  4

  6

 40
0.0
 41
0.0
 42
0.0
 43
0.0
 44
0.0
 45
0.0
 46
0.0
 47
0.0
 48
0.0
 49
0.0
140
0.0
141
0.0
142
1.0
143
1.0
 70
   688
 72
     1
 73
     0
 74
     5
  7

 75
    16
147
1.0
148
0.0
149
0.0
100
AcDbLayout
  1
Layout2
 70
     1
 71
     2
 10
0.0
 20
0.0
 11
0.0
 21
0.0
 12
0.0
 22
0.0
 32
0.0
 14
0.0
 24
0.0
 34
0.0
 15
0.0
 25
0.0
 35
0.0
146
0.0
 13
0.0
 23
0.0
 33
0.0
 16
1.0
 26
0.0
 36
0.0
 17
0.0
 27
1.0
 37
0.0
 76
     0
330
23
  0
LAYOUT
  5
22
102
{ACAD_REACTORS
330
1A
102
}
330
1A
100
AcDbPlotSettings
  1

  2
none_device
  4
Letter_(8.50_x_11.00_Inches)
  6

 40
6.35
 41
6.35
 42
6.35000508
 43
6.35000508
 44
215.9
 45
279.4
 46
0.0
 47
0.0
 48
0.0
 49
0.0
140
0.0
141
0.0
142
1.0
143
1.0
 70
  1712
 72
     1
 73
     0
 74
     0
  7

 75
     0
147
1.0
148
0.0
149
0.0
100
AcDbLayout
  1
Model
 70
     1
 71
     0
 10
0.0
 20
0.0
 11
279.4
 21
215.9
 12
0.0
 22
0.0
 32
0.0
 14
0.0
 24
0.0
 34
0.0
 15
279.4
 25
215.9
 35
0.0
146
0.0
 13
0.0
 23
0.0
 33
0.0
 16
1.0
 26
0.0
 36
0.0
 17
0.0
 27
1.0
 37
0.0
 76
     0
330
1F
331
29
  0
MLINESTYLE
  5
18
102
{ACAD_REACTORS
330
17
102
}
330
17
100
AcDbMlineStyle
  2
Standard
 70
     0
  3

 62
   256
 51
90.0
 52
90.0
 71
     2
 49
0.5
 62
   256
  6
BYLAYER
 49
-0.5
 62
   256
  6
BYLAYER
  0
ACDBPLACEHOLDER
  5
F
102
{ACAD_REACTORS
330
E
102
}
330
E
  0
SCALE
  5
48
102
{ACAD_REACTORS
330
47
102
}
330
47
100
AcDbScale
 70
     0
300
1:1
140
1.0
141
1.0
290
     1
  0
SCALE
  5
49
102
{ACAD_REACTORS
330
47
102
}
330
47
100
AcDbScale
 70
     0
300
1:2
140
1.0
141
2.0
290
     0
  0
SCALE
  5
4A
102
{ACAD_REACTORS
330
47
102
}
330
47
100
AcDbScale
 70
     0
300
1:4
140
1.0
141
4.0
290
     0
  0
SCALE
  5
4B
102
{ACAD_REACTORS
330
47
102
}
330
47
100
AcDbScale
 70
     0
300
1:5
140
1.0
141
5.0
290
     0
  0
SCALE
  5
4C
102
{ACAD_REACTORS
330
47
102
}
330
47
100
AcDbScale
 70
     0
300
1:8
140
1.0
141
8.0
290
     0
  0
SCALE
  5
4D
102
{ACAD_REACTORS
330
47
102
}
330
47
100
AcDbScale
 70
     0
300
1:10
140
1.0
141
10.0
290
     0
  0
SCALE
  5
4E
102
{ACAD_REACTORS
330
47
102
}
330
47
100
AcDbScale
 70
     0
300
1:16
140
1.0
141
16.0
290
     0
  0
SCALE
  5
4F
102
{ACAD_REACTORS
330
47
102
}
330
47
100
AcDbScale
 70
     0
300
1:20
140
1.0
141
20.0
290
     0
  0
SCALE
  5
50
102
{ACAD_REACTORS
330
47
102
}
330
47
100
AcDbScale
 70
     0
300
1:30
140
1.0
141
30.0
290
     0
  0
SCALE
  5
51
102
{ACAD_REACTORS
330
47
102
}
330
47
100
AcDbScale
 70
     0
300
1:40
140
1.0
141
40.0
290
     0
  0
SCALE
  5
52
102
{ACAD_REACTORS
330
47
102
}
330
47
100
AcDbScale
 70
     0
300
1:50
140
1.0
141
50.0
290
     0
  0
SCALE
  5
53
102
{ACAD_REACTORS
330
47
102
}
330
47
100
AcDbScale
 70
     0
300
1:100
140
1.0
141
100.0
290
     0
  0
SCALE
  5
54
102
{ACAD_REACTORS
330
47
102
}
330
47
100
AcDbScale
 70
     0
300
2:1
140
2.0
141
1.0
290
     0
  0
SCALE
  5
55
102
{ACAD_REACTORS
330
47
102
}
330
47
100
AcDbScale
 70
     0
300
4:1
140
4.0
141
1.0
290
     0
  0
SCALE
  5
56
102
{ACAD_REACTORS
330
47
102
}
330
47
100
AcDbScale
 70
     0
300
8:1
140
8.0
141
1.0
290
     0
  0
SCALE
  5
57
102
{ACAD_REACTORS
330
47
102
}
330
47
100
AcDbScale
 70
     0
300
10:1
140
10.0
141
1.0
290
     0
  0
SCALE
  5
58
102
{ACAD_REACTORS
330
47
102
}
330
47
100
AcDbScale
 70
     0
300
100:1
140
100.0
141
1.0
290
     0
  0
SCALE
  5
59
102
{ACAD_REACTORS
330
47
102
}
330
47
100
AcDbScale
 70
     0
300
1/128" = 1'-0"
140
0.0078125
141
12.0
290
     0
  0
SCALE
  5
5A
102
{ACAD_REACTORS
330
47
102
}
330
47
100
AcDbScale
 70
     0
300
1/64" = 1'-0"
140
0.015625
141
12.0
290
     0
  0
SCALE
  5
5B
102
{ACAD_REACTORS
330
47
102
}
330
47
100
AcDbScale
 70
     0
300
1/32" = 1'-0"
140
0.03125
141
12.0
290
     0
  0
SCALE
  5
5C
102
{ACAD_REACTORS
330
47
102
}
330
47
100
AcDbScale
 70
     0
300
1/16" = 1'-0"
140
0.0625
141
12.0
290
     0
  0
SCALE
  5
5D
102
{ACAD_REACTORS
330
47
102
}
330
47
100
AcDbScale
 70
     0
300
3/32" = 1'-0"
140
0.09375
141
12.0
290
     0
  0
SCALE
  5
5E
102
{ACAD_REACTORS
330
47
102
}
330
47
100
AcDbScale
 70
     0
300
1/8" = 1'-0"
140
0.125
141
12.0
290
     0
  0
SCALE
  5
5F
102
{ACAD_REACTORS
330
47
102
}
330
47
100
AcDbScale
 70
     0
300
3/16" = 1'-0"
140
0.1875
141
12.0
290
     0
  0
SCALE
  5
60
102
{ACAD_REACTORS
330
47
102
}
330
47
100
AcDbScale
 70
     0
300
1/4" = 1'-0"
140
0.25
141
12.0
290
     0
  0
SCALE
  5
61
102
{ACAD_REACTORS
330
47
102
}
330
47
100
AcDbScale
 70
     0
300
3/8" = 1'-0"
140
0.375
141
12.0
290
     0
  0
SCALE
  5
62
102
{ACAD_REACTORS
330
47
102
}
330
47
100
AcDbScale
 70
     0
300
1/2" = 1'-0"
140
0.5
141
12.0
290
     0
  0
SCALE
  5
63
102
{ACAD_REACTORS
330
47
102
}
330
47
100
AcDbScale
 70
     0
300
3/4" = 1'-0"
140
0.75
141
12.0
290
     0
  0
SCALE
  5
64
102
{ACAD_REACTORS
330
47
102
}
330
47
100
AcDbScale
 70
     0
300
1" = 1'-0"
140
1.0
141
12.0
290
     0
  0
SCALE
  5
65
102
{ACAD_REACTORS
330
47
102
}
330
47
100
AcDbScale
 70
     0
300
1-1/2" = 1'-0"
140
1.5
141
12.0
290
     0
  0
SCALE
  5
66
102
{ACAD_REACTORS
330
47
102
}
330
47
100
AcDbScale
 70
     0
300
3" = 1'-0"
140
3.0
141
12.0
290
     0
  0
SCALE
  5
67
102
{ACAD_REACTORS
330
47
102
}
330
47
100
AcDbScale
 70
     0
300
6" = 1'-0"
140
6.0
141
12.0
290
     0
  0
SCALE
  5
68
102
{ACAD_REACTORS
330
47
102
}
330
47
100
AcDbScale
 70
     0
300
1'-0" = 1'-0"
140
12.0
141
12.0
290
     0
  0
ENDSEC
  0
EOF
