  0
SECTION
  2
HEADER
  9
$ACADVER
  1
AC1015
  9
$ACADMAINTVER
 70
     6
  9
$DWGCODEPAGE
  3
ANSI_1252
  9
$INSBASE
 10
0.0
 20
0.0
 30
0.0
  9
$EXTMIN
 10
0.0
 20
0.0
 30
0.0
  9
$EXTMAX
 10
279.4
 20
215.9
 30
0.0
  9
$LIMMIN
 10
0.0
 20
0.0
  9
$LIMMAX
 10
279.4
 20
215.9
  9
$ORTHOMODE
 70
     0
  9
$REGENMODE
 70
     1
  9
$FILLMODE
 70
     1
  9
$QTEXTMODE
 70
     0
  9
$MIRRTEXT
 70
     1
  9
$LTSCALE
 40
1.0
  9
$ATTMODE
 70
     1
  9
$TEXTSIZE
 40
3.5277777778
  9
$TRACEWID
 40
1.0
  9
$TEXTSTYLE
  7
Standard
  9
$CLAYER
  8
0
  9
$CELTYPE
  6
ByLayer
  9
$CECOLOR
 62
   256
  9
$CELTSCALE
 40
1.0
  9
$DISPSILH
 70
     0
  9
$DIMSCALE
 40
1.0
  9
$DIMASZ
 40
3.556
  9
$DIMEXO
 40
1.0
  9
$DIMDLI
 40
3.75
  9
$DIMRND
 40
0.0
  9
$DIMDLE
 40
0.0
  9
$DIMEXE
 40
1.0
  9
$DIMTP
 40
0.0
  9
$DIMTM
 40
0.0
  9
$DIMTXT
 40
3.5277777778
  9
$DIMCEN
 40
2.5
  9
$DIMTSZ
 40
0.0
  9
$DIMTOL
 70
     0
  9
$DIMLIM
 70
     0
  9
$DIMTIH
 70
     1
  9
$DIMTOH
 70
     1
  9
$DIMSE1
 70
     0
  9
$DIMSE2
 70
     0
  9
$DIMTAD
 70
     1
  9
$DIMZIN
 70
     0
  9
$DIMBLK
  1

  9
$DIMASO
 70
     1
  9
$DIMSHO
 70
     1
  9
$DIMPOST
  1

  9
$DIMAPOST
  1

  9
$DIMALT
 70
     0
  9
$DIMALTD
 70
     3
  9
$DIMALTF
 40
0.0393700787
  9
$DIMLFAC
 40
2.0
  9
$DIMTOFL
 70
     1
  9
$DIMTVP
 40
0.0
  9
$DIMTIX
 70
     0
  9
$DIMSOXD
 70
     0
  9
$DIMSAH
 70
     0
  9
$DIMBLK1
  1

  9
$DIMBLK2
  1

  9
$DIMSTYLE
  2
ISO-25
  9
$DIMCLRD
 70
     0
  9
$DIMCLRE
 70
     0
  9
$DIMCLRT
 70
     0
  9
$DIMTFAC
 40
1.0
  9
$DIMGAP
 40
1.524
  9
$DIMJUST
 70
     0
  9
$DIMSD1
 70
     0
  9
$DIMSD2
 70
     0
  9
$DIMTOLJ
 70
     0
  9
$DIMTZIN
 70
     0
  9
$DIMALTZ
 70
     0
  9
$DIMALTTZ
 70
     0
  9
$DIMUPT
 70
     0
  9
$DIMDEC
 70
     2
  9
$DIMTDEC
 70
     2
  9
$DIMALTU
 70
     2
  9
$DIMALTTD
 70
     3
  9
$DIMTXSTY
  7
Standard
  9
$DIMAUNIT
 70
     0
  9
$DIMADEC
 70
     2
  9
$DIMALTRND
 40
0.0
  9
$DIMAZIN
 70
     0
  9
$DIMDSEP
 70
    44
  9
$DIMATFIT
 70
     3
  9
$DIMFRAC
 70
     0
  9
$DIMLDRBLK
  1

  9
$DIMLUNIT
 70
     2
  9
$DIMLWD
 70
    -2
  9
$DIMLWE
 70
    -2
  9
$DIMTMOVE
 70
     0
  9
$LUNITS
 70
     2
  9
$LUPREC
 70
     2
  9
$SKETCHINC
 40
1.0
  9
$FILLETRAD
 40
10.0
  9
$AUNITS
 70
     0
  9
$AUPREC
 70
     2
  9
$MENU
  1
.
  9
$ELEVATION
 40
0.0
  9
$PELEVATION
 40
0.0
  9
$THICKNESS
 40
0.0
  9
$LIMCHECK
 70
     0
  9
$CHAMFERA
 40
0.0
  9
$CHAMFERB
 40
0.0
  9
$CHAMFERC
 40
0.0
  9
$CHAMFERD
 40
0.0
  9
$SKPOLY
 70
     0
  9
$TDCREATE
 40
2460384.390409931
  9
$TDUCREATE
 40
2460384.161243264
  9
$TDUPDATE
 40
2460384.390410845
  9
$TDUUPDATE
 40
2460384.161244178
  9
$TDINDWG
 40
0.0000000116
  9
$TDUSRTIMER
 40
0.0000000116
  9
$USRTIMER
 70
     1
  9
$ANGBASE
 50
0.0
  9
$ANGDIR
 70
     0
  9
$PDMODE
 70
     0
  9
$PDSIZE
 40
-1.0
  9
$PLINEWID
 40
0.0
  9
$SPLFRAME
 70
     0
  9
$SPLINETYPE
 70
     6
  9
$SPLINESEGS
 70
     8
  9
$HANDSEED
  5
219
  9
$SURFTAB1
 70
     6
  9
$SURFTAB2
 70
     6
  9
$SURFTYPE
 70
     6
  9
$SURFU
 70
     6
  9
$SURFV
 70
     6
  9
$UCSBASE
  2

  9
$UCSNAME
  2

  9
$UCSORG
 10
0.0
 20
0.0
 30
0.0
  9
$UCSXDIR
 10
1.0
 20
0.0
 30
0.0
  9
$UCSYDIR
 10
0.0
 20
1.0
 30
0.0
  9
$UCSORTHOREF
  2

  9
$UCSORTHOVIEW
 70
     0
  9
$UCSORGTOP
 10
0.0
 20
0.0
 30
0.0
  9
$UCSORGBOTTOM
 10
0.0
 20
0.0
 30
0.0
  9
$UCSORGLEFT
 10
0.0
 20
0.0
 30
0.0
  9
$UCSORGRIGHT
 10
0.0
 20
0.0
 30
0.0
  9
$UCSORGFRONT
 10
0.0
 20
0.0
 30
0.0
  9
$UCSORGBACK
 10
0.0
 20
0.0
 30
0.0
  9
$PUCSBASE
  2

  9
$PUCSNAME
  2

  9
$PUCSORG
 10
0.0
 20
0.0
 30
0.0
  9
$PUCSXDIR
 10
1.0
 20
0.0
 30
0.0
  9
$PUCSYDIR
 10
0.0
 20
1.0
 30
0.0
  9
$PUCSORTHOREF
  2

  9
$PUCSORTHOVIEW
 70
     0
  9
$PUCSORGTOP
 10
0.0
 20
0.0
 30
0.0
  9
$PUCSORGBOTTOM
 10
0.0
 20
0.0
 30
0.0
  9
$PUCSORGLEFT
 10
0.0
 20
0.0
 30
0.0
  9
$PUCSORGRIGHT
 10
0.0
 20
0.0
 30
0.0
  9
$PUCSORGFRONT
 10
0.0
 20
0.0
 30
0.0
  9
$PUCSORGBACK
 10
0.0
 20
0.0
 30
0.0
  9
$USERI1
 70
     0
  9
$USERI2
 70
     0
  9
$USERI3
 70
     0
  9
$USERI4
 70
     0
  9
$USERI5
 70
     0
  9
$USERR1
 40
0.0
  9
$USERR2
 40
0.0
  9
$USERR3
 40
0.0
  9
$USERR4
 40
0.0
  9
$USERR5
 40
0.0
  9
$WORLDVIEW
 70
     1
  9
$SHADEDGE
 70
     3
  9
$SHADEDIF
 70
    70
  9
$TILEMODE
 70
     1
  9
$MAXACTVP
 70
    64
  9
$PINSBASE
 10
0.0
 20
0.0
 30
0.0
  9
$PLIMCHECK
 70
     0
  9
$PEXTMIN
 10
1.0000000000E+20
 20
1.0000000000E+20
 30
1.0000000000E+20
  9
$PEXTMAX
 10
-1.0000000000E+20
 20
-1.0000000000E+20
 30
-1.0000000000E+20
  9
$PLIMMIN
 10
0.0
 20
0.0
  9
$PLIMMAX
 10
420.0
 20
297.0
  9
$UNITMODE
 70
     0
  9
$VISRETAIN
 70
     1
  9
$PLINEGEN
 70
     0
  9
$PSLTSCALE
 70
     1
  9
$TREEDEPTH
 70
  3020
  9
$CMLSTYLE
  2
Standard
  9
$CMLJUST
 70
     0
  9
$CMLSCALE
 40
20.0
  9
$PROXYGRAPHICS
 70
     1
  9
$MEASUREMENT
 70
     1
  9
$CELWEIGHT
370
    -1
  9
$ENDCAPS
280
     0
  9
$JOINSTYLE
280
     0
  9
$LWDISPLAY
290
     1
  9
$INSUNITS
 70
     4
  9
$HYPERLINKBASE
  1

  9
$STYLESHEET
  1

  9
$XEDIT
290
     1
  9
$CEPSNTYPE
380
     0
  9
$PSTYLEMODE
290
     1
  9
$FINGERPRINTGUID
  2
{58d27c02-57a9-494d-97ef-2ca6eb254189}
  9
$VERSIONGUID
  2
{FAEB1C32-E019-11D5-929B-00C0DF256EC4}
  9
$EXTNAMES
290
     1
  9
$PSVPSCALE
 40
0.0
  9
$OLESTARTUP
290
     0
  0
ENDSEC
  0
SECTION
  2
CLASSES
  0
CLASS
  1
ACDBDICTIONARYWDFLT
  2
AcDbDictionaryWithDefault
  3
ObjectDBX Classes
 90
        0
280
     0
281
     0
  0
CLASS
  1
VISUALSTYLE
  2
AcDbVisualStyle
  3
ObjectDBX Classes
 90
     4095
280
     0
281
     0
  0
CLASS
  1
MATERIAL
  2
AcDbMaterial
  3
ObjectDBX Classes
 90
     1153
280
     0
281
     0
  0
CLASS
  1
SCALE
  2
AcDbScale
  3
ObjectDBX Classes
 90
     1153
280
     0
281
     0
  0
CLASS
  1
TABLESTYLE
  2
AcDbTableStyle
  3
ObjectDBX Classes
 90
     4095
280
     0
281
     0
  0
CLASS
  1
MLEADERSTYLE
  2
AcDbMLeaderStyle
  3
ACDB_MLEADERSTYLE_CLASS
 90
     4095
280
     0
281
     0
  0
CLASS
  1
SUN
  2
AcDbSun
  3
SCENEOE
 90
     1153
280
     0
281
     0
  0
CLASS
  1
ACDBPLACEHOLDER
  2
AcDbPlaceHolder
  3
ObjectDBX Classes
 90
        0
280
     0
281
     0
  0
CLASS
  1
LAYOUT
  2
AcDbLayout
  3
ObjectDBX Classes
 90
        0
280
     0
281
     0
  0
ENDSEC
  0
SECTION
  2
TABLES
  0
TABLE
  2
VPORT
  5
8
330
0
100
AcDbSymbolTable
 70
     1
  0
VPORT
  5
29
330
8
100
AcDbSymbolTableRecord
100
AcDbViewportTableRecord
  2
*Active
 70
     0
 10
0.0
 20
0.0
 11
1.0
 21
1.0
 12
139.7
 22
107.95
 13
0.0
 23
0.0
 14
10.0
 24
10.0
 15
10.0
 25
10.0
 16
0.0
 26
0.0
 36
1.0
 17
0.0
 27
0.0
 37
0.0
 40
215.9
 41
1.2941176471
 42
50.0
 43
0.0
 44
0.0
 50
0.0
 51
0.0
 71
     0
 72
  2000
 73
     1
 74
     3
 75
     0
 76
     0
 77
     0
 78
     0
281
     0
 65
     1
110
0.0
120
0.0
130
0.0
111
1.0
121
0.0
131
0.0
112
0.0
122
1.0
132
0.0
 79
     0
146
0.0
  0
ENDTAB
  0
TABLE
  2
LTYPE
  5
5
330
0
100
AcDbSymbolTable
 70
     6
  0
LTYPE
  5
14
330
5
100
AcDbSymbolTableRecord
100
AcDbLinetypeTableRecord
  2
ByBlock
 70
     0
  3

 72
    65
 73
     0
 40
0.0
  0
LTYPE
  5
15
330
5
100
AcDbSymbolTableRecord
100
AcDbLinetypeTableRecord
  2
ByLayer
 70
     0
  3

 72
    65
 73
     0
 40
0.0
  0
LTYPE
  5
16
330
5
100
AcDbSymbolTableRecord
100
AcDbLinetypeTableRecord
  2
Continuous
 70
     0
  3
Solid line
 72
    65
 73
     0
 40
0.0
  0
LTYPE
  5
6E
330
5
100
AcDbSymbolTableRecord
100
AcDbLinetypeTableRecord
  2
HIDDEN
 70
     0
  3
Hidden __ __ __ __ __ __ __ __ __ __ __ __ __ __
 72
    65
 73
     2
 40
1.905
 49
1.27
 74
     0
 49
-0.635
 74
     0
  0
LTYPE
  5
6F
330
5
100
AcDbSymbolTableRecord
100
AcDbLinetypeTableRecord
  2
PHANTOM
 70
     0
  3
Phantom ______  __  __  ______  __  __  ______
 72
    65
 73
     6
 40
12.7
 49
6.35
 74
     0
 49
-1.27
 74
     0
 49
1.27
 74
     0
 49
-1.27
 74
     0
 49
1.27
 74
     0
 49
-1.27
 74
     0
  0
LTYPE
  5
70
330
5
100
AcDbSymbolTableRecord
100
AcDbLinetypeTableRecord
  2
CENTER
 70
     0
  3
Center ____ _ ____ _ ____ _ ____ _ ____ _ ____
 72
    65
 73
     4
 40
10.16
 49
6.35
 74
     0
 49
-1.27
 74
     0
 49
1.27
 74
     0
 49
-1.27
 74
     0
  0
LTYPE
  5
71
330
5
100
AcDbSymbolTableRecord
100
AcDbLinetypeTableRecord
  2
CENTERX2
 70
     0
  3
Center (2x) ________  __  ________  __  _____
 72
    65
 73
     4
 40
20.32
 49
12.7
 74
     0
 49
-2.54
 74
     0
 49
2.54
 74
     0
 49
-2.54
 74
     0
  0
LTYPE
  5
72
330
5
100
AcDbSymbolTableRecord
100
AcDbLinetypeTableRecord
  2
DOT2
 70
     0
  3
Dot (.5x) ........................................
 72
    65
 73
     2
 40
0.635
 49
0.0
 74
     0
 49
-0.635
 74
     0
  0
ENDTAB
  0
TABLE
  2
LAYER
  5
2
330
0
100
AcDbSymbolTable
 70
     4
  0
LAYER
  5
10
330
2
100
AcDbSymbolTableRecord
100
AcDbLayerTableRecord
  2
0
 70
     0
 62
     7
  6
Continuous
370
    -3
390
F
  0
LAYER
  5
73
330
2
100
AcDbSymbolTableRecord
100
AcDbLayerTableRecord
  2
FORMAT
 70
     0
 62
     7
  6
Continuous
370
    -3
390
F
  0
LAYER
  5
74
330
2
100
AcDbSymbolTableRecord
100
AcDbLayerTableRecord
  2
OUT_LINE
 70
     0
 62
     7
  6
Continuous
370
    50
390
F
  0
LAYER
  5
75
330
2
100
AcDbSymbolTableRecord
100
AcDbLayerTableRecord
  2
WATERMARK
 70
     0
 62
   254
  6
Continuous
370
    -3
390
F
  0
ENDTAB
  0
TABLE
  2
STYLE
  5
3
330
0
100
AcDbSymbolTable
 70
     1
  0
STYLE
  5
11
330
3
100
AcDbSymbolTableRecord
100
AcDbTextStyleTableRecord
  2
Standard
 70
     0
 40
0.0
 41
1.0
 50
0.0
 71
     0
 42
3.5277777778
  3
txt
  4

  0
ENDTAB
  0
TABLE
  2
VIEW
  5
6
330
0
100
AcDbSymbolTable
 70
     0
  0
ENDTAB
  0
TABLE
  2
UCS
  5
7
330
0
100
AcDbSymbolTable
 70
     0
  0
ENDTAB
  0
TABLE
  2
APPID
  5
9
330
0
100
AcDbSymbolTable
 70
     1
  0
APPID
  5
12
330
9
100
AcDbSymbolTableRecord
100
AcDbRegAppTableRecord
  2
ACAD
 70
     0
  0
ENDTAB
  0
TABLE
  2
DIMSTYLE
  5
A
330
0
100
AcDbSymbolTable
 70
     1
100
AcDbDimStyleTable
  0
DIMSTYLE
105
27
330
A
100
AcDbSymbolTableRecord
100
AcDbDimStyleTableRecord
  2
ISO-25
 70
     0
 41
2.5
 42
0.625
 43
3.75
 44
1.25
 73
     0
 74
     0
 77
     1
 78
     8
140
2.5
141
2.5
143
0.0393700787
147
0.625
171
     3
172
     1
178
     0
271
     2
272
     2
274
     3
278
    44
283
     0
284
     8
340
11
  0
ENDTAB
  0
TABLE
  2
BLOCK_RECORD
  5
1
330
0
100
AcDbSymbolTable
 70
     7
  0
BLOCK_RECORD
  5
1F
330
1
100
AcDbSymbolTableRecord
100
AcDbBlockTableRecord
  2
*Model_Space
340
22
  0
BLOCK_RECORD
  5
1B
330
1
100
AcDbSymbolTableRecord
100
AcDbBlockTableRecord
  2
*Paper_Space
340
1E
  0
BLOCK_RECORD
  5
23
330
1
100
AcDbSymbolTableRecord
100
AcDbBlockTableRecord
  2
*Paper_Space0
340
26
  0
BLOCK_RECORD
  5
76
330
1
100
AcDbSymbolTableRecord
100
AcDbBlockTableRecord
  2
Block6
340
0
  0
BLOCK_RECORD
  5
7B
330
1
100
AcDbSymbolTableRecord
100
AcDbBlockTableRecord
  2
Block4
340
0
  0
BLOCK_RECORD
  5
7F
330
1
100
AcDbSymbolTableRecord
100
AcDbBlockTableRecord
  2
Block5
340
0
  0
BLOCK_RECORD
  5
8D
330
1
100
AcDbSymbolTableRecord
100
AcDbBlockTableRecord
  2
Block2
340
0
  0
BLOCK_RECORD
  5
98
330
1
100
AcDbSymbolTableRecord
100
AcDbBlockTableRecord
  2
Block3
340
0
  0
BLOCK_RECORD
  5
A5
330
1
100
AcDbSymbolTableRecord
100
AcDbBlockTableRecord
  2
Block7
340
0
  0
ENDTAB
  0
ENDSEC
  0
SECTION
  2
BLOCKS
  0
BLOCK
  5
20
330
1F
100
AcDbEntity
  8
0
100
AcDbBlockBegin
  2
*Model_Space
 70
     0
 10
0.0
 20
0.0
 30
0.0
  3
*Model_Space
  1

  0
ENDBLK
  5
21
330
1F
100
AcDbEntity
  8
0
100
AcDbBlockEnd
  0
BLOCK
  5
1C
330
1B
100
AcDbEntity
 67
     1
  8
0
100
AcDbBlockBegin
  2
*Paper_Space
 70
     0
 10
0.0
 20
0.0
 30
0.0
  3
*Paper_Space
  1

  0
ENDBLK
  5
1D
330
1B
100
AcDbEntity
 67
     1
  8
0
100
AcDbBlockEnd
  0
BLOCK
  5
24
330
23
100
AcDbEntity
  8
0
100
AcDbBlockBegin
  2
*Paper_Space0
 70
     0
 10
0.0
 20
0.0
 30
0.0
  3
*Paper_Space0
  1

  0
ENDBLK
  5
25
330
23
100
AcDbEntity
  8
0
100
AcDbBlockEnd
  0
BLOCK
  5
77
330
76
100
AcDbEntity
  8
0
100
AcDbBlockBegin
  2
Block6
 70
     0
 10
0.0
 20
0.0
 30
0.0
  3
Block6
  1

  0
LINE
  5
79
330
76
100
AcDbEntity
  8
FORMAT
100
AcDbLine
 10
253.5616893058
 20
55.3714964458
 30
0.0
 11
250.6928867464
 21
53.8486167051
 31
0.0
  0
LINE
  5
7A
330
76
100
AcDbEntity
  8
FORMAT
100
AcDbLine
 10
250.6928867464
 20
53.8486167051
 30
0.0
 11
253.5616893058
 21
53.8486167051
 31
0.0
  0
ENDBLK
  5
78
330
76
100
AcDbEntity
  8
0
100
AcDbBlockEnd
  0
BLOCK
  5
7C
330
7B
100
AcDbEntity
  8
0
100
AcDbBlockBegin
  2
Block4
 70
     0
 10
0.0
 20
0.0
 30
0.0
  3
Block4
  1

  0
LINE
  5
7E
330
7B
100
AcDbEntity
  8
FORMAT
100
AcDbLine
 10
250.0093082872
 20
64.7263291389
 30
0.0
 11
290.0093082872
 21
64.7263291389
 31
0.0
  0
ENDBLK
  5
7D
330
7B
100
AcDbEntity
  8
0
100
AcDbBlockEnd
  0
BLOCK
  5
80
330
7F
100
AcDbEntity
  8
0
100
AcDbBlockBegin
  2
Block5
 70
     0
 10
0.0
 20
0.0
 30
0.0
  3
Block5
  1

  0
LINE
  5
82
330
7F
100
AcDbEntity
  8
FORMAT
100
AcDbLine
 10
251.0883122991
 20
64.4632252413
 30
0.0
 11
250.3611798328
 21
64.9733337839
 31
0.0
  0
LINE
  5
83
330
7F
100
AcDbEntity
  8
FORMAT
100
AcDbLine
 10
250.3611798328
 20
64.9733337839
 30
0.0
 11
251.0883122991
 21
65.4834423266
 31
0.0
  0
LINE
  5
84
330
7F
100
AcDbEntity
  8
FORMAT
100
AcDbLine
 10
250.3611798328
 20
65.6106440044
 30
0.0
 11
250.3611798328
 21
64.3360235634
 31
0.0
  0
LINE
  5
85
330
7F
100
AcDbEntity
  8
FORMAT
100
AcDbLine
 10
251.0883122991
 20
65.4834423266
 30
0.0
 11
251.0883122991
 21
64.4632252413
 31
0.0
  0
LINE
  5
86
330
7F
100
AcDbEntity
  8
FORMAT
  6
Continuous
 62
     7
370
    18
100
AcDbLine
 10
254.0738326611
 20
65.4834423266
 30
0.0
 11
254.0738326611
 21
64.4632252413
 31
0.0
  0
LINE
  5
87
330
7F
100
AcDbEntity
  8
FORMAT
100
AcDbLine
 10
251.0883122991
 20
64.9733337839
 30
0.0
 11
254.0738326611
 21
64.9733337839
 31
0.0
  0
LINE
  5
88
330
7F
100
AcDbEntity
  8
FORMAT
100
AcDbLine
 10
254.0738326611
 20
64.9733337839
 30
0.0
 11
254.0738326611
 21
64.4632252413
 31
0.0
  0
LINE
  5
89
330
7F
100
AcDbEntity
  8
FORMAT
  6
Continuous
 62
     7
370
    18
100
AcDbLine
 10
254.0738326611
 20
64.4632252413
 30
0.0
 11
254.8009651274
 21
64.9733337839
 31
0.0
  0
LINE
  5
8A
330
7F
100
AcDbEntity
  8
FORMAT
  6
Continuous
 62
     7
370
    18
100
AcDbLine
 10
254.8009651274
 20
64.9733337839
 30
0.0
 11
254.0738326611
 21
65.4834423266
 31
0.0
  0
LINE
  5
8B
330
7F
100
AcDbEntity
  8
FORMAT
100
AcDbLine
 10
254.0738326611
 20
65.4834423266
 30
0.0
 11
254.0738326611
 21
64.9733337839
 31
0.0
  0
LINE
  5
8C
330
7F
100
AcDbEntity
  8
FORMAT
100
AcDbLine
 10
254.8009651274
 20
65.6106440044
 30
0.0
 11
254.8009651274
 21
64.3360235634
 31
0.0
  0
ENDBLK
  5
81
330
7F
100
AcDbEntity
  8
0
100
AcDbBlockEnd
  0
BLOCK
  5
8E
330
8D
100
AcDbEntity
  8
0
100
AcDbBlockBegin
  2
Block2
 70
     0
 10
0.0
 20
0.0
 30
0.0
  3
Block2
  1

  0
CIRCLE
  5
90
330
8D
100
AcDbEntity
  8
FORMAT
100
AcDbCircle
 10
48.741006851
 20
68.2700462855
 30
0.0
 40
7.000000000000013
  0
CIRCLE
  5
91
330
8D
100
AcDbEntity
  8
FORMAT
100
AcDbCircle
 10
48.741006851
 20
68.2700462855
 30
0.0
 40
3.32888862482043
  0
LINE
  5
92
330
8D
100
AcDbEntity
  8
FORMAT
100
AcDbLine
 10
60.4734604481
 20
71.6747664277
 30
0.0
 11
76.4734604481
 21
75.1747664277
 31
0.0
  0
LINE
  5
93
330
8D
100
AcDbEntity
  8
FORMAT
100
AcDbLine
 10
76.4734604481
 20
75.1747664277
 30
0.0
 11
76.4734604481
 21
61.3653261433
 31
0.0
  0
LINE
  5
94
330
8D
100
AcDbEntity
  8
FORMAT
100
AcDbLine
 10
76.4734604481
 20
61.3653261433
 30
0.0
 11
60.4734604481
 21
64.8653261433
 31
0.0
  0
LINE
  5
95
330
8D
100
AcDbEntity
  8
FORMAT
100
AcDbLine
 10
60.4734604481
 20
64.8653261433
 30
0.0
 11
60.4734604481
 21
71.6747664277
 31
0.0
  0
LINE
  5
96
330
8D
100
AcDbEntity
  8
FORMAT
  6
CENTERX2
100
AcDbLine
 10
76.4734604481
 20
68.2700462855
 30
0.0
 11
39.8388877958
 21
68.2700462855
 31
0.0
  0
LINE
  5
97
330
8D
100
AcDbEntity
  8
FORMAT
100
AcDbLine
 10
48.741006851
 20
76.8424572275
 30
0.0
 11
48.741006851
 21
59.6976353435
 31
0.0
  0
ENDBLK
  5
8F
330
8D
100
AcDbEntity
  8
0
100
AcDbBlockEnd
  0
BLOCK
  5
99
330
98
100
AcDbEntity
  8
0
100
AcDbBlockBegin
  2
Block3
 70
     0
 10
0.0
 20
0.0
 30
0.0
  3
Block3
  1

  0
ARC
  5
9B
330
98
100
AcDbEntity
  8
FORMAT
100
AcDbCircle
 10
253.5616893058
 20
61.9516976285
 30
0.0
 40
0.5251511718353873
100
AcDbArc
 50
349.3356822367
 51
90.0
  0
LINE
  5
9C
330
98
100
AcDbEntity
  8
FORMAT
100
AcDbLine
 10
250.6928867464
 20
62.4768488003
 30
0.0
 11
250.6928867464
 21
61.2321831396
 31
0.0
  0
LINE
  5
9D
330
98
100
AcDbEntity
  8
FORMAT
100
AcDbLine
 10
250.6928867464
 20
61.2321831396
 30
0.0
 11
251.7250485138
 21
61.2321831396
 31
0.0
  0
LINE
  5
9E
330
98
100
AcDbEntity
  8
FORMAT
100
AcDbLine
 10
251.7250485138
 20
61.2321831396
 30
0.0
 11
251.7250485138
 21
61.85451597
 31
0.0
  0
LINE
  5
9F
330
98
100
AcDbEntity
  8
FORMAT
100
AcDbLine
 10
251.7250485138
 20
61.85451597
 30
0.0
 11
251.2089676301
 21
62.4768488003
 31
0.0
  0
LINE
  5
A0
330
98
100
AcDbEntity
  8
FORMAT
100
AcDbLine
 10
251.2089676301
 20
62.4768488003
 30
0.0
 11
250.6928867464
 21
62.4768488003
 31
0.0
  0
LINE
  5
A1
330
98
100
AcDbEntity
  8
0
  6
Continuous
 62
     7
370
    18
100
AcDbLine
 10
253.0456084221
 20
61.2321831396
 30
0.0
 11
254.0777701895
 21
61.2321831396
 31
0.0
  0
LINE
  5
A2
330
98
100
AcDbEntity
  8
0
  6
Continuous
 62
     7
370
    18
100
AcDbLine
 10
254.0777701895
 20
61.2321831396
 30
0.0
 11
254.0777701895
 21
61.85451597
 31
0.0
  0
LINE
  5
A3
330
98
100
AcDbEntity
  8
0
  6
Continuous
 62
     7
370
    18
100
AcDbLine
 10
253.0456084221
 20
62.4768488003
 30
0.0
 11
253.0456084221
 21
61.2321831396
 31
0.0
  0
LINE
  5
A4
330
98
100
AcDbEntity
  8
0
  6
Continuous
 62
     7
370
    18
100
AcDbLine
 10
253.5616893058
 20
62.4768488003
 30
0.0
 11
253.0456084221
 21
62.4768488003
 31
0.0
  0
ENDBLK
  5
9A
330
98
100
AcDbEntity
  8
0
100
AcDbBlockEnd
  0
BLOCK
  5
A6
330
A5
100
AcDbEntity
  8
0
100
AcDbBlockBegin
  2
Block7
 70
     0
 10
0.0
 20
0.0
 30
0.0
  3
Block7
  1

  0
LINE
  5
A8
330
A5
100
AcDbEntity
  8
FORMAT
100
AcDbLine
 10
221.8284763776
 20
80.2705155621
 30
0.0
 11
222.3963943455
 21
79.286852787
 31
0.0
  0
LINE
  5
A9
330
A5
100
AcDbEntity
  8
FORMAT
100
AcDbLine
 10
222.3963943455
 20
79.286852787
 30
0.0
 11
222.9643123135
 21
80.2705155621
 31
0.0
  0
LINE
  5
AA
330
A5
100
AcDbEntity
  8
FORMAT
100
AcDbLine
 10
221.8284763776
 20
80.2705155621
 30
0.0
 11
222.9643123135
 21
80.2705155621
 31
0.0
  0
LINE
  5
AB
330
A5
100
AcDbEntity
  8
FORMAT
100
AcDbLine
 10
222.9643123135
 20
80.2705155621
 30
0.0
 11
223.3725273771
 21
80.9775647926
 31
0.0
  0
LINE
  5
AC
330
A5
100
AcDbEntity
  8
FORMAT
100
AcDbLine
 10
223.3725273771
 20
80.9775647926
 30
0.0
 11
224.1023154201
 21
80.9775647926
 31
0.0
  0
ENDBLK
  5
A7
330
A5
100
AcDbEntity
  8
0
100
AcDbBlockEnd
  0
ENDSEC
  0
SECTION
  2
ENTITIES
  0
SPLINE
  5
AD
330
1F
100
AcDbEntity
  8
0
  6
Continuous
 62
     7
370
    25
100
AcDbSpline
210
0.0
220
0.0
230
1.0
 70
     8
 71
     3
 72
     9
 73
     5
 74
     0
 42
0.00000001
 43
0.00000001
 40
0.0
 40
0.0
 40
0.0
 40
0.0
 40
0.6378957501939142
 40
1.0
 40
1.0
 40
1.0
 40
1.0
 10
139.9046027142071
 20
-51.35494055208266
 30
0.0
 10
139.9067744132492
 20
-51.26242524678378
 30
0.0
 10
139.9101788865372
 20
-51.11739323289934
 30
0.0
 10
139.9101320418758
 20
-50.99661604013596
 30
0.0
 10
139.9101150792249
 20
-50.95288210535669
 30
0.0
  0
SPLINE
  5
AE
330
1F
100
AcDbEntity
  8
0
  6
Continuous
 62
     7
370
    25
100
AcDbSpline
210
0.0
220
0.0
230
1.0
 70
     8
 71
     3
 72
     9
 73
     5
 74
     0
 42
0.00000001
 43
0.00000001
 40
0.0
 40
0.0
 40
0.0
 40
0.0
 40
0.390339627407098
 40
1.0
 40
1.0
 40
1.0
 40
1.0
 10
116.4564149153569
 20
-51.0697789100651
 30
0.0
 10
116.4569945966762
 20
-51.12140804718531
 30
0.0
 10
116.4584796657767
 20
-51.25367526653766
 30
0.0
 10
116.4644682864976
 20
-51.41506108646283
 30
0.0
 10
116.4681193112377
 20
-51.51345162556971
 30
0.0
  0
LINE
  5
AF
330
1F
100
AcDbEntity
  8
0
  6
Continuous
 62
     7
370
    25
100
AcDbLine
 10
205.9997673627
 20
158.2924288389
 30
0.0
 11
205.5681135548
 21
157.9126523594
 31
0.0
  0
ARC
  5
B0
330
1F
100
AcDbEntity
  8
0
  6
Continuous
 62
     7
370
    25
100
AcDbCircle
 10
197.510878967
 20
153.9170380651
 30
0.0
 40
10.62999999999998
100
AcDbArc
 50
339.5062991307
 51
345.842348556
  0
ARC
  5
B1
330
1F
100
AcDbEntity
  8
0
  6
Continuous
 62
     7
370
    25
100
AcDbCircle
 10
197.510878967
 20
153.9170380651
 30
0.0
 40
10.62999999999997
100
AcDbArc
 50
14.157651444
 51
20.4937008693
  0
LINE
  5
B2
330
1F
100
AcDbEntity
  8
0
  6
Continuous
 62
     7
370
    25
100
AcDbLine
 10
200.7061575119
 20
144.9413800209
 30
0.0
 11
205.076839758
 21
145.0176705633
 31
0.0
  0
LINE
  5
B3
330
1F
100
AcDbEntity
  8
0
  6
Continuous
 62
     7
370
    25
100
AcDbLine
 10
205.076839758
 20
162.816405567
 30
0.0
 11
199.7727372981
 21
162.9089890198
 31
0.0
  0
ARC
  5
B4
330
1F
100
AcDbEntity
  8
0
  6
Continuous
 62
     7
370
    25
100
AcDbCircle
 10
205.0681135548
 20
145.5175944109
 30
0.0
 40
0.5000000000000043
100
AcDbArc
 50
271.0
 51
0.0
  0
ARC
  5
B5
330
1F
100
AcDbEntity
  8
0
  6
Continuous
 62
     7
370
    25
100
AcDbCircle
 10
205.0681135548
 20
162.3164817194
 30
0.0
 40
0.5000000000000043
100
AcDbArc
 50
0.0
 51
89.0
  0
SPLINE
  5
B6
330
1F
100
AcDbEntity
  8
0
  6
Continuous
 62
     7
370
    25
100
AcDbSpline
210
0.0
220
0.0
230
1.0
 70
     8
 71
     3
 72
    13
 73
     9
 74
     0
 42
0.00000001
 43
0.00000001
 40
0.0
 40
0.0
 40
0.0
 40
0.0
 40
0.0026054330853521
 40
0.3175321839396145
 40
0.5783864261796672
 40
0.7967455240076585
 40
0.980702904716376
 40
1.0
 40
1.0
 40
1.0
 40
1.0
 10
198.5141442805524
 20
163.2590826246159
 30
0.0
 10
198.5118562693954
 20
163.2604300174165
 30
0.0
 10
198.2330092770659
 20
163.4246409430489
 30
0.0
 10
197.8207989925768
 20
163.6912885436516
 30
0.0
 10
197.3353063122846
 20
164.0368025498347
 30
0.0
 10
197.0908906240946
 20
164.2376191627053
 30
0.0
 10
197.0017334727868
 20
164.3465450292942
 30
0.0
 10
197.0193788511612
 20
164.3200539944223
 30
0.0
 10
197.0210541133966
 20
164.3175389205397
 30
0.0
  0
ARC
  5
B7
330
1F
100
AcDbEntity
  8
0
  6
Continuous
 62
     7
370
    25
100
AcDbCircle
 10
199.8181135548
 20
165.5085930272
 30
0.0
 40
2.60000000000003
100
AcDbArc
 50
239.4420525213
 51
269.0
  0
SPLINE
  5
B8
330
1F
100
AcDbEntity
  8
0
  6
Continuous
 62
     7
370
    25
100
AcDbSpline
210
0.0
220
0.0
230
1.0
 70
     8
 71
     3
 72
    13
 73
     9
 74
     0
 42
0.00000001
 43
0.00000001
 40
0.0
 40
0.0
 40
0.0
 40
0.0
 40
0.0843527944213379
 40
0.2359216005579866
 40
0.4182972693357178
 40
0.6344847987642006
 40
0.8833001365557667
 40
1.0
 40
1.0
 40
1.0
 40
1.0
 10
196.992223712723
 20
143.1790644775922
 30
0.0
 10
196.9921944975123
 20
143.1791841377221
 30
0.0
 10
196.9921127871277
 20
143.1795188084297
 30
0.0
 10
197.1378352030174
 20
143.3163894268459
 30
0.0
 10
197.4413529319763
 20
143.5441424354799
 30
0.0
 10
197.9581005630579
 20
143.8786574243443
 30
0.0
 10
198.5188088485257
 20
144.2073068248597
 30
0.0
 10
198.9382810754633
 20
144.4333100777233
 30
0.0
 10
199.0722080679297
 20
144.5054672647787
 30
0.0
  0
ARC
  5
B9
330
1F
100
AcDbEntity
  8
0
  6
Continuous
 62
     7
370
    25
100
AcDbCircle
 10
200.7681135548
 20
141.3919207031
 30
0.0
 40
3.549999999999975
100
AcDbArc
 50
91.0
 51
118.1920130769
  0
ARC
  5
BA
330
1F
100
AcDbEntity
  8
0
  6
Continuous
 62
     7
370
    25
100
AcDbCircle
 10
191.2181135548
 20
165.3889276799
 30
0.0
 40
0.5000000000000347
100
AcDbArc
 50
89.0
 51
180.0
  0
ARC
  5
BB
330
1F
100
AcDbEntity
  8
0
  6
Continuous
 62
     7
370
    25
100
AcDbCircle
 10
191.2181135548
 20
142.4451484504
 30
0.0
 40
0.5
100
AcDbArc
 50
180.0
 51
271.0
  0
LINE
  5
BC
330
1F
100
AcDbEntity
  8
0
  6
Continuous
 62
     7
370
    25
100
AcDbLine
 10
191.226839758
 20
141.9452246028
 30
0.0
 11
195.2530183677
 21
142.0155018119
 31
0.0
  0
LINE
  5
BD
330
1F
100
AcDbEntity
  8
0
  6
Continuous
 62
     7
370
    25
100
AcDbLine
 10
195.2530183677
 20
165.8185743184
 30
0.0
 11
191.226839758
 21
165.8888515275
 31
0.0
  0
ARC
  5
BE
330
1F
100
AcDbEntity
  8
0
  6
Continuous
 62
     7
370
    25
100
AcDbCircle
 10
195.2181135548
 20
163.8188789281
 30
0.0
 40
1.999999999999987
100
AcDbArc
 50
15.8194711059
 51
89.0
  0
SPLINE
  5
BF
330
1F
100
AcDbEntity
  8
0
  6
Continuous
 62
     7
370
    25
100
AcDbSpline
210
0.0
220
0.0
230
1.0
 70
     8
 71
     3
 72
     9
 73
     5
 74
     0
 42
0.00000001
 43
0.00000001
 40
0.0
 40
0.0
 40
0.0
 40
0.0
 40
0.3636755817067984
 40
1.0
 40
1.0
 40
1.0
 40
1.0
 10
205.5681135547903
 20
149.1973987152672
 30
0.0
 10
205.5742160728033
 20
149.2201031767478
 30
0.0
 10
205.5909961876089
 20
149.2825337127053
 30
0.0
 10
205.6182531208638
 20
149.3611902447956
 30
0.0
 10
205.6355973730617
 20
149.4112413168228
 30
0.0
  0
SPLINE
  5
C0
330
1F
100
AcDbEntity
  8
0
  6
Continuous
 62
     7
370
    25
100
AcDbSpline
210
0.0
220
0.0
230
1.0
 70
     8
 71
     3
 72
     9
 73
     5
 74
     0
 42
0.00000001
 43
0.00000001
 40
0.0
 40
0.0
 40
0.0
 40
0.0
 40
0.1580914975462187
 40
1.0
 40
1.0
 40
1.0
 40
1.0
 10
205.7355860953233
 20
158.0599975945871
 30
0.0
 10
205.7252989755988
 20
158.0931751560972
 30
0.0
 10
205.6602283052333
 20
158.3030381912702
 30
0.0
 10
205.6102178132244
 20
158.4877873642268
 30
0.0
 10
205.5681135547903
 20
158.6433292637602
 30
0.0
  0
ARC
  5
C1
330
1F
100
AcDbEntity
  8
0
  6
Continuous
 62
     7
370
    25
100
AcDbCircle
 10
195.2181135548
 20
144.0151972022
 30
0.0
 40
2.000000000000026
100
AcDbArc
 50
271.0
 51
335.4714415476
  0
LINE
  5
C2
330
1F
100
AcDbEntity
  8
0
  6
Continuous
 62
     7
370
    25
100
AcDbLine
 10
205.5681135548
 20
146.7670380651
 30
0.0
 11
207.1731185443
 21
147.991910294
 31
0.0
  0
LINE
  5
C3
330
1F
100
AcDbEntity
  8
0
  6
Continuous
 62
     7
370
    25
100
AcDbLine
 10
207.1731185443
 20
159.8421658363
 30
0.0
 11
205.5681135548
 21
161.0670380651
 31
0.0
  0
ARC
  5
C4
330
1F
100
AcDbEntity
  8
0
  6
Continuous
 62
     7
370
    25
100
AcDbCircle
 10
206.7181135548
 20
148.5881237285
 30
0.0
 40
0.7500000000000014
100
AcDbArc
 50
307.3493490446
 51
0.0
  0
ARC
  5
C5
330
1F
100
AcDbEntity
  8
0
  6
Continuous
 62
     7
370
    25
100
AcDbCircle
 10
206.7181135548
 20
159.2459524018
 30
0.0
 40
0.7500000000000014
100
AcDbArc
 50
0.0
 51
52.6506509554
  0
LINE
  5
C6
330
1F
100
AcDbEntity
  8
0
  6
Continuous
 62
     7
370
    25
100
AcDbLine
 10
181.5986013597
 20
144.4170380651
 30
0.0
 11
182.8181135548
 21
145.6670380651
 31
0.0
  0
LINE
  5
C7
330
1F
100
AcDbEntity
  8
0
  6
Continuous
 62
     7
370
    25
100
AcDbLine
 10
182.8181135548
 20
162.1670380651
 30
0.0
 11
181.5986013597
 21
163.4170380651
 31
0.0
  0
LINE
  5
C8
330
1F
100
AcDbEntity
  8
0
  6
Continuous
 62
     7
370
    25
100
AcDbLine
 10
176.0231734806
 20
163.3170380651
 30
0.0
 11
175.5569681986
 21
163.3170380651
 31
0.0
  0
SPLINE
  5
C9
330
1F
100
AcDbEntity
  8
0
  6
Continuous
 62
     7
370
    25
100
AcDbSpline
210
0.0
220
0.0
230
1.0
 70
     8
 71
     3
 72
     9
 73
     5
 74
     0
 42
0.00000001
 43
0.00000001
 40
0.0
 40
0.0
 40
0.0
 40
0.0
 40
0.2308149029361558
 40
1.0
 40
1.0
 40
1.0
 40
1.0
 10
175.3681135547903
 20
144.7933528805555
 30
0.0
 10
175.3901524952217
 20
144.8314983137674
 30
0.0
 10
175.4856356730889
 20
144.9967624831374
 30
0.0
 10
175.5811426696935
 20
145.162005810399
 30
0.0
 10
175.6546052281471
 20
145.2891085151178
 30
0.0
  0
SPLINE
  5
CA
330
1F
100
AcDbEntity
  8
0
  6
Continuous
 62
     7
370
    25
100
AcDbSpline
210
0.0
220
0.0
230
1.0
 70
     8
 71
     3
 72
     9
 73
     5
 74
     0
 42
0.00000001
 43
0.00000001
 40
0.0
 40
0.0
 40
0.0
 40
0.0
 40
0.4982449658294387
 40
1.0
 40
1.0
 40
1.0
 40
1.0
 10
176.3601596673024
 20
162.5449695644569
 30
0.0
 10
176.2867798240034
 20
162.6719164535606
 30
0.0
 10
176.139503186342
 20
162.9267045554181
 30
0.0
 10
175.9922859882128
 20
163.1815536243733
 30
0.0
 10
175.918419017935
 20
163.3094254276752
 30
0.0
  0
SPLINE
  5
CB
330
1F
100
AcDbEntity
  8
0
  6
Continuous
 62
     7
370
    25
100
AcDbSpline
210
0.0
220
0.0
230
1.0
 70
     8
 71
     3
 72
     9
 73
     5
 74
     0
 42
0.00000001
 43
0.00000001
 40
0.0
 40
0.0
 40
0.0
 40
0.0
 40
0.6441820525844191
 40
0.9999999999999999
 40
0.9999999999999999
 40
0.9999999999999999
 40
0.9999999999999999
 10
175.8121658270786
 20
145.2891288074982
 30
0.0
 10
175.8859584573495
 20
145.1614416279397
 30
0.0
 10
176.0005109040916
 20
144.9632256437373
 30
0.0
 10
176.1150478745156
 20
144.7649940538988
 30
0.0
 10
176.1558021842351
 20
144.6944596964895
 30
0.0
  0
LINE
  5
CC
330
1F
100
AcDbEntity
  8
0
  6
Continuous
 62
     7
370
    25
100
AcDbLine
 10
175.5483609225
 20
163.3094206548
 30
0.0
 11
175.3681135548
 21
162.99747052
 31
0.0
  0
LINE
  5
CD
330
1F
100
AcDbEntity
  8
0
  6
Continuous
 62
     7
370
    25
100
AcDbLine
 10
176.1889664505
 20
144.6878909608
 30
0.0
 11
176.5181135548
 21
145.0170380651
 31
0.0
  0
SPLINE
  5
CE
330
1F
100
AcDbEntity
  8
0
  6
Continuous
 62
     7
370
    25
100
AcDbSpline
210
0.0
220
0.0
230
1.0
 70
     8
 71
     3
 72
     9
 73
     5
 74
     0
 42
0.00000001
 43
0.00000001
 40
0.0
 40
0.0
 40
0.0
 40
0.0
 40
0.5156973194565428
 40
1.0
 40
1.0
 40
1.0
 40
1.0
 10
175.6450465655693
 20
145.280826514232
 30
0.0
 10
175.6746103401364
 20
145.2808308204674
 30
0.0
 10
175.7319381047992
 20
145.2808391707832
 30
0.0
 10
175.7892210911637
 20
145.2808309361079
 30
0.0
 10
175.8169633950096
 20
145.2808269480326
 30
0.0
  0
SPLINE
  5
CF
330
1F
100
AcDbEntity
  8
0
  6
Continuous
 62
     7
370
    25
100
AcDbSpline
210
0.0
220
0.0
230
1.0
 70
     8
 71
     3
 72
     9
 73
     5
 74
     0
 42
0.00000001
 43
0.00000001
 40
0.0
 40
0.0
 40
0.0
 40
0.0
 40
0.5100779247870971
 40
1.0
 40
1.0
 40
1.0
 40
1.0
 10
176.5269918214371
 20
162.5532496392138
 30
0.0
 10
176.4978485920441
 20
162.5532347392297
 30
0.0
 10
176.440713734845
 20
162.553205528038
 30
0.0
 10
176.3834363664777
 20
162.5532340655556
 30
0.0
 10
176.3553749193045
 20
162.5532480467153
 30
0.0
  0
LINE
  5
D0
330
1F
100
AcDbEntity
  8
0
  6
Continuous
 62
     7
370
    25
100
AcDbLine
 10
176.5181135548
 20
145.7920380651
 30
0.0
 11
178.0181135548
 21
145.7920380651
 31
0.0
  0
LINE
  5
D1
330
1F
100
AcDbEntity
  8
0
  6
Continuous
 62
     7
370
    25
100
AcDbLine
 10
178.0181135548
 20
162.0420380651
 30
0.0
 11
176.5181135548
 21
162.0420380651
 31
0.0
  0
ARC
  5
D2
330
1F
100
AcDbEntity
  8
0
  6
Continuous
 62
     7
370
    25
100
AcDbCircle
 10
167.6181135548
 20
148.176049693
 30
0.0
 40
9.134011627907
100
AcDbArc
 50
270.0
 51
328.0464183091
  0
ARC
  5
D3
330
1F
100
AcDbEntity
  8
0
  6
Continuous
 62
     7
370
    25
100
AcDbCircle
 10
167.6181135548
 20
159.6580264372
 30
0.0
 40
9.134011627906968
100
AcDbArc
 50
31.9535816909
 51
90.0
  0
LINE
  5
D4
330
1F
100
AcDbEntity
  8
0
  6
Continuous
 62
     7
370
    25
100
AcDbLine
 10
158.9734904947
 20
168.6000024994
 30
0.0
 11
158.8678243662
 21
168.4170380651
 31
0.0
  0
SPLINE
  5
D5
330
1F
100
AcDbEntity
  8
0
  6
Continuous
 62
     7
370
    25
100
AcDbSpline
210
0.0
220
0.0
230
1.0
 70
     8
 71
     3
 72
     9
 73
     5
 74
     0
 42
0.00000001
 43
0.00000001
 40
0.0
 40
0.0
 40
0.0
 40
0.0
 40
0.4999972376865703
 40
1.0
 40
1.0
 40
1.0
 40
1.0
 10
159.2083421320034
 20
139.926937810988
 30
0.0
 10
159.2750582608448
 20
139.8114187308115
 30
0.0
 10
159.4084912556951
 20
139.5803792940519
 30
0.0
 10
159.5419220561063
 20
139.3493386629122
 30
0.0
 10
159.6086378248895
 20
139.2338177091358
 30
0.0
  0
LINE
  5
D6
330
1F
100
AcDbEntity
  8
0
  6
Continuous
 62
     7
370
    25
100
AcDbLine
 10
159.1369921497
 20
168.6044303009
 30
0.0
 11
158.9782421497
 21
168.6044303009
 31
0.0
  0
LINE
  5
D7
330
1F
100
AcDbEntity
  8
0
  6
Continuous
 62
     7
370
    25
100
AcDbLine
 10
190.7181135548
 20
159.5670380651
 30
0.0
 11
182.8181135548
 21
159.5670380651
 31
0.0
  0
LINE
  5
D8
330
1F
100
AcDbEntity
  8
0
  6
Continuous
 62
     7
370
    25
100
AcDbLine
 10
182.8181135548
 20
148.2670380651
 30
0.0
 11
190.7181135548
 21
148.2670380651
 31
0.0
  0
LINE
  5
D9
330
1F
100
AcDbEntity
  8
0
  6
Continuous
 62
     7
370
    25
100
AcDbLine
 10
140.9650647038
 20
137.7170380651
 30
0.0
 11
158.1681135548
 21
137.7170380651
 31
0.0
  0
LINE
  5
DA
330
1F
100
AcDbEntity
  8
0
  6
Continuous
 62
     7
370
    25
100
AcDbLine
 10
158.1681135548
 20
170.1170380651
 30
0.0
 11
140.9585553424
 21
170.1170380651
 31
0.0
  0
SPLINE
  5
DB
330
1F
100
AcDbEntity
  8
0
  6
Continuous
 62
     7
370
    25
100
AcDbSpline
210
0.0
220
0.0
230
1.0
 70
     8
 71
     3
 72
     9
 73
     5
 74
     0
 42
0.00000001
 43
0.00000001
 40
0.0
 40
0.0
 40
0.0
 40
0.0
 40
0.5015109964661149
 40
1.0
 40
1.0
 40
1.0
 40
1.0
 10
158.774323484763
 20
139.4224356972051
 30
0.0
 10
158.8521522631282
 20
139.5572597165481
 30
0.0
 10
159.0073408410729
 20
139.8260953358925
 30
0.0
 10
159.162698088927
 20
140.0949291358713
 30
0.0
 10
159.2401419686016
 20
140.2289398289389
 30
0.0
  0
LINE
  5
DC
330
1F
100
AcDbEntity
  8
0
  6
Continuous
 62
     7
370
    25
100
AcDbLine
 10
167.4934438627
 20
167.5994215948
 30
0.0
 11
167.3817738285
 21
167.7927610191
 31
0.0
  0
SPLINE
  5
DD
330
1F
100
AcDbEntity
  8
0
  6
Continuous
 62
     7
370
    25
100
AcDbSpline
210
0.0
220
0.0
230
1.0
 70
     8
 71
     3
 72
     9
 73
     5
 74
     0
 42
0.00000001
 43
0.00000001
 40
0.0
 40
0.0
 40
0.0
 40
0.0
 40
0.4576940011969439
 40
1.0
 40
1.0
 40
1.0
 40
1.0
 10
166.3137079006557
 20
139.4906252996824
 30
0.0
 10
166.3787659431392
 20
139.6032664362711
 30
0.0
 10
166.5209090394291
 20
139.8493722106403
 30
0.0
 10
166.6630557727629
 20
140.0954758043115
 30
0.0
 10
166.7401427989601
 20
140.2289392594864
 30
0.0
  0
SPLINE
  5
DE
330
1F
100
AcDbEntity
  8
0
  6
Continuous
 62
     7
370
    25
100
AcDbSpline
210
0.0
220
0.0
230
1.0
 70
     8
 71
     3
 72
     9
 73
     5
 74
     0
 42
0.00000001
 43
0.00000001
 40
0.0
 40
0.0
 40
0.0
 40
0.0
 40
0.5034644913918217
 40
1.0
 40
1.0
 40
1.0
 40
1.0
 10
166.8244811046699
 20
168.4117735795715
 30
0.0
 10
166.7462946834839
 20
168.2764020195456
 30
0.0
 10
166.5909978899207
 20
168.0075219647642
 30
0.0
 10
166.4356970796019
 20
167.7386440013742
 30
0.0
 10
166.3585847127629
 20
167.6051365450688
 30
0.0
  0
LINE
  5
DF
330
1F
100
AcDbEntity
  8
0
  6
Continuous
 62
     7
370
    25
100
AcDbLine
 10
167.1053595352
 20
140.2345234625
 30
0.0
 11
167.2637488387
 21
139.9602967527
 31
0.0
  0
LINE
  5
E0
330
1F
100
AcDbEntity
  8
0
  6
Continuous
 62
     7
370
    25
100
AcDbLine
 10
158.1681135548
 20
139.4170380651
 30
0.0
 11
158.7682473118
 21
139.4170380651
 31
0.0
  0
LINE
  5
E1
330
1F
100
AcDbEntity
  8
0
  6
Continuous
 62
     7
370
    25
100
AcDbLine
 10
159.5181170097
 20
168.4170380651
 30
0.0
 11
158.1681135548
 21
168.4170380651
 31
0.0
  0
LINE
  5
E2
330
1F
100
AcDbEntity
  8
0
  6
Continuous
 62
     7
370
    25
100
AcDbLine
 10
166.7367300162
 20
140.2289392595
 30
0.0
 11
167.1085848885
 21
140.2289392595
 31
0.0
  0
LINE
  5
E3
330
1F
100
AcDbEntity
  8
0
  6
Continuous
 62
     7
370
    25
100
AcDbLine
 10
159.2367149058
 20
140.2289398289
 30
0.0
 11
159.4081588141
 21
140.2289398289
 31
0.0
  0
SPLINE
  5
E4
330
1F
100
AcDbEntity
  8
0
  6
Continuous
 62
     7
370
    25
100
AcDbSpline
210
0.0
220
0.0
230
1.0
 70
     8
 71
     3
 72
    16
 73
    12
 74
     0
 42
0.00000001
 43
0.00000001
 40
0.0
 40
0.0
 40
0.0
 40
0.0
 40
0.0962609359999919
 40
0.1959421162028153
 40
0.2938006509495218
 40
0.3945959697367964
 40
0.4987223162605978
 40
0.6057407305130915
 40
0.7149663963104297
 40
0.8273380647830928
 40
1.0
 40
1.0
 40
1.0
 40
1.0
 10
139.5127635767606
 20
152.0264579392846
 30
0.0
 10
139.5185177695822
 20
152.6736446199233
 30
0.0
 10
139.5302306072645
 20
153.991013150213
 30
0.0
 10
139.10839363393
 20
155.924482615072
 30
0.0
 10
138.3775126532596
 20
157.7740928748949
 30
0.0
 10
137.3295949642998
 20
159.4905096299251
 30
0.0
 10
135.9759146773673
 20
161.0494804752441
 30
0.0
 10
134.3373663964308
 20
162.4010245985397
 30
0.0
 10
132.4440075584316
 20
163.4889915330955
 30
0.0
 10
129.9760272207695
 20
164.4464221682106
 30
0.0
 10
128.0628126955159
 20
164.6335983475796
 30
0.0
 10
126.9038640026622
 20
164.7469821764967
 30
0.0
  0
SPLINE
  5
E5
330
1F
100
AcDbEntity
  8
0
  6
Continuous
 62
     7
370
    25
100
AcDbSpline
210
0.0
220
0.0
230
1.0
 70
    24
 71
     3
 72
    13
 73
     9
 74
     0
 42
0.00000001
 43
0.00000001
 40
0.0
 40
0.0
 40
0.0
 40
0.0
 40
0.0088769305891353
 40
0.1568018335478662
 40
0.3676799660841049
 40
0.5784774725819178
 40
0.7892380841704596
 40
1.0
 40
1.0
 40
1.0
 40
1.0
 10
126.9038640026622
 20
164.7469821764966
 30
0.0
 10
126.9037801398761
 20
164.761118139698
 30
0.0
 10
126.902298790157
 20
165.0108153663105
 30
0.0
 10
126.8988142499439
 20
165.5981716040623
 30
0.0
 10
126.8937538938274
 20
166.4511483548808
 30
0.0
 10
126.8892826010062
 20
167.2048322275267
 30
0.0
 10
126.8862739116578
 20
167.7119787591745
 30
0.0
 10
126.8859245730225
 20
167.7708634947984
 30
0.0
 10
126.8857499031643
 20
167.8003059537086
 30
0.0
  0
SPLINE
  5
E6
330
1F
100
AcDbEntity
  8
0
  6
Continuous
 62
     7
370
    25
100
AcDbSpline
210
0.0
220
0.0
230
1.0
 70
     8
 71
     3
 72
    17
 73
    13
 74
     0
 42
0.00000001
 43
0.00000001
 40
0.0
 40
0.0
 40
0.0
 40
0.0
 40
0.084498659021284
 40
0.1707523992472066
 40
0.276647756516395
 40
0.3858653819358108
 40
0.4890481164110219
 40
0.5951098677618353
 40
0.694741004816034
 40
0.7970236474831212
 40
0.8970660656490501
 40
1.0
 40
1.0
 40
1.0
 40
1.0
 10
126.8857499031643
 20
167.8003059537086
 30
0.0
 10
127.5668710685621
 20
167.7575739157021
 30
0.0
 10
128.9432606410927
 20
167.6712222729797
 30
0.0
 10
131.1188930608952
 20
167.1455661311854
 30
0.0
 10
133.373118324914
 20
166.238143689505
 30
0.0
 10
135.5446884456937
 20
164.8810243469753
 30
0.0
 10
137.4511477076045
 20
163.1824435758824
 30
0.0
 10
139.0006700125231
 20
161.2499566633673
 30
0.0
 10
140.2146030043769
 20
159.0943132656118
 30
0.0
 10
141.046266107685
 20
156.8098496203278
 30
0.0
 10
141.5342443491963
 20
154.3851659334886
 30
0.0
 10
141.5201172139122
 20
152.7445469570564
 30
0.0
 10
141.5129530216413
 20
151.9125516831195
 30
0.0
  0
LWPOLYLINE
  5
E7
330
1F
100
AcDbEntity
  8
0
  6
Continuous
 62
     7
370
    25
100
AcDbPolyline
 90
        9
 70
   128
 43
0.0
 10
139.5127635768
 20
152.0264579393
 10
139.9345706995
 20
152.0025250502
 10
140.3228041979
 20
151.9804804743
 10
140.6682642844
 20
151.9608465916
 10
140.962764753
 20
151.944088657
 10
141.1993269638
 20
151.9306037755
 10
141.3723452129
 20
151.9207114919
 10
141.4777195678
 20
151.9146462191
 10
141.5129530216
 20
151.9125516831
  0
SPLINE
  5
E8
330
1F
100
AcDbEntity
  8
0
  6
Continuous
 62
     7
370
    25
100
AcDbSpline
210
0.0
220
0.0
230
1.0
 70
     8
 71
     3
 72
    16
 73
    12
 74
     0
 42
0.00000001
 43
0.00000001
 40
0.0
 40
0.0
 40
0.0
 40
0.0
 40
0.1726622413664959
 40
0.2818848601443016
 40
0.3942600249464304
 40
0.4984159758268113
 40
0.6054047847486057
 40
0.7033215749073307
 40
0.8040581654821958
 40
0.9003567674661673
 40
1.0
 40
1.0
 40
1.0
 40
1.0
 10
126.9038640026622
 20
164.7469821764966
 30
0.0
 10
125.7462947344242
 20
164.61996987431
 30
0.0
 10
123.8564707132474
 20
164.4126121755154
 30
0.0
 10
121.3983831596717
 20
163.4326444595191
 30
0.0
 10
119.5309688517108
 20
162.3360357306959
 30
0.0
 10
117.890091868531
 20
160.9557382194432
 30
0.0
 10
116.563233004104
 20
159.3979177801723
 30
0.0
 10
115.5224002238929
 20
157.6560677259355
 30
0.0
 10
114.8168501330903
 20
155.8201943031941
 30
0.0
 10
114.4086872210782
 20
153.8652226545117
 30
0.0
 10
114.4339372680551
 20
152.5477384041036
 30
0.0
 10
114.4467777944725
 20
151.8777518754679
 30
0.0
  0
LWPOLYLINE
  5
E9
330
1F
100
AcDbEntity
  8
0
  6
Continuous
 62
     7
370
    25
100
AcDbPolyline
 90
        9
 70
   128
 43
0.0
 10
112.4480806095
 20
151.7401218888
 10
112.4832867321
 20
151.7426343136
 10
112.5885817069
 20
151.7499493998
 10
112.761470408
 20
151.7618938054
 10
112.9978559728
 20
151.7781844893
 10
113.2921368832
 20
151.7984354188
 10
113.6373397021
 20
151.8221667171
 10
114.0252843199
 20
151.8488160348
 10
114.4467777945
 20
151.8777518755
  0
SPLINE
  5
EA
330
1F
100
AcDbEntity
  8
0
  6
Continuous
 62
     7
370
    25
100
AcDbSpline
210
0.0
220
0.0
230
1.0
 70
     8
 71
     3
 72
    17
 73
    13
 74
     0
 42
0.00000001
 43
0.00000001
 40
0.0
 40
0.0
 40
0.0
 40
0.0
 40
0.1000301760603106
 40
0.2029765358723073
 40
0.3025920435428721
 40
0.4048905291350464
 40
0.5080766894938471
 40
0.6141349813330067
 40
0.7200529301392607
 40
0.829247640427698
 40
0.9137512522894782
 40
1.0
 40
1.0
 40
1.0
 40
1.0
 10
112.4480806094574
 20
151.7401218888436
 30
0.0
 10
112.4305593640914
 20
152.5483501087101
 30
0.0
 10
112.3950060757875
 20
154.1883688582905
 30
0.0
 10
112.8449557690195
 20
156.5994343481857
 30
0.0
 10
113.6521856423488
 20
158.9167454360968
 30
0.0
 10
114.8252458569108
 20
161.0696656602117
 30
0.0
 10
116.3598693033158
 20
163.0400916023156
 30
0.0
 10
118.22322090748
 20
164.7482232239443
 30
0.0
 10
120.3932715443586
 20
166.1485417161589
 30
0.0
 10
122.6218874310238
 20
167.083412667978
 30
0.0
 10
124.8157470936568
 20
167.6442497109698
 30
0.0
 10
126.1910635963041
 20
167.7479339789302
 30
0.0
 10
126.8857499031643
 20
167.8003059537086
 30
0.0
  0
SPLINE
  5
EB
330
1F
100
AcDbEntity
  8
0
  6
Continuous
 62
     7
370
    25
100
AcDbSpline
210
0.0
220
0.0
230
1.0
 70
     8
 71
     3
 72
    16
 73
    12
 74
     0
 42
0.00000001
 43
0.00000001
 40
0.0
 40
0.0
 40
0.0
 40
0.0
 40
0.0986403448482993
 40
0.1973451184529462
 40
0.2984849550463966
 40
0.3997162815975178
 40
0.511217093363405
 40
0.6227668911731812
 40
0.7429953860048748
 40
0.8632240990171001
 40
1.0
 40
1.0
 40
1.0
 40
1.0
 10
118.312795054909
 20
-51.15790491038667
 30
0.0
 10
118.3391117572189
 20
-51.63165315847839
 30
0.0
 10
118.3917623510771
 20
-52.57945909204768
 30
0.0
 10
118.7929029926611
 20
-53.9604213240081
 30
0.0
 10
119.416790834774
 20
-55.24904177278213
 30
0.0
 10
120.2774418476579
 20
-56.45678485737464
 30
0.0
 10
121.3594274238399
 20
-57.53320110952491
 30
0.0
 10
122.6747028281297
 20
-58.47537551600655
 30
0.0
 10
124.1731687844576
 20
-59.20807586342706
 30
0.0
 10
125.8945156045609
 20
-59.75545807479078
 30
0.0
 10
127.1241971128725
 20
-59.87176945053822
 30
0.0
 10
127.7786242595561
 20
-59.93366948013347
 30
0.0
  0
LINE
  5
EC
330
1F
100
AcDbEntity
  8
0
  6
Continuous
 62
     7
370
    25
100
AcDbLine
 10
118.701600674
 20
-39.558292947
 30
0.0
 11
118.3127950549
 21
-51.1579049104
 31
0.0
  0
SPLINE
  5
ED
330
1F
100
AcDbEntity
  8
0
  6
Continuous
 62
     7
370
    25
100
AcDbSpline
210
0.0
220
0.0
230
1.0
 70
     8
 71
     3
 72
    17
 73
    13
 74
     0
 42
0.00000001
 43
0.00000001
 40
0.0
 40
0.0
 40
0.0
 40
0.0
 40
0.1240509471120261
 40
0.2481614352877119
 40
0.3419043525855877
 40
0.4356472693735385
 40
0.5294882255574205
 40
0.6233290621174096
 40
0.7174359629995231
 40
0.8115424928857026
 40
0.9057719634105866
 40
1.0
 40
1.0
 40
1.0
 40
1.0
 10
114.9470252121571
 20
146.1770689374656
 30
0.0
 10
115.6969101303222
 20
138.5208403862598
 30
0.0
 10
117.1970398909149
 20
123.204708503428
 30
0.0
 10
118.7241191120088
 20
102.0544544938339
 30
0.0
 10
119.7983445407949
 20
82.76111034043078
 30
0.0
 10
120.4915115712127
 20
65.32907185141092
 30
0.0
 10
120.9123315564271
 20
47.88316015617922
 30
0.0
 10
121.0546975031909
 20
30.41124786418374
 30
0.0
 10
120.9164472829822
 20
12.92399904599952
 30
0.0
 10
120.4848040060242
 20
-4.579825911407085
 30
0.0
 10
119.7824552568597
 20
-22.08050205653316
 30
0.0
 10
119.0618837074245
 20
-33.73239220246734
 30
0.0
 10
118.7016006740492
 20
-39.55829294698389
 30
0.0
  0
LINE
  5
EE
330
1F
100
AcDbEntity
  8
0
  6
Continuous
 62
     7
370
    25
100
AcDbLine
 10
114.4467777945
 20
151.8777518755
 30
0.0
 11
114.9470252122
 21
146.1770689375
 31
0.0
  0
LINE
  5
EF
330
1F
100
AcDbEntity
  8
0
  6
Continuous
 62
     7
370
    25
100
AcDbLine
 10
139.08018855
 20
146.3202409539
 30
0.0
 11
139.5127635768
 21
152.0264579393
 31
0.0
  0
SPLINE
  5
F0
330
1F
100
AcDbEntity
  8
0
  6
Continuous
 62
     7
370
    25
100
AcDbSpline
210
0.0
220
0.0
230
1.0
 70
     8
 71
     3
 72
    17
 73
    13
 74
     0
 42
0.00000001
 43
0.00000001
 40
0.0
 40
0.0
 40
0.0
 40
0.0
 40
0.1175912744314823
 40
0.2352544953891714
 40
0.3306092539664667
 40
0.4259643023163858
 40
0.521427984646408
 40
0.6168917583122016
 40
0.7126161308224634
 40
0.8083404621932818
 40
0.9041703404535814
 40
1.0
 40
1.0
 40
1.0
 40
1.0
 10
137.5295810439637
 20
-39.44659437367847
 30
0.0
 10
137.002657469012
 20
-32.18088756871355
 30
0.0
 10
135.9484879285146
 20
-17.64502854080872
 30
0.0
 10
135.017820045614
 20
2.829732556577799
 30
0.0
 10
134.4778648483573
 20
21.93993374512572
 30
0.0
 10
134.2761427463809
 20
39.68281283682355
 30
0.0
 10
134.3614759582709
 20
57.43433795207958
 30
0.0
 10
134.7337523359044
 20
75.20606132832977
 30
0.0
 10
135.3880686180039
 20
92.98662394320154
 30
0.0
 10
136.3293806207044
 20
110.77736251163
 30
0.0
 10
137.530001641703
 20
128.5598762260345
 30
0.0
 10
138.5634599736603
 20
140.4001238817874
 30
0.0
 10
139.0801885499691
 20
146.3202409538652
 30
0.0
  0
LINE
  5
F1
330
1F
100
AcDbEntity
  8
0
  6
Continuous
 62
     7
370
    25
100
AcDbLine
 10
138.0559857942
 20
-51.0407767748
 30
0.0
 11
137.529581044
 21
-39.4465943737
 31
0.0
  0
SPLINE
  5
F2
330
1F
100
AcDbEntity
  8
0
  6
Continuous
 62
     7
370
    25
100
AcDbSpline
210
0.0
220
0.0
230
1.0
 70
     8
 71
     3
 72
    16
 73
    12
 74
     0
 42
0.00000001
 43
0.00000001
 40
0.0
 40
0.0
 40
0.0
 40
0.0
 40
0.1367759009829186
 40
0.2570046139951412
 40
0.3772331088268356
 40
0.4887829066366051
 40
0.600283718402484
 40
0.7015150449536063
 40
0.8026548815470579
 40
0.9013596551517004
 40
1.0
 40
1.0
 40
1.0
 40
1.0
 10
128.694945130958
 20
-59.92823332967979
 30
0.0
 10
129.3485917850238
 20
-59.85857304250759
 30
0.0
 10
130.576806732322
 20
-59.72767998980723
 30
0.0
 10
132.2915378359728
 20
-59.15991295785643
 30
0.0
 10
133.7812050107295
 20
-58.40948525991592
 30
0.0
 10
135.0852091705904
 20
-57.45177175764913
 30
0.0
 10
136.1543471773257
 20
-56.36259378435309
 30
0.0
 10
137.0006080401338
 20
-55.14472430183918
 30
0.0
 10
137.6091628078806
 20
-53.84879228387411
 30
0.0
 10
137.9938904417751
 20
-52.46316782243089
 30
0.0
 10
138.035291848968
 20
-51.51480391747403
 30
0.0
 10
138.0559857942488
 20
-51.04077677477102
 30
0.0
  0
LINE
  5
F3
330
1F
100
AcDbEntity
  8
0
  6
Continuous
 62
     7
370
    25
100
AcDbLine
 10
128.694945131
 20
-59.9282333297
 30
0.0
 11
127.7786242596
 21
-59.9336694801
 31
0.0
  0
ARC
  5
F4
330
1F
100
AcDbEntity
  8
0
  6
Continuous
 62
     7
370
    25
100
AcDbCircle
 10
135.6694223992
 20
101.8395522361
 30
0.0
 40
44.61126533219006
100
AcDbArc
 50
83.0075449057
 51
85.6151569832
  0
SPLINE
  5
F5
330
1F
100
AcDbEntity
  8
0
  6
Continuous
 62
     7
370
    25
100
AcDbSpline
210
0.0
220
0.0
230
1.0
 70
     8
 71
     3
 72
    17
 73
    13
 74
     0
 42
0.00000001
 43
0.00000001
 40
0.0
 40
0.0
 40
0.0
 40
0.0
 40
0.0957332006181084
 40
0.1914666626186343
 40
0.2872937780871115
 40
0.383120999483488
 40
0.4785058697472737
 40
0.5738907506760396
 40
0.6693616536447673
 40
0.7648324358912427
 40
0.8823919961686068
 40
1.0
 40
1.0
 40
1.0
 40
1.0
 10
141.1003371895627
 20
146.1190075069353
 30
0.0
 10
140.6189649836999
 20
140.2179492495208
 30
0.0
 10
139.6562192576733
 20
128.4158166229055
 30
0.0
 10
138.5400535633057
 20
110.6818515576554
 30
0.0
 10
137.6646805128681
 20
92.92940403270563
 30
0.0
 10
137.0550480880152
 20
75.18779489409805
 30
0.0
 10
136.7038288767383
 20
57.46733264834819
 30
0.0
 10
136.6117547090468
 20
39.76657337177605
 30
0.0
 10
136.7763471043605
 20
22.06190822347994
 30
0.0
 10
137.2377886357208
 20
2.993082529659894
 30
0.0
 10
138.0386683654103
 20
-17.43364213822744
 30
0.0
 10
138.9391037400469
 20
-31.93719899512475
 30
0.0
 10
139.3894141703629
 20
-39.19047126019763
 30
0.0
  0
ARC
  5
F6
330
1F
100
AcDbEntity
  8
0
  6
Continuous
 62
     7
370
    25
100
AcDbCircle
 10
137.3190321937
 20
-31.0370648674
 30
0.0
 40
8.412164842422248
100
AcDbArc
 50
271.4342111251
 51
284.2478911157
  0
SPLINE
  5
F7
330
1F
100
AcDbEntity
  8
0
  6
Continuous
 62
     7
370
    25
100
AcDbSpline
210
0.0
220
0.0
230
1.0
 70
     8
 71
     3
 72
    17
 73
    13
 74
     0
 42
0.00000001
 43
0.00000001
 40
0.0
 40
0.0
 40
0.0
 40
0.0
 40
0.0941011890930002
 40
0.1882033052366398
 40
0.2824021014499765
 40
0.376601077254145
 40
0.47037202368152
 40
0.564142982866879
 40
0.6579955000176902
 40
0.7518479480208066
 40
0.8758982641338979
 40
1.0
 40
1.0
 40
1.0
 40
1.0
 10
116.838859621981
 20
-39.32425431715965
 30
0.0
 10
117.136246929834
 20
-33.51747520547692
 30
0.0
 10
117.7310244752914
 20
-21.90385977583874
 30
0.0
 10
118.3059787313182
 20
-4.455296814434837
 30
0.0
 10
118.6478960263117
 20
13.00714333371968
 30
0.0
 10
118.7335132823392
 20
30.4545335407535
 30
0.0
 10
118.5701176044775
 20
47.87596379906284
 30
0.0
 10
118.1568976647885
 20
65.27278977441208
 30
0.0
 10
117.4956198315536
 20
82.66784882403589
 30
0.0
 10
116.4809586851116
 20
101.9217213515559
 30
0.0
 10
115.0448893786892
 20
123.0266650856033
 30
0.0
 10
113.6346647658492
 20
138.3090868656198
 30
0.0
 10
112.9294063526355
 20
145.951881096058
 30
0.0
  0
ARC
  5
F8
330
1F
100
AcDbEntity
  8
0
  6
Continuous
 62
     7
370
    25
100
AcDbCircle
 10
118.8853035451
 20
101.739979043
 30
0.0
 40
44.61126533195532
100
AcDbArc
 50
95.0646590801
 51
97.6722711576
  0
ARC
  5
F9
330
1F
100
AcDbEntity
  8
0
  6
Continuous
 62
     7
370
    25
100
AcDbCircle
 10
118.812357737
 20
-31.1468572664
 30
0.0
 40
8.412164842421095
100
AcDbArc
 50
256.4319249476
 51
269.2456049382
  0
LINE
  5
FA
330
1F
100
AcDbEntity
  8
0
  6
Continuous
 62
     7
370
    25
100
AcDbLine
 10
112.9294063526
 20
145.9518810961
 30
0.0
 11
112.4480806095
 21
151.7401218888
 31
0.0
  0
LINE
  5
FB
330
1F
100
AcDbEntity
  8
0
  6
Continuous
 62
     7
370
    25
100
AcDbLine
 10
141.5129530216
 20
151.9125516831
 30
0.0
 11
141.1003371896
 21
146.1190075069
 31
0.0
  0
LINE
  5
FC
330
1F
100
AcDbEntity
  8
0
  6
Continuous
 62
     7
370
    25
100
AcDbLine
 10
116.8384383345
 20
-39.2532418391
 30
0.0
 11
116.838859622
 21
-39.3242543172
 31
0.0
  0
LINE
  5
FD
330
1F
100
AcDbEntity
  8
0
  6
Continuous
 62
     7
370
    25
100
AcDbLine
 10
139.3894141704
 20
-39.1904712602
 30
0.0
 11
139.3889928829
 21
-39.1194587822
 31
0.0
  0
ARC
  5
FE
330
1F
100
AcDbEntity
  8
0
  6
Continuous
 62
     7
370
    25
100
AcDbCircle
 10
117.9269886418
 20
-36.0321180294
 30
0.0
 40
15.13070637336073
100
AcDbArc
 50
264.7192924378
 51
271.4611000071
  0
ARC
  5
FF
330
1F
100
AcDbEntity
  8
0
  6
Continuous
 62
     7
370
    25
100
AcDbCircle
 10
164.3600170096
 20
-62.6016589875
 30
0.0
 40
36.67855590869992
100
AcDbArc
 50
175.8286344798
 51
180.4276423369
  0
SPLINE
  5
100
330
1F
100
AcDbEntity
  8
0
  6
Continuous
 62
     7
370
    25
100
AcDbSpline
210
0.0
220
0.0
230
1.0
 70
     8
 71
     3
 72
    16
 73
    12
 74
     0
 42
0.00000001
 43
0.00000001
 40
0.0
 40
0.0
 40
0.0
 40
0.0
 40
0.1289418392257831
 40
0.2439400911840273
 40
0.3589702137075975
 40
0.4693438180688102
 40
0.5797228950311681
 40
0.6843248890190603
 40
0.7889067987468488
 40
0.8944616416092006
 40
1.0
 40
1.0
 40
1.0
 40
1.0
 10
127.6824827373
 20
-62.87541663364256
 30
0.0
 10
126.9135270138418
 20
-62.79138162896562
 30
0.0
 10
125.4587693461741
 20
-62.63239904560365
 30
0.0
 10
123.4354821194967
 20
-61.89069962460973
 30
0.0
 10
121.6670622277866
 20
-60.89935106574045
 30
0.0
 10
120.1241532557974
 20
-59.63139997358758
 30
0.0
 10
118.8477624432678
 20
-58.17862120443208
 30
0.0
 10
117.8394388420576
 20
-56.56295275413368
 30
0.0
 10
117.1046695787737
 20
-54.83240668064292
 30
0.0
 10
116.6316611734025
 20
-52.99354734710953
 30
0.0
 10
116.5668383454471
 20
-51.73022010967919
 30
0.0
 10
116.5344294625079
 20
-51.09860581818483
 30
0.0
  0
ARC
  5
101
330
1F
100
AcDbEntity
  8
0
  6
Continuous
 62
     7
370
    25
100
AcDbCircle
 10
138.2623013677
 20
-35.9114770803
 30
0.0
 40
15.13070637345316
100
AcDbArc
 50
269.2187160562
 51
275.9605236255
  0
SPLINE
  5
102
330
1F
100
AcDbEntity
  8
0
  6
Continuous
 62
     7
370
    25
100
AcDbSpline
210
0.0
220
0.0
230
1.0
 70
     8
 71
     3
 72
    16
 73
    12
 74
     0
 42
0.00000001
 43
0.00000001
 40
0.0
 40
0.0
 40
0.0
 40
0.0
 40
0.1040419239026757
 40
0.2110962820894871
 40
0.31435083184191
 40
0.4202791470204356
 40
0.5291618722915314
 40
0.6410309509559923
 40
0.754236887603854
 40
0.8710636636122804
 40
1.0
 40
1.0
 40
1.0
 40
1.0
 10
139.8335226410215
 20
-50.96038199299104
 30
0.0
 10
139.8099463968157
 20
-51.58344306468425
 30
0.0
 10
139.762111280828
 20
-52.84760534480677
 30
0.0
 10
139.312070779546
 20
-54.68438364502869
 30
0.0
 10
138.5985730821895
 20
-56.43343415753203
 30
0.0
 10
137.6133695105932
 20
-58.05323903940586
 30
0.0
 10
136.3531118937953
 20
-59.53013846289239
 30
0.0
 10
134.8328329175123
 20
-60.8090332967322
 30
0.0
 10
133.0723364272226
 20
-61.83110606936322
 30
0.0
 10
131.0572166253017
 20
-62.597165010551
 30
0.0
 10
129.593763912332
 20
-62.77521904831439
 30
0.0
 10
128.8259829811448
 20
-62.86863272250017
 30
0.0
  0
ARC
  5
103
330
1F
100
AcDbEntity
  8
0
  6
Continuous
 62
     7
370
    25
100
AcDbCircle
 10
92.1477823232
 20
-63.0300641288
 30
0.0
 40
36.67855590943322
100
AcDbArc
 50
0.2521737265
 51
4.8511815836
  0
LINE
  5
104
330
1F
100
AcDbEntity
  8
0
  6
Continuous
 62
     7
370
    25
100
AcDbLine
 10
127.6824827373
 20
-62.8754166336
 30
0.0
 11
128.8259829811
 21
-62.8686327225
 31
0.0
  0
LINE
  5
105
330
1F
100
AcDbEntity
  8
0
  6
Continuous
 62
     7
370
    25
100
AcDbLine
 10
116.5344294625
 20
-51.0986058182
 30
0.0
 11
116.838859622
 21
-39.3242543172
 31
0.0
  0
LINE
  5
106
330
1F
100
AcDbEntity
  8
0
  6
Continuous
 62
     7
370
    25
100
AcDbLine
 10
139.3894141704
 20
-39.1904712602
 30
0.0
 11
139.833522641
 21
-50.960381993
 31
0.0
  0
SPLINE
  5
107
330
1F
100
AcDbEntity
  8
0
  6
Continuous
 62
     7
370
    25
100
AcDbSpline
210
0.0
220
0.0
230
1.0
 70
     8
 71
     3
 72
     9
 73
     5
 74
     0
 42
0.00000001
 43
0.00000001
 40
0.0
 40
0.0
 40
0.0
 40
0.0
 40
0.5173759112325192
 40
1.0
 40
1.0
 40
1.0
 40
1.0
 10
139.8335226410215
 20
-50.96038199299104
 30
0.0
 10
139.8322289350768
 20
-50.78047552005651
 30
0.0
 10
139.8297284206217
 20
-50.43274678157315
 30
0.0
 10
139.8182603235795
 20
-49.61042306056655
 30
0.0
 10
139.8127255436947
 20
-49.21354982404387
 30
0.0
  0
SPLINE
  5
108
330
1F
100
AcDbEntity
  8
0
  6
Continuous
 62
     7
370
    25
100
AcDbSpline
210
0.0
220
0.0
230
1.0
 70
     8
 71
     3
 72
     9
 73
     5
 74
     0
 42
0.00000001
 43
0.00000001
 40
0.0
 40
0.0
 40
0.0
 40
0.0
 40
0.5697240273065912
 40
1.0
 40
1.0
 40
1.0
 40
1.0
 10
139.8127255436947
 20
-49.21354982404387
 30
0.0
 10
139.8126981751785
 20
-49.21175246721197
 30
0.0
 10
139.8126501369796
 20
-49.20859768218315
 30
0.0
 10
139.8125926624286
 20
-49.20538848775478
 30
0.0
 10
139.8125679325103
 20
-49.20400764850051
 30
0.0
  0
SPLINE
  5
109
330
1F
100
AcDbEntity
  8
0
  6
Continuous
 62
     7
370
    25
100
AcDbSpline
210
0.0
220
0.0
230
1.0
 70
     8
 71
     3
 72
     9
 73
     5
 74
     0
 42
0.00000001
 43
0.00000001
 40
0.0
 40
0.0
 40
0.0
 40
0.0
 40
0.4302759715623594
 40
1.0
 40
1.0
 40
1.0
 40
1.0
 10
116.5345437531491
 20
-49.34210648011191
 30
0.0
 10
116.5345354082843
 20
-49.34348751557881
 30
0.0
 10
116.5345160140693
 20
-49.34669716603148
 30
0.0
 10
116.5345054099881
 20
-49.34985229895196
 30
0.0
 10
116.5344993685883
 20
-49.35164985398964
 30
0.0
  0
SPLINE
  5
10A
330
1F
100
AcDbEntity
  8
0
  6
Continuous
 62
     7
370
    25
100
AcDbSpline
210
0.0
220
0.0
230
1.0
 70
     8
 71
     3
 72
     9
 73
     5
 74
     0
 42
0.00000001
 43
0.00000001
 40
0.0
 40
0.0
 40
0.0
 40
0.0
 40
0.4826240887677678
 40
1.0
 40
1.0
 40
1.0
 40
1.0
 10
116.5344993685883
 20
-49.35164985398964
 30
0.0
 10
116.5336737801108
 20
-49.74856082393127
 30
0.0
 10
116.531963155845
 20
-50.57096272880717
 30
0.0
 10
116.5335885320254
 20
-50.91869665912187
 30
0.0
 10
116.5344294625079
 20
-51.09860581818483
 30
0.0
  0
LINE
  5
10B
330
1F
100
AcDbEntity
  8
0
  6
Continuous
 62
     7
370
    25
100
AcDbLine
 10
116.5344993737
 20
-49.3516507184
 30
0.0
 11
116.5344993686
 21
-49.351649854
 31
0.0
  0
SPLINE
  5
10C
330
1F
100
AcDbEntity
  8
0
  6
Continuous
 62
     7
370
    25
100
AcDbSpline
210
0.0
220
0.0
230
1.0
 70
     8
 71
     3
 72
    12
 73
     8
 74
     0
 42
0.00000001
 43
0.00000001
 40
0.0
 40
0.0
 40
0.0
 40
0.0
 40
0.2462814734948104
 40
0.4982835695466302
 40
0.7478612441217933
 40
0.9981631206918237
 40
1.0
 40
1.0
 40
1.0
 40
1.0
 10
116.8384383344968
 20
-39.25324183913239
 30
0.0
 10
116.7917475903783
 20
-40.16145624203486
 30
0.0
 10
116.6972815702024
 20
-41.99898103904902
 30
0.0
 10
116.6102627685308
 20
-44.54844425685199
 30
0.0
 10
116.554692125605
 20
-46.98337099636034
 30
0.0
 10
116.5381895273738
 20
-48.55561050201711
 30
0.0
 10
116.5345260627603
 20
-49.34589335586372
 30
0.0
 10
116.5344993737163
 20
-49.35165071837937
 30
0.0
  0
SPLINE
  5
10D
330
1F
100
AcDbEntity
  8
0
  6
Continuous
 62
     7
370
    25
100
AcDbSpline
210
0.0
220
0.0
230
1.0
 70
     8
 71
     3
 72
    12
 73
     8
 74
     0
 42
0.00000001
 43
0.00000001
 40
0.0
 40
0.0
 40
0.0
 40
0.0
 40
0.0018368910680116
 40
0.2515916397908307
 40
0.5017194507754592
 40
0.7486305910858633
 40
1.0
 40
1.0
 40
1.0
 40
1.0
 10
139.8127255488227
 20
-49.21355068843357
 30
0.0
 10
139.8126305519735
 20
-49.2077940476089
 30
0.0
 10
139.7996192125988
 20
-48.41932992473026
 30
0.0
 10
139.764485354559
 20
-46.8474211030601
 30
0.0
 10
139.6806289801913
 20
-44.42986452878435
 30
0.0
 10
139.563656702852
 20
-41.8813958221959
 30
0.0
 10
139.4475604059055
 20
-40.04557966521973
 30
0.0
 10
139.3889928828787
 20
-39.11945878217037
 30
0.0
  0
LINE
  5
10E
330
1F
100
AcDbEntity
  8
0
  6
Continuous
 62
     7
370
    25
100
AcDbLine
 10
139.8127255437
 20
-49.213549824
 30
0.0
 11
139.8127255488
 21
-49.2135506884
 31
0.0
  0
ARC
  5
10F
330
1F
100
AcDbEntity
  8
0
  6
Continuous
 62
     7
370
    25
100
AcDbCircle
 10
126.9681135548
 20
153.9170380651
 30
0.0
 40
14.22500000000003
100
AcDbArc
 50
22.6714833887
 51
157.9456188385
  0
LINE
  5
110
330
1F
100
AcDbEntity
  8
0
  6
Continuous
 62
     7
370
    25
100
AcDbLine
 10
134.3774284085
 20
166.0600475108
 30
0.0
 11
134.5037747696
 21
166.2671145725
 31
0.0
  0
SPLINE
  5
111
330
1F
100
AcDbEntity
  8
0
  6
Continuous
 62
     7
370
    25
100
AcDbSpline
210
0.0
220
0.0
230
1.0
 70
     8
 71
     3
 72
    11
 73
     7
 74
     0
 42
0.00000001
 43
0.00000001
 40
0.0
 40
0.0
 40
0.0
 40
0.0
 40
0.1446702591042531
 40
0.3907520209323641
 40
0.5962314811354595
 40
1.0
 40
1.0
 40
1.0
 40
1.0
 10
139.3677824021064
 20
161.370815104895
 30
0.0
 10
139.1613330912914
 20
161.6326963325124
 30
0.0
 10
138.6037168547509
 20
162.3400332763276
 30
0.0
 10
137.6854082843831
 20
163.3647898247198
 30
0.0
 10
136.3030542501028
 20
164.7736947006307
 30
0.0
 10
135.2209323009223
 20
165.6718666856795
 30
0.0
 10
134.5037747695668
 20
166.2671145724985
 30
0.0
  0
LINE
  5
112
330
1F
100
AcDbEntity
  8
0
  6
Continuous
 62
     7
370
    25
100
AcDbLine
 10
139.1598838525
 20
161.2458416516
 30
0.0
 11
139.3677824021
 21
161.3708151049
 31
0.0
  0
SPLINE
  5
113
330
1F
100
AcDbEntity
  8
0
  6
Continuous
 62
     7
370
    25
100
AcDbSpline
210
0.0
220
0.0
230
1.0
 70
     8
 71
     3
 72
    11
 73
     7
 74
     0
 42
0.00000001
 43
0.00000001
 40
0.0
 40
0.0
 40
0.0
 40
0.0
 40
0.1446702591042557
 40
0.3907520209323691
 40
0.5962314811354859
 40
0.9999999999999999
 40
0.9999999999999999
 40
0.9999999999999999
 40
0.9999999999999999
 10
114.3131188605604
 20
160.9285777655547
 30
0.0
 10
114.189547720077
 20
160.6188468039864
 30
0.0
 10
113.8557840759681
 20
159.7822685056722
 30
0.0
 10
113.4274731575498
 20
158.4746116810245
 30
0.0
 10
112.8985027606354
 20
156.5730055323585
 30
0.0
 10
112.6617239792059
 20
155.186774441851
 30
0.0
 10
112.5048029533493
 20
154.2680738577724
 30
0.0
  0
LINE
  5
114
330
1F
100
AcDbEntity
  8
0
  6
Continuous
 62
     7
370
    25
100
AcDbLine
 10
114.5252983207
 20
160.8110190668
 30
0.0
 11
114.3131188606
 21
160.9285777656
 31
0.0
  0
LINE
  5
115
330
1F
100
AcDbEntity
  8
0
  6
Continuous
 62
     7
370
    25
100
AcDbLine
 10
120.1566163233
 20
166.405197676
 30
0.0
 11
120.0404641681
 21
166.6181503651
 31
0.0
  0
SPLINE
  5
116
330
1F
100
AcDbEntity
  8
0
  6
Continuous
 62
     7
370
    25
100
AcDbSpline
210
0.0
220
0.0
230
1.0
 70
     8
 71
     3
 72
    11
 73
     7
 74
     0
 42
0.00000001
 43
0.00000001
 40
0.0
 40
0.0
 40
0.0
 40
0.0
 40
0.1446702591042545
 40
0.3907520209323576
 40
0.596231481135475
 40
1.0
 40
1.0
 40
1.0
 40
1.0
 10
126.7127877078764
 20
168.3823548053084
 30
0.0
 10
126.382767256578
 20
168.3345050713575
 30
0.0
 10
125.4913873759287
 20
168.2052637168584
 30
0.0
 10
124.1447678871426
 20
167.9223634406031
 30
0.0
 10
122.2334434559479
 20
167.4296621678478
 30
0.0
 10
120.9145427253378
 20
166.9416030623891
 30
0.0
 10
120.0404641681259
 20
166.6181503651295
 30
0.0
  0
LINE
  5
117
330
1F
100
AcDbEntity
  8
0
  6
Continuous
 62
     7
370
    25
100
AcDbLine
 10
126.7170686184
 20
168.1398226533
 30
0.0
 11
126.7127877079
 21
168.3823548053
 31
0.0
  0
SPLINE
  5
118
330
1F
100
AcDbEntity
  8
0
  6
Continuous
 62
     7
370
    25
100
AcDbSpline
210
0.0
220
0.0
230
1.0
 70
     8
 71
     3
 72
     9
 73
     5
 74
     0
 42
0.00000001
 43
0.00000001
 40
0.0
 40
0.0
 40
0.0
 40
0.0
 40
0.5863847898283628
 40
0.9999999999999999
 40
0.9999999999999999
 40
0.9999999999999999
 40
0.9999999999999999
 10
140.3785722760709
 20
159.9985857205354
 30
0.0
 10
140.1856891844958
 20
160.2707226677268
 30
0.0
 10
139.8567531429733
 20
160.7348154476078
 30
0.0
 10
139.5108522660242
 20
161.1847254745451
 30
0.0
 10
139.3677824021064
 20
161.370815104895
 30
0.0
  0
ARC
  5
119
330
1F
100
AcDbEntity
  8
0
  6
Continuous
 62
     7
370
    25
100
AcDbCircle
 10
126.9681135548
 20
153.9170380651
 30
0.0
 40
14.72499999999997
100
AcDbArc
 50
5.22692287
 51
24.3939539954
  0
SPLINE
  5
11A
330
1F
100
AcDbEntity
  8
0
  6
Continuous
 62
     7
370
    25
100
AcDbSpline
210
0.0
220
0.0
230
1.0
 70
     8
 71
     3
 72
     9
 73
     5
 74
     0
 42
0.00000001
 43
0.00000001
 40
0.0
 40
0.0
 40
0.0
 40
0.0
 40
0.5862283062032901
 40
1.0
 40
1.0
 40
1.0
 40
1.0
 10
141.4314241562313
 20
153.5660022725103
 30
0.0
 10
141.4765637088203
 20
153.8957046178359
 30
0.0
 10
141.5535636627824
 20
154.4581174898121
 30
0.0
 10
141.6089608254124
 20
155.0242455771844
 30
0.0
 10
141.6318826032253
 20
155.2584933548023
 30
0.0
  0
SPLINE
  5
11B
330
1F
100
AcDbEntity
  8
0
  6
Continuous
 62
     7
370
    25
100
AcDbSpline
210
0.0
220
0.0
230
1.0
 70
     8
 71
     3
 72
     9
 73
     5
 74
     0
 42
0.00000001
 43
0.00000001
 40
0.0
 40
0.0
 40
0.0
 40
0.0
 40
0.5862283062032932
 40
0.9999999999999999
 40
0.9999999999999999
 40
0.9999999999999999
 40
0.9999999999999999
 10
134.5037747695668
 20
166.2671145724985
 30
0.0
 10
134.2408139391221
 20
166.4710577444188
 30
0.0
 10
133.7922500815564
 20
166.8189480966283
 30
0.0
 10
133.3296673574111
 20
167.1499874904496
 30
0.0
 10
133.1382637201204
 20
167.2869622211445
 30
0.0
  0
SPLINE
  5
11C
330
1F
100
AcDbEntity
  8
0
  6
Continuous
 62
     7
370
    25
100
AcDbSpline
210
0.0
220
0.0
230
1.0
 70
     8
 71
     3
 72
     9
 73
     5
 74
     0
 42
0.00000001
 43
0.00000001
 40
0.0
 40
0.0
 40
0.0
 40
0.0
 40
0.5863847898283573
 40
1.0
 40
1.0
 40
1.0
 40
1.0
 10
128.4065681515336
 20
168.57160982187
 30
0.0
 10
128.07444909617
 20
168.5406366382011
 30
0.0
 10
127.5080649383188
 20
168.4878160599629
 30
0.0
 10
126.9454809870993
 20
168.4132121268023
 30
0.0
 10
126.7127877078764
 20
168.3823548053084
 30
0.0
  0
ARC
  5
11D
330
1F
100
AcDbEntity
  8
0
  6
Continuous
 62
     7
370
    25
100
AcDbCircle
 10
126.9681135548
 20
153.9170380651
 30
0.0
 40
14.725
100
AcDbArc
 50
65.22692287
 51
84.3939539954
  0
SPLINE
  5
11E
330
1F
100
AcDbEntity
  8
0
  6
Continuous
 62
     7
370
    25
100
AcDbSpline
210
0.0
220
0.0
230
1.0
 70
     8
 71
     3
 72
     9
 73
     5
 74
     0
 42
0.00000001
 43
0.00000001
 40
0.0
 40
0.0
 40
0.0
 40
0.0
 40
0.5862283062032877
 40
1.0
 40
1.0
 40
1.0
 40
1.0
 10
120.0404641681259
 20
166.6181503651295
 30
0.0
 10
119.7323637850922
 20
166.4923911917242
 30
0.0
 10
119.2067999735643
 20
166.2778686719575
 30
0.0
 10
118.688820086789
 20
166.0427799784066
 30
0.0
 10
118.4744946716854
 20
165.9455069314835
 30
0.0
  0
SPLINE
  5
11F
330
1F
100
AcDbEntity
  8
0
  6
Continuous
 62
     7
370
    25
100
AcDbSpline
210
0.0
220
0.0
230
1.0
 70
     8
 71
     3
 72
     9
 73
     5
 74
     0
 42
0.00000001
 43
0.00000001
 40
0.0
 40
0.0
 40
0.0
 40
0.0
 40
0.5863847898283618
 40
1.0
 40
1.0
 40
1.0
 40
1.0
 10
114.996109430253
 20
162.4900621664759
 30
0.0
 10
114.8568734664645
 20
162.1869520356156
 30
0.0
 10
114.6194253501359
 20
161.6700386774964
 30
0.0
 10
114.4027422758654
 20
161.1455247173985
 30
0.0
 10
114.3131188605604
 20
160.9285777655547
 30
0.0
  0
ARC
  5
120
330
1F
100
AcDbEntity
  8
0
  6
Continuous
 62
     7
370
    25
100
AcDbCircle
 10
126.9681135548
 20
153.9170380651
 30
0.0
 40
14.725
100
AcDbArc
 50
125.22692287
 51
144.3939539954
  0
SPLINE
  5
121
330
1F
100
AcDbEntity
  8
0
  6
Continuous
 62
     7
370
    25
100
AcDbSpline
210
0.0
220
0.0
230
1.0
 70
    24
 71
     3
 72
    12
 73
     8
 74
     0
 42
0.00000001
 43
0.00000001
 40
0.0
 40
0.0
 40
0.0
 40
0.0
 40
0.3013828945620926
 40
0.4108442493795682
 40
0.6247185195336459
 40
0.6986171054378637
 40
1.0
 40
1.0
 40
1.0
 40
1.0
 10
134.7244094465653
 20
166.3997440571917
 30
0.0
 10
135.2030390763135
 20
165.9179368359947
 30
0.0
 10
135.8555055384544
 20
165.2611386908113
 30
0.0
 10
136.8523937661009
 20
164.2576321860864
 30
0.0
 10
137.4874658467996
 20
163.6183439025291
 30
0.0
 10
138.4272752936156
 20
162.6722951210039
 30
0.0
 10
139.0232503362031
 20
162.0723634382894
 30
0.0
 10
139.50186890059
 20
161.5905673559157
 30
0.0
  0
ARC
  5
122
330
1F
100
AcDbEntity
  8
0
  6
Continuous
 62
     7
370
    25
100
AcDbCircle
 10
139.1213021948
 20
161.6719942195
 30
0.0
 40
0.3891803587967135
100
AcDbArc
 50
309.2963496227
 51
347.9229700718
  0
ARC
  5
123
330
1F
100
AcDbEntity
  8
0
  6
Continuous
 62
     7
370
    25
100
AcDbCircle
 10
134.8033163562
 20
166.0186468894
 30
0.0
 40
0.3891803587983684
100
AcDbArc
 50
101.6979067937
 51
140.3245272427
  0
ARC
  5
124
330
1F
100
AcDbEntity
  8
0
  6
Continuous
 62
     7
370
    25
100
AcDbCircle
 10
141.366015624
 20
153.1823578074
 30
0.0
 40
0.3891803588381124
100
AcDbArc
 50
41.6979067957
 51
80.3245272406
  0
LINE
  5
125
330
1F
100
AcDbEntity
  8
0
  6
Continuous
 62
     7
370
    25
100
AcDbLine
 10
141.6566019978
 20
153.4412417796
 30
0.0
 11
141.4889408459
 21
152.8237015852
 31
0.0
  0
SPLINE
  5
126
330
1F
100
AcDbEntity
  8
0
  6
Continuous
 62
     7
370
    25
100
AcDbSpline
210
0.0
220
0.0
230
1.0
 70
    24
 71
     3
 72
    12
 73
     8
 74
     0
 42
0.00000001
 43
0.00000001
 40
0.0
 40
0.0
 40
0.0
 40
0.0
 40
0.3013828945620994
 40
0.4108442493795573
 40
0.6247185195336494
 40
0.6986171054378604
 40
1.0
 40
1.0
 40
1.0
 40
1.0
 10
120.03592100359
 20
166.8755403427126
 30
0.0
 10
120.6924931117475
 20
167.04914215048
 30
0.0
 10
121.5875302217052
 20
167.2857956092196
 30
0.0
 10
122.9550364614832
 20
167.6473728867326
 30
0.0
 10
123.8262123957348
 20
167.8777173000734
 30
0.0
 10
125.1154193971629
 20
168.21859176497
 30
0.0
 10
125.9329629962227
 20
168.434755450515
 30
0.0
 10
126.5895199251955
 20
168.6083532448101
 30
0.0
  0
ARC
  5
127
330
1F
100
AcDbEntity
  8
0
  6
Continuous
 62
     7
370
    25
100
AcDbCircle
 10
126.3287188399
 20
168.3194862416
 30
0.0
 40
0.3891803587963351
100
AcDbArc
 50
9.2963496226
 51
47.9229700719
  0
ARC
  5
128
330
1F
100
AcDbEntity
  8
0
  6
Continuous
 62
     7
370
    25
100
AcDbCircle
 10
120.405414287
 20
166.7533271471
 30
0.0
 40
0.3891803587983008
100
AcDbArc
 50
161.6979067937
 51
200.3245272427
  0
SPLINE
  5
129
330
1F
100
AcDbEntity
  8
0
  6
Continuous
 62
     7
370
    25
100
AcDbSpline
210
0.0
220
0.0
230
1.0
 70
    24
 71
     3
 72
    12
 73
     8
 74
     0
 42
0.00000001
 43
0.00000001
 40
0.0
 40
0.0
 40
0.0
 40
0.0
 40
0.3013828945621525
 40
0.4108442493795541
 40
0.6247185195336459
 40
0.6986171054378584
 40
0.9999999999999999
 40
0.9999999999999999
 40
0.9999999999999999
 40
0.9999999999999999
 10
112.279625111815
 20
154.3928343506623
 30
0.0
 10
112.4575675902243
 20
155.0482433796268
 30
0.0
 10
112.7001382380412
 20
155.9416949835499
 30
0.0
 10
113.0707562501727
 20
157.3067787657878
 30
0.0
 10
113.3068601037255
 20
158.1764114626856
 30
0.0
 10
113.6562576583377
 20
159.4633347091074
 30
0.0
 10
113.8778262148099
 20
160.279430077367
 30
0.0
 10
114.0557645793958
 20
160.9348239540357
 30
0.0
  0
ARC
  5
12A
330
1F
100
AcDbEntity
  8
0
  6
Continuous
 62
     7
370
    25
100
AcDbCircle
 10
114.1755301999
 20
160.5645300872
 30
0.0
 40
0.3891803587967408
100
AcDbArc
 50
69.2963496226
 51
107.9229700718
  0
ARC
  5
12B
330
1F
100
AcDbEntity
  8
0
  6
Continuous
 62
     7
370
    25
100
AcDbCircle
 10
112.5702114856
 20
154.6517183229
 30
0.0
 40
0.389180358797912
100
AcDbArc
 50
221.6979067936
 51
260.3245272427
  0
LINE
  5
12C
330
1F
100
AcDbEntity
  8
0
  6
Continuous
 62
     7
370
    25
100
AcDbLine
 10
126.5895199252
 20
168.6083532448
 30
0.0
 11
128.2787572043
 21
169.054998239
 31
0.0
  0
LINE
  5
12D
330
1F
100
AcDbEntity
  8
0
  6
Continuous
 62
     7
370
    25
100
AcDbLine
 10
128.2787572043
 20
169.054998239
 30
0.0
 11
128.4065681515
 21
168.5716098219
 31
0.0
  0
LINE
  5
12E
330
1F
100
AcDbEntity
  8
0
  6
Continuous
 62
     7
370
    25
100
AcDbLine
 10
114.0557645794
 20
160.934823954
 30
0.0
 11
114.5135773076
 21
162.6210688478
 31
0.0
  0
LINE
  5
12F
330
1F
100
AcDbEntity
  8
0
  6
Continuous
 62
     7
370
    25
100
AcDbLine
 10
114.5135773076
 20
162.6210688478
 30
0.0
 11
114.9961094303
 21
162.4900621665
 31
0.0
  0
LINE
  5
130
330
1F
100
AcDbEntity
  8
0
  6
Continuous
 62
     7
370
    25
100
AcDbLine
 10
139.5018689006
 20
161.5905673559
 30
0.0
 11
140.7332934516
 21
160.3509674562
 31
0.0
  0
LINE
  5
131
330
1F
100
AcDbEntity
  8
0
  6
Continuous
 62
     7
370
    25
100
AcDbLine
 10
140.7332934516
 20
160.3509674562
 30
0.0
 11
140.3785722761
 21
159.9985857205
 31
0.0
  0
LINE
  5
132
330
1F
100
AcDbEntity
  8
0
  6
Continuous
 62
     7
370
    25
100
AcDbLine
 10
118.3466837245
 20
166.4288953486
 30
0.0
 11
120.0359210036
 21
166.8755403427
 31
0.0
  0
LINE
  5
133
330
1F
100
AcDbEntity
  8
0
  6
Continuous
 62
     7
370
    25
100
AcDbLine
 10
118.4744946717
 20
165.9455069315
 30
0.0
 11
118.3466837245
 21
166.4288953486
 31
0.0
  0
LINE
  5
134
330
1F
100
AcDbEntity
  8
0
  6
Continuous
 62
     7
370
    25
100
AcDbLine
 10
133.4929848956
 20
167.6393439569
 30
0.0
 11
134.7244094466
 21
166.3997440572
 31
0.0
  0
LINE
  5
135
330
1F
100
AcDbEntity
  8
0
  6
Continuous
 62
     7
370
    25
100
AcDbLine
 10
133.4929848956
 20
167.6393439569
 30
0.0
 11
133.1382637201
 21
167.2869622211
 31
0.0
  0
LINE
  5
136
330
1F
100
AcDbEntity
  8
0
  6
Continuous
 62
     7
370
    25
100
AcDbLine
 10
141.6318826032
 20
155.2584933548
 30
0.0
 11
142.1144147259
 21
155.1274866734
 31
0.0
  0
LINE
  5
137
330
1F
100
AcDbEntity
  8
0
  6
Continuous
 62
     7
370
    25
100
AcDbLine
 10
142.1144147259
 20
155.1274866734
 30
0.0
 11
141.6566019978
 21
153.4412417796
 31
0.0
  0
LINE
  5
138
330
1F
100
AcDbEntity
  8
0
  6
Continuous
 62
     7
370
    25
100
AcDbLine
 10
111.8218123837
 20
152.7065894569
 30
0.0
 11
112.2796251118
 21
154.3928343507
 31
0.0
  0
LINE
  5
139
330
1F
100
AcDbEntity
  8
0
  6
Continuous
 62
     7
370
    25
100
AcDbLine
 10
112.3043445064
 20
152.5755827755
 30
0.0
 11
111.8218123837
 21
152.7065894569
 31
0.0
  0
LINE
  5
13A
330
1F
100
AcDbEntity
  8
0
  6
Continuous
 62
     7
370
    25
100
AcDbLine
 10
114.5135773076
 20
162.6210688478
 30
0.0
 11
115.0168855936
 21
164.4748858675
 31
0.0
  0
LINE
  5
13B
330
1F
100
AcDbEntity
  8
0
  6
Continuous
 62
     7
370
    25
100
AcDbLine
 10
115.0168855936
 20
164.4748858675
 30
0.0
 11
115.4994177163
 21
164.3438791862
 31
0.0
  0
LINE
  5
13C
330
1F
100
AcDbEntity
  8
0
  6
Continuous
 62
     7
370
    25
100
AcDbLine
 10
115.4994177163
 20
164.3438791862
 30
0.0
 11
114.9961094303
 21
162.4900621665
 31
0.0
  0
ARC
  5
13D
330
1F
100
AcDbEntity
  8
0
  6
Continuous
 62
     7
370
    25
100
AcDbCircle
 10
112.2038563435
 20
149.1982766812
 30
0.0
 40
0.4999999999999954
100
AcDbArc
 50
197.7242486741
 51
224.8104384327
  0
LINE
  5
13E
330
1F
100
AcDbEntity
  8
0
  6
Continuous
 62
     7
370
    25
100
AcDbLine
 10
112.2038563435
 20
149.1982766812
 30
0.0
 11
111.7275899818
 21
149.0460585721
 31
0.0
  0
LINE
  5
13F
330
1F
100
AcDbEntity
  8
0
  6
Continuous
 62
     7
370
    25
100
AcDbLine
 10
111.849135168
 20
148.8458949455
 30
0.0
 11
112.2038563435
 21
149.1982766812
 31
0.0
  0
LINE
  5
140
330
1F
100
AcDbEntity
  8
0
  6
Continuous
 62
     7
370
    25
100
AcDbLine
 10
128.2787572043
 20
169.054998239
 30
0.0
 11
130.1358639804
 21
169.5460289872
 31
0.0
  0
LINE
  5
141
330
1F
100
AcDbEntity
  8
0
  6
Continuous
 62
     7
370
    25
100
AcDbLine
 10
130.1358639804
 20
169.5460289872
 30
0.0
 11
130.2636749276
 21
169.0626405701
 31
0.0
  0
LINE
  5
142
330
1F
100
AcDbEntity
  8
0
  6
Continuous
 62
     7
370
    25
100
AcDbLine
 10
130.2636749276
 20
169.0626405701
 30
0.0
 11
128.4065681515
 21
168.5716098219
 31
0.0
  0
ARC
  5
143
330
1F
100
AcDbEntity
  8
0
  6
Continuous
 62
     7
370
    25
100
AcDbCircle
 10
126.9681135548
 20
153.9170380651
 30
0.0
 40
15.49999999999999
100
AcDbArc
 50
11.8966281913
 51
17.7242486741
  0
LINE
  5
144
330
1F
100
AcDbEntity
  8
0
  6
Continuous
 62
     7
370
    25
100
AcDbLine
 10
142.2086371278
 20
158.7880175582
 30
0.0
 11
141.7323707661
 21
158.6357994491
 31
0.0
  0
ARC
  5
145
330
1F
100
AcDbEntity
  8
0
  6
Continuous
 62
     7
370
    25
100
AcDbCircle
 10
126.9681135548
 20
153.9170380651
 30
0.0
 40
15.99999999999999
100
AcDbArc
 50
11.8966281913
 51
17.7242486741
  0
LINE
  5
146
330
1F
100
AcDbEntity
  8
0
  6
Continuous
 62
     7
370
    25
100
AcDbLine
 10
142.1351908892
 20
157.1123103745
 30
0.0
 11
142.6244514484
 21
157.2153836748
 31
0.0
  0
ARC
  5
147
330
1F
100
AcDbEntity
  8
0
  6
Continuous
 62
     7
370
    25
100
AcDbCircle
 10
111.8010362203
 20
150.7217657558
 30
0.0
 40
0.5000000000000088
100
AcDbArc
 50
164.8104384327
 51
191.8966281913
  0
LINE
  5
148
330
1F
100
AcDbEntity
  8
0
  6
Continuous
 62
     7
370
    25
100
AcDbLine
 10
111.8010362203
 20
150.7217657558
 30
0.0
 11
111.3185040976
 21
150.8527724371
 31
0.0
  0
LINE
  5
149
330
1F
100
AcDbEntity
  8
0
  6
Continuous
 62
     7
370
    25
100
AcDbLine
 10
111.3117756612
 20
150.6186924555
 30
0.0
 11
111.8010362203
 21
150.7217657558
 31
0.0
  0
LINE
  5
14A
330
1F
100
AcDbEntity
  8
0
  6
Continuous
 62
     7
370
    25
100
AcDbLine
 10
112.3043445064
 20
152.5755827755
 30
0.0
 11
111.8010362203
 21
150.7217657558
 31
0.0
  0
ARC
  5
14B
330
1F
100
AcDbEntity
  8
0
  6
Continuous
 62
     7
370
    25
100
AcDbCircle
 10
126.9681135548
 20
153.9170380651
 30
0.0
 40
15.50000000000002
100
AcDbArc
 50
191.8966281913
 51
197.7242486741
  0
LINE
  5
14C
330
1F
100
AcDbEntity
  8
0
  6
Continuous
 62
     7
370
    25
100
AcDbLine
 10
130.3699833589
 20
169.5512083928
 30
0.0
 11
130.2636749276
 21
169.0626405701
 31
0.0
  0
ARC
  5
14D
330
1F
100
AcDbEntity
  8
0
  6
Continuous
 62
     7
370
    25
100
AcDbCircle
 10
130.2636749276
 20
169.0626405701
 30
0.0
 40
0.5000000000000145
100
AcDbArc
 50
77.7242486741
 51
104.8104384327
  0
LINE
  5
14E
330
1F
100
AcDbEntity
  8
0
  6
Continuous
 62
     7
370
    25
100
AcDbLine
 10
118.4744946717
 20
165.9455069315
 30
0.0
 11
116.6173878957
 21
165.4544761833
 31
0.0
  0
ARC
  5
14F
330
1F
100
AcDbEntity
  8
0
  6
Continuous
 62
     7
370
    25
100
AcDbCircle
 10
126.9681135548
 20
153.9170380651
 30
0.0
 40
15.50000000000002
100
AcDbArc
 50
131.8966281913
 51
137.7242486741
  0
LINE
  5
150
330
1F
100
AcDbEntity
  8
0
  6
Continuous
 62
     7
370
    25
100
AcDbLine
 10
140.7332934516
 20
160.3509674562
 30
0.0
 11
142.0870919416
 21
158.9881811848
 31
0.0
  0
LINE
  5
151
330
1F
100
AcDbEntity
  8
0
  6
Continuous
 62
     7
370
    25
100
AcDbLine
 10
142.0870919416
 20
158.9881811848
 30
0.0
 11
141.7323707661
 21
158.6357994491
 31
0.0
  0
LINE
  5
152
330
1F
100
AcDbEntity
  8
0
  6
Continuous
 62
     7
370
    25
100
AcDbLine
 10
141.7323707661
 20
158.6357994491
 30
0.0
 11
140.3785722761
 21
159.9985857205
 31
0.0
  0
ARC
  5
153
330
1F
100
AcDbEntity
  8
0
  6
Continuous
 62
     7
370
    25
100
AcDbCircle
 10
126.9681135548
 20
153.9170380651
 30
0.0
 40
16.0
100
AcDbArc
 50
131.8966281913
 51
137.7242486741
  0
LINE
  5
154
330
1F
100
AcDbEntity
  8
0
  6
Continuous
 62
     7
370
    25
100
AcDbLine
 10
116.2834935195
 20
165.8266516064
 30
0.0
 11
116.6173878957
 21
165.4544761833
 31
0.0
  0
LINE
  5
155
330
1F
100
AcDbEntity
  8
0
  6
Continuous
 62
     7
370
    25
100
AcDbLine
 10
115.129459786
 20
164.6802288998
 30
0.0
 11
115.4994177163
 21
164.3438791862
 31
0.0
  0
ARC
  5
156
330
1F
100
AcDbEntity
  8
0
  6
Continuous
 62
     7
370
    25
100
AcDbCircle
 10
115.4994177163
 20
164.3438791862
 30
0.0
 40
0.4999999999999999
100
AcDbArc
 50
137.7242486741
 51
164.8104384327
  0
LINE
  5
157
330
1F
100
AcDbEntity
  8
0
  6
Continuous
 62
     7
370
    25
100
AcDbLine
 10
133.1382637201
 20
167.2869622211
 30
0.0
 11
131.7844652301
 21
168.6497484926
 31
0.0
  0
ARC
  5
158
330
1F
100
AcDbEntity
  8
0
  6
Continuous
 62
     7
370
    25
100
AcDbCircle
 10
126.9681135548
 20
153.9170380651
 30
0.0
 40
15.49999999999999
100
AcDbArc
 50
71.8966281913
 51
77.7242486741
  0
LINE
  5
159
330
1F
100
AcDbEntity
  8
0
  6
Continuous
 62
     7
370
    25
100
AcDbLine
 10
141.6318826032
 20
155.2584933548
 30
0.0
 11
142.1351908892
 21
157.1123103745
 31
0.0
  0
ARC
  5
15A
330
1F
100
AcDbEntity
  8
0
  6
Continuous
 62
     7
370
    25
100
AcDbCircle
 10
126.9681135548
 20
153.9170380651
 30
0.0
 40
16.00000000000002
100
AcDbArc
 50
191.8966281913
 51
197.7242486741
  0
LINE
  5
15B
330
1F
100
AcDbEntity
  8
0
  6
Continuous
 62
     7
370
    25
100
AcDbLine
 10
111.3185040976
 20
150.8527724371
 30
0.0
 11
111.8218123837
 21
152.7065894569
 31
0.0
  0
ARC
  5
15C
330
1F
100
AcDbEntity
  8
0
  6
Continuous
 62
     7
370
    25
100
AcDbCircle
 10
126.9681135548
 20
153.9170380651
 30
0.0
 40
15.99999999999999
100
AcDbArc
 50
71.8966281913
 51
77.7242486741
  0
LINE
  5
15D
330
1F
100
AcDbEntity
  8
0
  6
Continuous
 62
     7
370
    25
100
AcDbLine
 10
131.9398314132
 20
169.1249972161
 30
0.0
 11
131.7844652301
 21
168.6497484926
 31
0.0
  0
LINE
  5
15E
330
1F
100
AcDbEntity
  8
0
  6
Continuous
 62
     7
370
    25
100
AcDbLine
 10
112.7654555574
 20
147.9234911638
 30
0.0
 11
111.849135168
 21
148.8458949455
 31
0.0
  0
ARC
  5
15F
330
1F
100
AcDbEntity
  8
0
  6
Continuous
 62
     7
370
    25
100
AcDbCircle
 10
116.6173878957
 20
165.4544761833
 30
0.0
 40
0.4999999999999886
100
AcDbArc
 50
104.8104384327
 51
131.8966281913
  0
LINE
  5
160
330
1F
100
AcDbEntity
  8
0
  6
Continuous
 62
     7
370
    25
100
AcDbLine
 10
116.6173878957
 20
165.4544761833
 30
0.0
 11
116.4895769484
 21
165.9378646003
 31
0.0
  0
LINE
  5
161
330
1F
100
AcDbEntity
  8
0
  6
Continuous
 62
     7
370
    25
100
AcDbLine
 10
142.1351908892
 20
157.1123103745
 30
0.0
 11
142.6177230119
 21
156.9813036931
 31
0.0
  0
LINE
  5
162
330
1F
100
AcDbEntity
  8
0
  6
Continuous
 62
     7
370
    25
100
AcDbLine
 10
142.6177230119
 20
156.9813036931
 30
0.0
 11
142.1144147259
 21
155.1274866734
 31
0.0
  0
LINE
  5
163
330
1F
100
AcDbEntity
  8
0
  6
Continuous
 62
     7
370
    25
100
AcDbLine
 10
132.1391864056
 20
169.0021302283
 30
0.0
 11
131.7844652301
 21
168.6497484926
 31
0.0
  0
ARC
  5
164
330
1F
100
AcDbEntity
  8
0
  6
Continuous
 62
     7
370
    25
100
AcDbCircle
 10
131.7844652301
 20
168.6497484926
 30
0.0
 40
0.4999999999999954
100
AcDbArc
 50
44.8104384327
 51
71.8966281913
  0
LINE
  5
165
330
1F
100
AcDbEntity
  8
0
  6
Continuous
 62
     7
370
    25
100
AcDbLine
 10
132.1391864056
 20
169.0021302283
 30
0.0
 11
133.4929848956
 21
167.6393439569
 31
0.0
  0
ARC
  5
166
330
1F
100
AcDbEntity
  8
0
  6
Continuous
 62
     7
370
    25
100
AcDbCircle
 10
142.1351908892
 20
157.1123103745
 30
0.0
 40
0.5000000000000061
100
AcDbArc
 50
344.8104384327
 51
11.8966281913
  0
ARC
  5
167
330
1F
100
AcDbEntity
  8
0
  6
Continuous
 62
     7
370
    25
100
AcDbCircle
 10
141.7323707661
 20
158.6357994491
 30
0.0
 40
0.500000000000017
100
AcDbArc
 50
17.7242486741
 51
44.8104384327
  0
LINE
  5
168
330
1F
100
AcDbEntity
  8
0
  6
Continuous
 62
     7
370
    25
100
AcDbLine
 10
116.4895769484
 20
165.9378646003
 30
0.0
 11
118.3466837245
 21
166.4288953486
 31
0.0
  0
LINE
  5
169
330
1F
100
AcDbEntity
  8
0
  6
Continuous
 62
     7
370
    25
100
AcDbLine
 10
207.8005291068
 20
156.5170380651
 30
0.0
 11
207.8180075681
 21
156.5170380651
 31
0.0
  0
ARC
  5
16A
330
1F
100
AcDbEntity
  8
0
  6
Continuous
 62
     7
370
    25
100
AcDbCircle
 10
197.510878967
 20
153.9170380651
 30
0.0
 40
10.61305328357489
100
AcDbArc
 50
7.3079276166
 51
14.1807309007
  0
SPLINE
  5
16B
330
1F
100
AcDbEntity
  8
0
  6
Continuous
 62
     7
370
    25
100
AcDbSpline
210
0.0
220
0.0
230
1.0
 70
     8
 71
     3
 72
    12
 73
     8
 74
     0
 42
0.00000001
 43
0.00000001
 40
0.0
 40
0.0
 40
0.0
 40
0.0
 40
0.2133534395476153
 40
0.4267919313634476
 40
0.6383539739091488
 40
0.8490950351927585
 40
1.0
 40
1.0
 40
1.0
 40
1.0
 10
208.03772084859
 20
154.5170380651411
 30
0.0
 10
208.0473799923173
 20
154.5251396252571
 30
0.0
 10
208.0667021303408
 20
154.541345975135
 30
0.0
 10
208.079015200349
 20
154.668747100151
 30
0.0
 10
208.0766777600522
 20
154.8561411160567
 30
0.0
 10
208.0615602410383
 20
155.067117141348
 30
0.0
 10
208.0447396286574
 20
155.2081774629669
 30
0.0
 10
208.03772084859
 20
155.2670380651411
 30
0.0
  0
LINE
  5
16C
330
1F
100
AcDbEntity
  8
0
  6
Continuous
 62
     7
370
    25
100
AcDbLine
 10
207.8005291068
 20
154.5170380651
 30
0.0
 11
208.0377208486
 21
154.5170380651
 31
0.0
  0
ARC
  5
16D
330
1F
100
AcDbEntity
  8
0
  6
Continuous
 62
     7
370
    25
100
AcDbCircle
 10
197.510878967
 20
153.9170380651
 30
0.0
 40
10.30712860111872
100
AcDbArc
 50
356.6628035549
 51
3.3371964451
  0
LINE
  5
16E
330
1F
100
AcDbEntity
  8
0
  6
Continuous
 62
     7
370
    25
100
AcDbLine
 10
208.0377208486
 20
153.3170380651
 30
0.0
 11
207.8005291068
 21
153.3170380651
 31
0.0
  0
SPLINE
  5
16F
330
1F
100
AcDbEntity
  8
0
  6
Continuous
 62
     7
370
    25
100
AcDbSpline
210
0.0
220
0.0
230
1.0
 70
     8
 71
     3
 72
    12
 73
     8
 74
     0
 42
0.00000001
 43
0.00000001
 40
0.0
 40
0.0
 40
0.0
 40
0.0
 40
0.2133534395476116
 40
0.4267919313634445
 40
0.6383539739091463
 40
0.8490950351927521
 40
1.0
 40
1.0
 40
1.0
 40
1.0
 10
208.03772084859
 20
152.5670380651411
 30
0.0
 10
208.0473799923173
 20
152.6505318532982
 30
0.0
 10
208.0667021303408
 20
152.8175527139883
 30
0.0
 10
208.079015200349
 20
153.0413894755859
 30
0.0
 10
208.0766777600522
 20
153.2104751964632
 30
0.0
 10
208.0615602410383
 20
153.3031367826732
 30
0.0
 10
208.0447396286574
 20
153.3129452576374
 30
0.0
 10
208.03772084859
 20
153.3170380651411
 30
0.0
  0
ARC
  5
170
330
1F
100
AcDbEntity
  8
0
  6
Continuous
 62
     7
370
    25
100
AcDbCircle
 10
197.510878967
 20
153.9170380651
 30
0.0
 40
10.61305328357489
100
AcDbArc
 50
345.8192690993
 51
352.6920723834
  0
LINE
  5
171
330
1F
100
AcDbEntity
  8
0
  6
Continuous
 62
     7
370
    25
100
AcDbLine
 10
207.8180075681
 20
151.3170380651
 30
0.0
 11
207.8005291068
 21
151.3170380651
 31
0.0
  0
LINE
  5
172
330
1F
100
AcDbEntity
  8
0
  6
Continuous
 62
     7
370
    25
100
AcDbLine
 10
191.226839758
 20
162.1676980737
 30
0.0
 11
191.226839758
 21
145.6663783418
 31
0.0
  0
SPLINE
  5
173
330
1F
100
AcDbEntity
  8
0
  6
Continuous
 62
     7
370
    25
100
AcDbSpline
210
0.0
220
0.0
230
1.0
 70
     8
 71
     3
 72
    11
 73
     7
 74
     0
 42
0.00000001
 43
0.00000001
 40
0.0
 40
0.0
 40
0.0
 40
0.0
 40
0.2499999999999913
 40
0.4999999999999988
 40
0.7499999999999947
 40
1.0
 40
1.0
 40
1.0
 40
1.0
 10
191.2268397580089
 20
145.6663768026012
 30
0.0
 10
191.1604687052716
 20
145.6722692800041
 30
0.0
 10
191.0277265997968
 20
145.68405423481
 30
0.0
 10
190.8592628590161
 20
145.7879759172419
 30
0.0
 10
190.741175499981
 20
145.9381563216979
 30
0.0
 10
190.7258008698539
 20
146.0577153807299
 30
0.0
 10
190.7181135547903
 20
146.1174949102459
 30
0.0
  0
LINE
  5
174
330
1F
100
AcDbEntity
  8
0
  6
Continuous
 62
     7
370
    25
100
AcDbLine
 10
190.7181135548
 20
146.1175497605
 30
0.0
 11
190.7181135548
 21
161.7164728307
 31
0.0
  0
SPLINE
  5
175
330
1F
100
AcDbEntity
  8
0
  6
Continuous
 62
     7
370
    25
100
AcDbSpline
210
0.0
220
0.0
230
1.0
 70
     8
 71
     3
 72
    11
 73
     7
 74
     0
 42
0.00000001
 43
0.00000001
 40
0.0
 40
0.0
 40
0.0
 40
0.0
 40
0.2499999999999901
 40
0.5000000000000007
 40
0.7500000000000012
 40
1.0
 40
1.0
 40
1.0
 40
1.0
 10
191.2268397580089
 20
162.1676977884362
 30
0.0
 10
191.1604687052716
 20
162.1618039153637
 30
0.0
 10
191.0277265997968
 20
162.1500161692187
 30
0.0
 10
190.8592628590161
 20
162.0460698722965
 30
0.0
 10
190.741175499981
 20
161.895853896687
 30
0.0
 10
190.7258008698539
 20
161.7762665193557
 30
0.0
 10
190.7181135547903
 20
161.7164728306901
 30
0.0
  0
LWPOLYLINE
  5
176
330
1F
100
AcDbEntity
  8
0
  6
Continuous
 62
     7
370
    25
100
AcDbPolyline
 90
        3
 70
   128
 43
0.0
 10
191.226839758
 20
145.6663783418
 10
197.2183135548
 20
145.7326307531
 10
200.7061575119
 20
145.7714467194
  0
LWPOLYLINE
  5
177
330
1F
100
AcDbEntity
  8
0
  6
Continuous
 62
     7
370
    25
100
AcDbPolyline
 90
        3
 70
   128
 43
0.0
 10
199.7727372981
 20
162.0730354816
 10
197.2183135548
 20
162.1014453772
 10
191.2268397411
 20
162.1676977886
  0
LINE
  5
178
330
1F
100
AcDbEntity
  8
0
  6
Continuous
 62
     7
370
    25
100
AcDbLine
 10
205.5681135548
 20
162.3164817194
 30
0.0
 11
205.5681135548
 21
145.5175944109
 31
0.0
  0
LINE
  5
179
330
1F
100
AcDbEntity
  8
0
  6
Continuous
 62
     7
370
    25
100
AcDbLine
 10
191.226839758
 20
145.6663770885
 30
0.0
 11
191.226839758
 21
142.1709041519
 31
0.0
  0
ARC
  5
17A
330
1F
100
AcDbEntity
  8
0
  6
Continuous
 62
     7
370
    25
100
AcDbCircle
 10
191.2121748495
 20
142.6647905087
 30
0.0
 40
0.4941040304930392
100
AcDbArc
 50
180.7535768612
 51
271.7007770082
  0
LINE
  5
17B
330
1F
100
AcDbEntity
  8
0
  6
Continuous
 62
     7
370
    25
100
AcDbLine
 10
190.7181135548
 20
142.6582920435
 30
0.0
 11
190.7181135548
 21
146.1175485061
 31
0.0
  0
LINE
  5
17C
330
1F
100
AcDbEntity
  8
0
  6
Continuous
 62
     7
370
    25
100
AcDbLine
 10
191.226839758
 20
165.6631719784
 30
0.0
 11
191.226839758
 21
162.1676993277
 31
0.0
  0
ARC
  5
17D
330
1F
100
AcDbEntity
  8
0
  6
Continuous
 62
     7
370
    25
100
AcDbCircle
 10
191.2121748495
 20
165.1692856216
 30
0.0
 40
0.4941040304929243
100
AcDbArc
 50
88.2992229918
 51
179.2464231388
  0
LINE
  5
17E
330
1F
100
AcDbEntity
  8
0
  6
Continuous
 62
     7
370
    25
100
AcDbLine
 10
190.7181135548
 20
161.7165276241
 30
0.0
 11
190.7181135548
 21
165.1757840868
 31
0.0
  0
LINE
  5
17F
330
1F
100
AcDbEntity
  8
0
  6
Continuous
 62
     7
370
    25
100
AcDbLine
 10
195.2530183677
 20
165.5477662799
 30
0.0
 11
195.2530183677
 21
165.5946570217
 31
0.0
  0
SPLINE
  5
180
330
1F
100
AcDbEntity
  8
0
  6
Continuous
 62
     7
370
    25
100
AcDbSpline
210
0.0
220
0.0
230
1.0
 70
     8
 71
     3
 72
    13
 73
     9
 74
     0
 42
0.00000001
 43
0.00000001
 40
0.0
 40
0.0
 40
0.0
 40
0.0
 40
0.0460329529079877
 40
0.249242584819372
 40
0.4775225570272876
 40
0.7051721168687834
 40
0.8526808263814666
 40
1.0
 40
1.0
 40
1.0
 40
1.0
 10
199.7020273548073
 20
162.0743098252436
 30
0.0
 10
199.6000368204988
 20
162.1368187936802
 30
0.0
 10
199.0478153619063
 20
162.4752697485576
 30
0.0
 10
198.0066964374447
 20
163.0932471725865
 30
0.0
 10
196.721495994064
 20
163.9037194992997
 30
0.0
 10
195.8289250939412
 20
164.5963443005643
 30
0.0
 10
195.3403826365497
 20
165.1465781022624
 30
0.0
 10
195.282127307099
 20
165.4140942133683
 30
0.0
 10
195.2530183676649
 20
165.5477662799287
 30
0.0
  0
LWPOLYLINE
  5
181
330
1F
100
AcDbEntity
  8
0
  6
Continuous
 62
     7
370
    25
100
AcDbPolyline
 90
        3
 70
   128
 43
0.0
 10
199.7020273548
 20
162.0743098252
 10
197.2181135548
 20
162.1017012976
 10
191.226839758
 20
162.1676993277
  0
LINE
  5
182
330
1F
100
AcDbEntity
  8
0
  6
Continuous
 62
     7
370
    25
100
AcDbLine
 10
195.2530183677
 20
165.5946570217
 30
0.0
 11
191.226839758
 21
165.6631719784
 31
0.0
  0
LINE
  5
183
330
1F
100
AcDbEntity
  8
0
  6
Continuous
 62
     7
370
    25
100
AcDbLine
 10
199.7402031588
 20
162.0736225225
 30
0.0
 11
199.7020273548
 21
162.0743098252
 31
0.0
  0
LINE
  5
184
330
1F
100
AcDbEntity
  8
0
  6
Continuous
 62
     7
370
    25
100
AcDbLine
 10
199.7402031588
 20
162.0736225225
 30
0.0
 11
199.7727372981
 21
162.0730354816
 31
0.0
  0
LINE
  5
185
330
1F
100
AcDbEntity
  8
0
  6
Continuous
 62
     7
370
    25
100
AcDbLine
 10
200.7061575119
 20
145.7714467194
 30
0.0
 11
200.6615511788
 21
145.7706401023
 31
0.0
  0
LINE
  5
186
330
1F
100
AcDbEntity
  8
0
  6
Continuous
 62
     7
370
    25
100
AcDbLine
 10
200.6204412224
 20
145.7698985362
 30
0.0
 11
200.6615511788
 21
145.7706401023
 31
0.0
  0
LWPOLYLINE
  5
187
330
1F
100
AcDbEntity
  8
0
  6
Continuous
 62
     7
370
    25
100
AcDbPolyline
 90
        3
 70
   128
 43
0.0
 10
200.6204412224
 20
145.7698985362
 10
197.2181135548
 20
145.7323748327
 10
191.2268397749
 20
145.6663768028
  0
SPLINE
  5
188
330
1F
100
AcDbEntity
  8
0
  6
Continuous
 62
     7
370
    25
100
AcDbSpline
210
0.0
220
0.0
230
1.0
 70
     8
 71
     3
 72
    12
 73
     8
 74
     0
 42
0.00000001
 43
0.00000001
 40
0.0
 40
0.0
 40
0.0
 40
0.0
 40
0.1662426524176545
 40
0.3368059756191297
 40
0.6054181071254586
 40
0.8801435087136193
 40
1.0
 40
1.0
 40
1.0
 40
1.0
 10
195.3093475847342
 20
142.2403776834701
 30
0.0
 10
195.4088042920094
 20
142.3958628589532
 30
0.0
 10
195.6103026008883
 20
142.7108742923084
 30
0.0
 10
196.4325503569108
 20
143.3738393973069
 30
0.0
 10
197.7943795238973
 20
144.2260343141123
 30
0.0
 10
199.3554857125563
 20
145.0686629927244
 30
0.0
 10
200.3257254047179
 20
145.6065210854196
 30
0.0
 10
200.6204412224207
 20
145.7698985362468
 30
0.0
  0
LINE
  5
189
330
1F
100
AcDbEntity
  8
0
  6
Continuous
 62
     7
370
    25
100
AcDbLine
 10
195.3093475847
 20
142.2403776835
 30
0.0
 11
191.226839758
 21
142.1709041519
 31
0.0
  0
LINE
  5
18A
330
1F
100
AcDbEntity
  8
0
  6
Continuous
 62
     7
370
    25
100
AcDbLine
 10
190.7181135548
 20
165.1757840868
 30
0.0
 11
190.7181135548
 21
165.3889276799
 31
0.0
  0
LINE
  5
18B
330
1F
100
AcDbEntity
  8
0
  6
Continuous
 62
     7
370
    25
100
AcDbLine
 10
190.7181135548
 20
142.4451484504
 30
0.0
 11
190.7181135548
 21
142.6582920435
 31
0.0
  0
LINE
  5
18C
330
1F
100
AcDbEntity
  8
0
  6
Continuous
 62
     7
370
    25
100
AcDbLine
 10
195.2530183677
 20
142.0320906182
 30
0.0
 11
195.3093475847
 21
142.2403776835
 31
0.0
  0
LINE
  5
18D
330
1F
100
AcDbEntity
  8
0
  6
Continuous
 62
     7
370
    25
100
AcDbLine
 10
207.4681135548
 20
159.2459517599
 30
0.0
 11
207.4681135548
 21
148.5881237285
 31
0.0
  0
LINE
  5
18E
330
1F
100
AcDbEntity
  8
0
  6
Continuous
 62
     7
370
    25
100
AcDbLine
 10
178.2681135548
 20
155.2203004772
 30
0.0
 11
178.0181135548
 21
155.8272537423
 31
0.0
  0
LINE
  5
18F
330
1F
100
AcDbEntity
  8
0
  6
Continuous
 62
     7
370
    25
100
AcDbLine
 10
178.0181135548
 20
161.5068223879
 30
0.0
 11
178.0181135548
 21
155.8272537423
 31
0.0
  0
LINE
  5
190
330
1F
100
AcDbEntity
  8
0
  6
Continuous
 62
     7
370
    25
100
AcDbLine
 10
178.0181135548
 20
161.5068223879
 30
0.0
 11
178.2681135548
 21
162.1137756531
 31
0.0
  0
LINE
  5
191
330
1F
100
AcDbEntity
  8
0
  6
Continuous
 62
     7
370
    25
100
AcDbLine
 10
180.8181135548
 20
162.1137756531
 30
0.0
 11
178.2681135548
 21
162.1137756531
 31
0.0
  0
SPLINE
  5
192
330
1F
100
AcDbEntity
  8
0
  6
Continuous
 62
     7
370
    25
100
AcDbSpline
210
0.0
220
0.0
230
1.0
 70
     8
 71
     3
 72
    11
 73
     7
 74
     0
 42
0.00000001
 43
0.00000001
 40
0.0
 40
0.0
 40
0.0
 40
0.0
 40
0.2431641197380915
 40
0.4936284730588937
 40
0.7421706076863286
 40
1.0
 40
1.0
 40
1.0
 40
1.0
 10
180.8181135547903
 20
155.2203004772183
 30
0.0
 10
181.0282538779991
 20
155.7637470094892
 30
0.0
 10
181.4548433229607
 20
156.8669553372759
 30
0.0
 10
181.6652277531037
 20
158.6170003670025
 30
0.0
 10
181.4745410594367
 20
160.4039695309454
 30
0.0
 10
181.039581889042
 20
161.5369139111677
 30
0.0
 10
180.8181135547903
 20
162.1137756530639
 30
0.0
  0
LINE
  5
193
330
1F
100
AcDbEntity
  8
0
  6
Continuous
 62
     7
370
    25
100
AcDbLine
 10
178.2681135548
 20
155.2203004772
 30
0.0
 11
180.8181135548
 21
155.2203004772
 31
0.0
  0
LINE
  5
194
330
1F
100
AcDbEntity
  8
0
  6
Continuous
 62
     7
370
    25
100
AcDbLine
 10
178.2681135548
 20
145.7203004772
 30
0.0
 11
178.0181135548
 21
146.3272537423
 31
0.0
  0
LINE
  5
195
330
1F
100
AcDbEntity
  8
0
  6
Continuous
 62
     7
370
    25
100
AcDbLine
 10
178.0181135548
 20
152.0068223879
 30
0.0
 11
178.0181135548
 21
146.3272537423
 31
0.0
  0
LINE
  5
196
330
1F
100
AcDbEntity
  8
0
  6
Continuous
 62
     7
370
    25
100
AcDbLine
 10
178.0181135548
 20
152.0068223879
 30
0.0
 11
178.2681135548
 21
152.6137756531
 31
0.0
  0
LINE
  5
197
330
1F
100
AcDbEntity
  8
0
  6
Continuous
 62
     7
370
    25
100
AcDbLine
 10
180.8181135548
 20
152.6137756531
 30
0.0
 11
178.2681135548
 21
152.6137756531
 31
0.0
  0
SPLINE
  5
198
330
1F
100
AcDbEntity
  8
0
  6
Continuous
 62
     7
370
    25
100
AcDbSpline
210
0.0
220
0.0
230
1.0
 70
     8
 71
     3
 72
    11
 73
     7
 74
     0
 42
0.00000001
 43
0.00000001
 40
0.0
 40
0.0
 40
0.0
 40
0.0
 40
0.2431641197380915
 40
0.4936284730588929
 40
0.7421706076863281
 40
1.0
 40
1.0
 40
1.0
 40
1.0
 10
180.8181135547903
 20
145.7203004772183
 30
0.0
 10
181.0282538779991
 20
146.2637470094891
 30
0.0
 10
181.4548433229607
 20
147.3669553372759
 30
0.0
 10
181.6652277531037
 20
149.1170003670025
 30
0.0
 10
181.4745410594367
 20
150.9039695309454
 30
0.0
 10
181.039581889042
 20
152.0369139111677
 30
0.0
 10
180.8181135547903
 20
152.613775653064
 30
0.0
  0
LINE
  5
199
330
1F
100
AcDbEntity
  8
0
  6
Continuous
 62
     7
370
    25
100
AcDbLine
 10
178.2681135548
 20
145.7203004772
 30
0.0
 11
180.8181135548
 21
145.7203004772
 31
0.0
  0
LINE
  5
19A
330
1F
100
AcDbEntity
  8
0
  6
Continuous
 62
     7
370
    25
100
AcDbLine
 10
180.8181135548
 20
163.4170380651
 30
0.0
 11
180.8181135548
 21
162.1137756531
 31
0.0
  0
SPLINE
  5
19B
330
1F
100
AcDbEntity
  8
0
  6
Continuous
 62
     7
370
    25
100
AcDbSpline
210
0.0
220
0.0
230
1.0
 70
    24
 71
     3
 72
    11
 73
     7
 74
     0
 42
0.00000001
 43
0.00000001
 40
0.0
 40
0.0
 40
0.0
 40
0.0
 40
0.0591367244421617
 40
0.5151299665227156
 40
0.9835186867546513
 40
1.0
 40
1.0
 40
1.0
 40
1.0
 10
180.8181135547903
 20
163.4170380651411
 30
0.0
 10
180.846093134801
 20
163.4170380651411
 30
0.0
 10
181.0898185059676
 20
163.4170380651411
 30
0.0
 10
181.4303468946456
 20
163.4170380651411
 30
0.0
 10
181.6554211855997
 20
163.4170380651411
 30
0.0
 10
181.5943977494829
 20
163.4170380651411
 30
0.0
 10
181.5923234897916
 20
163.4170380651411
 30
0.0
  0
SPLINE
  5
19C
330
1F
100
AcDbEntity
  8
0
  6
Continuous
 62
     7
370
    25
100
AcDbSpline
210
0.0
220
0.0
230
1.0
 70
    24
 71
     3
 72
    11
 73
     7
 74
     0
 42
0.00000001
 43
0.00000001
 40
0.0
 40
0.0
 40
0.0
 40
0.0
 40
0.0164472970676022
 40
0.4715343437265938
 40
0.9408620266780215
 40
1.0
 40
1.0
 40
1.0
 40
1.0
 10
181.5921358502323
 20
144.4170380651411
 30
0.0
 10
181.5942746838714
 20
144.4170380651411
 30
0.0
 10
181.6555937876862
 20
144.4170380651411
 30
0.0
 10
181.4325475158079
 20
144.4170380651411
 30
0.0
 10
181.0961436415307
 20
144.4170380651411
 30
0.0
 10
180.8460952332964
 20
144.4170380651411
 30
0.0
 10
180.8181135547903
 20
144.4170380651411
 30
0.0
  0
LINE
  5
19D
330
1F
100
AcDbEntity
  8
0
  6
Continuous
 62
     7
370
    25
100
AcDbLine
 10
180.8181135548
 20
145.7203004772
 30
0.0
 11
180.8181135548
 21
144.4170380651
 31
0.0
  0
LINE
  5
19E
330
1F
100
AcDbEntity
  8
0
  6
Continuous
 62
     7
370
    25
100
AcDbLine
 10
180.8181135548
 20
155.2203004772
 30
0.0
 11
180.8181135548
 21
152.6137756531
 31
0.0
  0
LINE
  5
19F
330
1F
100
AcDbEntity
  8
0
  6
Continuous
 62
     7
370
    25
100
AcDbLine
 10
182.8181135548
 20
162.1670380651
 30
0.0
 11
182.8181135548
 21
145.6670380651
 31
0.0
  0
LINE
  5
1A0
330
1F
100
AcDbEntity
  8
0
  6
Continuous
 62
     7
370
    25
100
AcDbLine
 10
178.2681135548
 20
155.2203004772
 30
0.0
 11
178.2681135548
 21
152.6137756531
 31
0.0
  0
LINE
  5
1A1
330
1F
100
AcDbEntity
  8
0
  6
Continuous
 62
     7
370
    25
100
AcDbLine
 10
178.0181135548
 20
152.0068223879
 30
0.0
 11
178.0181135548
 21
155.8272537423
 31
0.0
  0
SPLINE
  5
1A2
330
1F
100
AcDbEntity
  8
0
  6
Continuous
 62
     7
370
    25
100
AcDbSpline
210
0.0
220
0.0
230
1.0
 70
     8
 71
     3
 72
    11
 73
     7
 74
     0
 42
0.00000001
 43
0.00000001
 40
0.0
 40
0.0
 40
0.0
 40
0.0
 40
0.0823376510038091
 40
0.3188851439110015
 40
0.6247963511836877
 40
1.0
 40
1.0
 40
1.0
 40
1.0
 10
175.9185737803796
 20
163.303062639158
 30
0.0
 10
175.9212018814056
 20
163.299651623932
 30
0.0
 10
175.9313802428683
 20
163.2864411173414
 30
0.0
 10
175.9520635069877
 20
163.1636986960235
 30
0.0
 10
175.9825757101111
 20
162.8672531744502
 30
0.0
 10
176.0054905353764
 20
162.4717906208406
 30
0.0
 10
176.0181135547903
 20
162.2539433785466
 30
0.0
  0
LINE
  5
1A3
330
1F
100
AcDbEntity
  8
0
  6
Continuous
 62
     7
370
    25
100
AcDbLine
 10
176.0181135548
 20
149.5746874988
 30
0.0
 11
176.0181135548
 21
162.2539433784
 31
0.0
  0
SPLINE
  5
1A4
330
1F
100
AcDbEntity
  8
0
  6
Continuous
 62
     7
370
    25
100
AcDbSpline
210
0.0
220
0.0
230
1.0
 70
     8
 71
     3
 72
    30
 73
    26
 74
     0
 42
0.00000001
 43
0.00000001
 40
0.0
 40
0.0
 40
0.0
 40
0.0
 40
0.0182355448544065
 40
0.0763245661743252
 40
0.1063427875899049
 40
0.1451052306444134
 40
0.1926087823348561
 40
0.2376127113006339
 40
0.2719933646366511
 40
0.2957466639727327
 40
0.3088697938344322
 40
0.3375269424463682
 40
0.3661842311463162
 40
0.3948416612334269
 40
0.4234992340068308
 40
0.5378839981506605
 40
0.5908692721160762
 40
0.6380628073955174
 40
0.6794629392041788
 40
0.7306843854292003
 40
0.7688710157324232
 40
0.8038595024706399
 40
0.8540525738533307
 40
0.9194380368698538
 40
1.0
 40
1.0
 40
1.0
 40
1.0
 10
175.5569681985978
 20
163.3041096075603
 30
0.0
 10
175.5596493507894
 20
163.3076510911641
 30
0.0
 10
175.5708712681769
 20
163.3224739112023
 30
0.0
 10
175.5868965939895
 20
163.2388747717725
 30
0.0
 10
175.606507625541
 20
163.090420417238
 30
0.0
 10
175.6246698838622
 20
162.8988807392666
 30
0.0
 10
175.645317898386
 20
162.6126410114803
 30
0.0
 10
175.6653008192292
 20
162.2641467192298
 30
0.0
 10
175.6814397952434
 20
161.933351214226
 30
0.0
 10
175.6925516544557
 20
161.6816670813757
 30
0.0
 10
175.702502134082
 20
161.4371552403941
 30
0.0
 10
175.7126672279862
 20
161.1586572298533
 30
0.0
 10
175.7254600688574
 20
160.7938038298216
 30
0.0
 10
175.7383019955739
 20
160.4051416353676
 30
0.0
 10
175.7641956059482
 20
159.5847796457418
 30
0.0
 10
175.7946854929266
 20
158.5229671682157
 30
0.0
 10
175.8283959477469
 20
157.2591476489871
 30
0.0
 10
175.8504592268773
 20
156.391879867186
 30
0.0
 10
175.872081466774
 20
155.5145862375892
 30
0.0
 10
175.8921823490915
 20
154.6793395763596
 30
0.0
 10
175.9105952240295
 20
153.8801183064157
 30
0.0
 10
175.9289440783057
 20
153.0876991346665
 30
0.0
 10
175.9521372948552
 20
152.1279807868466
 30
0.0
 10
175.9825815620954
 20
150.8981131332914
 30
0.0
 10
176.0054759899875
 20
150.0453866053801
 30
0.0
 10
176.0181135547903
 20
149.5746874987535
 30
0.0
  0
SPLINE
  5
1A5
330
1F
100
AcDbEntity
  8
0
  6
Continuous
 62
     7
370
    25
100
AcDbSpline
210
0.0
220
0.0
230
1.0
 70
     8
 71
     3
 72
    12
 73
     8
 74
     0
 42
0.00000001
 43
0.00000001
 40
0.0
 40
0.0
 40
0.0
 40
0.0
 40
0.2176683106405472
 40
0.4685852168999713
 40
0.7246585792764159
 40
0.9786110903297413
 40
1.0
 40
1.0
 40
1.0
 40
1.0
 10
175.3681135547903
 20
151.0709096305627
 30
0.0
 10
175.3888964785202
 20
150.3542309480672
 30
0.0
 10
175.4336368947762
 20
148.8114017006841
 30
0.0
 10
175.4966334788267
 20
146.9332869777211
 30
0.0
 10
175.5697370945312
 20
145.6941712236983
 30
0.0
 10
175.6184481738039
 20
145.1660429649992
 30
0.0
 10
175.6435391800175
 20
145.3024532738515
 30
0.0
 10
175.6454882847472
 20
145.3130498189209
 30
0.0
  0
SPLINE
  5
1A6
330
1F
100
AcDbEntity
  8
0
  6
Continuous
 62
     7
370
    25
100
AcDbSpline
210
0.0
220
0.0
230
1.0
 70
     8
 71
     3
 72
    10
 73
     6
 74
     0
 42
0.00000001
 43
0.00000001
 40
0.0
 40
0.0
 40
0.0
 40
0.0
 40
0.3607125544605579
 40
0.8121347452949703
 40
1.0
 40
1.0
 40
1.0
 40
1.0
 10
176.3605207109647
 20
162.4814205284804
 30
0.0
 10
176.379039263992
 20
162.4216332899627
 30
0.0
 10
176.4207332947655
 20
162.2870239088226
 30
0.0
 10
176.4759117826887
 20
161.3451870221631
 30
0.0
 10
176.508528569258
 20
160.5181061380495
 30
0.0
 10
176.5181135547903
 20
160.2750546562164
 30
0.0
  0
SPLINE
  5
1A7
330
1F
100
AcDbEntity
  8
0
  6
Continuous
 62
     7
370
    25
100
AcDbSpline
210
0.0
220
0.0
230
1.0
 70
    24
 71
     3
 72
    11
 73
     7
 74
     0
 42
0.00000001
 43
0.00000001
 40
0.0
 40
0.0
 40
0.0
 40
0.0
 40
0.3181620477431253
 40
0.564711443146115
 40
0.8184108192672209
 40
1.0
 40
1.0
 40
1.0
 40
1.0
 10
176.5181135547903
 20
160.2750546562164
 30
0.0
 10
176.5181135547903
 20
159.8394020381267
 30
0.0
 10
176.5181135547903
 20
159.0661545046231
 30
0.0
 10
176.5181135547903
 20
157.68706087814
 30
0.0
 10
176.5181135547903
 20
156.4469778951881
 30
0.0
 10
176.5181135547903
 20
155.6088877674437
 30
0.0
 10
176.5181135547903
 20
155.2592619909766
 30
0.0
  0
SPLINE
  5
1A8
330
1F
100
AcDbEntity
  8
0
  6
Continuous
 62
     7
370
    25
100
AcDbSpline
210
0.0
220
0.0
230
1.0
 70
     8
 71
     3
 72
    13
 73
     9
 74
     0
 42
0.00000001
 43
0.00000001
 40
0.0
 40
0.0
 40
0.0
 40
0.0
 40
0.2187316754180421
 40
0.3931473777464117
 40
0.5714254113794042
 40
0.7494200729435004
 40
0.8738925945231126
 40
1.0
 40
1.0
 40
1.0
 40
1.0
 10
176.5181135547903
 20
155.2592619909766
 30
0.0
 10
176.4803857478838
 20
155.8813688009468
 30
0.0
 10
176.412573949135
 20
156.9995409200536
 30
0.0
 10
176.3137605205222
 20
158.5227600867811
 30
0.0
 10
176.224748984271
 20
159.825191141301
 30
0.0
 10
176.1500360573338
 20
160.8607734018289
 30
0.0
 10
176.0803679784283
 20
161.6694922605379
 30
0.0
 10
176.0389550941004
 20
162.0582808016782
 30
0.0
 10
176.0181135548069
 20
162.2539433783989
 30
0.0
  0
SPLINE
  5
1A9
330
1F
100
AcDbEntity
  8
0
  6
Continuous
 62
     7
370
    25
100
AcDbSpline
210
0.0
220
0.0
230
1.0
 70
     8
 71
     3
 72
    15
 73
    11
 74
     0
 42
0.00000001
 43
0.00000001
 40
0.0
 40
0.0
 40
0.0
 40
0.0
 40
0.1853848730991207
 40
0.2777270836008036
 40
0.3700718582436233
 40
0.462416855210521
 40
0.6144793794637545
 40
0.7665419034043038
 40
0.9186044273391785
 40
1.0
 40
1.0
 40
1.0
 40
1.0
 10
176.0181135547903
 20
149.5746874987531
 30
0.0
 10
176.0278310597661
 20
149.0379564443033
 30
0.0
 10
176.0423889590795
 20
148.2338738460936
 30
0.0
 10
176.0607212013438
 20
147.3167099153282
 30
0.0
 10
176.074396632646
 20
146.6927346430201
 30
0.0
 10
176.0917659039983
 20
146.0264679799114
 30
0.0
 10
176.1127701710628
 20
145.3887666340035
 30
0.0
 10
176.1371160749199
 20
144.9051830459393
 30
0.0
 10
176.1573439690141
 20
144.6680112323531
 30
0.0
 10
176.1690164660116
 20
144.694526659087
 30
0.0
 10
176.1730861024533
 20
144.7037713088756
 30
0.0
  0
SPLINE
  5
1AA
330
1F
100
AcDbEntity
  8
0
  6
Continuous
 62
     7
370
    25
100
AcDbSpline
210
0.0
220
0.0
230
1.0
 70
     8
 71
     3
 72
    14
 73
    10
 74
     0
 42
0.00000001
 43
0.00000001
 40
0.0
 40
0.0
 40
0.0
 40
0.0
 40
0.0578426902663274
 40
0.216144858255832
 40
0.3737013188601274
 40
0.5337217907319859
 40
0.6902197187388891
 40
0.849933749033365
 40
1.0
 40
1.0
 40
1.0
 40
1.0
 10
175.3681135547903
 20
157.6118578693959
 30
0.0
 10
175.3768329205677
 20
157.3276359207067
 30
0.0
 10
175.4094151893271
 20
156.2655637292201
 30
0.0
 10
175.4645792699651
 20
154.0873565947672
 30
0.0
 10
175.5329068181479
 20
151.3933185185897
 30
0.0
 10
175.6068119804767
 20
148.9228721138689
 30
0.0
 10
175.6729644924565
 20
146.9546017313724
 30
0.0
 10
175.7449041947177
 20
145.6197699989479
 30
0.0
 10
175.7903301771696
 20
145.4106953561425
 30
0.0
 10
175.8123357962984
 20
145.3094137390872
 30
0.0
  0
LINE
  5
1AB
330
1F
100
AcDbEntity
  8
0
  6
Continuous
 62
     7
370
    25
100
AcDbLine
 10
176.5181135548
 20
155.259261991
 30
0.0
 11
176.5181135548
 21
145.0170380651
 31
0.0
  0
SPLINE
  5
1AC
330
1F
100
AcDbEntity
  8
0
  6
Continuous
 62
     7
370
    25
100
AcDbSpline
210
0.0
220
0.0
230
1.0
 70
    24
 71
     3
 72
    10
 73
     6
 74
     0
 42
0.00000001
 43
0.00000001
 40
0.0
 40
0.0
 40
0.0
 40
0.0
 40
0.2200266609304047
 40
0.6670013252276435
 40
1.0
 40
1.0
 40
1.0
 40
1.0
 10
176.5181135547903
 20
162.5526683933387
 30
0.0
 10
176.5181135547903
 20
162.529207852764
 30
0.0
 10
176.5181135547903
 20
162.4580882366787
 30
0.0
 10
176.5181135547903
 20
161.7530812874873
 30
0.0
 10
176.5181135547903
 20
160.7172768355437
 30
0.0
 10
176.5181135547903
 20
160.2750546562164
 30
0.0
  0
LINE
  5
1AD
330
1F
100
AcDbEntity
  8
0
  6
Continuous
 62
     7
370
    25
100
AcDbLine
 10
178.2681135548
 20
163.4170380651
 30
0.0
 11
178.0181135548
 21
163.4170380651
 31
0.0
  0
LINE
  5
1AE
330
1F
100
AcDbEntity
  8
0
  6
Continuous
 62
     7
370
    25
100
AcDbLine
 10
178.2681135548
 20
163.4170380651
 30
0.0
 11
178.2681135548
 21
162.1137756531
 31
0.0
  0
LINE
  5
1AF
330
1F
100
AcDbEntity
  8
0
  6
Continuous
 62
     7
370
    25
100
AcDbLine
 10
178.0181135548
 20
161.5068223879
 30
0.0
 11
178.0181135548
 21
163.4170380651
 31
0.0
  0
LINE
  5
1B0
330
1F
100
AcDbEntity
  8
0
  6
Continuous
 62
     7
370
    25
100
AcDbLine
 10
178.2681135548
 20
145.7203004772
 30
0.0
 11
178.2681135548
 21
144.4170380651
 31
0.0
  0
LINE
  5
1B1
330
1F
100
AcDbEntity
  8
0
  6
Continuous
 62
     7
370
    25
100
AcDbLine
 10
178.0181135548
 20
144.4170380651
 30
0.0
 11
178.2681135548
 21
144.4170380651
 31
0.0
  0
LINE
  5
1B2
330
1F
100
AcDbEntity
  8
0
  6
Continuous
 62
     7
370
    25
100
AcDbLine
 10
178.0181135548
 20
144.4170380651
 30
0.0
 11
178.0181135548
 21
146.3272537423
 31
0.0
  0
LINE
  5
1B3
330
1F
100
AcDbEntity
  8
0
  6
Continuous
 62
     7
370
    25
100
AcDbLine
 10
178.2681135548
 20
163.4170380651
 30
0.0
 11
180.8181135548
 21
163.4170380651
 31
0.0
  0
LINE
  5
1B4
330
1F
100
AcDbEntity
  8
0
  6
Continuous
 62
     7
370
    25
100
AcDbLine
 10
180.8181135548
 20
144.4170380651
 30
0.0
 11
178.2681135548
 21
144.4170380651
 31
0.0
  0
SPLINE
  5
1B5
330
1F
100
AcDbEntity
  8
0
  6
Continuous
 62
     7
370
    25
100
AcDbSpline
210
0.0
220
0.0
230
1.0
 70
     8
 71
     3
 72
     9
 73
     5
 74
     0
 42
0.00000001
 43
0.00000001
 40
0.0
 40
0.0
 40
0.0
 40
0.0
 40
0.4196059920556171
 40
1.0
 40
1.0
 40
1.0
 40
1.0
 10
166.3666470801675
 20
167.6801113404341
 30
0.0
 10
166.2999691703987
 20
167.8752958634988
 30
0.0
 10
166.1410631704101
 20
168.340457292935
 30
0.0
 10
166.1265417184782
 20
168.6751129254823
 30
0.0
 10
166.1181135547903
 20
168.8693450493376
 30
0.0
  0
LINE
  5
1B6
330
1F
100
AcDbEntity
  8
0
  6
Continuous
 62
     7
370
    25
100
AcDbLine
 10
166.1181135548
 20
138.9647310809
 30
0.0
 11
166.1894918836
 21
139.4170380651
 31
0.0
  0
LINE
  5
1B7
330
1F
100
AcDbEntity
  8
0
  6
Continuous
 62
     7
370
    25
100
AcDbLine
 10
166.1181135548
 20
138.9647310809
 30
0.0
 11
166.1181135548
 21
138.2379042069
 31
0.0
  0
SPLINE
  5
1B8
330
1F
100
AcDbEntity
  8
0
  6
Continuous
 62
     7
370
    25
100
AcDbSpline
210
0.0
220
0.0
230
1.0
 70
     8
 71
     3
 72
     9
 73
     5
 74
     0
 42
0.00000001
 43
0.00000001
 40
0.0
 40
0.0
 40
0.0
 40
0.0
 40
0.5850553834536188
 40
1.0
 40
1.0
 40
1.0
 40
1.0
 10
166.5325704623677
 20
137.6670380651411
 30
0.0
 10
166.3960163283433
 20
137.6987364821798
 30
0.0
 10
166.1626125551514
 20
137.7529166810723
 30
0.0
 10
166.1311632674261
 20
138.0956774648723
 30
0.0
 10
166.1181135547903
 20
138.2379042068734
 30
0.0
  0
SPLINE
  5
1B9
330
1F
100
AcDbEntity
  8
0
  6
Continuous
 62
     7
370
    25
100
AcDbSpline
210
0.0
220
0.0
230
1.0
 70
    27
 71
     3
 72
    11
 73
     7
 74
     0
 42
0.00000001
 43
0.00000001
 40
0.0
 40
0.0
 40
0.0
 40
0.0
 40
0.2328716322111479
 40
0.4710265024313248
 40
0.7311421212560302
 40
0.9999999999999999
 40
0.9999999999999999
 40
0.9999999999999999
 40
0.9999999999999999
 10
166.5325704623677
 20
137.6670380651411
 30
0.0
 10
166.8029671970404
 20
137.6670380651411
 30
0.0
 10
167.3498952491713
 20
137.6670380651411
 30
0.0
 10
167.6511195671548
 20
137.6670380651411
 30
0.0
 10
167.4434678017451
 20
137.6670380651411
 30
0.0
 10
166.8395299699649
 20
137.6670380651411
 30
0.0
 10
166.5325704623677
 20
137.6670380651411
 30
0.0
  0
SPLINE
  5
1BA
330
1F
100
AcDbEntity
  8
0
  6
Continuous
 62
     7
370
    25
100
AcDbSpline
210
0.0
220
0.0
230
1.0
 70
     8
 71
     3
 72
     9
 73
     5
 74
     0
 42
0.00000001
 43
0.00000001
 40
0.0
 40
0.0
 40
0.0
 40
0.0
 40
0.5841917497409234
 40
1.0
 40
1.0
 40
1.0
 40
1.0
 10
166.1181135547903
 20
138.2379042068734
 30
0.0
 10
166.1442815186109
 20
138.0468219848069
 30
0.0
 10
166.1890749684196
 20
137.7197337947541
 30
0.0
 10
166.4316893859336
 20
137.6825142563008
 30
0.0
 10
166.5325704623677
 20
137.6670380651411
 30
0.0
  0
LINE
  5
1BB
330
1F
100
AcDbEntity
  8
0
  6
Continuous
 62
     7
370
    25
100
AcDbLine
 10
166.1181135548
 20
138.2379042069
 30
0.0
 11
166.1181135548
 21
138.9647310809
 31
0.0
  0
SPLINE
  5
1BC
330
1F
100
AcDbEntity
  8
0
  6
Continuous
 62
     7
370
    25
100
AcDbSpline
210
0.0
220
0.0
230
1.0
 70
     8
 71
     3
 72
     9
 73
     5
 74
     0
 42
0.00000001
 43
0.00000001
 40
0.0
 40
0.0
 40
0.0
 40
0.0
 40
0.5850553834536188
 40
1.0
 40
1.0
 40
1.0
 40
1.0
 10
166.5325704623677
 20
140.6885466132035
 30
0.0
 10
166.3960163283433
 20
140.3020000876397
 30
0.0
 10
166.1626125551514
 20
139.641299346315
 30
0.0
 10
166.1311632674261
 20
139.1631405141893
 30
0.0
 10
166.1181135547903
 20
138.9647310809447
 30
0.0
  0
SPLINE
  5
1BD
330
1F
100
AcDbEntity
  8
0
  6
Continuous
 62
     7
370
    25
100
AcDbSpline
210
0.0
220
0.0
230
1.0
 70
     8
 71
     3
 72
    11
 73
     7
 74
     0
 42
0.00000001
 43
0.00000001
 40
0.0
 40
0.0
 40
0.0
 40
0.0
 40
0.2556279644380972
 40
0.5185037642963866
 40
0.7560467972580102
 40
0.9999999999999999
 40
0.9999999999999999
 40
0.9999999999999999
 40
0.9999999999999999
 10
166.5325704623677
 20
150.8955295170787
 30
0.0
 10
166.8261964224696
 20
150.0445849441113
 30
0.0
 10
167.4217735376052
 20
148.3185689142881
 30
0.0
 10
167.6536624992318
 20
145.6854863860908
 30
0.0
 10
167.3706920407711
 20
143.1017589659202
 30
0.0
 10
166.8144129072068
 20
141.5000585548258
 30
0.0
 10
166.5325704623677
 20
140.6885466132035
 30
0.0
  0
SPLINE
  5
1BE
330
1F
100
AcDbEntity
  8
0
  6
Continuous
 62
     7
370
    25
100
AcDbSpline
210
0.0
220
0.0
230
1.0
 70
     8
 71
     3
 72
     9
 73
     5
 74
     0
 42
0.00000001
 43
0.00000001
 40
0.0
 40
0.0
 40
0.0
 40
0.0
 40
0.5841917497409257
 40
1.0
 40
1.0
 40
1.0
 40
1.0
 10
166.1181135547903
 20
153.1902111910699
 30
0.0
 10
166.1442815186109
 20
152.7098530655036
 30
0.0
 10
166.1890749684196
 20
151.8875920086173
 30
0.0
 10
166.4316893859336
 20
151.1868880175528
 30
0.0
 10
166.5325704623677
 20
150.8955295170787
 30
0.0
  0
LINE
  5
1BF
330
1F
100
AcDbEntity
  8
0
  6
Continuous
 62
     7
370
    25
100
AcDbLine
 10
166.1181135548
 20
153.1902111911
 30
0.0
 11
166.1181135548
 21
154.6438649392
 31
0.0
  0
SPLINE
  5
1C0
330
1F
100
AcDbEntity
  8
0
  6
Continuous
 62
     7
370
    25
100
AcDbSpline
210
0.0
220
0.0
230
1.0
 70
     8
 71
     3
 72
     9
 73
     5
 74
     0
 42
0.00000001
 43
0.00000001
 40
0.0
 40
0.0
 40
0.0
 40
0.0
 40
0.5850553834536182
 40
0.9999999999999999
 40
0.9999999999999999
 40
0.9999999999999999
 40
0.9999999999999999
 10
166.5325704623677
 20
156.9385466132035
 30
0.0
 10
166.3960163283433
 20
156.520301670601
 30
0.0
 10
166.1626125551514
 20
155.8054207303838
 30
0.0
 10
166.1311632674261
 20
154.9845011144581
 30
0.0
 10
166.1181135547903
 20
154.6438649392123
 30
0.0
  0
SPLINE
  5
1C1
330
1F
100
AcDbEntity
  8
0
  6
Continuous
 62
     7
370
    25
100
AcDbSpline
210
0.0
220
0.0
230
1.0
 70
     8
 71
     3
 72
    11
 73
     7
 74
     0
 42
0.00000001
 43
0.00000001
 40
0.0
 40
0.0
 40
0.0
 40
0.0
 40
0.2328716322111471
 40
0.471026502431323
 40
0.7311421212560291
 40
1.0
 40
1.0
 40
1.0
 40
1.0
 10
166.5325704623677
 20
167.1455295170787
 30
0.0
 10
166.8029671970404
 20
166.3714271410851
 30
0.0
 10
167.3498952491713
 20
164.8056600649244
 30
0.0
 10
167.6511195671548
 20
162.2702210976297
 30
0.0
 10
167.4434678017452
 20
159.5967150171605
 30
0.0
 10
166.8395299699649
 20
157.8343117330652
 30
0.0
 10
166.5325704623677
 20
156.9385466132035
 30
0.0
  0
SPLINE
  5
1C2
330
1F
100
AcDbEntity
  8
0
  6
Continuous
 62
     7
370
    25
100
AcDbSpline
210
0.0
220
0.0
230
1.0
 70
     8
 71
     3
 72
     9
 73
     5
 74
     0
 42
0.00000001
 43
0.00000001
 40
0.0
 40
0.0
 40
0.0
 40
0.0
 40
0.5841917497409239
 40
1.0
 40
1.0
 40
1.0
 40
1.0
 10
166.1181135547903
 20
168.8693450493376
 30
0.0
 10
166.1442815186109
 20
168.5800691458379
 30
0.0
 10
166.1890749684196
 20
168.0848962790043
 30
0.0
 10
166.4316893859336
 20
167.4214118263931
 30
0.0
 10
166.5325704623677
 20
167.1455295170787
 30
0.0
  0
LINE
  5
1C3
330
1F
100
AcDbEntity
  8
0
  6
Continuous
 62
     7
370
    25
100
AcDbLine
 10
166.1181135548
 20
168.8693450493
 30
0.0
 11
166.1181135548
 21
169.5961719234
 31
0.0
  0
SPLINE
  5
1C4
330
1F
100
AcDbEntity
  8
0
  6
Continuous
 62
     7
370
    25
100
AcDbSpline
210
0.0
220
0.0
230
1.0
 70
     8
 71
     3
 72
     9
 73
     5
 74
     0
 42
0.00000001
 43
0.00000001
 40
0.0
 40
0.0
 40
0.0
 40
0.0
 40
0.5850553834536166
 40
1.0
 40
1.0
 40
1.0
 40
1.0
 10
166.5325704623677
 20
170.1670380651411
 30
0.0
 10
166.3960163283433
 20
170.1353396481024
 30
0.0
 10
166.1626125551514
 20
170.0811594492099
 30
0.0
 10
166.1311632674261
 20
169.7383986654099
 30
0.0
 10
166.1181135547903
 20
169.5961719234088
 30
0.0
  0
SPLINE
  5
1C5
330
1F
100
AcDbEntity
  8
0
  6
Continuous
 62
     7
370
    25
100
AcDbSpline
210
0.0
220
0.0
230
1.0
 70
    27
 71
     3
 72
    11
 73
     7
 74
     0
 42
0.00000001
 43
0.00000001
 40
0.0
 40
0.0
 40
0.0
 40
0.0
 40
0.2328716322111485
 40
0.471026502431326
 40
0.7311421212560308
 40
1.0
 40
1.0
 40
1.0
 40
1.0
 10
166.5325704623677
 20
170.1670380651411
 30
0.0
 10
166.8029671970404
 20
170.1670380651411
 30
0.0
 10
167.3498952491713
 20
170.1670380651411
 30
0.0
 10
167.6511195671549
 20
170.1670380651411
 30
0.0
 10
167.4434678017451
 20
170.1670380651411
 30
0.0
 10
166.8395299699649
 20
170.1670380651411
 30
0.0
 10
166.5325704623677
 20
170.1670380651411
 30
0.0
  0
SPLINE
  5
1C6
330
1F
100
AcDbEntity
  8
0
  6
Continuous
 62
     7
370
    25
100
AcDbSpline
210
0.0
220
0.0
230
1.0
 70
     8
 71
     3
 72
     9
 73
     5
 74
     0
 42
0.00000001
 43
0.00000001
 40
0.0
 40
0.0
 40
0.0
 40
0.0
 40
0.5841917497409264
 40
1.0
 40
1.0
 40
1.0
 40
1.0
 10
166.1181135547903
 20
169.5961719234088
 30
0.0
 10
166.1442815186109
 20
169.7872541454753
 30
0.0
 10
166.1890749684196
 20
170.1143423355281
 30
0.0
 10
166.4316893859336
 20
170.1515618739814
 30
0.0
 10
166.5325704623677
 20
170.1670380651411
 30
0.0
  0
LINE
  5
1C7
330
1F
100
AcDbEntity
  8
0
  6
Continuous
 62
     7
370
    25
100
AcDbLine
 10
166.1181135548
 20
169.5961719234
 30
0.0
 11
166.1181135548
 21
168.8693450493
 31
0.0
  0
LINE
  5
1C8
330
1F
100
AcDbEntity
  8
0
  6
Continuous
 62
     7
370
    25
100
AcDbLine
 10
167.6181135548
 20
137.7312482175
 30
0.0
 11
167.6181135548
 21
170.1028279127
 31
0.0
  0
SPLINE
  5
1C9
330
1F
100
AcDbEntity
  8
0
  6
Continuous
 62
     7
370
    25
100
AcDbSpline
210
0.0
220
0.0
230
1.0
 70
     8
 71
     3
 72
     9
 73
     5
 74
     0
 42
0.00000001
 43
0.00000001
 40
0.0
 40
0.0
 40
0.0
 40
0.0
 40
0.4167058089676245
 40
1.0
 40
1.0
 40
1.0
 40
1.0
 10
159.3212594126252
 20
140.2289398289389
 30
0.0
 10
159.3175200330557
 20
140.1316448921262
 30
0.0
 10
159.3085463650891
 20
139.8981589777979
 30
0.0
 10
159.2995572370378
 20
139.8358958661545
 30
0.0
 10
159.294313930863
 20
139.7995781548173
 30
0.0
  0
LINE
  5
1CA
330
1F
100
AcDbEntity
  8
0
  6
Continuous
 62
     7
370
    25
100
AcDbLine
 10
159.2904472301
 20
139.8181368884
 30
0.0
 11
159.2872310005
 21
139.8335736008
 31
0.0
  0
LINE
  5
1CB
330
1F
100
AcDbEntity
  8
0
  6
Continuous
 62
     7
370
    25
100
AcDbLine
 10
158.8878898582
 20
168.4031436608
 30
0.0
 11
158.8846539592
 21
168.3988197644
 31
0.0
  0
LINE
  5
1CC
330
1F
100
AcDbEntity
  8
0
  6
Continuous
 62
     7
370
    25
100
AcDbLine
 10
159.2536566472
 20
156.9385466132
 30
0.0
 11
166.5325704624
 21
156.9385466132
 31
0.0
  0
LINE
  5
1CD
330
1F
100
AcDbEntity
  8
0
  6
Continuous
 62
     7
370
    25
100
AcDbLine
 10
166.5325704624
 20
167.1455295171
 30
0.0
 11
159.2536566472
 21
167.1455295171
 31
0.0
  0
SPLINE
  5
1CE
330
1F
100
AcDbEntity
  8
0
  6
Continuous
 62
     7
370
    25
100
AcDbSpline
210
0.0
220
0.0
230
1.0
 70
     8
 71
     3
 72
    11
 73
     7
 74
     0
 42
0.00000001
 43
0.00000001
 40
0.0
 40
0.0
 40
0.0
 40
0.0
 40
0.2328716322111453
 40
0.4710265024313188
 40
0.731142121256027
 40
1.0
 40
1.0
 40
1.0
 40
1.0
 10
159.2536566472129
 20
156.9385466132035
 30
0.0
 10
158.9832599125402
 20
157.7126489891971
 30
0.0
 10
158.4363318604094
 20
159.2784160653578
 30
0.0
 10
158.1351075424257
 20
161.8138550326525
 30
0.0
 10
158.3427593078355
 20
164.4873611131217
 30
0.0
 10
158.9466971396157
 20
166.249764397217
 30
0.0
 10
159.2536566472129
 20
167.1455295170787
 30
0.0
  0
LINE
  5
1CF
330
1F
100
AcDbEntity
  8
0
  6
Continuous
 62
     7
370
    25
100
AcDbLine
 10
175.3681135548
 20
148.6295380651
 30
0.0
 11
175.3681135548
 21
164.4920380651
 31
0.0
  0
LINE
  5
1D0
330
1F
100
AcDbEntity
  8
0
  6
Continuous
 62
     7
370
    25
100
AcDbLine
 10
175.3681135548
 20
143.3420380651
 30
0.0
 11
175.3681135548
 21
148.6295380651
 31
0.0
  0
SPLINE
  5
1D1
330
1F
100
AcDbEntity
  8
0
  6
Continuous
 62
     7
370
    25
100
AcDbSpline
210
0.0
220
0.0
230
1.0
 70
     8
 71
     3
 72
     9
 73
     5
 74
     0
 42
0.00000001
 43
0.00000001
 40
0.0
 40
0.0
 40
0.0
 40
0.0
 40
0.2659701885634412
 40
1.0
 40
1.0
 40
1.0
 40
1.0
 10
159.1075883222637
 20
168.3965981365295
 30
0.0
 10
159.1101058546955
 20
168.4425259129957
 30
0.0
 10
159.1195713231581
 20
168.6152060795748
 30
0.0
 10
159.1297060363903
 20
168.5582377149409
 30
0.0
 10
159.1371452180331
 20
168.5164212369909
 30
0.0
  0
LINE
  5
1D2
330
1F
100
AcDbEntity
  8
0
  6
Continuous
 62
     7
370
    25
100
AcDbLine
 10
166.1181135548
 20
154.6438649392
 30
0.0
 11
159.6681135548
 21
154.6438649392
 31
0.0
  0
SPLINE
  5
1D3
330
1F
100
AcDbEntity
  8
0
  6
Continuous
 62
     7
370
    25
100
AcDbSpline
210
0.0
220
0.0
230
1.0
 70
     8
 71
     3
 72
     9
 73
     5
 74
     0
 42
0.00000001
 43
0.00000001
 40
0.0
 40
0.0
 40
0.0
 40
0.0
 40
0.5841917497409203
 40
1.0
 40
1.0
 40
1.0
 40
1.0
 10
159.6681135547903
 20
154.6438649392123
 30
0.0
 10
159.6419455909697
 20
155.1242230647786
 30
0.0
 10
159.597152141161
 20
155.946484121665
 30
0.0
 10
159.354537723647
 20
156.6471881127294
 30
0.0
 10
159.2536566472129
 20
156.9385466132035
 30
0.0
  0
LINE
  5
1D4
330
1F
100
AcDbEntity
  8
0
  6
Continuous
 62
     7
370
    25
100
AcDbLine
 10
159.6681135548
 20
153.1902111911
 30
0.0
 11
166.1181135548
 21
153.1902111911
 31
0.0
  0
LINE
  5
1D5
330
1F
100
AcDbEntity
  8
0
  6
Continuous
 62
     7
370
    25
100
AcDbLine
 10
159.6681135548
 20
154.6438649392
 30
0.0
 11
159.6681135548
 21
153.1902111911
 31
0.0
  0
LINE
  5
1D6
330
1F
100
AcDbEntity
  8
0
  6
Continuous
 62
     7
370
    25
100
AcDbLine
 10
166.5325704624
 20
150.8955295171
 30
0.0
 11
159.2536566472
 21
150.8955295171
 31
0.0
  0
SPLINE
  5
1D7
330
1F
100
AcDbEntity
  8
0
  6
Continuous
 62
     7
370
    25
100
AcDbSpline
210
0.0
220
0.0
230
1.0
 70
     8
 71
     3
 72
     9
 73
     5
 74
     0
 42
0.00000001
 43
0.00000001
 40
0.0
 40
0.0
 40
0.0
 40
0.0
 40
0.5850553834536154
 40
1.0
 40
1.0
 40
1.0
 40
1.0
 10
159.253656647213
 20
150.8955295170787
 30
0.0
 10
159.3902107812373
 20
151.3137744596812
 30
0.0
 10
159.6236145544292
 20
152.0286553998984
 30
0.0
 10
159.6550638421545
 20
152.8495750158241
 30
0.0
 10
159.6681135547903
 20
153.1902111910699
 30
0.0
  0
LINE
  5
1D8
330
1F
100
AcDbEntity
  8
0
  6
Continuous
 62
     7
370
    25
100
AcDbLine
 10
159.2536566472
 20
140.6885466132
 30
0.0
 11
166.5325704624
 21
140.6885466132
 31
0.0
  0
SPLINE
  5
1D9
330
1F
100
AcDbEntity
  8
0
  6
Continuous
 62
     7
370
    25
100
AcDbSpline
210
0.0
220
0.0
230
1.0
 70
     8
 71
     3
 72
    11
 73
     7
 74
     0
 42
0.00000001
 43
0.00000001
 40
0.0
 40
0.0
 40
0.0
 40
0.0
 40
0.2379053903768115
 40
0.4814905141302429
 40
0.7366519444347656
 40
1.0
 40
1.0
 40
1.0
 40
1.0
 10
159.2536566472131
 20
140.6885466132033
 30
0.0
 10
158.97807121224
 20
141.4796298345141
 30
0.0
 10
158.4203210386865
 20
143.0806825317459
 30
0.0
 10
158.1337578140302
 20
145.6377543325299
 30
0.0
 10
158.3586382202282
 20
148.2914871983936
 30
0.0
 10
158.9521933371464
 20
150.0184266627957
 30
0.0
 10
159.2536566472129
 20
150.8955295170787
 30
0.0
  0
LINE
  5
1DA
330
1F
100
AcDbEntity
  8
0
  6
Continuous
 62
     7
370
    25
100
AcDbLine
 10
159.6681135548
 20
168.8693450493
 30
0.0
 11
166.1181135548
 21
168.8693450493
 31
0.0
  0
SPLINE
  5
1DB
330
1F
100
AcDbEntity
  8
0
  6
Continuous
 62
     7
370
    25
100
AcDbSpline
210
0.0
220
0.0
230
1.0
 70
     8
 71
     3
 72
     9
 73
     5
 74
     0
 42
0.00000001
 43
0.00000001
 40
0.0
 40
0.0
 40
0.0
 40
0.0
 40
0.5850553834536188
 40
1.0
 40
1.0
 40
1.0
 40
1.0
 10
159.2536566472129
 20
167.1455295170787
 30
0.0
 10
159.3902107812373
 20
167.5320760426425
 30
0.0
 10
159.6236145544292
 20
168.1927767839672
 30
0.0
 10
159.6550638421545
 20
168.6709356160929
 30
0.0
 10
159.6681135547903
 20
168.8693450493376
 30
0.0
  0
LINE
  5
1DC
330
1F
100
AcDbEntity
  8
0
  6
Continuous
 62
     7
370
    25
100
AcDbLine
 10
166.1181135548
 20
138.9647310809
 30
0.0
 11
159.6681135548
 21
138.9647310809
 31
0.0
  0
SPLINE
  5
1DD
330
1F
100
AcDbEntity
  8
0
  6
Continuous
 62
     7
370
    25
100
AcDbSpline
210
0.0
220
0.0
230
1.0
 70
     8
 71
     3
 72
     9
 73
     5
 74
     0
 42
0.00000001
 43
0.00000001
 40
0.0
 40
0.0
 40
0.0
 40
0.0
 40
0.5841917497409932
 40
1.0
 40
1.0
 40
1.0
 40
1.0
 10
159.6681135547903
 20
138.9647310809447
 30
0.0
 10
159.6419455909697
 20
139.2540069844443
 30
0.0
 10
159.597152141161
 20
139.7491798512778
 30
0.0
 10
159.3545377236471
 20
140.412664303889
 30
0.0
 10
159.2536566472131
 20
140.6885466132033
 30
0.0
  0
LINE
  5
1DE
330
1F
100
AcDbEntity
  8
0
  6
Continuous
 62
     7
370
    25
100
AcDbLine
 10
166.1181135548
 20
169.5961719234
 30
0.0
 11
159.6681135548
 21
169.5961719234
 31
0.0
  0
LINE
  5
1DF
330
1F
100
AcDbEntity
  8
0
  6
Continuous
 62
     7
370
    25
100
AcDbLine
 10
159.6681135548
 20
169.5961719234
 30
0.0
 11
159.6681135548
 21
168.8693450493
 31
0.0
  0
LINE
  5
1E0
330
1F
100
AcDbEntity
  8
0
  6
Continuous
 62
     7
370
    25
100
AcDbLine
 10
159.6681135548
 20
138.2379042069
 30
0.0
 11
166.1181135548
 21
138.2379042069
 31
0.0
  0
LINE
  5
1E1
330
1F
100
AcDbEntity
  8
0
  6
Continuous
 62
     7
370
    25
100
AcDbLine
 10
159.6681135548
 20
138.9647310809
 30
0.0
 11
159.6681135548
 21
138.2379042069
 31
0.0
  0
LINE
  5
1E2
330
1F
100
AcDbEntity
  8
0
  6
Continuous
 62
     7
370
    25
100
AcDbLine
 10
159.2536566472
 20
170.1670380651
 30
0.0
 11
166.5325704624
 21
170.1670380651
 31
0.0
  0
SPLINE
  5
1E3
330
1F
100
AcDbEntity
  8
0
  6
Continuous
 62
     7
370
    25
100
AcDbSpline
210
0.0
220
0.0
230
1.0
 70
     8
 71
     3
 72
     9
 73
     5
 74
     0
 42
0.00000001
 43
0.00000001
 40
0.0
 40
0.0
 40
0.0
 40
0.0
 40
0.5841917497409259
 40
1.0
 40
1.0
 40
1.0
 40
1.0
 10
159.6681135547903
 20
169.5961719234088
 30
0.0
 10
159.6419455909697
 20
169.7872541454753
 30
0.0
 10
159.597152141161
 20
170.1143423355281
 30
0.0
 10
159.354537723647
 20
170.1515618739814
 30
0.0
 10
159.2536566472129
 20
170.1670380651411
 30
0.0
  0
LINE
  5
1E4
330
1F
100
AcDbEntity
  8
0
  6
Continuous
 62
     7
370
    25
100
AcDbLine
 10
166.5325704624
 20
137.6670380651
 30
0.0
 11
159.2536566472
 21
137.6670380651
 31
0.0
  0
SPLINE
  5
1E5
330
1F
100
AcDbEntity
  8
0
  6
Continuous
 62
     7
370
    25
100
AcDbSpline
210
0.0
220
0.0
230
1.0
 70
     8
 71
     3
 72
     9
 73
     5
 74
     0
 42
0.00000001
 43
0.00000001
 40
0.0
 40
0.0
 40
0.0
 40
0.0
 40
0.5850553834536137
 40
1.0
 40
1.0
 40
1.0
 40
1.0
 10
159.2536566472129
 20
137.6670380651411
 30
0.0
 10
159.3902107812373
 20
137.6987364821798
 30
0.0
 10
159.6236145544292
 20
137.7529166810723
 30
0.0
 10
159.6550638421545
 20
138.0956774648723
 30
0.0
 10
159.6681135547903
 20
138.2379042068734
 30
0.0
  0
LINE
  5
1E6
330
1F
100
AcDbEntity
  8
0
  6
Continuous
 62
     7
370
    25
100
AcDbLine
 10
140.9809613689
 20
170.1157074495
 30
0.0
 11
140.9585553424
 21
170.105990714
 31
0.0
  0
LINE
  5
1E7
330
1F
100
AcDbEntity
  8
0
  6
Continuous
 62
     7
370
    25
100
AcDbLine
 10
140.9650647038
 20
137.7207905895
 30
0.0
 11
140.9809613689
 21
137.7183686808
 31
0.0
  0
LINE
  5
1E8
330
1F
100
AcDbEntity
  8
0
  6
Continuous
 62
     7
370
    25
100
AcDbLine
 10
158.1681135548
 20
137.7170380651
 30
0.0
 11
158.1681135548
 21
170.1170380651
 31
0.0
  0
ARC
  5
1E9
330
1F
100
AcDbEntity
  8
0
  6
Continuous
 62
     7
370
    25
100
AcDbCircle
 10
141.1178215807
 20
184.9822909346
 30
0.0
 40
17.29003179958391
100
AcDbArc
 50
243.6488590876
 51
260.280235246
  0
SPLINE
  5
1EA
330
1F
100
AcDbEntity
  8
0
  6
Continuous
 62
     7
370
    25
100
AcDbSpline
210
0.0
220
0.0
230
1.0
 70
     8
 71
     3
 72
    11
 73
     7
 74
     0
 42
0.00000001
 43
0.00000001
 40
0.0
 40
0.0
 40
0.0
 40
0.0
 40
0.1122272272845325
 40
0.4549366928136498
 40
0.8008537014399209
 40
1.0
 40
1.0
 40
1.0
 40
1.0
 10
158.7682473117812
 20
139.503737794352
 30
0.0
 10
158.7622975076085
 20
139.479613580371
 30
0.0
 10
158.7381787237915
 20
139.3818210001678
 30
0.0
 10
158.693881156085
 20
140.0507101252664
 30
0.0
 10
158.643145763119
 20
141.186425416449
 30
0.0
 10
158.6139479955097
 20
142.3681864874814
 30
0.0
 10
158.6032801936801
 20
142.7999589806498
 30
0.0
  0
SPLINE
  5
1EB
330
1F
100
AcDbEntity
  8
0
  6
Continuous
 62
     7
370
    25
100
AcDbSpline
210
0.0
220
0.0
230
1.0
 70
     8
 71
     3
 72
    12
 73
     8
 74
     0
 42
0.00000001
 43
0.00000001
 40
0.0
 40
0.0
 40
0.0
 40
0.0
 40
0.0905984773349927
 40
0.3401453438333809
 40
0.585624171338092
 40
0.8367447224389002
 40
1.0
 40
1.0
 40
1.0
 40
1.0
 10
158.4882452580693
 20
148.3289030201535
 30
0.0
 10
158.4812605622654
 20
148.7001395180952
 30
0.0
 10
158.4550370337287
 20
150.0939197443231
 30
0.0
 10
158.4103929837769
 20
152.7933803225356
 30
0.0
 10
158.3573780090392
 20
156.1952321006203
 30
0.0
 10
158.305852758995
 20
159.1680123886135
 30
0.0
 10
158.2742374485373
 20
160.7830616044914
 30
0.0
 10
158.2617816875422
 20
161.4193567012986
 30
0.0
  0
SPLINE
  5
1EC
330
1F
100
AcDbEntity
  8
0
  6
Continuous
 62
     7
370
    25
100
AcDbSpline
210
0.0
220
0.0
230
1.0
 70
     8
 71
     3
 72
    10
 73
     6
 74
     0
 42
0.00000001
 43
0.00000001
 40
0.0
 40
0.0
 40
0.0
 40
0.0
 40
0.0933023780258963
 40
0.7682512449043578
 40
1.0
 40
1.0
 40
1.0
 40
1.0
 10
158.2494018890648
 20
162.0627380628231
 30
0.0
 10
158.2467954027212
 20
162.198772363559
 30
0.0
 10
158.2253336091351
 20
163.3188780146821
 30
0.0
 10
158.1999305325971
 20
164.4931337621824
 30
0.0
 10
158.1753385432804
 20
165.4127431579289
 30
0.0
 10
158.1690529164393
 20
165.6477921174425
 30
0.0
  0
LINE
  5
1ED
330
1F
100
AcDbEntity
  8
0
  6
Continuous
 62
     7
370
    25
100
AcDbLine
 10
158.168642034
 20
165.6477098075
 30
0.0
 11
158.6378030211
 21
164.990951753
 31
0.0
  0
SPLINE
  5
1EE
330
1F
100
AcDbEntity
  8
0
  6
Continuous
 62
     7
370
    25
100
AcDbSpline
210
0.0
220
0.0
230
1.0
 70
     8
 71
     3
 72
    27
 73
    23
 74
     0
 42
0.00000001
 43
0.00000001
 40
0.0
 40
0.0
 40
0.0
 40
0.0
 40
0.0515273186444122
 40
0.104094872968333
 40
0.1569925155208056
 40
0.209557349474953
 40
0.2611509875415922
 40
0.3127501685626619
 40
0.3653178825672147
 40
0.4182155247654263
 40
0.4707801983567427
 40
0.5223735294851815
 40
0.5739730185383074
 40
0.6265408921855851
 40
0.6794385339901735
 40
0.7320030471807648
 40
0.7835960715199366
 40
0.8351958685713281
 40
0.8877639018234238
 40
0.9406615431950259
 40
0.9932258959470008
 40
1.0
 40
1.0
 40
1.0
 40
1.0
 10
166.7367461506907
 20
140.2291663386586
 30
0.0
 10
166.7248395517458
 20
140.2611555275608
 30
0.0
 10
166.700785982935
 20
140.3257797044585
 30
0.0
 10
166.6624604962087
 20
140.8469252897667
 30
0.0
 10
166.6236064860135
 20
141.6746864858279
 30
0.0
 10
166.5852687851134
 20
142.808731706019
 30
0.0
 10
166.5492890332253
 20
144.2024194003792
 30
0.0
 10
166.5132934249096
 20
145.8313790227658
 30
0.0
 10
166.4749513222957
 20
147.6731042276493
 30
0.0
 10
166.4360970146744
 20
149.6827802985746
 30
0.0
 10
166.3977596426315
 20
151.7853964601878
 30
0.0
 10
166.3617807492684
 20
153.922232678414
 30
0.0
 10
166.3257842573479
 20
156.0589925167784
 30
0.0
 10
166.2874419422576
 20
158.1613422858836
 30
0.0
 10
166.2485874954769
 20
160.1704048169068
 30
0.0
 10
166.2102508911106
 20
162.0110442098244
 30
0.0
 10
166.1742709804454
 20
163.6393103397189
 30
0.0
 10
166.1382806939519
 20
165.0303391782997
 30
0.0
 10
166.0999111475458
 20
166.1686108804666
 30
0.0
 10
166.0611581918524
 20
166.973867035165
 30
0.0
 10
166.0334941803101
 20
167.4005539743
 30
0.0
 10
166.0196895027844
 20
167.456759508646
 30
0.0
 10
166.0181135547903
 20
167.4631759569077
 30
0.0
  0
SPLINE
  5
1EF
330
1F
100
AcDbEntity
  8
0
  6
Continuous
 62
     7
370
    25
100
AcDbSpline
210
0.0
220
0.0
230
1.0
 70
     8
 71
     3
 72
    50
 73
    46
 74
     0
 42
0.00000001
 43
0.00000001
 40
0.0
 40
0.0
 40
0.0
 40
0.0
 40
0.0284475187430945
 40
0.0522203319930536
 40
0.0761400917270586
 40
0.099907043807384
 40
0.1232327519742958
 40
0.1465698242851818
 40
0.1703427091924241
 40
0.1942624681966602
 40
0.2180293472143891
 40
0.2413549187423394
 40
0.2646921298529429
 40
0.2884650864003172
 40
0.3123848446569858
 40
0.3361516505949936
 40
0.3594770855513481
 40
0.3828144354463704
 40
0.4065874636167252
 40
0.4305072211080275
 40
0.4542739539491897
 40
0.4775992524013126
 40
0.5009367410654557
 40
0.524709840841639
 40
0.5486295975497764
 40
0.5723962572769681
 40
0.5957214192922247
 40
0.6190590467101896
 40
0.6428322180750499
 40
0.6667519739822224
 40
0.6905185605783206
 40
0.7138435862240774
 40
0.7371813523805644
 40
0.7609545953169489
 40
0.7848743504053571
 40
0.8086408638532381
 40
0.8319657531968614
 40
0.8553036580765708
 40
0.8790769725673265
 40
0.9029967268191721
 40
0.9267631671017127
 40
0.9500879202105702
 40
0.9734259637982005
 40
0.997199349826175
 40
1.0
 40
1.0
 40
1.0
 40
1.0
 10
159.2367212762657
 20
140.2301244438158
 30
0.0
 10
159.8705197395388
 20
140.2513307440568
 30
0.0
 10
161.0339662414184
 20
140.2902585693246
 30
0.0
 10
160.579760983491
 20
140.8521925805136
 30
0.0
 10
160.645297836479
 20
141.682379286772
 30
0.0
 10
160.5792206506672
 20
142.8185886601145
 30
0.0
 10
160.5505536264346
 20
144.2141852249797
 30
0.0
 10
160.5125817936273
 20
145.8448800703383
 30
0.0
 10
160.4747640043358
 20
147.6881685603092
 30
0.0
 10
160.4357655739013
 20
149.698869068009
 30
0.0
 10
160.3974746177521
 20
151.8018965787797
 30
0.0
 10
160.3615134941706
 20
153.9388581740241
 30
0.0
 10
160.3254916360843
 20
156.0754875012269
 30
0.0
 10
160.2871406372282
 20
158.177429425678
 30
0.0
 10
160.2482865811099
 20
160.1854240842705
 30
0.0
 10
160.2099575059903
 20
162.024629036207
 30
0.0
 10
160.1740073201492
 20
163.6506708331721
 30
0.0
 10
160.1379818929988
 20
165.0416104331365
 30
0.0
 10
160.0996313839652
 20
166.1707736974767
 30
0.0
 10
160.0607771310858
 20
166.9997041769983
 30
0.0
 10
160.0224483646701
 20
167.4976083549107
 30
0.0
 10
159.9864990273565
 20
167.6601331349862
 30
0.0
 10
159.9504727292963
 20
167.4905127042217
 30
0.0
 10
159.9121219730595
 20
166.9853798086164
 30
0.0
 10
159.8732677231451
 20
166.1496247103439
 30
0.0
 10
159.8349392125207
 20
165.0145444732601
 30
0.0
 10
159.7989907372478
 20
163.6183419617029
 30
0.0
 10
159.7629635646916
 20
161.9875285560215
 30
0.0
 10
159.7246125623294
 20
160.1440180705007
 30
0.0
 10
159.6857583151661
 20
158.1331971073854
 30
0.0
 10
159.6474300605643
 20
156.0301163927742
 30
0.0
 10
159.6114824468955
 20
153.893139842589
 30
0.0
 10
159.5754543999779
 20
151.7565265725565
 30
0.0
 10
159.5371031515887
 20
149.6546370280712
 30
0.0
 10
159.4982489070882
 20
147.646772330879
 30
0.0
 10
159.4599209092217
 20
145.8077609444693
 30
0.0
 10
159.4239741547086
 20
144.1819454920207
 30
0.0
 10
159.387945241161
 20
142.7912109578104
 30
0.0
 10
159.3495937178931
 20
141.6624484156187
 30
0.0
 10
159.3107395848425
 20
140.8333348740146
 30
0.0
 10
159.272411442659
 20
140.3375807493506
 30
0.0
 10
159.2364670155378
 20
140.1687108213758
 30
0.0
 10
159.2004317387655
 20
140.3636088981342
 30
0.0
 10
159.17349746766
 20
140.6520028511929
 30
0.0
 10
159.1590803858629
 20
140.967288056291
 30
0.0
 10
159.1575609628315
 20
141.0005161123437
 30
0.0
  0
SPLINE
  5
1F0
330
1F
100
AcDbEntity
  8
0
  6
Continuous
 62
     7
370
    25
100
AcDbSpline
210
0.0
220
0.0
230
1.0
 70
     8
 71
     3
 72
    12
 73
     8
 74
     0
 42
0.00000001
 43
0.00000001
 40
0.0
 40
0.0
 40
0.0
 40
0.0
 40
0.2342640849254553
 40
0.4754567751216083
 40
0.7167925825372544
 40
0.962628769256193
 40
1.0
 40
1.0
 40
1.0
 40
1.0
 10
158.9338990041921
 20
149.8232977070847
 30
0.0
 10
158.9216549203775
 20
150.4871418317558
 30
0.0
 10
158.8968046211665
 20
151.834463965236
 30
0.0
 10
158.8614560383488
 20
153.9462578819436
 30
0.0
 10
158.825412321092
 20
156.0719463546107
 30
0.0
 10
158.7980385050509
 20
157.5984118000694
 30
0.0
 10
158.7831793754174
 20
158.3619912706475
 30
0.0
 10
158.7812186076976
 20
158.4627510065394
 30
0.0
  0
SPLINE
  5
1F1
330
1F
100
AcDbEntity
  8
0
  6
Continuous
 62
     7
370
    25
100
AcDbSpline
210
0.0
220
0.0
230
1.0
 70
     8
 71
     3
 72
    27
 73
    23
 74
     0
 42
0.00000001
 43
0.00000001
 40
0.0
 40
0.0
 40
0.0
 40
0.0
 40
0.0408580342814571
 40
0.0916352623283566
 40
0.1427313360531961
 40
0.1935059353049962
 40
0.2433424147803553
 40
0.2931842506169269
 40
0.3439616329690609
 40
0.3950577063514252
 40
0.4458321506384861
 40
0.4956683335085438
 40
0.5455104670078834
 40
0.5962880036286059
 40
0.6473840766304411
 40
0.6981583659161302
 40
0.747994252324865
 40
0.797836683454306
 40
0.8486143743069708
 40
0.8997104468902248
 40
0.9504845811379101
 40
1.0
 40
1.0
 40
1.0
 40
1.0
 10
167.1052889890986
 20
140.2586829250714
 30
0.0
 10
167.095506438789
 20
140.2866918704314
 30
0.0
 10
167.073566407174
 20
140.3495095536789
 30
0.0
 10
167.0374506412186
 20
140.84895723645
 30
0.0
 10
166.9986090750172
 20
141.6741450648088
 30
0.0
 10
166.9602680658645
 20
142.8088747376413
 30
0.0
 10
166.9242891850885
 20
144.2023830412627
 30
0.0
 10
166.8882933405695
 20
145.8313909247718
 30
0.0
 10
166.8499512997239
 20
147.6731032219896
 30
0.0
 10
166.8110969739682
 20
149.682783051633
 30
0.0
 10
166.7727596074227
 20
151.7853982141037
 30
0.0
 10
166.7367807130981
 20
153.9222352777811
 30
0.0
 10
166.700784226927
 20
156.0589930628119
 30
0.0
 10
166.6624418727446
 20
158.1613505069938
 30
0.0
 10
166.6235875650819
 20
160.1703840860607
 30
0.0
 10
166.5852504448856
 20
162.0111297754626
 30
0.0
 10
166.5492724267534
 20
163.6390059541706
 30
0.0
 10
166.513275066991
 20
165.0314926985591
 30
0.0
 10
166.4749324404855
 20
166.1642105132601
 30
0.0
 10
166.4360782242872
 20
166.9903548014423
 30
0.0
 10
166.3978219292904
 20
167.5092369023138
 30
0.0
 10
166.3738365380992
 20
167.572736624612
 30
0.0
 10
166.3619943605785
 20
167.6040879992042
 30
0.0
  0
SPLINE
  5
1F2
330
1F
100
AcDbEntity
  8
0
  6
Continuous
 62
     7
370
    25
100
AcDbSpline
210
0.0
220
0.0
230
1.0
 70
     8
 71
     3
 72
    11
 73
     7
 74
     0
 42
0.00000001
 43
0.00000001
 40
0.0
 40
0.0
 40
0.0
 40
0.0
 40
0.1812150565385786
 40
0.503188351285734
 40
0.8253527738498613
 40
0.9999999999999999
 40
0.9999999999999999
 40
0.9999999999999999
 40
0.9999999999999999
 10
159.2935951446796
 20
150.6662594040507
 30
0.0
 10
159.2865179864479
 20
151.0517264206156
 30
0.0
 10
159.2668665090793
 20
152.1220707741435
 30
0.0
 10
159.2364486110747
 20
153.9429218633908
 30
0.0
 10
159.2062049419254
 20
155.7492990162624
 30
0.0
 10
159.1867981182176
 20
156.8051052465069
 30
0.0
 10
159.1799759192258
 20
157.1762592440861
 30
0.0
  0
ELLIPSE
  5
1F3
330
1F
100
AcDbEntity
  8
0
  6
Continuous
 62
     7
370
    25
100
AcDbEllipse
 10
166.5485522466
 20
153.9170380651
 30
0.0
 11
-7.401257687792878
 21
14.35777723298276
 31
0.0
210
0.0
220
0.0
230
1.0
 40
0.2737224856
 41
0.1519163654195811
 42
0.4881424368787597
  0
ELLIPSE
  5
1F4
330
1F
100
AcDbEntity
  8
0
  6
Continuous
 62
     7
370
    25
100
AcDbEllipse
 10
151.1099767984
 20
153.9170380651
 30
0.0
 11
7.392868934794819
 21
14.35826292490981
 31
0.0
210
0.0
220
0.0
230
1.0
 40
0.2735670702
 41
6.028155812837217
 42
6.131028995319415
  0
LINE
  5
1F5
330
1F
100
AcDbEntity
  8
0
  6
Continuous
 62
     7
370
    25
100
AcDbLine
 10
158.6377911411
 20
167.8028716091
 30
0.0
 11
159.0127911527
 21
167.8028716089
 31
0.0
  0
LINE
  5
1F6
330
1F
100
AcDbEntity
  8
0
  6
Continuous
 62
     7
370
    25
100
AcDbLine
 10
158.6377911411
 20
167.8028716091
 30
0.0
 11
158.6378030211
 21
164.990951753
 31
0.0
  0
LINE
  5
1F7
330
1F
100
AcDbEntity
  8
0
  6
Continuous
 62
     7
370
    25
100
AcDbLine
 10
159.0127911527
 20
167.8028716088
 30
0.0
 11
159.0127973668
 21
166.3320287847
 31
0.0
  0
SPLINE
  5
1F8
330
1F
100
AcDbEntity
  8
0
  6
Continuous
 62
     7
370
    25
100
AcDbSpline
210
0.0
220
0.0
230
1.0
 70
     8
 71
     3
 72
    16
 73
    12
 74
     0
 42
0.00000001
 43
0.00000001
 40
0.0
 40
0.0
 40
0.0
 40
0.0
 40
0.2500000000000024
 40
0.2500000000000024
 40
0.5000000000000049
 40
0.5000000000000049
 40
0.6250000000000037
 40
0.6250000000000037
 40
0.7500000000000024
 40
0.7500000000000024
 40
1.0
 40
1.0
 40
1.0
 40
1.0
 10
133.4432744582141
 20
169.4888559993217
 30
0.0
 10
133.6737971341971
 20
169.8025839125305
 30
0.0
 10
133.8644475257727
 20
170.083649392622
 30
0.0
 10
134.190277932994
 20
170.572918169313
 30
0.0
 10
134.3251190090286
 20
170.7812654451709
 30
0.0
 10
134.4930748175727
 20
171.0335646296155
 30
0.0
 10
134.5433509505167
 20
171.1077163576529
 30
0.0
 10
134.6316858830554
 20
171.2330639637601
 30
0.0
 10
134.6699463995097
 20
171.2845777126666
 30
0.0
 10
134.7682633845035
 20
171.4055832604644
 30
0.0
 10
134.812030845302
 20
171.4416948152482
 30
0.0
 10
134.8349754854914
 20
171.4313888485212
 30
0.0
  0
ARC
  5
1F9
330
1F
100
AcDbEntity
  8
0
  6
Continuous
 62
     7
370
    25
100
AcDbCircle
 10
140.9753225452
 20
185.1021805389
 30
0.0
 40
14.98647415023411
100
AcDbArc
 50
245.8123806786
 51
270.02155816
  0
LINE
  5
1FA
330
1F
100
AcDbEntity
  8
0
  6
Continuous
 62
     7
370
    25
100
AcDbLine
 10
140.9809613689
 20
137.7183686808
 30
0.0
 11
140.4297746723
 21
137.7084325263
 31
0.0
  0
ARC
  5
1FB
330
1F
100
AcDbEntity
  8
0
  6
Continuous
 62
     7
370
    25
100
AcDbCircle
 10
126.9681135548
 20
153.9170380651
 30
0.0
 40
19.20000000000002
100
AcDbArc
 50
65.8119747904
 51
224.7453550583
  0
LINE
  5
1FC
330
1F
100
AcDbEntity
  8
0
  6
Continuous
 62
     7
370
    25
100
AcDbLine
 10
134.8349754855
 20
171.4313888485
 30
0.0
 11
134.8349962197
 21
171.4313795354
 31
0.0
  0
ARC
  5
1FD
330
1F
100
AcDbEntity
  8
0
  6
Continuous
 62
     7
370
    25
100
AcDbCircle
 10
126.9681135548
 20
153.9170380651
 30
0.0
 40
25.37500000000005
100
AcDbArc
 50
39.6743748818
 51
239.5218035176
  0
ARC
  5
1FE
330
1F
100
AcDbEntity
  8
0
  6
Continuous
 62
     7
370
    25
100
AcDbCircle
 10
126.9681135548
 20
153.9170380651
 30
0.0
 40
25.37500000000003
100
AcDbArc
 50
300.9882463969
 51
320.3256251182
  0
SPLINE
  5
1FF
330
1F
100
AcDbEntity
  8
0
  6
Continuous
 62
     8
370
    25
100
AcDbSpline
210
0.0
220
0.0
230
1.0
 70
     8
 71
     3
 72
     9
 73
     5
 74
     0
 42
0.00000001
 43
0.00000001
 40
0.0
 40
0.0
 40
0.0
 40
0.0
 40
0.5235409429433169
 40
1.0
 40
1.0
 40
1.0
 40
1.0
 10
112.4760766886958
 20
154.0457985766087
 30
0.0
 10
112.4412731991324
 20
153.7900571777002
 30
0.0
 10
112.3747960877766
 20
153.301573130071
 30
0.0
 10
112.3270795045875
 20
152.8098626751682
 30
0.0
 10
112.3043445063553
 20
152.5755827754804
 30
0.0
  0
LWPOLYLINE
  5
200
330
1F
100
AcDbEntity
  8
0
  6
Continuous
 62
     8
370
    25
100
AcDbPolyline
 90
        3
 70
   128
 43
0.0
 10
112.4657708587
 20
151.3660223215
 10
112.373240909
 20
151.9637543039
 10
112.3043445064
 20
152.5755827755
  0
LINE
  5
201
330
1F
100
AcDbEntity
  8
0
  6
Continuous
 62
     8
370
    25
100
AcDbLine
 10
112.2038563435
 20
149.1982766812
 30
0.0
 11
112.7010704898
 21
148.6977615621
 31
0.0
  0
LINE
  5
202
330
1F
100
AcDbEntity
  8
0
  6
Continuous
 62
     8
370
    25
100
AcDbLine
 10
200.7061575119
 20
145.7714467194
 30
0.0
 11
200.7061575119
 21
144.9413800209
 31
0.0
  0
LINE
  5
203
330
1F
100
AcDbEntity
  8
0
  6
Continuous
 62
     8
370
    25
100
AcDbLine
 10
199.7727372981
 20
162.9089890198
 30
0.0
 11
199.7727372981
 21
162.0730354816
 31
0.0
  0
LINE
  5
204
330
1F
100
AcDbEntity
  8
0
  6
Continuous
 62
     8
370
    25
100
AcDbLine
 10
205.076839758
 20
145.0176705633
 30
0.0
 11
205.076839758
 21
162.816405567
 31
0.0
  0
ARC
  5
205
330
1F
100
AcDbEntity
  8
0
  6
Continuous
 62
     8
370
    25
100
AcDbCircle
 10
195.2329117828
 20
163.550534953
 30
0.0
 40
1.997332533166016
100
AcDbArc
 50
21.1743452191
 51
89.423209761
  0
SPLINE
  5
206
330
1F
100
AcDbEntity
  8
0
  6
Continuous
 62
     8
370
    25
100
AcDbSpline
210
0.0
220
0.0
230
1.0
 70
     8
 71
     3
 72
    11
 73
     7
 74
     0
 42
0.00000001
 43
0.00000001
 40
0.0
 40
0.0
 40
0.0
 40
0.0
 40
0.2692084636522379
 40
0.8554909154409206
 40
0.8587671783147026
 40
1.0
 40
1.0
 40
1.0
 40
1.0
 10
198.4993997478834
 20
163.2335560516441
 30
0.0
 10
198.6044118811912
 20
163.1763058217432
 30
0.0
 10
198.9381195396991
 20
162.9943759859472
 30
0.0
 10
199.3082138406124
 20
162.6039949044748
 30
0.0
 10
199.618592440624
 20
162.2298022196788
 30
0.0
 10
199.6800949824921
 20
162.1508170075915
 30
0.0
 10
199.740203158773
 20
162.0736225224935
 30
0.0
  0
SPLINE
  5
207
330
1F
100
AcDbEntity
  8
0
  6
Continuous
 62
     8
370
    25
100
AcDbSpline
210
0.0
220
0.0
230
1.0
 70
     8
 71
     3
 72
     9
 73
     5
 74
     0
 42
0.00000001
 43
0.00000001
 40
0.0
 40
0.0
 40
0.0
 40
0.0
 40
0.3521572839377109
 40
1.0
 40
1.0
 40
1.0
 40
1.0
 10
200.6615511787564
 20
145.7706401023208
 30
0.0
 10
200.4694560986146
 20
145.5773538477482
 30
0.0
 10
199.9239751760169
 20
145.0284904182849
 30
0.0
 10
199.4024680809187
 20
144.7235925194641
 30
0.0
 10
199.0646135079845
 20
144.5260666365704
 30
0.0
  0
ARC
  5
208
330
1F
100
AcDbEntity
  8
0
  6
Continuous
 62
     8
370
    25
100
AcDbCircle
 10
195.3385436571
 20
144.17617817
 30
0.0
 40
1.936020644105896
100
AcDbArc
 50
269.1359208179
 51
335.0540252657
  0
ARC
  5
209
330
1F
100
AcDbEntity
  8
0
  6
Continuous
 62
     8
370
    25
100
AcDbCircle
 10
195.232527469
 20
163.597878064
 30
0.0
 40
1.996884093563986
100
AcDbArc
 50
20.504795554
 51
89.4120526967
  0
LINE
  5
20A
330
1F
100
AcDbEntity
  8
0
  6
Continuous
 62
     8
370
    25
100
AcDbLine
 10
191.226839758
 20
165.8888515275
 30
0.0
 11
191.226839758
 21
165.6631719784
 31
0.0
  0
LINE
  5
20B
330
1F
100
AcDbEntity
  8
0
  6
Continuous
 62
     8
370
    25
100
AcDbLine
 10
191.226839758
 20
142.1709041519
 30
0.0
 11
191.226839758
 21
141.9452246028
 31
0.0
  0
LINE
  5
20C
330
1F
100
AcDbEntity
  8
0
  6
Continuous
 62
     8
370
    25
100
AcDbLine
 10
195.2530183677
 20
142.0155018119
 30
0.0
 11
195.2530183677
 21
142.0320906182
 31
0.0
  0
LINE
  5
20D
330
1F
100
AcDbEntity
  8
0
  6
Continuous
 62
     8
370
    25
100
AcDbLine
 10
195.2530183677
 20
165.5946570217
 30
0.0
 11
195.2530183677
 21
165.8185743184
 31
0.0
  0
ARC
  5
20E
330
1F
100
AcDbEntity
  8
0
  6
Continuous
 62
     8
370
    25
100
AcDbCircle
 10
195.2190557473
 20
144.0319593237
 30
0.0
 40
2.000157068561012
100
AcDbArc
 50
270.9729277565
 51
333.2051785354
  0
LINE
  5
20F
330
1F
100
AcDbEntity
  8
0
  6
Continuous
 62
     8
370
    25
100
AcDbLine
 10
207.1731185443
 20
147.991910294
 30
0.0
 11
207.1731185443
 21
159.8421658363
 31
0.0
  0
SPLINE
  5
210
330
1F
100
AcDbEntity
  8
0
  6
Continuous
 62
     8
370
    25
100
AcDbSpline
210
0.0
220
0.0
230
1.0
 70
     8
 71
     3
 72
    26
 73
    22
 74
     0
 42
0.00000001
 43
0.00000001
 40
0.0
 40
0.0
 40
0.0
 40
0.0
 40
0.0736617533883487
 40
0.1477648694160711
 40
0.2335452408319265
 40
0.3208086389358659
 40
0.3690644887516843
 40
0.4183438473145902
 40
0.4752924750011336
 40
0.4999103728770175
 40
0.527074421235137
 40
0.5552360169236199
 40
0.5867976312786461
 40
0.6244969197050633
 40
0.6635124631041287
 40
0.682356495302581
 40
0.7498763126246181
 40
0.8191348967436347
 40
0.8778143689356526
 40
0.9365139341596886
 40
1.0
 40
1.0
 40
1.0
 40
1.0
 10
138.1987559234596
 20
167.9404525561327
 30
0.0
 10
139.294090002017
 20
167.680232257637
 30
0.0
 10
141.491321124547
 20
167.1582324862778
 30
0.0
 10
144.8307626351449
 20
166.0059546654265
 30
0.0
 10
148.2297948592056
 20
164.4538249418003
 30
0.0
 10
151.0715296034491
 20
162.6285205184296
 30
0.0
 10
153.1937154757346
 20
160.7241415864436
 30
0.0
 10
154.736646419786
 20
158.8579749765476
 30
0.0
 10
155.7048658652588
 20
156.9711386744395
 30
0.0
 10
156.1378223504875
 20
155.2549975635143
 30
0.0
 10
156.2574222689681
 20
153.9483607095355
 30
0.0
 10
156.1401228050773
 20
152.5264110635885
 30
0.0
 10
155.7266574500836
 20
150.9921264894618
 30
0.0
 10
154.9688914846721
 20
149.424083437981
 30
0.0
 10
154.0931504260743
 20
148.1950295314988
 30
0.0
 10
152.805194914377
 20
146.7274956019054
 30
0.0
 10
150.9875719593192
 20
145.1520755126669
 30
0.0
 10
148.4745917193179
 20
143.5613231033884
 30
0.0
 10
145.9381273152062
 20
142.3244824579686
 30
0.0
 10
143.4098044297974
 20
141.2896035621623
 30
0.0
 10
141.6043900418205
 20
140.8276509833564
 30
0.0
 10
140.6663201910064
 20
140.5876264274597
 30
0.0
  0
ARC
  5
211
330
1F
100
AcDbEntity
  8
0
  6
Continuous
 62
     8
370
    25
100
AcDbCircle
 10
134.0741548568
 20
174.241497159
 30
0.0
 40
7.53096919701887
100
AcDbArc
 50
271.5538017569
 51
303.2083588254
  0
SPLINE
  5
212
330
1F
100
AcDbEntity
  8
0
  6
Continuous
 62
     8
370
    25
100
AcDbSpline
210
0.0
220
0.0
230
1.0
 70
     8
 71
     3
 72
    12
 73
     8
 74
     0
 42
0.00000001
 43
0.00000001
 40
0.0
 40
0.0
 40
0.0
 40
0.0
 40
0.1924082105681739
 40
0.4135492548068708
 40
0.6381901448204661
 40
0.8686791278218468
 40
1.0
 40
1.0
 40
1.0
 40
1.0
 10
140.9585553423624
 20
170.1059907139648
 30
0.0
 10
140.9084483587481
 20
170.0924570746537
 30
0.0
 10
140.8007517813872
 20
170.0633687814078
 30
0.0
 10
140.3767032243746
 20
169.7313685908042
 30
0.0
 10
139.7267639046956
 20
169.1846491817572
 30
0.0
 10
138.9776005470996
 20
168.552575541715
 30
0.0
 10
138.4061624986201
 20
168.1034611051592
 30
0.0
 10
138.1987559234596
 20
167.9404525561327
 30
0.0
  0
SPLINE
  5
213
330
1F
100
AcDbEntity
  8
0
  6
Continuous
 62
     8
370
    25
100
AcDbSpline
210
0.0
220
0.0
230
1.0
 70
     8
 71
     3
 72
    10
 73
     6
 74
     0
 42
0.00000001
 43
0.00000001
 40
0.0
 40
0.0
 40
0.0
 40
0.0
 40
0.1398443158467782
 40
0.8152006573612101
 40
1.0
 40
1.0
 40
1.0
 40
1.0
 10
140.4664183666351
 20
138.0399539336221
 30
0.0
 10
140.5075101733109
 20
138.0062729821064
 30
0.0
 10
140.7470484599505
 20
137.8099351213222
 30
0.0
 10
140.885160865088
 20
137.7280606845784
 30
0.0
 10
140.9509337828346
 20
137.7220762992045
 30
0.0
 10
140.9650647037678
 20
137.7207905895317
 30
0.0
  0
ARC
  5
214
330
1F
100
AcDbEntity
  8
0
  6
Continuous
 62
     8
370
    25
100
AcDbCircle
 10
126.9681135548
 20
153.9170380651
 30
0.0
 40
16.86443661971833
100
AcDbArc
 50
67.4212070912
 51
213.8513637476
  0
LINE
  5
215
330
1F
100
AcDbEntity
  8
0
  6
Continuous
 62
     8
370
    25
100
AcDbLine
 10
132.9158011479
 20
168.2203595905
 30
0.0
 11
133.4432744582
 21
169.4888559993
 31
0.0
  0
ARC
  5
216
330
1F
100
AcDbEntity
  8
0
  6
Continuous
 62
     8
370
    25
100
AcDbCircle
 10
126.9681135548
 20
153.9170380651
 30
0.0
 40
24.76305823079822
100
AcDbArc
 50
302.0518623121
 51
319.140960131
  0
ARC
  5
217
330
1F
100
AcDbEntity
  8
0
  6
Continuous
 62
     8
370
    25
100
AcDbCircle
 10
126.9681135548
 20
153.9170380651
 30
0.0
 40
24.76305823079828
100
AcDbArc
 50
40.859039869
 51
238.4944328233
  0
ENDSEC
  0
SECTION
  2
OBJECTS
  0
DICTIONARY
  5
C
330
0
100
AcDbDictionary
281
     1
  3
ACAD_GROUP
350
D
  3
ACAD_LAYOUT
350
1A
  3
ACAD_MLINESTYLE
350
17
  3
ACAD_PLOTSETTINGS
350
19
  3
ACAD_PLOTSTYLENAME
350
E
  3
ACAD_SCALELIST
350
47
  3
DWGPROPS
350
218
  0
DICTIONARY
  5
D
102
{ACAD_REACTORS
330
C
102
}
330
C
100
AcDbDictionary
281
     1
  0
DICTIONARY
  5
1A
102
{ACAD_REACTORS
330
C
102
}
330
C
100
AcDbDictionary
281
     1
  3
Layout1
350
1E
  3
Layout2
350
26
  3
Model
350
22
  0
DICTIONARY
  5
17
102
{ACAD_REACTORS
330
C
102
}
330
C
100
AcDbDictionary
281
     1
  3
Standard
350
18
  0
DICTIONARY
  5
19
102
{ACAD_REACTORS
330
C
102
}
330
C
100
AcDbDictionary
281
     1
  0
ACDBDICTIONARYWDFLT
  5
E
102
{ACAD_REACTORS
330
C
102
}
330
C
100
AcDbDictionary
281
     1
  3
Normal
350
F
100
AcDbDictionaryWithDefault
340
F
  0
DICTIONARY
  5
47
102
{ACAD_REACTORS
330
C
102
}
330
C
100
AcDbDictionary
281
     1
  3
A0
350
48
  3
A1
350
49
  3
A2
350
4A
  3
A3
350
4B
  3
A4
350
4C
  3
A5
350
4D
  3
A6
350
4E
  3
A7
350
4F
  3
A8
350
50
  3
A9
350
51
  3
B0
350
52
  3
B1
350
53
  3
B2
350
54
  3
B3
350
55
  3
B4
350
56
  3
B5
350
57
  3
B6
350
58
  3
B7
350
59
  3
B8
350
5A
  3
B9
350
5B
  3
C0
350
5C
  3
C1
350
5D
  3
C2
350
5E
  3
C3
350
5F
  3
C4
350
60
  3
C5
350
61
  3
C6
350
62
  3
C7
350
63
  3
C8
350
64
  3
C9
350
65
  3
D0
350
66
  3
D1
350
67
  3
D2
350
68
  0
XRECORD
  5
218
102
{ACAD_REACTORS
330
C
102
}
330
C
100
AcDbXrecord
280
     1
  1
DWGPROPS COOKIE
  2

  3

  4

  6

  7

  8
DS-1
  9

300
=
301
=
302
=
303
=
304
=
305
=
306
=
307
=
308
=
309
=
 40
0.0
 41
2460384.161243264
 42
2460384.161244178
  1

 90
        0
  0
LAYOUT
  5
1E
102
{ACAD_REACTORS
330
1A
102
}
330
1A
100
AcDbPlotSettings
  1

  2
none_device
  4

  6

 40
0.0
 41
0.0
 42
0.0
 43
0.0
 44
0.0
 45
0.0
 46
0.0
 47
0.0
 48
0.0
 49
0.0
140
0.0
141
0.0
142
1.0
143
1.0
 70
   688
 72
     1
 73
     0
 74
     5
  7

 75
    16
147
1.0
148
0.0
149
0.0
100
AcDbLayout
  1
Layout1
 70
     1
 71
     1
 10
0.0
 20
0.0
 11
420.0
 21
297.0
 12
0.0
 22
0.0
 32
0.0
 14
1.0000000000E+20
 24
1.0000000000E+20
 34
1.0000000000E+20
 15
-1.0000000000E+20
 25
-1.0000000000E+20
 35
-1.0000000000E+20
146
0.0
 13
0.0
 23
0.0
 33
0.0
 16
1.0
 26
0.0
 36
0.0
 17
0.0
 27
1.0
 37
0.0
 76
     0
330
1B
  0
LAYOUT
  5
26
102
{ACAD_REACTORS
330
1A
102
}
330
1A
100
AcDbPlotSettings
  1

  2
none_device
  4

  6

 40
0.0
 41
0.0
 42
0.0
 43
0.0
 44
0.0
 45
0.0
 46
0.0
 47
0.0
 48
0.0
 49
0.0
140
0.0
141
0.0
142
1.0
143
1.0
 70
   688
 72
     1
 73
     0
 74
     5
  7

 75
    16
147
1.0
148
0.0
149
0.0
100
AcDbLayout
  1
Layout2
 70
     1
 71
     2
 10
0.0
 20
0.0
 11
0.0
 21
0.0
 12
0.0
 22
0.0
 32
0.0
 14
0.0
 24
0.0
 34
0.0
 15
0.0
 25
0.0
 35
0.0
146
0.0
 13
0.0
 23
0.0
 33
0.0
 16
1.0
 26
0.0
 36
0.0
 17
0.0
 27
1.0
 37
0.0
 76
     0
330
23
  0
LAYOUT
  5
22
102
{ACAD_REACTORS
330
1A
102
}
330
1A
100
AcDbPlotSettings
  1

  2
none_device
  4
Letter_(8.50_x_11.00_Inches)
  6

 40
6.35
 41
6.35
 42
6.35000508
 43
6.35000508
 44
215.9
 45
279.4
 46
0.0
 47
0.0
 48
0.0
 49
0.0
140
0.0
141
0.0
142
1.0
143
1.0
 70
  1712
 72
     1
 73
     0
 74
     0
  7

 75
     0
147
1.0
148
0.0
149
0.0
100
AcDbLayout
  1
Model
 70
     1
 71
     0
 10
0.0
 20
0.0
 11
279.4
 21
215.9
 12
0.0
 22
0.0
 32
0.0
 14
0.0
 24
0.0
 34
0.0
 15
279.4
 25
215.9
 35
0.0
146
0.0
 13
0.0
 23
0.0
 33
0.0
 16
1.0
 26
0.0
 36
0.0
 17
0.0
 27
1.0
 37
0.0
 76
     0
330
1F
331
29
  0
MLINESTYLE
  5
18
102
{ACAD_REACTORS
330
17
102
}
330
17
100
AcDbMlineStyle
  2
Standard
 70
     0
  3

 62
   256
 51
90.0
 52
90.0
 71
     2
 49
0.5
 62
   256
  6
BYLAYER
 49
-0.5
 62
   256
  6
BYLAYER
  0
ACDBPLACEHOLDER
  5
F
102
{ACAD_REACTORS
330
E
102
}
330
E
  0
SCALE
  5
48
102
{ACAD_REACTORS
330
47
102
}
330
47
100
AcDbScale
 70
     0
300
1:1
140
1.0
141
1.0
290
     1
  0
SCALE
  5
49
102
{ACAD_REACTORS
330
47
102
}
330
47
100
AcDbScale
 70
     0
300
1:2
140
1.0
141
2.0
290
     0
  0
SCALE
  5
4A
102
{ACAD_REACTORS
330
47
102
}
330
47
100
AcDbScale
 70
     0
300
1:4
140
1.0
141
4.0
290
     0
  0
SCALE
  5
4B
102
{ACAD_REACTORS
330
47
102
}
330
47
100
AcDbScale
 70
     0
300
1:5
140
1.0
141
5.0
290
     0
  0
SCALE
  5
4C
102
{ACAD_REACTORS
330
47
102
}
330
47
100
AcDbScale
 70
     0
300
1:8
140
1.0
141
8.0
290
     0
  0
SCALE
  5
4D
102
{ACAD_REACTORS
330
47
102
}
330
47
100
AcDbScale
 70
     0
300
1:10
140
1.0
141
10.0
290
     0
  0
SCALE
  5
4E
102
{ACAD_REACTORS
330
47
102
}
330
47
100
AcDbScale
 70
     0
300
1:16
140
1.0
141
16.0
290
     0
  0
SCALE
  5
4F
102
{ACAD_REACTORS
330
47
102
}
330
47
100
AcDbScale
 70
     0
300
1:20
140
1.0
141
20.0
290
     0
  0
SCALE
  5
50
102
{ACAD_REACTORS
330
47
102
}
330
47
100
AcDbScale
 70
     0
300
1:30
140
1.0
141
30.0
290
     0
  0
SCALE
  5
51
102
{ACAD_REACTORS
330
47
102
}
330
47
100
AcDbScale
 70
     0
300
1:40
140
1.0
141
40.0
290
     0
  0
SCALE
  5
52
102
{ACAD_REACTORS
330
47
102
}
330
47
100
AcDbScale
 70
     0
300
1:50
140
1.0
141
50.0
290
     0
  0
SCALE
  5
53
102
{ACAD_REACTORS
330
47
102
}
330
47
100
AcDbScale
 70
     0
300
1:100
140
1.0
141
100.0
290
     0
  0
SCALE
  5
54
102
{ACAD_REACTORS
330
47
102
}
330
47
100
AcDbScale
 70
     0
300
2:1
140
2.0
141
1.0
290
     0
  0
SCALE
  5
55
102
{ACAD_REACTORS
330
47
102
}
330
47
100
AcDbScale
 70
     0
300
4:1
140
4.0
141
1.0
290
     0
  0
SCALE
  5
56
102
{ACAD_REACTORS
330
47
102
}
330
47
100
AcDbScale
 70
     0
300
8:1
140
8.0
141
1.0
290
     0
  0
SCALE
  5
57
102
{ACAD_REACTORS
330
47
102
}
330
47
100
AcDbScale
 70
     0
300
10:1
140
10.0
141
1.0
290
     0
  0
SCALE
  5
58
102
{ACAD_REACTORS
330
47
102
}
330
47
100
AcDbScale
 70
     0
300
100:1
140
100.0
141
1.0
290
     0
  0
SCALE
  5
59
102
{ACAD_REACTORS
330
47
102
}
330
47
100
AcDbScale
 70
     0
300
1/128" = 1'-0"
140
0.0078125
141
12.0
290
     0
  0
SCALE
  5
5A
102
{ACAD_REACTORS
330
47
102
}
330
47
100
AcDbScale
 70
     0
300
1/64" = 1'-0"
140
0.015625
141
12.0
290
     0
  0
SCALE
  5
5B
102
{ACAD_REACTORS
330
47
102
}
330
47
100
AcDbScale
 70
     0
300
1/32" = 1'-0"
140
0.03125
141
12.0
290
     0
  0
SCALE
  5
5C
102
{ACAD_REACTORS
330
47
102
}
330
47
100
AcDbScale
 70
     0
300
1/16" = 1'-0"
140
0.0625
141
12.0
290
     0
  0
SCALE
  5
5D
102
{ACAD_REACTORS
330
47
102
}
330
47
100
AcDbScale
 70
     0
300
3/32" = 1'-0"
140
0.09375
141
12.0
290
     0
  0
SCALE
  5
5E
102
{ACAD_REACTORS
330
47
102
}
330
47
100
AcDbScale
 70
     0
300
1/8" = 1'-0"
140
0.125
141
12.0
290
     0
  0
SCALE
  5
5F
102
{ACAD_REACTORS
330
47
102
}
330
47
100
AcDbScale
 70
     0
300
3/16" = 1'-0"
140
0.1875
141
12.0
290
     0
  0
SCALE
  5
60
102
{ACAD_REACTORS
330
47
102
}
330
47
100
AcDbScale
 70
     0
300
1/4" = 1'-0"
140
0.25
141
12.0
290
     0
  0
SCALE
  5
61
102
{ACAD_REACTORS
330
47
102
}
330
47
100
AcDbScale
 70
     0
300
3/8" = 1'-0"
140
0.375
141
12.0
290
     0
  0
SCALE
  5
62
102
{ACAD_REACTORS
330
47
102
}
330
47
100
AcDbScale
 70
     0
300
1/2" = 1'-0"
140
0.5
141
12.0
290
     0
  0
SCALE
  5
63
102
{ACAD_REACTORS
330
47
102
}
330
47
100
AcDbScale
 70
     0
300
3/4" = 1'-0"
140
0.75
141
12.0
290
     0
  0
SCALE
  5
64
102
{ACAD_REACTORS
330
47
102
}
330
47
100
AcDbScale
 70
     0
300
1" = 1'-0"
140
1.0
141
12.0
290
     0
  0
SCALE
  5
65
102
{ACAD_REACTORS
330
47
102
}
330
47
100
AcDbScale
 70
     0
300
1-1/2" = 1'-0"
140
1.5
141
12.0
290
     0
  0
SCALE
  5
66
102
{ACAD_REACTORS
330
47
102
}
330
47
100
AcDbScale
 70
     0
300
3" = 1'-0"
140
3.0
141
12.0
290
     0
  0
SCALE
  5
67
102
{ACAD_REACTORS
330
47
102
}
330
47
100
AcDbScale
 70
     0
300
6" = 1'-0"
140
6.0
141
12.0
290
     0
  0
SCALE
  5
68
102
{ACAD_REACTORS
330
47
102
}
330
47
100
AcDbScale
 70
     0
300
1'-0" = 1'-0"
140
12.0
141
12.0
290
     0
  0
ENDSEC
  0
EOF
