  0
SECTION
  2
HEADER
  9
$ACADVER
  1
AC1015
  9
$ACADMAINTVER
 70
     6
  9
$DWGCODEPAGE
  3
ANSI_1252
  9
$INSBASE
 10
0.0
 20
0.0
 30
0.0
  9
$EXTMIN
 10
0.0
 20
0.0
 30
0.0
  9
$EXTMAX
 10
279.4
 20
215.9
 30
0.0
  9
$LIMMIN
 10
0.0
 20
0.0
  9
$LIMMAX
 10
279.4
 20
215.9
  9
$ORTHOMODE
 70
     0
  9
$REGENMODE
 70
     1
  9
$FILLMODE
 70
     1
  9
$QTEXTMODE
 70
     0
  9
$MIRRTEXT
 70
     1
  9
$LTSCALE
 40
1.0
  9
$ATTMODE
 70
     1
  9
$TEXTSIZE
 40
3.5
  9
$TRACEWID
 40
1.0
  9
$TEXTSTYLE
  7
Standard
  9
$CLAYER
  8
0
  9
$CELTYPE
  6
ByLayer
  9
$CECOLOR
 62
   256
  9
$CELTSCALE
 40
1.0
  9
$DISPSILH
 70
     0
  9
$DIMSCALE
 40
1.0
  9
$DIMASZ
 40
3.556
  9
$DIMEXO
 40
1.0
  9
$DIMDLI
 40
3.75
  9
$DIMRND
 40
0.0
  9
$DIMDLE
 40
0.0
  9
$DIMEXE
 40
1.0
  9
$DIMTP
 40
0.0
  9
$DIMTM
 40
0.0
  9
$DIMTXT
 40
3.5
  9
$DIMCEN
 40
2.5
  9
$DIMTSZ
 40
0.0
  9
$DIMTOL
 70
     0
  9
$DIMLIM
 70
     0
  9
$DIMTIH
 70
     1
  9
$DIMTOH
 70
     1
  9
$DIMSE1
 70
     0
  9
$DIMSE2
 70
     0
  9
$DIMTAD
 70
     1
  9
$DIMZIN
 70
     1
  9
$DIMBLK
  1

  9
$DIMASO
 70
     1
  9
$DIMSHO
 70
     1
  9
$DIMPOST
  1

  9
$DIMAPOST
  1

  9
$DIMALT
 70
     0
  9
$DIMALTD
 70
     3
  9
$DIMALTF
 40
0.0393700787
  9
$DIMLFAC
 40
5.0
  9
$DIMTOFL
 70
     1
  9
$DIMTVP
 40
0.0
  9
$DIMTIX
 70
     0
  9
$DIMSOXD
 70
     0
  9
$DIMSAH
 70
     0
  9
$DIMBLK1
  1

  9
$DIMBLK2
  1

  9
$DIMSTYLE
  2
ISO-25
  9
$DIMCLRD
 70
     0
  9
$DIMCLRE
 70
     0
  9
$DIMCLRT
 70
     0
  9
$DIMTFAC
 40
1.0
  9
$DIMGAP
 40
1.524
  9
$DIMJUST
 70
     0
  9
$DIMSD1
 70
     0
  9
$DIMSD2
 70
     0
  9
$DIMTOLJ
 70
     0
  9
$DIMTZIN
 70
     1
  9
$DIMALTZ
 70
     0
  9
$DIMALTTZ
 70
     0
  9
$DIMUPT
 70
     0
  9
$DIMDEC
 70
     2
  9
$DIMTDEC
 70
     2
  9
$DIMALTU
 70
     2
  9
$DIMALTTD
 70
     3
  9
$DIMTXSTY
  7
Standard
  9
$DIMAUNIT
 70
     0
  9
$DIMADEC
 70
     2
  9
$DIMALTRND
 40
0.0
  9
$DIMAZIN
 70
     0
  9
$DIMDSEP
 70
    44
  9
$DIMATFIT
 70
     3
  9
$DIMFRAC
 70
     0
  9
$DIMLDRBLK
  1

  9
$DIMLUNIT
 70
     2
  9
$DIMLWD
 70
    -2
  9
$DIMLWE
 70
    -2
  9
$DIMTMOVE
 70
     0
  9
$LUNITS
 70
     2
  9
$LUPREC
 70
     2
  9
$SKETCHINC
 40
1.0
  9
$FILLETRAD
 40
10.0
  9
$AUNITS
 70
     0
  9
$AUPREC
 70
     2
  9
$MENU
  1
.
  9
$ELEVATION
 40
0.0
  9
$PELEVATION
 40
0.0
  9
$THICKNESS
 40
0.0
  9
$LIMCHECK
 70
     0
  9
$CHAMFERA
 40
0.0
  9
$CHAMFERB
 40
0.0
  9
$CHAMFERC
 40
0.0
  9
$CHAMFERD
 40
0.0
  9
$SKPOLY
 70
     0
  9
$TDCREATE
 40
2460383.725589317
  9
$TDUCREATE
 40
2460383.49642265
  9
$TDUPDATE
 40
2460383.725589664
  9
$TDUUPDATE
 40
2460383.496422998
  9
$TDINDWG
 40
0.0000000116
  9
$TDUSRTIMER
 40
0.0000000116
  9
$USRTIMER
 70
     1
  9
$ANGBASE
 50
0.0
  9
$ANGDIR
 70
     0
  9
$PDMODE
 70
     0
  9
$PDSIZE
 40
-1.0
  9
$PLINEWID
 40
0.0
  9
$SPLFRAME
 70
     0
  9
$SPLINETYPE
 70
     6
  9
$SPLINESEGS
 70
     8
  9
$HANDSEED
  5
2BA
  9
$SURFTAB1
 70
     6
  9
$SURFTAB2
 70
     6
  9
$SURFTYPE
 70
     6
  9
$SURFU
 70
     6
  9
$SURFV
 70
     6
  9
$UCSBASE
  2

  9
$UCSNAME
  2

  9
$UCSORG
 10
0.0
 20
0.0
 30
0.0
  9
$UCSXDIR
 10
1.0
 20
0.0
 30
0.0
  9
$UCSYDIR
 10
0.0
 20
1.0
 30
0.0
  9
$UCSORTHOREF
  2

  9
$UCSORTHOVIEW
 70
     0
  9
$UCSORGTOP
 10
0.0
 20
0.0
 30
0.0
  9
$UCSORGBOTTOM
 10
0.0
 20
0.0
 30
0.0
  9
$UCSORGLEFT
 10
0.0
 20
0.0
 30
0.0
  9
$UCSORGRIGHT
 10
0.0
 20
0.0
 30
0.0
  9
$UCSORGFRONT
 10
0.0
 20
0.0
 30
0.0
  9
$UCSORGBACK
 10
0.0
 20
0.0
 30
0.0
  9
$PUCSBASE
  2

  9
$PUCSNAME
  2

  9
$PUCSORG
 10
0.0
 20
0.0
 30
0.0
  9
$PUCSXDIR
 10
1.0
 20
0.0
 30
0.0
  9
$PUCSYDIR
 10
0.0
 20
1.0
 30
0.0
  9
$PUCSORTHOREF
  2

  9
$PUCSORTHOVIEW
 70
     0
  9
$PUCSORGTOP
 10
0.0
 20
0.0
 30
0.0
  9
$PUCSORGBOTTOM
 10
0.0
 20
0.0
 30
0.0
  9
$PUCSORGLEFT
 10
0.0
 20
0.0
 30
0.0
  9
$PUCSORGRIGHT
 10
0.0
 20
0.0
 30
0.0
  9
$PUCSORGFRONT
 10
0.0
 20
0.0
 30
0.0
  9
$PUCSORGBACK
 10
0.0
 20
0.0
 30
0.0
  9
$USERI1
 70
     0
  9
$USERI2
 70
     0
  9
$USERI3
 70
     0
  9
$USERI4
 70
     0
  9
$USERI5
 70
     0
  9
$USERR1
 40
0.0
  9
$USERR2
 40
0.0
  9
$USERR3
 40
0.0
  9
$USERR4
 40
0.0
  9
$USERR5
 40
0.0
  9
$WORLDVIEW
 70
     1
  9
$SHADEDGE
 70
     3
  9
$SHADEDIF
 70
    70
  9
$TILEMODE
 70
     1
  9
$MAXACTVP
 70
    64
  9
$PINSBASE
 10
0.0
 20
0.0
 30
0.0
  9
$PLIMCHECK
 70
     0
  9
$PEXTMIN
 10
1.0000000000E+20
 20
1.0000000000E+20
 30
1.0000000000E+20
  9
$PEXTMAX
 10
-1.0000000000E+20
 20
-1.0000000000E+20
 30
-1.0000000000E+20
  9
$PLIMMIN
 10
0.0
 20
0.0
  9
$PLIMMAX
 10
420.0
 20
297.0
  9
$UNITMODE
 70
     0
  9
$VISRETAIN
 70
     1
  9
$PLINEGEN
 70
     0
  9
$PSLTSCALE
 70
     1
  9
$TREEDEPTH
 70
  3020
  9
$CMLSTYLE
  2
Standard
  9
$CMLJUST
 70
     0
  9
$CMLSCALE
 40
20.0
  9
$PROXYGRAPHICS
 70
     1
  9
$MEASUREMENT
 70
     1
  9
$CELWEIGHT
370
    -1
  9
$ENDCAPS
280
     0
  9
$JOINSTYLE
280
     0
  9
$LWDISPLAY
290
     1
  9
$INSUNITS
 70
     4
  9
$HYPERLINKBASE
  1

  9
$STYLESHEET
  1

  9
$XEDIT
290
     1
  9
$CEPSNTYPE
380
     0
  9
$PSTYLEMODE
290
     1
  9
$FINGERPRINTGUID
  2
{712cc03c-79f3-4fec-8d9e-8cc70cc0fd59}
  9
$VERSIONGUID
  2
{FAEB1C32-E019-11D5-929B-00C0DF256EC4}
  9
$EXTNAMES
290
     1
  9
$PSVPSCALE
 40
0.0
  9
$OLESTARTUP
290
     0
  0
ENDSEC
  0
SECTION
  2
CLASSES
  0
CLASS
  1
ACDBDICTIONARYWDFLT
  2
AcDbDictionaryWithDefault
  3
ObjectDBX Classes
 90
        0
280
     0
281
     0
  0
CLASS
  1
VISUALSTYLE
  2
AcDbVisualStyle
  3
ObjectDBX Classes
 90
     4095
280
     0
281
     0
  0
CLASS
  1
MATERIAL
  2
AcDbMaterial
  3
ObjectDBX Classes
 90
     1153
280
     0
281
     0
  0
CLASS
  1
SCALE
  2
AcDbScale
  3
ObjectDBX Classes
 90
     1153
280
     0
281
     0
  0
CLASS
  1
TABLESTYLE
  2
AcDbTableStyle
  3
ObjectDBX Classes
 90
     4095
280
     0
281
     0
  0
CLASS
  1
MLEADERSTYLE
  2
AcDbMLeaderStyle
  3
ACDB_MLEADERSTYLE_CLASS
 90
     4095
280
     0
281
     0
  0
CLASS
  1
SUN
  2
AcDbSun
  3
SCENEOE
 90
     1153
280
     0
281
     0
  0
CLASS
  1
ACDBPLACEHOLDER
  2
AcDbPlaceHolder
  3
ObjectDBX Classes
 90
        0
280
     0
281
     0
  0
CLASS
  1
LAYOUT
  2
AcDbLayout
  3
ObjectDBX Classes
 90
        0
280
     0
281
     0
  0
ENDSEC
  0
SECTION
  2
TABLES
  0
TABLE
  2
VPORT
  5
8
330
0
100
AcDbSymbolTable
 70
     1
  0
VPORT
  5
29
330
8
100
AcDbSymbolTableRecord
100
AcDbViewportTableRecord
  2
*Active
 70
     0
 10
0.0
 20
0.0
 11
1.0
 21
1.0
 12
139.7
 22
107.95
 13
0.0
 23
0.0
 14
10.0
 24
10.0
 15
10.0
 25
10.0
 16
0.0
 26
0.0
 36
1.0
 17
0.0
 27
0.0
 37
0.0
 40
215.9
 41
1.2941176471
 42
50.0
 43
0.0
 44
0.0
 50
0.0
 51
0.0
 71
     0
 72
  2000
 73
     1
 74
     3
 75
     0
 76
     0
 77
     0
 78
     0
281
     0
 65
     1
110
0.0
120
0.0
130
0.0
111
1.0
121
0.0
131
0.0
112
0.0
122
1.0
132
0.0
 79
     0
146
0.0
  0
ENDTAB
  0
TABLE
  2
LTYPE
  5
5
330
0
100
AcDbSymbolTable
 70
     6
  0
LTYPE
  5
14
330
5
100
AcDbSymbolTableRecord
100
AcDbLinetypeTableRecord
  2
ByBlock
 70
     0
  3

 72
    65
 73
     0
 40
0.0
  0
LTYPE
  5
15
330
5
100
AcDbSymbolTableRecord
100
AcDbLinetypeTableRecord
  2
ByLayer
 70
     0
  3

 72
    65
 73
     0
 40
0.0
  0
LTYPE
  5
16
330
5
100
AcDbSymbolTableRecord
100
AcDbLinetypeTableRecord
  2
Continuous
 70
     0
  3
Solid line
 72
    65
 73
     0
 40
0.0
  0
LTYPE
  5
6E
330
5
100
AcDbSymbolTableRecord
100
AcDbLinetypeTableRecord
  2
HIDDEN
 70
     0
  3
Hidden __ __ __ __ __ __ __ __ __ __ __ __ __ __
 72
    65
 73
     2
 40
1.905
 49
1.27
 74
     0
 49
-0.635
 74
     0
  0
LTYPE
  5
6F
330
5
100
AcDbSymbolTableRecord
100
AcDbLinetypeTableRecord
  2
PHANTOM
 70
     0
  3
Phantom ______  __  __  ______  __  __  ______
 72
    65
 73
     6
 40
12.7
 49
6.35
 74
     0
 49
-1.27
 74
     0
 49
1.27
 74
     0
 49
-1.27
 74
     0
 49
1.27
 74
     0
 49
-1.27
 74
     0
  0
LTYPE
  5
70
330
5
100
AcDbSymbolTableRecord
100
AcDbLinetypeTableRecord
  2
CENTER
 70
     0
  3
Center ____ _ ____ _ ____ _ ____ _ ____ _ ____
 72
    65
 73
     4
 40
10.16
 49
6.35
 74
     0
 49
-1.27
 74
     0
 49
1.27
 74
     0
 49
-1.27
 74
     0
  0
LTYPE
  5
71
330
5
100
AcDbSymbolTableRecord
100
AcDbLinetypeTableRecord
  2
CENTERX2
 70
     0
  3
Center (2x) ________  __  ________  __  _____
 72
    65
 73
     4
 40
20.32
 49
12.7
 74
     0
 49
-2.54
 74
     0
 49
2.54
 74
     0
 49
-2.54
 74
     0
  0
LTYPE
  5
72
330
5
100
AcDbSymbolTableRecord
100
AcDbLinetypeTableRecord
  2
DOT2
 70
     0
  3
Dot (.5x) ........................................
 72
    65
 73
     2
 40
0.635
 49
0.0
 74
     0
 49
-0.635
 74
     0
  0
ENDTAB
  0
TABLE
  2
LAYER
  5
2
330
0
100
AcDbSymbolTable
 70
     1
  0
LAYER
  5
10
330
2
100
AcDbSymbolTableRecord
100
AcDbLayerTableRecord
  2
0
 70
     0
 62
     7
  6
Continuous
370
    -3
390
F
  0
ENDTAB
  0
TABLE
  2
STYLE
  5
3
330
0
100
AcDbSymbolTable
 70
     1
  0
STYLE
  5
11
330
3
100
AcDbSymbolTableRecord
100
AcDbTextStyleTableRecord
  2
Standard
 70
     0
 40
0.0
 41
1.0
 50
0.0
 71
     0
 42
3.5
  3
txt
  4

  0
ENDTAB
  0
TABLE
  2
VIEW
  5
6
330
0
100
AcDbSymbolTable
 70
     0
  0
ENDTAB
  0
TABLE
  2
UCS
  5
7
330
0
100
AcDbSymbolTable
 70
     0
  0
ENDTAB
  0
TABLE
  2
APPID
  5
9
330
0
100
AcDbSymbolTable
 70
     1
  0
APPID
  5
12
330
9
100
AcDbSymbolTableRecord
100
AcDbRegAppTableRecord
  2
ACAD
 70
     0
  0
ENDTAB
  0
TABLE
  2
DIMSTYLE
  5
A
330
0
100
AcDbSymbolTable
 70
     1
100
AcDbDimStyleTable
  0
DIMSTYLE
105
27
330
A
100
AcDbSymbolTableRecord
100
AcDbDimStyleTableRecord
  2
ISO-25
 70
     0
 41
2.5
 42
0.625
 43
3.75
 44
1.25
 73
     0
 74
     0
 77
     1
 78
     8
140
2.5
141
2.5
143
0.0393700787
147
0.625
171
     3
172
     1
178
     0
271
     2
272
     2
274
     3
278
    44
283
     0
284
     8
340
11
  0
ENDTAB
  0
TABLE
  2
BLOCK_RECORD
  5
1
330
0
100
AcDbSymbolTable
 70
     1
  0
BLOCK_RECORD
  5
1F
330
1
100
AcDbSymbolTableRecord
100
AcDbBlockTableRecord
  2
*Model_Space
340
22
  0
BLOCK_RECORD
  5
1B
330
1
100
AcDbSymbolTableRecord
100
AcDbBlockTableRecord
  2
*Paper_Space
340
1E
  0
BLOCK_RECORD
  5
23
330
1
100
AcDbSymbolTableRecord
100
AcDbBlockTableRecord
  2
*Paper_Space0
340
26
  0
ENDTAB
  0
ENDSEC
  0
SECTION
  2
BLOCKS
  0
BLOCK
  5
20
330
1F
100
AcDbEntity
  8
0
100
AcDbBlockBegin
  2
*Model_Space
 70
     0
 10
0.0
 20
0.0
 30
0.0
  3
*Model_Space
  1

  0
ENDBLK
  5
21
330
1F
100
AcDbEntity
  8
0
100
AcDbBlockEnd
  0
BLOCK
  5
1C
330
1B
100
AcDbEntity
 67
     1
  8
0
100
AcDbBlockBegin
  2
*Paper_Space
 70
     0
 10
0.0
 20
0.0
 30
0.0
  3
*Paper_Space
  1

  0
ENDBLK
  5
1D
330
1B
100
AcDbEntity
 67
     1
  8
0
100
AcDbBlockEnd
  0
BLOCK
  5
24
330
23
100
AcDbEntity
  8
0
100
AcDbBlockBegin
  2
*Paper_Space0
 70
     0
 10
0.0
 20
0.0
 30
0.0
  3
*Paper_Space0
  1

  0
ENDBLK
  5
25
330
23
100
AcDbEntity
  8
0
100
AcDbBlockEnd
  0
ENDSEC
  0
SECTION
  2
ENTITIES
  0
SPLINE
  5
73
330
1F
100
AcDbEntity
  8
0
  6
Continuous
 62
     7
370
    25
100
AcDbSpline
210
0.0
220
0.0
230
1.0
 70
     8
 71
     3
 72
    14
 73
    10
 74
     0
 42
0.00000001
 43
0.00000001
 40
0.0
 40
0.0
 40
0.0
 40
0.0
 40
0.0504437975820776
 40
0.3545732472408401
 40
0.5873464294602025
 40
0.7398626181433278
 40
0.8483242938827541
 40
0.9385531431887827
 40
0.9999999999999999
 40
0.9999999999999999
 40
0.9999999999999999
 40
0.9999999999999999
 10
80.58161807895529
 20
168.0430507402547
 30
0.0
 10
80.58401584560599
 20
168.0725365704473
 30
0.0
 10
80.60086992773729
 20
168.279794688593
 30
0.0
 10
80.61939046152058
 20
168.5881042801038
 30
0.0
 10
80.64093027446258
 20
169.0080350011665
 30
0.0
 10
80.65338608940593
 20
169.3874541621136
 30
0.0
 10
80.6571114177898
 20
169.7566345180002
 30
0.0
 10
80.65585328801573
 20
170.1068598823892
 30
0.0
 10
80.6431583680664
 20
170.405797968108
 30
0.0
 10
80.638015402536
 20
170.5269037550452
 30
0.0
  0
SPLINE
  5
74
330
1F
100
AcDbEntity
  8
0
  6
Continuous
 62
     7
370
    25
100
AcDbSpline
210
0.0
220
0.0
230
1.0
 70
     8
 71
     3
 72
    12
 73
     8
 74
     0
 42
0.00000001
 43
0.00000001
 40
0.0
 40
0.0
 40
0.0
 40
0.0
 40
0.0403896235491859
 40
0.2371093190477737
 40
0.5056141011654576
 40
0.8961143716663171
 40
1.0
 40
1.0
 40
1.0
 40
1.0
 10
51.80277684253883
 20
169.1773371306406
 30
0.0
 10
51.80367782256013
 20
169.153757368689
 30
0.0
 10
51.8089670711481
 20
169.0153311886863
 30
0.0
 10
51.82019851160032
 20
168.8422368408736
 30
0.0
 10
51.83638695748409
 20
168.5981443557012
 30
0.0
 10
51.84894694928801
 20
168.4415942089799
 30
0.0
 10
51.85720420385261
 20
168.3495270909122
 30
0.0
 10
51.8589393060891
 20
168.3301809679101
 30
0.0
  0
LINE
  5
75
330
1F
100
AcDbEntity
  8
0
  6
Continuous
 62
     7
370
    25
100
AcDbLine
 10
54.7608792579
 20
19.4621548905
 30
0.0
 11
54.7581466427
 21
19.4240519945
 31
0.0
  0
LINE
  5
76
330
1F
100
AcDbEntity
  8
0
  6
Continuous
 62
     7
370
    25
100
AcDbLine
 10
77.7080511385
 20
19.4240485236
 30
0.0
 11
77.7053210741
 21
19.4621515112
 31
0.0
  0
ARC
  5
77
330
1F
100
AcDbEntity
  8
0
  6
Continuous
 62
     7
370
    25
100
AcDbCircle
 10
139.4717416452
 20
171.0395039645
 30
0.0
 40
10.63000000000001
100
AcDbArc
 50
6.7649115884
 51
21.8505108422
  0
ARC
  5
78
330
1F
100
AcDbEntity
  8
0
  6
Continuous
 62
     7
370
    25
100
AcDbCircle
 10
139.4717416452
 20
171.0395039645
 30
0.0
 40
10.62999999999999
100
AcDbArc
 50
338.1494891578
 51
353.2045731046
  0
LINE
  5
79
330
1F
100
AcDbEntity
  8
0
  6
Continuous
 62
     7
370
    25
100
AcDbLine
 10
150.0345992045
 20
169.930124048
 30
0.0
 11
149.7741824761
 21
169.930124048
 31
0.0
  0
LINE
  5
7A
330
1F
100
AcDbEntity
  8
0
  6
Continuous
 62
     7
370
    25
100
AcDbLine
 10
149.9510261395
 20
172.148883881
 30
0.0
 11
150.0345992045
 21
172.148883881
 31
0.0
  0
LINE
  5
7B
330
1F
100
AcDbEntity
  8
0
  6
Continuous
 62
     7
370
    25
100
AcDbLine
 10
147.4380619875
 20
163.8895039645
 30
0.0
 11
149.043066977
 21
165.1143761933
 31
0.0
  0
LINE
  5
7C
330
1F
100
AcDbEntity
  8
0
  6
Continuous
 62
     7
370
    25
100
AcDbLine
 10
149.043066977
 20
176.9646317357
 30
0.0
 11
147.4380619875
 21
178.1895039645
 31
0.0
  0
ARC
  5
7D
330
1F
100
AcDbEntity
  8
0
  6
Continuous
 62
     7
370
    25
100
AcDbCircle
 10
148.5880619875
 20
165.7105896279
 30
0.0
 40
0.7499999999999841
100
AcDbArc
 50
307.3493490446
 51
0.0
  0
ARC
  5
7E
330
1F
100
AcDbEntity
  8
0
  6
Continuous
 62
     7
370
    25
100
AcDbCircle
 10
148.5880619875
 20
176.3684183011
 30
0.0
 40
0.7499999999999841
100
AcDbArc
 50
0.0
 51
52.6506509554
  0
LINE
  5
7F
330
1F
100
AcDbEntity
  8
0
  6
Continuous
 62
     7
370
    25
100
AcDbLine
 10
147.4380619875
 20
175.5395039645
 30
0.0
 11
147.433134973
 21
175.5357573805
 31
0.0
  0
LINE
  5
80
330
1F
100
AcDbEntity
  8
0
  6
Continuous
 62
     7
370
    25
100
AcDbLine
 10
147.433134973
 20
166.5432505485
 30
0.0
 11
147.4380619875
 21
166.5395039645
 31
0.0
  0
LINE
  5
81
330
1F
100
AcDbEntity
  8
0
  6
Continuous
 62
     7
370
    25
100
AcDbLine
 10
142.5711789302
 20
162.0638459203
 30
0.0
 11
146.9418611762
 21
162.1401364627
 31
0.0
  0
LINE
  5
82
330
1F
100
AcDbEntity
  8
0
  6
Continuous
 62
     7
370
    25
100
AcDbLine
 10
146.9418611762
 20
179.9388714663
 30
0.0
 11
141.6377587163
 21
180.0314549192
 31
0.0
  0
ARC
  5
83
330
1F
100
AcDbEntity
  8
0
  6
Continuous
 62
     7
370
    25
100
AcDbCircle
 10
146.933134973
 20
162.6400603102
 30
0.0
 40
0.5
100
AcDbArc
 50
271.0
 51
0.0
  0
ARC
  5
84
330
1F
100
AcDbEntity
  8
0
  6
Continuous
 62
     7
370
    25
100
AcDbCircle
 10
146.933134973
 20
179.4389476188
 30
0.0
 40
0.5000000000000332
100
AcDbArc
 50
0.0
 51
89.0
  0
SPLINE
  5
85
330
1F
100
AcDbEntity
  8
0
  6
Continuous
 62
     7
370
    25
100
AcDbSpline
210
0.0
220
0.0
230
1.0
 70
     8
 71
     3
 72
    14
 73
    10
 74
     0
 42
0.00000001
 43
0.00000001
 40
0.0
 40
0.0
 40
0.0
 40
0.0
 40
0.008155091161155
 40
0.1489389629566061
 40
0.3094302848914102
 40
0.4954631293112722
 40
0.7087101665893951
 40
0.9536223925379808
 40
1.0
 40
1.0
 40
1.0
 40
1.0
 10
138.9499144726989
 20
160.1655680843425
 30
0.0
 10
138.9492348905806
 20
160.164327633687
 30
0.0
 10
138.9368234712662
 20
160.1416728980658
 30
0.0
 10
138.9926024099611
 20
160.2258132909805
 30
0.0
 10
139.1548057568975
 20
160.3849657625879
 30
0.0
 10
139.4706422113113
 20
160.6563842359367
 30
0.0
 10
139.9589585464958
 20
161.0118135646326
 30
0.0
 10
140.4076251604956
 20
161.3118862486462
 30
0.0
 10
140.7165224984473
 20
161.4990779377823
 30
0.0
 10
140.7657034784969
 20
161.528881596143
 30
0.0
  0
ARC
  5
86
330
1F
100
AcDbEntity
  8
0
  6
Continuous
 62
     7
370
    25
100
AcDbCircle
 10
142.633134973
 20
158.5143866025
 30
0.0
 40
3.550000000000023
100
AcDbArc
 50
91.0
 51
121.7654088545
  0
ARC
  5
87
330
1F
100
AcDbEntity
  8
0
  6
Continuous
 62
     7
370
    25
100
AcDbCircle
 10
141.683134973
 20
182.6310589266
 30
0.0
 40
2.600000000000001
100
AcDbArc
 50
242.9558679133
 51
269.0
  0
SPLINE
  5
88
330
1F
100
AcDbEntity
  8
0
  6
Continuous
 62
     7
370
    25
100
AcDbSpline
210
0.0
220
0.0
230
1.0
 70
     8
 71
     3
 72
    13
 73
     9
 74
     0
 42
0.00000001
 43
0.00000001
 40
0.0
 40
0.0
 40
0.0
 40
0.0
 40
0.0315021723924642
 40
0.3144509902992548
 40
0.5515087509189838
 40
0.7487965221439495
 40
0.9151675530516615
 40
1.0
 40
1.0
 40
1.0
 40
1.0
 10
140.5083405226439
 20
180.3122179018418
 30
0.0
 10
140.4776957442409
 20
180.328055302937
 30
0.0
 10
140.1718031601912
 20
180.4861423832852
 30
0.0
 10
139.7196627419244
 20
180.7340488866312
 30
0.0
 10
139.2071719542917
 20
181.0365949552395
 30
0.0
 10
138.905492317873
 20
181.2379121287199
 30
0.0
 10
138.7627027991646
 20
181.3558154271796
 30
0.0
 10
138.7649690877291
 20
181.3537951590447
 30
0.0
 10
138.765734422692
 20
181.353112906192
 30
0.0
  0
LINE
  5
89
330
1F
100
AcDbEntity
  8
0
  6
Continuous
 62
     7
370
    25
100
AcDbLine
 10
133.0918611762
 20
158.6688992734
 30
0.0
 11
137.1180397859
 21
158.7391764824
 31
0.0
  0
ARC
  5
8A
330
1F
100
AcDbEntity
  8
0
  6
Continuous
 62
     7
370
    25
100
AcDbCircle
 10
133.083134973
 20
159.1688231209
 30
0.0
 40
0.5000000000000063
100
AcDbArc
 50
180.0
 51
271.0
  0
LINE
  5
8B
330
1F
100
AcDbEntity
  8
0
  6
Continuous
 62
     7
370
    25
100
AcDbLine
 10
147.4439193596
 20
174.9602837517
 30
0.0
 11
147.433134973
 21
175.0050440919
 31
0.0
  0
ARC
  5
8C
330
1F
100
AcDbEntity
  8
0
  6
Continuous
 62
     7
370
    25
100
AcDbCircle
 10
137.083134973
 20
180.5352287855
 30
0.0
 40
2.000000000000026
100
AcDbArc
 50
20.0670113484
 51
89.0
  0
ARC
  5
8D
330
1F
100
AcDbEntity
  8
0
  6
Continuous
 62
     7
370
    25
100
AcDbCircle
 10
133.083134973
 20
182.1052775373
 30
0.0
 40
0.5
100
AcDbArc
 50
89.0
 51
180.0
  0
LINE
  5
8E
330
1F
100
AcDbEntity
  8
0
  6
Continuous
 62
     7
370
    25
100
AcDbLine
 10
137.1180397859
 20
182.5349241758
 30
0.0
 11
133.0918611762
 21
182.6052013849
 31
0.0
  0
ARC
  5
8F
330
1F
100
AcDbEntity
  8
0
  6
Continuous
 62
     7
370
    25
100
AcDbCircle
 10
137.083134973
 20
160.7388718727
 30
0.0
 40
2.000000000000012
100
AcDbArc
 50
271.0
 51
343.8534482643
  0
LINE
  5
90
330
1F
100
AcDbEntity
  8
0
  6
Continuous
 62
     7
370
    25
100
AcDbLine
 10
132.583134973
 20
176.6895039645
 30
0.0
 11
124.633134973
 21
176.6895039645
 31
0.0
  0
LINE
  5
91
330
1F
100
AcDbEntity
  8
0
  6
Continuous
 62
     7
370
    25
100
AcDbLine
 10
124.633134973
 20
165.3895039645
 30
0.0
 11
132.583134973
 21
165.3895039645
 31
0.0
  0
LINE
  5
92
330
1F
100
AcDbEntity
  8
0
  6
Continuous
 62
     7
370
    25
100
AcDbLine
 10
122.9249905818
 20
161.0386559635
 30
0.0
 11
124.633134973
 21
162.7895039645
 31
0.0
  0
LINE
  5
93
330
1F
100
AcDbEntity
  8
0
  6
Continuous
 62
     7
370
    25
100
AcDbLine
 10
124.633134973
 20
179.2895039645
 30
0.0
 11
122.9249905818
 21
181.0403519655
 31
0.0
  0
LINE
  5
94
330
1F
100
AcDbEntity
  8
0
  6
Continuous
 62
     7
370
    25
100
AcDbLine
 10
117.2064363046
 20
161.6395039645
 30
0.0
 11
117.5592277841
 21
161.6395039645
 31
0.0
  0
SPLINE
  5
95
330
1F
100
AcDbEntity
  8
0
  6
Continuous
 62
     7
370
    25
100
AcDbSpline
210
0.0
220
0.0
230
1.0
 70
     8
 71
     3
 72
     9
 73
     5
 74
     0
 42
0.00000001
 43
0.00000001
 40
0.0
 40
0.0
 40
0.0
 40
0.0
 40
0.5017901106541904
 40
1.0
 40
1.0
 40
1.0
 40
1.0
 10
117.5679609446391
 20
161.6471634169338
 30
0.0
 10
117.6418382849344
 20
161.7750410936506
 30
0.0
 10
117.7890658582299
 20
162.0298840528911
 30
0.0
 10
117.9363461691076
 20
162.284687456856
 30
0.0
 10
118.0097226764928
 20
162.4116330325504
 30
0.0
  0
LINE
  5
96
330
1F
100
AcDbEntity
  8
0
  6
Continuous
 62
     7
370
    25
100
AcDbLine
 10
117.304168536
 20
179.6673724579
 30
0.0
 11
117.183134973
 21
179.8768011485
 31
0.0
  0
LINE
  5
97
330
1F
100
AcDbEntity
  8
0
  6
Continuous
 62
     7
370
    25
100
AcDbLine
 10
118.1670495129
 20
162.4116074196
 30
0.0
 11
118.3112300879
 21
162.1621113216
 31
0.0
  0
SPLINE
  5
98
330
1F
100
AcDbEntity
  8
0
  6
Continuous
 62
     7
370
    25
100
AcDbSpline
210
0.0
220
0.0
230
1.0
 70
     8
 71
     3
 72
     9
 73
     5
 74
     0
 42
0.00000001
 43
0.00000001
 40
0.0
 40
0.0
 40
0.0
 40
0.0
 40
0.4989150937459075
 40
1.0
 40
1.0
 40
1.0
 40
1.0
 10
117.9032252988371
 20
180.4318577303747
 30
0.0
 10
117.8297667530175
 20
180.3047233910844
 30
0.0
 10
117.6825301856327
 20
180.0499017974225
 30
0.0
 10
117.5352777116053
 20
179.795082593106
 30
0.0
 10
117.4614917194616
 20
179.6673965359993
 30
0.0
  0
LINE
  5
99
330
1F
100
AcDbEntity
  8
0
  6
Continuous
 62
     7
370
    25
100
AcDbLine
 10
118.333134973
 20
179.9395039645
 30
0.0
 11
117.8889972289
 21
180.3836417086
 31
0.0
  0
SPLINE
  5
9A
330
1F
100
AcDbEntity
  8
0
  6
Continuous
 62
     7
370
    25
100
AcDbSpline
210
0.0
220
0.0
230
1.0
 70
     8
 71
     3
 72
     9
 73
     5
 74
     0
 42
0.00000001
 43
0.00000001
 40
0.0
 40
0.0
 40
0.0
 40
0.0
 40
0.5165667873823608
 40
1.0
 40
1.0
 40
1.0
 40
1.0
 10
117.9998147661563
 20
162.4032982334042
 30
0.0
 10
118.0294756405043
 20
162.4033037397852
 30
0.0
 10
118.0868948843899
 20
162.4033143993574
 30
0.0
 10
118.144164794983
 20
162.4033038662319
 30
0.0
 10
118.1718509718474
 20
162.4032987741692
 30
0.0
  0
SPLINE
  5
9B
330
1F
100
AcDbEntity
  8
0
  6
Continuous
 62
     7
370
    25
100
AcDbSpline
210
0.0
220
0.0
230
1.0
 70
     8
 71
     3
 72
     9
 73
     5
 74
     0
 42
0.00000001
 43
0.00000001
 40
0.0
 40
0.0
 40
0.0
 40
0.0
 40
0.512086911069741
 40
1.0
 40
1.0
 40
1.0
 40
1.0
 10
117.4706473151098
 20
179.6757096531139
 30
0.0
 10
117.441419492661
 20
179.6757117833475
 30
0.0
 10
117.3843435904714
 20
179.6757159432538
 30
0.0
 10
117.3272210013378
 20
179.6757118791263
 30
0.0
 10
117.2993501424259
 20
179.6757098961853
 30
0.0
  0
LINE
  5
9C
330
1F
100
AcDbEntity
  8
0
  6
Continuous
 62
     7
370
    25
100
AcDbLine
 10
118.333134973
 20
162.9145039645
 30
0.0
 11
119.833134973
 21
162.9145039645
 31
0.0
  0
LINE
  5
9D
330
1F
100
AcDbEntity
  8
0
  6
Continuous
 62
     7
370
    25
100
AcDbLine
 10
119.833134973
 20
179.1645039645
 30
0.0
 11
118.333134973
 21
179.1645039645
 31
0.0
  0
LINE
  5
9E
330
1F
100
AcDbEntity
  8
0
  6
Continuous
 62
     7
370
    25
100
AcDbLine
 10
119.8218253207
 20
161.9899366006
 30
0.0
 11
119.833134973
 21
161.9703634255
 31
0.0
  0
LINE
  5
9F
330
1F
100
AcDbEntity
  8
0
  6
Continuous
 62
     7
370
    25
100
AcDbLine
 10
100.8556638545
 20
188.112032846
 30
0.0
 11
99.983134973
 21
187.2395039645
 31
0.0
  0
LINE
  5
A0
330
1F
100
AcDbEntity
  8
0
  6
Continuous
 62
     7
370
    25
100
AcDbLine
 10
99.983134973
 20
154.8395039645
 30
0.0
 11
100.8556638545
 21
153.966975083
 31
0.0
  0
LINE
  5
A1
330
1F
100
AcDbEntity
  8
0
  6
Continuous
 62
     7
370
    25
100
AcDbLine
 10
108.5606060915
 20
153.966975083
 30
0.0
 11
109.433134973
 21
154.8395039645
 31
0.0
  0
LINE
  5
A2
330
1F
100
AcDbEntity
  8
0
  6
Continuous
 62
     7
370
    25
100
AcDbLine
 10
109.433134973
 20
187.2395039645
 30
0.0
 11
108.5606060915
 21
188.112032846
 31
0.0
  0
ARC
  5
A3
330
1F
100
AcDbEntity
  8
0
  6
Continuous
 62
     7
370
    25
100
AcDbCircle
 10
109.433134973
 20
165.2985155924
 30
0.0
 40
9.134011627906984
100
AcDbArc
 50
270.0
 51
328.0464183091
  0
ARC
  5
A4
330
1F
100
AcDbEntity
  8
0
  6
Continuous
 62
     7
370
    25
100
AcDbCircle
 10
109.433134973
 20
176.7804923366
 30
0.0
 40
9.134011627906972
100
AcDbArc
 50
31.9535816909
 51
90.0
  0
LINE
  5
A5
330
1F
100
AcDbEntity
  8
0
  6
Continuous
 62
     7
370
    25
100
AcDbLine
 10
107.9953295881
 20
188.554601103
 30
0.0
 11
101.3957670666
 21
188.554601103
 31
0.0
  0
LINE
  5
A6
330
1F
100
AcDbEntity
  8
0
  6
Continuous
 62
     7
370
    25
100
AcDbLine
 10
101.3957670666
 20
153.524406826
 30
0.0
 11
107.9953295881
 21
153.524406826
 31
0.0
  0
ARC
  5
A7
330
1F
100
AcDbEntity
  8
0
  6
Continuous
 62
     7
370
    25
100
AcDbCircle
 10
41.433134973
 20
235.3530257502
 30
0.0
 40
0.5
100
AcDbArc
 50
180.0
 51
244.1790080258
  0
ARC
  5
A8
330
1F
100
AcDbEntity
  8
0
  6
Continuous
 62
     7
370
    25
100
AcDbCircle
 10
91.033134973
 20
235.3530257502
 30
0.0
 40
0.5
100
AcDbArc
 50
295.8209919742
 51
0.0
  0
LINE
  5
A9
330
1F
100
AcDbEntity
  8
0
  6
Continuous
 62
     7
370
    25
100
AcDbLine
 10
91.533134973
 20
235.3530257502
 30
0.0
 11
91.533134973
 21
238.5395039645
 31
0.0
  0
LINE
  5
AA
330
1F
100
AcDbEntity
  8
0
  6
Continuous
 62
     7
370
    25
100
AcDbLine
 10
40.933134973
 20
238.5395039645
 30
0.0
 11
40.933134973
 21
235.3530257502
 31
0.0
  0
ARC
  5
AB
330
1F
100
AcDbEntity
  8
0
  6
Continuous
 62
     7
370
    25
100
AcDbCircle
 10
41.433134973
 20
238.5395039645
 30
0.0
 40
0.5
100
AcDbArc
 50
90.0
 51
180.0
  0
ARC
  5
AC
330
1F
100
AcDbEntity
  8
0
  6
Continuous
 62
     7
370
    25
100
AcDbCircle
 10
91.033134973
 20
238.5395039645
 30
0.0
 40
0.5
100
AcDbArc
 50
0.0
 51
90.0
  0
LINE
  5
AD
330
1F
100
AcDbEntity
  8
0
  6
Continuous
 62
     7
370
    25
100
AcDbLine
 10
41.215354509
 20
234.9029461245
 30
0.0
 11
49.1042568292
 21
231.0857353244
 31
0.0
  0
LINE
  5
AE
330
1F
100
AcDbEntity
  8
0
  6
Continuous
 62
     7
370
    25
100
AcDbLine
 10
83.3620131168
 20
231.0857353244
 30
0.0
 11
91.2509154371
 21
234.9029461245
 31
0.0
  0
ARC
  5
AF
330
1F
100
AcDbEntity
  8
0
  6
Continuous
 62
     7
370
    25
100
AcDbCircle
 10
84.233134973
 20
229.2854168216
 30
0.0
 40
1.999999999999999
100
AcDbArc
 50
115.8209919742
 51
171.4096175468
  0
ARC
  5
B0
330
1F
100
AcDbEntity
  8
0
  6
Continuous
 62
     7
370
    25
100
AcDbCircle
 10
48.233134973
 20
229.2854168216
 30
0.0
 40
1.999999999999996
100
AcDbArc
 50
8.6121549306
 51
64.1790080258
  0
LINE
  5
B1
330
1F
100
AcDbEntity
  8
0
  6
Continuous
 62
     7
370
    25
100
AcDbLine
 10
79.1506886179
 20
155.3100881404
 30
0.0
 11
95.233134973
 21
155.6469673679
 31
0.0
  0
LINE
  5
B2
330
1F
100
AcDbEntity
  8
0
  6
Continuous
 62
     7
370
    25
100
AcDbLine
 10
95.233134973
 20
186.4320405611
 30
0.0
 11
89.610124165
 21
186.5498258467
 31
0.0
  0
SPLINE
  5
B3
330
1F
100
AcDbEntity
  8
0
  6
Continuous
 62
     7
370
    25
100
AcDbSpline
210
0.0
220
0.0
230
1.0
 70
     8
 71
     3
 72
     9
 73
     5
 74
     0
 42
0.00000001
 43
0.00000001
 40
0.0
 40
0.0
 40
0.0
 40
0.0
 40
0.499996177972525
 40
1.0
 40
1.0
 40
1.0
 40
1.0
 10
96.25807695717499
 20
156.8568515391225
 30
0.0
 10
96.3362600184553
 20
156.7214865093115
 30
0.0
 10
96.49262733629628
 20
156.4507543801984
 30
0.0
 10
96.648990993843
 20
156.1800202949252
 30
0.0
 10
96.72717342024256
 20
156.0446522175355
 30
0.0
  0
SPLINE
  5
B4
330
1F
100
AcDbEntity
  8
0
  6
Continuous
 62
     7
370
    25
100
AcDbSpline
210
0.0
220
0.0
230
1.0
 70
     8
 71
     3
 72
     9
 73
     5
 74
     0
 42
0.00000001
 43
0.00000001
 40
0.0
 40
0.0
 40
0.0
 40
0.0
 40
0.4999960105738552
 40
1.0
 40
1.0
 40
1.0
 40
1.0
 10
97.75791618632948
 20
156.8571312197247
 30
0.0
 10
97.83610053163183
 20
156.7217640698146
 30
0.0
 10
97.99247046988923
 20
156.451027609828
 30
0.0
 10
98.14883658760279
 20
156.1802890450556
 30
0.0
 10
98.22702027027067
 20
156.0449186825779
 30
0.0
  0
SPLINE
  5
B5
330
1F
100
AcDbEntity
  8
0
  6
Continuous
 62
     7
370
    25
100
AcDbSpline
210
0.0
220
0.0
230
1.0
 70
     8
 71
     3
 72
     9
 73
     5
 74
     0
 42
0.00000001
 43
0.00000001
 40
0.0
 40
0.0
 40
0.0
 40
0.0
 40
0.4999960910112508
 40
0.9999999999999999
 40
0.9999999999999999
 40
0.9999999999999999
 40
0.9999999999999999
 10
99.25799953713141
 20
156.8569853565799
 30
0.0
 10
99.33618326812854
 20
156.721619221652
 30
0.0
 10
99.49255195260966
 20
156.4508848352009
 30
0.0
 10
99.64891689354305
 20
156.1801484332187
 30
0.0
 10
99.72709997523852
 20
156.0447791739221
 30
0.0
  0
LINE
  5
B6
330
1F
100
AcDbEntity
  8
0
  6
Continuous
 62
     7
370
    25
100
AcDbLine
 10
100.0112234396
 20
185.2276041455
 30
0.0
 11
100.0080803722
 21
185.2221622556
 31
0.0
  0
SPLINE
  5
B7
330
1F
100
AcDbEntity
  8
0
  6
Continuous
 62
     7
370
    25
100
AcDbSpline
210
0.0
220
0.0
230
1.0
 70
     8
 71
     3
 72
     9
 73
     5
 74
     0
 42
0.00000001
 43
0.00000001
 40
0.0
 40
0.0
 40
0.0
 40
0.0
 40
0.5035653169057785
 40
1.0
 40
1.0
 40
1.0
 40
1.0
 10
98.97700717734509
 20
186.0340661574209
 30
0.0
 10
98.89882404625588
 20
185.8986967568515
 30
0.0
 10
98.74356488033558
 20
185.6298748264588
 30
0.0
 10
98.58830199192124
 20
185.3610551382187
 30
0.0
 10
98.51122410911496
 20
185.2276037214777
 30
0.0
  0
SPLINE
  5
B8
330
1F
100
AcDbEntity
  8
0
  6
Continuous
 62
     7
370
    25
100
AcDbSpline
210
0.0
220
0.0
230
1.0
 70
     8
 71
     3
 72
     9
 73
     5
 74
     0
 42
0.00000001
 43
0.00000001
 40
0.0
 40
0.0
 40
0.0
 40
0.0
 40
0.5000038267495277
 40
1.0
 40
1.0
 40
1.0
 40
1.0
 10
97.47708085712789
 20
186.0341954566591
 30
0.0
 10
97.39889838668422
 20
185.8988272529372
 30
0.0
 10
97.24253464252665
 20
185.6280929175583
 30
0.0
 10
97.08616723362806
 20
185.3573607791657
 30
0.0
 10
97.00798412755768
 20
185.2219957459935
 30
0.0
  0
SPLINE
  5
B9
330
1F
100
AcDbEntity
  8
0
  6
Continuous
 62
     7
370
    25
100
AcDbSpline
210
0.0
220
0.0
230
1.0
 70
     8
 71
     3
 72
     9
 73
     5
 74
     0
 42
0.00000001
 43
0.00000001
 40
0.0
 40
0.0
 40
0.0
 40
0.0
 40
0.4987844281256523
 40
1.0
 40
1.0
 40
1.0
 40
1.0
 10
99.6456914518326
 20
185.2221590373161
 30
0.0
 10
99.5676920739487
 20
185.3571881114512
 30
0.0
 10
99.4113131385096
 20
185.627904409958
 30
0.0
 10
99.25496305471815
 20
185.8986509003098
 30
0.0
 10
99.17659795805803
 20
186.0343532573045
 30
0.0
  0
SPLINE
  5
BA
330
1F
100
AcDbEntity
  8
0
  6
Continuous
 62
     7
370
    25
100
AcDbSpline
210
0.0
220
0.0
230
1.0
 70
     8
 71
     3
 72
     9
 73
     5
 74
     0
 42
0.00000001
 43
0.00000001
 40
0.0
 40
0.0
 40
0.0
 40
0.0
 40
0.4984739077222043
 40
0.9999999999999999
 40
0.9999999999999999
 40
0.9999999999999999
 40
0.9999999999999999
 10
98.1456914518326
 20
185.2221590373161
 30
0.0
 10
98.06773734447782
 20
185.3570986145837
 30
0.0
 10
97.9113518122621
 20
185.6278040119516
 30
0.0
 10
97.75500830587124
 20
185.8985613750395
 30
0.0
 10
97.67659795805803
 20
186.0343532573045
 30
0.0
  0
SPLINE
  5
BB
330
1F
100
AcDbEntity
  8
0
  6
Continuous
 62
     7
370
    25
100
AcDbSpline
210
0.0
220
0.0
230
1.0
 70
     8
 71
     3
 72
     9
 73
     5
 74
     0
 42
0.00000001
 43
0.00000001
 40
0.0
 40
0.0
 40
0.0
 40
0.0
 40
0.4981617098938687
 40
1.0
 40
1.0
 40
1.0
 40
1.0
 10
96.6456914518326
 20
185.2221590373161
 30
0.0
 10
96.5677825112752
 20
185.3570066493091
 30
0.0
 10
96.41138963922165
 20
185.6276970884069
 30
0.0
 10
96.25505344596411
 20
185.8984693623438
 30
0.0
 10
96.17659795805803
 20
186.0343532573045
 30
0.0
  0
LINE
  5
BC
330
1F
100
AcDbEntity
  8
0
  6
Continuous
 62
     7
370
    25
100
AcDbLine
 10
99.9265988648
 20
156.0446562302
 30
0.0
 11
99.983134973
 21
156.1425491259
 31
0.0
  0
SPLINE
  5
BD
330
1F
100
AcDbEntity
  8
0
  6
Continuous
 62
     7
370
    25
100
AcDbSpline
210
0.0
220
0.0
230
1.0
 70
     8
 71
     3
 72
     9
 73
     5
 74
     0
 42
0.00000001
 43
0.00000001
 40
0.0
 40
0.0
 40
0.0
 40
0.0
 40
0.5012156693466765
 40
1.0
 40
1.0
 40
1.0
 40
1.0
 10
98.4265988648233
 20
156.0446562301575
 30
0.0
 10
98.50496396076645
 20
156.1803586573866
 30
0.0
 10
98.66131401272166
 20
156.4511052352139
 30
0.0
 10
98.81769300533371
 20
156.7218214889867
 30
0.0
 10
98.89569239649194
 20
156.8568505144218
 30
0.0
  0
SPLINE
  5
BE
330
1F
100
AcDbEntity
  8
0
  6
Continuous
 62
     7
370
    25
100
AcDbSpline
210
0.0
220
0.0
230
1.0
 70
     8
 71
     3
 72
     9
 73
     5
 74
     0
 42
0.00000001
 43
0.00000001
 40
0.0
 40
0.0
 40
0.0
 40
0.0
 40
0.5015262135375156
 40
1.0
 40
1.0
 40
1.0
 40
1.0
 10
96.9265988648233
 20
156.0446562301575
 30
0.0
 10
97.0050092101953
 20
156.1804481974948
 30
0.0
 10
97.1613526739176
 20
156.4512056647457
 30
0.0
 10
97.31773827418064
 20
156.7219110006286
 30
0.0
 10
97.39569239649194
 20
156.8568505144218
 30
0.0
  0
SPLINE
  5
BF
330
1F
100
AcDbEntity
  8
0
  6
Continuous
 62
     7
370
    25
100
AcDbSpline
210
0.0
220
0.0
230
1.0
 70
     8
 71
     3
 72
     9
 73
     5
 74
     0
 42
0.00000001
 43
0.00000001
 40
0.0
 40
0.0
 40
0.0
 40
0.0
 40
0.5018384349021675
 40
1.0
 40
1.0
 40
1.0
 40
1.0
 10
95.42659886482329
 20
156.0446562301575
 30
0.0
 10
95.50505434857857
 20
156.1805402250761
 30
0.0
 10
95.66139048845709
 20
156.4513126200703
 30
0.0
 10
95.81778343931988
 20
156.7220029807091
 30
0.0
 10
95.89569239649194
 20
156.8568505144218
 30
0.0
  0
LINE
  5
C0
330
1F
100
AcDbEntity
  8
0
  6
Continuous
 62
     7
370
    25
100
AcDbLine
 10
96.1706124628
 20
186.0395039645
 30
0.0
 11
95.233134973
 21
186.0395039645
 31
0.0
  0
LINE
  5
C1
330
1F
100
AcDbEntity
  8
0
  6
Continuous
 62
     7
370
    25
100
AcDbLine
 10
97.6706124628
 20
186.0395039645
 30
0.0
 11
97.4830628055
 21
186.0395039645
 31
0.0
  0
LINE
  5
C2
330
1F
100
AcDbEntity
  8
0
  6
Continuous
 62
     7
370
    25
100
AcDbLine
 10
99.1706124628
 20
186.0395039645
 30
0.0
 11
98.9830628055
 21
186.0395039645
 31
0.0
  0
LINE
  5
C3
330
1F
100
AcDbEntity
  8
0
  6
Continuous
 62
     7
370
    25
100
AcDbLine
 10
99.7332436181
 20
156.0395039645
 30
0.0
 11
99.9207118707
 21
156.0395039645
 31
0.0
  0
LINE
  5
C4
330
1F
100
AcDbEntity
  8
0
  6
Continuous
 62
     7
370
    25
100
AcDbLine
 10
98.2332436181
 20
156.0395039645
 30
0.0
 11
98.4207118707
 21
156.0395039645
 31
0.0
  0
LINE
  5
C5
330
1F
100
AcDbEntity
  8
0
  6
Continuous
 62
     7
370
    25
100
AcDbLine
 10
96.7332436181
 20
156.0395039645
 30
0.0
 11
96.9207118707
 21
156.0395039645
 31
0.0
  0
LINE
  5
C6
330
1F
100
AcDbEntity
  8
0
  6
Continuous
 62
     7
370
    25
100
AcDbLine
 10
95.233134973
 20
156.0395039645
 30
0.0
 11
95.4207118707
 21
156.0395039645
 31
0.0
  0
LINE
  5
C7
330
1F
100
AcDbEntity
  8
0
  6
Continuous
 62
     7
370
    25
100
AcDbLine
 10
52.2557219046
 20
213.3126191739
 30
0.0
 11
52.9130520697
 21
184.8830895335
 31
0.0
  0
LINE
  5
C8
330
1F
100
AcDbEntity
  8
0
  6
Continuous
 62
     7
370
    25
100
AcDbLine
 10
79.8277848863
 20
196.7581127159
 30
0.0
 11
80.2105480414
 21
213.3126191739
 31
0.0
  0
SPLINE
  5
C9
330
1F
100
AcDbEntity
  8
0
  6
Continuous
 62
     7
370
    25
100
AcDbSpline
210
0.0
220
0.0
230
1.0
 70
     8
 71
     3
 72
     9
 73
     5
 74
     0
 42
0.00000001
 43
0.00000001
 40
0.0
 40
0.0
 40
0.0
 40
0.0
 40
0.5027752844605446
 40
1.0
 40
1.0
 40
1.0
 40
1.0
 10
100.0144229289558
 20
185.2276049525273
 30
0.0
 10
99.9521082650646
 20
185.2275813525015
 30
0.0
 10
99.82816688246837
 20
185.2275344129908
 30
0.0
 10
99.70419040274528
 20
185.2275810033875
 30
0.0
 10
99.64254623288139
 20
185.2276041692843
 30
0.0
  0
SPLINE
  5
CA
330
1F
100
AcDbEntity
  8
0
  6
Continuous
 62
     7
370
    25
100
AcDbSpline
210
0.0
220
0.0
230
1.0
 70
     8
 71
     3
 72
     9
 73
     5
 74
     0
 42
0.00000001
 43
0.00000001
 40
0.0
 40
0.0
 40
0.0
 40
0.0
 40
0.5024505677200923
 40
0.9999999999999999
 40
0.9999999999999999
 40
0.9999999999999999
 40
0.9999999999999999
 10
98.51442292895584
 20
185.2276049525273
 30
0.0
 10
98.4521566116668
 20
185.2275689878169
 30
0.0
 10
98.32823135157291
 20
185.2274974092125
 30
0.0
 10
98.20423874658324
 20
185.2275684252598
 30
0.0
 10
98.14254629636372
 20
185.2276037592538
 30
0.0
  0
SPLINE
  5
CB
330
1F
100
AcDbEntity
  8
0
  6
Continuous
 62
     7
370
    25
100
AcDbSpline
210
0.0
220
0.0
230
1.0
 70
     8
 71
     3
 72
     9
 73
     5
 74
     0
 42
0.00000001
 43
0.00000001
 40
0.0
 40
0.0
 40
0.0
 40
0.0
 40
0.5021449888945024
 40
1.0
 40
1.0
 40
1.0
 40
1.0
 10
97.01442292895584
 20
185.2276049525273
 30
0.0
 10
96.9522061728178
 20
185.2275540407778
 30
0.0
 10
96.82830419726487
 20
185.2274526522334
 30
0.0
 10
96.70428830231596
 20
185.2275532037549
 30
0.0
 10
96.64254636755892
 20
185.2276032638337
 30
0.0
  0
SPLINE
  5
CC
330
1F
100
AcDbEntity
  8
0
  6
Continuous
 62
     7
370
    25
100
AcDbSpline
210
0.0
220
0.0
230
1.0
 70
     8
 71
     3
 72
     9
 73
     5
 74
     0
 42
0.00000001
 43
0.00000001
 40
0.0
 40
0.0
 40
0.0
 40
0.0
 40
0.5057289412931915
 40
1.0
 40
1.0
 40
1.0
 40
1.0
 10
98.88942411324265
 20
156.8514029891144
 30
0.0
 10
98.95210948417011
 20
156.8514267704832
 30
0.0
 10
99.07606001539173
 20
156.8514737944259
 30
0.0
 10
99.19997545667799
 20
156.8514269522861
 30
0.0
 10
99.26122327303266
 20
156.8514037995721
 30
0.0
  0
SPLINE
  5
CD
330
1F
100
AcDbEntity
  8
0
  6
Continuous
 62
     7
370
    25
100
AcDbSpline
210
0.0
220
0.0
230
1.0
 70
     8
 71
     3
 72
     9
 73
     5
 74
     0
 42
0.00000001
 43
0.00000001
 40
0.0
 40
0.0
 40
0.0
 40
0.0
 40
0.5060529424439243
 40
1.0
 40
1.0
 40
1.0
 40
1.0
 10
97.38942411324265
 20
156.8514029891144
 30
0.0
 10
97.45215787706115
 20
156.8514392367118
 30
0.0
 10
97.5761246768895
 20
156.8515108647853
 30
0.0
 10
97.70002414559383
 20
156.851439483239
 30
0.0
 10
97.76122392359308
 20
156.8514042245343
 30
0.0
  0
SPLINE
  5
CE
330
1F
100
AcDbEntity
  8
0
  6
Continuous
 62
     7
370
    25
100
AcDbSpline
210
0.0
220
0.0
230
1.0
 70
     8
 71
     3
 72
     9
 73
     5
 74
     0
 42
0.00000001
 43
0.00000001
 40
0.0
 40
0.0
 40
0.0
 40
0.0
 40
0.5063601542004668
 40
1.0
 40
1.0
 40
1.0
 40
1.0
 10
95.88942411324265
 20
156.8514029891144
 30
0.0
 10
95.95220751736423
 20
156.8514543187
 30
0.0
 10
96.07619713937689
 20
156.851555688417
 30
0.0
 10
96.20007286584146
 20
156.8514546274431
 30
0.0
 10
96.26122286035174
 20
156.8514047397195
 30
0.0
  0
SPLINE
  5
CF
330
1F
100
AcDbEntity
  8
0
  6
Continuous
 62
     7
370
    25
100
AcDbSpline
210
0.0
220
0.0
230
1.0
 70
     8
 71
     3
 72
    21
 73
    17
 74
     0
 42
0.00000001
 43
0.00000001
 40
0.0
 40
0.0
 40
0.0
 40
0.0
 40
0.0117164101017053
 40
0.0893714943355926
 40
0.1686249285674245
 40
0.2488870544795392
 40
0.3297929507613546
 40
0.4111063415291174
 40
0.501541066230516
 40
0.5886967728698952
 40
0.6726206904344852
 40
0.7536819780865828
 40
0.8320882007481818
 40
0.9079302601854023
 40
0.9812087775594519
 40
1.0
 40
1.0
 40
1.0
 40
1.0
 10
89.60281768177974
 20
186.5265870622226
 30
0.0
 10
89.54131297023594
 20
186.5248436694663
 30
0.0
 10
89.0721617599561
 20
186.5115452602699
 30
0.0
 10
88.18878658460986
 20
186.6285185333298
 30
0.0
 10
86.9712483164472
 20
186.8931617967846
 30
0.0
 10
85.78163908389433
 20
187.3283240644971
 30
0.0
 10
84.64666597140562
 20
187.9118342831229
 30
0.0
 10
83.55138606913475
 20
188.6666607224528
 30
0.0
 10
82.54282661057469
 20
189.5849774781975
 30
0.0
 10
81.66387652911472
 20
190.6453532553342
 30
0.0
 10
80.96144853819612
 20
191.7721167526276
 30
0.0
 10
80.4310967820114
 20
192.9382289991956
 30
0.0
 10
80.0607778355622
 20
194.1209899987643
 30
0.0
 10
79.8546722528436
 20
195.2987071857796
 30
0.0
 10
79.77676753165872
 20
196.1814385709741
 30
0.0
 10
79.80623218185357
 20
196.6641084492963
 30
0.0
 10
79.8122458492872
 20
196.762620262919
 30
0.0
  0
ARC
  5
D0
330
1F
100
AcDbEntity
  8
0
  6
Continuous
 62
     7
370
    25
100
AcDbCircle
 10
51.2559890967
 20
213.2895039645
 30
0.0
 40
1.0
100
AcDbArc
 50
1.3245219123
 51
90.0
  0
ARC
  5
D1
330
1F
100
AcDbEntity
  8
0
  6
Continuous
 62
     7
370
    25
100
AcDbCircle
 10
81.2102808493
 20
213.2895039645
 30
0.0
 40
1.0
100
AcDbArc
 50
90.0
 51
178.6754780877
  0
ARC
  5
D2
330
1F
100
AcDbEntity
  8
0
  6
Continuous
 62
     7
370
    25
100
AcDbCircle
 10
66.233134973
 20
171.0395039645
 30
0.0
 40
17.0
100
AcDbArc
 50
149.7241140142
 51
217.3244047845
  0
ARC
  5
D3
330
1F
100
AcDbEntity
  8
0
  6
Continuous
 62
     7
370
    25
100
AcDbCircle
 10
42.9157239912
 20
184.6519374392
 30
0.0
 40
10.0
100
AcDbArc
 50
329.7241140142
 51
1.3245219123
  0
LINE
  5
D4
330
1F
100
AcDbEntity
  8
0
  6
Continuous
 62
     7
370
    25
100
AcDbLine
 10
48.2220279741
 20
226.7895039645
 30
0.0
 11
48.2220279741
 21
216.0395039645
 31
0.0
  0
ARC
  5
D5
330
1F
100
AcDbEntity
  8
0
  6
Continuous
 62
     7
370
    25
100
AcDbCircle
 10
49.9720279741
 20
216.0395039645
 30
0.0
 40
1.75
100
AcDbArc
 50
180.0
 51
270.0
  0
ARC
  5
D6
330
1F
100
AcDbEntity
  8
0
  6
Continuous
 62
     7
370
    25
100
AcDbCircle
 10
82.4942419719
 20
216.0395039645
 30
0.0
 40
1.75
100
AcDbArc
 50
270.0
 51
0.0
  0
ARC
  5
D7
330
1F
100
AcDbEntity
  8
0
  6
Continuous
 62
     7
370
    25
100
AcDbCircle
 10
82.4942419719
 20
226.7895039645
 30
0.0
 40
1.750000000000018
100
AcDbArc
 50
0.0
 51
74.1552676611
  0
LINE
  5
D8
330
1F
100
AcDbEntity
  8
0
  6
Continuous
 62
     7
370
    25
100
AcDbLine
 10
84.2442419719
 20
216.0395039645
 30
0.0
 11
84.2442419719
 21
226.7895039645
 31
0.0
  0
ARC
  5
D9
330
1F
100
AcDbEntity
  8
0
  6
Continuous
 62
     7
370
    25
100
AcDbCircle
 10
49.9720279741
 20
226.7895039645
 30
0.0
 40
1.750000000000008
100
AcDbArc
 50
105.8492995417
 51
180.0
  0
ARC
  5
DA
330
1F
100
AcDbEntity
  8
0
  6
Continuous
 62
     7
370
    25
100
AcDbCircle
 10
83.2444169633
 20
229.4352056639
 30
0.0
 40
1.000000000000003
100
AcDbArc
 50
171.3922075034
 51
254.1359128707
  0
ARC
  5
DB
330
1F
100
AcDbEntity
  8
0
  6
Continuous
 62
     7
370
    25
100
AcDbCircle
 10
49.2218529827
 20
229.4352056639
 30
0.0
 40
0.9999999999999996
100
AcDbArc
 50
285.8464245101
 51
8.5803905663
  0
SPLINE
  5
DC
330
1F
100
AcDbEntity
  8
0
  6
Continuous
 62
     7
370
    25
100
AcDbSpline
210
0.0
220
0.0
230
1.0
 70
     8
 71
     3
 72
    14
 73
    10
 74
     0
 42
0.00000001
 43
0.00000001
 40
0.0
 40
0.0
 40
0.0
 40
0.0
 40
0.1674953967514861
 40
0.3349934163585775
 40
0.5032462816992479
 40
0.6714991411557939
 40
0.8356517455194912
 40
0.9178262317825293
 40
1.0
 40
1.0
 40
1.0
 40
1.0
 10
79.87728600177034
 20
161.9854900683268
 30
0.0
 10
79.08519160711292
 20
154.5128943658336
 30
0.0
 10
77.50099041417826
 20
139.5675859454552
 30
0.0
 10
76.03231086519806
 20
117.0341806176261
 30
0.0
 10
75.23471403067491
 20
94.43854351266394
 30
0.0
 10
75.1741313372826
 20
71.98097374461896
 30
0.0
 10
75.7178382450649
 20
53.39730557491475
 30
0.0
 10
76.47798294152196
 20
38.69186797929824
 30
0.0
 10
77.00306350738197
 20
31.34840074114417
 30
0.0
 10
77.26560264326062
 20
27.67668316405106
 30
0.0
  0
ARC
  5
DD
330
1F
100
AcDbEntity
  8
0
  6
Continuous
 62
     7
370
    25
100
AcDbCircle
 10
75.1797201953
 20
34.5917184154
 30
0.0
 40
7.222784650941107
100
AcDbArc
 50
271.4178625931
 51
286.7856488342
  0
SPLINE
  5
DE
330
1F
100
AcDbEntity
  8
0
  6
Continuous
 62
     7
370
    25
100
AcDbSpline
210
0.0
220
0.0
230
1.0
 70
     8
 71
     3
 72
    17
 73
    13
 74
     0
 42
0.00000001
 43
0.00000001
 40
0.0
 40
0.0
 40
0.0
 40
0.0
 40
0.0820855532367419
 40
0.1641721973052215
 40
0.2463931958996416
 40
0.3286145543660164
 40
0.4402105357285557
 40
0.5518234425749028
 40
0.6634204670085674
 40
0.775608727764028
 40
0.8878131263173653
 40
1.0
 40
1.0
 40
1.0
 40
1.0
 10
75.3584396588903
 20
27.37114520633915
 30
0.0
 10
75.04684710146917
 20
31.05130647365434
 30
0.0
 10
74.42365784588547
 20
38.41167791380523
 30
0.0
 10
73.74640236882718
 20
49.48614539685946
 30
0.0
 10
73.25540920154661
 20
60.57875147033369
 30
0.0
 10
72.93302788212551
 20
73.01003887441026
 30
0.0
 10
72.86259246587258
 20
86.7720241388657
 30
0.0
 10
73.14428328621526
 20
101.8570062878803
 30
0.0
 10
73.77836961209324
 20
116.9595824341757
 30
0.0
 10
74.77110176607823
 20
132.0701119964298
 30
0.0
 10
76.089270396623
 20
147.184211522403
 30
0.0
 10
77.25826834980948
 20
157.2294188552814
 30
0.0
 10
77.84272167726097
 20
162.2516302583363
 30
0.0
  0
ARC
  5
DF
330
1F
100
AcDbEntity
  8
0
  6
Continuous
 62
     7
370
    25
100
AcDbCircle
 10
73.6089540241
 20
121.9758120112
 30
0.0
 40
40.49773233181762
100
AcDbArc
 50
81.0958296646
 51
83.9991437087
  0
LINE
  5
E0
330
1F
100
AcDbEntity
  8
0
  6
Continuous
 62
     7
370
    25
100
AcDbLine
 10
79.8704027295
 20
161.7676958327
 30
0.0
 11
79.8772860018
 21
161.9854900683
 31
0.0
  0
ELLIPSE
  5
E1
330
1F
100
AcDbEntity
  8
0
  6
Continuous
 62
     7
370
    25
100
AcDbEllipse
 10
780.233134973
 20
82.4334220476
 30
0.0
 11
704.9999999999997
 21
6.128146878836560E-10
 31
0.0
210
0.0
220
0.0
230
1.0
 40
0.9821487217
 41
3.030598102475607
 42
3.033431865790342
  0
SPLINE
  5
E2
330
1F
100
AcDbEntity
  8
0
  6
Continuous
 62
     7
370
    25
100
AcDbSpline
210
0.0
220
0.0
230
1.0
 70
     8
 71
     3
 72
    11
 73
     7
 74
     0
 42
0.00000001
 43
0.00000001
 40
0.0
 40
0.0
 40
0.0
 40
0.0
 40
0.295175577964666
 40
0.5904561684506295
 40
0.8852859122622345
 40
1.0
 40
1.0
 40
1.0
 40
1.0
 10
78.78102813351245
 20
151.7428589618949
 30
0.0
 10
78.84979946403749
 20
152.4192932770757
 30
0.0
 10
78.98736659137595
 20
153.7724025576747
 30
0.0
 10
79.17621240440154
 20
155.557715525001
 30
0.0
 10
79.29482766852762
 20
156.6525955311812
 30
0.0
 10
79.34021473507283
 20
157.0642996421632
 30
0.0
 10
79.35292774777803
 20
157.1796188287092
 30
0.0
  0
LWPOLYLINE
  5
E3
330
1F
100
AcDbEntity
  8
0
  6
Continuous
 62
     7
370
    25
100
AcDbPolyline
 90
        9
 70
   128
 43
0.0
 10
80.5304363388
 20
168.6160333448
 10
80.4946785069
 20
168.6192392865
 10
80.3886881184
 20
168.6281771831
 10
80.2149849018
 20
168.6426345524
 10
79.977698335
 20
168.6622676968
 10
79.6824694746
 20
168.686609874
 10
79.3363168496
 20
168.715082393
 10
78.9474696089
 20
168.7470083714
 10
78.5251718883
 20
168.7816288272
  0
SPLINE
  5
E4
330
1F
100
AcDbEntity
  8
0
  6
Continuous
 62
     7
370
    25
100
AcDbSpline
210
0.0
220
0.0
230
1.0
 70
     8
 71
     3
 72
    16
 73
    12
 74
     0
 42
0.00000001
 43
0.00000001
 40
0.0
 40
0.0
 40
0.0
 40
0.0
 40
0.1011114183972974
 40
0.2058198974052868
 40
0.3085551739473933
 40
0.4143883541457384
 40
0.5236167436258542
 40
0.635882817114656
 40
0.7506471644410554
 40
0.8687206501406435
 40
1.0
 40
1.0
 40
1.0
 40
1.0
 10
78.5251718882554
 20
168.7816288272194
 30
0.0
 10
78.54776644270709
 20
169.4276886628023
 30
0.0
 10
78.59375935777912
 20
170.7427920525587
 30
0.0
 10
78.2224556485956
 20
172.6841664386375
 30
0.0
 10
77.53986322494222
 20
174.5493351934854
 30
0.0
 10
76.53737551868615
 20
176.2883851693886
 30
0.0
 10
75.22589639469983
 20
177.8771321578835
 30
0.0
 10
73.62481763510473
 20
179.2657775760321
 30
0.0
 10
71.76169633097007
 20
180.3991163963367
 30
0.0
 10
69.61670077007257
 20
181.2891230990039
 30
0.0
 10
68.0473269910292
 20
181.5627228812548
 30
0.0
 10
67.22108264960306
 20
181.7067677703174
 30
0.0
  0
ARC
  5
E5
330
1F
100
AcDbEntity
  8
0
  6
Continuous
 62
     7
370
    25
100
AcDbCircle
 10
40.8007889336
 20
185.9706978506
 30
0.0
 40
26.76215648573111
100
AcDbArc
 50
350.8321736663
 51
357.3810719072
  0
SPLINE
  5
E6
330
1F
100
AcDbEntity
  8
0
  6
Continuous
 62
     7
370
    25
100
AcDbSpline
210
0.0
220
0.0
230
1.0
 70
     8
 71
     3
 72
    16
 73
    12
 74
     0
 42
0.00000001
 43
0.00000001
 40
0.0
 40
0.0
 40
0.0
 40
0.0
 40
0.1265652235786989
 40
0.2399180908748048
 40
0.3532935642782803
 40
0.4634120317902187
 40
0.5735332456088027
 40
0.6798831241162325
 40
0.7862170680527379
 40
0.8931143231863432
 40
1.0
 40
1.0
 40
1.0
 40
1.0
 10
67.53499313036423
 20
184.7478545510942
 30
0.0
 10
68.48896603169669
 20
184.5679828289272
 30
0.0
 10
70.29732500079115
 20
184.2270164958031
 30
0.0
 10
72.76931620922824
 20
183.1131653348012
 30
0.0
 10
74.9150976476861
 20
181.7056490281434
 30
0.0
 10
76.76138443016816
 20
179.96289875597
 30
0.0
 10
78.26699807157122
 20
177.9878418605137
 30
0.0
 10
79.41487294786067
 20
175.8113920287893
 30
0.0
 10
80.1932262054903
 20
173.4983732858308
 30
0.0
 10
80.61196034548512
 20
171.0730685661289
 30
0.0
 10
80.55761002648514
 20
169.4350155133528
 30
0.0
 10
80.530436338771
 20
168.6160333448144
 30
0.0
  0
LWPOLYLINE
  5
E7
330
1F
100
AcDbEntity
  8
0
  6
Continuous
 62
     7
370
    25
100
AcDbPolyline
 90
        9
 70
   128
 43
0.0
 10
53.9410980578
 20
168.7816288272
 10
53.5188003371
 20
168.7470083714
 10
53.1299530964
 20
168.715082393
 10
52.7838004714
 20
168.686609874
 10
52.488571611
 20
168.6622676968
 10
52.2512850443
 20
168.6426345524
 10
52.0775818276
 20
168.6281771831
 10
51.9715914391
 20
168.6192392865
 10
51.9358336072
 20
168.6160333448
  0
SPLINE
  5
E8
330
1F
100
AcDbEntity
  8
0
  6
Continuous
 62
     7
370
    25
100
AcDbSpline
210
0.0
220
0.0
230
1.0
 70
     8
 71
     3
 72
    16
 73
    12
 74
     0
 42
0.00000001
 43
0.00000001
 40
0.0
 40
0.0
 40
0.0
 40
0.0
 40
0.1053590165756655
 40
0.2137857859545509
 40
0.3187137499916416
 40
0.4264694089216682
 40
0.5350817333641125
 40
0.6467087676178402
 40
0.7583511234424992
 40
0.8734401572121758
 40
1.0
 40
1.0
 40
1.0
 40
1.0
 10
51.93583360724356
 20
168.6160333448144
 30
0.0
 10
51.90774486425059
 20
169.4233264204773
 30
0.0
 10
51.85074951451783
 20
171.061418633993
 30
0.0
 10
52.26867091951583
 20
173.4763647666082
 30
0.0
 10
53.04488148247996
 20
175.802343658885
 30
0.0
 10
54.18849832374337
 20
177.9685373741126
 30
0.0
 10
55.69511820854497
 20
179.9559008566667
 30
0.0
 10
57.53292891413544
 20
181.6892567198331
 30
0.0
 10
59.68344713906127
 20
183.1093003118033
 30
0.0
 10
62.15629701034028
 20
184.2236686995826
 30
0.0
 10
63.97746722492916
 20
184.5676826119919
 30
0.0
 10
64.93127681565319
 20
184.7478545510946
 30
0.0
  0
ARC
  5
E9
330
1F
100
AcDbEntity
  8
0
  6
Continuous
 62
     7
370
    25
100
AcDbCircle
 10
91.6654810111
 20
185.9706978505
 30
0.0
 40
26.7621564844674
100
AcDbArc
 50
182.6189280927
 51
189.1678263338
  0
SPLINE
  5
EA
330
1F
100
AcDbEntity
  8
0
  6
Continuous
 62
     7
370
    25
100
AcDbSpline
210
0.0
220
0.0
230
1.0
 70
     8
 71
     3
 72
    16
 73
    12
 74
     0
 42
0.00000001
 43
0.00000001
 40
0.0
 40
0.0
 40
0.0
 40
0.0
 40
0.1312858888381212
 40
0.2477037353016334
 40
0.3641242697899623
 40
0.4748881263150849
 40
0.5856211994970285
 40
0.6899344443378583
 40
0.7941891369142512
 40
0.8971121747277486
 40
1.0
 40
1.0
 40
1.0
 40
1.0
 10
65.24518729641385
 20
181.7067677703177
 30
0.0
 10
64.41882305180954
 20
181.5629430554284
 30
0.0
 10
62.85967978119811
 20
181.2915816820009
 30
0.0
 10
60.71532179240514
 20
180.4020241551809
 30
0.0
 10
58.85673826936731
 20
179.2783031693821
 30
0.0
 10
57.24864233525496
 20
177.8826678298829
 30
0.0
 10
55.93881167351542
 20
176.3045357246442
 30
0.0
 10
54.93268896065985
 20
174.5571933581119
 30
0.0
 10
54.24829019285546
 20
172.7046665999602
 30
0.0
 10
53.87661760845441
 20
170.7540324011369
 30
0.0
 10
53.91960702636907
 20
169.4390216893632
 30
0.0
 10
53.94109805775899
 20
168.78162882722
 30
0.0
  0
SPLINE
  5
EB
330
1F
100
AcDbEntity
  8
0
  6
Continuous
 62
     7
370
    25
100
AcDbSpline
210
0.0
220
0.0
230
1.0
 70
     8
 71
     3
 72
     9
 73
     5
 74
     0
 42
0.00000001
 43
0.00000001
 40
0.0
 40
0.0
 40
0.0
 40
0.0
 40
0.0585870904816303
 40
1.0
 40
1.0
 40
1.0
 40
1.0
 10
65.24518729641385
 20
181.7067677703177
 30
0.0
 10
65.28352007765581
 20
181.7112874029692
 30
0.0
 10
65.93780724103665
 20
181.7884312347307
 30
0.0
 10
66.59880800098564
 20
181.7463673007716
 30
0.0
 10
67.22108264960306
 20
181.7067677703174
 30
0.0
  0
LINE
  5
EC
330
1F
100
AcDbEntity
  8
0
  6
Continuous
 62
     7
370
    25
100
AcDbLine
 10
67.5349931304
 20
184.7478545511
 30
0.0
 11
64.9312768157
 21
184.7478545511
 31
0.0
  0
SPLINE
  5
ED
330
1F
100
AcDbEntity
  8
0
  6
Continuous
 62
     7
370
    25
100
AcDbSpline
210
0.0
220
0.0
230
1.0
 70
     8
 71
     3
 72
    16
 73
    12
 74
     0
 42
0.00000001
 43
0.00000001
 40
0.0
 40
0.0
 40
0.0
 40
0.0
 40
0.1006127915714309
 40
0.2012779882456505
 40
0.3042275840546246
 40
0.4072703879618032
 40
0.5202290237223941
 40
0.6332426808756452
 40
0.7558084970832557
 40
0.8783789753080344
 40
1.0
 40
1.0
 40
1.0
 40
1.0
 10
56.47901285758783
 20
16.93436743641066
 30
0.0
 10
56.49077987032262
 20
16.46234566224075
 30
0.0
 10
56.51432002474955
 20
15.5180562569954
 30
0.0
 10
56.87097675669087
 20
14.13051939764157
 30
0.0
 10
57.4535703476809
 20
12.82826982595148
 30
0.0
 10
58.27337217983736
 20
11.602687916414
 30
0.0
 10
59.31552635757367
 20
10.50429184143517
 30
0.0
 10
60.59264218319139
 20
9.532708366402964
 30
0.0
 10
62.05956186993393
 20
8.762920850282436
 30
0.0
 10
63.67690237116505
 20
8.19945504168193
 30
0.0
 10
64.80951815176452
 20
8.041396772302312
 30
0.0
 10
65.37362415125037
 20
7.962674914852835
 30
0.0
  0
LINE
  5
EE
330
1F
100
AcDbEntity
  8
0
  6
Continuous
 62
     7
370
    25
100
AcDbLine
 10
57.1078302871
 20
27.3711452064
 30
0.0
 11
56.4790128576
 21
16.9343674364
 31
0.0
  0
SPLINE
  5
EF
330
1F
100
AcDbEntity
  8
0
  6
Continuous
 62
     7
370
    25
100
AcDbSpline
210
0.0
220
0.0
230
1.0
 70
     8
 71
     3
 72
    15
 73
    11
 74
     0
 42
0.00000001
 43
0.00000001
 40
0.0
 40
0.0
 40
0.0
 40
0.0
 40
0.1228706801416188
 40
0.2457421073061568
 40
0.3689633767266011
 40
0.4921845652253977
 40
0.6189240972439433
 40
0.745662684214279
 40
0.8728336965048737
 40
1.0
 40
1.0
 40
1.0
 40
1.0
 10
54.62354826875517
 20
162.2516302583217
 30
0.0
 10
55.26026314910015
 20
156.7507338567248
 30
0.0
 10
56.53369678085691
 20
145.7489076094608
 30
0.0
 10
57.9225798753001
 20
129.1755979468937
 30
0.0
 10
58.92226504886647
 20
112.5607161245318
 30
0.0
 10
59.49323678511488
 20
95.75217448807324
 30
0.0
 10
59.62682626521951
 20
78.77742077089671
 30
0.0
 10
59.28621856298358
 20
61.6316121309294
 30
0.0
 10
58.50558141821926
 20
44.48207393393397
 30
0.0
 10
57.5737415801358
 20
33.07471771703233
 30
0.0
 10
57.1078302871252
 20
27.37114520635251
 30
0.0
  0
LINE
  5
F0
330
1F
100
AcDbEntity
  8
0
  6
Continuous
 62
     7
370
    25
100
AcDbLine
 10
53.9410980578
 20
168.7816288272
 30
0.0
 11
54.6235482688
 21
162.2516302583
 31
0.0
  0
LINE
  5
F1
330
1F
100
AcDbEntity
  8
0
  6
Continuous
 62
     7
370
    25
100
AcDbLine
 10
77.8427216773
 20
162.2516302583
 30
0.0
 11
78.5251718883
 21
168.7816288272
 31
0.0
  0
LINE
  5
F2
330
1F
100
AcDbEntity
  8
0
  6
Continuous
 62
     7
370
    25
100
AcDbLine
 10
75.9872570884
 20
16.9343674364
 30
0.0
 11
75.3584396589
 21
27.3711452063
 31
0.0
  0
SPLINE
  5
F3
330
1F
100
AcDbEntity
  8
0
  6
Continuous
 62
     7
370
    25
100
AcDbSpline
210
0.0
220
0.0
230
1.0
 70
     8
 71
     3
 72
    16
 73
    12
 74
     0
 42
0.00000001
 43
0.00000001
 40
0.0
 40
0.0
 40
0.0
 40
0.0
 40
0.1216210246919496
 40
0.2441915029167302
 40
0.3667573191243442
 40
0.4797709762775905
 40
0.5927296120381758
 40
0.6957724159453555
 40
0.7987220117543322
 40
0.8993872084285616
 40
1.0
 40
1.0
 40
1.0
 40
1.0
 10
67.09264579476408
 20
7.962674914852808
 30
0.0
 10
67.65675179424983
 20
8.041396772302312
 30
0.0
 10
68.78936757484921
 20
8.199455041682013
 30
0.0
 10
70.40670807608029
 20
8.76292085028224
 30
0.0
 10
71.87362776282282
 20
9.532708366402964
 30
0.0
 10
73.15074358844052
 20
10.50429184143503
 30
0.0
 10
74.19289776617687
 20
11.60268791641375
 30
0.0
 10
75.01269959833334
 20
12.82826982595117
 30
0.0
 10
75.59529318932344
 20
14.13051939764135
 30
0.0
 10
75.95194992126477
 20
15.51805625699521
 30
0.0
 10
75.97549007569174
 20
16.46234566224061
 30
0.0
 10
75.98725708842652
 20
16.93436743641055
 30
0.0
  0
LINE
  5
F4
330
1F
100
AcDbEntity
  8
0
  6
Continuous
 62
     7
370
    25
100
AcDbLine
 10
67.0926457948
 20
7.9626749149
 30
0.0
 11
65.3736241513
 21
7.9626749149
 31
0.0
  0
ARC
  5
F5
330
1F
100
AcDbEntity
  8
0
  6
Continuous
 62
     7
370
    25
100
AcDbCircle
 10
57.2865497511
 20
34.591718418
 30
0.0
 40
7.222784653525914
100
AcDbArc
 50
253.2143511688
 51
268.5821374044
  0
SPLINE
  5
F6
330
1F
100
AcDbEntity
  8
0
  6
Continuous
 62
     7
370
    25
100
AcDbSpline
210
0.0
220
0.0
230
1.0
 70
     8
 71
     3
 72
    15
 73
    11
 74
     0
 42
0.00000001
 43
0.00000001
 40
0.0
 40
0.0
 40
0.0
 40
0.0
 40
0.1267660483230548
 40
0.2535350382149454
 40
0.3806484971794477
 40
0.5077622670030951
 40
0.6306734929835314
 40
0.7535844718700744
 40
0.8767926958342644
 40
1.0
 40
1.0
 40
1.0
 40
1.0
 10
55.20066730275419
 20
27.67668316405392
 30
0.0
 10
55.59192251516444
 20
33.34266107038827
 30
0.0
 10
56.37444201894697
 20
44.67474836040647
 30
0.0
 10
57.02873297342107
 20
61.73118764043375
 30
0.0
 10
57.29959172211577
 20
78.81501169101638
 30
0.0
 10
57.14945189887082
 20
95.73077592959848
 30
0.0
 10
56.60590990909567
 20
112.4513055872934
 30
0.0
 10
55.67227983020986
 20
128.9801648595616
 30
0.0
 10
54.37726403186863
 20
145.5002042622567
 30
0.0
 10
53.18507582342033
 20
156.4904084740653
 30
0.0
 10
52.58898394424443
 20
161.9854900683304
 30
0.0
  0
ARC
  5
F7
330
1F
100
AcDbEntity
  8
0
  6
Continuous
 62
     7
370
    25
100
AcDbCircle
 10
58.8573159221
 20
121.9758120069
 30
0.0
 40
40.49773233605431
100
AcDbArc
 50
96.000856291
 51
98.9041703348
  0
ELLIPSE
  5
F8
330
1F
100
AcDbEntity
  8
0
  6
Continuous
 62
     7
370
    25
100
AcDbEllipse
 10
-647.766865027
 20
81.0369096532
 30
0.0
 11
-2.023625711444766E-11
 21
-705.0225305360212
 31
-7.602807272633072E-13
210
-3.095267432033103E-29
220
-1.078377916072092E-15
230
1.0
 40
0.9999680428
 41
1.681790877908226
 42
1.685556149256898
  0
LINE
  5
F9
330
1F
100
AcDbEntity
  8
0
  6
Continuous
 62
     7
370
    25
100
AcDbLine
 10
52.5889839442
 20
161.9854900684
 30
0.0
 11
52.5958672165
 21
161.7676958327
 31
0.0
  0
LINE
  5
FA
330
1F
100
AcDbEntity
  8
0
  6
Continuous
 62
     7
370
    25
100
AcDbLine
 10
52.5889839442
 20
161.9854900683
 30
0.0
 11
51.9358336072
 21
168.6160333448
 31
0.0
  0
LINE
  5
FB
330
1F
100
AcDbEntity
  8
0
  6
Continuous
 62
     7
370
    25
100
AcDbLine
 10
80.5304363388
 20
168.6160333448
 30
0.0
 11
79.8772860018
 21
161.9854900683
 31
0.0
  0
SPLINE
  5
FC
330
1F
100
AcDbEntity
  8
0
  6
Continuous
 62
     7
370
    25
100
AcDbSpline
210
0.0
220
0.0
230
1.0
 70
     8
 71
     3
 72
    10
 73
     6
 74
     0
 42
0.00000001
 43
0.00000001
 40
0.0
 40
0.0
 40
0.0
 40
0.0
 40
0.0841222502700381
 40
0.7048741298035618
 40
1.0
 40
1.0
 40
1.0
 40
1.0
 10
80.36873216834164
 20
166.6079907710137
 30
0.0
 10
80.37259451098345
 20
166.652431095792
 30
0.0
 10
80.40495771334562
 20
167.0248038646576
 30
0.0
 10
80.44493314894609
 20
167.5016638865721
 30
0.0
 10
80.46689849752018
 20
167.7806993226705
 30
0.0
 10
80.4739764537365
 20
167.8706136981627
 30
0.0
  0
SPLINE
  5
FD
330
1F
100
AcDbEntity
  8
0
  6
Continuous
 62
     7
370
    25
100
AcDbSpline
210
0.0
220
0.0
230
1.0
 70
     8
 71
     3
 72
    10
 73
     6
 74
     0
 42
0.00000001
 43
0.00000001
 40
0.0
 40
0.0
 40
0.0
 40
0.0
 40
0.1857568807989173
 40
0.5924442054200888
 40
1.0
 40
1.0
 40
1.0
 40
1.0
 10
51.95594385037797
 20
168.3403369458095
 30
0.0
 10
51.95911776360575
 20
168.2958251513308
 30
0.0
 10
51.96924049226172
 20
168.1538613403625
 30
0.0
 10
52.01434675514175
 20
167.581604871687
 30
0.0
 10
52.06978772575624
 20
166.9327594902673
 30
0.0
 10
52.09753777767345
 20
166.6079907710137
 30
0.0
  0
ARC
  5
FE
330
1F
100
AcDbEntity
  8
0
  6
Continuous
 62
     7
370
    25
100
AcDbCircle
 10
76.1064239677
 20
26.4725571366
 30
0.0
 40
9.538934086231523
100
AcDbArc
 50
269.2842033724
 51
280.1624419627
  0
SPLINE
  5
FF
330
1F
100
AcDbEntity
  8
0
  6
Continuous
 62
     7
370
    25
100
AcDbSpline
210
0.0
220
0.0
230
1.0
 70
     8
 71
     3
 72
    16
 73
    12
 74
     0
 42
0.00000001
 43
0.00000001
 40
0.0
 40
0.0
 40
0.0
 40
0.0
 40
0.1058643960867462
 40
0.214775439841456
 40
0.319897863094103
 40
0.4277539704701143
 40
0.5381064023917365
 40
0.6514531937745107
 40
0.7667225498638877
 40
0.885641290327692
 40
1.0
 40
1.0
 40
1.0
 40
1.0
 10
77.78946921361513
 20
17.0832748316504
 30
0.0
 10
77.7751415748339
 20
16.46190524871188
 30
0.0
 10
77.74607396537425
 20
15.20128382722505
 30
0.0
 10
77.32488974920027
 20
13.36194340616873
 30
0.0
 10
76.63928357137765
 20
11.60471493211013
 30
0.0
 10
75.68175846929412
 20
9.973986821244118
 30
0.0
 10
74.45082711115472
 20
8.483430713869506
 30
0.0
 10
72.95985394889787
 20
7.184729868074891
 30
0.0
 10
71.22447099299384
 20
6.134512745772342
 30
0.0
 10
69.32134181437135
 20
5.371820291054985
 30
0.0
 10
67.9690165629411
 20
5.155188539126165
 30
0.0
 10
67.30607134161515
 20
5.048989986243368
 30
0.0
  0
ARC
  5
100
330
1F
100
AcDbEntity
  8
0
  6
Continuous
 62
     7
370
    25
100
AcDbCircle
 10
47.5868293377
 20
5.0692272998
 30
0.0
 40
19.71925238838338
100
AcDbArc
 50
359.9411989443
 51
8.4375950421
  0
ARC
  5
101
330
1F
100
AcDbEntity
  8
0
  6
Continuous
 62
     7
370
    25
100
AcDbCircle
 10
56.3598459783
 20
26.4725571366
 30
0.0
 40
9.538934086300209
100
AcDbArc
 50
259.8375580373
 51
270.7157966276
  0
ARC
  5
102
330
1F
100
AcDbEntity
  8
0
  6
Continuous
 62
     7
370
    25
100
AcDbCircle
 10
84.8794406084
 20
5.0692273
 30
0.0
 40
19.71925238845688
100
AcDbArc
 50
171.5624049586
 51
180.0588010564
  0
SPLINE
  5
103
330
1F
100
AcDbEntity
  8
0
  6
Continuous
 62
     7
370
    25
100
AcDbSpline
210
0.0
220
0.0
230
1.0
 70
     8
 71
     3
 72
    16
 73
    12
 74
     0
 42
0.00000001
 43
0.00000001
 40
0.0
 40
0.0
 40
0.0
 40
0.0
 40
0.1143636219270646
 40
0.231440164076376
 40
0.3485478154540183
 40
0.4603965228412968
 40
0.5722481472484289
 40
0.678748079633835
 40
0.7852275526639733
 40
0.8926205175275217
 40
1.0
 40
1.0
 40
1.0
 40
1.0
 10
65.16019860443787
 20
5.048989986239122
 30
0.0
 10
64.49715060571906
 20
5.154983137789337
 30
0.0
 10
63.155325862604
 20
5.369483797810354
 30
0.0
 10
61.25293162565374
 20
6.131844025732248
 30
0.0
 10
59.52127805025976
 20
7.172340303294694
 30
0.0
 10
58.02303333626984
 20
8.478366169860474
 30
0.0
 10
56.79324506633501
 20
9.959851068904623
 30
0.0
 10
55.83205490764943
 20
11.59822701991181
 30
0.0
 10
55.14555557147857
 20
13.34561542439117
 30
0.0
 10
54.72337990922925
 20
15.19255126473751
 30
0.0
 10
54.6923264748804
 20
16.45306001892366
 30
0.0
 10
54.67680073239932
 20
17.08327483164951
 30
0.0
  0
LINE
  5
104
330
1F
100
AcDbEntity
  8
0
  6
Continuous
 62
     7
370
    25
100
AcDbLine
 10
65.1601986044
 20
5.0489899862
 30
0.0
 11
67.3060713416
 21
5.0489899862
 31
0.0
  0
LINE
  5
105
330
1F
100
AcDbEntity
  8
0
  6
Continuous
 62
     7
370
    25
100
AcDbLine
 10
54.6768007324
 20
17.0832748316
 30
0.0
 11
55.2006673028
 21
27.6766831641
 31
0.0
  0
LINE
  5
106
330
1F
100
AcDbEntity
  8
0
  6
Continuous
 62
     7
370
    25
100
AcDbLine
 10
77.2656026433
 20
27.6766831641
 30
0.0
 11
77.7894692136
 21
17.0832748317
 31
0.0
  0
LINE
  5
107
330
1F
100
AcDbEntity
  8
0
  6
Continuous
 62
     7
370
    25
100
AcDbLine
 10
52.5958672165
 20
161.7676958327
 30
0.0
 11
52.0975377777
 21
166.607990771
 31
0.0
  0
LINE
  5
108
330
1F
100
AcDbEntity
  8
0
  6
Continuous
 62
     7
370
    25
100
AcDbLine
 10
80.3687321683
 20
166.607990771
 30
0.0
 11
79.8704027295
 21
161.7676958327
 31
0.0
  0
LINE
  5
109
330
1F
100
AcDbEntity
  8
0
  6
Continuous
 62
     7
370
    25
100
AcDbLine
 10
77.6750992681
 20
19.4198381704
 30
0.0
 11
77.7312042258
 21
18.9806998496
 31
0.0
  0
LINE
  5
10A
330
1F
100
AcDbEntity
  8
0
  6
Continuous
 62
     7
370
    25
100
AcDbLine
 10
54.7350657202
 20
18.9806998496
 30
0.0
 11
54.7911699552
 21
19.4198325134
 31
0.0
  0
LINE
  5
10B
330
1F
100
AcDbEntity
  8
0
  6
Continuous
 62
     7
370
    25
100
AcDbLine
 10
77.6605129488
 20
19.6909739046
 30
0.0
 11
77.6927926637
 21
19.4603975864
 31
0.0
  0
LWPOLYLINE
  5
10C
330
1F
100
AcDbEntity
  8
0
  6
Continuous
 62
     7
370
    25
100
AcDbPolyline
 90
        3
 70
   128
 43
0.0
 10
54.7800106854
 20
17.1582555646
 10
54.6832309032
 20
18.6981271329
 10
54.6880965162
 20
18.9895600178
  0
LINE
  5
10D
330
1F
100
AcDbEntity
  8
0
  6
Continuous
 62
     7
370
    25
100
AcDbLine
 10
77.6372732239
 20
20.4808427675
 30
0.0
 11
77.6982332994
 21
20.0489157413
 31
0.0
  0
LWPOLYLINE
  5
10E
330
1F
100
AcDbEntity
  8
0
  6
Continuous
 62
     7
370
    25
100
AcDbPolyline
 90
        3
 70
   128
 43
0.0
 10
77.7824537594
 20
18.7764944562
 10
77.7541024969
 20
17.8326353894
 10
77.6318539823
 20
16.7878017793
  0
ARC
  5
10F
330
1F
100
AcDbEntity
  8
0
  6
Continuous
 62
     7
370
    25
100
AcDbCircle
 10
66.233134973
 20
171.0395039645
 30
0.0
 40
14.22500000000003
100
AcDbArc
 50
358.3509776603
 51
217.8937699135
  0
LINE
  5
110
330
1F
100
AcDbEntity
  8
0
  6
Continuous
 62
     7
370
    25
100
AcDbLine
 10
70.5934213882
 20
184.5797597737
 30
0.0
 11
70.6677745953
 21
184.810653194
 31
0.0
  0
SPLINE
  5
111
330
1F
100
AcDbEntity
  8
0
  6
Continuous
 62
     7
370
    25
100
AcDbSpline
210
0.0
220
0.0
230
1.0
 70
     8
 71
     3
 72
    11
 73
     7
 74
     0
 42
0.00000001
 43
0.00000001
 40
0.0
 40
0.0
 40
0.0
 40
0.0
 40
0.1446702591042515
 40
0.3907520209323662
 40
0.5962314811354614
 40
1.0
 40
1.0
 40
1.0
 40
1.0
 10
76.54297147173777
 20
181.1892749496458
 30
0.0
 10
76.28094540609573
 20
181.3955404005544
 30
0.0
 10
75.5732172571276
 20
181.9526600344728
 30
0.0
 10
74.44050389736182
 20
182.7339263517373
 30
0.0
 10
72.766701532154
 20
183.7800149080656
 30
0.0
 10
71.50436572903226
 20
184.3998609758775
 30
0.0
 10
70.66777459529366
 20
184.8106531940272
 30
0.0
  0
LINE
  5
112
330
1F
100
AcDbEntity
  8
0
  6
Continuous
 62
     7
370
    25
100
AcDbLine
 10
76.3701120122
 20
181.0190992221
 30
0.0
 11
76.5429714717
 21
181.1892749496
 31
0.0
  0
LINE
  5
113
330
1F
100
AcDbEntity
  8
0
  6
Continuous
 62
     7
370
    25
100
AcDbLine
 10
80.1394836851
 20
174.0335130657
 30
0.0
 11
80.3766198562
 21
174.0845680097
 31
0.0
  0
LINE
  5
114
330
1F
100
AcDbEntity
  8
0
  6
Continuous
 62
     7
370
    25
100
AcDbLine
 10
56.6870726761
 20
181.5857506724
 30
0.0
 11
56.5242897121
 21
181.7655891488
 31
0.0
  0
SPLINE
  5
115
330
1F
100
AcDbEntity
  8
0
  6
Continuous
 62
     7
370
    25
100
AcDbSpline
210
0.0
220
0.0
230
1.0
 70
     8
 71
     3
 72
    11
 73
     7
 74
     0
 42
0.00000001
 43
0.00000001
 40
0.0
 40
0.0
 40
0.0
 40
0.0
 40
0.1446702591042584
 40
0.3907520209323605
 40
0.5962314811354761
 40
0.9999999999999999
 40
0.9999999999999999
 40
0.9999999999999999
 40
0.9999999999999999
 10
62.59809370664199
 20
185.0429697738371
 30
0.0
 10
62.28844955341108
 20
184.9191812699916
 30
0.0
 10
61.45210572300656
 20
184.5848305309711
 30
0.0
 10
60.20915256525151
 20
183.9945051448402
 30
0.0
 10
58.46631211825913
 20
183.0679940538199
 30
0.0
 10
57.29834177553727
 20
182.2847022141158
 30
0.0
 10
56.5242897120734
 20
181.7655891487922
 30
0.0
  0
LINE
  5
116
330
1F
100
AcDbEntity
  8
0
  6
Continuous
 62
     7
370
    25
100
AcDbLine
 10
62.65904048
 20
184.8081812269
 30
0.0
 11
62.5980937066
 21
185.0429697738
 31
0.0
  0
SPLINE
  5
117
330
1F
100
AcDbEntity
  8
0
  6
Continuous
 62
     7
370
    25
100
AcDbSpline
210
0.0
220
0.0
230
1.0
 70
     8
 71
     3
 72
    11
 73
     7
 74
     0
 42
0.00000001
 43
0.00000001
 40
0.0
 40
0.0
 40
0.0
 40
0.0
 40
0.144670259104256
 40
0.3907520209323695
 40
0.5962314811354847
 40
1.0
 40
1.0
 40
1.0
 40
1.0
 10
52.2882572079119
 20
174.8931987886909
 30
0.0
 10
52.24063912032307
 20
174.5631448339369
 30
0.0
 10
52.11202343888671
 20
173.671674460998
 30
0.0
 10
52.00178364089742
 20
172.3000827576026
 30
0.0
 10
51.93274555911284
 20
170.327483110254
 30
0.0
 10
52.02711101951271
 20
168.924345202738
 30
0.0
 10
52.0896500897874
 20
167.9944399192648
 30
0.0
  0
LINE
  5
118
330
1F
100
AcDbEntity
  8
0
  6
Continuous
 62
     7
370
    25
100
AcDbLine
 10
52.5220634408
 20
174.8285859692
 30
0.0
 11
52.2882572079
 21
174.8931987887
 31
0.0
  0
SPLINE
  5
119
330
1F
100
AcDbEntity
  8
0
  6
Continuous
 62
     7
370
    25
100
AcDbSpline
210
0.0
220
0.0
230
1.0
 70
     8
 71
     3
 72
     9
 73
     5
 74
     0
 42
0.00000001
 43
0.00000001
 40
0.0
 40
0.0
 40
0.0
 40
0.0
 40
0.5863847898283803
 40
1.0
 40
1.0
 40
1.0
 40
1.0
 10
77.84695053279266
 20
180.091846928799
 30
0.0
 10
77.59571240114666
 20
180.3112593401372
 30
0.0
 10
77.16725972637738
 20
180.6854375506643
 30
0.0
 10
76.72563441692432
 20
181.0418551920112
 30
0.0
 10
76.54297147173777
 20
181.1892749496458
 30
0.0
  0
ARC
  5
11A
330
1F
100
AcDbEntity
  8
0
  6
Continuous
 62
     7
370
    25
100
AcDbCircle
 10
66.233134973
 20
171.0395039645
 30
0.0
 40
14.72500000000002
100
AcDbArc
 50
18.7674620976
 51
37.934493223
  0
SPLINE
  5
11B
330
1F
100
AcDbEntity
  8
0
  6
Continuous
 62
     7
370
    25
100
AcDbSpline
210
0.0
220
0.0
230
1.0
 70
     8
 71
     3
 72
     9
 73
     5
 74
     0
 42
0.00000001
 43
0.00000001
 40
0.0
 40
0.0
 40
0.0
 40
0.0
 40
0.5862283062032883
 40
1.0
 40
1.0
 40
1.0
 40
1.0
 10
80.37661985622798
 20
174.0845680097348
 30
0.0
 10
80.34331043481704
 20
174.4156747873253
 30
0.0
 10
80.28649055584077
 20
174.9804833680213
 30
0.0
 10
80.20779849018739
 20
175.5438459650602
 30
0.0
 10
80.17523794089362
 20
175.7769494610587
 30
0.0
  0
SPLINE
  5
11C
330
1F
100
AcDbEntity
  8
0
  6
Continuous
 62
     7
370
    25
100
AcDbSpline
210
0.0
220
0.0
230
1.0
 70
     8
 71
     3
 72
     9
 73
     5
 74
     0
 42
0.00000001
 43
0.00000001
 40
0.0
 40
0.0
 40
0.0
 40
0.0
 40
0.5862283062032912
 40
1.0
 40
1.0
 40
1.0
 40
1.0
 10
70.66777459529366
 20
184.8106531940272
 30
0.0
 10
70.36437300382964
 20
184.9473597776953
 30
0.0
 10
69.84682448518335
 20
185.1805566094098
 30
0.0
 10
69.31959213177896
 20
185.3940885799972
 30
0.0
 10
69.1014383078864
 20
185.4824420651469
 30
0.0
  0
SPLINE
  5
11D
330
1F
100
AcDbEntity
  8
0
  6
Continuous
 62
     7
370
    25
100
AcDbSpline
210
0.0
220
0.0
230
1.0
 70
     8
 71
     3
 72
     9
 73
     5
 74
     0
 42
0.00000001
 43
0.00000001
 40
0.0
 40
0.0
 40
0.0
 40
0.0
 40
0.5863847898283606
 40
1.0
 40
1.0
 40
1.0
 40
1.0
 10
64.20048378204766
 20
185.6235347562901
 30
0.0
 10
63.88484799410013
 20
185.5156623575545
 30
0.0
 10
63.34657382085646
 20
185.3317005621484
 30
0.0
 10
62.81709443436656
 20
185.1274506458814
 30
0.0
 10
62.59809370664199
 20
185.0429697738371
 30
0.0
  0
ARC
  5
11E
330
1F
100
AcDbEntity
  8
0
  6
Continuous
 62
     7
370
    25
100
AcDbCircle
 10
66.233134973
 20
171.0395039645
 30
0.0
 40
14.72500000000005
100
AcDbArc
 50
78.7674620976
 51
97.934493223
  0
SPLINE
  5
11F
330
1F
100
AcDbEntity
  8
0
  6
Continuous
 62
     7
370
    25
100
AcDbSpline
210
0.0
220
0.0
230
1.0
 70
     8
 71
     3
 72
     9
 73
     5
 74
     0
 42
0.00000001
 43
0.00000001
 40
0.0
 40
0.0
 40
0.0
 40
0.0
 40
0.5862283062032732
 40
1.0
 40
1.0
 40
1.0
 40
1.0
 10
56.5242897120734
 20
181.7655891487922
 30
0.0
 10
56.2541975420203
 20
181.5711889548697
 30
0.0
 10
55.79346890235028
 20
181.2395772058883
 30
0.0
 10
55.34492861459925
 20
180.8897465794367
 30
0.0
 10
55.15933534000045
 20
180.7449965685879
 30
0.0
  0
SPLINE
  5
120
330
1F
100
AcDbEntity
  8
0
  6
Continuous
 62
     7
370
    25
100
AcDbSpline
210
0.0
220
0.0
230
1.0
 70
     8
 71
     3
 72
     9
 73
     5
 74
     0
 42
0.00000001
 43
0.00000001
 40
0.0
 40
0.0
 40
0.0
 40
0.0
 40
0.5863847898283562
 40
1.0
 40
1.0
 40
1.0
 40
1.0
 10
52.58666822226276
 20
176.5711917919909
 30
0.0
 10
52.52227056596121
 20
176.243906981917
 30
0.0
 10
52.4124490674868
 20
175.6857669759839
 30
0.0
 10
52.32459499044995
 20
175.1250994183699
 30
0.0
 10
52.2882572079119
 20
174.8931987886909
 30
0.0
  0
ARC
  5
121
330
1F
100
AcDbEntity
  8
0
  6
Continuous
 62
     7
370
    25
100
AcDbCircle
 10
66.233134973
 20
171.0395039645
 30
0.0
 40
14.72500000000005
100
AcDbArc
 50
138.7674620976
 51
157.934493223
  0
SPLINE
  5
122
330
1F
100
AcDbEntity
  8
0
  6
Continuous
 62
     7
370
    25
100
AcDbSpline
210
0.0
220
0.0
230
1.0
 70
    24
 71
     3
 72
    12
 73
     8
 74
     0
 42
0.00000001
 43
0.00000001
 40
0.0
 40
0.0
 40
0.0
 40
0.0
 40
0.3013828945620893
 40
0.410844249379567
 40
0.6247185195336444
 40
0.698617105437864
 40
1.0
 40
1.0
 40
1.0
 40
1.0
 10
70.85122364331382
 20
184.9912541012363
 30
0.0
 10
71.42935663941724
 20
184.6349020847035
 30
0.0
 10
72.21746578931044
 20
184.1491240946817
 30
0.0
 10
73.42159930301015
 20
183.4069152799736
 30
0.0
 10
74.18869791524857
 20
182.9340878523867
 30
0.0
 10
75.32388641484039
 20
182.2343756517325
 30
0.0
 10
76.04376001973041
 20
181.7906569702522
 30
0.0
 10
76.62187965007037
 20
181.4343131921642
 30
0.0
  0
ARC
  5
123
330
1F
100
AcDbEntity
  8
0
  6
Continuous
 62
     7
370
    25
100
AcDbCircle
 10
76.2328262443
 20
181.4243734174
 30
0.0
 40
0.3891803587967801
100
AcDbArc
 50
322.8368888502
 51
1.4635092994
  0
ARC
  5
124
330
1F
100
AcDbEntity
  8
0
  6
Continuous
 62
     7
370
    25
100
AcDbCircle
 10
71.0171648334
 20
184.6392244532
 30
0.0
 40
0.3891803587984753
100
AcDbArc
 50
115.2384460212
 51
153.8650664702
  0
ARC
  5
125
330
1F
100
AcDbEntity
  8
0
  6
Continuous
 62
     7
370
    25
100
AcDbCircle
 10
80.4028533308
 20
173.6962728172
 30
0.0
 40
0.3891803588379806
100
AcDbArc
 50
55.2384460233
 51
93.8650664682
  0
SPLINE
  5
126
330
1F
100
AcDbEntity
  8
0
  6
Continuous
 62
     7
370
    25
100
AcDbSpline
210
0.0
220
0.0
230
1.0
 70
    24
 71
     3
 72
    10
 73
     6
 74
     0
 42
0.00000001
 43
0.00000001
 40
0.0
 40
0.0
 40
0.0
 40
0.0
 40
0.6125538005420096
 40
0.8350314862890375
 40
1.0
 40
1.0
 40
1.0
 40
1.0
 10
80.62474935382761
 20
174.0159969274538
 30
0.0
 10
80.60520603529905
 20
173.3371459209544
 30
0.0
 10
80.57856464265161
 20
172.4117382842301
 30
0.0
 10
80.54650618372547
 20
171.2981650148227
 30
0.0
 10
80.53407225525272
 20
170.8662637056291
 30
0.0
 10
80.52877808356486
 20
170.6823669035772
 30
0.0
  0
SPLINE
  5
127
330
1F
100
AcDbEntity
  8
0
  6
Continuous
 62
     7
370
    25
100
AcDbSpline
210
0.0
220
0.0
230
1.0
 70
    24
 71
     3
 72
    12
 73
     8
 74
     0
 42
0.00000001
 43
0.00000001
 40
0.0
 40
0.0
 40
0.0
 40
0.0
 40
0.3013828945620982
 40
0.4108442493795585
 40
0.6247185195336514
 40
0.6986171054378595
 40
1.0
 40
1.0
 40
1.0
 40
1.0
 10
56.4596092624939
 20
182.0147611382822
 30
0.0
 10
57.05728565955284
 20
182.3372629914074
 30
0.0
 10
57.8720363144576
 20
182.776896541159
 30
0.0
 10
59.11687475975744
 20
183.4486023462171
 30
0.0
 10
59.90990462977292
 20
183.8765155178299
 30
0.0
 10
61.08346742067327
 20
184.5097614962333
 30
0.0
 10
61.82767587341397
 20
184.9113309848418
 30
0.0
 10
62.42533845288867
 20
185.2338253820986
 30
0.0
  0
ARC
  5
128
330
1F
100
AcDbEntity
  8
0
  6
Continuous
 62
     7
370
    25
100
AcDbCircle
 10
62.2394198474
 20
184.8919253619
 30
0.0
 40
0.3891803587967084
100
AcDbArc
 50
22.8368888502
 51
61.4635092994
  0
ARC
  5
129
330
1F
100
AcDbEntity
  8
0
  6
Continuous
 62
     7
370
    25
100
AcDbCircle
 10
56.8474464756
 20
181.9824556004
 30
0.0
 40
0.3891803587984508
100
AcDbArc
 50
175.2384460212
 51
213.8650664702
  0
LINE
  5
12A
330
1F
100
AcDbEntity
  8
0
  6
Continuous
 62
     7
370
    25
100
AcDbLine
 10
51.8415205922
 20
168.0630110015
 30
0.0
 11
51.8516563354
 21
168.4150832175
 31
0.0
  0
SPLINE
  5
12B
330
1F
100
AcDbEntity
  8
0
  6
Continuous
 62
     7
370
    25
100
AcDbSpline
210
0.0
220
0.0
230
1.0
 70
    24
 71
     3
 72
    12
 73
     8
 74
     0
 42
0.00000001
 43
0.00000001
 40
0.0
 40
0.0
 40
0.0
 40
0.0
 40
0.0890165591770698
 40
0.2317520875122929
 40
0.5106400749547969
 40
0.6070024278587905
 40
1.0
 40
1.0
 40
1.0
 40
1.0
 10
51.8869239307307
 20
169.6401281131193
 30
0.0
 10
51.89135301995247
 20
169.7939756632007
 30
0.0
 10
51.90288402814255
 20
170.1945133970743
 30
0.0
 10
51.92841768639042
 20
171.0814430951144
 30
0.0
 10
51.9543409759597
 20
171.981906912974
 30
0.0
 10
51.99271649379425
 20
173.3149076962801
 30
0.0
 10
52.01705105604903
 20
174.1601859459932
 30
0.0
 10
52.03659377582601
 20
174.8390161544341
 30
0.0
  0
ARC
  5
12C
330
1F
100
AcDbEntity
  8
0
  6
Continuous
 62
     7
370
    25
100
AcDbCircle
 10
52.2397285761
 20
174.507055909
 30
0.0
 40
0.3891803587961322
100
AcDbArc
 50
82.8368888502
 51
121.4635092994
  0
LINE
  5
12D
330
1F
100
AcDbEntity
  8
0
  6
Continuous
 62
     7
370
    25
100
AcDbLine
 10
76.6218796501
 20
181.4343131922
 30
0.0
 11
78.1093077591
 21
180.5174860785
 31
0.0
  0
LINE
  5
12E
330
1F
100
AcDbEntity
  8
0
  6
Continuous
 62
     7
370
    25
100
AcDbLine
 10
78.1093077591
 20
180.5174860785
 30
0.0
 11
77.8469505328
 21
180.0918469288
 31
0.0
  0
LINE
  5
12F
330
1F
100
AcDbEntity
  8
0
  6
Continuous
 62
     7
370
    25
100
AcDbLine
 10
62.4253384529
 20
185.2338253821
 30
0.0
 11
63.9630480787
 21
186.063562354
 31
0.0
  0
LINE
  5
130
330
1F
100
AcDbEntity
  8
0
  6
Continuous
 62
     7
370
    25
100
AcDbLine
 10
63.9630480787
 20
186.063562354
 30
0.0
 11
64.200483782
 21
185.6235347563
 31
0.0
  0
LINE
  5
131
330
1F
100
AcDbEntity
  8
0
  6
Continuous
 62
     7
370
    25
100
AcDbLine
 10
52.0365937758
 20
174.8390161544
 30
0.0
 11
52.0868752926
 21
176.58558024
 31
0.0
  0
LINE
  5
132
330
1F
100
AcDbEntity
  8
0
  6
Continuous
 62
     7
370
    25
100
AcDbLine
 10
52.0868752926
 20
176.58558024
 30
0.0
 11
52.5866682223
 21
176.571191792
 31
0.0
  0
LINE
  5
133
330
1F
100
AcDbEntity
  8
0
  6
Continuous
 62
     7
370
    25
100
AcDbLine
 10
80.1752379409
 20
175.7769494611
 30
0.0
 11
80.6750308706
 21
175.762561013
 31
0.0
  0
LINE
  5
134
330
1F
100
AcDbEntity
  8
0
  6
Continuous
 62
     7
370
    25
100
AcDbLine
 10
80.6750308706
 20
175.762561013
 30
0.0
 11
80.6247493538
 21
174.0159969275
 31
0.0
  0
LINE
  5
135
330
1F
100
AcDbEntity
  8
0
  6
Continuous
 62
     7
370
    25
100
AcDbLine
 10
69.3637955342
 20
185.9080812149
 30
0.0
 11
70.8512236433
 21
184.9912541012
 31
0.0
  0
LINE
  5
136
330
1F
100
AcDbEntity
  8
0
  6
Continuous
 62
     7
370
    25
100
AcDbLine
 10
69.3637955342
 20
185.9080812149
 30
0.0
 11
69.1014383079
 21
185.4824420651
 31
0.0
  0
LINE
  5
137
330
1F
100
AcDbEntity
  8
0
  6
Continuous
 62
     7
370
    25
100
AcDbLine
 10
54.9218996367
 20
181.1850241663
 30
0.0
 11
56.4596092625
 21
182.0147611383
 31
0.0
  0
LINE
  5
138
330
1F
100
AcDbEntity
  8
0
  6
Continuous
 62
     7
370
    25
100
AcDbLine
 10
55.15933534
 20
180.7449965686
 30
0.0
 11
54.9218996367
 21
181.1850241663
 31
0.0
  0
LINE
  5
139
330
1F
100
AcDbEntity
  8
0
  6
Continuous
 62
     7
370
    25
100
AcDbLine
 10
51.7912390754
 20
166.316446916
 30
0.0
 11
51.8415205922
 21
168.0630110015
 31
0.0
  0
LINE
  5
13A
330
1F
100
AcDbEntity
  8
0
  6
Continuous
 62
     7
370
    25
100
AcDbLine
 10
80.1752379409
 20
175.7769494611
 30
0.0
 11
80.2305162293
 21
177.6970799473
 31
0.0
  0
LINE
  5
13B
330
1F
100
AcDbEntity
  8
0
  6
Continuous
 62
     7
370
    25
100
AcDbLine
 10
80.2305162293
 20
177.6970799473
 30
0.0
 11
80.730309159
 21
177.6826914993
 31
0.0
  0
LINE
  5
13C
330
1F
100
AcDbEntity
  8
0
  6
Continuous
 62
     7
370
    25
100
AcDbLine
 10
80.730309159
 20
177.6826914993
 30
0.0
 11
80.6750308706
 21
175.762561013
 31
0.0
  0
LINE
  5
13D
330
1F
100
AcDbEntity
  8
0
  6
Continuous
 62
     7
370
    25
100
AcDbLine
 10
80.3793946534
 20
165.493427689
 30
0.0
 11
80.3241163651
 21
163.5732972028
 31
0.0
  0
ARC
  5
13E
330
1F
100
AcDbEntity
  8
0
  6
Continuous
 62
     7
370
    25
100
AcDbCircle
 10
66.233134973
 20
171.0395039645
 30
0.0
 40
16.00000000000003
100
AcDbArc
 50
329.3818616168
 51
331.2647879017
  0
ARC
  5
13F
330
1F
100
AcDbEntity
  8
0
  6
Continuous
 62
     7
370
    25
100
AcDbCircle
 10
79.8243234354
 20
163.5876856508
 30
0.0
 40
0.4999999999999838
100
AcDbArc
 50
331.2647879017
 51
358.3509776603
  0
LINE
  5
140
330
1F
100
AcDbEntity
  8
0
  6
Continuous
 62
     7
370
    25
100
AcDbLine
 10
80.2305162293
 20
177.6970799473
 30
0.0
 11
80.6820446569
 21
177.9118404629
 31
0.0
  0
ARC
  5
141
330
1F
100
AcDbEntity
  8
0
  6
Continuous
 62
     7
370
    25
100
AcDbCircle
 10
80.2305162293
 20
177.6970799473
 30
0.0
 40
0.5000000000000213
100
AcDbArc
 50
358.3509776603
 51
25.4371674189
  0
ARC
  5
142
330
1F
100
AcDbEntity
  8
0
  6
Continuous
 62
     7
370
    25
100
AcDbCircle
 10
66.233134973
 20
171.0395039645
 30
0.0
 40
15.49999999999998
100
AcDbArc
 50
25.4371674189
 51
31.2647879017
  0
LINE
  5
143
330
1F
100
AcDbEntity
  8
0
  6
Continuous
 62
     7
370
    25
100
AcDbLine
 10
79.9095821423
 20
179.3434062294
 30
0.0
 11
79.4821931683
 21
179.0839092837
 31
0.0
  0
ARC
  5
144
330
1F
100
AcDbEntity
  8
0
  6
Continuous
 62
     7
370
    25
100
AcDbCircle
 10
66.233134973
 20
171.0395039645
 30
0.0
 40
16.00000000000004
100
AcDbArc
 50
25.4371674189
 51
31.2647879017
  0
LINE
  5
145
330
1F
100
AcDbEntity
  8
0
  6
Continuous
 62
     7
370
    25
100
AcDbLine
 10
79.4821931683
 20
179.0839092837
 30
0.0
 11
77.8469505328
 21
180.0918469288
 31
0.0
  0
LINE
  5
146
330
1F
100
AcDbEntity
  8
0
  6
Continuous
 62
     7
370
    25
100
AcDbLine
 10
78.1093077591
 20
180.5174860785
 30
0.0
 11
79.7445503946
 21
179.5095484334
 31
0.0
  0
LINE
  5
147
330
1F
100
AcDbEntity
  8
0
  6
Continuous
 62
     7
370
    25
100
AcDbLine
 10
79.7445503946
 20
179.5095484334
 30
0.0
 11
79.4821931683
 21
179.0839092837
 31
0.0
  0
ARC
  5
148
330
1F
100
AcDbEntity
  8
0
  6
Continuous
 62
     7
370
    25
100
AcDbCircle
 10
79.4821931683
 20
179.0839092837
 30
0.0
 40
0.5000000000000606
100
AcDbArc
 50
31.2647879017
 51
58.3509776603
  0
LINE
  5
149
330
1F
100
AcDbEntity
  8
0
  6
Continuous
 62
     7
370
    25
100
AcDbLine
 10
67.7285528988
 20
186.91601886
 30
0.0
 11
69.3637955342
 21
185.9080812149
 31
0.0
  0
LINE
  5
14A
330
1F
100
AcDbEntity
  8
0
  6
Continuous
 62
     7
370
    25
100
AcDbLine
 10
69.1014383079
 20
185.4824420651
 30
0.0
 11
67.4661956724
 21
186.4903797103
 31
0.0
  0
LINE
  5
14B
330
1F
100
AcDbEntity
  8
0
  6
Continuous
 62
     7
370
    25
100
AcDbLine
 10
67.7285528988
 20
186.91601886
 30
0.0
 11
67.4661956724
 21
186.4903797103
 31
0.0
  0
LINE
  5
14C
330
1F
100
AcDbEntity
  8
0
  6
Continuous
 62
     7
370
    25
100
AcDbLine
 10
65.8910047059
 20
186.5357275974
 30
0.0
 11
64.200483782
 21
185.6235347563
 31
0.0
  0
ARC
  5
14D
330
1F
100
AcDbEntity
  8
0
  6
Continuous
 62
     7
370
    25
100
AcDbCircle
 10
66.233134973
 20
171.0395039645
 30
0.0
 40
15.50000000000001
100
AcDbArc
 50
85.4371674189
 51
91.2647879017
  0
LINE
  5
14E
330
1F
100
AcDbEntity
  8
0
  6
Continuous
 62
     7
370
    25
100
AcDbLine
 10
67.505971824
 20
186.9887950569
 30
0.0
 11
67.4661956724
 21
186.4903797103
 31
0.0
  0
ARC
  5
14F
330
1F
100
AcDbEntity
  8
0
  6
Continuous
 62
     7
370
    25
100
AcDbCircle
 10
67.4661956724
 20
186.4903797103
 30
0.0
 40
0.5000000000000407
100
AcDbArc
 50
58.3509776603
 51
85.4371674189
  0
ARC
  5
150
330
1F
100
AcDbEntity
  8
0
  6
Continuous
 62
     7
370
    25
100
AcDbCircle
 10
66.233134973
 20
171.0395039645
 30
0.0
 40
16.00000000000005
100
AcDbArc
 50
85.4371674189
 51
91.2647879017
  0
LINE
  5
151
330
1F
100
AcDbEntity
  8
0
  6
Continuous
 62
     7
370
    25
100
AcDbLine
 10
65.8799682457
 20
187.0356057791
 30
0.0
 11
65.8910047059
 21
186.5357275974
 31
0.0
  0
LINE
  5
152
330
1F
100
AcDbEntity
  8
0
  6
Continuous
 62
     7
370
    25
100
AcDbLine
 10
65.6535690026
 20
186.9757551951
 30
0.0
 11
65.8910047059
 21
186.5357275974
 31
0.0
  0
ARC
  5
153
330
1F
100
AcDbEntity
  8
0
  6
Continuous
 62
     7
370
    25
100
AcDbCircle
 10
65.8910047059
 20
186.5357275974
 30
0.0
 40
0.5000000000000462
100
AcDbArc
 50
91.2647879017
 51
118.3509776603
  0
LINE
  5
154
330
1F
100
AcDbEntity
  8
0
  6
Continuous
 62
     7
370
    25
100
AcDbLine
 10
63.9630480787
 20
186.063562354
 30
0.0
 11
65.6535690026
 21
186.9757551951
 31
0.0
  0
LINE
  5
155
330
1F
100
AcDbEntity
  8
0
  6
Continuous
 62
     7
370
    25
100
AcDbLine
 10
55.15933534
 20
180.7449965686
 30
0.0
 11
53.4688144162
 21
179.8328037275
 31
0.0
  0
LINE
  5
156
330
1F
100
AcDbEntity
  8
0
  6
Continuous
 62
     7
370
    25
100
AcDbLine
 10
52.6419465106
 20
178.4913222782
 30
0.0
 11
52.5866682223
 21
176.571191792
 31
0.0
  0
ARC
  5
157
330
1F
100
AcDbEntity
  8
0
  6
Continuous
 62
     7
370
    25
100
AcDbCircle
 10
66.233134973
 20
171.0395039645
 30
0.0
 40
15.50000000000005
100
AcDbArc
 50
145.4371674189
 51
151.2647879017
  0
LINE
  5
158
330
1F
100
AcDbEntity
  8
0
  6
Continuous
 62
     7
370
    25
100
AcDbLine
 10
53.4688144162
 20
179.8328037275
 30
0.0
 11
53.2313787128
 21
180.2728313252
 31
0.0
  0
LINE
  5
159
330
1F
100
AcDbEntity
  8
0
  6
Continuous
 62
     7
370
    25
100
AcDbLine
 10
53.2313787128
 20
180.2728313252
 30
0.0
 11
54.9218996367
 21
181.1850241663
 31
0.0
  0
ARC
  5
15A
330
1F
100
AcDbEntity
  8
0
  6
Continuous
 62
     7
370
    25
100
AcDbCircle
 10
66.233134973
 20
171.0395039645
 30
0.0
 40
16.00000000000005
100
AcDbArc
 50
145.4371674189
 51
151.2647879017
  0
LINE
  5
15B
330
1F
100
AcDbEntity
  8
0
  6
Continuous
 62
     7
370
    25
100
AcDbLine
 10
53.0570621401
 20
180.1164585586
 30
0.0
 11
53.4688144162
 21
179.8328037275
 31
0.0
  0
LINE
  5
15C
330
1F
100
AcDbEntity
  8
0
  6
Continuous
 62
     7
370
    25
100
AcDbLine
 10
52.2035210764
 20
178.7317035141
 30
0.0
 11
52.6419465106
 21
178.4913222782
 31
0.0
  0
LINE
  5
15D
330
1F
100
AcDbEntity
  8
0
  6
Continuous
 62
     7
370
    25
100
AcDbLine
 10
52.142153581
 20
178.5057107262
 30
0.0
 11
52.6419465106
 21
178.4913222782
 31
0.0
  0
ARC
  5
15E
330
1F
100
AcDbEntity
  8
0
  6
Continuous
 62
     7
370
    25
100
AcDbCircle
 10
52.6419465106
 20
178.4913222782
 30
0.0
 40
0.5000000000000007
100
AcDbArc
 50
151.2647879017
 51
178.3509776603
  0
LINE
  5
15F
330
1F
100
AcDbEntity
  8
0
  6
Continuous
 62
     7
370
    25
100
AcDbLine
 10
52.0868752926
 20
176.58558024
 30
0.0
 11
52.142153581
 21
178.5057107262
 31
0.0
  0
ARC
  5
160
330
1F
100
AcDbEntity
  8
0
  6
Continuous
 62
     7
370
    25
100
AcDbCircle
 10
53.4688144162
 20
179.8328037275
 30
0.0
 40
0.5000000000000283
100
AcDbArc
 50
118.3509776603
 51
145.4371674189
  0
ARC
  5
161
330
1F
100
AcDbEntity
  8
0
  6
Continuous
 62
     7
370
    25
100
AcDbCircle
 10
66.233134973
 20
171.0395039645
 30
0.0
 40
16.00000000000006
100
AcDbArc
 50
205.4371674189
 51
211.2647879017
  0
LINE
  5
162
330
1F
100
AcDbEntity
  8
0
  6
Continuous
 62
     7
370
    25
100
AcDbLine
 10
51.7842252891
 20
164.1671674661
 30
0.0
 11
52.2357537167
 21
164.3819279817
 31
0.0
  0
LINE
  5
163
330
1F
100
AcDbEntity
  8
0
  6
Continuous
 62
     7
370
    25
100
AcDbLine
 10
52.2357537167
 20
164.3819279817
 30
0.0
 11
51.7359607871
 21
164.3963164297
 31
0.0
  0
LINE
  5
164
330
1F
100
AcDbEntity
  8
0
  6
Continuous
 62
     7
370
    25
100
AcDbLine
 10
51.7359607871
 20
164.3963164297
 30
0.0
 11
51.7912390754
 21
166.316446916
 31
0.0
  0
ARC
  5
165
330
1F
100
AcDbEntity
  8
0
  6
Continuous
 62
     7
370
    25
100
AcDbCircle
 10
52.2357537167
 20
164.3819279817
 30
0.0
 40
0.5000000000000033
100
AcDbArc
 50
178.3509776603
 51
205.4371674189
  0
ARC
  5
166
330
1F
100
AcDbEntity
  8
0
  6
Continuous
 62
     7
370
    25
100
AcDbCircle
 10
142.3444926324
 20
169.6661945229
 30
0.0
 40
7.43437665832969
100
AcDbArc
 50
356.0704737418
 51
3.9295262582
  0
ARC
  5
167
330
1F
100
AcDbEntity
  8
0
  6
Continuous
 62
     7
370
    25
100
AcDbCircle
 10
146.7206054075
 20
170.6218455793
 30
0.0
 40
3.375347654714553
100
AcDbArc
 50
334.2741059287
 51
346.2044345254
  0
SPLINE
  5
168
330
1F
100
AcDbEntity
  8
0
  6
Continuous
 62
     7
370
    25
100
AcDbSpline
210
0.0
220
0.0
230
1.0
 70
     8
 71
     3
 72
    11
 73
     7
 74
     0
 42
0.00000001
 43
0.00000001
 40
0.0
 40
0.0
 40
0.0
 40
0.0
 40
0.2373194275109051
 40
0.518812777926447
 40
0.7992137737621212
 40
1.0
 40
1.0
 40
1.0
 40
1.0
 10
150.0268705918946
 20
169.7835227717134
 30
0.0
 10
150.0312171772749
 20
169.8219681635555
 30
0.0
 10
150.0407194083368
 20
169.9060150565946
 30
0.0
 10
150.0372613355517
 20
169.9421826286091
 30
0.0
 10
150.0224700487432
 20
169.9109844672692
 30
0.0
 10
150.0056161826995
 20
169.8446468174519
 30
0.0
 10
149.9985835267908
 20
169.8169659361788
 30
0.0
  0
ARC
  5
169
330
1F
100
AcDbEntity
  8
0
  6
Continuous
 62
     7
370
    25
100
AcDbCircle
 10
142.3395740318
 20
171.3670253283
 30
0.0
 40
7.745894943618849
100
AcDbArc
 50
349.3094308211
 51
351.4102179214
  0
SPLINE
  5
16A
330
1F
100
AcDbEntity
  8
0
  6
Continuous
 62
     7
370
    25
100
AcDbSpline
210
0.0
220
0.0
230
1.0
 70
     8
 71
     3
 72
    11
 73
     7
 74
     0
 42
0.00000001
 43
0.00000001
 40
0.0
 40
0.0
 40
0.0
 40
0.0
 40
0.089423670617156
 40
0.4255030084328731
 40
0.7602781669373949
 40
1.0
 40
1.0
 40
1.0
 40
1.0
 10
150.0341127100276
 20
170.9168491416809
 30
0.0
 10
150.035349181143
 20
170.8979058383881
 30
0.0
 10
150.0412326589275
 20
170.8077682664781
 30
0.0
 10
150.0367876836378
 20
170.6131704745954
 30
0.0
 10
150.0225500299821
 20
170.3875646777839
 30
0.0
 10
150.0056397307293
 20
170.2623533718755
 30
0.0
 10
149.9985835267908
 20
170.2101061291343
 30
0.0
  0
SPLINE
  5
16B
330
1F
100
AcDbEntity
  8
0
  6
Continuous
 62
     7
370
    25
100
AcDbSpline
210
0.0
220
0.0
230
1.0
 70
     8
 71
     3
 72
    11
 73
     7
 74
     0
 42
0.00000001
 43
0.00000001
 40
0.0
 40
0.0
 40
0.0
 40
0.0
 40
0.3307540669562893
 40
0.6616399873463896
 40
0.9896169167736562
 40
1.0
 40
1.0
 40
1.0
 40
1.0
 10
149.9985835267908
 20
172.5027369267459
 30
0.0
 10
150.0083318635951
 20
172.4355995338319
 30
0.0
 10
150.0278324233287
 20
172.3012979840223
 30
0.0
 10
150.0388108447432
 20
172.1863091944127
 30
0.0
 10
150.0406342007406
 20
172.1361384061604
 30
0.0
 10
150.0347788836265
 20
172.1497232205476
 30
0.0
 10
150.0345992044604
 20
172.150140090902
 30
0.0
  0
ARC
  5
16C
330
1F
100
AcDbEntity
  8
0
  6
Continuous
 62
     7
370
    25
100
AcDbCircle
 10
142.2766542714
 20
171.3343217286
 30
0.0
 40
7.80982621448425
100
AcDbArc
 50
8.6042304424
 51
16.5896030164
  0
ARC
  5
16D
330
1F
100
AcDbEntity
  8
0
  6
Continuous
 62
     7
370
    25
100
AcDbCircle
 10
146.8959231812
 20
173.2472225103
 30
0.0
 40
2.882940696888236
100
AcDbArc
 50
353.6888017346
 51
6.3111982654
  0
ARC
  5
16E
330
1F
100
AcDbEntity
  8
0
  6
Continuous
 62
     7
370
    25
100
AcDbCircle
 10
142.2766542714
 20
170.7004866017
 30
0.0
 40
7.809826214491729
100
AcDbArc
 50
8.6042304424
 51
16.5896030164
  0
SPLINE
  5
16F
330
1F
100
AcDbEntity
  8
0
  6
Continuous
 62
     7
370
    25
100
AcDbSpline
210
0.0
220
0.0
230
1.0
 70
     8
 71
     3
 72
    12
 73
     8
 74
     0
 42
0.00000001
 43
0.00000001
 40
0.0
 40
0.0
 40
0.0
 40
0.0
 40
0.2133534395476138
 40
0.4267919313634461
 40
0.6383539739091598
 40
0.8490950351927609
 40
1.0
 40
1.0
 40
1.0
 40
1.0
 10
149.9985835267908
 20
170.8359129573395
 30
0.0
 10
150.0082426705182
 20
170.8868932543039
 30
0.0
 10
150.0275648085417
 20
170.98887417127
 30
0.0
 10
150.0398778785498
 20
171.2152830037827
 30
0.0
 10
150.037540438253
 20
171.4637138734796
 30
0.0
 10
150.0224229192392
 20
171.691801840779
 30
0.0
 10
150.0056023068583
 20
171.8167601328549
 30
0.0
 10
149.9985835267908
 20
171.8689017998653
 30
0.0
  0
ARC
  5
170
330
1F
100
AcDbEntity
  8
0
  6
Continuous
 62
     7
370
    25
100
AcDbCircle
 10
146.7206054075
 20
171.6407926005
 30
0.0
 40
3.375347654712555
100
AcDbArc
 50
334.2741059287
 51
346.2044345254
  0
LINE
  5
171
330
1F
100
AcDbEntity
  8
0
  6
Continuous
 62
     7
370
    25
100
AcDbLine
 10
147.4380619875
 20
178.1895039645
 30
0.0
 11
147.4380619875
 21
163.8895161972
 31
0.0
  0
LINE
  5
172
330
1F
100
AcDbEntity
  8
0
  6
Continuous
 62
     7
370
    25
100
AcDbLine
 10
149.3380619875
 20
176.3684091841
 30
0.0
 11
149.3380619875
 21
165.7105896279
 31
0.0
  0
LWPOLYLINE
  5
173
330
1F
100
AcDbEntity
  8
0
  6
Continuous
 62
     7
370
    25
100
AcDbPolyline
 90
        3
 70
   128
 43
0.0
 10
133.0918611762
 20
162.994323084
 10
139.083334973
 20
163.0553034249
 10
142.5711789302
 20
163.091050031
  0
LINE
  5
174
330
1F
100
AcDbEntity
  8
0
  6
Continuous
 62
     7
370
    25
100
AcDbLine
 10
133.0918611762
 20
179.4753074271
 30
0.0
 11
133.0918611762
 21
162.994323084
 31
0.0
  0
LWPOLYLINE
  5
175
330
1F
100
AcDbEntity
  8
0
  6
Continuous
 62
     7
370
    25
100
AcDbPolyline
 90
        3
 70
   128
 43
0.0
 10
141.6377587163
 20
179.3733581955
 10
139.083334973
 20
179.4039459821
 10
133.0918611593
 20
179.475307172
  0
SPLINE
  5
176
330
1F
100
AcDbEntity
  8
0
  6
Continuous
 62
     7
370
    25
100
AcDbSpline
210
0.0
220
0.0
230
1.0
 70
     8
 71
     3
 72
    11
 73
     7
 74
     0
 42
0.00000001
 43
0.00000001
 40
0.0
 40
0.0
 40
0.0
 40
0.0
 40
0.2499999999999937
 40
0.500000000000001
 40
0.7499999999999979
 40
1.0
 40
1.0
 40
1.0
 40
1.0
 10
133.091861176227
 20
162.9943215466797
 30
0.0
 10
133.0254901234896
 20
163.0000670965034
 30
0.0
 10
132.8927480180149
 20
163.0115581961507
 30
0.0
 10
132.7242842772342
 20
163.1128886151476
 30
0.0
 10
132.6061969181991
 20
163.259324305492
 30
0.0
 10
132.590822288072
 20
163.3759021866721
 30
0.0
 10
132.5831349730084
 20
163.4341911272622
 30
0.0
  0
LINE
  5
177
330
1F
100
AcDbEntity
  8
0
  6
Continuous
 62
     7
370
    25
100
AcDbLine
 10
132.583134973
 20
163.4342514499
 30
0.0
 11
132.583134973
 21
179.0139567982
 31
0.0
  0
SPLINE
  5
178
330
1F
100
AcDbEntity
  8
0
  6
Continuous
 62
     7
370
    25
100
AcDbSpline
210
0.0
220
0.0
230
1.0
 70
     8
 71
     3
 72
    11
 73
     7
 74
     0
 42
0.00000001
 43
0.00000001
 40
0.0
 40
0.0
 40
0.0
 40
0.0
 40
0.2499999999999895
 40
0.5000000000000012
 40
0.7499999999999961
 40
1.0
 40
1.0
 40
1.0
 40
1.0
 10
133.091861176227
 20
179.4753071718232
 30
0.0
 10
133.0254901234896
 20
179.469281041182
 30
0.0
 10
132.8927480180149
 20
179.4572287798996
 30
0.0
 10
132.7242842772342
 20
179.3509499447066
 30
0.0
 10
132.6061969181991
 20
179.19736314664
 30
0.0
 10
132.590822288072
 20
179.0750922476963
 30
0.0
 10
132.5831349730084
 20
179.0139567982244
 30
0.0
  0
LINE
  5
179
330
1F
100
AcDbEntity
  8
0
  6
Continuous
 62
     7
370
    25
100
AcDbLine
 10
147.433134973
 20
179.4389476188
 30
0.0
 11
147.433134973
 21
162.6400603102
 31
0.0
  0
SPLINE
  5
17A
330
1F
100
AcDbEntity
  8
0
  6
Continuous
 62
     7
370
    25
100
AcDbSpline
210
0.0
220
0.0
230
1.0
 70
     8
 71
     3
 72
    12
 73
     8
 74
     0
 42
0.00000001
 43
0.00000001
 40
0.0
 40
0.0
 40
0.0
 40
0.0
 40
0.1662426524176538
 40
0.3368059756191286
 40
0.6054181071254578
 40
0.880143508713619
 40
1.0
 40
1.0
 40
1.0
 40
1.0
 10
137.1743690029522
 20
159.0733930609087
 30
0.0
 10
137.2738257102275
 20
159.2603350109866
 30
0.0
 10
137.4753240191064
 20
159.6390775596915
 30
0.0
 10
138.2975717751289
 20
160.4096276963198
 30
0.0
 10
139.6594009421155
 20
161.3779981347904
 30
0.0
 10
141.2205071307743
 20
162.3171388095543
 30
0.0
 10
142.1907468229359
 20
162.9096111676978
 30
0.0
 10
142.4854626406388
 20
163.0895780118779
 30
0.0
  0
LINE
  5
17B
330
1F
100
AcDbEntity
  8
0
  6
Continuous
 62
     7
370
    25
100
AcDbLine
 10
137.174369003
 20
159.0733930609
 30
0.0
 11
133.0918611762
 21
159.0047921875
 31
0.0
  0
LINE
  5
17C
330
1F
100
AcDbEntity
  8
0
  6
Continuous
 62
     7
370
    25
100
AcDbLine
 10
133.0918611762
 20
162.9943218619
 30
0.0
 11
133.0918611762
 21
159.0047921875
 31
0.0
  0
LWPOLYLINE
  5
17D
330
1F
100
AcDbEntity
  8
0
  6
Continuous
 62
     7
370
    25
100
AcDbPolyline
 90
        3
 70
   128
 43
0.0
 10
142.4854626406
 20
163.0895780119
 10
139.083134973
 20
163.0550479931
 10
133.0918611932
 20
162.9943215469
  0
ARC
  5
17E
330
1F
100
AcDbEntity
  8
0
  6
Continuous
 62
     7
370
    25
100
AcDbCircle
 10
133.0743508366
 20
159.4957923612
 30
0.0
 40
0.4913123065720671
100
AcDbArc
 50
181.1352754124
 51
272.0424505137
  0
LINE
  5
17F
330
1F
100
AcDbEntity
  8
0
  6
Continuous
 62
     7
370
    25
100
AcDbLine
 10
132.583134973
 20
159.4860579918
 30
0.0
 11
132.583134973
 21
163.4342502268
 31
0.0
  0
LINE
  5
180
330
1F
100
AcDbEntity
  8
0
  6
Continuous
 62
     7
370
    25
100
AcDbLine
 10
142.4854626406
 20
163.0895780119
 30
0.0
 11
142.526572597
 21
163.0902830505
 31
0.0
  0
LINE
  5
181
330
1F
100
AcDbEntity
  8
0
  6
Continuous
 62
     7
370
    25
100
AcDbLine
 10
142.5711789302
 20
163.091050031
 30
0.0
 11
142.526572597
 21
163.0902830505
 31
0.0
  0
LINE
  5
182
330
1F
100
AcDbEntity
  8
0
  6
Continuous
 62
     7
370
    25
100
AcDbLine
 10
137.1180397859
 20
182.3621641213
 30
0.0
 11
137.1180397859
 21
182.3989026722
 31
0.0
  0
SPLINE
  5
183
330
1F
100
AcDbEntity
  8
0
  6
Continuous
 62
     7
370
    25
100
AcDbSpline
210
0.0
220
0.0
230
1.0
 70
     8
 71
     3
 72
    13
 73
     9
 74
     0
 42
0.00000001
 43
0.00000001
 40
0.0
 40
0.0
 40
0.0
 40
0.0
 40
0.0460329529079877
 40
0.2492425848193729
 40
0.4775225570272892
 40
0.7051721168687848
 40
0.8526808263814667
 40
1.0
 40
1.0
 40
1.0
 40
1.0
 10
141.5670487730254
 20
179.3746922249159
 30
0.0
 10
141.4650582387169
 20
179.4307548609906
 30
0.0
 10
140.9128367801244
 20
179.734302546819
 30
0.0
 10
139.8717178556627
 20
180.2840377832626
 30
0.0
 10
138.5865174122821
 20
180.9938548504522
 30
0.0
 10
137.6939465121593
 20
181.5856451553755
 30
0.0
 10
137.2054040547678
 20
182.0427750212403
 30
0.0
 10
137.1471487253171
 20
182.255746725606
 30
0.0
 10
137.1180397858829
 20
182.3621641212677
 30
0.0
  0
LWPOLYLINE
  5
184
330
1F
100
AcDbEntity
  8
0
  6
Continuous
 62
     7
370
    25
100
AcDbPolyline
 90
        3
 70
   128
 43
0.0
 10
141.567048773
 20
179.3746922249
 10
139.083134973
 20
179.4042017604
 10
133.0918611762
 20
179.4753087092
  0
LINE
  5
185
330
1F
100
AcDbEntity
  8
0
  6
Continuous
 62
     7
370
    25
100
AcDbLine
 10
133.0918611762
 20
182.4681093778
 30
0.0
 11
133.0918611762
 21
179.4753087092
 31
0.0
  0
LINE
  5
186
330
1F
100
AcDbEntity
  8
0
  6
Continuous
 62
     7
370
    25
100
AcDbLine
 10
137.1180397859
 20
182.3989026722
 30
0.0
 11
133.0918611762
 21
182.4681093778
 31
0.0
  0
ARC
  5
187
330
1F
100
AcDbEntity
  8
0
  6
Continuous
 62
     7
370
    25
100
AcDbCircle
 10
133.0795094482
 20
181.9718730627
 30
0.0
 40
0.4963900136584221
100
AcDbArc
 50
88.5741555685
 51
179.5466524836
  0
LINE
  5
188
330
1F
100
AcDbEntity
  8
0
  6
Continuous
 62
     7
370
    25
100
AcDbLine
 10
132.583134973
 20
179.0140059828
 30
0.0
 11
132.583134973
 21
181.9758006614
 31
0.0
  0
LINE
  5
189
330
1F
100
AcDbEntity
  8
0
  6
Continuous
 62
     7
370
    25
100
AcDbLine
 10
141.605224577
 20
179.3739726974
 30
0.0
 11
141.567048773
 21
179.3746922249
 31
0.0
  0
LINE
  5
18A
330
1F
100
AcDbEntity
  8
0
  6
Continuous
 62
     7
370
    25
100
AcDbLine
 10
141.605224577
 20
179.3739726974
 30
0.0
 11
141.6377587163
 21
179.3733581955
 31
0.0
  0
LINE
  5
18B
330
1F
100
AcDbEntity
  8
0
  6
Continuous
 62
     7
370
    25
100
AcDbLine
 10
137.1180397859
 20
158.7937506201
 30
0.0
 11
137.174369003
 21
159.0733930609
 31
0.0
  0
LINE
  5
18C
330
1F
100
AcDbEntity
  8
0
  6
Continuous
 62
     7
370
    25
100
AcDbLine
 10
132.583134973
 20
159.1688231209
 30
0.0
 11
132.583134973
 21
159.4860579918
 31
0.0
  0
LINE
  5
18D
330
1F
100
AcDbEntity
  8
0
  6
Continuous
 62
     7
370
    25
100
AcDbLine
 10
132.583134973
 20
181.9758006614
 30
0.0
 11
132.583134973
 21
182.1052775373
 31
0.0
  0
SPLINE
  5
18E
330
1F
100
AcDbEntity
  8
0
  6
Continuous
 62
     7
370
    25
100
AcDbSpline
210
0.0
220
0.0
230
1.0
 70
     8
 71
     3
 72
    11
 73
     7
 74
     0
 42
0.00000001
 43
0.00000001
 40
0.0
 40
0.0
 40
0.0
 40
0.0
 40
0.2431641197380914
 40
0.4936284730588937
 40
0.7421706076863286
 40
0.9999999999999999
 40
0.9999999999999999
 40
0.9999999999999999
 40
0.9999999999999999
 10
122.6331349730084
 20
160.7767376704562
 30
0.0
 10
122.8432752962171
 20
160.9691677187054
 30
0.0
 10
123.2698647411788
 20
161.3598049187588
 30
0.0
 10
123.4802491713217
 20
161.979481794976
 30
0.0
 10
123.2895624776548
 20
162.6122332102818
 30
0.0
 10
122.8546033072601
 20
163.0133997074512
 30
0.0
 10
122.6331349730084
 20
163.2176618128001
 30
0.0
  0
LINE
  5
18F
330
1F
100
AcDbEntity
  8
0
  6
Continuous
 62
     7
370
    25
100
AcDbLine
 10
122.633134973
 20
165.1503471076
 30
0.0
 11
122.633134973
 21
163.2176618128
 31
0.0
  0
SPLINE
  5
190
330
1F
100
AcDbEntity
  8
0
  6
Continuous
 62
     7
370
    25
100
AcDbSpline
210
0.0
220
0.0
230
1.0
 70
     8
 71
     3
 72
    11
 73
     7
 74
     0
 42
0.00000001
 43
0.00000001
 40
0.0
 40
0.0
 40
0.0
 40
0.0
 40
0.243164119738091
 40
0.4936284730588926
 40
0.7421706076863281
 40
1.0
 40
1.0
 40
1.0
 40
1.0
 10
122.6331349730084
 20
165.1503471076004
 30
0.0
 10
122.8432752962172
 20
165.763826223689
 30
0.0
 10
123.2698647411788
 20
167.0092022259318
 30
0.0
 10
123.4802491713217
 20
168.9847711443048
 30
0.0
 10
123.2895624776547
 20
171.0020225169327
 30
0.0
 10
122.8546033072601
 20
172.2809665816819
 30
0.0
 10
122.6331349730084
 20
172.9321670411734
 30
0.0
  0
LINE
  5
191
330
1F
100
AcDbEntity
  8
0
  6
Continuous
 62
     7
370
    25
100
AcDbLine
 10
122.633134973
 20
175.4131134016
 30
0.0
 11
122.633134973
 21
172.9321670412
 31
0.0
  0
SPLINE
  5
192
330
1F
100
AcDbEntity
  8
0
  6
Continuous
 62
     7
370
    25
100
AcDbSpline
210
0.0
220
0.0
230
1.0
 70
     8
 71
     3
 72
    13
 73
     9
 74
     0
 42
0.00000001
 43
0.00000001
 40
0.0
 40
0.0
 40
0.0
 40
0.0
 40
0.0290865078712627
 40
0.2691317361521214
 40
0.5086847447945265
 40
0.7393528760311802
 40
0.9704551097945733
 40
1.0
 40
1.0
 40
1.0
 40
1.0
 10
122.6331349730084
 20
175.413113401644
 30
0.0
 10
122.660632819452
 20
175.4627881094076
 30
0.0
 10
122.9150649838972
 20
175.9224184095603
 30
0.0
 10
123.2864101401186
 20
176.8193619994427
 30
0.0
 10
123.4812507749708
 20
178.1154256937324
 30
0.0
 10
123.2695032047766
 20
179.3930624370878
 30
0.0
 10
122.9074145208793
 20
180.2583940965577
 30
0.0
 10
122.6610597908242
 20
180.7035498663252
 30
0.0
 10
122.6331349730084
 20
180.754009192873
 30
0.0
  0
LINE
  5
193
330
1F
100
AcDbEntity
  8
0
  6
Continuous
 62
     7
370
    25
100
AcDbLine
 10
122.633134973
 20
181.3022702585
 30
0.0
 11
122.633134973
 21
180.7540091929
 31
0.0
  0
LINE
  5
194
330
1F
100
AcDbEntity
  8
0
  6
Continuous
 62
     7
370
    25
100
AcDbLine
 10
122.633134973
 20
181.3022702585
 30
0.0
 11
122.904533809
 21
181.0203941383
 31
0.0
  0
LINE
  5
195
330
1F
100
AcDbEntity
  8
0
  6
Continuous
 62
     7
370
    25
100
AcDbLine
 10
124.633134973
 20
179.2895039645
 30
0.0
 11
124.633134973
 21
162.7895039645
 31
0.0
  0
LINE
  5
196
330
1F
100
AcDbEntity
  8
0
  6
Continuous
 62
     7
370
    25
100
AcDbLine
 10
120.083134973
 20
165.1503471076
 30
0.0
 11
119.833134973
 21
165.835516909
 31
0.0
  0
LINE
  5
197
330
1F
100
AcDbEntity
  8
0
  6
Continuous
 62
     7
370
    25
100
AcDbLine
 10
119.833134973
 20
172.2469972398
 30
0.0
 11
120.083134973
 21
172.9321670412
 31
0.0
  0
LINE
  5
198
330
1F
100
AcDbEntity
  8
0
  6
Continuous
 62
     7
370
    25
100
AcDbLine
 10
122.633134973
 20
172.9321670412
 30
0.0
 11
120.083134973
 21
172.9321670412
 31
0.0
  0
LINE
  5
199
330
1F
100
AcDbEntity
  8
0
  6
Continuous
 62
     7
370
    25
100
AcDbLine
 10
120.083134973
 20
165.1503471076
 30
0.0
 11
122.633134973
 21
165.1503471076
 31
0.0
  0
LINE
  5
19A
330
1F
100
AcDbEntity
  8
0
  6
Continuous
 62
     7
370
    25
100
AcDbLine
 10
119.833134973
 20
172.2469972398
 30
0.0
 11
119.833134973
 21
165.835516909
 31
0.0
  0
SPLINE
  5
19B
330
1F
100
AcDbEntity
  8
0
  6
Continuous
 62
     7
370
    25
100
AcDbSpline
210
0.0
220
0.0
230
1.0
 70
     8
 71
     3
 72
    27
 73
    23
 74
     0
 42
0.00000001
 43
0.00000001
 40
0.0
 40
0.0
 40
0.0
 40
0.0
 40
0.0325330446399549
 40
0.0929192696990593
 40
0.155491539076917
 40
0.2200774896150413
 40
0.2868085961572391
 40
0.3432551430239443
 40
0.4086131449045318
 40
0.4508234967310984
 40
0.4799260268656575
 40
0.5138001925950767
 40
0.5476743442221778
 40
0.5781570289130481
 40
0.6095953475191547
 40
0.6618574976116314
 40
0.7275564512378703
 40
0.8113328522527481
 40
0.8799725123237444
 40
0.9334637947827115
 40
0.9811918675935916
 40
1.0
 40
1.0
 40
1.0
 40
1.0
 10
117.1831349730084
 20
172.0486088214786
 30
0.0
 10
117.1872460938225
 20
171.8747323036989
 30
0.0
 10
117.1989880733366
 20
171.378114811278
 30
0.0
 10
117.2176379045075
 20
170.5378540649007
 30
0.0
 10
117.2420233551234
 20
169.532337670822
 30
0.0
 10
117.2674706190887
 20
168.5102868116634
 30
0.0
 10
117.2921397896302
 20
167.5511182053879
 30
0.0
 10
117.3167988586088
 20
166.6287528355396
 30
0.0
 10
117.3381527262933
 20
165.8689527043147
 30
0.0
 10
117.3557160374192
 20
165.2743309515899
 30
0.0
 10
117.3687804780608
 20
164.8381936070752
 30
0.0
 10
117.3808722357029
 20
164.4551480809537
 30
0.0
 10
117.3931457968679
 20
164.0882130651486
 30
0.0
 10
117.4049636248926
 20
163.7515126752099
 30
0.0
 10
117.4197470164313
 20
163.3755447016077
 30
0.0
 10
117.4393429374545
 20
162.9302638922509
 30
0.0
 10
117.4659989825697
 20
162.4232916487281
 30
0.0
 10
117.4945906367215
 20
162.0132880672712
 30
0.0
 10
117.5212027415154
 20
161.7637059193514
 30
0.0
 10
117.5426816506682
 20
161.659454594574
 30
0.0
 10
117.5572575629007
 20
161.6249256651937
 30
0.0
 10
117.5657708621889
 20
161.6508950353895
 30
0.0
 10
117.5681773604211
 20
161.6582359312455
 30
0.0
  0
SPLINE
  5
19C
330
1F
100
AcDbEntity
  8
0
  6
Continuous
 62
     7
370
    25
100
AcDbSpline
210
0.0
220
0.0
230
1.0
 70
     8
 71
     3
 72
     9
 73
     5
 74
     0
 42
0.00000001
 43
0.00000001
 40
0.0
 40
0.0
 40
0.0
 40
0.0
 40
0.3785182703643021
 40
1.0
 40
1.0
 40
1.0
 40
1.0
 10
117.1831349730084
 20
161.7020741262052
 30
0.0
 10
117.1860770740259
 20
161.6856069477733
 30
0.0
 10
117.1938497530426
 20
161.6421026318097
 30
0.0
 10
117.2016121294686
 20
161.6513315827743
 30
0.0
 10
117.206436304596
 20
161.6570672071825
 30
0.0
  0
SPLINE
  5
19D
330
1F
100
AcDbEntity
  8
0
  6
Continuous
 62
     7
370
    25
100
AcDbSpline
210
0.0
220
0.0
230
1.0
 70
     8
 71
     3
 72
    21
 73
    17
 74
     0
 42
0.00000001
 43
0.00000001
 40
0.0
 40
0.0
 40
0.0
 40
0.0
 40
0.0372079554099781
 40
0.1138564335489423
 40
0.1900231532197257
 40
0.2646998601650064
 40
0.3410193964623694
 40
0.4175926792419464
 40
0.4924693646499729
 40
0.5682128937900544
 40
0.6449407077773299
 40
0.7205313803970156
 40
0.7894761661177079
 40
0.859554942737689
 40
0.9300908399628182
 40
1.0
 40
1.0
 40
1.0
 40
1.0
 10
117.3046027130245
 20
179.6091876270702
 30
0.0
 10
117.312981875514
 20
179.6059115552396
 30
0.0
 10
117.3386221329983
 20
179.5958867675142
 30
0.0
 10
117.3844940812931
 20
179.0662747946105
 30
0.0
 10
117.438140653414
 20
178.081130823436
 30
0.0
 10
117.4877987839858
 20
176.6894617182858
 30
0.0
 10
117.5418701427993
 20
174.9922434367623
 30
0.0
 10
117.5965257925344
 20
173.0726015691766
 30
0.0
 10
117.6467285377697
 20
171.0480571628409
 30
0.0
 10
117.6993501927636
 20
169.0210216025864
 30
0.0
 10
117.7542382646528
 20
167.0985663725547
 30
0.0
 10
117.8051145812768
 20
165.4458811364239
 30
0.0
 10
117.8526982532342
 20
164.1194669894759
 30
0.0
 10
117.9028287478797
 20
163.1537347221032
 30
0.0
 10
117.9529645762288
 20
162.5196403392558
 30
0.0
 10
117.9842479467988
 20
162.4513624167311
 30
0.0
 10
117.9998198309385
 20
162.4173758008556
 30
0.0
  0
SPLINE
  5
19E
330
1F
100
AcDbEntity
  8
0
  6
Continuous
 62
     7
370
    25
100
AcDbSpline
210
0.0
220
0.0
230
1.0
 70
     8
 71
     3
 72
    27
 73
    23
 74
     0
 42
0.00000001
 43
0.00000001
 40
0.0
 40
0.0
 40
0.0
 40
0.0
 40
0.0151436181910954
 40
0.0478952108099446
 40
0.1018265553387762
 40
0.1557578997567095
 40
0.2096892441726297
 40
0.2633179399052672
 40
0.3166010242089368
 40
0.3698841080331789
 40
0.423167191858044
 40
0.4764502756799134
 40
0.529252100205425
 40
0.5818869257002746
 40
0.6345217508141898
 40
0.6871565759276632
 40
0.7397806675130871
 40
0.7917672369352939
 40
0.8437538056994792
 40
0.8957403742085731
 40
0.9500942275614135
 40
1.0
 40
1.0
 40
1.0
 40
1.0
 10
117.8831460361939
 20
180.3777905159491
 30
0.0
 10
117.8852608313749
 20
180.3781894380894
 30
0.0
 10
117.8919493624599
 20
180.3794511220388
 30
0.0
 10
117.9068047093683
 20
180.2557850335998
 30
0.0
 10
117.927786568015
 20
179.9354667086779
 30
0.0
 10
117.9521368158254
 20
179.3121727571335
 30
0.0
 10
117.9760361549265
 20
178.4664695510519
 30
0.0
 10
117.9983379813532
 20
177.4219135587013
 30
0.0
 10
118.0220591219042
 20
176.2083133259272
 30
0.0
 10
118.0463347067976
 20
174.8584129375312
 30
0.0
 10
118.0706524608579
 20
173.4068172923573
 30
0.0
 10
118.0941199074256
 20
171.8981527387998
 30
0.0
 10
118.1165401117417
 20
170.3758424350483
 30
0.0
 10
118.1405628372937
 20
168.8819130020588
 30
0.0
 10
118.1648664494318
 20
167.4528493483397
 30
0.0
 10
118.189141669425
 20
166.1267089279184
 30
0.0
 10
118.2120127936542
 20
164.9442900990317
 30
0.0
 10
118.2349150134734
 20
163.937884038235
 30
0.0
 10
118.2590732347585
 20
163.1317208379404
 30
0.0
 10
118.2837862884833
 20
162.5429501574879
 30
0.0
 10
118.307876803232
 20
162.1789729913114
 30
0.0
 10
118.3231097609106
 20
162.1600504253611
 30
0.0
 10
118.3304012940779
 20
162.1509927938658
 30
0.0
  0
SPLINE
  5
19F
330
1F
100
AcDbEntity
  8
0
  6
Continuous
 62
     7
370
    25
100
AcDbSpline
210
0.0
220
0.0
230
1.0
 70
     8
 71
     3
 72
    21
 73
    17
 74
     0
 42
0.00000001
 43
0.00000001
 40
0.0
 40
0.0
 40
0.0
 40
0.0
 40
0.0515161511447312
 40
0.1281232403594772
 40
0.2042488321474528
 40
0.278885215003554
 40
0.3551635396450418
 40
0.4316954747294328
 40
0.5249720414345583
 40
0.6196351456015472
 40
0.64013366859644
 40
0.7161501087843112
 40
0.7908154989971053
 40
0.8671783976318649
 40
0.9436500210218782
 40
1.0
 40
1.0
 40
1.0
 40
1.0
 10
117.4712303262113
 20
179.6256193379652
 30
0.0
 10
117.4828182125245
 20
179.6243669442129
 30
0.0
 10
117.5116378644274
 20
179.6212521784126
 30
0.0
 10
117.5608557701767
 20
179.0707867685092
 30
0.0
 10
117.6145369793661
 20
178.0799441811436
 30
0.0
 10
117.6641842965512
 20
176.6898171891302
 30
0.0
 10
117.7182650010769
 20
174.9920263986195
 30
0.0
 10
117.7773194223963
 20
172.9176701393105
 30
0.0
 10
117.835306286152
 20
170.5409981528725
 30
0.0
 10
117.8850875622488
 20
168.6943447044228
 30
0.0
 10
117.9304560188584
 20
167.1150791208231
 30
0.0
 10
117.9708075623703
 20
165.7876072476095
 30
0.0
 10
118.0204874364115
 20
164.312931843772
 30
0.0
 10
118.0747886485057
 20
163.2172480050291
 30
0.0
 10
118.1248548343347
 20
162.5550397756409
 30
0.0
 10
118.1544912711422
 20
162.4841791898967
 30
0.0
 10
118.1670646218721
 20
162.4541163654324
 30
0.0
  0
LINE
  5
1A0
330
1F
100
AcDbEntity
  8
0
  6
Continuous
 62
     7
370
    25
100
AcDbLine
 10
118.333134973
 20
179.9395039645
 30
0.0
 11
118.333134973
 21
162.1395039645
 31
0.0
  0
LINE
  5
1A1
330
1F
100
AcDbEntity
  8
0
  6
Continuous
 62
     7
370
    25
100
AcDbLine
 10
120.083134973
 20
175.4131134016
 30
0.0
 11
119.833134973
 21
175.8833659312
 31
0.0
  0
LINE
  5
1A2
330
1F
100
AcDbEntity
  8
0
  6
Continuous
 62
     7
370
    25
100
AcDbLine
 10
120.083134973
 20
175.4131134016
 30
0.0
 11
120.083134973
 21
172.9321670412
 31
0.0
  0
LINE
  5
1A3
330
1F
100
AcDbEntity
  8
0
  6
Continuous
 62
     7
370
    25
100
AcDbLine
 10
119.833134973
 20
172.2469972398
 30
0.0
 11
119.833134973
 21
175.8833659312
 31
0.0
  0
LINE
  5
1A4
330
1F
100
AcDbEntity
  8
0
  6
Continuous
 62
     7
370
    25
100
AcDbLine
 10
120.083134973
 20
175.4131134016
 30
0.0
 11
122.633134973
 21
175.4131134016
 31
0.0
  0
LINE
  5
1A5
330
1F
100
AcDbEntity
  8
0
  6
Continuous
 62
     7
370
    25
100
AcDbLine
 10
119.833134973
 20
180.2837566633
 30
0.0
 11
120.083134973
 21
180.7540091929
 31
0.0
  0
LINE
  5
1A6
330
1F
100
AcDbEntity
  8
0
  6
Continuous
 62
     7
370
    25
100
AcDbLine
 10
122.633134973
 20
180.7540091929
 30
0.0
 11
120.083134973
 21
180.7540091929
 31
0.0
  0
LINE
  5
1A7
330
1F
100
AcDbEntity
  8
0
  6
Continuous
 62
     7
370
    25
100
AcDbLine
 10
119.833134973
 20
180.2837566633
 30
0.0
 11
119.833134973
 21
175.8833659312
 31
0.0
  0
LINE
  5
1A8
330
1F
100
AcDbEntity
  8
0
  6
Continuous
 62
     7
370
    25
100
AcDbLine
 10
120.083134973
 20
165.1503471076
 30
0.0
 11
120.083134973
 21
163.2176618128
 31
0.0
  0
LINE
  5
1A9
330
1F
100
AcDbEntity
  8
0
  6
Continuous
 62
     7
370
    25
100
AcDbLine
 10
119.833134973
 20
163.002744541
 30
0.0
 11
120.083134973
 21
163.2176618128
 31
0.0
  0
LINE
  5
1AA
330
1F
100
AcDbEntity
  8
0
  6
Continuous
 62
     7
370
    25
100
AcDbLine
 10
119.833134973
 20
163.002744541
 30
0.0
 11
119.833134973
 21
165.835516909
 31
0.0
  0
LINE
  5
1AB
330
1F
100
AcDbEntity
  8
0
  6
Continuous
 62
     7
370
    25
100
AcDbLine
 10
122.633134973
 20
163.2176618128
 30
0.0
 11
120.083134973
 21
163.2176618128
 31
0.0
  0
LINE
  5
1AC
330
1F
100
AcDbEntity
  8
0
  6
Continuous
 62
     7
370
    25
100
AcDbLine
 10
120.083134973
 20
160.7767376705
 30
0.0
 11
119.833134973
 21
160.9916549423
 31
0.0
  0
LINE
  5
1AD
330
1F
100
AcDbEntity
  8
0
  6
Continuous
 62
     7
370
    25
100
AcDbLine
 10
120.083134973
 20
160.7767376705
 30
0.0
 11
122.633134973
 21
160.7767376705
 31
0.0
  0
LINE
  5
1AE
330
1F
100
AcDbEntity
  8
0
  6
Continuous
 62
     7
370
    25
100
AcDbLine
 10
119.833134973
 20
163.002744541
 30
0.0
 11
119.833134973
 21
160.9916549423
 31
0.0
  0
LINE
  5
1AF
330
1F
100
AcDbEntity
  8
0
  6
Continuous
 62
     7
370
    25
100
AcDbLine
 10
120.083134973
 20
181.3022702585
 30
0.0
 11
119.833134973
 21
181.0873529867
 31
0.0
  0
LINE
  5
1B0
330
1F
100
AcDbEntity
  8
0
  6
Continuous
 62
     7
370
    25
100
AcDbLine
 10
120.083134973
 20
181.3022702585
 30
0.0
 11
120.083134973
 21
180.7540091929
 31
0.0
  0
LINE
  5
1B1
330
1F
100
AcDbEntity
  8
0
  6
Continuous
 62
     7
370
    25
100
AcDbLine
 10
119.833134973
 20
180.2837566633
 30
0.0
 11
119.833134973
 21
181.0873529867
 31
0.0
  0
LINE
  5
1B2
330
1F
100
AcDbEntity
  8
0
  6
Continuous
 62
     7
370
    25
100
AcDbLine
 10
120.083134973
 20
181.3022702585
 30
0.0
 11
122.633134973
 21
181.3022702585
 31
0.0
  0
LINE
  5
1B3
330
1F
100
AcDbEntity
  8
0
  6
Continuous
 62
     7
370
    25
100
AcDbLine
 10
101.0686780654
 20
188.3137085887
 30
0.0
 11
100.8866899606
 21
188.1045058715
 31
0.0
  0
SPLINE
  5
1B4
330
1F
100
AcDbEntity
  8
0
  6
Continuous
 62
     7
370
    25
100
AcDbSpline
210
0.0
220
0.0
230
1.0
 70
     8
 71
     3
 72
     9
 73
     5
 74
     0
 42
0.00000001
 43
0.00000001
 40
0.0
 40
0.0
 40
0.0
 40
0.0
 40
0.5841917497409969
 40
1.0
 40
1.0
 40
1.0
 40
1.0
 10
101.4831349730084
 20
188.481804700783
 30
0.0
 10
101.4569670091877
 20
188.5274202562092
 30
0.0
 10
101.4121735593791
 20
188.6055034462687
 30
0.0
 10
101.1695591418652
 20
188.3994057225618
 30
0.0
 10
101.0686780654311
 20
188.3137085886849
 30
0.0
  0
LINE
  5
1B5
330
1F
100
AcDbEntity
  8
0
  6
Continuous
 62
     7
370
    25
100
AcDbLine
 10
101.483134973
 20
188.4818047008
 30
0.0
 11
101.483134973
 21
188.1760405869
 31
0.0
  0
SPLINE
  5
1B6
330
1F
100
AcDbEntity
  8
0
  6
Continuous
 62
     7
370
    25
100
AcDbSpline
210
0.0
220
0.0
230
1.0
 70
     8
 71
     3
 72
     9
 73
     5
 74
     0
 42
0.00000001
 43
0.00000001
 40
0.0
 40
0.0
 40
0.0
 40
0.0
 40
0.5850553834536127
 40
1.0
 40
1.0
 40
1.0
 40
1.0
 10
101.068678065431
 20
187.0426096287658
 30
0.0
 10
101.2052321994553
 20
187.3308722581921
 30
0.0
 10
101.4386359726473
 20
187.8235822435693
 30
0.0
 10
101.4700852603725
 20
188.0726791617435
 30
0.0
 10
101.4831349730084
 20
188.1760405869381
 30
0.0
  0
SPLINE
  5
1B7
330
1F
100
AcDbEntity
  8
0
  6
Continuous
 62
     7
370
    25
100
AcDbSpline
210
0.0
220
0.0
230
1.0
 70
     8
 71
     3
 72
    11
 73
     7
 74
     0
 42
0.00000001
 43
0.00000001
 40
0.0
 40
0.0
 40
0.0
 40
0.0
 40
0.232871632211144
 40
0.4710265024313159
 40
0.7311421212560256
 40
0.9999999999999999
 40
0.9999999999999999
 40
0.9999999999999999
 40
0.9999999999999999
 10
101.068678065431
 20
179.134489175461
 30
0.0
 10
100.7982813307582
 20
179.7342447438006
 30
0.0
 10
100.2513532786274
 20
180.9473627392659
 30
0.0
 10
99.95012896064381
 20
182.9117587752147
 30
0.0
 10
100.1577807260535
 20
184.9831258301126
 30
0.0
 10
100.7617185578338
 20
186.3485927451825
 30
0.0
 10
101.068678065431
 20
187.0426096287658
 30
0.0
  0
SPLINE
  5
1B8
330
1F
100
AcDbEntity
  8
0
  6
Continuous
 62
     7
370
    25
100
AcDbSpline
210
0.0
220
0.0
230
1.0
 70
     8
 71
     3
 72
     9
 73
     5
 74
     0
 42
0.00000001
 43
0.00000001
 40
0.0
 40
0.0
 40
0.0
 40
0.0
 40
0.5841917497409228
 40
1.0
 40
1.0
 40
1.0
 40
1.0
 10
101.4831349730084
 20
177.1544868843007
 30
0.0
 10
101.4569670091877
 20
177.5943172779399
 30
0.0
 10
101.4121735593791
 20
178.3472043117508
 30
0.0
 10
101.1695591418651
 20
178.9032717478362
 30
0.0
 10
101.068678065431
 20
179.134489175461
 30
0.0
  0
LINE
  5
1B9
330
1F
100
AcDbEntity
  8
0
  6
Continuous
 62
     7
370
    25
100
AcDbLine
 10
101.483134973
 20
177.1544868843
 30
0.0
 11
101.483134973
 21
175.7708679974
 31
0.0
  0
SPLINE
  5
1BA
330
1F
100
AcDbEntity
  8
0
  6
Continuous
 62
     7
370
    25
100
AcDbSpline
210
0.0
220
0.0
230
1.0
 70
     8
 71
     3
 72
     9
 73
     5
 74
     0
 42
0.00000001
 43
0.00000001
 40
0.0
 40
0.0
 40
0.0
 40
0.0
 40
0.5850553834536169
 40
1.0
 40
1.0
 40
1.0
 40
1.0
 10
101.068678065431
 20
173.3826155957584
 30
0.0
 10
101.2052321994554
 20
173.8435345544817
 30
0.0
 10
101.4386359726473
 20
174.6313556253734
 30
0.0
 10
101.4700852603726
 20
175.4366962434551
 30
0.0
 10
101.4831349730084
 20
175.7708679974142
 30
0.0
  0
SPLINE
  5
1BB
330
1F
100
AcDbEntity
  8
0
  6
Continuous
 62
     7
370
    25
100
AcDbSpline
210
0.0
220
0.0
230
1.0
 70
     8
 71
     3
 72
    11
 73
     7
 74
     0
 42
0.00000001
 43
0.00000001
 40
0.0
 40
0.0
 40
0.0
 40
0.0
 40
0.2328716322111452
 40
0.4710265024313183
 40
0.7311421212560267
 40
1.0
 40
1.0
 40
1.0
 40
1.0
 10
101.068678065431
 20
161.860284551276
 30
0.0
 10
100.7982813307582
 20
162.7341435478588
 30
0.0
 10
100.2513532786274
 20
164.5016870776148
 30
0.0
 10
99.9501289606438
 20
167.3638616692034
 30
0.0
 10
100.1577807260535
 20
170.3818957345791
 30
0.0
 10
100.7617185578338
 20
172.3714154843887
 30
0.0
 10
101.068678065431
 20
173.3826155957584
 30
0.0
  0
SPLINE
  5
1BC
330
1F
100
AcDbEntity
  8
0
  6
Continuous
 62
     7
370
    25
100
AcDbSpline
210
0.0
220
0.0
230
1.0
 70
     8
 71
     3
 72
     9
 73
     5
 74
     0
 42
0.00000001
 43
0.00000001
 40
0.0
 40
0.0
 40
0.0
 40
0.0
 40
0.5841917497409206
 40
1.0
 40
1.0
 40
1.0
 40
1.0
 10
101.4831349730084
 20
159.7121861480175
 30
0.0
 10
101.4569670091877
 20
160.1064009862305
 30
0.0
 10
101.4121735593791
 20
160.7812048299819
 30
0.0
 10
101.1695591418651
 20
161.5433699897742
 30
0.0
 10
101.068678065431
 20
161.860284551276
 30
0.0
  0
LINE
  5
1BD
330
1F
100
AcDbEntity
  8
0
  6
Continuous
 62
     7
370
    25
100
AcDbLine
 10
101.483134973
 20
159.712186148
 30
0.0
 11
101.483134973
 21
158.634331375
 31
0.0
  0
SPLINE
  5
1BE
330
1F
100
AcDbEntity
  8
0
  6
Continuous
 62
     7
370
    25
100
AcDbSpline
210
0.0
220
0.0
230
1.0
 70
     8
 71
     3
 72
     9
 73
     5
 74
     0
 42
0.00000001
 43
0.00000001
 40
0.0
 40
0.0
 40
0.0
 40
0.0
 40
0.5850553834536156
 40
1.0
 40
1.0
 40
1.0
 40
1.0
 10
101.068678065431
 20
157.3795099314924
 30
0.0
 10
101.2052321994553
 20
157.5521662607894
 30
0.0
 10
101.4386359726472
 20
157.8472773463039
 30
0.0
 10
101.4700852603725
 20
158.4035210462114
 30
0.0
 10
101.4831349730084
 20
158.6343313749759
 30
0.0
  0
SPLINE
  5
1BF
330
1F
100
AcDbEntity
  8
0
  6
Continuous
 62
     7
370
    25
100
AcDbSpline
210
0.0
220
0.0
230
1.0
 70
     8
 71
     3
 72
    11
 73
     7
 74
     0
 42
0.00000001
 43
0.00000001
 40
0.0
 40
0.0
 40
0.0
 40
0.0
 40
0.2556279644381003
 40
0.5185037642963937
 40
0.7560467972580137
 40
1.0
 40
1.0
 40
1.0
 40
1.0
 10
101.068678065431
 20
153.7652993403148
 30
0.0
 10
100.775052105329
 20
154.0666119727633
 30
0.0
 10
100.1794749901935
 20
154.6777803732866
 30
0.0
 10
99.94758602856682
 20
155.6101337288743
 30
0.0
 10
100.2305564870276
 20
156.5250108374811
 30
0.0
 10
100.7868356205919
 20
157.0921600767998
 30
0.0
 10
101.068678065431
 20
157.3795099314924
 30
0.0
  0
SPLINE
  5
1C0
330
1F
100
AcDbEntity
  8
0
  6
Continuous
 62
     7
370
    25
100
AcDbSpline
210
0.0
220
0.0
230
1.0
 70
     8
 71
     3
 72
     9
 73
     5
 74
     0
 42
0.00000001
 43
0.00000001
 40
0.0
 40
0.0
 40
0.0
 40
0.0
 40
0.3607400128961893
 40
1.0
 40
1.0
 40
1.0
 40
1.0
 10
101.3957670665674
 20
153.5733524044245
 30
0.0
 10
101.3817991808368
 20
153.5599973262916
 30
0.0
 10
101.3430790909347
 20
153.522975987778
 30
0.0
 10
101.1756858600486
 20
153.6708008321853
 30
0.0
 10
101.068678065431
 20
153.7652993403148
 30
0.0
  0
LINE
  5
1C1
330
1F
100
AcDbEntity
  8
0
  6
Continuous
 62
     7
370
    25
100
AcDbLine
 10
99.983134973
 20
154.8395039645
 30
0.0
 11
99.983134973
 21
187.2395039645
 31
0.0
  0
SPLINE
  5
1C2
330
1F
100
AcDbEntity
  8
0
  6
Continuous
 62
     7
370
    25
100
AcDbSpline
210
0.0
220
0.0
230
1.0
 70
     8
 71
     3
 72
     9
 73
     5
 74
     0
 42
0.00000001
 43
0.00000001
 40
0.0
 40
0.0
 40
0.0
 40
0.0
 40
0.8988656309358773
 40
1.0
 40
1.0
 40
1.0
 40
1.0
 10
108.3475918805863
 20
153.7652993403153
 30
0.0
 10
108.1986783761016
 20
153.6353466550287
 30
0.0
 10
108.0330101167316
 20
153.4907725598425
 30
0.0
 10
107.9987903796641
 20
153.5337968181943
 30
0.0
 10
107.9953295881462
 20
153.5381480494172
 30
0.0
  0
SPLINE
  5
1C3
330
1F
100
AcDbEntity
  8
0
  6
Continuous
 62
     7
370
    25
100
AcDbSpline
210
0.0
220
0.0
230
1.0
 70
     8
 71
     3
 72
    11
 73
     7
 74
     0
 42
0.00000001
 43
0.00000001
 40
0.0
 40
0.0
 40
0.0
 40
0.0
 40
0.2379053903768483
 40
0.4814905141303173
 40
0.7366519444348057
 40
1.0
 40
1.0
 40
1.0
 40
1.0
 10
108.3475918805856
 20
157.3795099314924
 30
0.0
 10
108.6231773155587
 20
157.0993937224333
 30
0.0
 10
109.1809274891121
 20
156.5324738333864
 30
0.0
 10
109.4674907137685
 20
155.6270352653169
 30
0.0
 10
109.2426103075705
 20
154.6873697911721
 30
0.0
 10
108.6490551906526
 20
154.0758744098882
 30
0.0
 10
108.3475918805863
 20
153.7652993403153
 30
0.0
  0
SPLINE
  5
1C4
330
1F
100
AcDbEntity
  8
0
  6
Continuous
 62
     7
370
    25
100
AcDbSpline
210
0.0
220
0.0
230
1.0
 70
     8
 71
     3
 72
     9
 73
     5
 74
     0
 42
0.00000001
 43
0.00000001
 40
0.0
 40
0.0
 40
0.0
 40
0.0
 40
0.5841917497409931
 40
1.0
 40
1.0
 40
1.0
 40
1.0
 10
107.9331349730084
 20
158.6343313749759
 30
0.0
 10
107.959302936829
 20
158.316194597032
 30
0.0
 10
108.0040963866377
 20
157.771618645583
 30
0.0
 10
108.2467108041516
 20
157.4946682082488
 30
0.0
 10
108.3475918805856
 20
157.3795099314924
 30
0.0
  0
LINE
  5
1C5
330
1F
100
AcDbEntity
  8
0
  6
Continuous
 62
     7
370
    25
100
AcDbLine
 10
107.933134973
 20
158.634331375
 30
0.0
 11
107.933134973
 21
159.712186148
 31
0.0
  0
SPLINE
  5
1C6
330
1F
100
AcDbEntity
  8
0
  6
Continuous
 62
     7
370
    25
100
AcDbSpline
210
0.0
220
0.0
230
1.0
 70
     8
 71
     3
 72
     9
 73
     5
 74
     0
 42
0.00000001
 43
0.00000001
 40
0.0
 40
0.0
 40
0.0
 40
0.0
 40
0.58505538345362
 40
1.0
 40
1.0
 40
1.0
 40
1.0
 10
108.3475918805857
 20
161.860284551276
 30
0.0
 10
108.2110377465614
 20
161.4127005953461
 30
0.0
 10
107.9776339733695
 20
160.6476722431791
 30
0.0
 10
107.9461846856442
 20
159.9865254504198
 30
0.0
 10
107.9331349730084
 20
159.7121861480175
 30
0.0
  0
SPLINE
  5
1C7
330
1F
100
AcDbEntity
  8
0
  6
Continuous
 62
     7
370
    25
100
AcDbSpline
210
0.0
220
0.0
230
1.0
 70
     8
 71
     3
 72
    11
 73
     7
 74
     0
 42
0.00000001
 43
0.00000001
 40
0.0
 40
0.0
 40
0.0
 40
0.0
 40
0.2328716322111472
 40
0.4710265024313228
 40
0.7311421212560293
 40
1.0
 40
1.0
 40
1.0
 40
1.0
 10
108.3475918805857
 20
173.3826155957584
 30
0.0
 10
108.6179886152585
 20
172.5087565991755
 30
0.0
 10
109.1649166673893
 20
170.7412130694195
 30
0.0
 10
109.4661409853729
 20
167.8790384778309
 30
0.0
 10
109.2584892199632
 20
164.8610044124552
 30
0.0
 10
108.654551388183
 20
162.8714846626456
 30
0.0
 10
108.3475918805857
 20
161.860284551276
 30
0.0
  0
SPLINE
  5
1C8
330
1F
100
AcDbEntity
  8
0
  6
Continuous
 62
     7
370
    25
100
AcDbSpline
210
0.0
220
0.0
230
1.0
 70
     8
 71
     3
 72
     9
 73
     5
 74
     0
 42
0.00000001
 43
0.00000001
 40
0.0
 40
0.0
 40
0.0
 40
0.0
 40
0.5841917497409245
 40
1.0
 40
1.0
 40
1.0
 40
1.0
 10
107.9331349730084
 20
175.7708679974142
 30
0.0
 10
107.959302936829
 20
175.2962680105695
 30
0.0
 10
108.0040963866377
 20
174.4838635439622
 30
0.0
 10
108.2467108041516
 20
173.7060407363876
 30
0.0
 10
108.3475918805857
 20
173.3826155957584
 30
0.0
  0
LINE
  5
1C9
330
1F
100
AcDbEntity
  8
0
  6
Continuous
 62
     7
370
    25
100
AcDbLine
 10
107.933134973
 20
175.7708679974
 30
0.0
 11
107.933134973
 21
177.1544868843
 31
0.0
  0
SPLINE
  5
1CA
330
1F
100
AcDbEntity
  8
0
  6
Continuous
 62
     7
370
    25
100
AcDbSpline
210
0.0
220
0.0
230
1.0
 70
     8
 71
     3
 72
     9
 73
     5
 74
     0
 42
0.00000001
 43
0.00000001
 40
0.0
 40
0.0
 40
0.0
 40
0.0
 40
0.5850553834536156
 40
1.0
 40
1.0
 40
1.0
 40
1.0
 10
108.3475918805857
 20
179.134489175461
 30
0.0
 10
108.2110377465614
 20
178.7992190793025
 30
0.0
 10
107.9776339733695
 20
178.2261620565991
 30
0.0
 10
107.9461846856442
 20
177.4687647989494
 30
0.0
 10
107.9331349730084
 20
177.1544868843007
 30
0.0
  0
SPLINE
  5
1CB
330
1F
100
AcDbEntity
  8
0
  6
Continuous
 62
     7
370
    25
100
AcDbSpline
210
0.0
220
0.0
230
1.0
 70
     8
 71
     3
 72
    11
 73
     7
 74
     0
 42
0.00000001
 43
0.00000001
 40
0.0
 40
0.0
 40
0.0
 40
0.0
 40
0.2328716322111487
 40
0.4710265024313253
 40
0.731142121256031
 40
1.0
 40
1.0
 40
1.0
 40
1.0
 10
108.3475918805857
 20
187.0426096287658
 30
0.0
 10
108.6179886152585
 20
186.4428540604262
 30
0.0
 10
109.1649166673893
 20
185.2297360649608
 30
0.0
 10
109.4661409853729
 20
183.265340029012
 30
0.0
 10
109.2584892199632
 20
181.1939729741141
 30
0.0
 10
108.654551388183
 20
179.8285060590443
 30
0.0
 10
108.3475918805857
 20
179.134489175461
 30
0.0
  0
SPLINE
  5
1CC
330
1F
100
AcDbEntity
  8
0
  6
Continuous
 62
     7
370
    25
100
AcDbSpline
210
0.0
220
0.0
230
1.0
 70
     8
 71
     3
 72
     9
 73
     5
 74
     0
 42
0.00000001
 43
0.00000001
 40
0.0
 40
0.0
 40
0.0
 40
0.0
 40
0.5841917497409231
 40
1.0
 40
1.0
 40
1.0
 40
1.0
 10
107.9331349730084
 20
188.1760405869381
 30
0.0
 10
107.959302936829
 20
188.0195773780373
 30
0.0
 10
108.0040963866377
 20
187.7517488628791
 30
0.0
 10
108.2467108041516
 20
187.2508764926386
 30
0.0
 10
108.3475918805857
 20
187.0426096287658
 30
0.0
  0
LINE
  5
1CD
330
1F
100
AcDbEntity
  8
0
  6
Continuous
 62
     7
370
    25
100
AcDbLine
 10
107.933134973
 20
188.1760405869
 30
0.0
 11
107.933134973
 21
188.4818047008
 31
0.0
  0
SPLINE
  5
1CE
330
1F
100
AcDbEntity
  8
0
  6
Continuous
 62
     7
370
    25
100
AcDbSpline
210
0.0
220
0.0
230
1.0
 70
     8
 71
     3
 72
     9
 73
     5
 74
     0
 42
0.00000001
 43
0.00000001
 40
0.0
 40
0.0
 40
0.0
 40
0.0
 40
0.5850553834536242
 40
1.0
 40
1.0
 40
1.0
 40
1.0
 10
108.3475918805857
 20
188.3137085886848
 30
0.0
 10
108.2110377465614
 20
188.4260224484562
 30
0.0
 10
107.9776339733695
 20
188.6179937779197
 30
0.0
 10
107.9461846856442
 20
188.5217433130293
 30
0.0
 10
107.9331349730084
 20
188.481804700783
 30
0.0
  0
LINE
  5
1CF
330
1F
100
AcDbEntity
  8
0
  6
Continuous
 62
     7
370
    25
100
AcDbLine
 10
108.5282037115
 20
188.1045112651
 30
0.0
 11
108.3475918806
 21
188.3137085887
 31
0.0
  0
LINE
  5
1D0
330
1F
100
AcDbEntity
  8
0
  6
Continuous
 62
     7
370
    25
100
AcDbLine
 10
109.433134973
 20
155.6199957108
 30
0.0
 11
109.433134973
 21
154.8395039645
 31
0.0
  0
LINE
  5
1D1
330
1F
100
AcDbEntity
  8
0
  6
Continuous
 62
     7
370
    25
100
AcDbLine
 10
109.433134973
 20
187.2395039645
 30
0.0
 11
109.433134973
 21
155.6199957108
 31
0.0
  0
LINE
  5
1D2
330
1F
100
AcDbEntity
  8
0
  6
Continuous
 62
     7
370
    25
100
AcDbLine
 10
101.0686780654
 20
161.8602845513
 30
0.0
 11
108.3475918806
 21
161.8602845513
 31
0.0
  0
LINE
  5
1D3
330
1F
100
AcDbEntity
  8
0
  6
Continuous
 62
     7
370
    25
100
AcDbLine
 10
108.3475918806
 20
173.3826155958
 30
0.0
 11
101.0686780654
 21
173.3826155958
 31
0.0
  0
LINE
  5
1D4
330
1F
100
AcDbEntity
  8
0
  6
Continuous
 62
     7
370
    25
100
AcDbLine
 10
117.183134973
 20
160.4645039645
 30
0.0
 11
117.183134973
 21
181.6145039645
 31
0.0
  0
LINE
  5
1D5
330
1F
100
AcDbEntity
  8
0
  6
Continuous
 62
     7
370
    25
100
AcDbLine
 10
101.483134973
 20
175.7708679974
 30
0.0
 11
107.933134973
 21
175.7708679974
 31
0.0
  0
LINE
  5
1D6
330
1F
100
AcDbEntity
  8
0
  6
Continuous
 62
     7
370
    25
100
AcDbLine
 10
107.933134973
 20
177.1544868843
 30
0.0
 11
101.483134973
 21
177.1544868843
 31
0.0
  0
LINE
  5
1D7
330
1F
100
AcDbEntity
  8
0
  6
Continuous
 62
     7
370
    25
100
AcDbLine
 10
101.0686780654
 20
179.1344891755
 30
0.0
 11
108.3475918806
 21
179.1344891755
 31
0.0
  0
LINE
  5
1D8
330
1F
100
AcDbEntity
  8
0
  6
Continuous
 62
     7
370
    25
100
AcDbLine
 10
108.3475918806
 20
187.0426096288
 30
0.0
 11
101.0686780654
 21
187.0426096288
 31
0.0
  0
LINE
  5
1D9
330
1F
100
AcDbEntity
  8
0
  6
Continuous
 62
     7
370
    25
100
AcDbLine
 10
107.933134973
 20
159.712186148
 30
0.0
 11
101.483134973
 21
159.712186148
 31
0.0
  0
LINE
  5
1DA
330
1F
100
AcDbEntity
  8
0
  6
Continuous
 62
     7
370
    25
100
AcDbLine
 10
101.483134973
 20
158.634331375
 30
0.0
 11
107.933134973
 21
158.634331375
 31
0.0
  0
LINE
  5
1DB
330
1F
100
AcDbEntity
  8
0
  6
Continuous
 62
     7
370
    25
100
AcDbLine
 10
108.3475918806
 20
157.3795099315
 30
0.0
 11
101.0686780654
 21
157.3795099315
 31
0.0
  0
LINE
  5
1DC
330
1F
100
AcDbEntity
  8
0
  6
Continuous
 62
     7
370
    25
100
AcDbLine
 10
101.0686780654
 20
153.7652993403
 30
0.0
 11
108.3475918806
 21
153.7652993403
 31
0.0
  0
LINE
  5
1DD
330
1F
100
AcDbEntity
  8
0
  6
Continuous
 62
     7
370
    25
100
AcDbLine
 10
101.483134973
 20
188.1760405869
 30
0.0
 11
107.933134973
 21
188.1760405869
 31
0.0
  0
LINE
  5
1DE
330
1F
100
AcDbEntity
  8
0
  6
Continuous
 62
     7
370
    25
100
AcDbLine
 10
107.933134973
 20
188.4818047008
 30
0.0
 11
101.483134973
 21
188.4818047008
 31
0.0
  0
ARC
  5
1DF
330
1F
100
AcDbEntity
  8
0
  6
Continuous
 62
     7
370
    25
100
AcDbCircle
 10
66.233134973
 20
171.0395039645
 30
0.0
 40
15.00000000000001
100
AcDbArc
 50
42.0286500228
 51
75.5492730601
  0
ARC
  5
1E0
330
1F
100
AcDbEntity
  8
0
  6
Continuous
 62
     7
370
    25
100
AcDbCircle
 10
66.233134973
 20
171.0395039645
 30
0.0
 40
15.00000000000001
100
AcDbArc
 50
341.3144757501
 51
14.7319307186
  0
ARC
  5
1E1
330
1F
100
AcDbEntity
  8
0
  6
Continuous
 62
     7
370
    25
100
AcDbCircle
 10
66.233134973
 20
171.0395039645
 30
0.0
 40
14.99999999999999
100
AcDbArc
 50
162.0616708523
 51
195.9002393599
  0
ARC
  5
1E2
330
1F
100
AcDbEntity
  8
0
  6
Continuous
 62
     7
370
    25
100
AcDbCircle
 10
66.233134973
 20
171.0395039645
 30
0.0
 40
15.0
100
AcDbArc
 50
101.1071701246
 51
134.6709109538
  0
ARC
  5
1E3
330
1F
100
AcDbEntity
  8
0
  6
Continuous
 62
     7
370
    25
100
AcDbCircle
 10
79.6413545669
 20
188.4350148306
 30
0.0
 40
6.213875553933369
100
AcDbArc
 50
239.3038676187
 51
299.7771370676
  0
LINE
  5
1E4
330
1F
100
AcDbEntity
  8
0
  6
Continuous
 62
     7
370
    25
100
AcDbLine
 10
41.433134973
 20
239.0395039645
 30
0.0
 11
91.033134952
 21
239.0395039645
 31
0.0
  0
LWPOLYLINE
  5
1E5
330
1F
100
AcDbEntity
  8
0
  6
Continuous
 62
     7
370
    25
100
AcDbPolyline
 90
        9
 70
   128
 43
0.0
 10
76.4692650851
 20
183.0917856834
 10
75.9086656906
 20
183.7452398556
 10
75.4755461244
 20
184.5249666573
 10
75.1777625701
 20
185.4168229341
 10
75.0207164051
 20
186.4046316598
 10
75.0072562273
 20
187.470475365
 10
75.1376261855
 20
188.5950211348
 10
75.4094615509
 20
189.7578712809
 10
75.81783161
 20
190.937933327
  0
ARC
  5
1E6
330
1F
100
AcDbEntity
  8
0
  6
Continuous
 62
     7
370
    25
100
AcDbCircle
 10
46.489374924
 20
184.4299090639
 30
0.0
 40
7.748014529181554
100
AcDbArc
 50
327.7818157888
 51
13.7464277328
  0
SPLINE
  5
1E7
330
1F
100
AcDbEntity
  8
0
  6
Continuous
 62
     7
370
    25
100
AcDbSpline
210
0.0
220
0.0
230
1.0
 70
     8
 71
     3
 72
    42
 73
    38
 74
     0
 42
0.00000001
 43
0.00000001
 40
0.0
 40
0.0
 40
0.0
 40
0.0
 40
0.0624999999999998
 40
0.0624999999999998
 40
0.1249999999999997
 40
0.1249999999999997
 40
0.1874999999999996
 40
0.1874999999999996
 40
0.2499999999999995
 40
0.2499999999999995
 40
0.3749999999999996
 40
0.3749999999999996
 40
0.4062499999999997
 40
0.4062499999999997
 40
0.4374999999999998
 40
0.4374999999999998
 40
0.4999999999999999
 40
0.4999999999999999
 40
0.5312499999999999
 40
0.5312499999999999
 40
0.5625
 40
0.5625
 40
0.59375
 40
0.59375
 40
0.625
 40
0.625
 40
0.6875
 40
0.6875
 40
0.71875
 40
0.71875
 40
0.75
 40
0.75
 40
0.8125
 40
0.8125
 40
0.875
 40
0.875
 40
1.0
 40
1.0
 40
1.0
 40
1.0
 10
54.01546219843689
 20
186.2710335794666
 30
0.0
 10
54.20928599371223
 20
186.7032069950375
 30
0.0
 10
54.42266634489184
 20
187.1563161256148
 30
0.0
 10
54.88325283077639
 20
188.0700974582055
 30
0.0
 10
55.13124620125371
 20
188.5328269717315
 30
0.0
 10
55.66621854331164
 20
189.4590365690073
 30
0.0
 10
55.95317886834729
 20
189.9226290281227
 30
0.0
 10
56.57211675040897
 20
190.8430894143863
 30
0.0
 10
56.9047155428605
 20
191.3008693925223
 30
0.0
 10
57.98001450526517
 20
192.64834311267
 30
0.0
 10
58.78471176681587
 20
193.4981937498742
 30
0.0
 10
59.95676662579149
 20
194.4505053300134
 30
0.0
 10
60.19971930826865
 20
194.6353297480164
 30
0.0
 10
60.70542331667141
 20
194.9916303169283
 30
0.0
 10
60.967548673522
 20
195.1624971470069
 30
0.0
 10
61.77165448898214
 20
195.641974319283
 30
0.0
 10
62.33550915717078
 20
195.9210143318124
 30
0.0
 10
63.23315794372823
 20
196.2626171465851
 30
0.0
 10
63.54107102602596
 20
196.3635833054487
 30
0.0
 10
64.17695526881649
 20
196.5356279258802
 30
0.0
 10
64.50321232906391
 20
196.6059896982654
 30
0.0
 10
65.1613857292042
 20
196.7101931861155
 30
0.0
 10
65.49664107237702
 20
196.7444437033539
 30
0.0
 10
66.16210493491549
 20
196.7746890619186
 30
0.0
 10
66.493579726418
 20
196.7710693418964
 30
0.0
 10
67.48431165054733
 20
196.7051666041876
 30
0.0
 10
68.14552046294074
 20
196.5855480326792
 30
0.0
 10
69.095521115304
 20
196.3094071524026
 30
0.0
 10
69.40459102550446
 20
196.2017763035748
 30
0.0
 10
70.00078987724633
 20
195.9625324146701
 30
0.0
 10
70.28936571789566
 20
195.8305008518401
 30
0.0
 10
71.13006575813587
 20
195.4020221175104
 30
0.0
 10
71.65734591473823
 20
195.0734178864751
 30
0.0
 10
72.65786256610943
 20
194.3477899578041
 30
0.0
 10
73.12091731981188
 20
193.9580331449444
 30
0.0
 10
74.41477142820783
 20
192.7392037370381
 30
0.0
 10
75.15759214400497
 20
191.8567540118217
 30
0.0
 10
75.81783161004937
 20
190.9379333270394
 30
0.0
  0
SPLINE
  5
1E8
330
1F
100
AcDbEntity
  8
0
  6
Continuous
 62
     7
370
    25
100
AcDbSpline
210
0.0
220
0.0
230
1.0
 70
     8
 71
     3
 72
     8
 73
     4
 74
     0
 42
0.00000001
 43
0.00000001
 40
0.0
 40
0.0
 40
0.0
 40
0.0
 40
0.000098823642892
 40
0.000098823642892
 40
0.000098823642892
 40
0.000098823642892
 10
50.28570362377428
 20
229.3216617285723
 30
0.0
 10
50.28840942564479
 20
229.3094208578712
 30
0.0
 10
50.29109314552375
 20
229.2973451978156
 30
0.0
 10
50.29376369617655
 20
229.2854168215682
 30
0.0
  0
SPLINE
  5
1E9
330
1F
100
AcDbEntity
  8
0
  6
Continuous
 62
     7
370
    25
100
AcDbSpline
210
0.0
220
0.0
230
1.0
 70
     8
 71
     3
 72
     8
 73
     4
 74
     0
 42
0.00000001
 43
0.00000001
 40
0.0
 40
0.0
 40
0.0
 40
0.0
 40
0.0002560048126404
 40
0.0002560048126404
 40
0.0002560048126404
 40
0.0002560048126404
 10
50.26433623780599
 20
229.4126241596195
 30
0.0
 10
50.27150001764763
 20
229.3836951746687
 30
0.0
 10
50.27869418473138
 20
229.3533719723911
 30
0.0
 10
50.28570362377497
 20
229.3216617285801
 30
0.0
  0
SPLINE
  5
1EA
330
1F
100
AcDbEntity
  8
0
  6
Continuous
 62
     7
370
    25
100
AcDbSpline
210
0.0
220
0.0
230
1.0
 70
     8
 71
     3
 72
     8
 73
     4
 74
     0
 42
0.00000001
 43
0.00000001
 40
0.0
 40
0.0
 40
0.0
 40
0.0
 40
0.0002560048126397
 40
0.0002560048126397
 40
0.0002560048126397
 40
0.0002560048126397
 10
82.18056632224251
 20
229.3216617285726
 30
0.0
 10
82.18757576128594
 20
229.3533719723835
 30
0.0
 10
82.19476992836839
 20
229.3836951746768
 30
0.0
 10
82.20193370821012
 20
229.4126241596274
 30
0.0
  0
SPLINE
  5
1EB
330
1F
100
AcDbEntity
  8
0
  6
Continuous
 62
     7
370
    25
100
AcDbSpline
210
0.0
220
0.0
230
1.0
 70
     8
 71
     3
 72
     8
 73
     4
 74
     0
 42
0.00000001
 43
0.00000001
 40
0.0000000000000011
 40
0.0000000000000011
 40
0.0000000000000011
 40
0.0000000000000011
 40
0.0000988236428765
 40
0.0000988236428765
 40
0.0000988236428765
 40
0.0000988236428765
 10
82.17250624984158
 20
229.2854168215714
 30
0.0
 10
82.17517680049394
 20
229.297345197817
 30
0.0
 10
82.17786052037243
 20
229.3094208578734
 30
0.0
 10
82.18056632224253
 20
229.3216617285726
 30
0.0
  0
LINE
  5
1EC
330
1F
100
AcDbEntity
  8
0
  6
Continuous
 62
     7
370
    25
100
AcDbLine
 10
82.1725062498
 20
229.2854168216
 30
0.0
 11
75.4079481874
 21
229.2854168216
 31
0.0
  0
SPLINE
  5
1ED
330
1F
100
AcDbEntity
  8
0
  6
Continuous
 62
     7
370
    25
100
AcDbSpline
210
0.0
220
0.0
230
1.0
 70
     8
 71
     3
 72
     8
 73
     4
 74
     0
 42
0.00000001
 43
0.00000001
 40
0.0
 40
0.0
 40
0.0
 40
0.0
 40
0.000098823642892
 40
0.000098823642892
 40
0.000098823642892
 40
0.000098823642892
 10
75.33266497911575
 20
229.3216617285723
 30
0.0
 10
75.35769336871135
 20
229.3094208578712
 30
0.0
 10
75.38279234729647
 20
229.2973451978156
 30
0.0
 10
75.4079481874434
 20
229.2854168215682
 30
0.0
  0
SPLINE
  5
1EE
330
1F
100
AcDbEntity
  8
0
  6
Continuous
 62
     7
370
    25
100
AcDbSpline
210
0.0
220
0.0
230
1.0
 70
     8
 71
     3
 72
     8
 73
     4
 74
     0
 42
0.00000001
 43
0.00000001
 40
0.0
 40
0.0
 40
0.0
 40
0.0
 40
0.0002560048126404
 40
0.0002560048126404
 40
0.0002560048126404
 40
0.0002560048126404
 10
75.13693694450792
 20
229.4126241596195
 30
0.0
 10
75.20260376750413
 20
229.3836951746687
 30
0.0
 10
75.26782838737111
 20
229.3533719723911
 30
0.0
 10
75.33266497911781
 20
229.3216617285801
 30
0.0
  0
SPLINE
  5
1EF
330
1F
100
AcDbEntity
  8
0
  6
Continuous
 62
     7
370
    25
100
AcDbSpline
210
0.0
220
0.0
230
1.0
 70
     8
 71
     3
 72
    14
 73
    10
 74
     0
 42
0.00000001
 43
0.00000001
 40
0.0
 40
0.0
 40
0.0
 40
0.0
 40
0.25
 40
0.25
 40
0.5
 40
0.5
 40
0.75
 40
0.75
 40
1.0
 40
1.0
 40
1.0
 40
1.0
 10
73.29813173671121
 20
229.4126241596195
 30
0.0
 10
73.45384705841522
 20
229.4744757168311
 30
0.0
 10
73.61174658915415
 20
229.5166858565409
 30
0.0
 10
73.92756652717695
 20
229.5718380043227
 30
0.0
 10
74.08554549289684
 20
229.5849122481345
 30
0.0
 10
74.40040266173644
 20
229.5850760138966
 30
0.0
 10
74.55347344703608
 20
229.5721660236221
 30
0.0
 10
74.85126223634606
 20
229.517089536913
 30
0.0
 10
74.99671909158802
 20
229.4743959946492
 30
0.0
 10
75.13693694450829
 20
229.4126241596209
 30
0.0
  0
SPLINE
  5
1F0
330
1F
100
AcDbEntity
  8
0
  6
Continuous
 62
     7
370
    25
100
AcDbSpline
210
0.0
220
0.0
230
1.0
 70
     8
 71
     3
 72
     8
 73
     4
 74
     0
 42
0.00000001
 43
0.00000001
 40
0.0
 40
0.0
 40
0.0
 40
0.0
 40
0.0002560048126397
 40
0.0002560048126397
 40
0.0002560048126397
 40
0.0002560048126397
 10
73.08103631613565
 20
229.3216617285726
 30
0.0
 10
73.15288234692565
 20
229.3533719723835
 30
0.0
 10
73.22530113387045
 20
229.3836951746768
 30
0.0
 10
73.29813173670816
 20
229.4126241596274
 30
0.0
  0
SPLINE
  5
1F1
330
1F
100
AcDbEntity
  8
0
  6
Continuous
 62
     7
370
    25
100
AcDbSpline
210
0.0
220
0.0
230
1.0
 70
     8
 71
     3
 72
     8
 73
     4
 74
     0
 42
0.00000001
 43
0.00000001
 40
0.0000000000000011
 40
0.0000000000000011
 40
0.0000000000000011
 40
0.0000000000000011
 40
0.0000988236428765
 40
0.0000988236428765
 40
0.0000988236428765
 40
0.0000988236428765
 10
72.99769303541973
 20
229.2854168215713
 30
0.0
 10
73.02551942621507
 20
229.297345197817
 30
0.0
 10
73.05330212467385
 20
229.3094208578734
 30
0.0
 10
73.08103631613564
 20
229.3216617285726
 30
0.0
  0
LINE
  5
1F2
330
1F
100
AcDbEntity
  8
0
  6
Continuous
 62
     7
370
    25
100
AcDbLine
 10
72.9976930354
 20
229.2854168216
 30
0.0
 11
59.4685769106
 21
229.2854168216
 31
0.0
  0
SPLINE
  5
1F3
330
1F
100
AcDbEntity
  8
0
  6
Continuous
 62
     7
370
    25
100
AcDbSpline
210
0.0
220
0.0
230
1.0
 70
     8
 71
     3
 72
     8
 73
     4
 74
     0
 42
0.00000001
 43
0.00000001
 40
0.0
 40
0.0
 40
0.0
 40
0.0
 40
0.0000988236428927
 40
0.0000988236428927
 40
0.0000988236428927
 40
0.0000988236428927
 10
59.38523362988107
 20
229.3216617285726
 30
0.0
 10
59.41296782134739
 20
229.3094208578714
 30
0.0
 10
59.44075051981167
 20
229.2973451978157
 30
0.0
 10
59.46857691061157
 20
229.2854168215682
 30
0.0
  0
SPLINE
  5
1F4
330
1F
100
AcDbEntity
  8
0
  6
Continuous
 62
     7
370
    25
100
AcDbSpline
210
0.0
220
0.0
230
1.0
 70
     8
 71
     3
 72
     8
 73
     4
 74
     0
 42
0.00000001
 43
0.00000001
 40
0.0
 40
0.0
 40
0.0
 40
0.0
 40
0.0002560048126397
 40
0.0002560048126397
 40
0.0002560048126397
 40
0.0002560048126397
 10
59.16813820930552
 20
229.4126241596195
 30
0.0
 10
59.24096881214317
 20
229.3836951746688
 30
0.0
 10
59.31338759909372
 20
229.3533719723912
 30
0.0
 10
59.38523362988381
 20
229.3216617285804
 30
0.0
  0
SPLINE
  5
1F5
330
1F
100
AcDbEntity
  8
0
  6
Continuous
 62
     7
370
    25
100
AcDbSpline
210
0.0
220
0.0
230
1.0
 70
     8
 71
     3
 72
    14
 73
    10
 74
     0
 42
0.00000001
 43
0.00000001
 40
0.0
 40
0.0
 40
0.0
 40
0.0
 40
0.25
 40
0.25
 40
0.5
 40
0.5
 40
0.75
 40
0.75
 40
1.0
 40
1.0
 40
1.0
 40
1.0
 10
57.32933300150881
 20
229.4126241596195
 30
0.0
 10
57.46973181834824
 20
229.4744757168311
 30
0.0
 10
57.61358108084902
 20
229.5166858565409
 30
0.0
 10
57.91027694330081
 20
229.5718380043227
 30
0.0
 10
58.06301296066064
 20
229.5849122481345
 30
0.0
 10
58.37780751970909
 20
229.5850760138966
 30
0.0
 10
58.536061671917
 20
229.5721660236221
 30
0.0
 10
58.85296509000946
 20
229.517089536913
 30
0.0
 10
59.01262359338781
 20
229.4743959946492
 30
0.0
 10
59.16813820930589
 20
229.4126241596209
 30
0.0
  0
SPLINE
  5
1F6
330
1F
100
AcDbEntity
  8
0
  6
Continuous
 62
     7
370
    25
100
AcDbSpline
210
0.0
220
0.0
230
1.0
 70
     8
 71
     3
 72
     8
 73
     4
 74
     0
 42
0.00000001
 43
0.00000001
 40
0.0
 40
0.0
 40
0.0
 40
0.0
 40
0.0002560048126397
 40
0.0002560048126397
 40
0.0002560048126397
 40
0.0002560048126397
 10
57.1336049669015
 20
229.3216617285726
 30
0.0
 10
57.19844155864808
 20
229.3533719723835
 30
0.0
 10
57.26366617851045
 20
229.3836951746768
 30
0.0
 10
57.32933300150641
 20
229.4126241596274
 30
0.0
  0
SPLINE
  5
1F7
330
1F
100
AcDbEntity
  8
0
  6
Continuous
 62
     7
370
    25
100
AcDbSpline
210
0.0
220
0.0
230
1.0
 70
     8
 71
     3
 72
     8
 73
     4
 74
     0
 42
0.00000001
 43
0.00000001
 40
0.0000000000000011
 40
0.0000000000000011
 40
0.0000000000000011
 40
0.0000000000000011
 40
0.0000988236428765
 40
0.0000988236428765
 40
0.0000988236428765
 40
0.0000988236428765
 10
57.05832175858652
 20
229.2854168215713
 30
0.0
 10
57.08347759872949
 20
229.297345197817
 30
0.0
 10
57.1085765773098
 20
229.3094208578734
 30
0.0
 10
57.13360496690149
 20
229.3216617285726
 30
0.0
  0
LINE
  5
1F8
330
1F
100
AcDbEntity
  8
0
  6
Continuous
 62
     7
370
    25
100
AcDbLine
 10
57.0583217586
 20
229.2854168216
 30
0.0
 11
50.2937636962
 21
229.2854168216
 31
0.0
  0
LINE
  5
1F9
330
1F
100
AcDbEntity
  8
0
  6
Continuous
 62
     7
370
    25
100
AcDbLine
 10
95.233134973
 20
181.5307441313
 30
0.0
 11
95.233134973
 21
155.6469673679
 31
0.0
  0
LINE
  5
1FA
330
1F
100
AcDbEntity
  8
0
  6
Continuous
 62
     7
370
    25
100
AcDbLine
 10
95.233134973
 20
186.4320405611
 30
0.0
 11
95.233134973
 21
182.8435906265
 31
0.0
  0
ELLIPSE
  5
1FB
330
1F
100
AcDbEntity
  8
0
  6
Continuous
 62
     7
370
    25
100
AcDbEllipse
 10
103.4738913618
 20
171.1315372511
 30
0.0
 11
-5.596045292391636
 21
15.00796136777757
 31
0.0
210
0.0
220
0.0
230
1.0
 40
0.4514218124
 41
0.525879432661003
 42
0.6494913437152775
  0
SPLINE
  5
1FC
330
1F
100
AcDbEntity
  8
0
  6
Continuous
 62
     7
370
    25
100
AcDbSpline
210
0.0
220
0.0
230
1.0
 70
     8
 71
     3
 72
     8
 73
     4
 74
     0
 42
0.00000001
 43
0.00000001
 40
0.0000002008695006
 40
0.0000002008695006
 40
0.0000002008695006
 40
0.0000002008695006
 40
0.0003147847660132
 40
0.0003147847660132
 40
0.0003147847660132
 40
0.0003147847660132
 10
95.23313497300836
 20
181.5307441313196
 30
0.0
 10
95.12872759039934
 20
181.5391846872114
 30
0.0
 10
95.02431657587525
 20
181.547591612958
 30
0.0
 10
94.91990206080452
 20
181.5559657350515
 30
0.0
  0
LINE
  5
1FD
330
1F
100
AcDbEntity
  8
0
  6
Continuous
 62
     7
370
    25
100
AcDbLine
 10
89.6152341454
 20
186.549206676
 30
0.0
 11
89.6100536995
 21
186.5464618559
 31
0.0
  0
SPLINE
  5
1FE
330
1F
100
AcDbEntity
  8
0
  6
Continuous
 62
     7
370
    25
100
AcDbSpline
210
0.0
220
0.0
230
1.0
 70
     8
 71
     3
 72
    16
 73
    12
 74
     0
 42
0.00000001
 43
0.00000001
 40
0.0
 40
0.0
 40
0.0
 40
0.0
 40
0.25
 40
0.25
 40
0.5
 40
0.5
 40
0.75
 40
0.75
 40
0.875
 40
0.875
 40
1.0
 40
1.0
 40
1.0
 40
1.0
 10
73.50895107843598
 20
226.7895039645002
 30
0.0
 10
72.87659517773129
 20
226.7895039645002
 30
0.0
 10
72.25550949330929
 20
226.8574991332831
 30
0.0
 10
71.02558445582282
 20
227.0673737111099
 30
0.0
 10
70.41697839039328
 20
227.2106605849011
 30
0.0
 10
69.20716823971847
 20
227.5418917622374
 30
0.0
 10
68.60787109309052
 20
227.7296071391567
 30
0.0
 10
67.71482508766344
 20
228.0257995901796
 30
0.0
 10
67.41797282530938
 20
228.127059681987
 30
0.0
 10
66.82508231185693
 20
228.3320611965104
 30
0.0
 10
66.52750522282125
 20
228.4363456428322
 30
0.0
 10
66.23313497300836
 20
228.5395039645002
 30
0.0
  0
SPLINE
  5
1FF
330
1F
100
AcDbEntity
  8
0
  6
Continuous
 62
     7
370
    25
100
AcDbSpline
210
0.0
220
0.0
230
1.0
 70
     8
 71
     3
 72
    14
 73
    10
 74
     0
 42
0.00000001
 43
0.00000001
 40
0.0
 40
0.0
 40
0.0
 40
0.0
 40
0.25
 40
0.25
 40
0.5
 40
0.5
 40
0.75
 40
0.75
 40
1.0
 40
1.0
 40
1.0
 40
1.0
 10
73.40740287683866
 20
228.3781403542652
 30
0.0
 10
72.82209900693172
 20
228.316086722078
 30
0.0
 10
72.23422534154675
 20
228.2975622588048
 30
0.0
 10
71.05015160824563
 20
228.292619542603
 30
0.0
 10
70.45349275510499
 20
228.3080811464
 30
0.0
 10
69.25359666573839
 20
228.3557455520269
 30
0.0
 10
68.65203415868373
 20
228.3881842923488
 30
0.0
 10
67.44487595965822
 20
228.4601605016194
 30
0.0
 10
66.83710509589383
 20
228.4999760454519
 30
0.0
 10
66.23313497300836
 20
228.5395039645002
 30
0.0
  0
SPLINE
  5
200
330
1F
100
AcDbEntity
  8
0
  6
Continuous
 62
     7
370
    25
100
AcDbSpline
210
0.0
220
0.0
230
1.0
 70
     8
 71
     3
 72
     8
 73
     4
 74
     0
 42
0.00000001
 43
0.00000001
 40
0.0
 40
0.0
 40
0.0
 40
0.0
 40
0.0001055072942668
 40
0.0001055072942668
 40
0.0001055072942668
 40
0.0001055072942668
 10
73.50895107843598
 20
228.3893446166813
 30
0.0
 10
73.47511281160607
 20
228.3854607936669
 30
0.0
 10
73.44126297300805
 20
228.3817301852253
 30
0.0
 10
73.4074028768387
 20
228.3781403542647
 30
0.0
  0
LINE
  5
201
330
1F
100
AcDbEntity
  8
0
  6
Continuous
 62
     7
370
    25
100
AcDbLine
 10
73.5089510784
 20
228.3893446167
 30
0.0
 11
73.5089510784
 21
226.7895039645
 31
0.0
  0
ARC
  5
202
330
1F
100
AcDbEntity
  8
0
  6
Continuous
 62
     7
370
    25
100
AcDbCircle
 10
74.5872129403
 20
229.4570685536
 30
0.0
 40
1.598761347182455
100
AcDbArc
 50
186.1634674732
 51
222.4427022402
  0
SPLINE
  5
203
330
1F
100
AcDbEntity
  8
0
  6
Continuous
 62
     7
370
    25
100
AcDbSpline
210
0.0
220
0.0
230
1.0
 70
     8
 71
     3
 72
    12
 73
     8
 74
     0
 42
0.00000001
 43
0.00000001
 40
0.0
 40
0.0
 40
0.0
 40
0.0
 40
0.2499999999999999
 40
0.2499999999999999
 40
0.4999999999999998
 40
0.4999999999999998
 40
1.0
 40
1.0
 40
1.0
 40
1.0
 10
72.9976930354193
 20
229.2854168215713
 30
0.0
 10
72.47553491049023
 20
229.1734997098686
 30
0.0
 10
71.93690787290237
 20
229.0941195643234
 30
0.0
 10
70.83386167159394
 20
228.9523717272079
 30
0.0
 10
70.27400665216464
 20
228.8926969302666
 30
0.0
 10
68.5715439671187
 20
228.7267586099646
 30
0.0
 10
67.4009140672894
 20
228.633483635328
 30
0.0
 10
66.23313497300836
 20
228.5395039645002
 30
0.0
  0
LINE
  5
204
330
1F
100
AcDbEntity
  8
0
  6
Continuous
 62
     7
370
    25
100
AcDbLine
 10
58.9573188676
 20
226.7895039645
 30
0.0
 11
58.9573188676
 21
228.3893446167
 31
0.0
  0
SPLINE
  5
205
330
1F
100
AcDbEntity
  8
0
  6
Continuous
 62
     7
370
    25
100
AcDbSpline
210
0.0
220
0.0
230
1.0
 70
     8
 71
     3
 72
     8
 73
     4
 74
     0
 42
0.00000001
 43
0.00000001
 40
0.0
 40
0.0
 40
0.0
 40
0.0
 40
0.0001055072942852
 40
0.0001055072942852
 40
0.0001055072942852
 40
0.0001055072942852
 10
59.05886706919576
 20
228.3781403542633
 30
0.0
 10
59.0250069730205
 20
228.3817301852244
 30
0.0
 10
58.99115713441655
 20
228.3854607936663
 30
0.0
 10
58.95731886758075
 20
228.3893446166813
 30
0.0
  0
SPLINE
  5
206
330
1F
100
AcDbEntity
  8
0
  6
Continuous
 62
     7
370
    25
100
AcDbSpline
210
0.0
220
0.0
230
1.0
 70
     8
 71
     3
 72
    14
 73
    10
 74
     0
 42
0.00000001
 43
0.00000001
 40
0.0
 40
0.0
 40
0.0
 40
0.0
 40
0.2500000000000001
 40
0.2500000000000001
 40
0.5000000000000002
 40
0.5000000000000002
 40
0.7500000000000001
 40
0.7500000000000001
 40
1.0
 40
1.0
 40
1.0
 40
1.0
 10
59.05886706919576
 20
228.3781403542633
 30
0.0
 10
59.64417093912125
 20
228.3160867220751
 30
0.0
 10
60.23204460452499
 20
228.297562258803
 30
0.0
 10
61.41611833786421
 20
228.2926195426042
 30
0.0
 10
62.01277719102448
 20
228.3080811464033
 30
0.0
 10
63.21267328042951
 20
228.3557455520342
 30
0.0
 10
63.81423578750351
 20
228.3881842923582
 30
0.0
 10
65.02139398656803
 20
228.4601605016326
 30
0.0
 10
65.62916485010237
 20
228.4999760454641
 30
0.0
 10
66.23313497300836
 20
228.5395039645002
 30
0.0
  0
SPLINE
  5
207
330
1F
100
AcDbEntity
  8
0
  6
Continuous
 62
     7
370
    25
100
AcDbSpline
210
0.0
220
0.0
230
1.0
 70
     8
 71
     3
 72
    16
 73
    12
 74
     0
 42
0.00000001
 43
0.00000001
 40
0.0
 40
0.0
 40
0.0
 40
0.0
 40
0.2499999999999999
 40
0.2499999999999999
 40
0.4999999999999999
 40
0.4999999999999999
 40
0.75
 40
0.75
 40
0.875
 40
0.875
 40
1.0
 40
1.0
 40
1.0
 40
1.0
 10
58.95731886758075
 20
226.7895039645002
 30
0.0
 10
59.58967476828544
 20
226.7895039645003
 30
0.0
 10
60.21076045270744
 20
226.8574991332831
 30
0.0
 10
61.44068549019391
 20
227.0673737111099
 30
0.0
 10
62.04929155562345
 20
227.2106605849011
 30
0.0
 10
63.25910170629827
 20
227.5418917622374
 30
0.0
 10
63.85839885292621
 20
227.7296071391567
 30
0.0
 10
64.75144485835328
 20
228.0257995901796
 30
0.0
 10
65.04829712070735
 20
228.127059681987
 30
0.0
 10
65.64118763415979
 20
228.3320611965104
 30
0.0
 10
65.9387647231954
 20
228.4363456428324
 30
0.0
 10
66.23313497300836
 20
228.5395039645002
 30
0.0
  0
ARC
  5
208
330
1F
100
AcDbEntity
  8
0
  6
Continuous
 62
     7
370
    25
100
AcDbCircle
 10
57.8790570057
 20
229.4570685536
 30
0.0
 40
1.598761347194886
100
AcDbArc
 50
317.5572977601
 51
353.8365325269
  0
SPLINE
  5
209
330
1F
100
AcDbEntity
  8
0
  6
Continuous
 62
     7
370
    25
100
AcDbSpline
210
0.0
220
0.0
230
1.0
 70
     8
 71
     3
 72
    18
 73
    14
 74
     0
 42
0.00000001
 43
0.00000001
 40
0.0
 40
0.0
 40
0.0
 40
0.0
 40
0.2500000000000001
 40
0.2500000000000001
 40
0.5000000000000001
 40
0.5000000000000001
 40
0.7500000000000002
 40
0.7500000000000002
 40
0.8750000000000003
 40
0.8750000000000003
 40
0.9375000000000002
 40
0.9375000000000002
 40
1.0
 40
1.0
 40
1.0
 40
1.0
 10
59.46857691061158
 20
229.2854168215683
 30
0.0
 10
59.99300191211973
 20
229.1730138373553
 30
0.0
 10
60.53030370759298
 20
229.0940488111264
 30
0.0
 10
61.62501704369537
 20
228.9532715860468
 30
0.0
 10
62.18266147316699
 20
228.8936978707368
 30
0.0
 10
63.31727727690592
 20
228.7829783476783
 30
0.0
 10
63.8966398844146
 20
228.7319457812028
 30
0.0
 10
64.77007695534121
 20
228.6583281474377
 30
0.0
 10
65.06187839629608
 20
228.6343045672544
 30
0.0
 10
65.50052716076624
 20
228.5985969087498
 30
0.0
 10
65.64690132452328
 20
228.5867497253439
 30
0.0
 10
65.93996075463764
 20
228.5630977126476
 30
0.0
 10
66.08807469437902
 20
228.5511780173417
 30
0.0
 10
66.23313497300836
 20
228.5395039645002
 30
0.0
  0
ARC
  5
20A
330
1F
100
AcDbEntity
  8
0
  6
Continuous
 62
     7
370
    25
100
AcDbCircle
 10
90.1765378166
 20
196.531015069
 30
0.0
 40
15.40957518232622
100
AcDbArc
 50
201.2821805457
 51
241.0914009813
  0
LINE
  5
20B
330
1F
100
AcDbEntity
  8
0
  6
Continuous
 62
     7
370
    25
100
AcDbLine
 10
73.7386884725
 20
226.7895039645
 30
0.0
 11
73.5089510784
 21
226.7895039645
 31
0.0
  0
SPLINE
  5
20C
330
1F
100
AcDbEntity
  8
0
  6
Continuous
 62
     7
370
    25
100
AcDbSpline
210
0.0
220
0.0
230
1.0
 70
     8
 71
     3
 72
     8
 73
     4
 74
     0
 42
0.00000001
 43
0.00000001
 40
0.0
 40
0.0
 40
0.0
 40
0.0
 40
0.0002416894103822
 40
0.0002416894103822
 40
0.0002416894103822
 40
0.0002416894103822
 10
73.7386884724735
 20
228.418287208378
 30
0.0
 10
73.66212094277383
 20
228.40912404753
 30
0.0
 10
73.5855303864483
 20
228.3994848348161
 30
0.0
 10
73.50895107843594
 20
228.3893446166815
 30
0.0
  0
LINE
  5
20D
330
1F
100
AcDbEntity
  8
0
  6
Continuous
 62
     7
370
    25
100
AcDbLine
 10
73.7386884725
 20
226.7895039645
 30
0.0
 11
73.7386884725
 21
228.4182872084
 31
0.0
  0
LINE
  5
20E
330
1F
100
AcDbEntity
  8
0
  6
Continuous
 62
     7
370
    25
100
AcDbLine
 10
76.3367646838
 20
226.7895039645
 30
0.0
 11
73.7386884725
 21
226.7895039645
 31
0.0
  0
SPLINE
  5
20F
330
1F
100
AcDbEntity
  8
0
  6
Continuous
 62
     7
370
    25
100
AcDbSpline
210
0.0
220
0.0
230
1.0
 70
     8
 71
     3
 72
    10
 73
     6
 74
     0
 42
0.00000001
 43
0.00000001
 40
0.0
 40
0.0
 40
0.0
 40
0.0
 40
0.5
 40
0.5
 40
1.0
 40
1.0
 40
1.0
 40
1.0
 10
75.37545290248339
 20
228.418287208378
 30
0.0
 10
75.1334340833117
 20
228.4607112340642
 30
0.0
 10
74.87860205260647
 20
228.4731323186779
 30
0.0
 10
74.3261589777573
 20
228.4731323186779
 30
0.0
 10
74.03571203191746
 20
228.4607112340645
 30
0.0
 10
73.73868847247329
 20
228.4182872083784
 30
0.0
  0
ARC
  5
210
330
1F
100
AcDbEntity
  8
0
  6
Continuous
 62
     7
370
    25
100
AcDbCircle
 10
74.5746667346
 20
226.8475854066
 30
0.0
 40
1.763054915954227
100
AcDbArc
 50
358.1121270215
 51
62.9862857032
  0
LINE
  5
211
330
1F
100
AcDbEntity
  8
0
  6
Continuous
 62
     7
370
    25
100
AcDbLine
 10
76.3367646838
 20
226.7895039645
 30
0.0
 11
76.3367646838
 21
216.0395039645
 31
0.0
  0
LINE
  5
212
330
1F
100
AcDbEntity
  8
0
  6
Continuous
 62
     7
370
    25
100
AcDbLine
 10
73.7386884725
 20
216.0395039645
 30
0.0
 11
76.3367646838
 21
216.0395039645
 31
0.0
  0
LINE
  5
213
330
1F
100
AcDbEntity
  8
0
  6
Continuous
 62
     7
370
    25
100
AcDbLine
 10
73.7386884725
 20
216.0395039645
 30
0.0
 11
73.7386884725
 21
226.7895039645
 31
0.0
  0
LINE
  5
214
330
1F
100
AcDbEntity
  8
0
  6
Continuous
 62
     7
370
    25
100
AcDbLine
 10
74.8212202272
 20
214.2895039645
 30
0.0
 11
73.7386884725
 21
214.2895039645
 31
0.0
  0
LINE
  5
215
330
1F
100
AcDbEntity
  8
0
  6
Continuous
 62
     7
370
    25
100
AcDbLine
 10
73.7386884725
 20
214.2895039645
 30
0.0
 11
73.7386884725
 21
216.0395039645
 31
0.0
  0
ARC
  5
216
330
1F
100
AcDbEntity
  8
0
  6
Continuous
 62
     7
370
    25
100
AcDbCircle
 10
74.6949248558
 20
215.9301289645
 30
0.0
 40
1.645478930724527
100
AcDbArc
 50
274.4019496523
 51
3.8112610495
  0
LINE
  5
217
330
1F
100
AcDbEntity
  8
0
  6
Continuous
 62
     7
370
    25
100
AcDbLine
 10
58.9573188676
 20
226.7895039645
 30
0.0
 11
58.7275814735
 21
226.7895039645
 31
0.0
  0
LINE
  5
218
330
1F
100
AcDbEntity
  8
0
  6
Continuous
 62
     7
370
    25
100
AcDbLine
 10
58.7275814735
 20
226.7895039645
 30
0.0
 11
58.7275814735
 21
228.4182872084
 31
0.0
  0
SPLINE
  5
219
330
1F
100
AcDbEntity
  8
0
  6
Continuous
 62
     7
370
    25
100
AcDbSpline
210
0.0
220
0.0
230
1.0
 70
     8
 71
     3
 72
     8
 73
     4
 74
     0
 42
0.00000001
 43
0.00000001
 40
0.0
 40
0.0
 40
0.0
 40
0.0
 40
0.0002416894103822
 40
0.0002416894103822
 40
0.0002416894103822
 40
0.0002416894103822
 10
58.95731886758075
 20
228.3893446166813
 30
0.0
 10
58.88073955956838
 20
228.3994848348159
 30
0.0
 10
58.80414900324293
 20
228.4091240475302
 30
0.0
 10
58.72758147354326
 20
228.4182872083782
 30
0.0
  0
LINE
  5
21A
330
1F
100
AcDbEntity
  8
0
  6
Continuous
 62
     7
370
    25
100
AcDbLine
 10
58.7275814735
 20
226.7895039645
 30
0.0
 11
56.1295052622
 21
226.7895039645
 31
0.0
  0
ARC
  5
21B
330
1F
100
AcDbEntity
  8
0
  6
Continuous
 62
     7
370
    25
100
AcDbCircle
 10
57.8916032114
 20
226.8475854066
 30
0.0
 40
1.763054915954317
100
AcDbArc
 50
117.0137142968
 51
181.8878729785
  0
SPLINE
  5
21C
330
1F
100
AcDbEntity
  8
0
  6
Continuous
 62
     7
370
    25
100
AcDbSpline
210
0.0
220
0.0
230
1.0
 70
     8
 71
     3
 72
    10
 73
     6
 74
     0
 42
0.00000001
 43
0.00000001
 40
0.0
 40
0.0
 40
0.0
 40
0.0
 40
0.5
 40
0.5
 40
1.0
 40
1.0
 40
1.0
 40
1.0
 10
58.72758147354322
 20
228.418287208378
 30
0.0
 10
58.43055791409907
 20
228.4607112340642
 30
0.0
 10
58.14011096825944
 20
228.4731323186779
 30
0.0
 10
57.58766789341028
 20
228.4731323186779
 30
0.0
 10
57.33283586270521
 20
228.4607112340645
 30
0.0
 10
57.09081704353356
 20
228.4182872083784
 30
0.0
  0
LINE
  5
21D
330
1F
100
AcDbEntity
  8
0
  6
Continuous
 62
     7
370
    25
100
AcDbLine
 10
56.1295052622
 20
216.0395039645
 30
0.0
 11
58.7275814735
 21
216.0395039645
 31
0.0
  0
LINE
  5
21E
330
1F
100
AcDbEntity
  8
0
  6
Continuous
 62
     7
370
    25
100
AcDbLine
 10
58.7275814735
 20
216.0395039645
 30
0.0
 11
58.7275814735
 21
214.2895039645
 31
0.0
  0
LINE
  5
21F
330
1F
100
AcDbEntity
  8
0
  6
Continuous
 62
     7
370
    25
100
AcDbLine
 10
58.7275814735
 20
214.2895039645
 30
0.0
 11
57.6450497188
 21
214.2895039645
 31
0.0
  0
ARC
  5
220
330
1F
100
AcDbEntity
  8
0
  6
Continuous
 62
     7
370
    25
100
AcDbCircle
 10
57.7713450902
 20
215.9301289645
 30
0.0
 40
1.645478930724531
100
AcDbArc
 50
176.1887389505
 51
265.5980503477
  0
LINE
  5
221
330
1F
100
AcDbEntity
  8
0
  6
Continuous
 62
     7
370
    25
100
AcDbLine
 10
58.7275814735
 20
216.0395039645
 30
0.0
 11
73.7386884725
 21
216.0395039645
 31
0.0
  0
LINE
  5
222
330
1F
100
AcDbEntity
  8
0
  6
Continuous
 62
     7
370
    25
100
AcDbLine
 10
58.7275814735
 20
226.7895039645
 30
0.0
 11
58.7275814735
 21
216.0395039645
 31
0.0
  0
LINE
  5
223
330
1F
100
AcDbEntity
  8
0
  6
Continuous
 62
     7
370
    25
100
AcDbLine
 10
56.1295052622
 20
216.0395039645
 30
0.0
 11
56.1295052622
 21
226.7895039645
 31
0.0
  0
LINE
  5
224
330
1F
100
AcDbEntity
  8
0
  6
Continuous
 62
     7
370
    25
100
AcDbLine
 10
73.7386884725
 20
214.2895039645
 30
0.0
 11
70.8431673589
 21
214.2895039645
 31
0.0
  0
SPLINE
  5
225
330
1F
100
AcDbEntity
  8
0
  6
Continuous
 62
     7
370
    25
100
AcDbSpline
210
0.0
220
0.0
230
1.0
 70
     8
 71
     3
 72
    14
 73
    10
 74
     0
 42
0.00000001
 43
0.00000001
 40
0.0
 40
0.0
 40
0.0
 40
0.0
 40
0.25
 40
0.25
 40
0.5
 40
0.5
 40
0.75
 40
0.75
 40
1.0
 40
1.0
 40
1.0
 40
1.0
 10
61.62310258708357
 20
214.2895039645
 30
0.0
 10
62.38268082018546
 20
214.2895039645
 30
0.0
 10
63.14708368877961
 20
214.3089585962323
 30
0.0
 10
64.68565520305583
 20
214.3402880822287
 30
0.0
 10
65.46096318411914
 20
214.3522133982773
 30
0.0
 10
67.0110940783068
 20
214.3521606406456
 30
0.0
 10
67.78415076156769
 20
214.340220761233
 30
0.0
 10
69.3198838842175
 20
214.3089396957925
 30
0.0
 10
70.08358541776244
 20
214.2895039644935
 30
0.0
 10
70.84316735893313
 20
214.2895039644935
 30
0.0
  0
LINE
  5
226
330
1F
100
AcDbEntity
  8
0
  6
Continuous
 62
     7
370
    25
100
AcDbLine
 10
61.6231025871
 20
214.2895039645
 30
0.0
 11
58.7275814735
 21
214.2895039645
 31
0.0
  0
SPLINE
  5
227
330
1F
100
AcDbEntity
  8
0
  6
Continuous
 62
     7
370
    25
100
AcDbSpline
210
0.0
220
0.0
230
1.0
 70
     8
 71
     3
 72
    26
 73
    22
 74
     0
 42
0.00000001
 43
0.00000001
 40
0.0
 40
0.0
 40
0.0
 40
0.0
 40
0.0164500299912593
 40
0.0742462163199685
 40
0.1327423880177306
 40
0.1909816806447822
 40
0.2480461079420347
 40
0.3053606751456352
 40
0.3637113340690808
 40
0.4221552404295451
 40
0.4797405771634524
 40
0.5366131946726088
 40
0.5946927023357595
 40
0.6532143755230008
 40
0.7112188823310853
 40
0.7680468008763588
 40
0.8257330002977563
 40
0.8842045812241769
 40
0.9425070556221264
 40
0.999702199573512
 40
1.0
 40
1.0
 40
1.0
 40
1.0
 10
99.25794964609346
 20
156.9026071204512
 30
0.0
 10
99.25403413550669
 20
156.8962037194276
 30
0.0
 10
99.23636171508046
 20
156.8673023558537
 30
0.0
 10
99.20318920110996
 20
157.2744964925715
 30
0.0
 10
99.15877108287992
 20
158.1328884084727
 30
0.0
 10
99.11460794060788
 20
159.4436938028052
 30
0.0
 10
99.07355290335698
 20
161.107934726105
 30
0.0
 10
99.03174314715964
 20
163.0918735054618
 30
0.0
 10
98.98744015138614
 20
165.3493947317862
 30
0.0
 10
98.94303877164532
 20
167.797364050561
 30
0.0
 10
98.90044332687704
 20
170.3288416591009
 30
0.0
 10
98.85996897339024
 20
172.87715567023
 30
0.0
 10
98.81611261140175
 20
175.3809950212427
 30
0.0
 10
98.77165458086584
 20
177.7590667964745
 30
0.0
 10
98.72796440078218
 20
179.9008586032759
 30
0.0
 10
98.68762782426711
 20
181.7499828752986
 30
0.0
 10
98.64474550680418
 20
183.2586810021077
 30
0.0
 10
98.60034283634353
 20
184.3966508797681
 30
0.0
 10
98.55601872600839
 20
185.0379552981843
 30
0.0
 10
98.52841392036594
 20
185.3014016971381
 30
0.0
 10
98.51448922515196
 20
185.2268295812002
 30
0.0
 10
98.5144170983855
 20
185.2264433145344
 30
0.0
  0
SPLINE
  5
228
330
1F
100
AcDbEntity
  8
0
  6
Continuous
 62
     7
370
    25
100
AcDbSpline
210
0.0
220
0.0
230
1.0
 70
     8
 71
     3
 72
    25
 73
    21
 74
     0
 42
0.00000001
 43
0.00000001
 40
0.0
 40
0.0
 40
0.0
 40
0.0
 40
0.0214896915667672
 40
0.0794090480801142
 40
0.137944142314182
 40
0.1961361602316156
 40
0.2531191819682262
 40
0.3105854993603762
 40
0.3690063948538163
 40
0.427434074875828
 40
0.4849200928654273
 40
0.5418891589338135
 40
0.6000695511842363
 40
0.6586065008659167
 40
0.7165410143729211
 40
0.7733635409001888
 40
0.8311802233390649
 40
0.8896986296856374
 40
0.9479615602035287
 40
1.0
 40
1.0
 40
1.0
 40
1.0
 10
97.75781889323093
 20
156.909254407061
 30
0.0
 10
97.75271351290756
 20
156.9047788083861
 30
0.0
 10
97.73384803080859
 20
156.888240505393
 30
0.0
 10
97.69920973855713
 20
157.3326630935678
 30
0.0
 10
97.65477918949843
 20
158.2345329167156
 30
0.0
 10
97.61073667077967
 20
159.5789012385548
 30
0.0
 10
97.56999502271388
 20
161.2736020584517
 30
0.0
 10
97.52780425283316
 20
163.2838814461793
 30
0.0
 10
97.48344808874369
 20
165.5631031234041
 30
0.0
 10
97.43908464391491
 20
168.0223382008484
 30
0.0
 10
97.3968370965775
 20
170.557846427717
 30
0.0
 10
97.35613631336679
 20
173.1047234266267
 30
0.0
 10
97.31212135659662
 20
175.601377880883
 30
0.0
 10
97.26766817266726
 20
177.9623204626595
 30
0.0
 10
97.2241991261753
 20
180.0798690505571
 30
0.0
 10
97.18394434919902
 20
181.8990942190266
 30
0.0
 10
97.1407771370971
 20
183.3807512005143
 30
0.0
 10
97.09633297787616
 20
184.4604261502873
 30
0.0
 10
97.05346971043649
 20
185.1177353798028
 30
0.0
 10
97.02713345334288
 20
185.1801382803026
 30
0.0
 10
97.01470842430358
 20
185.2095789805545
 30
0.0
  0
SPLINE
  5
229
330
1F
100
AcDbEntity
  8
0
  6
Continuous
 62
     7
370
    25
100
AcDbSpline
210
0.0
220
0.0
230
1.0
 70
     8
 71
     3
 72
    19
 73
    15
 74
     0
 42
0.00000001
 43
0.00000001
 40
0.0
 40
0.0
 40
0.0
 40
0.0
 40
0.0404761311738006
 40
0.1278336693662496
 40
0.2159904075502965
 40
0.3035012898761875
 40
0.3891899214951678
 40
0.4759090966029543
 40
0.5639412456204974
 40
0.6518533502766473
 40
0.7382239443174444
 40
0.8241595064961345
 40
0.911876091787892
 40
1.0
 40
1.0
 40
1.0
 40
1.0
 10
96.25793364413798
 20
156.9121175768266
 30
0.0
 10
96.25155108063781
 20
156.9114898899055
 30
0.0
 10
96.2313933608032
 20
156.9095074988022
 30
0.0
 10
96.19522720790924
 20
157.3947479857074
 30
0.0
 10
96.1507869001663
 20
158.3394631190269
 30
0.0
 10
96.10689887733226
 20
159.7170862178803
 30
0.0
 10
96.06639520369137
 20
161.4419072680326
 30
0.0
 10
96.02385213219318
 20
163.478195122555
 30
0.0
 10
95.97945569970852
 20
165.7783265676548
 30
0.0
 10
95.93514430173725
 20
168.247574536061
 30
0.0
 10
95.89326987553102
 20
170.787522492898
 30
0.0
 10
95.85228031908836
 20
173.3290172835161
 30
0.0
 10
95.80809054083613
 20
175.8311298755737
 30
0.0
 10
95.77849209850957
 20
177.364895375109
 30
0.0
 10
95.76365859592529
 20
178.1335545582509
 30
0.0
  0
LINE
  5
22A
330
1F
100
AcDbEntity
  8
0
  6
Continuous
 62
     7
370
    25
100
AcDbLine
 10
95.7636585959
 20
178.1335464835
 30
0.0
 11
96.2324087535
 21
178.5394954277
 31
0.0
  0
SPLINE
  5
22B
330
1F
100
AcDbEntity
  8
0
  6
Continuous
 62
     7
370
    25
100
AcDbSpline
210
0.0
220
0.0
230
1.0
 70
     8
 71
     3
 72
    27
 73
    23
 74
     0
 42
0.00000001
 43
0.00000001
 40
0.0
 40
0.0
 40
0.0
 40
0.0
 40
0.0100400396854842
 40
0.0669707335065468
 40
0.1248426800975565
 40
0.1827168676938405
 40
0.239654068867332
 40
0.2960902482643943
 40
0.3537255730445688
 40
0.4117096198516856
 40
0.4690925593404896
 40
0.5253783206931526
 40
0.5826549372357763
 40
0.6406222518061147
 40
0.6656907788701856
 40
0.7081784552505366
 40
0.7499358845755374
 40
0.8066013098249242
 40
0.8643709424054793
 40
0.9223155958345052
 40
0.9794892490840695
 40
1.0
 40
1.0
 40
1.0
 40
1.0
 10
99.73324361809885
 20
156.0739392579588
 30
0.0
 10
99.73081112516721
 20
156.0630842092817
 30
0.0
 10
99.71458550843826
 20
155.9906770679829
 30
0.0
 10
99.68386266699828
 20
156.3211671499628
 30
0.0
 10
99.63948544820092
 20
157.094889544357
 30
0.0
 10
99.59512932116507
 20
158.3697981065018
 30
0.0
 10
99.55289945663942
 20
160.030836721691
 30
0.0
 10
99.5121851258831
 20
162.0425665860219
 30
0.0
 10
99.46816279349697
 20
164.356135285061
 30
0.0
 10
99.42370955528406
 20
166.9021892090195
 30
0.0
 10
99.38025463622091
 20
169.5623727063983
 30
0.0
 10
99.33999587916259
 20
172.258079057974
 30
0.0
 10
99.29683819969881
 20
174.9242558462192
 30
0.0
 10
99.260707960857
 20
177.0039365551211
 30
0.0
 10
99.22866894993962
 20
178.7505741446186
 30
0.0
 10
99.20100131394847
 20
180.1828016137004
 30
0.0
 10
99.16716171762577
 20
181.8500533639284
 30
0.0
 10
99.12925757414206
 20
183.4294998375279
 30
0.0
 10
99.08504784206085
 20
184.7799027579349
 30
0.0
 10
99.04061416870401
 20
185.6514963158909
 30
0.0
 10
99.00667237721468
 20
186.0538144723147
 30
0.0
 10
98.9879943119549
 20
185.9995262822366
 30
0.0
 10
98.98306280545435
 20
185.9851927547245
 30
0.0
  0
SPLINE
  5
22C
330
1F
100
AcDbEntity
  8
0
  6
Continuous
 62
     7
370
    25
100
AcDbSpline
210
0.0
220
0.0
230
1.0
 70
     8
 71
     3
 72
    27
 73
    23
 74
     0
 42
0.00000001
 43
0.00000001
 40
0.0
 40
0.0
 40
0.0
 40
0.0
 40
0.0100400396854842
 40
0.0669707335065467
 40
0.1248426800975564
 40
0.1827168676938403
 40
0.2396540688673318
 40
0.296090248264394
 40
0.3537255730445685
 40
0.4117096198516852
 40
0.4690925593404892
 40
0.525378320693152
 40
0.5826549372357758
 40
0.640622251806114
 40
0.6656907788701849
 40
0.7081784552505359
 40
0.7499358845755366
 40
0.8066013098249234
 40
0.8643709424054785
 40
0.9223155958345043
 40
0.9794892490840685
 40
1.0
 40
1.0
 40
1.0
 40
1.0
 10
98.23324361809885
 20
156.0739392579588
 30
0.0
 10
98.23081112516722
 20
156.0630842092817
 30
0.0
 10
98.21458550843826
 20
155.9906770679829
 30
0.0
 10
98.18386266699827
 20
156.3211671499629
 30
0.0
 10
98.13948544820092
 20
157.094889544357
 30
0.0
 10
98.09512932116505
 20
158.3697981065018
 30
0.0
 10
98.05289945663942
 20
160.0308367216909
 30
0.0
 10
98.01218512588308
 20
162.0425665860219
 30
0.0
 10
97.96816279349699
 20
164.356135285061
 30
0.0
 10
97.92370955528406
 20
166.9021892090195
 30
0.0
 10
97.88025463622094
 20
169.5623727063983
 30
0.0
 10
97.83999587916257
 20
172.258079057974
 30
0.0
 10
97.79683819969883
 20
174.9242558462192
 30
0.0
 10
97.76070796085702
 20
177.0039365551211
 30
0.0
 10
97.7286689499396
 20
178.7505741446186
 30
0.0
 10
97.70100131394845
 20
180.1828016137004
 30
0.0
 10
97.66716171762577
 20
181.8500533639284
 30
0.0
 10
97.62925757414204
 20
183.4294998375279
 30
0.0
 10
97.58504784206085
 20
184.7799027579349
 30
0.0
 10
97.54061416870402
 20
185.6514963158909
 30
0.0
 10
97.5066723772147
 20
186.0538144723147
 30
0.0
 10
97.48799431195492
 20
185.9995262822366
 30
0.0
 10
97.48306280545435
 20
185.9851927547245
 30
0.0
  0
SPLINE
  5
22D
330
1F
100
AcDbEntity
  8
0
  6
Continuous
 62
     7
370
    25
100
AcDbSpline
210
0.0
220
0.0
230
1.0
 70
     8
 71
     3
 72
    21
 73
    17
 74
     0
 42
0.00000001
 43
0.00000001
 40
0.0
 40
0.0
 40
0.0
 40
0.0
 40
0.0150605813385307
 40
0.1004595809252289
 40
0.1872705085865144
 40
0.2740847978721829
 40
0.3594935588257307
 40
0.4441507610750637
 40
0.530606743722167
 40
0.6175858275337901
 40
0.703663219126634
 40
0.7880947864917012
 40
0.8740126881393593
 40
0.9609666727261912
 40
0.9985707662071613
 40
1.0
 40
1.0
 40
1.0
 40
1.0
 10
96.73324361809884
 20
156.0739392579588
 30
0.0
 10
96.73081112516711
 20
156.0630842092841
 30
0.0
 10
96.71458550843741
 20
155.9906770680014
 30
0.0
 10
96.68386266702309
 20
156.3211671494124
 30
0.0
 10
96.63948544811063
 20
157.0948895463603
 30
0.0
 10
96.59512932149849
 20
158.3697980991037
 30
0.0
 10
96.55289945542219
 20
160.0308367486962
 30
0.0
 10
96.51218513042411
 20
162.0425664852757
 30
0.0
 10
96.468162776098
 20
164.356135671072
 30
0.0
 10
96.42370962032459
 20
166.9021877660399
 30
0.0
 10
96.38025439828202
 20
169.5623779852756
 30
0.0
 10
96.3399967550208
 20
172.2580596263142
 30
0.0
 10
96.29683484754912
 20
174.924330216511
 30
0.0
 10
96.26071758902712
 20
177.0037229459776
 30
0.0
 10
96.23926154106837
 20
178.1728210226121
 30
0.0
 10
96.23265081023
 20
178.526543616559
 30
0.0
 10
96.23240875349107
 20
178.5394954277385
 30
0.0
  0
SPLINE
  5
22E
330
1F
100
AcDbEntity
  8
0
  6
Continuous
 62
     7
370
    25
100
AcDbSpline
210
0.0
220
0.0
230
1.0
 70
     8
 71
     3
 72
    16
 73
    12
 74
     0
 42
0.00000001
 43
0.00000001
 40
0.0
 40
0.0
 40
0.0
 40
0.0
 40
0.25
 40
0.25
 40
0.375
 40
0.375
 40
0.5
 40
0.5
 40
0.75
 40
0.75
 40
1.0
 40
1.0
 40
1.0
 40
1.0
 10
70.535445136052
 20
213.3126191739301
 30
0.0
 10
69.8356961832767
 20
213.3126191739301
 30
0.0
 10
69.12708016100969
 20
213.342664084182
 30
0.0
 10
68.04990417005533
 20
213.3796730537897
 30
0.0
 10
67.68846716368259
 20
213.3910110008873
 30
0.0
 10
66.9606419305677
 20
213.4067742597417
 30
0.0
 10
66.5927335958598
 20
213.4111743987048
 30
0.0
 10
65.4932202025887
 20
213.4110132690106
 30
0.0
 10
64.76916954882795
 20
213.3918081930279
 30
0.0
 10
63.33774067275966
 20
213.3426005044394
 30
0.0
 10
62.63035885328494
 20
213.3126191739301
 30
0.0
 10
61.93082480996473
 20
213.3126191739301
 30
0.0
  0
LWPOLYLINE
  5
22F
330
1F
100
AcDbEntity
  8
0
  6
Continuous
 62
     7
370
    25
100
AcDbPolyline
 90
        9
 70
   128
 43
0.0
 10
61.93082481
 20
213.3126191739
 10
61.9237163399
 20
213.5043919658
 10
61.9053919281
 20
213.6881472559
 10
61.8765352611
 20
213.8570291084
 10
61.8382229851
 20
214.0047365174
 10
61.7918845366
 20
214.1257584985
 10
61.7392488096
 20
214.2155797046
 10
61.6822796507
 20
214.2708488937
 10
61.6231025871
 20
214.2895039645
  0
LWPOLYLINE
  5
230
330
1F
100
AcDbEntity
  8
0
  6
Continuous
 62
     7
370
    25
100
AcDbPolyline
 90
        9
 70
   128
 43
0.0
 10
70.8431673589
 20
214.2895039645
 10
70.7839902954
 20
214.2708488937
 10
70.7270211364
 20
214.2155797046
 10
70.6743854094
 20
214.1257584985
 10
70.6280469609
 20
214.0047365174
 10
70.5897346849
 20
213.8570291084
 10
70.5608780179
 20
213.6881472559
 10
70.5425536061
 20
213.5043919658
 10
70.5354451361
 20
213.3126191739
  0
SPLINE
  5
231
330
1F
100
AcDbEntity
  8
0
  6
Continuous
 62
     7
370
    25
100
AcDbSpline
210
0.0
220
0.0
230
1.0
 70
     8
 71
     3
 72
    26
 73
    22
 74
     0
 42
0.00000001
 43
0.00000001
 40
0.0
 40
0.0
 40
0.0
 40
0.0
 40
0.0050097736229769
 40
0.0618155421883053
 40
0.1196437949784034
 40
0.1775599725932756
 40
0.2346210558703166
 40
0.2909852373515793
 40
0.3485463827338693
 40
0.4065412539661167
 40
0.464019228795079
 40
0.5203338421173853
 40
0.5775067750719397
 40
0.6354536417373222
 40
0.693228461430505
 40
0.749901797733141
 40
0.8043296581558625
 40
0.8598100799709114
 40
0.915719680690678
 40
0.973716894694158
 40
1.0
 40
1.0
 40
1.0
 40
1.0
 10
99.92071187069229
 20
156.058575911434
 30
0.0
 10
99.91949271356472
 20
156.0523304245978
 30
0.0
 10
99.90444954704161
 20
155.975267430526
 30
0.0
 10
99.87532092465158
 20
156.2768302431207
 30
0.0
 10
99.83097249148061
 20
157.0016379158865
 30
0.0
 10
99.78658413357626
 20
158.2394386881337
 30
0.0
 10
99.7440031566291
 20
159.866528217134
 30
0.0
 10
99.70351968022433
 20
161.8489977506717
 30
0.0
 10
99.65965399672524
 20
164.1372624338624
 30
0.0
 10
99.61519601943328
 20
166.6672562423892
 30
0.0
 10
99.57151694514965
 20
169.3209530296704
 30
0.0
 10
99.53118514173906
 20
172.0160351697525
 30
0.0
 10
99.48829267913779
 20
174.6879162501895
 30
0.0
 10
99.44386666335927
 20
177.2639350661265
 30
0.0
 10
99.39962897317056
 20
179.6285434528168
 30
0.0
 10
99.35872683776223
 20
181.6725427366784
 30
0.0
 10
99.31846188432914
 20
183.363048249038
 30
0.0
 10
99.27598163335252
 20
184.6846812837675
 30
0.0
 10
99.23246573747751
 20
185.5861765263117
 30
0.0
 10
99.19712972819661
 20
186.0342119065137
 30
0.0
 10
99.17691613949381
 20
185.9927607866615
 30
0.0
 10
99.17061246284852
 20
185.9798341134234
 30
0.0
  0
SPLINE
  5
232
330
1F
100
AcDbEntity
  8
0
  6
Continuous
 62
     7
370
    25
100
AcDbSpline
210
0.0
220
0.0
230
1.0
 70
     8
 71
     3
 72
    26
 73
    22
 74
     0
 42
0.00000001
 43
0.00000001
 40
0.0
 40
0.0
 40
0.0
 40
0.0
 40
0.0050097736229761
 40
0.0618155421883046
 40
0.1196437949784027
 40
0.1775599725932749
 40
0.234621055870316
 40
0.2909852373515787
 40
0.3485463827338687
 40
0.4065412539661162
 40
0.4640192287950785
 40
0.5203338421173848
 40
0.5775067750719393
 40
0.6354536417373218
 40
0.6932284614305048
 40
0.7499017977331408
 40
0.8043296581558624
 40
0.8598100799709113
 40
0.9157196806906779
 40
0.9737168946941579
 40
1.0
 40
1.0
 40
1.0
 40
1.0
 10
98.42071187069229
 20
156.058575911434
 30
0.0
 10
98.41949271356474
 20
156.0523304245978
 30
0.0
 10
98.40444954704161
 20
155.9752674305261
 30
0.0
 10
98.37532092465159
 20
156.2768302431207
 30
0.0
 10
98.3309724914806
 20
157.0016379158866
 30
0.0
 10
98.28658413357627
 20
158.2394386881337
 30
0.0
 10
98.24400315662912
 20
159.866528217134
 30
0.0
 10
98.20351968022433
 20
161.8489977506717
 30
0.0
 10
98.15965399672524
 20
164.1372624338623
 30
0.0
 10
98.11519601943328
 20
166.6672562423892
 30
0.0
 10
98.07151694514963
 20
169.3209530296704
 30
0.0
 10
98.03118514173909
 20
172.0160351697525
 30
0.0
 10
97.98829267913777
 20
174.6879162501895
 30
0.0
 10
97.9438666633593
 20
177.2639350661265
 30
0.0
 10
97.89962897317056
 20
179.6285434528168
 30
0.0
 10
97.85872683776226
 20
181.6725427366784
 30
0.0
 10
97.81846188432914
 20
183.363048249038
 30
0.0
 10
97.77598163335252
 20
184.6846812837675
 30
0.0
 10
97.7324657374775
 20
185.5861765263117
 30
0.0
 10
97.69712972819661
 20
186.0342119065137
 30
0.0
 10
97.6769161394938
 20
185.9927607866615
 30
0.0
 10
97.67061246284854
 20
185.9798341134234
 30
0.0
  0
SPLINE
  5
233
330
1F
100
AcDbEntity
  8
0
  6
Continuous
 62
     7
370
    25
100
AcDbSpline
210
0.0
220
0.0
230
1.0
 70
     8
 71
     3
 72
    26
 73
    22
 74
     0
 42
0.00000001
 43
0.00000001
 40
0.0
 40
0.0
 40
0.0
 40
0.0
 40
0.005009773622976
 40
0.0618155421883044
 40
0.1196437949784026
 40
0.1775599725932748
 40
0.2346210558703158
 40
0.2909852373515786
 40
0.3485463827338686
 40
0.4065412539661161
 40
0.4640192287950785
 40
0.5203338421173848
 40
0.5775067750719393
 40
0.6354536417373218
 40
0.6932284614305048
 40
0.7499017977331408
 40
0.8043296581558624
 40
0.8598100799709113
 40
0.9157196806906779
 40
0.9737168946941579
 40
1.0
 40
1.0
 40
1.0
 40
1.0
 10
96.92071187069229
 20
156.058575911434
 30
0.0
 10
96.91949271356474
 20
156.0523304245978
 30
0.0
 10
96.90444954704164
 20
155.9752674305261
 30
0.0
 10
96.87532092465156
 20
156.2768302431207
 30
0.0
 10
96.83097249148062
 20
157.0016379158865
 30
0.0
 10
96.78658413357627
 20
158.2394386881337
 30
0.0
 10
96.7440031566291
 20
159.866528217134
 30
0.0
 10
96.70351968022433
 20
161.8489977506717
 30
0.0
 10
96.65965399672523
 20
164.1372624338624
 30
0.0
 10
96.6151960194333
 20
166.6672562423892
 30
0.0
 10
96.57151694514963
 20
169.3209530296704
 30
0.0
 10
96.53118514173909
 20
172.0160351697525
 30
0.0
 10
96.48829267913777
 20
174.6879162501895
 30
0.0
 10
96.4438666633593
 20
177.2639350661265
 30
0.0
 10
96.39962897317056
 20
179.6285434528168
 30
0.0
 10
96.35872683776225
 20
181.6725427366784
 30
0.0
 10
96.31846188432914
 20
183.363048249038
 30
0.0
 10
96.27598163335252
 20
184.6846812837675
 30
0.0
 10
96.23246573747748
 20
185.5861765263117
 30
0.0
 10
96.19712972819661
 20
186.0342119065137
 30
0.0
 10
96.1769161394938
 20
185.9927607866615
 30
0.0
 10
96.17061246284854
 20
185.9798341134234
 30
0.0
  0
SPLINE
  5
234
330
1F
100
AcDbEntity
  8
0
  6
Continuous
 62
     7
370
    25
100
AcDbSpline
210
0.0
220
0.0
230
1.0
 70
     8
 71
     3
 72
    13
 73
     9
 74
     0
 42
0.00000001
 43
0.00000001
 40
0.0
 40
0.0
 40
0.0
 40
0.0
 40
0.0200384432477407
 40
0.2472541330585794
 40
0.4785596268509374
 40
0.710216808512628
 40
0.9384537239807504
 40
1.0
 40
1.0
 40
1.0
 40
1.0
 10
95.42071187069229
 20
156.058575911434
 30
0.0
 10
95.41949270894605
 20
156.0523302795691
 30
0.0
 10
95.40444948543325
 20
155.9752654959896
 30
0.0
 10
95.37532483583891
 20
156.2769530564771
 30
0.0
 10
95.33095836567273
 20
157.0011943580299
 30
0.0
 10
95.28663637630022
 20
158.2410791373632
 30
0.0
 10
95.25405398968314
 20
159.473238136228
 30
0.0
 10
95.23679958896972
 20
160.2647874084744
 30
0.0
 10
95.23313497300836
 20
160.4329024386887
 30
0.0
  0
SPLINE
  5
235
330
1F
100
AcDbEntity
  8
0
  6
Continuous
 62
     7
370
    25
100
AcDbSpline
210
0.0
220
0.0
230
1.0
 70
     8
 71
     3
 72
    15
 73
    11
 74
     0
 42
0.00000001
 43
0.00000001
 40
0.0
 40
0.0
 40
0.0
 40
0.0
 40
0.1122175339753249
 40
0.2415400650418813
 40
0.3699085616189859
 40
0.4956051023884907
 40
0.622827600509912
 40
0.7519697882370009
 40
0.8809292216249678
 40
0.9999999999999999
 40
0.9999999999999999
 40
0.9999999999999999
 40
0.9999999999999999
 10
99.98313497300838
 20
172.9352670518162
 30
0.0
 10
99.97053582989831
 20
173.673480799181
 30
0.0
 10
99.94341709240275
 20
175.2624320997192
 30
0.0
 10
99.90060158834716
 20
177.5526030091616
 30
0.0
 10
99.85677764266336
 20
179.7204220134407
 30
0.0
 10
99.81626676701843
 20
181.595887619205
 30
0.0
 10
99.7737115236223
 20
183.1421002950829
 30
0.0
 10
99.72933012530508
 20
184.2969674538472
 30
0.0
 10
99.68583551788169
 20
185.0390690727108
 30
0.0
 10
99.65874259355543
 20
185.1542018191044
 30
0.0
 10
99.6457362119334
 20
185.209473092842
 30
0.0
  0
SPLINE
  5
236
330
1F
100
AcDbEntity
  8
0
  6
Continuous
 62
     7
370
    25
100
AcDbSpline
210
0.0
220
0.0
230
1.0
 70
     8
 71
     3
 72
    25
 73
    21
 74
     0
 42
0.00000001
 43
0.00000001
 40
0.0
 40
0.0
 40
0.0
 40
0.0
 40
0.0257085746274052
 40
0.0834798944147769
 40
0.1419509005164149
 40
0.2001651402087566
 40
0.2572050212616673
 40
0.3144949283353433
 40
0.3728204834549878
 40
0.431239248099316
 40
0.488799814614736
 40
0.5456479638786246
 40
0.6037024835620795
 40
0.6621989807745274
 40
0.7201785363332305
 40
0.7769820085162814
 40
0.8346433883273753
 40
0.8930898139887123
 40
0.9513672081844953
 40
1.0
 40
1.0
 40
1.0
 40
1.0
 10
98.88959331347425
 20
156.9063325570477
 30
0.0
 10
98.88347980832962
 20
156.8938758608613
 30
0.0
 10
98.86362826963585
 20
156.8534269562654
 30
0.0
 10
98.82820704568904
 20
157.2693300694763
 30
0.0
 10
98.78376642342532
 20
158.1342710474506
 30
0.0
 10
98.73960928213727
 20
159.4433283752467
 30
0.0
 10
98.69855266070199
 20
161.1080271831611
 30
0.0
 10
98.65674333775675
 20
163.091842181668
 30
0.0
 10
98.6124402286529
 20
165.3493965817313
 30
0.0
 10
98.56803887954358
 20
167.7973559412631
 30
0.0
 10
98.52544341931558
 20
170.3288379212709
 30
0.0
 10
98.48496907053305
 20
172.8771434139842
 30
0.0
 10
98.44111272393661
 20
175.3810131226306
 30
0.0
 10
98.3966546531316
 20
177.7589721596341
 30
0.0
 10
98.3529646188376
 20
179.9011808271708
 30
0.0
 10
98.31262748674935
 20
181.7487782158368
 30
0.0
 10
98.26974727223478
 20
183.2632635906061
 30
0.0
 10
98.22533666564095
 20
184.3793038965368
 30
0.0
 10
98.1832167364444
 20
185.0664498093695
 30
0.0
 10
98.15752904456768
 20
185.153901590826
 30
0.0
 10
98.14584387014352
 20
185.1936828730419
 30
0.0
  0
SPLINE
  5
237
330
1F
100
AcDbEntity
  8
0
  6
Continuous
 62
     7
370
    25
100
AcDbSpline
210
0.0
220
0.0
230
1.0
 70
     8
 71
     3
 72
    25
 73
    21
 74
     0
 42
0.00000001
 43
0.00000001
 40
0.0
 40
0.0
 40
0.0
 40
0.0
 40
0.0306616514001573
 40
0.0885458374350299
 40
0.1470453898372119
 40
0.2052020768038333
 40
0.2621505022005154
 40
0.3195819232622557
 40
0.3779673453025942
 40
0.4363595503838327
 40
0.4938106677232129
 40
0.550745140512772
 40
0.6088902043608584
 40
0.6673916118030523
 40
0.7252909515073492
 40
0.7820789768700938
 40
0.8398605507615539
 40
0.8983434251356239
 40
0.9565709815365846
 40
0.9999999999999999
 40
0.9999999999999999
 40
0.9999999999999999
 40
0.9999999999999999
 10
97.38940297520818
 20
156.9064656853609
 30
0.0
 10
97.38212409459805
 20
156.8975560333349
 30
0.0
 10
97.3611038771674
 20
156.8718264146135
 30
0.0
 10
97.32422747203093
 20
157.3281957419431
 30
0.0
 10
97.27977459545559
 20
158.2357246963088
 30
0.0
 10
97.23573801677907
 20
159.5785852506394
 30
0.0
 10
97.19499480100953
 20
161.2736805892552
 30
0.0
 10
97.15280446268595
 20
163.2838527015563
 30
0.0
 10
97.10844818581401
 20
165.5631027937418
 30
0.0
 10
97.0640847713694
 20
168.0223296210464
 30
0.0
 10
97.02183720394073
 20
170.5578400637677
 30
0.0
 10
96.98113643674856
 20
173.1047153883414
 30
0.0
 10
96.93712146446015
 20
175.6013745642647
 30
0.0
 10
96.89266835574506
 20
177.9623011867942
 30
0.0
 10
96.8491990276982
 20
180.0799109297223
 30
0.0
 10
96.80894525943032
 20
181.8989149630021
 30
0.0
 10
96.7657742244382
 20
183.3814156208276
 30
0.0
 10
96.7213445691254
 20
184.4579026227493
 30
0.0
 10
96.68061107427933
 20
185.0926694258459
 30
0.0
 10
96.65630269929919
 20
185.1549351006637
 30
0.0
 10
96.64591784355092
 20
185.181535811389
 30
0.0
  0
SPLINE
  5
238
330
1F
100
AcDbEntity
  8
0
  6
Continuous
 62
     7
370
    25
100
AcDbSpline
210
0.0
220
0.0
230
1.0
 70
     8
 71
     3
 72
    19
 73
    15
 74
     0
 42
0.00000001
 43
0.00000001
 40
0.0
 40
0.0
 40
0.0
 40
0.0
 40
0.0532475561386642
 40
0.1394423464909378
 40
0.2264257037311102
 40
0.3127718059995497
 40
0.3973199112399582
 40
0.4828848336205094
 40
0.5697452583404884
 40
0.6564872410560131
 40
0.7417082352434675
 40
0.8264999749873017
 40
0.9130490345028692
 40
1.0
 40
1.0
 40
1.0
 40
1.0
 10
95.88935690841568
 20
156.9030831597768
 30
0.0
 10
95.88085800266317
 20
156.8997390979259
 30
0.0
 10
95.85860144392745
 20
156.8909818165575
 30
0.0
 10
95.82024375217412
 20
157.3909418105061
 30
0.0
 10
95.77578265920857
 20
158.3404749447027
 30
0.0
 10
95.73190015321128
 20
159.7168164728689
 30
0.0
 10
95.6913950234517
 20
161.4419725644706
 30
0.0
 10
95.64885235579776
 20
163.4781687247346
 30
0.0
 10
95.60445581823585
 20
165.7783241890334
 30
0.0
 10
95.56014444740104
 20
168.24756514351
 30
0.0
 10
95.51827000032168
 20
170.7875146961213
 30
0.0
 10
95.4772804583772
 20
173.3290090706733
 30
0.0
 10
95.4330906845654
 20
175.8311220296952
 30
0.0
 10
95.40349224188962
 20
177.3648879294655
 30
0.0
 10
95.3886587387378
 20
178.133547333531
 30
0.0
  0
ELLIPSE
  5
239
330
1F
100
AcDbEntity
  8
0
  6
Continuous
 62
     7
370
    25
100
AcDbEllipse
 10
87.5721517672
 20
171.0395039645
 30
0.0
 11
5.514779443589617
 21
14.79197504224376
 31
0.0
210
0.0
220
0.0
230
1.0
 40
0.4514183623
 41
5.402723445751576
 42
5.733243257345099
  0
LINE
  5
23A
330
1F
100
AcDbEntity
  8
0
  6
Continuous
 62
     7
370
    25
100
AcDbLine
 10
95.7636491935
 20
182.3493808449
 30
0.0
 11
95.3886493363
 21
182.3493808448
 31
0.0
  0
ELLIPSE
  5
23B
330
1F
100
AcDbEntity
  8
0
  6
Continuous
 62
     7
370
    25
100
AcDbEllipse
 10
103.5801619471
 20
171.0395039645
 30
0.0
 11
-5.514823779167059
 21
14.79197426083272
 31
0.0
210
0.0
220
0.0
230
1.0
 40
0.4514155752
 41
0.5499417359511702
 42
0.610687564305694
  0
ARC
  5
23C
330
1F
100
AcDbEntity
  8
0
  6
Continuous
 62
     7
370
    25
100
AcDbCircle
 10
57.8057781714
 20
229.4822392667
 30
0.0
 40
1.58759714378859
100
AcDbArc
 50
316.4967713478
 51
354.1948906197
  0
ARC
  5
23D
330
1F
100
AcDbEntity
  8
0
  6
Continuous
 62
     7
370
    25
100
AcDbCircle
 10
74.6604917746
 20
229.4822392667
 30
0.0
 40
1.587597143788482
100
AcDbArc
 50
185.8051093803
 51
223.5032286522
  0
ARC
  5
23E
330
1F
100
AcDbEntity
  8
0
  6
Continuous
 62
     7
370
    25
100
AcDbCircle
 10
57.6340552348
 20
229.4975576246
 30
0.0
 40
1.536432317410765
100
AcDbArc
 50
315.3759149485
 51
356.8310931139
  0
ARC
  5
23F
330
1F
100
AcDbEntity
  8
0
  6
Continuous
 62
     7
370
    25
100
AcDbCircle
 10
74.8322147112
 20
229.4975576246
 30
0.0
 40
1.536432317410625
100
AcDbArc
 50
183.1689068861
 51
224.6240850515
  0
ARC
  5
240
330
1F
100
AcDbEntity
  8
0
  6
Continuous
 62
     7
370
    25
100
AcDbCircle
 10
56.3562651711
 20
229.1202627913
 30
0.0
 40
1.016039454124099
100
AcDbArc
 50
316.2990799783
 51
16.7230650331
  0
ARC
  5
241
330
1F
100
AcDbEntity
  8
0
  6
Continuous
 62
     7
370
    25
100
AcDbCircle
 10
76.1100047749
 20
229.1202627913
 30
0.0
 40
1.01603945412416
100
AcDbArc
 50
163.2769349669
 51
223.7009200217
  0
SPLINE
  5
242
330
1F
100
AcDbEntity
  8
0
  6
Continuous
 62
     7
370
    25
100
AcDbSpline
210
0.0
220
0.0
230
1.0
 70
     8
 71
     3
 72
    12
 73
     8
 74
     0
 42
0.00000001
 43
0.00000001
 40
0.0
 40
0.0
 40
0.0
 40
0.0
 40
0.5000000000000004
 40
0.5000000000000004
 40
0.7500000000000002
 40
0.7500000000000002
 40
1.0
 40
1.0
 40
1.0
 40
1.0
 10
54.01546219843706
 20
186.2710335794665
 30
0.0
 10
53.8527933445889
 20
185.9083270599977
 30
0.0
 10
53.69889587331386
 20
185.577186050593
 30
0.0
 10
53.480114169394
 20
185.1895684588341
 30
0.0
 10
53.40892952593309
 20
185.0793677100515
 30
0.0
 10
53.27755721448356
 20
184.9267611237784
 30
0.0
 10
53.21600003359796
 20
184.8830895335247
 30
0.0
 10
53.16186457171981
 20
184.8830895335243
 30
0.0
  0
SPLINE
  5
243
330
1F
100
AcDbEntity
  8
0
  6
Continuous
 62
     7
370
    25
100
AcDbSpline
210
0.0
220
0.0
230
1.0
 70
     8
 71
     3
 72
    16
 73
    12
 74
     0
 42
0.00000001
 43
0.00000001
 40
0.0
 40
0.0
 40
0.0
 40
0.0
 40
0.2500000000000001
 40
0.2500000000000001
 40
0.3750000000000002
 40
0.3750000000000002
 40
0.5000000000000001
 40
0.5000000000000001
 40
0.7500000000000001
 40
0.7500000000000001
 40
1.0
 40
1.0
 40
1.0
 40
1.0
 10
56.867187445376
 20
213.3126191739301
 30
0.0
 10
56.32126515644793
 20
213.3126191739301
 30
0.0
 10
55.82026339397782
 20
213.342664084182
 30
0.0
 10
55.13393054493889
 20
213.3796730537897
 30
0.0
 10
54.91607157318538
 20
213.3910110008873
 30
0.0
 10
54.50248084953682
 20
213.4067742597417
 30
0.0
 10
54.30601073021714
 20
213.4111743987048
 30
0.0
 10
53.75672764152682
 20
213.4110132690106
 30
0.0
 10
53.4449958086056
 20
213.3918081930279
 30
0.0
 10
52.92597042326658
 20
213.3426005044394
 30
0.0
 10
52.71865670237256
 20
213.3126191739301
 30
0.0
 10
52.56487728233238
 20
213.3126191739301
 30
0.0
  0
LINE
  5
244
330
1F
100
AcDbEntity
  8
0
  6
Continuous
 62
     7
370
    25
100
AcDbLine
 10
61.93082481
 20
213.3126191739
 30
0.0
 11
56.8671874454
 21
213.3126191739
 31
0.0
  0
LINE
  5
245
330
1F
100
AcDbEntity
  8
0
  6
Continuous
 62
     7
370
    25
100
AcDbLine
 10
75.5990825006
 20
213.3126191739
 30
0.0
 11
70.5354451361
 21
213.3126191739
 31
0.0
  0
SPLINE
  5
246
330
1F
100
AcDbEntity
  8
0
  6
Continuous
 62
     7
370
    25
100
AcDbSpline
210
0.0
220
0.0
230
1.0
 70
     8
 71
     3
 72
    16
 73
    12
 74
     0
 42
0.00000001
 43
0.00000001
 40
0.0
 40
0.0
 40
0.0
 40
0.0
 40
0.2499999999999998
 40
0.2499999999999998
 40
0.3749999999999998
 40
0.3749999999999998
 40
0.4999999999999999
 40
0.4999999999999999
 40
0.7499999999999999
 40
0.7499999999999999
 40
1.0
 40
1.0
 40
1.0
 40
1.0
 10
79.90139266368436
 20
213.3126191739301
 30
0.0
 10
79.74756599983712
 20
213.3126191739301
 30
0.0
 10
79.53995174004022
 20
213.342664084182
 30
0.0
 10
79.1491085981248
 20
213.3796730537897
 30
0.0
 10
79.00553056350557
 20
213.3910110008873
 30
0.0
 10
78.69129605403926
 20
213.4067742597417
 30
0.0
 10
78.519857838651
 20
213.4111743987048
 30
0.0
 10
77.96962753407024
 20
213.4110132690106
 30
0.0
 10
77.55730871323073
 20
213.3918081930279
 30
0.0
 10
76.64490522250145
 20
213.3426005044394
 30
0.0
 10
76.14483712392075
 20
213.3126191739301
 30
0.0
 10
75.59908250064072
 20
213.3126191739301
 30
0.0
  0
LINE
  5
247
330
1F
100
AcDbEntity
  8
0
  6
Continuous
 62
     7
370
    25
100
AcDbLine
 10
76.4516333808
 20
226.7895039645
 30
0.0
 11
76.3367646838
 21
226.7895039645
 31
0.0
  0
SPLINE
  5
248
330
1F
100
AcDbEntity
  8
0
  6
Continuous
 62
     7
370
    25
100
AcDbSpline
210
0.0
220
0.0
230
1.0
 70
     8
 71
     3
 72
     8
 73
     4
 74
     0
 42
0.00000001
 43
0.00000001
 40
0.0000000000000002
 40
0.0000000000000002
 40
0.0000000000000002
 40
0.0000000000000002
 40
0.0002416894103824
 40
0.0002416894103824
 40
0.0002416894103824
 40
0.0002416894103824
 10
75.55030176658443
 20
228.3893446166812
 30
0.0
 10
75.49220293723015
 20
228.3994848348159
 30
0.0
 10
75.43393324295377
 20
228.4091240475302
 30
0.0
 10
75.37545290248337
 20
228.4182872083782
 30
0.0
  0
ARC
  5
249
330
1F
100
AcDbEntity
  8
0
  6
Continuous
 62
     7
370
    25
100
AcDbCircle
 10
74.6751623067
 20
226.8424810248
 30
0.0
 40
1.777260826753937
100
AcDbArc
 50
358.291859247
 51
60.5009498435
  0
LINE
  5
24A
330
1F
100
AcDbEntity
  8
0
  6
Continuous
 62
     7
370
    25
100
AcDbLine
 10
76.3367646838
 20
216.0395039645
 30
0.0
 11
83.8423181833
 21
216.0395039645
 31
0.0
  0
ARC
  5
24B
330
1F
100
AcDbEntity
  8
0
  6
Continuous
 62
     7
370
    25
100
AcDbCircle
 10
82.2004783553
 20
215.9301289645
 30
0.0
 40
1.645478930724546
100
AcDbArc
 50
274.4019496523
 51
3.8112610495
  0
LINE
  5
24C
330
1F
100
AcDbEntity
  8
0
  6
Continuous
 62
     7
370
    25
100
AcDbLine
 10
82.3267737267
 20
214.2895039645
 30
0.0
 11
80.8790131699
 21
214.2895039645
 31
0.0
  0
SPLINE
  5
24D
330
1F
100
AcDbEntity
  8
0
  6
Continuous
 62
     7
370
    25
100
AcDbSpline
210
0.0
220
0.0
230
1.0
 70
     8
 71
     3
 72
    14
 73
    10
 74
     0
 42
0.00000001
 43
0.00000001
 40
0.0
 40
0.0
 40
0.0
 40
0.0
 40
0.2499999999999999
 40
0.2499999999999999
 40
0.4999999999999998
 40
0.4999999999999998
 40
0.7499999999999999
 40
0.7499999999999999
 40
1.0
 40
1.0
 40
1.0
 40
1.0
 10
76.26898078397423
 20
214.2895039645
 30
0.0
 10
76.78419451547084
 20
214.2895039645
 30
0.0
 10
77.26637808119574
 20
214.3089585962323
 30
0.0
 10
78.16904677327013
 20
214.3402880822287
 30
0.0
 10
78.58998435475667
 20
214.3522133982772
 30
0.0
 10
79.36488371787804
 20
214.3521606406456
 30
0.0
 10
79.71805004872657
 20
214.340220761233
 30
0.0
 10
80.35265548523009
 20
214.3089396957925
 30
0.0
 10
80.63464747536797
 20
214.2895039644935
 30
0.0
 10
80.87901316989891
 20
214.2895039644935
 30
0.0
  0
LINE
  5
24E
330
1F
100
AcDbEntity
  8
0
  6
Continuous
 62
     7
370
    25
100
AcDbLine
 10
76.268980784
 20
214.2895039645
 30
0.0
 11
74.8212202272
 21
214.2895039645
 31
0.0
  0
SPLINE
  5
24F
330
1F
100
AcDbEntity
  8
0
  6
Continuous
 62
     7
370
    25
100
AcDbSpline
210
0.0
220
0.0
230
1.0
 70
     8
 71
     3
 72
    16
 73
    12
 74
     0
 42
0.00000001
 43
0.00000001
 40
0.0
 40
0.0
 40
0.0
 40
0.0
 40
0.2500000000000001
 40
0.2500000000000001
 40
0.5000000000000001
 40
0.5000000000000001
 40
0.7500000000000002
 40
0.7500000000000002
 40
0.8750000000000001
 40
0.8750000000000001
 40
1.0
 40
1.0
 40
1.0
 40
1.0
 10
76.45163338084556
 20
226.7895039645002
 30
0.0
 10
76.76732040424307
 20
226.7895039645003
 30
0.0
 10
77.07783441171082
 20
226.8573494569304
 30
0.0
 10
77.69319988705645
 20
227.0673061684189
 30
0.0
 10
77.99828275313187
 20
227.2109795450681
 30
0.0
 10
78.60353981187556
 20
227.5424917780059
 30
0.0
 10
78.90267763783191
 20
227.7299325581597
 30
0.0
 10
79.34898548760324
 20
228.025995912429
 30
0.0
 10
79.49734742245353
 20
228.1272141938084
 30
0.0
 10
79.79367155131412
 20
228.3321339940824
 30
0.0
 10
79.94228221378896
 20
228.4362937115044
 30
0.0
 10
80.08954143355939
 20
228.5395039645002
 30
0.0
  0
SPLINE
  5
250
330
1F
100
AcDbEntity
  8
0
  6
Continuous
 62
     7
370
    25
100
AcDbSpline
210
0.0
220
0.0
230
1.0
 70
     8
 71
     3
 72
    16
 73
    12
 74
     0
 42
0.00000001
 43
0.00000001
 40
0.0
 40
0.0
 40
0.0
 40
0.0
 40
0.2499999999999998
 40
0.2499999999999998
 40
0.4999999999999996
 40
0.4999999999999996
 40
0.7499999999999993
 40
0.7499999999999993
 40
0.8749999999999997
 40
0.8749999999999997
 40
1.0
 40
1.0
 40
1.0
 40
1.0
 10
83.7274494862732
 20
226.7895039645002
 30
0.0
 10
83.41127153592085
 20
226.7895039645003
 30
0.0
 10
83.10072869370985
 20
226.8574991332831
 30
0.0
 10
82.48576617496661
 20
227.0673737111099
 30
0.0
 10
82.18146314225184
 20
227.2106605849011
 30
0.0
 10
81.57655806691444
 20
227.5418917622374
 30
0.0
 10
81.27690949360046
 20
227.7296071391567
 30
0.0
 10
80.83038649088694
 20
228.0257995901796
 30
0.0
 10
80.6819603597099
 20
228.127059681987
 30
0.0
 10
80.38551510298367
 20
228.3320611965104
 30
0.0
 10
80.23672655846659
 20
228.4363456428365
 30
0.0
 10
80.08954143355939
 20
228.5395039645002
 30
0.0
  0
LINE
  5
251
330
1F
100
AcDbEntity
  8
0
  6
Continuous
 62
     7
370
    25
100
AcDbLine
 10
83.8423181833
 20
226.7895039645
 30
0.0
 11
83.7274494863
 21
226.7895039645
 31
0.0
  0
LINE
  5
252
330
1F
100
AcDbEntity
  8
0
  6
Continuous
 62
     7
370
    25
100
AcDbLine
 10
83.8423181833
 20
216.0395039645
 30
0.0
 11
83.8423181833
 21
226.7895039645
 31
0.0
  0
LINE
  5
253
330
1F
100
AcDbEntity
  8
0
  6
Continuous
 62
     7
370
    25
100
AcDbLine
 10
56.1295052622
 20
226.7895039645
 30
0.0
 11
56.0146365652
 21
226.7895039645
 31
0.0
  0
ARC
  5
254
330
1F
100
AcDbEntity
  8
0
  6
Continuous
 62
     7
370
    25
100
AcDbCircle
 10
57.7911076394
 20
226.8424810248
 30
0.0
 40
1.777260826753986
100
AcDbArc
 50
119.4990501565
 51
181.708140753
  0
SPLINE
  5
255
330
1F
100
AcDbEntity
  8
0
  6
Continuous
 62
     7
370
    25
100
AcDbSpline
210
0.0
220
0.0
230
1.0
 70
     8
 71
     3
 72
     8
 73
     4
 74
     0
 42
0.00000001
 43
0.00000001
 40
0.0
 40
0.0
 40
0.0
 40
0.0
 40
0.0002416894103822
 40
0.0002416894103822
 40
0.0002416894103822
 40
0.0002416894103822
 10
57.09081704353335
 20
228.418287208378
 30
0.0
 10
57.03233670306299
 20
228.40912404753
 30
0.0
 10
56.9740670087867
 20
228.3994848348161
 30
0.0
 10
56.91596817943248
 20
228.3893446166815
 30
0.0
  0
LINE
  5
256
330
1F
100
AcDbEntity
  8
0
  6
Continuous
 62
     7
370
    25
100
AcDbLine
 10
48.7388204597
 20
226.7895039645
 30
0.0
 11
48.6239517627
 21
226.7895039645
 31
0.0
  0
SPLINE
  5
257
330
1F
100
AcDbEntity
  8
0
  6
Continuous
 62
     7
370
    25
100
AcDbSpline
210
0.0
220
0.0
230
1.0
 70
     8
 71
     3
 72
    16
 73
    12
 74
     0
 42
0.00000001
 43
0.00000001
 40
0.0
 40
0.0
 40
0.0
 40
0.0
 40
0.2500000000000001
 40
0.2500000000000001
 40
0.5000000000000002
 40
0.5000000000000002
 40
0.75
 40
0.75
 40
0.875
 40
0.875
 40
1.0
 40
1.0
 40
1.0
 40
1.0
 10
48.73882045974354
 20
226.7895039645002
 30
0.0
 10
49.05450748314103
 20
226.7895039645003
 30
0.0
 10
49.36502149060878
 20
226.8573494569304
 30
0.0
 10
49.98038696595442
 20
227.0673061684189
 30
0.0
 10
50.28546983202983
 20
227.2109795450681
 30
0.0
 10
50.89072689077352
 20
227.5424917780059
 30
0.0
 10
51.18986471672988
 20
227.7299325581597
 30
0.0
 10
51.6361725665012
 20
228.025995912429
 30
0.0
 10
51.78453450135149
 20
228.1272141938083
 30
0.0
 10
52.08085863021208
 20
228.3321339940824
 30
0.0
 10
52.22946929268787
 20
228.436293711499
 30
0.0
 10
52.37672851245735
 20
228.5395039645002
 30
0.0
  0
SPLINE
  5
258
330
1F
100
AcDbEntity
  8
0
  6
Continuous
 62
     7
370
    25
100
AcDbSpline
210
0.0
220
0.0
230
1.0
 70
     8
 71
     3
 72
    16
 73
    12
 74
     0
 42
0.00000001
 43
0.00000001
 40
0.0
 40
0.0
 40
0.0
 40
0.0
 40
0.2499999999999999
 40
0.2499999999999999
 40
0.4999999999999998
 40
0.4999999999999998
 40
0.7499999999999997
 40
0.7499999999999997
 40
0.8749999999999998
 40
0.8749999999999998
 40
1.0
 40
1.0
 40
1.0
 40
1.0
 10
56.01463656517115
 20
226.7895039645002
 30
0.0
 10
55.6984586148188
 20
226.7895039645002
 30
0.0
 10
55.3879157726078
 20
226.8574991332831
 30
0.0
 10
54.77295325386457
 20
227.0673737111099
 30
0.0
 10
54.4686502211498
 20
227.2106605849011
 30
0.0
 10
53.86374514581239
 20
227.5418917622374
 30
0.0
 10
53.56409657249841
 20
227.7296071391567
 30
0.0
 10
53.11757356978489
 20
228.0257995901796
 30
0.0
 10
52.96914743860786
 20
228.127059681987
 30
0.0
 10
52.67270218188164
 20
228.3320611965104
 30
0.0
 10
52.52391363736388
 20
228.4363456428327
 30
0.0
 10
52.37672851245735
 20
228.5395039645002
 30
0.0
  0
LINE
  5
259
330
1F
100
AcDbEntity
  8
0
  6
Continuous
 62
     7
370
    25
100
AcDbLine
 10
48.6239517627
 20
216.0395039645
 30
0.0
 11
56.1295052622
 21
216.0395039645
 31
0.0
  0
LINE
  5
25A
330
1F
100
AcDbEntity
  8
0
  6
Continuous
 62
     7
370
    25
100
AcDbLine
 10
48.6239517627
 20
226.7895039645
 30
0.0
 11
48.6239517627
 21
216.0395039645
 31
0.0
  0
ARC
  5
25B
330
1F
100
AcDbEntity
  8
0
  6
Continuous
 62
     7
370
    25
100
AcDbCircle
 10
50.2657915907
 20
215.9301289645
 30
0.0
 40
1.645478930724539
100
AcDbArc
 50
176.1887389505
 51
265.5980503477
  0
LINE
  5
25C
330
1F
100
AcDbEntity
  8
0
  6
Continuous
 62
     7
370
    25
100
AcDbLine
 10
57.6450497188
 20
214.2895039645
 30
0.0
 11
56.197289162
 21
214.2895039645
 31
0.0
  0
SPLINE
  5
25D
330
1F
100
AcDbEntity
  8
0
  6
Continuous
 62
     7
370
    25
100
AcDbSpline
210
0.0
220
0.0
230
1.0
 70
     8
 71
     3
 72
    14
 73
    10
 74
     0
 42
0.00000001
 43
0.00000001
 40
0.0
 40
0.0
 40
0.0
 40
0.0
 40
0.25
 40
0.25
 40
0.5
 40
0.5
 40
0.75
 40
0.75
 40
1.0
 40
1.0
 40
1.0
 40
1.0
 10
51.58725677611773
 20
214.2895039645
 30
0.0
 10
51.83162127772299
 20
214.2895039645
 30
0.0
 10
52.11384058059225
 20
214.3089585962323
 30
0.0
 10
52.74974340279408
 20
214.3402880822287
 30
0.0
 10
53.10411380237083
 20
214.3522133982773
 30
0.0
 10
53.87934533343712
 20
214.3521606406456
 30
0.0
 10
54.29923568584948
 20
214.340220761233
 30
0.0
 10
55.20036337199576
 20
214.3089396957925
 30
0.0
 10
55.68207291540283
 20
214.2895039644935
 30
0.0
 10
56.19728916204257
 20
214.2895039644935
 30
0.0
  0
LINE
  5
25E
330
1F
100
AcDbEntity
  8
0
  6
Continuous
 62
     7
370
    25
100
AcDbLine
 10
51.5872567761
 20
214.2895039645
 30
0.0
 11
50.1394962193
 21
214.2895039645
 31
0.0
  0
SPLINE
  5
25F
330
1F
100
AcDbEntity
  8
0
  6
Continuous
 62
     7
370
    25
100
AcDbSpline
210
0.0
220
0.0
230
1.0
 70
     8
 71
     3
 72
    14
 73
    10
 74
     0
 42
0.00000001
 43
0.00000001
 40
0.0
 40
0.0
 40
0.0
 40
0.0
 40
0.25
 40
0.25
 40
0.5
 40
0.5
 40
0.75
 40
0.75
 40
1.0
 40
1.0
 40
1.0
 40
1.0
 10
56.8423760528719
 20
228.3781403542652
 30
0.0
 10
56.41795989128654
 20
228.316086722078
 30
0.0
 10
55.99926133662081
 20
228.2975622588048
 30
0.0
 10
55.18876806776128
 20
228.292619542603
 30
0.0
 10
54.79601503244158
 20
228.3080811464
 30
0.0
 10
54.0432282727847
 20
228.3557455520269
 30
0.0
 10
53.68411983584097
 20
228.3881842923488
 30
0.0
 10
53.0023981711505
 20
228.4601605016194
 30
0.0
 10
52.67871357390025
 20
228.4999760454573
 30
0.0
 10
52.37672851245735
 20
228.5395039645002
 30
0.0
  0
SPLINE
  5
260
330
1F
100
AcDbEntity
  8
0
  6
Continuous
 62
     7
370
    25
100
AcDbSpline
210
0.0
220
0.0
230
1.0
 70
     8
 71
     3
 72
     8
 73
     4
 74
     0
 42
0.00000001
 43
0.00000001
 40
0.0
 40
0.0
 40
0.0
 40
0.0
 40
0.0001055072942668
 40
0.0001055072942668
 40
0.0001055072942668
 40
0.0001055072942668
 10
56.91596817943245
 20
228.3893446166813
 30
0.0
 10
56.89146189847393
 20
228.3854607936669
 30
0.0
 10
56.86692872164109
 20
228.3817301852253
 30
0.0
 10
56.84237605287198
 20
228.3781403542647
 30
0.0
  0
SPLINE
  5
261
330
1F
100
AcDbEntity
  8
0
  6
Continuous
 62
     7
370
    25
100
AcDbSpline
210
0.0
220
0.0
230
1.0
 70
     8
 71
     3
 72
     8
 73
     4
 74
     0
 42
0.00000001
 43
0.00000001
 40
0.0
 40
0.0
 40
0.0
 40
0.0
 40
0.000105507294285
 40
0.000105507294285
 40
0.000105507294285
 40
0.000105507294285
 10
75.62389389315766
 20
228.3781403542633
 30
0.0
 10
75.5993412243843
 20
228.3817301852244
 30
0.0
 10
75.57480804754714
 20
228.3854607936663
 30
0.0
 10
75.55030176658443
 20
228.3893446166812
 30
0.0
  0
SPLINE
  5
262
330
1F
100
AcDbEntity
  8
0
  6
Continuous
 62
     7
370
    25
100
AcDbSpline
210
0.0
220
0.0
230
1.0
 70
     8
 71
     3
 72
    14
 73
    10
 74
     0
 42
0.00000001
 43
0.00000001
 40
0.0
 40
0.0
 40
0.0
 40
0.0
 40
0.25
 40
0.25
 40
0.5
 40
0.5
 40
0.75
 40
0.75
 40
1.0
 40
1.0
 40
1.0
 40
1.0
 10
75.62389389315766
 20
228.3781403542633
 30
0.0
 10
76.04831005474186
 20
228.3160867220772
 30
0.0
 10
76.4670086094063
 20
228.2975622588044
 30
0.0
 10
77.27750187826342
 20
228.2926195426032
 30
0.0
 10
77.67025491358196
 20
228.3080811464004
 30
0.0
 10
78.42304167323661
 20
228.3557455520273
 30
0.0
 10
78.78215011017927
 20
228.3881842923491
 30
0.0
 10
79.46387177486785
 20
228.4601605016196
 30
0.0
 10
79.78755637211735
 20
228.4999760454544
 30
0.0
 10
80.08954143355939
 20
228.5395039645002
 30
0.0
  0
ARC
  5
263
330
1F
100
AcDbEntity
  8
0
  6
Continuous
 62
     7
370
    25
100
AcDbCircle
 10
76.4681831414
 20
213.4347674312
 30
0.0
 40
0.8776423648443784
100
AcDbArc
 50
103.119007754
 51
188.0002668541
  0
ARC
  5
264
330
1F
100
AcDbEntity
  8
0
  6
Continuous
 62
     7
370
    25
100
AcDbCircle
 10
55.9980868046
 20
213.4347674312
 30
0.0
 40
0.8776423648443502
100
AcDbArc
 50
351.9997331459
 51
76.880992246
  0
LINE
  5
265
330
1F
100
AcDbEntity
  8
0
  6
Continuous
 62
     7
370
    25
100
AcDbLine
 10
95.3886587387
 20
178.1335458563
 30
0.0
 11
95.7636585959
 21
178.1335464835
 31
0.0
  0
ARC
  5
266
330
1F
100
AcDbEntity
  8
0
  6
Continuous
 62
     7
370
    25
100
AcDbCircle
 10
76.2941915584
 20
229.0545563357
 30
0.0
 40
0.9979371992161356
100
AcDbArc
 50
164.4750771131
 51
221.8041723328
  0
ARC
  5
267
330
1F
100
AcDbEntity
  8
0
  6
Continuous
 62
     7
370
    25
100
AcDbCircle
 10
56.1720783876
 20
229.0545563357
 30
0.0
 40
0.9979371992164772
100
AcDbArc
 50
318.1958276672
 51
15.5249228869
  0
ARC
  5
268
330
1F
100
AcDbEntity
  8
0
  6
Continuous
 62
     7
370
    25
100
AcDbCircle
 10
76.3828320852
 20
229.0381167044
 30
0.0
 40
1.005761384292249
100
AcDbArc
 50
165.7659488811
 51
221.0103806761
  0
ARC
  5
269
330
1F
100
AcDbEntity
  8
0
  6
Continuous
 62
     7
370
    25
100
AcDbCircle
 10
56.0834378608
 20
229.0381167044
 30
0.0
 40
1.005761384288289
100
AcDbArc
 50
318.9896193238
 51
14.2340511189
  0
SPLINE
  5
26A
330
1F
100
AcDbEntity
  8
0
  6
Continuous
 62
     7
370
    25
100
AcDbSpline
210
0.0
220
0.0
230
1.0
 70
     8
 71
     3
 72
    12
 73
     8
 74
     0
 42
0.00000001
 43
0.00000001
 40
0.0
 40
0.0
 40
0.0
 40
0.0
 40
0.25
 40
0.25
 40
0.5
 40
0.5
 40
1.0
 40
1.0
 40
1.0
 40
1.0
 10
57.05832175858614
 20
229.2854168215713
 30
0.0
 10
56.58627612332253
 20
229.1734997098686
 30
0.0
 10
56.12914410122062
 20
229.0941195643234
 30
0.0
 10
55.25270348427636
 20
228.9523717272079
 30
0.0
 10
54.83690229332847
 20
228.8926969302666
 30
0.0
 10
53.65778451411761
 20
228.7267586099646
 30
0.0
 10
52.96061805959806
 20
228.6334836353231
 30
0.0
 10
52.37672851245735
 20
228.5395039645002
 30
0.0
  0
SPLINE
  5
26B
330
1F
100
AcDbEntity
  8
0
  6
Continuous
 62
     7
370
    25
100
AcDbSpline
210
0.0
220
0.0
230
1.0
 70
     8
 71
     3
 72
    18
 73
    14
 74
     0
 42
0.00000001
 43
0.00000001
 40
0.0
 40
0.0
 40
0.0
 40
0.0
 40
0.2500000000000003
 40
0.2500000000000003
 40
0.5000000000000006
 40
0.5000000000000006
 40
0.7500000000000009
 40
0.7500000000000009
 40
0.875000000000001
 40
0.875000000000001
 40
0.9375000000000004
 40
0.9375000000000004
 40
1.0
 40
1.0
 40
1.0
 40
1.0
 10
75.4079481874434
 20
229.2854168215683
 30
0.0
 10
75.88204314283517
 20
229.173013837373
 30
0.0
 10
76.33776109959497
 20
229.0940488111522
 30
0.0
 10
77.2078059272368
 20
228.9532715860876
 30
0.0
 10
77.62239171425092
 20
228.8936978707833
 30
0.0
 10
78.40886732521513
 20
228.7829783477367
 30
0.0
 10
78.78213877173984
 20
228.7319457812667
 30
0.0
 10
79.30229231530974
 20
228.6583281475102
 30
0.0
 10
79.46906412845438
 20
228.6343045673299
 30
0.0
 10
79.7092855907792
 20
228.5985969088303
 30
0.0
 10
79.78770253843845
 20
228.586749725426
 30
0.0
 10
79.94120960750931
 20
228.5630977127332
 30
0.0
 10
80.01701129425618
 20
228.5511780173361
 30
0.0
 10
80.08954143355939
 20
228.5395039645002
 30
0.0
  0
SPLINE
  5
26C
330
1F
100
AcDbEntity
  8
0
  6
Continuous
 62
     7
370
    25
100
AcDbSpline
210
0.0
220
0.0
230
1.0
 70
     8
 71
     3
 72
    18
 73
    14
 74
     0
 42
0.00000001
 43
0.00000001
 40
0.0
 40
0.0
 40
0.0
 40
0.0
 40
0.2499999999999997
 40
0.2499999999999997
 40
0.4999999999999994
 40
0.4999999999999994
 40
0.7499999999999991
 40
0.7499999999999991
 40
0.8749999999999992
 40
0.8749999999999992
 40
0.9374999999999997
 40
0.9374999999999997
 40
1.0
 40
1.0
 40
1.0
 40
1.0
 10
50.29376369617655
 20
229.2854168215682
 30
0.0
 10
50.34409374221022
 20
229.173013837373
 30
0.0
 10
50.42567758083698
 20
229.0940488111522
 30
0.0
 10
50.65034608911832
 20
228.9532715860876
 30
0.0
 10
50.79340473148318
 20
228.8936978707833
 30
0.0
 10
51.14154492406668
 20
228.7829783477367
 30
0.0
 10
51.34763608495086
 20
228.7319457812667
 30
0.0
 10
51.70091961216612
 20
228.6583281475102
 30
0.0
 10
51.82594923992905
 20
228.6343045673299
 30
0.0
 10
52.02437654200313
 20
228.5985969088303
 30
0.0
 10
52.09233375807716
 20
228.586749725426
 30
0.0
 10
52.23188611907298
 20
228.5630977127333
 30
0.0
 10
52.30419837315428
 20
228.5511780173396
 30
0.0
 10
52.37672851245735
 20
228.5395039645002
 30
0.0
  0
SPLINE
  5
26D
330
1F
100
AcDbEntity
  8
0
  6
Continuous
 62
     7
370
    25
100
AcDbSpline
210
0.0
220
0.0
230
1.0
 70
     8
 71
     3
 72
    12
 73
     8
 74
     0
 42
0.00000001
 43
0.00000001
 40
0.0
 40
0.0
 40
0.0
 40
0.0
 40
0.2499999999999999
 40
0.2499999999999999
 40
0.4999999999999999
 40
0.4999999999999999
 40
1.0
 40
1.0
 40
1.0
 40
1.0
 10
82.17250624984155
 20
229.2854168215713
 30
0.0
 10
82.12239376017607
 20
229.1734997098686
 30
0.0
 10
82.04089874469011
 20
229.0941195643234
 30
0.0
 10
81.81429316032595
 20
228.9523717272079
 30
0.0
 10
81.67023933184454
 20
228.8926969302666
 30
0.0
 10
81.14689442600947
 20
228.7267586099646
 30
0.0
 10
80.67343098069985
 20
228.6334836353292
 30
0.0
 10
80.08954143355939
 20
228.5395039645002
 30
0.0
  0
LINE
  5
26E
330
1F
100
AcDbEntity
  8
0
  6
Continuous
 62
     7
370
    25
100
AcDbLine
 10
95.3886493363
 20
182.3493808448
 30
0.0
 11
95.3886587387
 21
178.1335458563
 31
0.0
  0
LINE
  5
26F
330
1F
100
AcDbEntity
  8
0
  6
Continuous
 62
     7
370
    25
100
AcDbLine
 10
95.233134973
 20
181.7303439718
 30
0.0
 11
95.233134973
 21
182.8435906265
 31
0.0
  0
LINE
  5
270
330
1F
100
AcDbEntity
  8
0
  6
Continuous
 62
     7
370
    25
100
AcDbLine
 10
95.7636491935
 20
182.3493808449
 30
0.0
 11
95.7636585959
 21
178.1335464835
 31
0.0
  0
ARC
  5
271
330
1F
100
AcDbEntity
  8
0
  6
Continuous
 62
     7
370
    25
100
AcDbCircle
 10
80.8898508075
 20
213.3010373815
 30
0.0
 40
0.9885259936318012
100
AcDbArc
 50
90.628170975
 51
179.3286944278
  0
ARC
  5
272
330
1F
100
AcDbEntity
  8
0
  6
Continuous
 62
     7
370
    25
100
AcDbCircle
 10
51.5764191385
 20
213.3010373815
 30
0.0
 40
0.988525993631787
100
AcDbArc
 50
0.6713055722
 51
89.371829025
  0
SPLINE
  5
273
330
1F
100
AcDbEntity
  8
0
  6
Continuous
 62
     7
370
    25
100
AcDbSpline
210
0.0
220
0.0
230
1.0
 70
     8
 71
     3
 72
    10
 73
     6
 74
     0
 42
0.00000001
 43
0.00000001
 40
0.0
 40
0.0
 40
0.0
 40
0.0
 40
0.5
 40
0.5
 40
1.0
 40
1.0
 40
1.0
 40
1.0
 10
51.82604210421079
 20
179.6102954115611
 30
0.0
 10
52.00409821333381
 20
179.5656784717653
 30
0.0
 10
52.1945336088648
 20
179.6101728844261
 30
0.0
 10
52.60065372446449
 20
179.8517915726301
 30
0.0
 10
52.81499067795814
 20
180.0471479186677
 30
0.0
 10
53.04438118543553
 20
180.2990953357841
 30
0.0
  0
ARC
  5
274
330
1F
100
AcDbEntity
  8
0
  6
Continuous
 62
     7
370
    25
100
AcDbCircle
 10
43.0168360443
 20
184.6476483823
 30
0.0
 40
10.14776016461657
100
AcDbArc
 50
330.2378582576
 51
1.3294554288
  0
SPLINE
  5
275
330
1F
100
AcDbEntity
  8
0
  6
Continuous
 62
     7
370
    25
100
AcDbSpline
210
0.0
220
0.0
230
1.0
 70
     8
 71
     3
 72
    14
 73
    10
 74
     0
 42
0.00000001
 43
0.00000001
 40
0.0
 40
0.0
 40
0.0
 40
0.0
 40
0.2499999999999999
 40
0.2499999999999999
 40
0.4999999999999998
 40
0.4999999999999998
 40
0.7499999999999999
 40
0.7499999999999999
 40
1.0
 40
1.0
 40
1.0
 40
1.0
 10
82.79816179697514
 20
228.3781403542652
 30
0.0
 10
82.63727408865357
 20
228.316086722078
 30
0.0
 10
82.46809897793429
 20
228.2975622588048
 30
0.0
 10
82.0945185134927
 20
228.292619542603
 30
0.0
 10
81.89061269567179
 20
228.3080811464
 30
0.0
 10
81.44350336596206
 20
228.3557455520269
 30
0.0
 10
81.20104929585112
 20
228.3881842923488
 30
0.0
 10
80.67561276151608
 20
228.4601605016194
 30
0.0
 10
80.391526495002
 20
228.4999760454486
 30
0.0
 10
80.08954143355939
 20
228.5395039645002
 30
0.0
  0
SPLINE
  5
276
330
1F
100
AcDbEntity
  8
0
  6
Continuous
 62
     7
370
    25
100
AcDbSpline
210
0.0
220
0.0
230
1.0
 70
     8
 71
     3
 72
     8
 73
     4
 74
     0
 42
0.00000001
 43
0.00000001
 40
0.0
 40
0.0
 40
0.0
 40
0.0
 40
0.0001055072942668
 40
0.0001055072942668
 40
0.0001055072942668
 40
0.0001055072942668
 10
82.82611787201189
 20
228.3893446166813
 30
0.0
 10
82.8167858861405
 20
228.3854607936669
 30
0.0
 10
82.80746922437534
 20
228.3817301852253
 30
0.0
 10
82.7981617969751
 20
228.3781403542647
 30
0.0
  0
ARC
  5
277
330
1F
100
AcDbEntity
  8
0
  6
Continuous
 62
     7
370
    25
100
AcDbCircle
 10
81.9509784121
 20
226.8424810248
 30
0.0
 40
1.777260826754014
100
AcDbArc
 50
358.291859247
 51
60.5009498435
  0
ARC
  5
278
330
1F
100
AcDbEntity
  8
0
  6
Continuous
 62
     7
370
    25
100
AcDbCircle
 10
83.1752144012
 20
229.307518344
 30
0.0
 40
1.002951700818416
100
AcDbArc
 50
181.2626993566
 51
247.9173961432
  0
ARC
  5
279
330
1F
100
AcDbEntity
  8
0
  6
Continuous
 62
     7
370
    25
100
AcDbCircle
 10
50.5152915339
 20
226.8424810248
 30
0.0
 40
1.777260826753979
100
AcDbArc
 50
119.4990501565
 51
181.708140753
  0
SPLINE
  5
27A
330
1F
100
AcDbEntity
  8
0
  6
Continuous
 62
     7
370
    25
100
AcDbSpline
210
0.0
220
0.0
230
1.0
 70
     8
 71
     3
 72
     8
 73
     4
 74
     0
 42
0.00000001
 43
0.00000001
 40
0.0
 40
0.0
 40
0.0
 40
0.0
 40
0.000105507294285
 40
0.000105507294285
 40
0.000105507294285
 40
0.000105507294285
 10
49.66810814904647
 20
228.3781403542633
 30
0.0
 10
49.65880072164462
 20
228.3817301852244
 30
0.0
 10
49.6494840598779
 20
228.3854607936662
 30
0.0
 10
49.64015207400489
 20
228.3893446166812
 30
0.0
  0
SPLINE
  5
27B
330
1F
100
AcDbEntity
  8
0
  6
Continuous
 62
     7
370
    25
100
AcDbSpline
210
0.0
220
0.0
230
1.0
 70
     8
 71
     3
 72
    14
 73
    10
 74
     0
 42
0.00000001
 43
0.00000001
 40
0.0
 40
0.0
 40
0.0
 40
0.0
 40
0.2500000000000001
 40
0.2500000000000001
 40
0.5000000000000002
 40
0.5000000000000002
 40
0.7500000000000001
 40
0.7500000000000001
 40
1.0
 40
1.0
 40
1.0
 40
1.0
 10
49.66810814904647
 20
228.3781403542633
 30
0.0
 10
49.82899585736778
 20
228.3160867220773
 30
0.0
 10
49.9981709680869
 20
228.2975622588044
 30
0.0
 10
50.37175143252804
 20
228.2926195426033
 30
0.0
 10
50.57565725034871
 20
228.3080811464004
 30
0.0
 10
51.02276658005768
 20
228.3557455520273
 30
0.0
 10
51.26522065016816
 20
228.3881842923491
 30
0.0
 10
51.79065718450208
 20
228.4601605016196
 30
0.0
 10
52.07474345101524
 20
228.4999760454565
 30
0.0
 10
52.37672851245735
 20
228.5395039645002
 30
0.0
  0
ARC
  5
27C
330
1F
100
AcDbEntity
  8
0
  6
Continuous
 62
     7
370
    25
100
AcDbCircle
 10
49.2910555448
 20
229.307518344
 30
0.0
 40
1.00295170081898
100
AcDbArc
 50
292.082603857
 51
358.7373006436
  0
SPLINE
  5
27D
330
1F
100
AcDbEntity
  8
0
  6
Continuous
 62
     7
370
    25
100
AcDbSpline
210
0.0
220
0.0
230
1.0
 70
     8
 71
     3
 72
     8
 73
     4
 74
     0
 42
0.00000001
 43
0.00000001
 40
0.0
 40
0.0
 40
0.0
 40
0.0
 40
0.0002416894103822
 40
0.0002416894103822
 40
0.0002416894103822
 40
0.0002416894103822
 10
82.88100640194853
 20
228.418287208378
 30
0.0
 10
82.8629192127192
 20
228.40912404753
 30
0.0
 10
82.84459835066997
 20
228.3994848348161
 30
0.0
 10
82.82611787201184
 20
228.3893446166815
 30
0.0
  0
ARC
  5
27E
330
1F
100
AcDbEntity
  8
0
  6
Continuous
 62
     7
370
    25
100
AcDbCircle
 10
82.080220234
 20
226.8475854066
 30
0.0
 40
1.763054915954368
100
AcDbArc
 50
358.1121270215
 51
62.9862857032
  0
ARC
  5
27F
330
1F
100
AcDbEntity
  8
0
  6
Continuous
 62
     7
370
    25
100
AcDbCircle
 10
50.386049712
 20
226.8475854066
 30
0.0
 40
1.76305491595432
100
AcDbArc
 50
117.0137142968
 51
181.8878729785
  0
SPLINE
  5
280
330
1F
100
AcDbEntity
  8
0
  6
Continuous
 62
     7
370
    25
100
AcDbSpline
210
0.0
220
0.0
230
1.0
 70
     8
 71
     3
 72
     8
 73
     4
 74
     0
 42
0.00000001
 43
0.00000001
 40
0.0000000000000002
 40
0.0000000000000002
 40
0.0000000000000002
 40
0.0000000000000002
 40
0.0002416894103823
 40
0.0002416894103823
 40
0.0002416894103823
 40
0.0002416894103823
 10
49.64015207400488
 20
228.3893446166812
 30
0.0
 10
49.62167159534673
 20
228.3994848348159
 30
0.0
 10
49.60335073329758
 20
228.4091240475302
 30
0.0
 10
49.58526354406825
 20
228.4182872083782
 30
0.0
  0
LINE
  5
281
330
1F
100
AcDbEntity
  8
0
  6
Continuous
 62
     7
370
    25
100
AcDbLine
 10
50.1394962193
 20
214.2895039645
 30
0.0
 11
49.9720279741
 21
214.2895039645
 31
0.0
  0
LINE
  5
282
330
1F
100
AcDbEntity
  8
0
  6
Continuous
 62
     7
370
    25
100
AcDbLine
 10
82.4942419719
 20
214.2895039645
 30
0.0
 11
82.3267737267
 21
214.2895039645
 31
0.0
  0
ARC
  5
283
330
1F
100
AcDbEntity
  8
0
  6
Continuous
 62
     7
370
    25
100
AcDbCircle
 10
49.2837418316
 20
229.3257826306
 30
0.0
 40
1.001970266457703
100
AcDbArc
 50
290.8369281334
 51
359.7643533258
  0
ARC
  5
284
330
1F
100
AcDbEntity
  8
0
  6
Continuous
 62
     7
370
    25
100
AcDbCircle
 10
83.1825281144
 20
229.3257826306
 30
0.0
 40
1.00197026645776
100
AcDbArc
 50
180.2356466742
 51
249.1630718666
  0
ARC
  5
285
330
1F
100
AcDbEntity
  8
0
  6
Continuous
 62
     7
370
    25
100
AcDbCircle
 10
49.2640487107
 20
229.3667092387
 30
0.0
 40
1.001340759618104
100
AcDbArc
 50
288.7103891537
 51
2.6281302339
  0
ARC
  5
286
330
1F
100
AcDbEntity
  8
0
  6
Continuous
 62
     7
370
    25
100
AcDbCircle
 10
83.2022212353
 20
229.3667092387
 30
0.0
 40
1.001340759618104
100
AcDbArc
 50
177.3718697661
 51
251.2896108463
  0
SPLINE
  5
287
330
1F
100
AcDbEntity
  8
0
  6
Continuous
 62
     8
370
    25
100
AcDbSpline
210
0.0
220
0.0
230
1.0
 70
     8
 71
     3
 72
     9
 73
     5
 74
     0
 42
0.00000001
 43
0.00000001
 40
0.0
 40
0.0
 40
0.0
 40
0.0
 40
0.2780683590129193
 40
1.0
 40
1.0
 40
1.0
 40
1.0
 10
80.4739764537365
 20
167.8706136981627
 30
0.0
 10
80.48298471750941
 20
167.9832502646385
 30
0.0
 10
80.51538057802686
 20
168.3883181654801
 30
0.0
 10
80.52412410790097
 20
168.5205621953324
 30
0.0
 10
80.530436338771
 20
168.6160333448144
 30
0.0
  0
LINE
  5
288
330
1F
100
AcDbEntity
  8
0
  6
Continuous
 62
     8
370
    25
100
AcDbLine
 10
51.9358336072
 20
168.6160333448
 30
0.0
 11
51.9559438504
 21
168.3403369458
 31
0.0
  0
SPLINE
  5
289
330
1F
100
AcDbEntity
  8
0
  6
Continuous
 62
     8
370
    25
100
AcDbSpline
210
0.0
220
0.0
230
1.0
 70
     8
 71
     3
 72
     9
 73
     5
 74
     0
 42
0.00000001
 43
0.00000001
 40
0.0
 40
0.0
 40
0.0
 40
0.0
 40
0.2522116401270655
 40
1.0
 40
1.0
 40
1.0
 40
1.0
 10
80.47258134405233
 20
170.3523022164933
 30
0.0
 10
80.48508691938827
 20
170.6662232118627
 30
0.0
 10
80.53467057591432
 20
171.9108961191529
 30
0.0
 10
80.44424159531519
 20
173.1545660854296
 30
0.0
 10
80.37661985622799
 20
174.0845680097348
 30
0.0
  0
LINE
  5
28A
330
1F
100
AcDbEntity
  8
0
  6
Continuous
 62
     8
370
    25
100
AcDbLine
 10
80.2584422409
 20
165.4969097661
 30
0.0
 11
80.3793946534
 21
165.493427689
 31
0.0
  0
LINE
  5
28B
330
1F
100
AcDbEntity
  8
0
  6
Continuous
 62
     8
370
    25
100
AcDbLine
 10
52.1272083636
 20
166.3067747571
 30
0.0
 11
51.7912390754
 21
166.316446916
 31
0.0
  0
LINE
  5
28C
330
1F
100
AcDbEntity
  8
0
  6
Continuous
 62
     8
370
    25
100
AcDbLine
 10
80.0608853244
 20
163.5808753135
 30
0.0
 11
80.3241163651
 21
163.5732972028
 31
0.0
  0
LINE
  5
28D
330
1F
100
AcDbEntity
  8
0
  6
Continuous
 62
     8
370
    25
100
AcDbLine
 10
80.049665139
 20
163.4641346134
 30
0.0
 11
80.2627488696
 21
163.3473044149
 31
0.0
  0
LINE
  5
28E
330
1F
100
AcDbEntity
  8
0
  6
Continuous
 62
     8
370
    25
100
AcDbLine
 10
149.9985835268
 20
169.8169659362
 30
0.0
 11
149.7773407028
 21
169.8169659362
 31
0.0
  0
LINE
  5
28F
330
1F
100
AcDbEntity
  8
0
  6
Continuous
 62
     8
370
    25
100
AcDbLine
 10
149.87567166
 20
172.5027369267
 30
0.0
 11
149.9985835268
 21
172.5027369267
 31
0.0
  0
LINE
  5
290
330
1F
100
AcDbEntity
  8
0
  6
Continuous
 62
     8
370
    25
100
AcDbLine
 10
149.9985835268
 20
170.2101061291
 30
0.0
 11
149.7776470531
 21
170.2101061291
 31
0.0
  0
LINE
  5
291
330
1F
100
AcDbEntity
  8
0
  6
Continuous
 62
     8
370
    25
100
AcDbLine
 10
149.043066977
 20
165.1143863304
 30
0.0
 11
149.043066977
 21
176.9646317357
 31
0.0
  0
LINE
  5
292
330
1F
100
AcDbEntity
  8
0
  6
Continuous
 62
     8
370
    25
100
AcDbLine
 10
142.5711789302
 20
163.091050031
 30
0.0
 11
142.5711789302
 21
162.0638459203
 31
0.0
  0
LINE
  5
293
330
1F
100
AcDbEntity
  8
0
  6
Continuous
 62
     8
370
    25
100
AcDbLine
 10
141.6377587163
 20
180.0314549192
 30
0.0
 11
141.6377587163
 21
179.3733581955
 31
0.0
  0
LINE
  5
294
330
1F
100
AcDbEntity
  8
0
  6
Continuous
 62
     8
370
    25
100
AcDbLine
 10
146.9418611762
 20
162.1401364627
 30
0.0
 11
146.9418611762
 21
179.9388714663
 31
0.0
  0
SPLINE
  5
295
330
1F
100
AcDbEntity
  8
0
  6
Continuous
 62
     8
370
    25
100
AcDbSpline
210
0.0
220
0.0
230
1.0
 70
     8
 71
     3
 72
    10
 73
     6
 74
     0
 42
0.00000001
 43
0.00000001
 40
0.0
 40
0.0
 40
0.0
 40
0.0
 40
0.3171244509618416
 40
0.9723439498779352
 40
1.0
 40
1.0
 40
1.0
 40
1.0
 10
142.5265725969745
 20
163.0902830504563
 30
0.0
 10
142.3365415946775
 20
162.8809268215652
 30
0.0
 10
141.7538823427263
 20
162.2390139639657
 30
0.0
 10
141.1235265009469
 20
161.7214033317095
 30
0.0
 10
140.7752680586619
 20
161.542701640413
 30
0.0
 10
140.7611638006477
 20
161.5354643291074
 30
0.0
  0
ARC
  5
296
330
1F
100
AcDbEntity
  8
0
  6
Continuous
 62
     8
370
    25
100
AcDbCircle
 10
137.2219721515
 20
160.9942347425
 30
0.0
 40
1.921431452216817
100
AcDbArc
 50
268.5803612231
 51
338.6698754841
  0
SPLINE
  5
297
330
1F
100
AcDbEntity
  8
0
  6
Continuous
 62
     8
370
    25
100
AcDbSpline
210
0.0
220
0.0
230
1.0
 70
     8
 71
     3
 72
    11
 73
     7
 74
     0
 42
0.00000001
 43
0.00000001
 40
0.0
 40
0.0
 40
0.0
 40
0.0
 40
0.1869850297061659
 40
0.8392317873888431
 40
0.8428766719154442
 40
1.0
 40
1.0
 40
1.0
 40
1.0
 10
140.4850763612783
 20
180.2953515727442
 30
0.0
 10
140.5504535806232
 20
180.2692670280719
 30
0.0
 10
140.8438815664445
 20
180.1521935966696
 30
0.0
 10
141.1732394411326
 20
179.8437467596427
 30
0.0
 10
141.4836128846349
 20
179.5132760640577
 30
0.0
 10
141.5451159191917
 20
179.4428257676448
 30
0.0
 10
141.6052245769911
 20
179.3739726973945
 30
0.0
  0
ARC
  5
298
330
1F
100
AcDbEntity
  8
0
  6
Continuous
 62
     8
370
    25
100
AcDbCircle
 10
137.0906328327
 20
180.3589877823
 30
0.0
 40
2.003363817717053
100
AcDbArc
 50
30.7210313966
 51
89.2161425116
  0
LINE
  5
299
330
1F
100
AcDbEntity
  8
0
  6
Continuous
 62
     8
370
    25
100
AcDbLine
 10
137.1180397859
 20
158.7391764824
 30
0.0
 11
137.1180397859
 21
158.7937506201
 31
0.0
  0
LINE
  5
29A
330
1F
100
AcDbEntity
  8
0
  6
Continuous
 62
     8
370
    25
100
AcDbLine
 10
133.0918611762
 20
159.0047921875
 30
0.0
 11
133.0918611762
 21
158.6688992734
 31
0.0
  0
ARC
  5
29B
330
1F
100
AcDbEntity
  8
0
  6
Continuous
 62
     8
370
    25
100
AcDbCircle
 10
137.0867562224
 20
160.7923894271
 30
0.0
 40
1.998883623972054
100
AcDbArc
 50
270.8967452204
 51
341.4056637709
  0
ARC
  5
29C
330
1F
100
AcDbEntity
  8
0
  6
Continuous
 62
     8
370
    25
100
AcDbCircle
 10
137.0903981024
 20
180.3962822124
 30
0.0
 40
2.002811216399021
100
AcDbArc
 50
29.9205079041
 51
89.2092104973
  0
LINE
  5
29D
330
1F
100
AcDbEntity
  8
0
  6
Continuous
 62
     8
370
    25
100
AcDbLine
 10
137.1180397859
 20
182.3989026722
 30
0.0
 11
137.1180397859
 21
182.5349241758
 31
0.0
  0
LINE
  5
29E
330
1F
100
AcDbEntity
  8
0
  6
Continuous
 62
     8
370
    25
100
AcDbLine
 10
133.0918611762
 20
182.6052013849
 30
0.0
 11
133.0918611762
 21
182.4681093778
 31
0.0
  0
SPLINE
  5
29F
330
1F
100
AcDbEntity
  8
0
  6
Continuous
 62
     8
370
    25
100
AcDbSpline
210
0.0
220
0.0
230
1.0
 70
     8
 71
     3
 72
    13
 73
     9
 74
     0
 42
0.00000001
 43
0.00000001
 40
0.0
 40
0.0
 40
0.0
 40
0.0
 40
0.0152007900023211
 40
0.2973970447942887
 40
0.5788620365213568
 40
0.7662533002929893
 40
0.9531227252112225
 40
1.0
 40
1.0
 40
1.0
 40
1.0
 10
76.46926508514528
 20
183.0917856833636
 30
0.0
 10
76.4421550967279
 20
183.1121878697632
 30
0.0
 10
75.9117596081709
 20
183.5113480411527
 30
0.0
 10
74.76091044725352
 20
184.283645070442
 30
0.0
 10
72.91911824350062
 20
185.2131664634507
 30
0.0
 10
71.00286734431894
 20
185.8817637339721
 30
0.0
 10
69.6283944387514
 20
186.2370003020162
 30
0.0
 10
68.79302026555536
 20
186.3420872430682
 30
0.0
 10
68.62548821176617
 20
186.3631621477345
 30
0.0
  0
SPLINE
  5
2A0
330
1F
100
AcDbEntity
  8
0
  6
Continuous
 62
     8
370
    25
100
AcDbSpline
210
0.0
220
0.0
230
1.0
 70
     8
 71
     3
 72
    16
 73
    12
 74
     0
 42
0.00000001
 43
0.00000001
 40
0.0
 40
0.0
 40
0.0
 40
0.0
 40
0.0391906872857515
 40
0.1300762792745719
 40
0.2211613950308064
 40
0.2469313450704899
 40
0.3925312355066449
 40
0.5385169370843923
 40
0.7463125380429053
 40
0.9542914471790328
 40
1.0
 40
1.0
 40
1.0
 40
1.0
 10
64.70307659283756
 20
186.4628763780593
 30
0.0
 10
64.44368382481565
 20
186.4409080916142
 30
0.0
 10
63.58274342106596
 20
186.3679940102158
 30
0.0
 10
62.21670931194991
 20
186.0818506661933
 30
0.0
 10
61.04583058972385
 20
185.7386612184839
 30
0.0
 10
59.67670314206988
 20
185.2423542782743
 30
0.0
 10
58.19375661598907
 20
184.556052475976
 30
0.0
 10
56.28590933852664
 20
183.3654682063946
 30
0.0
 10
54.59696640925187
 20
181.9770925213227
 30
0.0
 10
53.57261251285689
 20
180.904168849348
 30
0.0
 10
53.12502584448026
 20
180.3914714306223
 30
0.0
 10
53.04438118543553
 20
180.2990953357841
 30
0.0
  0
SPLINE
  5
2A1
330
1F
100
AcDbEntity
  8
0
  6
Continuous
 62
     8
370
    25
100
AcDbSpline
210
0.0
220
0.0
230
1.0
 70
     8
 71
     3
 72
    16
 73
    12
 74
     0
 42
0.00000001
 43
0.00000001
 40
0.0
 40
0.0
 40
0.0
 40
0.0
 40
0.0663068964987078
 40
0.2413866713684659
 40
0.3593795599302275
 40
0.4772588002516649
 40
0.5677781787781944
 40
0.7062444468636909
 40
0.8449082106766908
 40
0.9190066172918742
 40
1.0
 40
1.0
 40
1.0
 40
1.0
 10
80.35536839783086
 20
164.6588586889711
 30
0.0
 10
80.45127637846117
 20
164.8713236737811
 30
0.0
 10
80.800424196026
 20
165.6447909626121
 30
0.0
 10
81.19029031722025
 20
167.0064598744235
 30
0.0
 10
81.51072421188616
 20
168.6617641459166
 30
0.0
 10
81.64880609612784
 20
170.0507587542595
 30
0.0
 10
81.67483017098722
 20
171.5493047560559
 30
0.0
 10
81.55793483879701
 20
173.1313378878229
 30
0.0
 10
81.2947364069491
 20
174.5576371384905
 30
0.0
 10
81.011393244705
 20
175.6960640500797
 30
0.0
 10
80.80436068696436
 20
176.2237722275563
 30
0.0
 10
80.6962423445602
 20
176.4993565803004
 30
0.0
  0
SPLINE
  5
2A2
330
1F
100
AcDbEntity
  8
0
  6
Continuous
 62
     8
370
    25
100
AcDbSpline
210
0.0
220
0.0
230
1.0
 70
     8
 71
     3
 72
     9
 73
     5
 74
     0
 42
0.00000001
 43
0.00000001
 40
0.0
 40
0.0
 40
0.0
 40
0.0
 40
0.444708936483921
 40
1.0
 40
1.0
 40
1.0
 40
1.0
 10
79.02992661339043
 20
179.9500312067589
 30
0.0
 10
78.672459601605
 20
180.4909452406531
 30
0.0
 10
77.86863718550575
 20
181.7072779686864
 30
0.0
 10
76.96888785035759
 20
182.5974700022902
 30
0.0
 10
76.46926508514528
 20
183.0917856833636
 30
0.0
  0
ARC
  5
2A3
330
1F
100
AcDbEntity
  8
0
  6
Continuous
 62
     8
370
    25
100
AcDbCircle
 10
66.233134973
 20
171.0395039645
 30
0.0
 40
16.11469077681541
100
AcDbArc
 50
144.927984031
 51
211.2663887328
  0
SPLINE
  5
2A4
330
1F
100
AcDbEntity
  8
0
  6
Continuous
 62
     8
370
    25
100
AcDbSpline
210
0.0
220
0.0
230
1.0
 70
     8
 71
     3
 72
    23
 73
    19
 74
     0
 42
0.00000001
 43
0.00000001
 40
0.0
 40
0.0
 40
0.0
 40
0.0
 40
0.0879727260054875
 40
0.1758191010434064
 40
0.2449212836252638
 40
0.3138303361264448
 40
0.3579071321567034
 40
0.4019269168686552
 40
0.4348753601851989
 40
0.4741202422523696
 40
0.5133848330652189
 40
0.5473822071668731
 40
0.607479337626691
 40
0.6677219125303134
 40
0.7602233056651942
 40
0.8529424453085406
 40
0.9478635595914935
 40
1.0
 40
1.0
 40
1.0
 40
1.0
 10
82.72733700571831
 20
183.0415964537468
 30
0.0
 10
83.55720642608242
 20
182.5433874021
 30
0.0
 10
85.21575336553646
 20
181.5476848523487
 30
0.0
 10
87.34149024523566
 20
179.7563416173319
 30
0.0
 10
89.08521050337998
 20
177.8007697910896
 30
0.0
 10
90.24700430300423
 20
175.9550225002837
 30
0.0
 10
90.97484487382835
 20
174.1780372734511
 30
0.0
 10
91.33333704612572
 20
172.7142832270107
 30
0.0
 10
91.47067823451762
 20
171.264461991513
 30
0.0
 10
91.40541369312305
 20
169.8650537573443
 30
0.0
 10
91.137465680468
 20
168.4865189709048
 30
0.0
 10
90.61454271869272
 20
166.9304354715317
 30
0.0
 10
89.75373926095983
 20
165.2691837878743
 30
0.0
 10
88.25758283958316
 20
163.2576327364261
 30
0.0
 10
86.2237740764497
 20
161.3038370060762
 30
0.0
 10
83.66238638837034
 20
159.5238679546834
 30
0.0
 10
81.35757772874341
 20
158.2540637278692
 30
0.0
 10
79.90193972499142
 20
157.6779566609957
 30
0.0
 10
79.38587114083603
 20
157.4737089307517
 30
0.0
  0
LINE
  5
2A5
330
1F
100
AcDbEntity
  8
0
  6
Continuous
 62
     8
370
    25
100
AcDbLine
 10
91.2509154371
 20
234.9029461245
 30
0.0
 11
41.215354509
 21
234.9029461245
 31
0.0
  0
LINE
  5
2A6
330
1F
100
AcDbEntity
  8
0
  6
Continuous
 62
     8
370
    25
100
AcDbLine
 10
40.933134973
 20
235.3530257502
 30
0.0
 11
91.533134973
 21
235.3530257502
 31
0.0
  0
LINE
  5
2A7
330
1F
100
AcDbEntity
  8
0
  6
Continuous
 62
     8
370
    25
100
AcDbLine
 10
91.533134973
 20
238.5395039645
 30
0.0
 11
40.933134973
 21
238.5395039645
 31
0.0
  0
LINE
  5
2A8
330
1F
100
AcDbEntity
  8
0
  6
Continuous
 62
     8
370
    25
100
AcDbLine
 10
49.1042568292
 20
231.0857353244
 30
0.0
 11
83.3620131168
 21
231.0857353244
 31
0.0
  0
SPLINE
  5
2A9
330
1F
100
AcDbEntity
  8
0
  6
Continuous
 62
     8
370
    25
100
AcDbSpline
210
0.0
220
0.0
230
1.0
 70
     8
 71
     3
 72
    10
 73
     6
 74
     0
 42
0.00000001
 43
0.00000001
 40
0.0
 40
0.0
 40
0.0
 40
0.0
 40
0.0002232032184865
 40
0.8869493576120391
 40
1.0
 40
1.0
 40
1.0
 40
1.0
 10
50.21058301652025
 20
229.5849559572075
 30
0.0
 10
50.2105790074561
 20
229.5849688097715
 30
0.0
 10
50.19464806835538
 20
229.6360414309033
 30
0.0
 10
50.23155129034818
 20
229.5400992620477
 30
0.0
 10
50.26100565910142
 20
229.4255741837748
 30
0.0
 10
50.26433623780599
 20
229.4126241596195
 30
0.0
  0
LINE
  5
2AA
330
1F
100
AcDbEntity
  8
0
  6
Continuous
 62
     8
370
    25
100
AcDbLine
 10
82.2019337082
 20
229.4126241596
 30
0.0
 11
82.2556873061
 21
229.5849571647
 31
0.0
  0
SPLINE
  5
2AB
330
1F
100
AcDbEntity
  8
0
  6
Continuous
 62
     8
370
    25
100
AcDbSpline
210
0.0
220
0.0
230
1.0
 70
     8
 71
     3
 72
    15
 73
    11
 74
     0
 42
0.00000001
 43
0.00000001
 40
0.0
 40
0.0
 40
0.0
 40
0.0
 40
0.0624115434458107
 40
0.1698010418150066
 40
0.2806314019261877
 40
0.3473111430067065
 40
0.5030505440632206
 40
0.6630141744786833
 40
0.8305089040856821
 40
1.0
 40
1.0
 40
1.0
 40
1.0
 10
89.61005369948347
 20
186.5464618558621
 30
0.0
 10
89.60443448107704
 20
186.543483482114
 30
0.0
 10
89.5891464576295
 20
186.5353803182212
 30
0.0
 10
89.35337109929897
 20
186.4104910859062
 30
0.0
 10
88.9420649320067
 20
186.1933306547043
 30
0.0
 10
88.3107929782492
 20
185.8615681411619
 30
0.0
 10
87.40596723755236
 20
185.3888129298554
 30
0.0
 10
86.03820282918583
 20
184.684708288315
 30
0.0
 10
84.47265572774855
 20
183.8920365480967
 30
0.0
 10
83.31140307150899
 20
183.3261938707273
 30
0.0
 10
82.72733700571831
 20
183.0415964537468
 30
0.0
  0
LINE
  5
2AC
330
1F
100
AcDbEntity
  8
0
  6
Continuous
 62
     8
370
    25
100
AcDbLine
 10
95.233134973
 20
178.2682327284
 30
0.0
 11
95.3886587387
 21
178.1335458563
 31
0.0
  0
LINE
  5
2AD
330
1F
100
AcDbEntity
  8
0
  6
Continuous
 62
     8
370
    25
100
AcDbLine
 10
52.9130520697
 20
184.8830895335
 30
0.0
 11
53.1618645717
 21
184.8830895335
 31
0.0
  0
SPLINE
  5
2AE
330
1F
100
AcDbEntity
  8
0
  6
Continuous
 62
     8
370
    25
100
AcDbSpline
210
0.0
220
0.0
230
1.0
 70
     8
 71
     3
 72
    15
 73
    11
 74
     0
 42
0.00000001
 43
0.00000001
 40
0.0
 40
0.0
 40
0.0
 40
0.0
 40
0.1644139180696374
 40
0.3304471621727873
 40
0.4870562075276881
 40
0.6471569325981759
 40
0.7534602929892816
 40
0.8622152200720131
 40
0.9364752865763735
 40
1.0
 40
1.0
 40
1.0
 40
1.0
 10
75.81783161004937
 20
190.9379333270394
 30
0.0
 10
76.15638041500411
 20
191.4104236255178
 30
0.0
 10
76.83681241959206
 20
192.3600578178019
 30
0.0
 10
77.7379435981574
 20
193.6655728819755
 30
0.0
 10
78.53536738738649
 20
194.8389184913745
 30
0.0
 10
79.11578683087441
 20
195.7053431219834
 30
0.0
 10
79.50891622943473
 20
196.2962488004392
 30
0.0
 10
79.71265748270403
 20
196.6038129335875
 30
0.0
 10
79.8178478515198
 20
196.7628994227935
 30
0.0
 10
79.81581441283508
 20
196.7598274690943
 30
0.0
 10
79.81487691008783
 20
196.7584111662306
 30
0.0
  0
LINE
  5
2AF
330
1F
100
AcDbEntity
  8
0
  6
Continuous
 62
     8
370
    25
100
AcDbLine
 10
52.5648772823
 20
213.3126191739
 30
0.0
 11
52.2557219046
 21
213.3126191739
 31
0.0
  0
LINE
  5
2B0
330
1F
100
AcDbEntity
  8
0
  6
Continuous
 62
     8
370
    25
100
AcDbLine
 10
80.2105480414
 20
213.3126191739
 30
0.0
 11
79.9013926637
 21
213.3126191739
 31
0.0
  0
ARC
  5
2B1
330
1F
100
AcDbEntity
  8
0
  6
Continuous
 62
     8
370
    25
100
AcDbCircle
 10
66.233134973
 20
171.0395039645
 30
0.0
 40
16.76373439777597
100
AcDbArc
 50
149.2515511975
 51
215.9425125352
  0
LINE
  5
2B2
330
1F
100
AcDbEntity
  8
0
  6
Continuous
 62
     8
370
    25
100
AcDbLine
 10
51.8260421042
 20
179.6102954116
 30
0.0
 11
51.5518021326
 21
179.6102954116
 31
0.0
  0
LINE
  5
2B3
330
1F
100
AcDbEntity
  8
0
  6
Continuous
 62
     8
370
    25
100
AcDbLine
 10
48.6239517627
 20
226.7895039645
 30
0.0
 11
48.2220279741
 21
226.7895039645
 31
0.0
  0
LINE
  5
2B4
330
1F
100
AcDbEntity
  8
0
  6
Continuous
 62
     8
370
    25
100
AcDbLine
 10
48.2220279741
 20
216.0395039645
 30
0.0
 11
48.6239517627
 21
216.0395039645
 31
0.0
  0
LINE
  5
2B5
330
1F
100
AcDbEntity
  8
0
  6
Continuous
 62
     8
370
    25
100
AcDbLine
 10
83.8423181833
 20
216.0395039645
 30
0.0
 11
84.2442419719
 21
216.0395039645
 31
0.0
  0
LINE
  5
2B6
330
1F
100
AcDbEntity
  8
0
  6
Continuous
 62
     8
370
    25
100
AcDbLine
 10
84.2442419719
 20
226.7895039645
 30
0.0
 11
83.8423181833
 21
226.7895039645
 31
0.0
  0
SPLINE
  5
2B7
330
1F
100
AcDbEntity
  8
0
  6
Continuous
 62
     8
370
    25
100
AcDbSpline
210
0.0
220
0.0
230
1.0
 70
    24
 71
     3
 72
     9
 73
     5
 74
     0
 42
0.00000001
 43
0.00000001
 40
0.0
 40
0.0
 40
0.0
 40
0.0
 40
0.0011254209461464
 40
1.0
 40
1.0
 40
1.0
 40
1.0
 10
82.9715239571914
 20
228.4730705252984
 30
0.0
 10
82.97155802888128
 20
228.4730911462727
 30
0.0
 10
83.0018326474598
 20
228.4914140452911
 30
0.0
 10
82.9413855104671
 20
228.454830040632
 30
0.0
 10
82.88100640194853
 20
228.418287208378
 30
0.0
  0
LINE
  5
2B8
330
1F
100
AcDbEntity
  8
0
  6
Continuous
 62
     8
370
    25
100
AcDbLine
 10
49.5852635441
 20
228.4182872084
 30
0.0
 11
49.4948608284
 21
228.4730010218
 31
0.0
  0
ENDSEC
  0
SECTION
  2
OBJECTS
  0
DICTIONARY
  5
C
330
0
100
AcDbDictionary
281
     1
  3
ACAD_GROUP
350
D
  3
ACAD_LAYOUT
350
1A
  3
ACAD_MLINESTYLE
350
17
  3
ACAD_PLOTSETTINGS
350
19
  3
ACAD_PLOTSTYLENAME
350
E
  3
ACAD_SCALELIST
350
47
  3
DWGPROPS
350
2B9
  0
DICTIONARY
  5
D
102
{ACAD_REACTORS
330
C
102
}
330
C
100
AcDbDictionary
281
     1
  0
DICTIONARY
  5
1A
102
{ACAD_REACTORS
330
C
102
}
330
C
100
AcDbDictionary
281
     1
  3
Layout1
350
1E
  3
Layout2
350
26
  3
Model
350
22
  0
DICTIONARY
  5
17
102
{ACAD_REACTORS
330
C
102
}
330
C
100
AcDbDictionary
281
     1
  3
Standard
350
18
  0
DICTIONARY
  5
19
102
{ACAD_REACTORS
330
C
102
}
330
C
100
AcDbDictionary
281
     1
  0
ACDBDICTIONARYWDFLT
  5
E
102
{ACAD_REACTORS
330
C
102
}
330
C
100
AcDbDictionary
281
     1
  3
Normal
350
F
100
AcDbDictionaryWithDefault
340
F
  0
DICTIONARY
  5
47
102
{ACAD_REACTORS
330
C
102
}
330
C
100
AcDbDictionary
281
     1
  3
A0
350
48
  3
A1
350
49
  3
A2
350
4A
  3
A3
350
4B
  3
A4
350
4C
  3
A5
350
4D
  3
A6
350
4E
  3
A7
350
4F
  3
A8
350
50
  3
A9
350
51
  3
B0
350
52
  3
B1
350
53
  3
B2
350
54
  3
B3
350
55
  3
B4
350
56
  3
B5
350
57
  3
B6
350
58
  3
B7
350
59
  3
B8
350
5A
  3
B9
350
5B
  3
C0
350
5C
  3
C1
350
5D
  3
C2
350
5E
  3
C3
350
5F
  3
C4
350
60
  3
C5
350
61
  3
C6
350
62
  3
C7
350
63
  3
C8
350
64
  3
C9
350
65
  3
D0
350
66
  3
D1
350
67
  3
D2
350
68
  0
XRECORD
  5
2B9
102
{ACAD_REACTORS
330
C
102
}
330
C
100
AcDbXrecord
280
     1
  1
DWGPROPS COOKIE
  2

  3

  4

  6

  7

  8
vishesh
  9

300
=
301
=
302
=
303
=
304
=
305
=
306
=
307
=
308
=
309
=
 40
0.0
 41
2460383.49642265
 42
2460383.496422998
  1

 90
        0
  0
LAYOUT
  5
1E
102
{ACAD_REACTORS
330
1A
102
}
330
1A
100
AcDbPlotSettings
  1

  2
none_device
  4

  6

 40
0.0
 41
0.0
 42
0.0
 43
0.0
 44
0.0
 45
0.0
 46
0.0
 47
0.0
 48
0.0
 49
0.0
140
0.0
141
0.0
142
1.0
143
1.0
 70
   688
 72
     1
 73
     0
 74
     5
  7

 75
    16
147
1.0
148
0.0
149
0.0
100
AcDbLayout
  1
Layout1
 70
     1
 71
     1
 10
0.0
 20
0.0
 11
420.0
 21
297.0
 12
0.0
 22
0.0
 32
0.0
 14
1.0000000000E+20
 24
1.0000000000E+20
 34
1.0000000000E+20
 15
-1.0000000000E+20
 25
-1.0000000000E+20
 35
-1.0000000000E+20
146
0.0
 13
0.0
 23
0.0
 33
0.0
 16
1.0
 26
0.0
 36
0.0
 17
0.0
 27
1.0
 37
0.0
 76
     0
330
1B
  0
LAYOUT
  5
26
102
{ACAD_REACTORS
330
1A
102
}
330
1A
100
AcDbPlotSettings
  1

  2
none_device
  4

  6

 40
0.0
 41
0.0
 42
0.0
 43
0.0
 44
0.0
 45
0.0
 46
0.0
 47
0.0
 48
0.0
 49
0.0
140
0.0
141
0.0
142
1.0
143
1.0
 70
   688
 72
     1
 73
     0
 74
     5
  7

 75
    16
147
1.0
148
0.0
149
0.0
100
AcDbLayout
  1
Layout2
 70
     1
 71
     2
 10
0.0
 20
0.0
 11
0.0
 21
0.0
 12
0.0
 22
0.0
 32
0.0
 14
0.0
 24
0.0
 34
0.0
 15
0.0
 25
0.0
 35
0.0
146
0.0
 13
0.0
 23
0.0
 33
0.0
 16
1.0
 26
0.0
 36
0.0
 17
0.0
 27
1.0
 37
0.0
 76
     0
330
23
  0
LAYOUT
  5
22
102
{ACAD_REACTORS
330
1A
102
}
330
1A
100
AcDbPlotSettings
  1

  2
none_device
  4
Letter_(8.50_x_11.00_Inches)
  6

 40
6.35
 41
6.35
 42
6.35000508
 43
6.35000508
 44
215.9
 45
279.4
 46
0.0
 47
0.0
 48
0.0
 49
0.0
140
0.0
141
0.0
142
1.0
143
1.0
 70
  1712
 72
     1
 73
     0
 74
     0
  7

 75
     0
147
1.0
148
0.0
149
0.0
100
AcDbLayout
  1
Model
 70
     1
 71
     0
 10
0.0
 20
0.0
 11
279.4
 21
215.9
 12
0.0
 22
0.0
 32
0.0
 14
0.0
 24
0.0
 34
0.0
 15
279.4
 25
215.9
 35
0.0
146
0.0
 13
0.0
 23
0.0
 33
0.0
 16
1.0
 26
0.0
 36
0.0
 17
0.0
 27
1.0
 37
0.0
 76
     0
330
1F
331
29
  0
MLINESTYLE
  5
18
102
{ACAD_REACTORS
330
17
102
}
330
17
100
AcDbMlineStyle
  2
Standard
 70
     0
  3

 62
   256
 51
90.0
 52
90.0
 71
     2
 49
0.5
 62
   256
  6
BYLAYER
 49
-0.5
 62
   256
  6
BYLAYER
  0
ACDBPLACEHOLDER
  5
F
102
{ACAD_REACTORS
330
E
102
}
330
E
  0
SCALE
  5
48
102
{ACAD_REACTORS
330
47
102
}
330
47
100
AcDbScale
 70
     0
300
1:1
140
1.0
141
1.0
290
     1
  0
SCALE
  5
49
102
{ACAD_REACTORS
330
47
102
}
330
47
100
AcDbScale
 70
     0
300
1:2
140
1.0
141
2.0
290
     0
  0
SCALE
  5
4A
102
{ACAD_REACTORS
330
47
102
}
330
47
100
AcDbScale
 70
     0
300
1:4
140
1.0
141
4.0
290
     0
  0
SCALE
  5
4B
102
{ACAD_REACTORS
330
47
102
}
330
47
100
AcDbScale
 70
     0
300
1:5
140
1.0
141
5.0
290
     0
  0
SCALE
  5
4C
102
{ACAD_REACTORS
330
47
102
}
330
47
100
AcDbScale
 70
     0
300
1:8
140
1.0
141
8.0
290
     0
  0
SCALE
  5
4D
102
{ACAD_REACTORS
330
47
102
}
330
47
100
AcDbScale
 70
     0
300
1:10
140
1.0
141
10.0
290
     0
  0
SCALE
  5
4E
102
{ACAD_REACTORS
330
47
102
}
330
47
100
AcDbScale
 70
     0
300
1:16
140
1.0
141
16.0
290
     0
  0
SCALE
  5
4F
102
{ACAD_REACTORS
330
47
102
}
330
47
100
AcDbScale
 70
     0
300
1:20
140
1.0
141
20.0
290
     0
  0
SCALE
  5
50
102
{ACAD_REACTORS
330
47
102
}
330
47
100
AcDbScale
 70
     0
300
1:30
140
1.0
141
30.0
290
     0
  0
SCALE
  5
51
102
{ACAD_REACTORS
330
47
102
}
330
47
100
AcDbScale
 70
     0
300
1:40
140
1.0
141
40.0
290
     0
  0
SCALE
  5
52
102
{ACAD_REACTORS
330
47
102
}
330
47
100
AcDbScale
 70
     0
300
1:50
140
1.0
141
50.0
290
     0
  0
SCALE
  5
53
102
{ACAD_REACTORS
330
47
102
}
330
47
100
AcDbScale
 70
     0
300
1:100
140
1.0
141
100.0
290
     0
  0
SCALE
  5
54
102
{ACAD_REACTORS
330
47
102
}
330
47
100
AcDbScale
 70
     0
300
2:1
140
2.0
141
1.0
290
     0
  0
SCALE
  5
55
102
{ACAD_REACTORS
330
47
102
}
330
47
100
AcDbScale
 70
     0
300
4:1
140
4.0
141
1.0
290
     0
  0
SCALE
  5
56
102
{ACAD_REACTORS
330
47
102
}
330
47
100
AcDbScale
 70
     0
300
8:1
140
8.0
141
1.0
290
     0
  0
SCALE
  5
57
102
{ACAD_REACTORS
330
47
102
}
330
47
100
AcDbScale
 70
     0
300
10:1
140
10.0
141
1.0
290
     0
  0
SCALE
  5
58
102
{ACAD_REACTORS
330
47
102
}
330
47
100
AcDbScale
 70
     0
300
100:1
140
100.0
141
1.0
290
     0
  0
SCALE
  5
59
102
{ACAD_REACTORS
330
47
102
}
330
47
100
AcDbScale
 70
     0
300
1/128" = 1'-0"
140
0.0078125
141
12.0
290
     0
  0
SCALE
  5
5A
102
{ACAD_REACTORS
330
47
102
}
330
47
100
AcDbScale
 70
     0
300
1/64" = 1'-0"
140
0.015625
141
12.0
290
     0
  0
SCALE
  5
5B
102
{ACAD_REACTORS
330
47
102
}
330
47
100
AcDbScale
 70
     0
300
1/32" = 1'-0"
140
0.03125
141
12.0
290
     0
  0
SCALE
  5
5C
102
{ACAD_REACTORS
330
47
102
}
330
47
100
AcDbScale
 70
     0
300
1/16" = 1'-0"
140
0.0625
141
12.0
290
     0
  0
SCALE
  5
5D
102
{ACAD_REACTORS
330
47
102
}
330
47
100
AcDbScale
 70
     0
300
3/32" = 1'-0"
140
0.09375
141
12.0
290
     0
  0
SCALE
  5
5E
102
{ACAD_REACTORS
330
47
102
}
330
47
100
AcDbScale
 70
     0
300
1/8" = 1'-0"
140
0.125
141
12.0
290
     0
  0
SCALE
  5
5F
102
{ACAD_REACTORS
330
47
102
}
330
47
100
AcDbScale
 70
     0
300
3/16" = 1'-0"
140
0.1875
141
12.0
290
     0
  0
SCALE
  5
60
102
{ACAD_REACTORS
330
47
102
}
330
47
100
AcDbScale
 70
     0
300
1/4" = 1'-0"
140
0.25
141
12.0
290
     0
  0
SCALE
  5
61
102
{ACAD_REACTORS
330
47
102
}
330
47
100
AcDbScale
 70
     0
300
3/8" = 1'-0"
140
0.375
141
12.0
290
     0
  0
SCALE
  5
62
102
{ACAD_REACTORS
330
47
102
}
330
47
100
AcDbScale
 70
     0
300
1/2" = 1'-0"
140
0.5
141
12.0
290
     0
  0
SCALE
  5
63
102
{ACAD_REACTORS
330
47
102
}
330
47
100
AcDbScale
 70
     0
300
3/4" = 1'-0"
140
0.75
141
12.0
290
     0
  0
SCALE
  5
64
102
{ACAD_REACTORS
330
47
102
}
330
47
100
AcDbScale
 70
     0
300
1" = 1'-0"
140
1.0
141
12.0
290
     0
  0
SCALE
  5
65
102
{ACAD_REACTORS
330
47
102
}
330
47
100
AcDbScale
 70
     0
300
1-1/2" = 1'-0"
140
1.5
141
12.0
290
     0
  0
SCALE
  5
66
102
{ACAD_REACTORS
330
47
102
}
330
47
100
AcDbScale
 70
     0
300
3" = 1'-0"
140
3.0
141
12.0
290
     0
  0
SCALE
  5
67
102
{ACAD_REACTORS
330
47
102
}
330
47
100
AcDbScale
 70
     0
300
6" = 1'-0"
140
6.0
141
12.0
290
     0
  0
SCALE
  5
68
102
{ACAD_REACTORS
330
47
102
}
330
47
100
AcDbScale
 70
     0
300
1'-0" = 1'-0"
140
12.0
141
12.0
290
     0
  0
ENDSEC
  0
EOF
