  0
SECTION
  2
HEADER
  9
$ACADVER
  1
AC1015
  9
$ACADMAINTVER
 70
     6
  9
$DWGCODEPAGE
  3
ANSI_1252
  9
$INSBASE
 10
0.0
 20
0.0
 30
0.0
  9
$EXTMIN
 10
0.0
 20
0.0
 30
0.0
  9
$EXTMAX
 10
279.4
 20
215.9
 30
0.0
  9
$LIMMIN
 10
0.0
 20
0.0
  9
$LIMMAX
 10
279.4
 20
215.9
  9
$ORTHOMODE
 70
     0
  9
$REGENMODE
 70
     1
  9
$FILLMODE
 70
     1
  9
$QTEXTMODE
 70
     0
  9
$MIRRTEXT
 70
     1
  9
$LTSCALE
 40
1.0
  9
$ATTMODE
 70
     1
  9
$TEXTSIZE
 40
3.5
  9
$TRACEWID
 40
1.0
  9
$TEXTSTYLE
  7
Standard
  9
$CLAYER
  8
0
  9
$CELTYPE
  6
ByLayer
  9
$CECOLOR
 62
   256
  9
$CELTSCALE
 40
1.0
  9
$DISPSILH
 70
     0
  9
$DIMSCALE
 40
1.0
  9
$DIMASZ
 40
3.556
  9
$DIMEXO
 40
1.0
  9
$DIMDLI
 40
3.75
  9
$DIMRND
 40
0.0
  9
$DIMDLE
 40
0.0
  9
$DIMEXE
 40
1.0
  9
$DIMTP
 40
0.0
  9
$DIMTM
 40
0.0
  9
$DIMTXT
 40
3.5
  9
$DIMCEN
 40
2.5
  9
$DIMTSZ
 40
0.0
  9
$DIMTOL
 70
     0
  9
$DIMLIM
 70
     0
  9
$DIMTIH
 70
     1
  9
$DIMTOH
 70
     1
  9
$DIMSE1
 70
     0
  9
$DIMSE2
 70
     0
  9
$DIMTAD
 70
     1
  9
$DIMZIN
 70
     1
  9
$DIMBLK
  1

  9
$DIMASO
 70
     1
  9
$DIMSHO
 70
     1
  9
$DIMPOST
  1

  9
$DIMAPOST
  1

  9
$DIMALT
 70
     0
  9
$DIMALTD
 70
     3
  9
$DIMALTF
 40
0.0393700787
  9
$DIMLFAC
 40
10.0
  9
$DIMTOFL
 70
     1
  9
$DIMTVP
 40
0.0
  9
$DIMTIX
 70
     0
  9
$DIMSOXD
 70
     0
  9
$DIMSAH
 70
     0
  9
$DIMBLK1
  1

  9
$DIMBLK2
  1

  9
$DIMSTYLE
  2
ISO-25
  9
$DIMCLRD
 70
     0
  9
$DIMCLRE
 70
     0
  9
$DIMCLRT
 70
     0
  9
$DIMTFAC
 40
1.0
  9
$DIMGAP
 40
1.524
  9
$DIMJUST
 70
     0
  9
$DIMSD1
 70
     0
  9
$DIMSD2
 70
     0
  9
$DIMTOLJ
 70
     0
  9
$DIMTZIN
 70
     1
  9
$DIMALTZ
 70
     0
  9
$DIMALTTZ
 70
     0
  9
$DIMUPT
 70
     0
  9
$DIMDEC
 70
     2
  9
$DIMTDEC
 70
     2
  9
$DIMALTU
 70
     2
  9
$DIMALTTD
 70
     3
  9
$DIMTXSTY
  7
Standard
  9
$DIMAUNIT
 70
     0
  9
$DIMADEC
 70
     2
  9
$DIMALTRND
 40
0.0
  9
$DIMAZIN
 70
     0
  9
$DIMDSEP
 70
    44
  9
$DIMATFIT
 70
     3
  9
$DIMFRAC
 70
     0
  9
$DIMLDRBLK
  1

  9
$DIMLUNIT
 70
     2
  9
$DIMLWD
 70
    -2
  9
$DIMLWE
 70
    -2
  9
$DIMTMOVE
 70
     0
  9
$LUNITS
 70
     2
  9
$LUPREC
 70
     2
  9
$SKETCHINC
 40
1.0
  9
$FILLETRAD
 40
10.0
  9
$AUNITS
 70
     0
  9
$AUPREC
 70
     2
  9
$MENU
  1
.
  9
$ELEVATION
 40
0.0
  9
$PELEVATION
 40
0.0
  9
$THICKNESS
 40
0.0
  9
$LIMCHECK
 70
     0
  9
$CHAMFERA
 40
0.0
  9
$CHAMFERB
 40
0.0
  9
$CHAMFERC
 40
0.0
  9
$CHAMFERD
 40
0.0
  9
$SKPOLY
 70
     0
  9
$TDCREATE
 40
2460383.722741204
  9
$TDUCREATE
 40
2460383.493574537
  9
$TDUPDATE
 40
2460383.722741632
  9
$TDUUPDATE
 40
2460383.493574965
  9
$TDINDWG
 40
0.0000000116
  9
$TDUSRTIMER
 40
0.0000000116
  9
$USRTIMER
 70
     1
  9
$ANGBASE
 50
0.0
  9
$ANGDIR
 70
     0
  9
$PDMODE
 70
     0
  9
$PDSIZE
 40
-1.0
  9
$PLINEWID
 40
0.0
  9
$SPLFRAME
 70
     0
  9
$SPLINETYPE
 70
     6
  9
$SPLINESEGS
 70
     8
  9
$HANDSEED
  5
2E3
  9
$SURFTAB1
 70
     6
  9
$SURFTAB2
 70
     6
  9
$SURFTYPE
 70
     6
  9
$SURFU
 70
     6
  9
$SURFV
 70
     6
  9
$UCSBASE
  2

  9
$UCSNAME
  2

  9
$UCSORG
 10
0.0
 20
0.0
 30
0.0
  9
$UCSXDIR
 10
1.0
 20
0.0
 30
0.0
  9
$UCSYDIR
 10
0.0
 20
1.0
 30
0.0
  9
$UCSORTHOREF
  2

  9
$UCSORTHOVIEW
 70
     0
  9
$UCSORGTOP
 10
0.0
 20
0.0
 30
0.0
  9
$UCSORGBOTTOM
 10
0.0
 20
0.0
 30
0.0
  9
$UCSORGLEFT
 10
0.0
 20
0.0
 30
0.0
  9
$UCSORGRIGHT
 10
0.0
 20
0.0
 30
0.0
  9
$UCSORGFRONT
 10
0.0
 20
0.0
 30
0.0
  9
$UCSORGBACK
 10
0.0
 20
0.0
 30
0.0
  9
$PUCSBASE
  2

  9
$PUCSNAME
  2

  9
$PUCSORG
 10
0.0
 20
0.0
 30
0.0
  9
$PUCSXDIR
 10
1.0
 20
0.0
 30
0.0
  9
$PUCSYDIR
 10
0.0
 20
1.0
 30
0.0
  9
$PUCSORTHOREF
  2

  9
$PUCSORTHOVIEW
 70
     0
  9
$PUCSORGTOP
 10
0.0
 20
0.0
 30
0.0
  9
$PUCSORGBOTTOM
 10
0.0
 20
0.0
 30
0.0
  9
$PUCSORGLEFT
 10
0.0
 20
0.0
 30
0.0
  9
$PUCSORGRIGHT
 10
0.0
 20
0.0
 30
0.0
  9
$PUCSORGFRONT
 10
0.0
 20
0.0
 30
0.0
  9
$PUCSORGBACK
 10
0.0
 20
0.0
 30
0.0
  9
$USERI1
 70
     0
  9
$USERI2
 70
     0
  9
$USERI3
 70
     0
  9
$USERI4
 70
     0
  9
$USERI5
 70
     0
  9
$USERR1
 40
0.0
  9
$USERR2
 40
0.0
  9
$USERR3
 40
0.0
  9
$USERR4
 40
0.0
  9
$USERR5
 40
0.0
  9
$WORLDVIEW
 70
     1
  9
$SHADEDGE
 70
     3
  9
$SHADEDIF
 70
    70
  9
$TILEMODE
 70
     1
  9
$MAXACTVP
 70
    64
  9
$PINSBASE
 10
0.0
 20
0.0
 30
0.0
  9
$PLIMCHECK
 70
     0
  9
$PEXTMIN
 10
1.0000000000E+20
 20
1.0000000000E+20
 30
1.0000000000E+20
  9
$PEXTMAX
 10
-1.0000000000E+20
 20
-1.0000000000E+20
 30
-1.0000000000E+20
  9
$PLIMMIN
 10
0.0
 20
0.0
  9
$PLIMMAX
 10
420.0
 20
297.0
  9
$UNITMODE
 70
     0
  9
$VISRETAIN
 70
     1
  9
$PLINEGEN
 70
     0
  9
$PSLTSCALE
 70
     1
  9
$TREEDEPTH
 70
  3020
  9
$CMLSTYLE
  2
Standard
  9
$CMLJUST
 70
     0
  9
$CMLSCALE
 40
20.0
  9
$PROXYGRAPHICS
 70
     1
  9
$MEASUREMENT
 70
     1
  9
$CELWEIGHT
370
    -1
  9
$ENDCAPS
280
     0
  9
$JOINSTYLE
280
     0
  9
$LWDISPLAY
290
     1
  9
$INSUNITS
 70
     4
  9
$HYPERLINKBASE
  1

  9
$STYLESHEET
  1

  9
$XEDIT
290
     1
  9
$CEPSNTYPE
380
     0
  9
$PSTYLEMODE
290
     1
  9
$FINGERPRINTGUID
  2
{25842ce6-d81d-4af4-87d2-d89e69553952}
  9
$VERSIONGUID
  2
{FAEB1C32-E019-11D5-929B-00C0DF256EC4}
  9
$EXTNAMES
290
     1
  9
$PSVPSCALE
 40
0.0
  9
$OLESTARTUP
290
     0
  0
ENDSEC
  0
SECTION
  2
CLASSES
  0
CLASS
  1
ACDBDICTIONARYWDFLT
  2
AcDbDictionaryWithDefault
  3
ObjectDBX Classes
 90
        0
280
     0
281
     0
  0
CLASS
  1
VISUALSTYLE
  2
AcDbVisualStyle
  3
ObjectDBX Classes
 90
     4095
280
     0
281
     0
  0
CLASS
  1
MATERIAL
  2
AcDbMaterial
  3
ObjectDBX Classes
 90
     1153
280
     0
281
     0
  0
CLASS
  1
SCALE
  2
AcDbScale
  3
ObjectDBX Classes
 90
     1153
280
     0
281
     0
  0
CLASS
  1
TABLESTYLE
  2
AcDbTableStyle
  3
ObjectDBX Classes
 90
     4095
280
     0
281
     0
  0
CLASS
  1
MLEADERSTYLE
  2
AcDbMLeaderStyle
  3
ACDB_MLEADERSTYLE_CLASS
 90
     4095
280
     0
281
     0
  0
CLASS
  1
SUN
  2
AcDbSun
  3
SCENEOE
 90
     1153
280
     0
281
     0
  0
CLASS
  1
ACDBPLACEHOLDER
  2
AcDbPlaceHolder
  3
ObjectDBX Classes
 90
        0
280
     0
281
     0
  0
CLASS
  1
LAYOUT
  2
AcDbLayout
  3
ObjectDBX Classes
 90
        0
280
     0
281
     0
  0
ENDSEC
  0
SECTION
  2
TABLES
  0
TABLE
  2
VPORT
  5
8
330
0
100
AcDbSymbolTable
 70
     1
  0
VPORT
  5
29
330
8
100
AcDbSymbolTableRecord
100
AcDbViewportTableRecord
  2
*Active
 70
     0
 10
0.0
 20
0.0
 11
1.0
 21
1.0
 12
139.7
 22
107.95
 13
0.0
 23
0.0
 14
10.0
 24
10.0
 15
10.0
 25
10.0
 16
0.0
 26
0.0
 36
1.0
 17
0.0
 27
0.0
 37
0.0
 40
215.9
 41
1.2941176471
 42
50.0
 43
0.0
 44
0.0
 50
0.0
 51
0.0
 71
     0
 72
  2000
 73
     1
 74
     3
 75
     0
 76
     0
 77
     0
 78
     0
281
     0
 65
     1
110
0.0
120
0.0
130
0.0
111
1.0
121
0.0
131
0.0
112
0.0
122
1.0
132
0.0
 79
     0
146
0.0
  0
ENDTAB
  0
TABLE
  2
LTYPE
  5
5
330
0
100
AcDbSymbolTable
 70
     6
  0
LTYPE
  5
14
330
5
100
AcDbSymbolTableRecord
100
AcDbLinetypeTableRecord
  2
ByBlock
 70
     0
  3

 72
    65
 73
     0
 40
0.0
  0
LTYPE
  5
15
330
5
100
AcDbSymbolTableRecord
100
AcDbLinetypeTableRecord
  2
ByLayer
 70
     0
  3

 72
    65
 73
     0
 40
0.0
  0
LTYPE
  5
16
330
5
100
AcDbSymbolTableRecord
100
AcDbLinetypeTableRecord
  2
Continuous
 70
     0
  3
Solid line
 72
    65
 73
     0
 40
0.0
  0
LTYPE
  5
6E
330
5
100
AcDbSymbolTableRecord
100
AcDbLinetypeTableRecord
  2
HIDDEN
 70
     0
  3
Hidden __ __ __ __ __ __ __ __ __ __ __ __ __ __
 72
    65
 73
     2
 40
1.905
 49
1.27
 74
     0
 49
-0.635
 74
     0
  0
LTYPE
  5
6F
330
5
100
AcDbSymbolTableRecord
100
AcDbLinetypeTableRecord
  2
PHANTOM
 70
     0
  3
Phantom ______  __  __  ______  __  __  ______
 72
    65
 73
     6
 40
12.7
 49
6.35
 74
     0
 49
-1.27
 74
     0
 49
1.27
 74
     0
 49
-1.27
 74
     0
 49
1.27
 74
     0
 49
-1.27
 74
     0
  0
LTYPE
  5
70
330
5
100
AcDbSymbolTableRecord
100
AcDbLinetypeTableRecord
  2
CENTER
 70
     0
  3
Center ____ _ ____ _ ____ _ ____ _ ____ _ ____
 72
    65
 73
     4
 40
10.16
 49
6.35
 74
     0
 49
-1.27
 74
     0
 49
1.27
 74
     0
 49
-1.27
 74
     0
  0
LTYPE
  5
71
330
5
100
AcDbSymbolTableRecord
100
AcDbLinetypeTableRecord
  2
CENTERX2
 70
     0
  3
Center (2x) ________  __  ________  __  _____
 72
    65
 73
     4
 40
20.32
 49
12.7
 74
     0
 49
-2.54
 74
     0
 49
2.54
 74
     0
 49
-2.54
 74
     0
  0
LTYPE
  5
72
330
5
100
AcDbSymbolTableRecord
100
AcDbLinetypeTableRecord
  2
DOT2
 70
     0
  3
Dot (.5x) ........................................
 72
    65
 73
     2
 40
0.635
 49
0.0
 74
     0
 49
-0.635
 74
     0
  0
ENDTAB
  0
TABLE
  2
LAYER
  5
2
330
0
100
AcDbSymbolTable
 70
     1
  0
LAYER
  5
10
330
2
100
AcDbSymbolTableRecord
100
AcDbLayerTableRecord
  2
0
 70
     0
 62
     7
  6
Continuous
370
    -3
390
F
  0
ENDTAB
  0
TABLE
  2
STYLE
  5
3
330
0
100
AcDbSymbolTable
 70
     1
  0
STYLE
  5
11
330
3
100
AcDbSymbolTableRecord
100
AcDbTextStyleTableRecord
  2
Standard
 70
     0
 40
0.0
 41
1.0
 50
0.0
 71
     0
 42
3.5
  3
txt
  4

  0
ENDTAB
  0
TABLE
  2
VIEW
  5
6
330
0
100
AcDbSymbolTable
 70
     0
  0
ENDTAB
  0
TABLE
  2
UCS
  5
7
330
0
100
AcDbSymbolTable
 70
     0
  0
ENDTAB
  0
TABLE
  2
APPID
  5
9
330
0
100
AcDbSymbolTable
 70
     1
  0
APPID
  5
12
330
9
100
AcDbSymbolTableRecord
100
AcDbRegAppTableRecord
  2
ACAD
 70
     0
  0
ENDTAB
  0
TABLE
  2
DIMSTYLE
  5
A
330
0
100
AcDbSymbolTable
 70
     1
100
AcDbDimStyleTable
  0
DIMSTYLE
105
27
330
A
100
AcDbSymbolTableRecord
100
AcDbDimStyleTableRecord
  2
ISO-25
 70
     0
 41
2.5
 42
0.625
 43
3.75
 44
1.25
 73
     0
 74
     0
 77
     1
 78
     8
140
2.5
141
2.5
143
0.0393700787
147
0.625
171
     3
172
     1
178
     0
271
     2
272
     2
274
     3
278
    44
283
     0
284
     8
340
11
  0
ENDTAB
  0
TABLE
  2
BLOCK_RECORD
  5
1
330
0
100
AcDbSymbolTable
 70
     1
  0
BLOCK_RECORD
  5
1F
330
1
100
AcDbSymbolTableRecord
100
AcDbBlockTableRecord
  2
*Model_Space
340
22
  0
BLOCK_RECORD
  5
1B
330
1
100
AcDbSymbolTableRecord
100
AcDbBlockTableRecord
  2
*Paper_Space
340
1E
  0
BLOCK_RECORD
  5
23
330
1
100
AcDbSymbolTableRecord
100
AcDbBlockTableRecord
  2
*Paper_Space0
340
26
  0
ENDTAB
  0
ENDSEC
  0
SECTION
  2
BLOCKS
  0
BLOCK
  5
20
330
1F
100
AcDbEntity
  8
0
100
AcDbBlockBegin
  2
*Model_Space
 70
     0
 10
0.0
 20
0.0
 30
0.0
  3
*Model_Space
  1

  0
ENDBLK
  5
21
330
1F
100
AcDbEntity
  8
0
100
AcDbBlockEnd
  0
BLOCK
  5
1C
330
1B
100
AcDbEntity
 67
     1
  8
0
100
AcDbBlockBegin
  2
*Paper_Space
 70
     0
 10
0.0
 20
0.0
 30
0.0
  3
*Paper_Space
  1

  0
ENDBLK
  5
1D
330
1B
100
AcDbEntity
 67
     1
  8
0
100
AcDbBlockEnd
  0
BLOCK
  5
24
330
23
100
AcDbEntity
  8
0
100
AcDbBlockBegin
  2
*Paper_Space0
 70
     0
 10
0.0
 20
0.0
 30
0.0
  3
*Paper_Space0
  1

  0
ENDBLK
  5
25
330
23
100
AcDbEntity
  8
0
100
AcDbBlockEnd
  0
ENDSEC
  0
SECTION
  2
ENTITIES
  0
LINE
  5
73
330
1F
100
AcDbEntity
  8
0
  6
Continuous
 62
     7
370
    25
100
AcDbLine
 10
89.1139512995
 20
210.7779881663
 30
0.0
 11
89.1139512995
 21
296.0415063896
 31
0.0
  0
LINE
  5
74
330
1F
100
AcDbEntity
  8
0
  6
Continuous
 62
     7
370
    25
100
AcDbLine
 10
73.3139512995
 20
296.0415063896
 30
0.0
 11
73.3139512995
 21
210.7779881663
 31
0.0
  0
LINE
  5
75
330
1F
100
AcDbEntity
  8
0
  6
Continuous
 62
     7
370
    25
100
AcDbLine
 10
73.3139512995
 20
210.7779881663
 30
0.0
 11
73.3139512995
 21
210.6043399886
 31
0.0
  0
LINE
  5
76
330
1F
100
AcDbEntity
  8
0
  6
Continuous
 62
     7
370
    25
100
AcDbLine
 10
89.1139512995
 20
210.6043399886
 30
0.0
 11
89.1139512995
 21
210.7779881663
 31
0.0
  0
LINE
  5
77
330
1F
100
AcDbEntity
  8
0
  6
Continuous
 62
     7
370
    25
100
AcDbLine
 10
92.7639512995
 20
207.8196228863
 30
0.0
 11
92.7639512995
 21
210.0868684192
 31
0.0
  0
LINE
  5
78
330
1F
100
AcDbEntity
  8
0
  6
Continuous
 62
     7
370
    25
100
AcDbLine
 10
69.6639512995
 20
210.0868684192
 30
0.0
 11
69.6639512995
 21
207.8196228863
 31
0.0
  0
LINE
  5
79
330
1F
100
AcDbEntity
  8
0
  6
Continuous
 62
     7
370
    25
100
AcDbLine
 10
74.2387018615
 20
198.7535918654
 30
0.0
 11
74.5708565967
 21
198.5057435862
 31
0.0
  0
LINE
  5
7A
330
1F
100
AcDbEntity
  8
0
  6
Continuous
 62
     7
370
    25
100
AcDbLine
 10
87.8570460024
 20
198.5057435862
 30
0.0
 11
88.1892007375
 21
198.7535918654
 31
0.0
  0
ARC
  5
7B
330
1F
100
AcDbEntity
  8
0
  6
Continuous
 62
     7
370
    25
100
AcDbCircle
 10
154.4525579717
 20
296.0415063896
 30
0.0
 40
10.63
100
AcDbArc
 50
6.79520791
 51
21.8505108422
  0
ARC
  5
7C
330
1F
100
AcDbEntity
  8
0
  6
Continuous
 62
     7
370
    25
100
AcDbCircle
 10
154.4525579717
 20
296.0415063896
 30
0.0
 40
10.63000000000003
100
AcDbArc
 50
338.1494891578
 51
353.2411794869
  0
LINE
  5
7D
330
1F
100
AcDbEntity
  8
0
  6
Continuous
 62
     7
370
    25
100
AcDbLine
 10
165.015415531
 20
294.9321264731
 30
0.0
 11
164.7549988026
 21
294.9321264731
 31
0.0
  0
LINE
  5
7E
330
1F
100
AcDbEntity
  8
0
  6
Continuous
 62
     7
370
    25
100
AcDbLine
 10
164.9318424661
 20
297.1508863062
 30
0.0
 11
165.015415531
 21
297.1508863062
 31
0.0
  0
LINE
  5
7F
330
1F
100
AcDbEntity
  8
0
  6
Continuous
 62
     7
370
    25
100
AcDbLine
 10
162.4188783141
 20
288.8915063896
 30
0.0
 11
164.0238833036
 21
290.1163786185
 31
0.0
  0
LINE
  5
80
330
1F
100
AcDbEntity
  8
0
  6
Continuous
 62
     7
370
    25
100
AcDbLine
 10
164.0238833036
 20
301.9666341608
 30
0.0
 11
162.4188783141
 21
303.1915063896
 31
0.0
  0
ARC
  5
81
330
1F
100
AcDbEntity
  8
0
  6
Continuous
 62
     7
370
    25
100
AcDbCircle
 10
163.5688783141
 20
290.712592053
 30
0.0
 40
0.7499999999999841
100
AcDbArc
 50
307.3493490446
 51
0.0
  0
ARC
  5
82
330
1F
100
AcDbEntity
  8
0
  6
Continuous
 62
     7
370
    25
100
AcDbCircle
 10
163.5688783141
 20
301.3704207262
 30
0.0
 40
0.7500000000000294
100
AcDbArc
 50
0.0
 51
52.6506509554
  0
LINE
  5
83
330
1F
100
AcDbEntity
  8
0
  6
Continuous
 62
     7
370
    25
100
AcDbLine
 10
162.4188783141
 20
300.5415063896
 30
0.0
 11
162.4139512995
 21
300.5377598057
 31
0.0
  0
LINE
  5
84
330
1F
100
AcDbEntity
  8
0
  6
Continuous
 62
     7
370
    25
100
AcDbLine
 10
162.4139512995
 20
291.5452529736
 30
0.0
 11
162.4188783141
 21
291.5415063896
 31
0.0
  0
LINE
  5
85
330
1F
100
AcDbEntity
  8
0
  6
Continuous
 62
     7
370
    25
100
AcDbLine
 10
157.5519952567
 20
287.0658483454
 30
0.0
 11
161.9226775028
 21
287.1421388878
 31
0.0
  0
LINE
  5
86
330
1F
100
AcDbEntity
  8
0
  6
Continuous
 62
     7
370
    25
100
AcDbLine
 10
161.9226775028
 20
304.9408738915
 30
0.0
 11
156.6185750428
 21
305.0334573443
 31
0.0
  0
ARC
  5
87
330
1F
100
AcDbEntity
  8
0
  6
Continuous
 62
     7
370
    25
100
AcDbCircle
 10
161.9139512995
 20
287.6420627354
 30
0.0
 40
0.5000000000000616
100
AcDbArc
 50
271.0
 51
0.0
  0
ARC
  5
88
330
1F
100
AcDbEntity
  8
0
  6
Continuous
 62
     7
370
    25
100
AcDbCircle
 10
161.9139512995
 20
304.4409500439
 30
0.0
 40
0.5000000000000616
100
AcDbArc
 50
0.0
 51
89.0
  0
SPLINE
  5
89
330
1F
100
AcDbEntity
  8
0
  6
Continuous
 62
     7
370
    25
100
AcDbSpline
210
0.0
220
0.0
230
1.0
 70
     8
 71
     3
 72
    13
 73
     9
 74
     0
 42
0.00000001
 43
0.00000001
 40
0.0
 40
0.0
 40
0.0
 40
0.0
 40
0.0374958985119797
 40
0.1898931153386504
 40
0.3681274153458659
 40
0.576814410929799
 40
0.819160538908559
 40
1.0
 40
1.0
 40
1.0
 40
1.0
 10
153.9377779283073
 20
285.1772009704145
 30
0.0
 10
153.9353346712432
 20
285.1730235512185
 30
0.0
 10
153.922961112697
 20
285.1518675534513
 30
0.0
 10
154.0054612532902
 20
285.2622140750951
 30
0.0
 10
154.219115797774
 20
285.4640780922445
 30
0.0
 10
154.6168250214206
 20
285.7847487977227
 30
0.0
 10
155.1299713709622
 20
286.1451041887348
 30
0.0
 10
155.5561770143879
 20
286.410597099476
 30
0.0
 10
155.7383070321906
 20
286.5240499110604
 30
0.0
  0
ARC
  5
8A
330
1F
100
AcDbEntity
  8
0
  6
Continuous
 62
     7
370
    25
100
AcDbCircle
 10
157.6139512995
 20
283.5163890276
 30
0.0
 40
3.550000000000008
100
AcDbArc
 50
91.0
 51
121.7654088545
  0
ARC
  5
8B
330
1F
100
AcDbEntity
  8
0
  6
Continuous
 62
     7
370
    25
100
AcDbCircle
 10
156.6639512995
 20
307.6330613517
 30
0.0
 40
2.600000000000026
100
AcDbArc
 50
242.9558679133
 51
269.0
  0
SPLINE
  5
8C
330
1F
100
AcDbEntity
  8
0
  6
Continuous
 62
     7
370
    25
100
AcDbSpline
210
0.0
220
0.0
230
1.0
 70
     8
 71
     3
 72
    13
 73
     9
 74
     0
 42
0.00000001
 43
0.00000001
 40
0.0
 40
0.0
 40
0.0
 40
0.0
 40
0.0685591651057258
 40
0.3621033644735449
 40
0.6051453748959298
 40
0.8063094946938253
 40
0.9718542817301445
 40
1.0
 40
1.0
 40
1.0
 40
1.0
 10
155.4837978361172
 20
305.3179706742771
 30
0.0
 10
155.4177407296327
 20
305.352148769426
 30
0.0
 10
155.0688522846155
 20
305.5326644338976
 30
0.0
 10
154.5859765633922
 20
305.8000430052621
 30
0.0
 10
154.0874732267624
 20
306.1031131530725
 30
0.0
 10
153.8260794869805
 20
306.2828939066666
 30
0.0
 10
153.7221750764982
 20
306.3809035407197
 30
0.0
 10
153.7403295632991
 20
306.3603468722443
 30
0.0
 10
153.7429676434158
 20
306.3573597242756
 30
0.0
  0
LINE
  5
8D
330
1F
100
AcDbEntity
  8
0
  6
Continuous
 62
     7
370
    25
100
AcDbLine
 10
148.0726775028
 20
283.6709016985
 30
0.0
 11
152.0988561124
 21
283.7411789075
 31
0.0
  0
ARC
  5
8E
330
1F
100
AcDbEntity
  8
0
  6
Continuous
 62
     7
370
    25
100
AcDbCircle
 10
148.0639512995
 20
284.1708255461
 30
0.0
 40
0.5000000000000058
100
AcDbArc
 50
180.0
 51
271.0
  0
LINE
  5
8F
330
1F
100
AcDbEntity
  8
0
  6
Continuous
 62
     7
370
    25
100
AcDbLine
 10
162.4294172603
 20
299.9664051067
 30
0.0
 11
162.4139512995
 21
300.0290092745
 31
0.0
  0
ARC
  5
90
330
1F
100
AcDbEntity
  8
0
  6
Continuous
 62
     7
370
    25
100
AcDbCircle
 10
152.0639512995
 20
305.5372312106
 30
0.0
 40
2.000000000000026
100
AcDbArc
 50
20.1325567821
 51
89.0
  0
ARC
  5
91
330
1F
100
AcDbEntity
  8
0
  6
Continuous
 62
     7
370
    25
100
AcDbCircle
 10
148.0639512995
 20
307.1072799624
 30
0.0
 40
0.5
100
AcDbArc
 50
89.0
 51
180.0
  0
LINE
  5
92
330
1F
100
AcDbEntity
  8
0
  6
Continuous
 62
     7
370
    25
100
AcDbLine
 10
152.0988561124
 20
307.5369266009
 30
0.0
 11
148.0726775028
 21
307.60720381
 31
0.0
  0
ARC
  5
93
330
1F
100
AcDbEntity
  8
0
  6
Continuous
 62
     7
370
    25
100
AcDbCircle
 10
152.0639512995
 20
285.7408742978
 30
0.0
 40
1.999999999999969
100
AcDbArc
 50
271.0
 51
344.2362878375
  0
LINE
  5
94
330
1F
100
AcDbEntity
  8
0
  6
Continuous
 62
     7
370
    25
100
AcDbLine
 10
147.5639512995
 20
301.6915063896
 30
0.0
 11
139.6139512995
 21
301.6915063896
 31
0.0
  0
LINE
  5
95
330
1F
100
AcDbEntity
  8
0
  6
Continuous
 62
     7
370
    25
100
AcDbLine
 10
139.6139512995
 20
290.3915063896
 30
0.0
 11
147.5639512995
 21
290.3915063896
 31
0.0
  0
LINE
  5
96
330
1F
100
AcDbEntity
  8
0
  6
Continuous
 62
     7
370
    25
100
AcDbLine
 10
137.9058069084
 20
286.0406583887
 30
0.0
 11
139.6139512995
 21
287.7915063896
 31
0.0
  0
LINE
  5
97
330
1F
100
AcDbEntity
  8
0
  6
Continuous
 62
     7
370
    25
100
AcDbLine
 10
139.6139512995
 20
304.2915063896
 30
0.0
 11
137.9058069084
 21
306.0423543906
 31
0.0
  0
LINE
  5
98
330
1F
100
AcDbEntity
  8
0
  6
Continuous
 62
     7
370
    25
100
AcDbLine
 10
132.1872526311
 20
286.6415063896
 30
0.0
 11
132.5400441106
 21
286.6415063896
 31
0.0
  0
SPLINE
  5
99
330
1F
100
AcDbEntity
  8
0
  6
Continuous
 62
     7
370
    25
100
AcDbSpline
210
0.0
220
0.0
230
1.0
 70
     8
 71
     3
 72
     9
 73
     5
 74
     0
 42
0.00000001
 43
0.00000001
 40
0.0
 40
0.0
 40
0.0
 40
0.0
 40
0.5017901106541904
 40
1.0
 40
1.0
 40
1.0
 40
1.0
 10
132.5487772711697
 20
286.6491658420522
 30
0.0
 10
132.622654611465
 20
286.777043518769
 30
0.0
 10
132.7698821847604
 20
287.0318864780095
 30
0.0
 10
132.9171624956382
 20
287.2866898819744
 30
0.0
 10
132.9905390030234
 20
287.4136354576688
 30
0.0
  0
LINE
  5
9A
330
1F
100
AcDbEntity
  8
0
  6
Continuous
 62
     7
370
    25
100
AcDbLine
 10
132.2849848626
 20
304.669374883
 30
0.0
 11
132.1639512995
 21
304.8788035736
 31
0.0
  0
LINE
  5
9B
330
1F
100
AcDbEntity
  8
0
  6
Continuous
 62
     7
370
    25
100
AcDbLine
 10
133.1478658394
 20
287.4136098447
 30
0.0
 11
133.2920464144
 21
287.1641137467
 31
0.0
  0
SPLINE
  5
9C
330
1F
100
AcDbEntity
  8
0
  6
Continuous
 62
     7
370
    25
100
AcDbSpline
210
0.0
220
0.0
230
1.0
 70
     8
 71
     3
 72
     9
 73
     5
 74
     0
 42
0.00000001
 43
0.00000001
 40
0.0
 40
0.0
 40
0.0
 40
0.0
 40
0.4989150937459075
 40
1.0
 40
1.0
 40
1.0
 40
1.0
 10
132.8840416253676
 20
305.4338601554931
 30
0.0
 10
132.8105830795481
 20
305.3067258162028
 30
0.0
 10
132.6633465121632
 20
305.0519042225409
 30
0.0
 10
132.5160940381359
 20
304.7970850182244
 30
0.0
 10
132.4423080459922
 20
304.6693989611177
 30
0.0
  0
LINE
  5
9D
330
1F
100
AcDbEntity
  8
0
  6
Continuous
 62
     7
370
    25
100
AcDbLine
 10
133.3139512995
 20
304.9415063896
 30
0.0
 11
132.8698135554
 21
305.3856441338
 31
0.0
  0
SPLINE
  5
9E
330
1F
100
AcDbEntity
  8
0
  6
Continuous
 62
     7
370
    25
100
AcDbSpline
210
0.0
220
0.0
230
1.0
 70
     8
 71
     3
 72
     9
 73
     5
 74
     0
 42
0.00000001
 43
0.00000001
 40
0.0
 40
0.0
 40
0.0
 40
0.0
 40
0.5165667873823608
 40
1.0
 40
1.0
 40
1.0
 40
1.0
 10
132.9806310926869
 20
287.4053006585227
 30
0.0
 10
133.0102919670348
 20
287.4053061649035
 30
0.0
 10
133.0677112109205
 20
287.4053168244757
 30
0.0
 10
133.1249811215136
 20
287.4053062913503
 30
0.0
 10
133.152667298378
 20
287.4053011992876
 30
0.0
  0
SPLINE
  5
9F
330
1F
100
AcDbEntity
  8
0
  6
Continuous
 62
     7
370
    25
100
AcDbSpline
210
0.0
220
0.0
230
1.0
 70
     8
 71
     3
 72
     9
 73
     5
 74
     0
 42
0.00000001
 43
0.00000001
 40
0.0
 40
0.0
 40
0.0
 40
0.0
 40
0.512086911069741
 40
1.0
 40
1.0
 40
1.0
 40
1.0
 10
132.4514636416404
 20
304.6777120782323
 30
0.0
 10
132.4222358191916
 20
304.6777142084659
 30
0.0
 10
132.365159917002
 20
304.6777183683722
 30
0.0
 10
132.3080373278684
 20
304.6777143042447
 30
0.0
 10
132.2801664689565
 20
304.6777123213037
 30
0.0
  0
LINE
  5
A0
330
1F
100
AcDbEntity
  8
0
  6
Continuous
 62
     7
370
    25
100
AcDbLine
 10
133.3139512995
 20
287.9165063896
 30
0.0
 11
134.8139512995
 21
287.9165063896
 31
0.0
  0
LINE
  5
A1
330
1F
100
AcDbEntity
  8
0
  6
Continuous
 62
     7
370
    25
100
AcDbLine
 10
134.8139512995
 20
304.1665063896
 30
0.0
 11
133.3139512995
 21
304.1665063896
 31
0.0
  0
LINE
  5
A2
330
1F
100
AcDbEntity
  8
0
  6
Continuous
 62
     7
370
    25
100
AcDbLine
 10
134.8026416472
 20
286.9919390257
 30
0.0
 11
134.8139512995
 21
286.9723658506
 31
0.0
  0
LINE
  5
A3
330
1F
100
AcDbEntity
  8
0
  6
Continuous
 62
     7
370
    25
100
AcDbLine
 10
115.836480181
 20
313.1140352711
 30
0.0
 11
114.9639512995
 21
312.2415063896
 31
0.0
  0
LINE
  5
A4
330
1F
100
AcDbEntity
  8
0
  6
Continuous
 62
     7
370
    25
100
AcDbLine
 10
114.9639512995
 20
279.8415063896
 30
0.0
 11
115.836480181
 21
278.9689775081
 31
0.0
  0
LINE
  5
A5
330
1F
100
AcDbEntity
  8
0
  6
Continuous
 62
     7
370
    25
100
AcDbLine
 10
123.5414224181
 20
278.9689775081
 30
0.0
 11
124.4139512995
 21
279.8415063896
 31
0.0
  0
LINE
  5
A6
330
1F
100
AcDbEntity
  8
0
  6
Continuous
 62
     7
370
    25
100
AcDbLine
 10
124.4139512995
 20
312.2415063896
 30
0.0
 11
123.5414224181
 21
313.1140352711
 31
0.0
  0
ARC
  5
A7
330
1F
100
AcDbEntity
  8
0
  6
Continuous
 62
     7
370
    25
100
AcDbCircle
 10
124.4139512995
 20
290.3005180175
 30
0.0
 40
9.134011627907
100
AcDbArc
 50
270.0
 51
328.0464183091
  0
ARC
  5
A8
330
1F
100
AcDbEntity
  8
0
  6
Continuous
 62
     7
370
    25
100
AcDbCircle
 10
124.4139512995
 20
301.7824947617
 30
0.0
 40
9.134011627907
100
AcDbArc
 50
31.9535816909
 51
90.0
  0
LINE
  5
A9
330
1F
100
AcDbEntity
  8
0
  6
Continuous
 62
     7
370
    25
100
AcDbLine
 10
122.9761459147
 20
313.5566035281
 30
0.0
 11
116.3765833931
 21
313.5566035281
 31
0.0
  0
LINE
  5
AA
330
1F
100
AcDbEntity
  8
0
  6
Continuous
 62
     7
370
    25
100
AcDbLine
 10
116.3765833931
 20
278.5264092512
 30
0.0
 11
122.9761459147
 21
278.5264092512
 31
0.0
  0
ARC
  5
AB
330
1F
100
AcDbEntity
  8
0
  6
Continuous
 62
     7
370
    25
100
AcDbCircle
 10
56.4139512995
 20
363.5415063896
 30
0.0
 40
0.5
100
AcDbArc
 50
90.0
 51
180.0
  0
ARC
  5
AC
330
1F
100
AcDbEntity
  8
0
  6
Continuous
 62
     7
370
    25
100
AcDbCircle
 10
106.0139512995
 20
363.5415063896
 30
0.0
 40
0.5
100
AcDbArc
 50
0.0
 51
90.0
  0
ARC
  5
AD
330
1F
100
AcDbEntity
  8
0
  6
Continuous
 62
     7
370
    25
100
AcDbCircle
 10
56.4139512995
 20
360.3550281754
 30
0.0
 40
0.50000000000004
100
AcDbArc
 50
180.0
 51
244.1790080258
  0
ARC
  5
AE
330
1F
100
AcDbEntity
  8
0
  6
Continuous
 62
     7
370
    25
100
AcDbCircle
 10
106.0139512995
 20
360.3550281754
 30
0.0
 40
0.50000000000004
100
AcDbArc
 50
295.8209919742
 51
0.0
  0
LINE
  5
AF
330
1F
100
AcDbEntity
  8
0
  6
Continuous
 62
     7
370
    25
100
AcDbLine
 10
106.5139512995
 20
360.3550281754
 30
0.0
 11
106.5139512995
 21
363.5415063896
 31
0.0
  0
LINE
  5
B0
330
1F
100
AcDbEntity
  8
0
  6
Continuous
 62
     7
370
    25
100
AcDbLine
 10
55.9139512995
 20
363.5415063896
 30
0.0
 11
55.9139512995
 21
360.3550281754
 31
0.0
  0
LINE
  5
B1
330
1F
100
AcDbEntity
  8
0
  6
Continuous
 62
     7
370
    25
100
AcDbLine
 10
56.1961708355
 20
359.9049485496
 30
0.0
 11
64.0850731557
 21
356.0877377495
 31
0.0
  0
LINE
  5
B2
330
1F
100
AcDbEntity
  8
0
  6
Continuous
 62
     7
370
    25
100
AcDbLine
 10
98.3428294433
 20
356.0877377495
 30
0.0
 11
106.2317317636
 21
359.9049485496
 31
0.0
  0
ARC
  5
B3
330
1F
100
AcDbEntity
  8
0
  6
Continuous
 62
     7
370
    25
100
AcDbCircle
 10
99.2139512995
 20
354.2874192467
 30
0.0
 40
1.999999999999995
100
AcDbArc
 50
115.8209919742
 51
171.4096175468
  0
ARC
  5
B4
330
1F
100
AcDbEntity
  8
0
  6
Continuous
 62
     7
370
    25
100
AcDbCircle
 10
63.2139512995
 20
354.2874192467
 30
0.0
 40
2.000000000000004
100
AcDbArc
 50
8.6121549306
 51
64.1790080258
  0
LINE
  5
B5
330
1F
100
AcDbEntity
  8
0
  6
Continuous
 62
     7
370
    25
100
AcDbLine
 10
93.09904957
 20
280.2904637084
 30
0.0
 11
110.2139512995
 21
280.648969793
 31
0.0
  0
LINE
  5
B6
330
1F
100
AcDbEntity
  8
0
  6
Continuous
 62
     7
370
    25
100
AcDbLine
 10
110.2139512995
 20
311.4340429862
 30
0.0
 11
104.5909404916
 21
311.5518282718
 31
0.0
  0
SPLINE
  5
B7
330
1F
100
AcDbEntity
  8
0
  6
Continuous
 62
     7
370
    25
100
AcDbSpline
210
0.0
220
0.0
230
1.0
 70
     8
 71
     3
 72
     9
 73
     5
 74
     0
 42
0.00000001
 43
0.00000001
 40
0.0
 40
0.0
 40
0.0
 40
0.0
 40
0.499996177972525
 40
1.0
 40
1.0
 40
1.0
 40
1.0
 10
111.2388932837056
 20
281.858853964241
 30
0.0
 10
111.3170763449859
 20
281.72348893443
 30
0.0
 10
111.4734436628269
 20
281.4527568053168
 30
0.0
 10
111.6298073203736
 20
281.1820227200436
 30
0.0
 10
111.7079897467732
 20
281.0466546426539
 30
0.0
  0
SPLINE
  5
B8
330
1F
100
AcDbEntity
  8
0
  6
Continuous
 62
     7
370
    25
100
AcDbSpline
210
0.0
220
0.0
230
1.0
 70
     8
 71
     3
 72
     9
 73
     5
 74
     0
 42
0.00000001
 43
0.00000001
 40
0.0
 40
0.0
 40
0.0
 40
0.0
 40
0.4999960105738552
 40
1.0
 40
1.0
 40
1.0
 40
1.0
 10
112.7387325128601
 20
281.8591336448432
 30
0.0
 10
112.8169168581624
 20
281.723766494933
 30
0.0
 10
112.9732867964198
 20
281.4530300349464
 30
0.0
 10
113.1296529141334
 20
281.182291470174
 30
0.0
 10
113.2078365968013
 20
281.0469211076962
 30
0.0
  0
SPLINE
  5
B9
330
1F
100
AcDbEntity
  8
0
  6
Continuous
 62
     7
370
    25
100
AcDbSpline
210
0.0
220
0.0
230
1.0
 70
     8
 71
     3
 72
     9
 73
     5
 74
     0
 42
0.00000001
 43
0.00000001
 40
0.0
 40
0.0
 40
0.0
 40
0.0
 40
0.4999960910112508
 40
0.9999999999999999
 40
0.9999999999999999
 40
0.9999999999999999
 40
0.9999999999999999
 10
114.238815863662
 20
281.8589877816983
 30
0.0
 10
114.3169995946591
 20
281.7236216467703
 30
0.0
 10
114.4733682791402
 20
281.4528872603192
 30
0.0
 10
114.6297332200736
 20
281.1821508583371
 30
0.0
 10
114.7079163017691
 20
281.0467815990405
 30
0.0
  0
LINE
  5
BA
330
1F
100
AcDbEntity
  8
0
  6
Continuous
 62
     7
370
    25
100
AcDbLine
 10
114.9920397661
 20
310.2296065706
 30
0.0
 11
114.9888966987
 21
310.2241646807
 31
0.0
  0
SPLINE
  5
BB
330
1F
100
AcDbEntity
  8
0
  6
Continuous
 62
     7
370
    25
100
AcDbSpline
210
0.0
220
0.0
230
1.0
 70
     8
 71
     3
 72
     9
 73
     5
 74
     0
 42
0.00000001
 43
0.00000001
 40
0.0
 40
0.0
 40
0.0
 40
0.0
 40
0.5035653169057785
 40
1.0
 40
1.0
 40
1.0
 40
1.0
 10
113.9578235038757
 20
311.0360685825393
 30
0.0
 10
113.8796403727865
 20
310.9006991819699
 30
0.0
 10
113.7243812068662
 20
310.6318772515771
 30
0.0
 10
113.5691183184518
 20
310.3630575633371
 30
0.0
 10
113.4920404356455
 20
310.229606146596
 30
0.0
  0
SPLINE
  5
BC
330
1F
100
AcDbEntity
  8
0
  6
Continuous
 62
     7
370
    25
100
AcDbSpline
210
0.0
220
0.0
230
1.0
 70
     8
 71
     3
 72
     9
 73
     5
 74
     0
 42
0.00000001
 43
0.00000001
 40
0.0
 40
0.0
 40
0.0
 40
0.0
 40
0.5000038267495277
 40
1.0
 40
1.0
 40
1.0
 40
1.0
 10
112.4578971836585
 20
311.0361978817775
 30
0.0
 10
112.3797147132148
 20
310.9008296780556
 30
0.0
 10
112.2233509690572
 20
310.6300953426767
 30
0.0
 10
112.0669835601586
 20
310.3593632042841
 30
0.0
 10
111.9888004540883
 20
310.2239981711119
 30
0.0
  0
SPLINE
  5
BD
330
1F
100
AcDbEntity
  8
0
  6
Continuous
 62
     7
370
    25
100
AcDbSpline
210
0.0
220
0.0
230
1.0
 70
     8
 71
     3
 72
     9
 73
     5
 74
     0
 42
0.00000001
 43
0.00000001
 40
0.0
 40
0.0
 40
0.0
 40
0.0
 40
0.4987844281256523
 40
1.0
 40
1.0
 40
1.0
 40
1.0
 10
114.6265077783632
 20
310.2241614624346
 30
0.0
 10
114.5485084004793
 20
310.3591905365696
 30
0.0
 10
114.3921294650402
 20
310.6299068350764
 30
0.0
 10
114.2357793812487
 20
310.9006533254282
 30
0.0
 10
114.1574142845886
 20
311.0363556824228
 30
0.0
  0
SPLINE
  5
BE
330
1F
100
AcDbEntity
  8
0
  6
Continuous
 62
     7
370
    25
100
AcDbSpline
210
0.0
220
0.0
230
1.0
 70
     8
 71
     3
 72
     9
 73
     5
 74
     0
 42
0.00000001
 43
0.00000001
 40
0.0
 40
0.0
 40
0.0
 40
0.0
 40
0.4984739077222043
 40
0.9999999999999999
 40
0.9999999999999999
 40
0.9999999999999999
 40
0.9999999999999999
 10
113.1265077783632
 20
310.2241614624346
 30
0.0
 10
113.0485536710084
 20
310.3591010397021
 30
0.0
 10
112.8921681387927
 20
310.6298064370699
 30
0.0
 10
112.7358246324018
 20
310.9005638001579
 30
0.0
 10
112.6574142845886
 20
311.0363556824228
 30
0.0
  0
SPLINE
  5
BF
330
1F
100
AcDbEntity
  8
0
  6
Continuous
 62
     7
370
    25
100
AcDbSpline
210
0.0
220
0.0
230
1.0
 70
     8
 71
     3
 72
     9
 73
     5
 74
     0
 42
0.00000001
 43
0.00000001
 40
0.0
 40
0.0
 40
0.0
 40
0.0
 40
0.4981617098938687
 40
1.0
 40
1.0
 40
1.0
 40
1.0
 10
111.6265077783632
 20
310.2241614624346
 30
0.0
 10
111.5485988378058
 20
310.3590090744275
 30
0.0
 10
111.3922059657522
 20
310.6296995135253
 30
0.0
 10
111.2358697724947
 20
310.9004717874622
 30
0.0
 10
111.1574142845886
 20
311.0363556824228
 30
0.0
  0
LINE
  5
C0
330
1F
100
AcDbEntity
  8
0
  6
Continuous
 62
     7
370
    25
100
AcDbLine
 10
114.9074151914
 20
281.0466586553
 30
0.0
 11
114.920337915
 21
281.0690344941
 31
0.0
  0
SPLINE
  5
C1
330
1F
100
AcDbEntity
  8
0
  6
Continuous
 62
     7
370
    25
100
AcDbSpline
210
0.0
220
0.0
230
1.0
 70
     8
 71
     3
 72
     9
 73
     5
 74
     0
 42
0.00000001
 43
0.00000001
 40
0.0
 40
0.0
 40
0.0
 40
0.0
 40
0.5012156693466765
 40
1.0
 40
1.0
 40
1.0
 40
1.0
 10
113.4074151913539
 20
281.0466586552759
 30
0.0
 10
113.485780287297
 20
281.1823610825049
 30
0.0
 10
113.6421303392522
 20
281.4531076603323
 30
0.0
 10
113.7985093318643
 20
281.7238239141051
 30
0.0
 10
113.8765087230225
 20
281.8588529395402
 30
0.0
  0
SPLINE
  5
C2
330
1F
100
AcDbEntity
  8
0
  6
Continuous
 62
     7
370
    25
100
AcDbSpline
210
0.0
220
0.0
230
1.0
 70
     8
 71
     3
 72
     9
 73
     5
 74
     0
 42
0.00000001
 43
0.00000001
 40
0.0
 40
0.0
 40
0.0
 40
0.0
 40
0.5015262135375156
 40
1.0
 40
1.0
 40
1.0
 40
1.0
 10
111.9074151913539
 20
281.0466586552759
 30
0.0
 10
111.9858255367259
 20
281.1824506226132
 30
0.0
 10
112.1421690004482
 20
281.4532080898641
 30
0.0
 10
112.2985546007112
 20
281.723913425747
 30
0.0
 10
112.3765087230225
 20
281.8588529395402
 30
0.0
  0
SPLINE
  5
C3
330
1F
100
AcDbEntity
  8
0
  6
Continuous
 62
     7
370
    25
100
AcDbSpline
210
0.0
220
0.0
230
1.0
 70
     8
 71
     3
 72
     9
 73
     5
 74
     0
 42
0.00000001
 43
0.00000001
 40
0.0
 40
0.0
 40
0.0
 40
0.0
 40
0.5018384349021675
 40
1.0
 40
1.0
 40
1.0
 40
1.0
 10
110.4074151913539
 20
281.0466586552759
 30
0.0
 10
110.4858706751092
 20
281.1825426501945
 30
0.0
 10
110.6422068149877
 20
281.4533150451887
 30
0.0
 10
110.7985997658505
 20
281.7240054058275
 30
0.0
 10
110.8765087230225
 20
281.8588529395402
 30
0.0
  0
LINE
  5
C4
330
1F
100
AcDbEntity
  8
0
  6
Continuous
 62
     7
370
    25
100
AcDbLine
 10
111.1514287894
 20
311.0415063896
 30
0.0
 11
110.2139512995
 21
311.0415063896
 31
0.0
  0
LINE
  5
C5
330
1F
100
AcDbEntity
  8
0
  6
Continuous
 62
     7
370
    25
100
AcDbLine
 10
112.6514287894
 20
311.0415063896
 30
0.0
 11
112.463879132
 21
311.0415063896
 31
0.0
  0
LINE
  5
C6
330
1F
100
AcDbEntity
  8
0
  6
Continuous
 62
     7
370
    25
100
AcDbLine
 10
114.1514287894
 20
311.0415063896
 30
0.0
 11
113.963879132
 21
311.0415063896
 31
0.0
  0
LINE
  5
C7
330
1F
100
AcDbEntity
  8
0
  6
Continuous
 62
     7
370
    25
100
AcDbLine
 10
114.7140599446
 20
281.0415063896
 30
0.0
 11
114.9015281972
 21
281.0415063896
 31
0.0
  0
LINE
  5
C8
330
1F
100
AcDbEntity
  8
0
  6
Continuous
 62
     7
370
    25
100
AcDbLine
 10
113.2140599446
 20
281.0415063896
 30
0.0
 11
113.4015281972
 21
281.0415063896
 31
0.0
  0
LINE
  5
C9
330
1F
100
AcDbEntity
  8
0
  6
Continuous
 62
     7
370
    25
100
AcDbLine
 10
111.7140599446
 20
281.0415063896
 30
0.0
 11
111.9015281972
 21
281.0415063896
 31
0.0
  0
LINE
  5
CA
330
1F
100
AcDbEntity
  8
0
  6
Continuous
 62
     7
370
    25
100
AcDbLine
 10
110.2139512995
 20
281.0415063896
 30
0.0
 11
110.4015281972
 21
281.0415063896
 31
0.0
  0
LINE
  5
CB
330
1F
100
AcDbEntity
  8
0
  6
Continuous
 62
     7
370
    25
100
AcDbLine
 10
67.2365382311
 20
338.314621599
 30
0.0
 11
67.8938683962
 21
309.8850919587
 31
0.0
  0
LINE
  5
CC
330
1F
100
AcDbEntity
  8
0
  6
Continuous
 62
     7
370
    25
100
AcDbLine
 10
94.8072655324
 20
321.7023469606
 30
0.0
 11
95.191364368
 21
338.314621599
 31
0.0
  0
SPLINE
  5
CD
330
1F
100
AcDbEntity
  8
0
  6
Continuous
 62
     7
370
    25
100
AcDbSpline
210
0.0
220
0.0
230
1.0
 70
     8
 71
     3
 72
     9
 73
     5
 74
     0
 42
0.00000001
 43
0.00000001
 40
0.0
 40
0.0
 40
0.0
 40
0.0
 40
0.5027752844605446
 40
1.0
 40
1.0
 40
1.0
 40
1.0
 10
114.9952392554864
 20
310.2296073776457
 30
0.0
 10
114.9329245915952
 20
310.2295837776199
 30
0.0
 10
114.808983208999
 20
310.2295368381091
 30
0.0
 10
114.6850067292759
 20
310.2295834285059
 30
0.0
 10
114.623362559412
 20
310.2296065944027
 30
0.0
  0
SPLINE
  5
CE
330
1F
100
AcDbEntity
  8
0
  6
Continuous
 62
     7
370
    25
100
AcDbSpline
210
0.0
220
0.0
230
1.0
 70
     8
 71
     3
 72
     9
 73
     5
 74
     0
 42
0.00000001
 43
0.00000001
 40
0.0
 40
0.0
 40
0.0
 40
0.0
 40
0.5024505677200923
 40
0.9999999999999999
 40
0.9999999999999999
 40
0.9999999999999999
 40
0.9999999999999999
 10
113.4952392554864
 20
310.2296073776457
 30
0.0
 10
113.4329729381974
 20
310.2295714129353
 30
0.0
 10
113.3090476781035
 20
310.2294998343309
 30
0.0
 10
113.1850550731138
 20
310.2295708503782
 30
0.0
 10
113.1233626228943
 20
310.2296061843721
 30
0.0
  0
SPLINE
  5
CF
330
1F
100
AcDbEntity
  8
0
  6
Continuous
 62
     7
370
    25
100
AcDbSpline
210
0.0
220
0.0
230
1.0
 70
     8
 71
     3
 72
     9
 73
     5
 74
     0
 42
0.00000001
 43
0.00000001
 40
0.0
 40
0.0
 40
0.0
 40
0.0
 40
0.5021449888945024
 40
1.0
 40
1.0
 40
1.0
 40
1.0
 10
111.9952392554864
 20
310.2296073776457
 30
0.0
 10
111.9330224993484
 20
310.2295564658962
 30
0.0
 10
111.8091205237955
 20
310.2294550773518
 30
0.0
 10
111.6851046288465
 20
310.2295556288733
 30
0.0
 10
111.6233626940895
 20
310.2296056889521
 30
0.0
  0
SPLINE
  5
D0
330
1F
100
AcDbEntity
  8
0
  6
Continuous
 62
     7
370
    25
100
AcDbSpline
210
0.0
220
0.0
230
1.0
 70
     8
 71
     3
 72
     9
 73
     5
 74
     0
 42
0.00000001
 43
0.00000001
 40
0.0
 40
0.0
 40
0.0
 40
0.0
 40
0.5057289412931915
 40
1.0
 40
1.0
 40
1.0
 40
1.0
 10
113.8702404397732
 20
281.8534054142328
 30
0.0
 10
113.9329258107007
 20
281.8534291956016
 30
0.0
 10
114.0568763419223
 20
281.8534762195443
 30
0.0
 10
114.1807917832086
 20
281.8534293774046
 30
0.0
 10
114.2420395995633
 20
281.8534062246904
 30
0.0
  0
SPLINE
  5
D1
330
1F
100
AcDbEntity
  8
0
  6
Continuous
 62
     7
370
    25
100
AcDbSpline
210
0.0
220
0.0
230
1.0
 70
     8
 71
     3
 72
     9
 73
     5
 74
     0
 42
0.00000001
 43
0.00000001
 40
0.0
 40
0.0
 40
0.0
 40
0.0
 40
0.5060529424439243
 40
1.0
 40
1.0
 40
1.0
 40
1.0
 10
112.3702404397732
 20
281.8534054142328
 30
0.0
 10
112.4329742035917
 20
281.8534416618301
 30
0.0
 10
112.5569410034201
 20
281.8535132899037
 30
0.0
 10
112.6808404721244
 20
281.8534419083574
 30
0.0
 10
112.7420402501237
 20
281.8534066496526
 30
0.0
  0
SPLINE
  5
D2
330
1F
100
AcDbEntity
  8
0
  6
Continuous
 62
     7
370
    25
100
AcDbSpline
210
0.0
220
0.0
230
1.0
 70
     8
 71
     3
 72
     9
 73
     5
 74
     0
 42
0.00000001
 43
0.00000001
 40
0.0
 40
0.0
 40
0.0
 40
0.0
 40
0.5063601542004668
 40
1.0
 40
1.0
 40
1.0
 40
1.0
 10
110.8702404397732
 20
281.8534054142328
 30
0.0
 10
110.9330238438948
 20
281.8534567438184
 30
0.0
 10
111.0570134659075
 20
281.8535581135354
 30
0.0
 10
111.180889192372
 20
281.8534570525615
 30
0.0
 10
111.2420391868823
 20
281.853407164838
 30
0.0
  0
SPLINE
  5
D3
330
1F
100
AcDbEntity
  8
0
  6
Continuous
 62
     7
370
    25
100
AcDbSpline
210
0.0
220
0.0
230
1.0
 70
     8
 71
     3
 72
    20
 73
    16
 74
     0
 42
0.00000001
 43
0.00000001
 40
0.0
 40
0.0
 40
0.0
 40
0.0
 40
0.0112083997752202
 40
0.0942225686359288
 40
0.1792911179465796
 40
0.2656250077057267
 40
0.3527400619694054
 40
0.4403272978103156
 40
0.5367519080730501
 40
0.6292015623929985
 40
0.7178701825384355
 40
0.8031813155526261
 40
0.8853523006328384
 40
0.9644556721606838
 40
1.0
 40
1.0
 40
1.0
 40
1.0
 10
104.5836950748837
 20
311.5287884650775
 30
0.0
 10
104.525141653207
 20
311.5269038949764
 30
0.0
 10
104.0329167233827
 20
311.5110613983433
 30
0.0
 10
103.0979599124057
 20
311.6402471495543
 30
0.0
 10
101.8010047543988
 20
311.9364672775727
 30
0.0
 10
100.5368719443659
 20
312.427964582403
 30
0.0
 10
99.33901288359422
 20
313.0883589399198
 30
0.0
 10
98.20036158233815
 20
313.9390167588385
 30
0.0
 10
97.17535737171062
 20
314.9649114657205
 30
0.0
 10
96.30987476037102
 20
316.135099410415
 30
0.0
 10
95.64735073567755
 20
317.3643775215556
 30
0.0
 10
95.17473477547001
 20
318.6217226249928
 30
0.0
 10
94.8910798245004
 20
319.8805883515109
 30
0.0
 10
94.76760081133092
 20
320.9069168620782
 30
0.0
 10
94.7901297368411
 20
321.5059926750274
 30
0.0
 10
94.79711439958288
 20
321.6917246802364
 30
0.0
  0
ARC
  5
D4
330
1F
100
AcDbEntity
  8
0
  6
Continuous
 62
     7
370
    25
100
AcDbCircle
 10
94.1461705641
 20
230.3014295347
 30
0.0
 40
50.00000000000001
100
AcDbArc
 50
91.2
 51
95.7762782441
  0
ARC
  5
D5
330
1F
100
AcDbEntity
  8
0
  6
Continuous
 62
     7
370
    25
100
AcDbCircle
 10
66.2368054233
 20
338.2915063896
 30
0.0
 40
1.0
100
AcDbArc
 50
1.3245219123
 51
90.0
  0
ARC
  5
D6
330
1F
100
AcDbEntity
  8
0
  6
Continuous
 62
     7
370
    25
100
AcDbCircle
 10
96.1910971758
 20
338.2915063896
 30
0.0
 40
1.0
100
AcDbArc
 50
90.0
 51
178.6754780877
  0
ARC
  5
D7
330
1F
100
AcDbEntity
  8
0
  6
Continuous
 62
     7
370
    25
100
AcDbCircle
 10
81.2139512995
 20
296.0415063896
 30
0.0
 40
17.00000000000001
100
AcDbArc
 50
149.7241140142
 51
242.3088110772
  0
ARC
  5
D8
330
1F
100
AcDbEntity
  8
0
  6
Continuous
 62
     7
370
    25
100
AcDbCircle
 10
57.8965403177
 20
309.6539398644
 30
0.0
 40
10.0
100
AcDbArc
 50
329.7241140142
 51
1.3245219123
  0
LINE
  5
D9
330
1F
100
AcDbEntity
  8
0
  6
Continuous
 62
     7
370
    25
100
AcDbLine
 10
99.2250582985
 20
341.0415063896
 30
0.0
 11
99.2250582985
 21
351.7915063896
 31
0.0
  0
LINE
  5
DA
330
1F
100
AcDbEntity
  8
0
  6
Continuous
 62
     7
370
    25
100
AcDbLine
 10
63.2028443006
 20
351.7915063896
 30
0.0
 11
63.2028443006
 21
341.0415063896
 31
0.0
  0
ARC
  5
DB
330
1F
100
AcDbEntity
  8
0
  6
Continuous
 62
     7
370
    25
100
AcDbCircle
 10
97.4750582985
 20
341.0415063896
 30
0.0
 40
1.75
100
AcDbArc
 50
270.0
 51
0.0
  0
ARC
  5
DC
330
1F
100
AcDbEntity
  8
0
  6
Continuous
 62
     7
370
    25
100
AcDbCircle
 10
64.9528443006
 20
351.7915063896
 30
0.0
 40
1.750000000000008
100
AcDbArc
 50
105.8492995417
 51
180.0
  0
ARC
  5
DD
330
1F
100
AcDbEntity
  8
0
  6
Continuous
 62
     7
370
    25
100
AcDbCircle
 10
97.4750582985
 20
351.7915063896
 30
0.0
 40
1.750000000000018
100
AcDbArc
 50
0.0
 51
74.1552676611
  0
ARC
  5
DE
330
1F
100
AcDbEntity
  8
0
  6
Continuous
 62
     7
370
    25
100
AcDbCircle
 10
64.9528443006
 20
341.0415063896
 30
0.0
 40
1.750000000000007
100
AcDbArc
 50
180.0
 51
270.0
  0
ARC
  5
DF
330
1F
100
AcDbEntity
  8
0
  6
Continuous
 62
     7
370
    25
100
AcDbCircle
 10
98.2252332898
 20
354.437208089
 30
0.0
 40
1.000000000000003
100
AcDbArc
 50
171.3922075034
 51
254.1356649369
  0
ARC
  5
E0
330
1F
100
AcDbEntity
  8
0
  6
Continuous
 62
     7
370
    25
100
AcDbCircle
 10
64.2026693092
 20
354.437208089
 30
0.0
 40
1.000000000000012
100
AcDbArc
 50
285.8464245101
 51
8.5750142018
  0
ARC
  5
E1
330
1F
100
AcDbEntity
  8
0
  6
Continuous
 62
     7
370
    25
100
AcDbCircle
 10
81.2139512995
 20
296.0415063896
 30
0.0
 40
7.900000000000034
100
AcDbArc
 50
0.0
 51
90.0
  0
ARC
  5
E2
330
1F
100
AcDbEntity
  8
0
  6
Continuous
 62
     7
370
    25
100
AcDbCircle
 10
81.2139512995
 20
296.0415063896
 30
0.0
 40
7.900000000000034
100
AcDbArc
 50
90.0
 51
180.0
  0
ARC
  5
E3
330
1F
100
AcDbEntity
  8
0
  6
Continuous
 62
     7
370
    25
100
AcDbCircle
 10
81.4073537463
 20
210.6112271317
 30
0.0
 40
7.706600630641608
100
AcDbArc
 50
321.6995424575
 51
359.948796583
  0
ARC
  5
E4
330
1F
100
AcDbEntity
  8
0
  6
Continuous
 62
     7
370
    25
100
AcDbCircle
 10
81.01859653
 20
210.610867917
 30
0.0
 40
7.704647995928268
100
AcDbArc
 50
180.0485450847
 51
216.9787419777
  0
SPLINE
  5
E5
330
1F
100
AcDbEntity
  8
0
  6
Continuous
 62
     7
370
    25
100
AcDbSpline
210
0.0
220
0.0
230
1.0
 70
     8
 71
     3
 72
     9
 73
     5
 74
     0
 42
0.00000001
 43
0.00000001
 40
0.0
 40
0.0
 40
0.0
 40
0.0
 40
0.2575627509401768
 40
1.0
 40
1.0
 40
1.0
 40
1.0
 10
91.93876924154975
 20
210.9803280675951
 30
0.0
 10
91.93297102172612
 20
210.9578387779308
 30
0.0
 10
91.91045914917282
 20
210.8705230089301
 30
0.0
 10
91.88304115714543
 20
210.754643214066
 30
0.0
 10
91.86268501856988
 20
210.6686097379456
 30
0.0
  0
SPLINE
  5
E6
330
1F
100
AcDbEntity
  8
0
  6
Continuous
 62
     7
370
    25
100
AcDbSpline
210
0.0
220
0.0
230
1.0
 70
     8
 71
     3
 72
     9
 73
     5
 74
     0
 42
0.00000001
 43
0.00000001
 40
0.0
 40
0.0
 40
0.0
 40
0.0
 40
0.5640571114338283
 40
0.9999999999999999
 40
0.9999999999999999
 40
0.9999999999999999
 40
0.9999999999999999
 10
91.86268501857627
 20
210.6686097379449
 30
0.0
 10
91.83645857346976
 20
210.1720749533329
 30
0.0
 10
91.78996249253244
 20
209.2917832691276
 30
0.0
 10
91.61522667324961
 20
208.4109221308163
 30
0.0
 10
91.53905183545547
 20
208.0269169817553
 30
0.0
  0
SPLINE
  5
E7
330
1F
100
AcDbEntity
  8
0
  6
Continuous
 62
     7
370
    25
100
AcDbSpline
210
0.0
220
0.0
230
1.0
 70
     8
 71
     3
 72
    30
 73
    26
 74
     0
 42
0.00000001
 43
0.00000001
 40
0.0
 40
0.0
 40
0.0
 40
0.0
 40
0.0307682751376102
 40
0.0754826178415692
 40
0.1214936442130545
 40
0.1662092383163519
 40
0.2122126067779829
 40
0.2570910486625418
 40
0.3032656253489607
 40
0.3482321038941176
 40
0.3945005034405026
 40
0.4395348202392171
 40
0.4858661227318368
 40
0.5310485696154854
 40
0.5775412208971967
 40
0.6227251794687194
 40
0.669208987708414
 40
0.7145650541085985
 40
0.7612362845483446
 40
0.8065955494861051
 40
0.8532650875879135
 40
0.8987171828617311
 40
0.9454846031419001
 40
0.9909824746202248
 40
1.0
 40
1.0
 40
1.0
 40
1.0
 10
91.5390534037073
 20
208.0269242066127
 30
0.0
 10
91.44483568623178
 20
207.6408016156635
 30
0.0
 10
91.2136950086897
 20
206.6935420165386
 30
0.0
 10
90.58055544642916
 20
205.2456841354564
 30
0.0
 10
89.62641120990138
 20
203.7654845725176
 30
0.0
 10
88.4183737084694
 20
202.4539014544341
 30
0.0
 10
87.01774563025712
 20
201.3675989168111
 30
0.0
 10
85.43628333150993
 20
200.5183936289768
 30
0.0
 10
83.74553097195323
 20
199.9462084048019
 30
0.0
 10
81.96442083601264
 20
199.6585669682995
 30
0.0
 10
80.17441354895438
 20
199.6694938953744
 30
0.0
 10
78.39500305508501
 20
199.9774498865305
 30
0.0
 10
76.70632814950362
 20
200.5697448789024
 30
0.0
 10
75.12675833613662
 20
201.4411824312605
 30
0.0
 10
73.72997039060166
 20
202.5527120895418
 30
0.0
 10
72.53190596087136
 20
203.8911116919729
 30
0.0
 10
71.58583653759848
 20
205.3956439116568
 30
0.0
 10
70.90262730279939
 20
207.0521713117039
 30
0.0
 10
70.51517694224684
 20
208.7844909427533
 30
0.0
 10
70.42814098338367
 20
210.5730353363139
 30
0.0
 10
70.64644952986993
 20
212.3340874221122
 30
0.0
 10
71.1618624378302
 20
214.0560046310156
 30
0.0
 10
71.97634402366693
 20
215.635780810438
 30
0.0
 10
72.7137437341879
 20
216.7347781750279
 30
0.0
 10
73.22876102710946
 20
217.2191059862296
 30
0.0
 10
73.31395129953894
 20
217.2992198362857
 30
0.0
  0
SPLINE
  5
E8
330
1F
100
AcDbEntity
  8
0
  6
Continuous
 62
     7
370
    25
100
AcDbSpline
210
0.0
220
0.0
230
1.0
 70
     8
 71
     3
 72
     9
 73
     5
 74
     0
 42
0.00000001
 43
0.00000001
 40
0.0
 40
0.0
 40
0.0
 40
0.0
 40
0.0023395561044564
 40
0.9999999999999999
 40
0.9999999999999999
 40
0.9999999999999999
 40
0.9999999999999999
 10
89.11395129953893
 20
217.3391223937455
 30
0.0
 10
89.11499193753485
 20
217.3381852638198
 30
0.0
 10
89.5597934081818
 20
216.9376264040208
 30
0.0
 10
89.89562765506703
 20
216.4372310973883
 30
0.0
 10
90.23067619888985
 20
215.9380064936501
 30
0.0
  0
ARC
  5
E9
330
1F
100
AcDbEntity
  8
0
  6
Continuous
 62
     7
370
    25
100
AcDbCircle
 10
81.5081480462
 20
210.083428323
 30
0.0
 40
10.50516934326948
100
AcDbArc
 50
348.3537095045
 51
33.8695903136
  0
SPLINE
  5
EA
330
1F
100
AcDbEntity
  8
0
  6
Continuous
 62
     7
370
    25
100
AcDbSpline
210
0.0
220
0.0
230
1.0
 70
     8
 71
     3
 72
     9
 73
     5
 74
     0
 42
0.00000001
 43
0.00000001
 40
0.0
 40
0.0
 40
0.0
 40
0.0
 40
0.6275170954439173
 40
1.0
 40
1.0
 40
1.0
 40
1.0
 10
91.79704195008593
 20
207.9627573997956
 30
0.0
 10
91.89959705589622
 20
208.5892838023993
 30
0.0
 10
92.06302703502331
 20
209.5877050520394
 30
0.0
 10
91.97249199589056
 20
210.6023792683332
 30
0.0
 10
91.93876924155032
 20
210.9803280675965
 30
0.0
  0
SPLINE
  5
EB
330
1F
100
AcDbEntity
  8
0
  6
Continuous
 62
     7
370
    25
100
AcDbSpline
210
0.0
220
0.0
230
1.0
 70
     8
 71
     3
 72
     9
 73
     5
 74
     0
 42
0.00000001
 43
0.00000001
 40
0.0
 40
0.0
 40
0.0
 40
0.0
 40
0.137449841332476
 40
1.0
 40
1.0
 40
1.0
 40
1.0
 10
82.64615653121963
 20
199.5151035568355
 30
0.0
 10
82.687102314023
 20
199.5190358481311
 30
0.0
 10
82.98499849496022
 20
199.5476447665367
 30
0.0
 10
83.27637002475097
 20
199.6187301433889
 30
0.0
 10
83.52769258400318
 20
199.6800448464716
 30
0.0
  0
LINE
  5
EC
330
1F
100
AcDbEntity
  8
0
  6
Continuous
 62
     7
370
    25
100
AcDbLine
 10
91.9387692415
 20
210.9803280676
 30
0.0
 11
91.857671076
 21
210.6060914085
 31
0.0
  0
SPLINE
  5
ED
330
1F
100
AcDbEntity
  8
0
  6
Continuous
 62
     7
370
    25
100
AcDbSpline
210
0.0
220
0.0
230
1.0
 70
     8
 71
     3
 72
     9
 73
     5
 74
     0
 42
0.00000001
 43
0.00000001
 40
0.0
 40
0.0
 40
0.0
 40
0.0
 40
0.6244796915655565
 40
1.0
 40
1.0
 40
1.0
 40
1.0
 10
89.03425596048672
 20
296.027962093794
 30
0.0
 10
89.07379082539705
 20
296.2681686415568
 30
0.0
 10
89.13709931315786
 20
296.6528193371794
 30
0.0
 10
89.0207827356028
 20
297.0212352777348
 30
0.0
 10
88.97710349852328
 20
297.1595829453643
 30
0.0
  0
LINE
  5
EE
330
1F
100
AcDbEntity
  8
0
  6
Continuous
 62
     7
370
    25
100
AcDbLine
 10
81.926249242
 20
303.8174457238
 30
0.0
 11
80.4724489557
 21
303.8974604082
 31
0.0
  0
LINE
  5
EF
330
1F
100
AcDbEntity
  8
0
  6
Continuous
 62
     7
370
    25
100
AcDbLine
 10
74.0421155203
 20
299.2312730235
 30
0.0
 11
73.7503837849
 21
298.630938751
 31
0.0
  0
LWPOLYLINE
  5
F0
330
1F
100
AcDbEntity
  8
0
  6
Continuous
 62
     7
370
    25
100
AcDbPolyline
 90
       29
 70
   128
 43
0.0
 10
92.7399574829
 20
209.3540751866
 10
92.5167432082
 20
207.7461324316
 10
92.0634366848
 20
206.1858403113
 10
91.3892659264
 20
204.7049618736
 10
90.5079551052
 20
203.333643533
 10
89.4374451683
 20
202.0998013764
 10
88.1995286109
 20
201.0285528721
 10
86.8194058441
 20
200.1417055502
 10
85.3251721875
 20
199.4573130648
 10
83.7472459295
 20
198.9893076734
 10
82.1177490982
 20
198.747216616
 10
80.4698535501
 20
198.7359681685
 10
78.8371056864
 20
198.9557913168
 10
77.2527435451
 20
199.4022110955
 10
75.7490201705
 20
200.0661396853
 10
74.3565470341
 20
200.9340614148
 10
73.1036708734
 20
201.9883079003
 10
72.0158966341
 20
203.2074177237
 10
71.1153682628
 20
204.5665733246
 10
70.4204179202
 20
206.0381062143
 10
69.9451927913
 20
207.5920602269
 10
69.6993670891
 20
209.1968013399
 10
69.6879451162
 20
210.8196616518
 10
69.9111593908
 20
212.4276044067
 10
70.3644659142
 20
213.987896527
 10
71.0386366727
 20
215.4687749647
 10
71.9199474938
 20
216.8400933053
 10
72.9904574307
 20
218.0739354619
 10
73.3139512995
 20
218.3845677503
  0
ARC
  5
F1
330
1F
100
AcDbEntity
  8
0
  6
Continuous
 62
     7
370
    25
100
AcDbCircle
 10
81.4766964311
 20
210.0747672339
 30
0.0
 40
11.28629463324523
100
AcDbArc
 50
356.3388580976
 51
47.4149414934
  0
LWPOLYLINE
  5
F2
330
1F
100
AcDbEntity
  8
0
  6
Continuous
 62
     7
370
    25
100
AcDbPolyline
 90
       27
 70
   128
 43
0.0
 10
91.991515523
 20
209.4016591627
 10
91.76743845
 20
207.8274032859
 10
91.3076139132
 20
206.3036201266
 10
90.6223136329
 20
204.8643484825
 10
89.7268460849
 20
203.5417393038
 10
88.6412145345
 20
202.365337494
 10
87.3896701967
 20
201.3614219257
 10
86.0001705037
 20
200.5524184137
 10
84.5037545827
 20
199.9563987596
 10
82.9338498927
 20
199.5866770576
 10
81.3255255101
 20
199.4515122795
 10
79.714708744
 20
199.5539237832
 10
78.1373825791
 20
199.891623865
 10
76.6287818756
 20
200.4570688629
 10
75.2226062803
 20
201.2376276702
 10
73.9502674323
 20
202.2158638928
 10
72.840187279
 20
203.3699253501
 10
71.9171631767
 20
204.6740322162
 10
71.2018139586
 20
206.0990528986
 10
70.7101193442
 20
207.6131547901
 10
70.4530629785
 20
209.1825153564
 10
70.4363870761
 20
210.7720776756
 10
70.6604641491
 20
212.3463335524
 10
71.1202886859
 20
213.8701167118
 10
71.8055889662
 20
215.3093883559
 10
72.7010565142
 20
216.6319975346
 10
73.3139512995
 20
217.3390932787
  0
ARC
  5
F3
330
1F
100
AcDbEntity
  8
0
  6
Continuous
 62
     7
370
    25
100
AcDbCircle
 10
81.465910995
 20
210.0761233541
 30
0.0
 40
10.54719169371692
100
AcDbArc
 50
356.3335891867
 51
43.5206901097
  0
LINE
  5
F4
330
1F
100
AcDbEntity
  8
0
  6
Continuous
 62
     7
370
    25
100
AcDbLine
 10
92.7399574829
 20
207.0868296537
 30
0.0
 11
92.7639512995
 21
207.8196228863
 31
0.0
  0
ARC
  5
F5
330
1F
100
AcDbEntity
  8
0
  6
Continuous
 62
     7
370
    25
100
AcDbCircle
 10
81.218071139
 20
207.9607502953
 30
0.0
 40
11.55498170531316
100
AcDbArc
 50
180.6998025754
 51
355.6624921373
  0
ARC
  5
F6
330
1F
100
AcDbEntity
  8
0
  6
Continuous
 62
     7
370
    25
100
AcDbCircle
 10
81.2139512995
 20
207.4319123519
 30
0.0
 40
11.12686820564186
100
AcDbArc
 50
233.3423860225
 51
306.6576139775
  0
ARC
  5
F7
330
1F
100
AcDbEntity
  8
0
  6
Continuous
 62
     7
370
    25
100
AcDbCircle
 10
81.2139512995
 20
296.0415063896
 30
0.0
 40
9.575000000000001
100
AcDbArc
 50
325.5951096848
 51
119.4063269879
  0
ARC
  5
F8
330
1F
100
AcDbEntity
  8
0
  6
Continuous
 62
     7
370
    25
100
AcDbCircle
 10
81.2139512995
 20
296.0415063896
 30
0.0
 40
9.575000000000001
100
AcDbArc
 50
119.4063269879
 51
214.4048903152
  0
ARC
  5
F9
330
1F
100
AcDbEntity
  8
0
  6
Continuous
 62
     7
370
    25
100
AcDbCircle
 10
81.2139512995
 20
296.0415063896
 30
0.0
 40
8.24999999999998
100
AcDbArc
 50
343.2508741362
 51
119.4063269879
  0
ARC
  5
FA
330
1F
100
AcDbEntity
  8
0
  6
Continuous
 62
     7
370
    25
100
AcDbCircle
 10
81.2139512995
 20
296.0415063896
 30
0.0
 40
8.249999999999995
100
AcDbArc
 50
119.4063269879
 51
196.7491258638
  0
ARC
  5
FB
330
1F
100
AcDbEntity
  8
0
  6
Continuous
 62
     7
370
    25
100
AcDbCircle
 10
81.2139512995
 20
296.0415063896
 30
0.0
 40
8.050000000000002
100
AcDbArc
 50
29.4063269879
 51
191.0780164461
  0
ARC
  5
FC
330
1F
100
AcDbEntity
  8
0
  6
Continuous
 62
     7
370
    25
100
AcDbCircle
 10
81.2139512995
 20
296.0415063896
 30
0.0
 40
8.049999999999978
100
AcDbArc
 50
348.9219835539
 51
29.4063269879
  0
ARC
  5
FD
330
1F
100
AcDbEntity
  8
0
  6
Continuous
 62
     7
370
    25
100
AcDbCircle
 10
81.2139512995
 20
296.0415063896
 30
0.0
 40
9.925000000000036
100
AcDbArc
 50
322.7469493593
 51
182.3675813795
  0
ARC
  5
FE
330
1F
100
AcDbEntity
  8
0
  6
Continuous
 62
     7
370
    25
100
AcDbCircle
 10
81.2139512995
 20
296.0415063896
 30
0.0
 40
9.925000000000022
100
AcDbArc
 50
182.3675813795
 51
217.2530506407
  0
ARC
  5
FF
330
1F
100
AcDbEntity
  8
0
  6
Continuous
 62
     7
370
    25
100
AcDbCircle
 10
81.2139512995
 20
296.0415063896
 30
0.0
 40
9.725000000000023
100
AcDbArc
 50
182.3675813795
 51
215.6748758017
  0
ARC
  5
100
330
1F
100
AcDbEntity
  8
0
  6
Continuous
 62
     7
370
    25
100
AcDbCircle
 10
81.2139512995
 20
296.0415063896
 30
0.0
 40
9.725000000000023
100
AcDbArc
 50
324.3251241983
 51
182.3675813795
  0
ARC
  5
101
330
1F
100
AcDbEntity
  8
0
  6
Continuous
 62
     7
370
    25
100
AcDbCircle
 10
81.2139512995
 20
296.0415063896
 30
0.0
 40
14.22500000000004
100
AcDbArc
 50
303.9716277836
 51
182.3675813795
  0
ARC
  5
102
330
1F
100
AcDbEntity
  8
0
  6
Continuous
 62
     7
370
    25
100
AcDbCircle
 10
81.2139512995
 20
296.0415063896
 30
0.0
 40
14.22500000000001
100
AcDbArc
 50
182.3675813795
 51
236.2644663603
  0
LINE
  5
103
330
1F
100
AcDbEntity
  8
0
  6
Continuous
 62
     7
370
    25
100
AcDbLine
 10
71.8008990506
 20
285.3763728996
 30
0.0
 11
71.6403842228
 21
285.1945071222
 31
0.0
  0
LINE
  5
104
330
1F
100
AcDbEntity
  8
0
  6
Continuous
 62
     7
370
    25
100
AcDbLine
 10
91.475284196
 20
286.1898226661
 30
0.0
 11
91.6502642173
 21
286.0218281331
 31
0.0
  0
LINE
  5
105
330
1F
100
AcDbEntity
  8
0
  6
Continuous
 62
     7
370
    25
100
AcDbLine
 10
95.1094036663
 20
300.06977937
 30
0.0
 11
94.8764261224
 21
300.0022394929
 31
0.0
  0
SPLINE
  5
106
330
1F
100
AcDbEntity
  8
0
  6
Continuous
 62
     7
370
    25
100
AcDbSpline
210
0.0
220
0.0
230
1.0
 70
     8
 71
     3
 72
    11
 73
     7
 74
     0
 42
0.00000001
 43
0.00000001
 40
0.0
 40
0.0
 40
0.0
 40
0.0
 40
0.144670259104256
 40
0.3907520209323695
 40
0.5962314811354847
 40
1.0
 40
1.0
 40
1.0
 40
1.0
 10
95.39451175837061
 20
293.1740537300471
 30
0.0
 10
95.41889407384704
 20
293.5066324395376
 30
0.0
 10
95.48475031207055
 20
294.4049221340272
 30
0.0
 10
95.49864543700528
 20
295.7808667329799
 30
0.0
 10
95.42934211097852
 20
297.7534570793159
 30
0.0
 10
95.23692485889495
 20
299.1465387096324
 30
0.0
 10
95.10940366629839
 20
300.0697793700136
 30
0.0
  0
LINE
  5
107
330
1F
100
AcDbEntity
  8
0
  6
Continuous
 62
     7
370
    25
100
AcDbLine
 10
95.1567539611
 20
293.2221307599
 30
0.0
 11
95.3945117584
 21
293.17405373
 31
0.0
  0
LINE
  5
108
330
1F
100
AcDbEntity
  8
0
  6
Continuous
 62
     7
370
    25
100
AcDbLine
 10
67.5514764767
 20
292.0807732863
 30
0.0
 11
67.3184989328
 21
292.0132334092
 31
0.0
  0
SPLINE
  5
109
330
1F
100
AcDbEntity
  8
0
  6
Continuous
 62
     7
370
    25
100
AcDbSpline
210
0.0
220
0.0
230
1.0
 70
     8
 71
     3
 72
    11
 73
     7
 74
     0
 42
0.00000001
 43
0.00000001
 40
0.0
 40
0.0
 40
0.0
 40
0.0
 40
0.1446702591042549
 40
0.390752020932366
 40
0.5962314811354799
 40
1.0
 40
1.0
 40
1.0
 40
1.0
 10
67.03339084070734
 20
298.9089590491893
 30
0.0
 10
67.0090085252309
 20
298.5763803396987
 30
0.0
 10
66.9431522870074
 20
297.6780906452091
 30
0.0
 10
66.9292571620726
 20
296.3021460462564
 30
0.0
 10
66.99856048809943
 20
294.3295556999205
 30
0.0
 10
67.19097774018299
 20
292.9364740696039
 30
0.0
 10
67.31849893277955
 20
292.0132334092227
 30
0.0
  0
LINE
  5
10A
330
1F
100
AcDbEntity
  8
0
  6
Continuous
 62
     7
370
    25
100
AcDbLine
 10
67.0333908407
 20
298.9089590492
 30
0.0
 11
67.271148638
 21
298.8608820194
 31
0.0
  0
LINE
  5
10B
330
1F
100
AcDbEntity
  8
0
  6
Continuous
 62
     7
370
    25
100
AcDbLine
 10
84.6730907485
 20
310.0894576265
 30
0.0
 11
84.6150932259
 21
309.8539232164
 31
0.0
  0
SPLINE
  5
10C
330
1F
100
AcDbEntity
  8
0
  6
Continuous
 62
     7
370
    25
100
AcDbSpline
210
0.0
220
0.0
230
1.0
 70
     8
 71
     3
 72
    11
 73
     7
 74
     0
 42
0.00000001
 43
0.00000001
 40
0.0
 40
0.0
 40
0.0
 40
0.0
 40
0.1446702591042545
 40
0.3907520209323627
 40
0.5962314811354611
 40
1.0
 40
1.0
 40
1.0
 40
1.0
 10
90.78751837629258
 20
306.8885056570819
 30
0.0
 10
90.51168792285416
 20
307.0759107164329
 30
0.0
 10
89.76667434658013
 20
307.5820887389769
 30
0.0
 10
88.58201893215458
 20
308.2820945696355
 30
0.0
 10
86.8390539179543
 20
309.2083713018975
 30
0.0
 10
85.53640121051296
 20
309.7382738886251
 30
0.0
 10
84.67309074851785
 20
310.0894576265061
 30
0.0
  0
LINE
  5
10D
330
1F
100
AcDbEntity
  8
0
  6
Continuous
 62
     7
370
    25
100
AcDbLine
 10
90.7875183763
 20
306.8885056571
 30
0.0
 11
90.6270035485
 21
306.7066398796
 31
0.0
  0
LINE
  5
10E
330
1F
100
AcDbEntity
  8
0
  6
Continuous
 62
     7
370
    25
100
AcDbLine
 10
70.7776383818
 20
306.0611846461
 30
0.0
 11
70.9526184031
 21
305.8931901131
 31
0.0
  0
SPLINE
  5
10F
330
1F
100
AcDbEntity
  8
0
  6
Continuous
 62
     7
370
    25
100
AcDbSpline
210
0.0
220
0.0
230
1.0
 70
     8
 71
     3
 72
    11
 73
     7
 74
     0
 42
0.00000001
 43
0.00000001
 40
0.0
 40
0.0
 40
0.0
 40
0.0
 40
0.1446702591042541
 40
0.3907520209323631
 40
0.5962314811354599
 40
1.0
 40
1.0
 40
1.0
 40
1.0
 10
76.60695791746095
 20
309.7559583166531
 30
0.0
 10
76.3067451485461
 20
309.6107846665135
 30
0.0
 10
75.49587533404858
 20
309.2186729945678
 30
0.0
 10
74.29732479468825
 20
308.5427342262739
 30
0.0
 10
72.62366310651478
 20
307.4964206121999
 30
0.0
 10
71.51342765115697
 20
306.6332415686109
 30
0.0
 10
70.77763838175842
 20
306.0611846461107
 30
0.0
  0
LINE
  5
110
330
1F
100
AcDbEntity
  8
0
  6
Continuous
 62
     7
370
    25
100
AcDbLine
 10
76.6069579175
 20
309.7559583167
 30
0.0
 11
76.6842008869
 21
309.5260155093
 31
0.0
  0
SPLINE
  5
111
330
1F
100
AcDbEntity
  8
0
  6
Continuous
 62
     7
370
    25
100
AcDbSpline
210
0.0
220
0.0
230
1.0
 70
     8
 71
     3
 72
     9
 73
     5
 74
     0
 42
0.00000001
 43
0.00000001
 40
0.0
 40
0.0
 40
0.0
 40
0.0
 40
0.5862283062032535
 40
1.0
 40
1.0
 40
1.0
 40
1.0
 10
84.67309074851785
 20
310.0894576265061
 30
0.0
 10
84.36085868550958
 20
310.2045764978987
 30
0.0
 10
83.82824697143107
 20
310.4009485771286
 30
0.0
 10
83.28735264419177
 20
310.5770257866125
 30
0.0
 10
83.06354588224491
 20
310.6498815518196
 30
0.0
  0
SPLINE
  5
112
330
1F
100
AcDbEntity
  8
0
  6
Continuous
 62
     7
370
    25
100
AcDbSpline
210
0.0
220
0.0
230
1.0
 70
     8
 71
     3
 72
     9
 73
     5
 74
     0
 42
0.00000001
 43
0.00000001
 40
0.0
 40
0.0
 40
0.0
 40
0.0
 40
0.5863847898283552
 40
1.0
 40
1.0
 40
1.0
 40
1.0
 10
78.16474619612879
 20
310.4473376130269
 30
0.0
 10
77.85744165678105
 20
310.3176212873832
 30
0.0
 10
77.33337530192607
 20
310.0964076271829
 30
0.0
 10
76.81950322468877
 20
309.8555717136471
 30
0.0
 10
76.60695791746095
 20
309.7559583166531
 30
0.0
  0
ARC
  5
113
330
1F
100
AcDbEntity
  8
0
  6
Continuous
 62
     7
370
    25
100
AcDbCircle
 10
81.2139512995
 20
296.0415063896
 30
0.0
 40
14.725
100
AcDbArc
 50
82.7840658168
 51
101.9510969422
  0
SPLINE
  5
114
330
1F
100
AcDbEntity
  8
0
  6
Continuous
 62
     7
370
    25
100
AcDbSpline
210
0.0
220
0.0
230
1.0
 70
     8
 71
     3
 72
     9
 73
     5
 74
     0
 42
0.00000001
 43
0.00000001
 40
0.0
 40
0.0
 40
0.0
 40
0.0
 40
0.586228306203279
 40
1.0
 40
1.0
 40
1.0
 40
1.0
 10
70.77763838175842
 20
306.0611846461107
 30
0.0
 10
70.52182648317333
 20
305.8483431833658
 30
0.0
 10
70.08545741692701
 20
305.4852739482357
 30
0.0
 10
69.66252291686682
 20
305.1048843248255
 30
0.0
 10
69.48752459241183
 20
304.9474898660444
 30
0.0
  0
SPLINE
  5
115
330
1F
100
AcDbEntity
  8
0
  6
Continuous
 62
     7
370
    25
100
AcDbSpline
210
0.0
220
0.0
230
1.0
 70
     8
 71
     3
 72
     9
 73
     5
 74
     0
 42
0.00000001
 43
0.00000001
 40
0.0
 40
0.0
 40
0.0
 40
0.0
 40
0.5863847898283734
 40
1.0
 40
1.0
 40
1.0
 40
1.0
 10
67.2135329457309
 20
300.6037329204202
 30
0.0
 10
67.17221830935001
 20
300.2727412198249
 30
0.0
 10
67.10176178132004
 20
299.7082796131517
 30
0.0
 10
67.05339576196714
 20
299.1428353832007
 30
0.0
 10
67.03339084070734
 20
298.9089590491893
 30
0.0
  0
ARC
  5
116
330
1F
100
AcDbEntity
  8
0
  6
Continuous
 62
     7
370
    25
100
AcDbCircle
 10
81.2139512995
 20
296.0415063896
 30
0.0
 40
14.72500000000002
100
AcDbArc
 50
142.7840658168
 51
161.9510969422
  0
SPLINE
  5
117
330
1F
100
AcDbEntity
  8
0
  6
Continuous
 62
     7
370
    25
100
AcDbSpline
210
0.0
220
0.0
230
1.0
 70
     8
 71
     3
 72
     9
 73
     5
 74
     0
 42
0.00000001
 43
0.00000001
 40
0.0
 40
0.0
 40
0.0
 40
0.0
 40
0.586228306203268
 40
1.0
 40
1.0
 40
1.0
 40
1.0
 10
95.10940366629839
 20
300.0697793700136
 30
0.0
 10
95.05298350187522
 20
300.397739704151
 30
0.0
 10
94.95674085404303
 20
300.9571810185111
 30
0.0
 10
94.83878102686394
 20
301.5136478514052
 30
0.0
 10
94.78997258937208
 20
301.7438980753935
 30
0.0
  0
SPLINE
  5
118
330
1F
100
AcDbEntity
  8
0
  6
Continuous
 62
     7
370
    25
100
AcDbSpline
210
0.0
220
0.0
230
1.0
 70
     8
 71
     3
 72
     9
 73
     5
 74
     0
 42
0.00000001
 43
0.00000001
 40
0.0
 40
0.0
 40
0.0
 40
0.0
 40
0.5863847898283561
 40
1.0
 40
1.0
 40
1.0
 40
1.0
 10
92.16516454993689
 20
305.8851110822249
 30
0.0
 10
91.89917464697002
 20
306.0863864571765
 30
0.0
 10
91.44556482014498
 20
306.4296344036495
 30
0.0
 10
90.9800587622606
 20
306.7542427200644
 30
0.0
 10
90.78751837629258
 20
306.8885056570819
 30
0.0
  0
ARC
  5
119
330
1F
100
AcDbEntity
  8
0
  6
Continuous
 62
     7
370
    25
100
AcDbCircle
 10
81.2139512995
 20
296.0415063896
 30
0.0
 40
14.72500000000005
100
AcDbArc
 50
22.7840658168
 51
41.9510969422
  0
SPLINE
  5
11A
330
1F
100
AcDbEntity
  8
0
  6
Continuous
 62
     7
370
    25
100
AcDbSpline
210
0.0
220
0.0
230
1.0
 70
     8
 71
     3
 72
     9
 73
     5
 74
     0
 42
0.00000001
 43
0.00000001
 40
0.0
 40
0.0
 40
0.0
 40
0.0
 40
0.5862283062032739
 40
1.0
 40
1.0
 40
1.0
 40
1.0
 10
91.65026421731959
 20
286.0218281331257
 30
0.0
 10
91.90607611590467
 20
286.2346695958705
 30
0.0
 10
92.34244518215094
 20
286.5977388310008
 30
0.0
 10
92.76537968221115
 20
286.9781284544109
 30
0.0
 10
92.94037800666614
 20
287.135522913192
 30
0.0
  0
SPLINE
  5
11B
330
1F
100
AcDbEntity
  8
0
  6
Continuous
 62
     7
370
    25
100
AcDbSpline
210
0.0
220
0.0
230
1.0
 70
     8
 71
     3
 72
     9
 73
     5
 74
     0
 42
0.00000001
 43
0.00000001
 40
0.0
 40
0.0
 40
0.0
 40
0.0
 40
0.5863847898283556
 40
1.0
 40
1.0
 40
1.0
 40
1.0
 10
95.21436965334706
 20
291.4792798588161
 30
0.0
 10
95.25568428972792
 20
291.8102715594114
 30
0.0
 10
95.32614081775785
 20
292.3747331660847
 30
0.0
 10
95.37450683711079
 20
292.9401773960356
 30
0.0
 10
95.39451175837061
 20
293.1740537300471
 30
0.0
  0
ARC
  5
11C
330
1F
100
AcDbEntity
  8
0
  6
Continuous
 62
     7
370
    25
100
AcDbCircle
 10
81.2139512995
 20
296.0415063896
 30
0.0
 40
14.72500000000005
100
AcDbArc
 50
322.7840658168
 51
341.9510969422
  0
SPLINE
  5
11D
330
1F
100
AcDbEntity
  8
0
  6
Continuous
 62
     7
370
    25
100
AcDbSpline
210
0.0
220
0.0
230
1.0
 70
     8
 71
     3
 72
     9
 73
     5
 74
     0
 42
0.00000001
 43
0.00000001
 40
0.0
 40
0.0
 40
0.0
 40
0.0
 40
0.5863847898283803
 40
1.0
 40
1.0
 40
1.0
 40
1.0
 10
70.26273804914102
 20
286.1979016970114
 30
0.0
 10
70.5287279521079
 20
285.9966263220599
 30
0.0
 10
70.98233777893299
 20
285.6533783755869
 30
0.0
 10
71.44784383681734
 20
285.3287700591719
 30
0.0
 10
71.64038422278533
 20
285.1945071221544
 30
0.0
  0
ARC
  5
11E
330
1F
100
AcDbEntity
  8
0
  6
Continuous
 62
     7
370
    25
100
AcDbCircle
 10
81.2139512995
 20
296.0415063896
 30
0.0
 40
14.72500000000002
100
AcDbArc
 50
202.7840658168
 51
221.9510969422
  0
SPLINE
  5
11F
330
1F
100
AcDbEntity
  8
0
  6
Continuous
 62
     7
370
    25
100
AcDbSpline
210
0.0
220
0.0
230
1.0
 70
     8
 71
     3
 72
     9
 73
     5
 74
     0
 42
0.00000001
 43
0.00000001
 40
0.0
 40
0.0
 40
0.0
 40
0.0
 40
0.5862283062032886
 40
1.0
 40
1.0
 40
1.0
 40
1.0
 10
67.31849893277955
 20
292.0132334092227
 30
0.0
 10
67.37491909720275
 20
291.6852730750853
 30
0.0
 10
67.47116174503498
 20
291.1258317607252
 30
0.0
 10
67.58912157221404
 20
290.5693649278311
 30
0.0
 10
67.63793000970588
 20
290.3391147038429
 30
0.0
  0
ARC
  5
120
330
1F
100
AcDbEntity
  8
0
  6
Continuous
 62
     7
370
    25
100
AcDbCircle
 10
71.0848108748
 20
306.3001541237
 30
0.0
 40
0.3891803588382547
100
AcDbArc
 50
179.2550497425
 51
217.8816701874
  0
SPLINE
  5
121
330
1F
100
AcDbEntity
  8
0
  6
Continuous
 62
     7
370
    25
100
AcDbSpline
210
0.0
220
0.0
230
1.0
 70
    24
 71
     3
 72
    12
 73
     8
 74
     0
 42
0.00000001
 43
0.00000001
 40
0.0
 40
0.0
 40
0.0
 40
0.0
 40
0.3013828945621551
 40
0.4108442493795783
 40
0.624718519533663
 40
0.6986171054378617
 40
0.9999999999999999
 40
0.9999999999999999
 40
0.9999999999999999
 40
0.9999999999999999
 10
70.695663410547
 20
306.3052140398302
 30
0.0
 10
71.26928196994079
 20
306.6687883364874
 30
0.0
 10
72.05123705337948
 20
307.1644117169078
 30
0.0
 10
73.24596791306297
 20
307.9216630730408
 30
0.0
 10
74.00707652272673
 20
308.4040734185684
 30
0.0
 10
75.13340073560657
 20
309.1179668705836
 30
0.0
 10
75.84765310135225
 20
309.5706785153848
 30
0.0
 10
76.42125839935096
 20
309.9342444066263
 30
0.0
  0
ARC
  5
122
330
1F
100
AcDbEntity
  8
0
  6
Continuous
 62
     7
370
    25
100
AcDbCircle
 10
76.2597450248
 20
309.5801613916
 30
0.0
 40
0.3891803587956685
100
AcDbArc
 50
26.8534925694
 51
65.4801130186
  0
ARC
  5
123
330
1F
100
AcDbEntity
  8
0
  6
Continuous
 62
     7
370
    25
100
AcDbCircle
 10
85.0336306334
 20
309.942923183
 30
0.0
 40
0.3891803588378732
100
AcDbArc
 50
119.2550497425
 51
157.8816701874
  0
SPLINE
  5
124
330
1F
100
AcDbEntity
  8
0
  6
Continuous
 62
     7
370
    25
100
AcDbSpline
210
0.0
220
0.0
230
1.0
 70
    24
 71
     3
 72
    12
 73
     8
 74
     0
 42
0.00000001
 43
0.00000001
 40
0.0
 40
0.0
 40
0.0
 40
0.0
 40
0.3013828945621514
 40
0.4108442493795598
 40
0.6247185195336404
 40
0.6986171054378663
 40
1.0
 40
1.0
 40
1.0
 40
1.0
 10
84.84343891714333
 20
310.2824647309095
 30
0.0
 10
85.44511277390833
 20
309.9674836347207
 30
0.0
 10
86.26531275378127
 20
309.5381023580547
 30
0.0
 10
87.51847709508434
 20
308.8820607609501
 30
0.0
 10
88.31681101419152
 20
308.464126542706
 30
0.0
 10
89.49822298567209
 20
307.8456478874622
 30
0.0
 10
90.24740895353186
 20
307.4534430164139
 30
0.0
 10
90.84906890029588
 20
307.1384692022224
 30
0.0
  0
ARC
  5
125
330
1F
100
AcDbEntity
  8
0
  6
Continuous
 62
     7
370
    25
100
AcDbCircle
 10
90.461667327
 20
307.1013023801
 30
0.0
 40
0.3891803587972352
100
AcDbArc
 50
326.8534925694
 51
5.4801130186
  0
LINE
  5
126
330
1F
100
AcDbEntity
  8
0
  6
Continuous
 62
     7
370
    25
100
AcDbLine
 10
73.3139512995
 20
284.0361955779
 30
0.0
 11
71.5788336988
 21
284.944543577
 31
0.0
  0
ARC
  5
127
330
1F
100
AcDbEntity
  8
0
  6
Continuous
 62
     7
370
    25
100
AcDbCircle
 10
71.9662352721
 20
284.9817103991
 30
0.0
 40
0.3891803587970188
100
AcDbArc
 50
146.8534925694
 51
185.4801130186
  0
SPLINE
  5
128
330
1F
100
AcDbEntity
  8
0
  6
Continuous
 62
     7
370
    25
100
AcDbSpline
210
0.0
220
0.0
230
1.0
 70
    24
 71
     3
 72
    10
 73
     6
 74
     0
 42
0.00000001
 43
0.00000001
 40
0.0
 40
0.0
 40
0.0
 40
0.0
 40
0.6588579034621674
 40
0.8981530991963109
 40
1.0
 40
1.0
 40
1.0
 40
1.0
 10
91.73223918853098
 20
285.7777987394061
 30
0.0
 10
91.15861320384816
 20
285.4142197364086
 30
0.0
 10
90.37664799827783
 20
284.918589940319
 30
0.0
 10
89.50187523135008
 20
284.3641363086117
 30
0.0
 10
89.20313827808614
 20
284.1747890919122
 30
0.0
 10
89.11395129953894
 20
284.1182600754338
 30
0.0
  0
ARC
  5
129
330
1F
100
AcDbEntity
  8
0
  6
Continuous
 62
     7
370
    25
100
AcDbCircle
 10
91.3430917243
 20
285.7828586556
 30
0.0
 40
0.3891803587982053
100
AcDbArc
 50
359.2550497404
 51
37.8816701894
  0
ARC
  5
12A
330
1F
100
AcDbEntity
  8
0
  6
Continuous
 62
     7
370
    25
100
AcDbCircle
 10
67.265131541
 20
292.3987373303
 30
0.0
 40
0.3891803588380577
100
AcDbArc
 50
239.2550497425
 51
277.8816701874
  0
SPLINE
  5
12B
330
1F
100
AcDbEntity
  8
0
  6
Continuous
 62
     7
370
    25
100
AcDbSpline
210
0.0
220
0.0
230
1.0
 70
    24
 71
     3
 72
    12
 73
     8
 74
     0
 42
0.00000001
 43
0.00000001
 40
0.0
 40
0.0
 40
0.0
 40
0.0
 40
0.3013828945620945
 40
0.4108442493795591
 40
0.6247185195336502
 40
0.698617105437864
 40
0.9999999999999999
 40
0.9999999999999999
 40
0.9999999999999999
 40
0.9999999999999999
 10
67.06617579294263
 20
292.0642556985389
 30
0.0
 10
67.03812049557143
 20
292.7428110913846
 30
0.0
 10
66.99987559913716
 20
293.6678157484711
 30
0.0
 10
66.94144211751748
 20
295.0811087017087
 30
0.0
 10
66.90421680807412
 20
295.9814532654804
 30
0.0
 10
66.84912904947343
 20
297.3138253727396
 30
0.0
 10
66.81419544735938
 20
298.1587418885891
 30
0.0
 10
66.78614079859406
 20
298.8372815940221
 30
0.0
  0
ARC
  5
12C
330
1F
100
AcDbEntity
  8
0
  6
Continuous
 62
     7
370
    25
100
AcDbCircle
 10
67.0120289974
 20
298.5203654011
 30
0.0
 40
0.3891803587964974
100
AcDbArc
 50
86.8534925694
 51
125.4801130186
  0
SPLINE
  5
12D
330
1F
100
AcDbEntity
  8
0
  6
Continuous
 62
     7
370
    25
100
AcDbSpline
210
0.0
220
0.0
230
1.0
 70
    24
 71
     3
 72
    12
 73
     8
 74
     0
 42
0.00000001
 43
0.00000001
 40
0.0
 40
0.0
 40
0.0
 40
0.0
 40
0.3013828945621544
 40
0.4108442493795548
 40
0.6247185195336477
 40
0.6986171054378599
 40
0.9999999999999999
 40
0.9999999999999999
 40
0.9999999999999999
 40
0.9999999999999999
 10
95.36172680613528
 20
300.0187570806974
 30
0.0
 10
95.38978210350649
 20
299.3402016878516
 30
0.0
 10
95.42802699994078
 20
298.4151970307651
 30
0.0
 10
95.48646048156047
 20
297.0019040775276
 30
0.0
 10
95.52368579100381
 20
296.1015595137559
 30
0.0
 10
95.5787735496045
 20
294.7691874064968
 30
0.0
 10
95.61370715171857
 20
293.9242708906472
 30
0.0
 10
95.6417618004839
 20
293.2457311852143
 30
0.0
  0
ARC
  5
12E
330
1F
100
AcDbEntity
  8
0
  6
Continuous
 62
     7
370
    25
100
AcDbCircle
 10
95.4158736017
 20
293.5626473781
 30
0.0
 40
0.3891803587962119
100
AcDbArc
 50
266.8534925694
 51
305.4801130186
  0
ARC
  5
12F
330
1F
100
AcDbEntity
  8
0
  6
Continuous
 62
     7
370
    25
100
AcDbCircle
 10
95.1627710581
 20
299.6842754489
 30
0.0
 40
0.3891803587973804
100
AcDbArc
 50
59.2550497404
 51
97.8816701895
  0
LINE
  5
130
330
1F
100
AcDbEntity
  8
0
  6
Continuous
 62
     7
370
    25
100
AcDbLine
 10
90.8490689003
 20
307.1384692022
 30
0.0
 11
92.3970632426
 21
306.3280817318
 31
0.0
  0
LINE
  5
131
330
1F
100
AcDbEntity
  8
0
  6
Continuous
 62
     7
370
    25
100
AcDbLine
 10
92.3970632426
 20
306.3280817318
 30
0.0
 11
92.1651645499
 21
305.8851110822
 31
0.0
  0
LINE
  5
132
330
1F
100
AcDbEntity
  8
0
  6
Continuous
 62
     7
370
    25
100
AcDbLine
 10
76.4212583994
 20
309.9342444066
 30
0.0
 11
77.8970717068
 21
310.8696530967
 31
0.0
  0
LINE
  5
133
330
1F
100
AcDbEntity
  8
0
  6
Continuous
 62
     7
370
    25
100
AcDbLine
 10
77.8970717068
 20
310.8696530967
 30
0.0
 11
78.1647461961
 21
310.447337613
 31
0.0
  0
LINE
  5
134
330
1F
100
AcDbEntity
  8
0
  6
Continuous
 62
     7
370
    25
100
AcDbLine
 10
71.5788336988
 20
284.944543577
 30
0.0
 11
70.0308393565
 21
285.7549310475
 31
0.0
  0
LINE
  5
135
330
1F
100
AcDbEntity
  8
0
  6
Continuous
 62
     7
370
    25
100
AcDbLine
 10
70.0308393565
 20
285.7549310475
 30
0.0
 11
70.2627380491
 21
286.197901697
 31
0.0
  0
LINE
  5
136
330
1F
100
AcDbEntity
  8
0
  6
Continuous
 62
     7
370
    25
100
AcDbLine
 10
66.7861407986
 20
298.837281594
 30
0.0
 11
66.7139597638
 21
300.5830777546
 31
0.0
  0
LINE
  5
137
330
1F
100
AcDbEntity
  8
0
  6
Continuous
 62
     7
370
    25
100
AcDbLine
 10
67.2135329457
 20
300.6037329204
 30
0.0
 11
66.7139597638
 21
300.5830777546
 31
0.0
  0
LINE
  5
138
330
1F
100
AcDbEntity
  8
0
  6
Continuous
 62
     7
370
    25
100
AcDbLine
 10
95.6417618005
 20
293.2457311852
 30
0.0
 11
95.7139428353
 21
291.4999350247
 31
0.0
  0
LINE
  5
139
330
1F
100
AcDbEntity
  8
0
  6
Continuous
 62
     7
370
    25
100
AcDbLine
 10
95.7139428353
 20
291.4999350247
 30
0.0
 11
95.2143696533
 21
291.4792798588
 31
0.0
  0
LINE
  5
13A
330
1F
100
AcDbEntity
  8
0
  6
Continuous
 62
     7
370
    25
100
AcDbLine
 10
95.2895457713
 20
301.7645532412
 30
0.0
 11
95.3617268061
 21
300.0187570807
 31
0.0
  0
LINE
  5
13B
330
1F
100
AcDbEntity
  8
0
  6
Continuous
 62
     7
370
    25
100
AcDbLine
 10
94.7899725894
 20
301.7438980754
 30
0.0
 11
95.2895457713
 21
301.7645532412
 31
0.0
  0
LINE
  5
13C
330
1F
100
AcDbEntity
  8
0
  6
Continuous
 62
     7
370
    25
100
AcDbLine
 10
69.4875245924
 20
304.947489866
 30
0.0
 11
69.2198501031
 21
305.3698053497
 31
0.0
  0
LINE
  5
13D
330
1F
100
AcDbEntity
  8
0
  6
Continuous
 62
     7
370
    25
100
AcDbLine
 10
69.2198501031
 20
305.3698053497
 30
0.0
 11
70.6956634105
 21
306.3052140398
 31
0.0
  0
LINE
  5
13E
330
1F
100
AcDbEntity
  8
0
  6
Continuous
 62
     7
370
    25
100
AcDbLine
 10
83.0635458822
 20
310.6498815518
 30
0.0
 11
83.2954445749
 21
311.0928522014
 31
0.0
  0
LINE
  5
13F
330
1F
100
AcDbEntity
  8
0
  6
Continuous
 62
     7
370
    25
100
AcDbLine
 10
83.2954445749
 20
311.0928522014
 30
0.0
 11
84.8434389171
 21
310.2824647309
 31
0.0
  0
LINE
  5
140
330
1F
100
AcDbEntity
  8
0
  6
Continuous
 62
     7
370
    25
100
AcDbLine
 10
93.208052496
 20
286.7132074295
 30
0.0
 11
91.7322391885
 21
285.7777987394
 31
0.0
  0
LINE
  5
141
330
1F
100
AcDbEntity
  8
0
  6
Continuous
 62
     7
370
    25
100
AcDbLine
 10
92.9403780067
 20
287.1355229132
 30
0.0
 11
93.208052496
 21
286.7132074295
 31
0.0
  0
LINE
  5
142
330
1F
100
AcDbEntity
  8
0
  6
Continuous
 62
     7
370
    25
100
AcDbLine
 10
67.6379300097
 20
290.3391147038
 30
0.0
 11
67.1383568278
 21
290.318459538
 31
0.0
  0
LINE
  5
143
330
1F
100
AcDbEntity
  8
0
  6
Continuous
 62
     7
370
    25
100
AcDbLine
 10
67.1383568278
 20
290.318459538
 30
0.0
 11
67.0661757929
 21
292.0642556985
 31
0.0
  0
LINE
  5
144
330
1F
100
AcDbEntity
  8
0
  6
Continuous
 62
     7
370
    25
100
AcDbLine
 10
83.0635458822
 20
310.6498815518
 30
0.0
 11
81.3617181889
 21
311.540802017
 31
0.0
  0
LINE
  5
145
330
1F
100
AcDbEntity
  8
0
  6
Continuous
 62
     7
370
    25
100
AcDbLine
 10
79.7872197985
 20
311.4757033957
 30
0.0
 11
78.1647461961
 21
310.447337613
 31
0.0
  0
ARC
  5
146
330
1F
100
AcDbEntity
  8
0
  6
Continuous
 62
     7
370
    25
100
AcDbCircle
 10
81.2139512995
 20
296.0415063896
 30
0.0
 40
15.50000000000006
100
AcDbArc
 50
89.453771138
 51
95.2813916209
  0
LINE
  5
147
330
1F
100
AcDbEntity
  8
0
  6
Continuous
 62
     7
370
    25
100
AcDbLine
 10
81.3617181889
 20
311.540802017
 30
0.0
 11
81.5936168815
 21
311.9837726666
 31
0.0
  0
LINE
  5
148
330
1F
100
AcDbEntity
  8
0
  6
Continuous
 62
     7
370
    25
100
AcDbLine
 10
81.5936168815
 20
311.9837726666
 30
0.0
 11
83.2954445749
 21
311.0928522014
 31
0.0
  0
LINE
  5
149
330
1F
100
AcDbEntity
  8
0
  6
Continuous
 62
     7
370
    25
100
AcDbLine
 10
77.8970717068
 20
310.8696530967
 30
0.0
 11
79.5195453091
 21
311.8980188794
 31
0.0
  0
LINE
  5
14A
330
1F
100
AcDbEntity
  8
0
  6
Continuous
 62
     7
370
    25
100
AcDbLine
 10
79.5195453091
 20
311.8980188794
 30
0.0
 11
79.7872197985
 21
311.4757033957
 31
0.0
  0
ARC
  5
14B
330
1F
100
AcDbEntity
  8
0
  6
Continuous
 62
     7
370
    25
100
AcDbCircle
 10
93.8669922433
 20
304.994190617
 30
0.0
 40
0.5000000000000342
100
AcDbArc
 50
35.2813916209
 51
62.3675813795
  0
LINE
  5
14C
330
1F
100
AcDbEntity
  8
0
  6
Continuous
 62
     7
370
    25
100
AcDbLine
 10
93.8669922433
 20
304.994190617
 30
0.0
 11
94.2751548544
 21
305.2829868824
 31
0.0
  0
LINE
  5
14D
330
1F
100
AcDbEntity
  8
0
  6
Continuous
 62
     7
370
    25
100
AcDbLine
 10
94.0988909359
 20
305.4371612665
 30
0.0
 11
93.8669922433
 21
304.994190617
 31
0.0
  0
ARC
  5
14E
330
1F
100
AcDbEntity
  8
0
  6
Continuous
 62
     7
370
    25
100
AcDbCircle
 10
94.7106184983
 20
303.6631843233
 30
0.0
 40
0.5000000000000248
100
AcDbArc
 50
2.3675813795
 51
29.453771138
  0
LINE
  5
14F
330
1F
100
AcDbEntity
  8
0
  6
Continuous
 62
     7
370
    25
100
AcDbLine
 10
94.7106184983
 20
303.6631843233
 30
0.0
 11
95.2101916803
 21
303.6838394892
 31
0.0
  0
LINE
  5
150
330
1F
100
AcDbEntity
  8
0
  6
Continuous
 62
     7
370
    25
100
AcDbLine
 10
95.1459948596
 20
303.9090449018
 30
0.0
 11
94.7106184983
 21
303.6631843233
 31
0.0
  0
LINE
  5
151
330
1F
100
AcDbEntity
  8
0
  6
Continuous
 62
     7
370
    25
100
AcDbLine
 10
92.3970632426
 20
306.3280817318
 30
0.0
 11
94.0988909359
 21
305.4371612665
 31
0.0
  0
LINE
  5
152
330
1F
100
AcDbEntity
  8
0
  6
Continuous
 62
     7
370
    25
100
AcDbLine
 10
93.8669922433
 20
304.994190617
 30
0.0
 11
92.1651645499
 21
305.8851110822
 31
0.0
  0
ARC
  5
153
330
1F
100
AcDbEntity
  8
0
  6
Continuous
 62
     7
370
    25
100
AcDbCircle
 10
81.2139512995
 20
296.0415063896
 30
0.0
 40
16.00000000000004
100
AcDbArc
 50
29.453771138
 51
35.2813916209
  0
ARC
  5
154
330
1F
100
AcDbEntity
  8
0
  6
Continuous
 62
     7
370
    25
100
AcDbCircle
 10
81.2139512995
 20
296.0415063896
 30
0.0
 40
15.50000000000004
100
AcDbArc
 50
29.453771138
 51
35.2813916209
  0
LINE
  5
155
330
1F
100
AcDbEntity
  8
0
  6
Continuous
 62
     7
370
    25
100
AcDbLine
 10
94.7899725894
 20
301.7438980754
 30
0.0
 11
94.7106184983
 21
303.6631843233
 31
0.0
  0
LINE
  5
156
330
1F
100
AcDbEntity
  8
0
  6
Continuous
 62
     7
370
    25
100
AcDbLine
 10
95.2101916803
 20
303.6838394892
 30
0.0
 11
95.2895457713
 21
301.7645532412
 31
0.0
  0
LINE
  5
157
330
1F
100
AcDbEntity
  8
0
  6
Continuous
 62
     7
370
    25
100
AcDbLine
 10
79.7872197985
 20
311.4757033957
 30
0.0
 11
79.7411962016
 21
311.9735807185
 31
0.0
  0
ARC
  5
158
330
1F
100
AcDbEntity
  8
0
  6
Continuous
 62
     7
370
    25
100
AcDbCircle
 10
81.2139512995
 20
296.0415063896
 30
0.0
 40
16.00000000000005
100
AcDbArc
 50
89.453771138
 51
95.2813916209
  0
LINE
  5
159
330
1F
100
AcDbEntity
  8
0
  6
Continuous
 62
     7
370
    25
100
AcDbLine
 10
81.3617181889
 20
311.540802017
 30
0.0
 11
81.3664848627
 21
312.0407792954
 31
0.0
  0
LINE
  5
15A
330
1F
100
AcDbEntity
  8
0
  6
Continuous
 62
     7
370
    25
100
AcDbLine
 10
95.7479099523
 20
289.3509125535
 30
0.0
 11
95.2937237444
 21
289.5599936109
 31
0.0
  0
LINE
  5
15B
330
1F
100
AcDbEntity
  8
0
  6
Continuous
 62
     7
370
    25
100
AcDbLine
 10
95.7932969263
 20
289.5806487767
 30
0.0
 11
95.2937237444
 21
289.5599936109
 31
0.0
  0
ARC
  5
15C
330
1F
100
AcDbEntity
  8
0
  6
Continuous
 62
     7
370
    25
100
AcDbCircle
 10
95.2937237444
 20
289.5599936109
 30
0.0
 40
0.5000000000000095
100
AcDbArc
 50
335.2813916209
 51
2.3675813795
  0
ARC
  5
15D
330
1F
100
AcDbEntity
  8
0
  6
Continuous
 62
     7
370
    25
100
AcDbCircle
 10
67.8650509901
 20
303.9191240833
 30
0.0
 40
0.5000000000000131
100
AcDbArc
 50
122.3675813795
 51
149.453771138
  0
LINE
  5
15E
330
1F
100
AcDbEntity
  8
0
  6
Continuous
 62
     7
370
    25
100
AcDbLine
 10
67.8650509901
 20
303.9191240833
 30
0.0
 11
67.5973765008
 21
304.341439567
 31
0.0
  0
LINE
  5
15F
330
1F
100
AcDbEntity
  8
0
  6
Continuous
 62
     7
370
    25
100
AcDbLine
 10
67.8650509901
 20
303.9191240833
 30
0.0
 11
67.4344413027
 21
304.1732407831
 31
0.0
  0
LINE
  5
160
330
1F
100
AcDbEntity
  8
0
  6
Continuous
 62
     7
370
    25
100
AcDbLine
 10
95.7139428353
 20
291.4999350247
 30
0.0
 11
95.7932969263
 21
289.5806487767
 31
0.0
  0
LINE
  5
161
330
1F
100
AcDbEntity
  8
0
  6
Continuous
 62
     7
370
    25
100
AcDbLine
 10
95.2937237444
 20
289.5599936109
 30
0.0
 11
95.2143696533
 21
291.4792798588
 31
0.0
  0
ARC
  5
162
330
1F
100
AcDbEntity
  8
0
  6
Continuous
 62
     7
370
    25
100
AcDbCircle
 10
81.2139512995
 20
296.0415063896
 30
0.0
 40
15.50000000000002
100
AcDbArc
 50
149.453771138
 51
155.2813916209
  0
LINE
  5
163
330
1F
100
AcDbEntity
  8
0
  6
Continuous
 62
     7
370
    25
100
AcDbLine
 10
67.1341788547
 20
302.5230191684
 30
0.0
 11
66.6799926468
 21
302.7321002257
 31
0.0
  0
ARC
  5
164
330
1F
100
AcDbEntity
  8
0
  6
Continuous
 62
     7
370
    25
100
AcDbCircle
 10
81.2139512995
 20
296.0415063896
 30
0.0
 40
16.00000000000002
100
AcDbArc
 50
149.453771138
 51
155.2813916209
  0
LINE
  5
165
330
1F
100
AcDbEntity
  8
0
  6
Continuous
 62
     7
370
    25
100
AcDbLine
 10
69.4875245924
 20
304.947489866
 30
0.0
 11
67.8650509901
 21
303.9191240833
 31
0.0
  0
LINE
  5
166
330
1F
100
AcDbEntity
  8
0
  6
Continuous
 62
     7
370
    25
100
AcDbLine
 10
67.1341788547
 20
302.5230191684
 30
0.0
 11
67.2135329457
 21
300.6037329204
 31
0.0
  0
LINE
  5
167
330
1F
100
AcDbEntity
  8
0
  6
Continuous
 62
     7
370
    25
100
AcDbLine
 10
67.5973765008
 20
304.341439567
 30
0.0
 11
69.2198501031
 21
305.3698053497
 31
0.0
  0
ARC
  5
168
330
1F
100
AcDbEntity
  8
0
  6
Continuous
 62
     7
370
    25
100
AcDbCircle
 10
81.2139512995
 20
296.0415063896
 30
0.0
 40
16.00000000000003
100
AcDbArc
 50
329.453771138
 51
335.2813916209
  0
LINE
  5
169
330
1F
100
AcDbEntity
  8
0
  6
Continuous
 62
     7
370
    25
100
AcDbLine
 10
94.9934612964
 20
287.9097719961
 30
0.0
 11
94.562851609
 21
288.1638886959
 31
0.0
  0
ARC
  5
16A
330
1F
100
AcDbEntity
  8
0
  6
Continuous
 62
     7
370
    25
100
AcDbCircle
 10
81.2139512995
 20
296.0415063896
 30
0.0
 40
15.50000000000001
100
AcDbArc
 50
329.453771138
 51
335.2813916209
  0
ARC
  5
16B
330
1F
100
AcDbEntity
  8
0
  6
Continuous
 62
     7
370
    25
100
AcDbCircle
 10
79.7872197985
 20
311.4757033957
 30
0.0
 40
0.499999999999991
100
AcDbArc
 50
95.2813916209
 51
122.3675813795
  0
ARC
  5
16C
330
1F
100
AcDbEntity
  8
0
  6
Continuous
 62
     7
370
    25
100
AcDbCircle
 10
67.1341788547
 20
302.5230191684
 30
0.0
 40
0.4999999999999837
100
AcDbArc
 50
155.2813916209
 51
182.3675813795
  0
LINE
  5
16D
330
1F
100
AcDbEntity
  8
0
  6
Continuous
 62
     7
370
    25
100
AcDbLine
 10
67.1341788547
 20
302.5230191684
 30
0.0
 11
66.6346056727
 21
302.5023640025
 31
0.0
  0
ARC
  5
16E
330
1F
100
AcDbEntity
  8
0
  6
Continuous
 62
     7
370
    25
100
AcDbCircle
 10
81.3617181889
 20
311.540802017
 30
0.0
 40
0.5000000000000479
100
AcDbArc
 50
62.3675813795
 51
89.453771138
  0
LINE
  5
16F
330
1F
100
AcDbEntity
  8
0
  6
Continuous
 62
     7
370
    25
100
AcDbLine
 10
66.7139597638
 20
300.5830777546
 30
0.0
 11
66.6346056727
 21
302.5023640025
 31
0.0
  0
LINE
  5
170
330
1F
100
AcDbEntity
  8
0
  6
Continuous
 62
     7
370
    25
100
AcDbLine
 10
92.9403780067
 20
287.1355229132
 30
0.0
 11
94.562851609
 21
288.1638886959
 31
0.0
  0
LINE
  5
171
330
1F
100
AcDbEntity
  8
0
  6
Continuous
 62
     7
370
    25
100
AcDbLine
 10
94.562851609
 20
288.1638886959
 30
0.0
 11
94.8305260983
 21
287.7415732122
 31
0.0
  0
LINE
  5
172
330
1F
100
AcDbEntity
  8
0
  6
Continuous
 62
     7
370
    25
100
AcDbLine
 10
94.8305260983
 20
287.7415732122
 30
0.0
 11
93.208052496
 21
286.7132074295
 31
0.0
  0
ARC
  5
173
330
1F
100
AcDbEntity
  8
0
  6
Continuous
 62
     7
370
    25
100
AcDbCircle
 10
94.562851609
 20
288.1638886959
 30
0.0
 40
0.5000000000000611
100
AcDbArc
 50
302.3675813795
 51
329.453771138
  0
LINE
  5
174
330
1F
100
AcDbEntity
  8
0
  6
Continuous
 62
     7
370
    25
100
AcDbLine
 10
67.6379300097
 20
290.3391147038
 30
0.0
 11
67.7172841008
 21
288.4198284559
 31
0.0
  0
LINE
  5
175
330
1F
100
AcDbEntity
  8
0
  6
Continuous
 62
     7
370
    25
100
AcDbLine
 10
67.7172841008
 20
288.4198284559
 30
0.0
 11
67.2177109188
 21
288.3991732901
 31
0.0
  0
LINE
  5
176
330
1F
100
AcDbEntity
  8
0
  6
Continuous
 62
     7
370
    25
100
AcDbLine
 10
67.2177109188
 20
288.3991732901
 30
0.0
 11
67.1383568278
 21
290.318459538
 31
0.0
  0
LINE
  5
177
330
1F
100
AcDbEntity
  8
0
  6
Continuous
 62
     7
370
    25
100
AcDbLine
 10
68.5609103558
 20
287.0888221622
 30
0.0
 11
70.2627380491
 21
286.197901697
 31
0.0
  0
ARC
  5
178
330
1F
100
AcDbEntity
  8
0
  6
Continuous
 62
     7
370
    25
100
AcDbCircle
 10
81.2139512995
 20
296.0415063896
 30
0.0
 40
15.50000000000001
100
AcDbArc
 50
209.453771138
 51
215.2813916209
  0
LINE
  5
179
330
1F
100
AcDbEntity
  8
0
  6
Continuous
 62
     7
370
    25
100
AcDbLine
 10
68.1527477447
 20
286.8000258968
 30
0.0
 11
68.5609103558
 21
287.0888221622
 31
0.0
  0
ARC
  5
17A
330
1F
100
AcDbEntity
  8
0
  6
Continuous
 62
     7
370
    25
100
AcDbCircle
 10
81.2139512995
 20
296.0415063896
 30
0.0
 40
16.00000000000003
100
AcDbArc
 50
209.453771138
 51
215.2813916209
  0
LINE
  5
17B
330
1F
100
AcDbEntity
  8
0
  6
Continuous
 62
     7
370
    25
100
AcDbLine
 10
67.7172841008
 20
288.4198284559
 30
0.0
 11
67.2819077395
 21
288.1739678774
 31
0.0
  0
LINE
  5
17C
330
1F
100
AcDbEntity
  8
0
  6
Continuous
 62
     7
370
    25
100
AcDbLine
 10
70.0308393565
 20
285.7549310475
 30
0.0
 11
68.3290116631
 21
286.6458515127
 31
0.0
  0
LINE
  5
17D
330
1F
100
AcDbEntity
  8
0
  6
Continuous
 62
     7
370
    25
100
AcDbLine
 10
68.3290116631
 20
286.6458515127
 30
0.0
 11
68.5609103558
 21
287.0888221622
 31
0.0
  0
ARC
  5
17E
330
1F
100
AcDbEntity
  8
0
  6
Continuous
 62
     7
370
    25
100
AcDbCircle
 10
68.5609103558
 20
287.0888221622
 30
0.0
 40
0.5000000000000474
100
AcDbArc
 50
215.2813916209
 51
242.3675813795
  0
ARC
  5
17F
330
1F
100
AcDbEntity
  8
0
  6
Continuous
 62
     7
370
    25
100
AcDbCircle
 10
67.7172841008
 20
288.4198284559
 30
0.0
 40
0.5000000000000248
100
AcDbArc
 50
182.3675813795
 51
209.453771138
  0
ARC
  5
180
330
1F
100
AcDbEntity
  8
0
  6
Continuous
 62
     7
370
    25
100
AcDbCircle
 10
157.3253089589
 20
294.668196948
 30
0.0
 40
7.43437665833275
100
AcDbArc
 50
356.0704737418
 51
3.9295262582
  0
ARC
  5
181
330
1F
100
AcDbEntity
  8
0
  6
Continuous
 62
     7
370
    25
100
AcDbCircle
 10
161.7014217341
 20
295.6238480044
 30
0.0
 40
3.375347654717446
100
AcDbArc
 50
334.2741059287
 51
346.2044345254
  0
SPLINE
  5
182
330
1F
100
AcDbEntity
  8
0
  6
Continuous
 62
     7
370
    25
100
AcDbSpline
210
0.0
220
0.0
230
1.0
 70
     8
 71
     3
 72
    11
 73
     7
 74
     0
 42
0.00000001
 43
0.00000001
 40
0.0
 40
0.0
 40
0.0
 40
0.0
 40
0.2315464225934509
 40
0.5151704979216203
 40
0.797693950243285
 40
1.0
 40
1.0
 40
1.0
 40
1.0
 10
165.008021891992
 20
294.788775052467
 30
0.0
 10
165.0122179633103
 20
294.8259368139593
 30
0.0
 10
165.0215538542568
 20
294.9086184764839
 30
0.0
 10
165.0180629246354
 20
294.9441090664885
 30
0.0
 10
165.0032888638509
 20
294.9129997236532
 30
0.0
 10
164.9864332419154
 20
294.846653020344
 30
0.0
 10
164.9793998533214
 20
294.8189683612972
 30
0.0
  0
ARC
  5
183
330
1F
100
AcDbEntity
  8
0
  6
Continuous
 62
     7
370
    25
100
AcDbCircle
 10
157.3203903579
 20
296.3690277534
 30
0.0
 40
7.745894944075792
100
AcDbArc
 50
349.3094308212
 51
351.4102179214
  0
SPLINE
  5
184
330
1F
100
AcDbEntity
  8
0
  6
Continuous
 62
     7
370
    25
100
AcDbSpline
210
0.0
220
0.0
230
1.0
 70
     8
 71
     3
 72
    10
 73
     6
 74
     0
 42
0.00000001
 43
0.00000001
 40
0.0
 40
0.0
 40
0.0
 40
0.0
 40
0.3690842019180309
 40
0.7367361468477003
 40
1.0
 40
1.0
 40
1.0
 40
1.0
 10
165.0182687181815
 20
295.8611925286801
 30
0.0
 10
165.0185148336079
 20
295.780129203699
 30
0.0
 10
165.0190061093925
 20
295.6183171256233
 30
0.0
 10
165.0031295969228
 20
295.3890361664153
 30
0.0
 10
164.9863863506391
 20
295.2641994789821
 30
0.0
 10
164.9793998533214
 20
295.2121085542527
 30
0.0
  0
SPLINE
  5
185
330
1F
100
AcDbEntity
  8
0
  6
Continuous
 62
     7
370
    25
100
AcDbSpline
210
0.0
220
0.0
230
1.0
 70
     8
 71
     3
 72
    11
 73
     7
 74
     0
 42
0.00000001
 43
0.00000001
 40
0.0
 40
0.0
 40
0.0
 40
0.0
 40
0.3307540669562893
 40
0.6616399873463896
 40
0.9896169167736562
 40
1.0
 40
1.0
 40
1.0
 40
1.0
 10
164.9793998533214
 20
297.5047393518643
 30
0.0
 10
164.9891481901257
 20
297.4376019589503
 30
0.0
 10
165.0086487498593
 20
297.3033004091407
 30
0.0
 10
165.0196271712738
 20
297.1883116195311
 30
0.0
 10
165.0214505272712
 20
297.1381408312787
 30
0.0
 10
165.0155952101571
 20
297.151725645666
 30
0.0
 10
165.015415530991
 20
297.1521425160204
 30
0.0
  0
ARC
  5
186
330
1F
100
AcDbEntity
  8
0
  6
Continuous
 62
     7
370
    25
100
AcDbCircle
 10
157.2574705979
 20
296.3363241537
 30
0.0
 40
7.809826214494908
100
AcDbArc
 50
8.6042304424
 51
16.5896030164
  0
ARC
  5
187
330
1F
100
AcDbEntity
  8
0
  6
Continuous
 62
     7
370
    25
100
AcDbCircle
 10
161.8767395077
 20
298.2492249355
 30
0.0
 40
2.882940696889739
100
AcDbArc
 50
353.6888017346
 51
6.3111982654
  0
ARC
  5
188
330
1F
100
AcDbEntity
  8
0
  6
Continuous
 62
     7
370
    25
100
AcDbCircle
 10
157.2574705979
 20
295.7024890268
 30
0.0
 40
7.809826214502489
100
AcDbArc
 50
8.6042304424
 51
16.5896030164
  0
SPLINE
  5
189
330
1F
100
AcDbEntity
  8
0
  6
Continuous
 62
     7
370
    25
100
AcDbSpline
210
0.0
220
0.0
230
1.0
 70
     8
 71
     3
 72
    12
 73
     8
 74
     0
 42
0.00000001
 43
0.00000001
 40
0.0
 40
0.0
 40
0.0
 40
0.0
 40
0.2133534395476138
 40
0.4267919313634461
 40
0.6383539739091598
 40
0.8490950351927609
 40
1.0
 40
1.0
 40
1.0
 40
1.0
 10
164.9793998533214
 20
295.8379153824579
 30
0.0
 10
164.9890589970488
 20
295.8888956794223
 30
0.0
 10
165.0083811350723
 20
295.9908765963883
 30
0.0
 10
165.0206942050804
 20
296.2172854289011
 30
0.0
 10
165.0183567647836
 20
296.465716298598
 30
0.0
 10
165.0032392457698
 20
296.6938042658974
 30
0.0
 10
164.9864186333889
 20
296.8187625579732
 30
0.0
 10
164.9793998533214
 20
296.8709042249837
 30
0.0
  0
ARC
  5
18A
330
1F
100
AcDbEntity
  8
0
  6
Continuous
 62
     7
370
    25
100
AcDbCircle
 10
161.7014217341
 20
296.6427950256
 30
0.0
 40
3.375347654717162
100
AcDbArc
 50
334.2741059287
 51
346.2044345254
  0
LINE
  5
18B
330
1F
100
AcDbEntity
  8
0
  6
Continuous
 62
     7
370
    25
100
AcDbLine
 10
162.4188783141
 20
303.1915063896
 30
0.0
 11
162.4188783141
 21
288.8915186223
 31
0.0
  0
LINE
  5
18C
330
1F
100
AcDbEntity
  8
0
  6
Continuous
 62
     7
370
    25
100
AcDbLine
 10
164.3188783141
 20
301.3704116092
 30
0.0
 11
164.3188783141
 21
290.712592053
 31
0.0
  0
LWPOLYLINE
  5
18D
330
1F
100
AcDbEntity
  8
0
  6
Continuous
 62
     7
370
    25
100
AcDbPolyline
 90
        3
 70
   128
 43
0.0
 10
148.0726775028
 20
287.9963255091
 10
154.0641512995
 20
288.05730585
 10
157.5519952567
 20
288.0930524561
  0
LINE
  5
18E
330
1F
100
AcDbEntity
  8
0
  6
Continuous
 62
     7
370
    25
100
AcDbLine
 10
148.0726775028
 20
304.4773098522
 30
0.0
 11
148.0726775028
 21
287.9963255091
 31
0.0
  0
LWPOLYLINE
  5
18F
330
1F
100
AcDbEntity
  8
0
  6
Continuous
 62
     7
370
    25
100
AcDbPolyline
 90
        3
 70
   128
 43
0.0
 10
156.6185750428
 20
304.3753606207
 10
154.0641512995
 20
304.4059484072
 10
148.0726774858
 20
304.4773095971
  0
SPLINE
  5
190
330
1F
100
AcDbEntity
  8
0
  6
Continuous
 62
     7
370
    25
100
AcDbSpline
210
0.0
220
0.0
230
1.0
 70
     8
 71
     3
 72
    11
 73
     7
 74
     0
 42
0.00000001
 43
0.00000001
 40
0.0
 40
0.0
 40
0.0
 40
0.0
 40
0.2499999999999937
 40
0.500000000000001
 40
0.7499999999999979
 40
1.0
 40
1.0
 40
1.0
 40
1.0
 10
148.0726775027576
 20
287.9963239717981
 30
0.0
 10
148.0063064500202
 20
288.0020695216218
 30
0.0
 10
147.8735643445455
 20
288.0135606212691
 30
0.0
 10
147.7051006037648
 20
288.114891040266
 30
0.0
 10
147.5870132447297
 20
288.2613267306103
 30
0.0
 10
147.5716386146025
 20
288.3779046117905
 30
0.0
 10
147.563951299539
 20
288.4361935523806
 30
0.0
  0
LINE
  5
191
330
1F
100
AcDbEntity
  8
0
  6
Continuous
 62
     7
370
    25
100
AcDbLine
 10
147.5639512995
 20
288.436253875
 30
0.0
 11
147.5639512995
 21
304.0159592233
 31
0.0
  0
SPLINE
  5
192
330
1F
100
AcDbEntity
  8
0
  6
Continuous
 62
     7
370
    25
100
AcDbSpline
210
0.0
220
0.0
230
1.0
 70
     8
 71
     3
 72
    11
 73
     7
 74
     0
 42
0.00000001
 43
0.00000001
 40
0.0
 40
0.0
 40
0.0
 40
0.0
 40
0.2499999999999895
 40
0.5000000000000012
 40
0.7499999999999961
 40
1.0
 40
1.0
 40
1.0
 40
1.0
 10
148.0726775027576
 20
304.4773095969416
 30
0.0
 10
148.0063064500202
 20
304.4712834663003
 30
0.0
 10
147.8735643445455
 20
304.459231205018
 30
0.0
 10
147.7051006037648
 20
304.352952369825
 30
0.0
 10
147.5870132447297
 20
304.1993655717584
 30
0.0
 10
147.5716386146025
 20
304.0770946728147
 30
0.0
 10
147.563951299539
 20
304.0159592233428
 30
0.0
  0
LINE
  5
193
330
1F
100
AcDbEntity
  8
0
  6
Continuous
 62
     7
370
    25
100
AcDbLine
 10
162.4139512995
 20
304.4409500439
 30
0.0
 11
162.4139512995
 21
287.6420627354
 31
0.0
  0
SPLINE
  5
194
330
1F
100
AcDbEntity
  8
0
  6
Continuous
 62
     7
370
    25
100
AcDbSpline
210
0.0
220
0.0
230
1.0
 70
     8
 71
     3
 72
    12
 73
     8
 74
     0
 42
0.00000001
 43
0.00000001
 40
0.0
 40
0.0
 40
0.0
 40
0.0
 40
0.1662426524176538
 40
0.3368059756191286
 40
0.6054181071254578
 40
0.880143508713619
 40
1.0
 40
1.0
 40
1.0
 40
1.0
 10
152.1551853294828
 20
284.0753954860271
 30
0.0
 10
152.2546420367581
 20
284.262337436105
 30
0.0
 10
152.456140345637
 20
284.6410799848099
 30
0.0
 10
153.2783881016595
 20
285.4116301214382
 30
0.0
 10
154.6402172686461
 20
286.3800005599088
 30
0.0
 10
156.2013234573049
 20
287.3191412346727
 30
0.0
 10
157.1715631494666
 20
287.9116135928162
 30
0.0
 10
157.4662789671694
 20
288.0915804369964
 30
0.0
  0
LINE
  5
195
330
1F
100
AcDbEntity
  8
0
  6
Continuous
 62
     7
370
    25
100
AcDbLine
 10
152.1551853295
 20
284.075395486
 30
0.0
 11
148.0726775028
 21
284.0067946126
 31
0.0
  0
LINE
  5
196
330
1F
100
AcDbEntity
  8
0
  6
Continuous
 62
     7
370
    25
100
AcDbLine
 10
148.0726775028
 20
287.996324287
 30
0.0
 11
148.0726775028
 21
284.0067946126
 31
0.0
  0
LWPOLYLINE
  5
197
330
1F
100
AcDbEntity
  8
0
  6
Continuous
 62
     7
370
    25
100
AcDbPolyline
 90
        3
 70
   128
 43
0.0
 10
157.4662789672
 20
288.091580437
 10
154.0639512995
 20
288.0570504182
 10
148.0726775197
 20
287.996323972
  0
ARC
  5
198
330
1F
100
AcDbEntity
  8
0
  6
Continuous
 62
     7
370
    25
100
AcDbCircle
 10
148.0551671631
 20
284.4977947863
 30
0.0
 40
0.4913123065720113
100
AcDbArc
 50
181.1352754124
 51
272.0424505137
  0
LINE
  5
199
330
1F
100
AcDbEntity
  8
0
  6
Continuous
 62
     7
370
    25
100
AcDbLine
 10
147.5639512995
 20
284.4880604169
 30
0.0
 11
147.5639512995
 21
288.4362526519
 31
0.0
  0
LINE
  5
19A
330
1F
100
AcDbEntity
  8
0
  6
Continuous
 62
     7
370
    25
100
AcDbLine
 10
157.4662789672
 20
288.091580437
 30
0.0
 11
157.5073889235
 21
288.0922854756
 31
0.0
  0
LINE
  5
19B
330
1F
100
AcDbEntity
  8
0
  6
Continuous
 62
     7
370
    25
100
AcDbLine
 10
157.5519952567
 20
288.0930524561
 30
0.0
 11
157.5073889235
 21
288.0922854756
 31
0.0
  0
LINE
  5
19C
330
1F
100
AcDbEntity
  8
0
  6
Continuous
 62
     7
370
    25
100
AcDbLine
 10
152.0988561124
 20
307.3641665464
 30
0.0
 11
152.0988561124
 21
307.4009050973
 31
0.0
  0
SPLINE
  5
19D
330
1F
100
AcDbEntity
  8
0
  6
Continuous
 62
     7
370
    25
100
AcDbSpline
210
0.0
220
0.0
230
1.0
 70
     8
 71
     3
 72
    13
 73
     9
 74
     0
 42
0.00000001
 43
0.00000001
 40
0.0
 40
0.0
 40
0.0
 40
0.0
 40
0.0460329529079877
 40
0.2492425848193729
 40
0.4775225570272892
 40
0.7051721168687848
 40
0.8526808263814667
 40
1.0
 40
1.0
 40
1.0
 40
1.0
 10
156.547865099556
 20
304.3766946500343
 30
0.0
 10
156.4458745652475
 20
304.4327572861091
 30
0.0
 10
155.893653106655
 20
304.7363049719374
 30
0.0
 10
154.8525341821933
 20
305.286040208381
 30
0.0
 10
153.5673337388127
 20
305.9958572755705
 30
0.0
 10
152.6747628386899
 20
306.5876475804939
 30
0.0
 10
152.1862203812984
 20
307.0447774463587
 30
0.0
 10
152.1279650518476
 20
307.2577491507244
 30
0.0
 10
152.0988561124135
 20
307.3641665463861
 30
0.0
  0
LWPOLYLINE
  5
19E
330
1F
100
AcDbEntity
  8
0
  6
Continuous
 62
     7
370
    25
100
AcDbPolyline
 90
        3
 70
   128
 43
0.0
 10
156.5478650996
 20
304.37669465
 10
154.0639512995
 20
304.4062041855
 10
148.0726775028
 20
304.4773111343
  0
LINE
  5
19F
330
1F
100
AcDbEntity
  8
0
  6
Continuous
 62
     7
370
    25
100
AcDbLine
 10
148.0726775028
 20
307.470111803
 30
0.0
 11
148.0726775028
 21
304.4773111343
 31
0.0
  0
LINE
  5
1A0
330
1F
100
AcDbEntity
  8
0
  6
Continuous
 62
     7
370
    25
100
AcDbLine
 10
152.0988561124
 20
307.4009050973
 30
0.0
 11
148.0726775028
 21
307.470111803
 31
0.0
  0
ARC
  5
1A1
330
1F
100
AcDbEntity
  8
0
  6
Continuous
 62
     7
370
    25
100
AcDbCircle
 10
148.0603257747
 20
306.9738754878
 30
0.0
 40
0.4963900136583504
100
AcDbArc
 50
88.5741555685
 51
179.5466524836
  0
LINE
  5
1A2
330
1F
100
AcDbEntity
  8
0
  6
Continuous
 62
     7
370
    25
100
AcDbLine
 10
147.5639512995
 20
304.0160084079
 30
0.0
 11
147.5639512995
 21
306.9778030866
 31
0.0
  0
LINE
  5
1A3
330
1F
100
AcDbEntity
  8
0
  6
Continuous
 62
     7
370
    25
100
AcDbLine
 10
156.5860409035
 20
304.3759751225
 30
0.0
 11
156.5478650996
 21
304.37669465
 31
0.0
  0
LINE
  5
1A4
330
1F
100
AcDbEntity
  8
0
  6
Continuous
 62
     7
370
    25
100
AcDbLine
 10
156.5860409035
 20
304.3759751225
 30
0.0
 11
156.6185750428
 21
304.3753606207
 31
0.0
  0
LINE
  5
1A5
330
1F
100
AcDbEntity
  8
0
  6
Continuous
 62
     7
370
    25
100
AcDbLine
 10
152.0988561124
 20
283.7957530452
 30
0.0
 11
152.1551853295
 21
284.075395486
 31
0.0
  0
LINE
  5
1A6
330
1F
100
AcDbEntity
  8
0
  6
Continuous
 62
     7
370
    25
100
AcDbLine
 10
147.5639512995
 20
284.1708255461
 30
0.0
 11
147.5639512995
 21
284.4880604169
 31
0.0
  0
LINE
  5
1A7
330
1F
100
AcDbEntity
  8
0
  6
Continuous
 62
     7
370
    25
100
AcDbLine
 10
147.5639512995
 20
306.9778030866
 30
0.0
 11
147.5639512995
 21
307.1072799624
 31
0.0
  0
SPLINE
  5
1A8
330
1F
100
AcDbEntity
  8
0
  6
Continuous
 62
     7
370
    25
100
AcDbSpline
210
0.0
220
0.0
230
1.0
 70
     8
 71
     3
 72
    11
 73
     7
 74
     0
 42
0.00000001
 43
0.00000001
 40
0.0
 40
0.0
 40
0.0
 40
0.0
 40
0.2431641197380914
 40
0.4936284730588937
 40
0.7421706076863286
 40
0.9999999999999999
 40
0.9999999999999999
 40
0.9999999999999999
 40
0.9999999999999999
 10
137.613951299539
 20
285.7787400955746
 30
0.0
 10
137.8240916227477
 20
285.9711701438238
 30
0.0
 10
138.2506810677094
 20
286.3618073438772
 30
0.0
 10
138.4610654978523
 20
286.9814842200943
 30
0.0
 10
138.2703788041854
 20
287.6142356354002
 30
0.0
 10
137.8354196337907
 20
288.0154021325695
 30
0.0
 10
137.613951299539
 20
288.2196642379185
 30
0.0
  0
LINE
  5
1A9
330
1F
100
AcDbEntity
  8
0
  6
Continuous
 62
     7
370
    25
100
AcDbLine
 10
137.6139512995
 20
290.1523495327
 30
0.0
 11
137.6139512995
 21
288.2196642379
 31
0.0
  0
SPLINE
  5
1AA
330
1F
100
AcDbEntity
  8
0
  6
Continuous
 62
     7
370
    25
100
AcDbSpline
210
0.0
220
0.0
230
1.0
 70
     8
 71
     3
 72
    11
 73
     7
 74
     0
 42
0.00000001
 43
0.00000001
 40
0.0
 40
0.0
 40
0.0
 40
0.0
 40
0.243164119738091
 40
0.4936284730588926
 40
0.7421706076863281
 40
1.0
 40
1.0
 40
1.0
 40
1.0
 10
137.613951299539
 20
290.1523495327187
 30
0.0
 10
137.8240916227477
 20
290.7658286488074
 30
0.0
 10
138.2506810677094
 20
292.0112046510502
 30
0.0
 10
138.4610654978523
 20
293.9867735694232
 30
0.0
 10
138.2703788041853
 20
296.0040249420511
 30
0.0
 10
137.8354196337907
 20
297.2829690068003
 30
0.0
 10
137.613951299539
 20
297.9341694662917
 30
0.0
  0
LINE
  5
1AB
330
1F
100
AcDbEntity
  8
0
  6
Continuous
 62
     7
370
    25
100
AcDbLine
 10
137.6139512995
 20
300.4151158268
 30
0.0
 11
137.6139512995
 21
297.9341694663
 31
0.0
  0
SPLINE
  5
1AC
330
1F
100
AcDbEntity
  8
0
  6
Continuous
 62
     7
370
    25
100
AcDbSpline
210
0.0
220
0.0
230
1.0
 70
     8
 71
     3
 72
    13
 73
     9
 74
     0
 42
0.00000001
 43
0.00000001
 40
0.0
 40
0.0
 40
0.0
 40
0.0
 40
0.0290865078712627
 40
0.2691317361521214
 40
0.5086847447945265
 40
0.7393528760311802
 40
0.9704551097945733
 40
1.0
 40
1.0
 40
1.0
 40
1.0
 10
137.613951299539
 20
300.4151158267624
 30
0.0
 10
137.6414491459826
 20
300.4647905345259
 30
0.0
 10
137.8958813104278
 20
300.9244208346787
 30
0.0
 10
138.2672264666492
 20
301.8213644245611
 30
0.0
 10
138.4620671015014
 20
303.1174281188508
 30
0.0
 10
138.2503195313072
 20
304.3950648622063
 30
0.0
 10
137.8882308474099
 20
305.260396521676
 30
0.0
 10
137.6418761173549
 20
305.7055522914436
 30
0.0
 10
137.613951299539
 20
305.7560116179914
 30
0.0
  0
LINE
  5
1AD
330
1F
100
AcDbEntity
  8
0
  6
Continuous
 62
     7
370
    25
100
AcDbLine
 10
137.6139512995
 20
306.3042726837
 30
0.0
 11
137.6139512995
 21
305.756011618
 31
0.0
  0
LINE
  5
1AE
330
1F
100
AcDbEntity
  8
0
  6
Continuous
 62
     7
370
    25
100
AcDbLine
 10
137.6139512995
 20
306.3042726837
 30
0.0
 11
137.8853501355
 21
306.0223965634
 31
0.0
  0
LINE
  5
1AF
330
1F
100
AcDbEntity
  8
0
  6
Continuous
 62
     7
370
    25
100
AcDbLine
 10
139.6139512995
 20
304.2915063896
 30
0.0
 11
139.6139512995
 21
287.7915063896
 31
0.0
  0
LINE
  5
1B0
330
1F
100
AcDbEntity
  8
0
  6
Continuous
 62
     7
370
    25
100
AcDbLine
 10
135.0639512995
 20
290.1523495327
 30
0.0
 11
134.8139512995
 21
290.8375193341
 31
0.0
  0
LINE
  5
1B1
330
1F
100
AcDbEntity
  8
0
  6
Continuous
 62
     7
370
    25
100
AcDbLine
 10
134.8139512995
 20
297.2489996649
 30
0.0
 11
135.0639512995
 21
297.9341694663
 31
0.0
  0
LINE
  5
1B2
330
1F
100
AcDbEntity
  8
0
  6
Continuous
 62
     7
370
    25
100
AcDbLine
 10
137.6139512995
 20
297.9341694663
 30
0.0
 11
135.0639512995
 21
297.9341694663
 31
0.0
  0
LINE
  5
1B3
330
1F
100
AcDbEntity
  8
0
  6
Continuous
 62
     7
370
    25
100
AcDbLine
 10
135.0639512995
 20
290.1523495327
 30
0.0
 11
137.6139512995
 21
290.1523495327
 31
0.0
  0
LINE
  5
1B4
330
1F
100
AcDbEntity
  8
0
  6
Continuous
 62
     7
370
    25
100
AcDbLine
 10
134.8139512995
 20
297.2489996649
 30
0.0
 11
134.8139512995
 21
290.8375193341
 31
0.0
  0
SPLINE
  5
1B5
330
1F
100
AcDbEntity
  8
0
  6
Continuous
 62
     7
370
    25
100
AcDbSpline
210
0.0
220
0.0
230
1.0
 70
     8
 71
     3
 72
    27
 73
    23
 74
     0
 42
0.00000001
 43
0.00000001
 40
0.0
 40
0.0
 40
0.0
 40
0.0
 40
0.0325330446399549
 40
0.0929192696990593
 40
0.155491539076917
 40
0.2200774896150413
 40
0.2868085961572391
 40
0.3432551430239443
 40
0.4086131449045318
 40
0.4508234967310984
 40
0.4799260268656575
 40
0.5138001925950767
 40
0.5476743442221778
 40
0.5781570289130481
 40
0.6095953475191547
 40
0.6618574976116314
 40
0.7275564512378703
 40
0.8113328522527481
 40
0.8799725123237444
 40
0.9334637947827115
 40
0.9811918675935916
 40
1.0
 40
1.0
 40
1.0
 40
1.0
 10
132.163951299539
 20
297.050611246597
 30
0.0
 10
132.1680624203531
 20
296.8767347288173
 30
0.0
 10
132.1798043998672
 20
296.3801172363964
 30
0.0
 10
132.1984542310381
 20
295.5398564900191
 30
0.0
 10
132.222839681654
 20
294.5343400959404
 30
0.0
 10
132.2482869456192
 20
293.5122892367818
 30
0.0
 10
132.2729561161607
 20
292.5531206305063
 30
0.0
 10
132.2976151851394
 20
291.630755260658
 30
0.0
 10
132.3189690528239
 20
290.8709551294331
 30
0.0
 10
132.3365323639498
 20
290.2763333767084
 30
0.0
 10
132.3495968045914
 20
289.8401960321936
 30
0.0
 10
132.3616885622335
 20
289.4571505060721
 30
0.0
 10
132.3739621233985
 20
289.090215490267
 30
0.0
 10
132.3857799514232
 20
288.7535151003283
 30
0.0
 10
132.4005633429619
 20
288.377547126726
 30
0.0
 10
132.4201592639851
 20
287.9322663173693
 30
0.0
 10
132.4468153091003
 20
287.4252940738464
 30
0.0
 10
132.4754069632521
 20
287.0152904923896
 30
0.0
 10
132.502019068046
 20
286.7657083444698
 30
0.0
 10
132.5234979771988
 20
286.6614570196924
 30
0.0
 10
132.5380738894312
 20
286.6269280903121
 30
0.0
 10
132.5465871887195
 20
286.6528974605079
 30
0.0
 10
132.5489936869517
 20
286.6602383563639
 30
0.0
  0
SPLINE
  5
1B6
330
1F
100
AcDbEntity
  8
0
  6
Continuous
 62
     7
370
    25
100
AcDbSpline
210
0.0
220
0.0
230
1.0
 70
     8
 71
     3
 72
     9
 73
     5
 74
     0
 42
0.00000001
 43
0.00000001
 40
0.0
 40
0.0
 40
0.0
 40
0.0
 40
0.3785182703643021
 40
1.0
 40
1.0
 40
1.0
 40
1.0
 10
132.163951299539
 20
286.7040765513236
 30
0.0
 10
132.1668934005565
 20
286.6876093728917
 30
0.0
 10
132.1746660795732
 20
286.6441050569281
 30
0.0
 10
132.1824284559992
 20
286.6533340078927
 30
0.0
 10
132.1872526311266
 20
286.6590696323009
 30
0.0
  0
SPLINE
  5
1B7
330
1F
100
AcDbEntity
  8
0
  6
Continuous
 62
     7
370
    25
100
AcDbSpline
210
0.0
220
0.0
230
1.0
 70
     8
 71
     3
 72
    19
 73
    15
 74
     0
 42
0.00000001
 43
0.00000001
 40
0.0
 40
0.0
 40
0.0
 40
0.0
 40
0.0117062219166537
 40
0.1136156029915242
 40
0.2146809499830167
 40
0.3151601574962848
 40
0.4172795727624166
 40
0.517147648511371
 40
0.6190281141363656
 40
0.7201489387075092
 40
0.7892010061210916
 40
0.8593888289831177
 40
0.9300344837538645
 40
1.0
 40
1.0
 40
1.0
 40
1.0
 10
132.2852186258783
 20
304.6265128585522
 30
0.0
 10
132.2878579164311
 20
304.6356760068348
 30
0.0
 10
132.3134737461803
 20
304.7246096205013
 30
0.0
 10
132.3656346036777
 20
304.0903493168287
 30
0.0
 10
132.4356420655641
 20
302.7178408677068
 30
0.0
 10
132.5039036402176
 20
300.6143219778892
 30
0.0
 10
132.5778228760582
 20
298.0948452567346
 30
0.0
 10
132.6440854224779
 20
295.3606979985328
 30
0.0
 10
132.7169427858019
 20
292.7004466050746
 30
0.0
 10
132.7803963833576
 20
290.6042796346222
 30
0.0
 10
132.83349010822
 20
289.120337454634
 30
0.0
 10
132.8836663092916
 20
288.1609015815576
 30
0.0
 10
132.9337082102351
 20
287.5022489845472
 30
0.0
 10
132.9651660237159
 20
287.4951484605745
 30
0.0
 10
132.9808188494783
 20
287.4916153712631
 30
0.0
  0
SPLINE
  5
1B8
330
1F
100
AcDbEntity
  8
0
  6
Continuous
 62
     7
370
    25
100
AcDbSpline
210
0.0
220
0.0
230
1.0
 70
     8
 71
     3
 72
    27
 73
    23
 74
     0
 42
0.00000001
 43
0.00000001
 40
0.0
 40
0.0
 40
0.0
 40
0.0
 40
0.0151436181910954
 40
0.0478952108099446
 40
0.1018265553387762
 40
0.1557578997567095
 40
0.2096892441726297
 40
0.2633179399052672
 40
0.3166010242089368
 40
0.3698841080331789
 40
0.423167191858044
 40
0.4764502756799134
 40
0.529252100205425
 40
0.5818869257002746
 40
0.6345217508141898
 40
0.6871565759276632
 40
0.7397806675130871
 40
0.7917672369352939
 40
0.8437538056994792
 40
0.8957403742085731
 40
0.9500942275614135
 40
1.0
 40
1.0
 40
1.0
 40
1.0
 10
132.8639623627245
 20
305.3797929410675
 30
0.0
 10
132.8660771579054
 20
305.3801918632079
 30
0.0
 10
132.8727656889905
 20
305.3814535471572
 30
0.0
 10
132.8876210358989
 20
305.2577874587182
 30
0.0
 10
132.9086028945456
 20
304.9374691337962
 30
0.0
 10
132.932953142356
 20
304.3141751822519
 30
0.0
 10
132.9568524814571
 20
303.4684719761703
 30
0.0
 10
132.9791543078838
 20
302.4239159838197
 30
0.0
 10
133.0028754484348
 20
301.2103157510455
 30
0.0
 10
133.0271510333282
 20
299.8604153626496
 30
0.0
 10
133.0514687873886
 20
298.4088197174757
 30
0.0
 10
133.0749362339561
 20
296.9001551639182
 30
0.0
 10
133.0973564382723
 20
295.3778448601667
 30
0.0
 10
133.1213791638243
 20
293.8839154271772
 30
0.0
 10
133.1456827759624
 20
292.4548517734581
 30
0.0
 10
133.1699579959556
 20
291.1287113530367
 30
0.0
 10
133.1928291201848
 20
289.9462925241501
 30
0.0
 10
133.215731340004
 20
288.9398864633533
 30
0.0
 10
133.2398895612891
 20
288.1337232630589
 30
0.0
 10
133.2646026150139
 20
287.5449525826063
 30
0.0
 10
133.2886931297626
 20
287.1809754164298
 30
0.0
 10
133.3039260874412
 20
287.1620528504795
 30
0.0
 10
133.3112176206085
 20
287.1529952189841
 30
0.0
  0
SPLINE
  5
1B9
330
1F
100
AcDbEntity
  8
0
  6
Continuous
 62
     7
370
    25
100
AcDbSpline
210
0.0
220
0.0
230
1.0
 70
     8
 71
     3
 72
    19
 73
    15
 74
     0
 42
0.00000001
 43
0.00000001
 40
0.0
 40
0.0
 40
0.0
 40
0.0
 40
0.0264507876236978
 40
0.1282852037847294
 40
0.2292762083111664
 40
0.3296815024152914
 40
0.4317257990628506
 40
0.5251292241212077
 40
0.6199210723654132
 40
0.6404474738399999
 40
0.7412640174849058
 40
0.8418359488668122
 40
0.9438324279593557
 40
1.0
 40
1.0
 40
1.0
 40
1.0
 10
132.4515947385834
 20
304.5975278029548
 30
0.0
 10
132.4575473019231
 20
304.6215433832803
 30
0.0
 10
132.4864169829296
 20
304.7380179344314
 30
0.0
 10
132.5419679960174
 20
304.1020424355604
 30
0.0
 10
132.6120481453843
 20
302.7146938805101
 30
0.0
 10
132.6802784786531
 20
300.6153560607388
 30
0.0
 10
132.7526865041681
 20
298.1472272322468
 30
0.0
 10
132.8161023669622
 20
295.543219374771
 30
0.0
 10
132.8658752966296
 20
293.6960883760106
 30
0.0
 10
132.9171754750199
 20
291.9137821209452
 30
0.0
 10
132.9680644739639
 20
290.2132102852082
 30
0.0
 10
133.0368440478061
 20
288.5026329275142
 30
0.0
 10
133.0999157659775
 20
287.5445033079833
 30
0.0
 10
133.1353114155218
 20
287.5225407867861
 30
0.0
 10
133.1478811978552
 20
287.5147414070743
 30
0.0
  0
LINE
  5
1BA
330
1F
100
AcDbEntity
  8
0
  6
Continuous
 62
     7
370
    25
100
AcDbLine
 10
133.3139512995
 20
304.9415063896
 30
0.0
 11
133.3139512995
 21
287.1415063896
 31
0.0
  0
LINE
  5
1BB
330
1F
100
AcDbEntity
  8
0
  6
Continuous
 62
     7
370
    25
100
AcDbLine
 10
135.0639512995
 20
300.4151158268
 30
0.0
 11
134.8139512995
 21
300.8853683564
 31
0.0
  0
LINE
  5
1BC
330
1F
100
AcDbEntity
  8
0
  6
Continuous
 62
     7
370
    25
100
AcDbLine
 10
135.0639512995
 20
300.4151158268
 30
0.0
 11
135.0639512995
 21
297.9341694663
 31
0.0
  0
LINE
  5
1BD
330
1F
100
AcDbEntity
  8
0
  6
Continuous
 62
     7
370
    25
100
AcDbLine
 10
134.8139512995
 20
297.2489996649
 30
0.0
 11
134.8139512995
 21
300.8853683564
 31
0.0
  0
LINE
  5
1BE
330
1F
100
AcDbEntity
  8
0
  6
Continuous
 62
     7
370
    25
100
AcDbLine
 10
135.0639512995
 20
300.4151158268
 30
0.0
 11
137.6139512995
 21
300.4151158268
 31
0.0
  0
LINE
  5
1BF
330
1F
100
AcDbEntity
  8
0
  6
Continuous
 62
     7
370
    25
100
AcDbLine
 10
134.8139512995
 20
305.2857590884
 30
0.0
 11
135.0639512995
 21
305.756011618
 31
0.0
  0
LINE
  5
1C0
330
1F
100
AcDbEntity
  8
0
  6
Continuous
 62
     7
370
    25
100
AcDbLine
 10
137.6139512995
 20
305.756011618
 30
0.0
 11
135.0639512995
 21
305.756011618
 31
0.0
  0
LINE
  5
1C1
330
1F
100
AcDbEntity
  8
0
  6
Continuous
 62
     7
370
    25
100
AcDbLine
 10
134.8139512995
 20
305.2857590884
 30
0.0
 11
134.8139512995
 21
300.8853683564
 31
0.0
  0
LINE
  5
1C2
330
1F
100
AcDbEntity
  8
0
  6
Continuous
 62
     7
370
    25
100
AcDbLine
 10
135.0639512995
 20
290.1523495327
 30
0.0
 11
135.0639512995
 21
288.2196642379
 31
0.0
  0
LINE
  5
1C3
330
1F
100
AcDbEntity
  8
0
  6
Continuous
 62
     7
370
    25
100
AcDbLine
 10
134.8139512995
 20
288.0047469661
 30
0.0
 11
135.0639512995
 21
288.2196642379
 31
0.0
  0
LINE
  5
1C4
330
1F
100
AcDbEntity
  8
0
  6
Continuous
 62
     7
370
    25
100
AcDbLine
 10
134.8139512995
 20
288.0047469661
 30
0.0
 11
134.8139512995
 21
290.8375193341
 31
0.0
  0
LINE
  5
1C5
330
1F
100
AcDbEntity
  8
0
  6
Continuous
 62
     7
370
    25
100
AcDbLine
 10
137.6139512995
 20
288.2196642379
 30
0.0
 11
135.0639512995
 21
288.2196642379
 31
0.0
  0
LINE
  5
1C6
330
1F
100
AcDbEntity
  8
0
  6
Continuous
 62
     7
370
    25
100
AcDbLine
 10
135.0639512995
 20
285.7787400956
 30
0.0
 11
134.8139512995
 21
285.9936573674
 31
0.0
  0
LINE
  5
1C7
330
1F
100
AcDbEntity
  8
0
  6
Continuous
 62
     7
370
    25
100
AcDbLine
 10
135.0639512995
 20
285.7787400956
 30
0.0
 11
137.6139512995
 21
285.7787400956
 31
0.0
  0
LINE
  5
1C8
330
1F
100
AcDbEntity
  8
0
  6
Continuous
 62
     7
370
    25
100
AcDbLine
 10
134.8139512995
 20
288.0047469661
 30
0.0
 11
134.8139512995
 21
285.9936573674
 31
0.0
  0
LINE
  5
1C9
330
1F
100
AcDbEntity
  8
0
  6
Continuous
 62
     7
370
    25
100
AcDbLine
 10
135.0639512995
 20
306.3042726837
 30
0.0
 11
134.8139512995
 21
306.0893554118
 31
0.0
  0
LINE
  5
1CA
330
1F
100
AcDbEntity
  8
0
  6
Continuous
 62
     7
370
    25
100
AcDbLine
 10
135.0639512995
 20
306.3042726837
 30
0.0
 11
135.0639512995
 21
305.756011618
 31
0.0
  0
LINE
  5
1CB
330
1F
100
AcDbEntity
  8
0
  6
Continuous
 62
     7
370
    25
100
AcDbLine
 10
134.8139512995
 20
305.2857590884
 30
0.0
 11
134.8139512995
 21
306.0893554118
 31
0.0
  0
LINE
  5
1CC
330
1F
100
AcDbEntity
  8
0
  6
Continuous
 62
     7
370
    25
100
AcDbLine
 10
135.0639512995
 20
306.3042726837
 30
0.0
 11
137.6139512995
 21
306.3042726837
 31
0.0
  0
LINE
  5
1CD
330
1F
100
AcDbEntity
  8
0
  6
Continuous
 62
     7
370
    25
100
AcDbLine
 10
116.049494392
 20
313.3157110138
 30
0.0
 11
115.8666536614
 21
313.1055281688
 31
0.0
  0
SPLINE
  5
1CE
330
1F
100
AcDbEntity
  8
0
  6
Continuous
 62
     7
370
    25
100
AcDbSpline
210
0.0
220
0.0
230
1.0
 70
     8
 71
     3
 72
     9
 73
     5
 74
     0
 42
0.00000001
 43
0.00000001
 40
0.0
 40
0.0
 40
0.0
 40
0.0
 40
0.5841917497409969
 40
1.0
 40
1.0
 40
1.0
 40
1.0
 10
116.463951299539
 20
313.4838071259014
 30
0.0
 10
116.4377833357183
 20
313.5294226813276
 30
0.0
 10
116.3929898859097
 20
313.6075058713871
 30
0.0
 10
116.1503754683958
 20
313.4014081476802
 30
0.0
 10
116.0494943919617
 20
313.3157110138033
 30
0.0
  0
LINE
  5
1CF
330
1F
100
AcDbEntity
  8
0
  6
Continuous
 62
     7
370
    25
100
AcDbLine
 10
116.4639512995
 20
313.4838071259
 30
0.0
 11
116.4639512995
 21
313.1780430121
 31
0.0
  0
SPLINE
  5
1D0
330
1F
100
AcDbEntity
  8
0
  6
Continuous
 62
     7
370
    25
100
AcDbSpline
210
0.0
220
0.0
230
1.0
 70
     8
 71
     3
 72
     9
 73
     5
 74
     0
 42
0.00000001
 43
0.00000001
 40
0.0
 40
0.0
 40
0.0
 40
0.0
 40
0.5850553834536127
 40
1.0
 40
1.0
 40
1.0
 40
1.0
 10
116.0494943919616
 20
312.0446120538842
 30
0.0
 10
116.1860485259859
 20
312.3328746833105
 30
0.0
 10
116.4194522991779
 20
312.8255846686877
 30
0.0
 10
116.4509015869031
 20
313.0746815868618
 30
0.0
 10
116.463951299539
 20
313.1780430120565
 30
0.0
  0
SPLINE
  5
1D1
330
1F
100
AcDbEntity
  8
0
  6
Continuous
 62
     7
370
    25
100
AcDbSpline
210
0.0
220
0.0
230
1.0
 70
     8
 71
     3
 72
    11
 73
     7
 74
     0
 42
0.00000001
 43
0.00000001
 40
0.0
 40
0.0
 40
0.0
 40
0.0
 40
0.232871632211144
 40
0.4710265024313159
 40
0.7311421212560256
 40
0.9999999999999999
 40
0.9999999999999999
 40
0.9999999999999999
 40
0.9999999999999999
 10
116.0494943919616
 20
304.1364916005793
 30
0.0
 10
115.7790976572888
 20
304.736247168919
 30
0.0
 10
115.232169605158
 20
305.9493651643843
 30
0.0
 10
114.9309452871744
 20
307.9137612003331
 30
0.0
 10
115.1385970525841
 20
309.985128255231
 30
0.0
 10
115.7425348843644
 20
311.3505951703009
 30
0.0
 10
116.0494943919616
 20
312.0446120538842
 30
0.0
  0
SPLINE
  5
1D2
330
1F
100
AcDbEntity
  8
0
  6
Continuous
 62
     7
370
    25
100
AcDbSpline
210
0.0
220
0.0
230
1.0
 70
     8
 71
     3
 72
     9
 73
     5
 74
     0
 42
0.00000001
 43
0.00000001
 40
0.0
 40
0.0
 40
0.0
 40
0.0
 40
0.5841917497409228
 40
1.0
 40
1.0
 40
1.0
 40
1.0
 10
116.463951299539
 20
302.1564893094191
 30
0.0
 10
116.4377833357183
 20
302.5963197030583
 30
0.0
 10
116.3929898859097
 20
303.3492067368692
 30
0.0
 10
116.1503754683957
 20
303.9052741729546
 30
0.0
 10
116.0494943919616
 20
304.1364916005793
 30
0.0
  0
LINE
  5
1D3
330
1F
100
AcDbEntity
  8
0
  6
Continuous
 62
     7
370
    25
100
AcDbLine
 10
116.4639512995
 20
302.1564893094
 30
0.0
 11
116.4639512995
 21
300.7728704225
 31
0.0
  0
SPLINE
  5
1D4
330
1F
100
AcDbEntity
  8
0
  6
Continuous
 62
     7
370
    25
100
AcDbSpline
210
0.0
220
0.0
230
1.0
 70
     8
 71
     3
 72
     9
 73
     5
 74
     0
 42
0.00000001
 43
0.00000001
 40
0.0
 40
0.0
 40
0.0
 40
0.0
 40
0.5850553834536169
 40
1.0
 40
1.0
 40
1.0
 40
1.0
 10
116.0494943919616
 20
298.3846180208768
 30
0.0
 10
116.1860485259859
 20
298.8455369796001
 30
0.0
 10
116.4194522991779
 20
299.6333580504918
 30
0.0
 10
116.4509015869031
 20
300.4386986685734
 30
0.0
 10
116.463951299539
 20
300.7728704225325
 30
0.0
  0
SPLINE
  5
1D5
330
1F
100
AcDbEntity
  8
0
  6
Continuous
 62
     7
370
    25
100
AcDbSpline
210
0.0
220
0.0
230
1.0
 70
     8
 71
     3
 72
    11
 73
     7
 74
     0
 42
0.00000001
 43
0.00000001
 40
0.0
 40
0.0
 40
0.0
 40
0.0
 40
0.2328716322111452
 40
0.4710265024313183
 40
0.7311421212560267
 40
1.0
 40
1.0
 40
1.0
 40
1.0
 10
116.0494943919616
 20
286.8622869763944
 30
0.0
 10
115.7790976572888
 20
287.7361459729772
 30
0.0
 10
115.232169605158
 20
289.5036895027332
 30
0.0
 10
114.9309452871744
 20
292.3658640943218
 30
0.0
 10
115.1385970525841
 20
295.3838981596975
 30
0.0
 10
115.7425348843644
 20
297.3734179095071
 30
0.0
 10
116.0494943919616
 20
298.3846180208768
 30
0.0
  0
SPLINE
  5
1D6
330
1F
100
AcDbEntity
  8
0
  6
Continuous
 62
     7
370
    25
100
AcDbSpline
210
0.0
220
0.0
230
1.0
 70
     8
 71
     3
 72
     9
 73
     5
 74
     0
 42
0.00000001
 43
0.00000001
 40
0.0
 40
0.0
 40
0.0
 40
0.0
 40
0.5841917497409206
 40
1.0
 40
1.0
 40
1.0
 40
1.0
 10
116.463951299539
 20
284.7141885731359
 30
0.0
 10
116.4377833357183
 20
285.1084034113488
 30
0.0
 10
116.3929898859097
 20
285.7832072551002
 30
0.0
 10
116.1503754683957
 20
286.5453724148927
 30
0.0
 10
116.0494943919616
 20
286.8622869763944
 30
0.0
  0
LINE
  5
1D7
330
1F
100
AcDbEntity
  8
0
  6
Continuous
 62
     7
370
    25
100
AcDbLine
 10
116.4639512995
 20
284.7141885731
 30
0.0
 11
116.4639512995
 21
283.6363338001
 31
0.0
  0
SPLINE
  5
1D8
330
1F
100
AcDbEntity
  8
0
  6
Continuous
 62
     7
370
    25
100
AcDbSpline
210
0.0
220
0.0
230
1.0
 70
     8
 71
     3
 72
     9
 73
     5
 74
     0
 42
0.00000001
 43
0.00000001
 40
0.0
 40
0.0
 40
0.0
 40
0.0
 40
0.5850553834536156
 40
1.0
 40
1.0
 40
1.0
 40
1.0
 10
116.0494943919616
 20
282.3815123566108
 30
0.0
 10
116.1860485259859
 20
282.5541686859078
 30
0.0
 10
116.4194522991778
 20
282.8492797714223
 30
0.0
 10
116.4509015869031
 20
283.4055234713298
 30
0.0
 10
116.463951299539
 20
283.6363338000942
 30
0.0
  0
SPLINE
  5
1D9
330
1F
100
AcDbEntity
  8
0
  6
Continuous
 62
     7
370
    25
100
AcDbSpline
210
0.0
220
0.0
230
1.0
 70
     8
 71
     3
 72
    11
 73
     7
 74
     0
 42
0.00000001
 43
0.00000001
 40
0.0
 40
0.0
 40
0.0
 40
0.0
 40
0.2556279644381003
 40
0.5185037642963937
 40
0.7560467972580137
 40
1.0
 40
1.0
 40
1.0
 40
1.0
 10
116.0494943919616
 20
278.7673017654332
 30
0.0
 10
115.7558684318596
 20
279.0686143978817
 30
0.0
 10
115.1602913167241
 20
279.6797827984049
 30
0.0
 10
114.9284023550974
 20
280.6121361539927
 30
0.0
 10
115.2113728135582
 20
281.5270132625996
 30
0.0
 10
115.7676519471225
 20
282.0941625019182
 30
0.0
 10
116.0494943919616
 20
282.3815123566108
 30
0.0
  0
SPLINE
  5
1DA
330
1F
100
AcDbEntity
  8
0
  6
Continuous
 62
     7
370
    25
100
AcDbSpline
210
0.0
220
0.0
230
1.0
 70
     8
 71
     3
 72
     9
 73
     5
 74
     0
 42
0.00000001
 43
0.00000001
 40
0.0
 40
0.0
 40
0.0
 40
0.0
 40
0.3607400128961893
 40
1.0
 40
1.0
 40
1.0
 40
1.0
 10
116.376583393098
 20
278.5753548295429
 30
0.0
 10
116.3626155073674
 20
278.56199975141
 30
0.0
 10
116.3238954174653
 20
278.5249784128964
 30
0.0
 10
116.1565021865792
 20
278.6728032573037
 30
0.0
 10
116.0494943919616
 20
278.7673017654332
 30
0.0
  0
LINE
  5
1DB
330
1F
100
AcDbEntity
  8
0
  6
Continuous
 62
     7
370
    25
100
AcDbLine
 10
114.9639512995
 20
279.8415063896
 30
0.0
 11
114.9639512995
 21
312.2415063896
 31
0.0
  0
SPLINE
  5
1DC
330
1F
100
AcDbEntity
  8
0
  6
Continuous
 62
     7
370
    25
100
AcDbSpline
210
0.0
220
0.0
230
1.0
 70
     8
 71
     3
 72
     9
 73
     5
 74
     0
 42
0.00000001
 43
0.00000001
 40
0.0
 40
0.0
 40
0.0
 40
0.0
 40
0.8988656309358773
 40
1.0
 40
1.0
 40
1.0
 40
1.0
 10
123.3284082071169
 20
278.7673017654336
 30
0.0
 10
123.1794947026322
 20
278.6373490801471
 30
0.0
 10
123.0138264432622
 20
278.4927749849608
 30
0.0
 10
122.9796067061947
 20
278.5357992433127
 30
0.0
 10
122.9761459146768
 20
278.5401504745356
 30
0.0
  0
SPLINE
  5
1DD
330
1F
100
AcDbEntity
  8
0
  6
Continuous
 62
     7
370
    25
100
AcDbSpline
210
0.0
220
0.0
230
1.0
 70
     8
 71
     3
 72
    11
 73
     7
 74
     0
 42
0.00000001
 43
0.00000001
 40
0.0
 40
0.0
 40
0.0
 40
0.0
 40
0.2379053903768483
 40
0.4814905141303173
 40
0.7366519444348057
 40
1.0
 40
1.0
 40
1.0
 40
1.0
 10
123.3284082071162
 20
282.3815123566108
 30
0.0
 10
123.6039936420893
 20
282.1013961475517
 30
0.0
 10
124.1617438156427
 20
281.5344762585048
 30
0.0
 10
124.4483070402991
 20
280.6290376904353
 30
0.0
 10
124.2234266341011
 20
279.6893722162904
 30
0.0
 10
123.6298715171832
 20
279.0778768350066
 30
0.0
 10
123.3284082071169
 20
278.7673017654336
 30
0.0
  0
SPLINE
  5
1DE
330
1F
100
AcDbEntity
  8
0
  6
Continuous
 62
     7
370
    25
100
AcDbSpline
210
0.0
220
0.0
230
1.0
 70
     8
 71
     3
 72
     9
 73
     5
 74
     0
 42
0.00000001
 43
0.00000001
 40
0.0
 40
0.0
 40
0.0
 40
0.0
 40
0.5841917497409931
 40
1.0
 40
1.0
 40
1.0
 40
1.0
 10
122.9139512995389
 20
283.6363338000942
 30
0.0
 10
122.9401192633596
 20
283.3181970221504
 30
0.0
 10
122.9849127131682
 20
282.7736210707014
 30
0.0
 10
123.2275271306822
 20
282.4966706333672
 30
0.0
 10
123.3284082071162
 20
282.3815123566108
 30
0.0
  0
LINE
  5
1DF
330
1F
100
AcDbEntity
  8
0
  6
Continuous
 62
     7
370
    25
100
AcDbLine
 10
122.9139512995
 20
283.6363338001
 30
0.0
 11
122.9139512995
 21
284.7141885731
 31
0.0
  0
SPLINE
  5
1E0
330
1F
100
AcDbEntity
  8
0
  6
Continuous
 62
     7
370
    25
100
AcDbSpline
210
0.0
220
0.0
230
1.0
 70
     8
 71
     3
 72
     9
 73
     5
 74
     0
 42
0.00000001
 43
0.00000001
 40
0.0
 40
0.0
 40
0.0
 40
0.0
 40
0.58505538345362
 40
1.0
 40
1.0
 40
1.0
 40
1.0
 10
123.3284082071163
 20
286.8622869763944
 30
0.0
 10
123.191854073092
 20
286.4147030204645
 30
0.0
 10
122.9584502999001
 20
285.6496746682975
 30
0.0
 10
122.9270010121748
 20
284.9885278755382
 30
0.0
 10
122.9139512995389
 20
284.7141885731359
 30
0.0
  0
SPLINE
  5
1E1
330
1F
100
AcDbEntity
  8
0
  6
Continuous
 62
     7
370
    25
100
AcDbSpline
210
0.0
220
0.0
230
1.0
 70
     8
 71
     3
 72
    11
 73
     7
 74
     0
 42
0.00000001
 43
0.00000001
 40
0.0
 40
0.0
 40
0.0
 40
0.0
 40
0.2328716322111472
 40
0.4710265024313228
 40
0.7311421212560293
 40
1.0
 40
1.0
 40
1.0
 40
1.0
 10
123.3284082071163
 20
298.3846180208768
 30
0.0
 10
123.5988049417891
 20
297.5107590242939
 30
0.0
 10
124.1457329939199
 20
295.7432154945379
 30
0.0
 10
124.4469573119035
 20
292.8810409029493
 30
0.0
 10
124.2393055464938
 20
289.8630068375736
 30
0.0
 10
123.6353677147136
 20
287.873487087764
 30
0.0
 10
123.3284082071163
 20
286.8622869763944
 30
0.0
  0
SPLINE
  5
1E2
330
1F
100
AcDbEntity
  8
0
  6
Continuous
 62
     7
370
    25
100
AcDbSpline
210
0.0
220
0.0
230
1.0
 70
     8
 71
     3
 72
     9
 73
     5
 74
     0
 42
0.00000001
 43
0.00000001
 40
0.0
 40
0.0
 40
0.0
 40
0.0
 40
0.5841917497409245
 40
1.0
 40
1.0
 40
1.0
 40
1.0
 10
122.9139512995389
 20
300.7728704225325
 30
0.0
 10
122.9401192633596
 20
300.2982704356879
 30
0.0
 10
122.9849127131682
 20
299.4858659690806
 30
0.0
 10
123.2275271306822
 20
298.7080431615059
 30
0.0
 10
123.3284082071163
 20
298.3846180208768
 30
0.0
  0
LINE
  5
1E3
330
1F
100
AcDbEntity
  8
0
  6
Continuous
 62
     7
370
    25
100
AcDbLine
 10
122.9139512995
 20
300.7728704225
 30
0.0
 11
122.9139512995
 21
302.1564893094
 31
0.0
  0
SPLINE
  5
1E4
330
1F
100
AcDbEntity
  8
0
  6
Continuous
 62
     7
370
    25
100
AcDbSpline
210
0.0
220
0.0
230
1.0
 70
     8
 71
     3
 72
     9
 73
     5
 74
     0
 42
0.00000001
 43
0.00000001
 40
0.0
 40
0.0
 40
0.0
 40
0.0
 40
0.5850553834536156
 40
1.0
 40
1.0
 40
1.0
 40
1.0
 10
123.3284082071163
 20
304.1364916005793
 30
0.0
 10
123.191854073092
 20
303.8012215044208
 30
0.0
 10
122.9584502999001
 20
303.2281644817174
 30
0.0
 10
122.9270010121748
 20
302.4707672240678
 30
0.0
 10
122.9139512995389
 20
302.1564893094191
 30
0.0
  0
SPLINE
  5
1E5
330
1F
100
AcDbEntity
  8
0
  6
Continuous
 62
     7
370
    25
100
AcDbSpline
210
0.0
220
0.0
230
1.0
 70
     8
 71
     3
 72
    11
 73
     7
 74
     0
 42
0.00000001
 43
0.00000001
 40
0.0
 40
0.0
 40
0.0
 40
0.0
 40
0.2328716322111487
 40
0.4710265024313253
 40
0.731142121256031
 40
1.0
 40
1.0
 40
1.0
 40
1.0
 10
123.3284082071163
 20
312.0446120538842
 30
0.0
 10
123.5988049417891
 20
311.4448564855446
 30
0.0
 10
124.1457329939199
 20
310.2317384900792
 30
0.0
 10
124.4469573119035
 20
308.2673424541304
 30
0.0
 10
124.2393055464938
 20
306.1959753992325
 30
0.0
 10
123.6353677147135
 20
304.8305084841626
 30
0.0
 10
123.3284082071163
 20
304.1364916005793
 30
0.0
  0
SPLINE
  5
1E6
330
1F
100
AcDbEntity
  8
0
  6
Continuous
 62
     7
370
    25
100
AcDbSpline
210
0.0
220
0.0
230
1.0
 70
     8
 71
     3
 72
     9
 73
     5
 74
     0
 42
0.00000001
 43
0.00000001
 40
0.0
 40
0.0
 40
0.0
 40
0.0
 40
0.5841917497409231
 40
1.0
 40
1.0
 40
1.0
 40
1.0
 10
122.9139512995389
 20
313.1780430120565
 30
0.0
 10
122.9401192633596
 20
313.0215798031557
 30
0.0
 10
122.9849127131682
 20
312.7537512879975
 30
0.0
 10
123.2275271306822
 20
312.252878917757
 30
0.0
 10
123.3284082071163
 20
312.0446120538842
 30
0.0
  0
LINE
  5
1E7
330
1F
100
AcDbEntity
  8
0
  6
Continuous
 62
     7
370
    25
100
AcDbLine
 10
122.9139512995
 20
313.1780430121
 30
0.0
 11
122.9139512995
 21
313.4838071259
 31
0.0
  0
SPLINE
  5
1E8
330
1F
100
AcDbEntity
  8
0
  6
Continuous
 62
     7
370
    25
100
AcDbSpline
210
0.0
220
0.0
230
1.0
 70
     8
 71
     3
 72
     9
 73
     5
 74
     0
 42
0.00000001
 43
0.00000001
 40
0.0
 40
0.0
 40
0.0
 40
0.0
 40
0.5850553834536242
 40
1.0
 40
1.0
 40
1.0
 40
1.0
 10
123.3284082071163
 20
313.3157110138032
 30
0.0
 10
123.191854073092
 20
313.4280248735746
 30
0.0
 10
122.9584502999001
 20
313.6199962030382
 30
0.0
 10
122.9270010121748
 20
313.5237457381477
 30
0.0
 10
122.913951299539
 20
313.4838071259014
 30
0.0
  0
LINE
  5
1E9
330
1F
100
AcDbEntity
  8
0
  6
Continuous
 62
     7
370
    25
100
AcDbLine
 10
123.5098655509
 20
313.1055343578
 30
0.0
 11
123.3284082071
 21
313.3157110138
 31
0.0
  0
LINE
  5
1EA
330
1F
100
AcDbEntity
  8
0
  6
Continuous
 62
     7
370
    25
100
AcDbLine
 10
124.4139512995
 20
280.6219981359
 30
0.0
 11
124.4139512995
 21
279.8415063896
 31
0.0
  0
LINE
  5
1EB
330
1F
100
AcDbEntity
  8
0
  6
Continuous
 62
     7
370
    25
100
AcDbLine
 10
124.4139512995
 20
312.2415063896
 30
0.0
 11
124.4139512995
 21
280.6219981359
 31
0.0
  0
LINE
  5
1EC
330
1F
100
AcDbEntity
  8
0
  6
Continuous
 62
     7
370
    25
100
AcDbLine
 10
116.049494392
 20
286.8622869764
 30
0.0
 11
123.3284082071
 21
286.8622869764
 31
0.0
  0
LINE
  5
1ED
330
1F
100
AcDbEntity
  8
0
  6
Continuous
 62
     7
370
    25
100
AcDbLine
 10
123.3284082071
 20
298.3846180209
 30
0.0
 11
116.049494392
 21
298.3846180209
 31
0.0
  0
LINE
  5
1EE
330
1F
100
AcDbEntity
  8
0
  6
Continuous
 62
     7
370
    25
100
AcDbLine
 10
132.1639512995
 20
285.4665063896
 30
0.0
 11
132.1639512995
 21
306.6165063896
 31
0.0
  0
LINE
  5
1EF
330
1F
100
AcDbEntity
  8
0
  6
Continuous
 62
     7
370
    25
100
AcDbLine
 10
116.4639512995
 20
300.7728704225
 30
0.0
 11
122.9139512995
 21
300.7728704225
 31
0.0
  0
LINE
  5
1F0
330
1F
100
AcDbEntity
  8
0
  6
Continuous
 62
     7
370
    25
100
AcDbLine
 10
122.9139512995
 20
302.1564893094
 30
0.0
 11
116.4639512995
 21
302.1564893094
 31
0.0
  0
LINE
  5
1F1
330
1F
100
AcDbEntity
  8
0
  6
Continuous
 62
     7
370
    25
100
AcDbLine
 10
116.049494392
 20
304.1364916006
 30
0.0
 11
123.3284082071
 21
304.1364916006
 31
0.0
  0
LINE
  5
1F2
330
1F
100
AcDbEntity
  8
0
  6
Continuous
 62
     7
370
    25
100
AcDbLine
 10
123.3284082071
 20
312.0446120539
 30
0.0
 11
116.049494392
 21
312.0446120539
 31
0.0
  0
LINE
  5
1F3
330
1F
100
AcDbEntity
  8
0
  6
Continuous
 62
     7
370
    25
100
AcDbLine
 10
122.9139512995
 20
284.7141885731
 30
0.0
 11
116.4639512995
 21
284.7141885731
 31
0.0
  0
LINE
  5
1F4
330
1F
100
AcDbEntity
  8
0
  6
Continuous
 62
     7
370
    25
100
AcDbLine
 10
116.4639512995
 20
283.6363338001
 30
0.0
 11
122.9139512995
 21
283.6363338001
 31
0.0
  0
LINE
  5
1F5
330
1F
100
AcDbEntity
  8
0
  6
Continuous
 62
     7
370
    25
100
AcDbLine
 10
123.3284082071
 20
282.3815123566
 30
0.0
 11
116.049494392
 21
282.3815123566
 31
0.0
  0
LINE
  5
1F6
330
1F
100
AcDbEntity
  8
0
  6
Continuous
 62
     7
370
    25
100
AcDbLine
 10
116.049494392
 20
278.7673017654
 30
0.0
 11
123.3284082071
 21
278.7673017654
 31
0.0
  0
LINE
  5
1F7
330
1F
100
AcDbEntity
  8
0
  6
Continuous
 62
     7
370
    25
100
AcDbLine
 10
116.4639512995
 20
313.1780430121
 30
0.0
 11
122.9139512995
 21
313.1780430121
 31
0.0
  0
LINE
  5
1F8
330
1F
100
AcDbEntity
  8
0
  6
Continuous
 62
     7
370
    25
100
AcDbLine
 10
122.9139512995
 20
313.4838071259
 30
0.0
 11
116.4639512995
 21
313.4838071259
 31
0.0
  0
ARC
  5
1F9
330
1F
100
AcDbEntity
  8
0
  6
Continuous
 62
     7
370
    25
100
AcDbCircle
 10
81.2139512995
 20
296.0415063896
 30
0.0
 40
15.00000000000001
100
AcDbArc
 50
45.36529985
 51
78.9281833665
  0
ARC
  5
1FA
330
1F
100
AcDbEntity
  8
0
  6
Continuous
 62
     7
370
    25
100
AcDbCircle
 10
81.2139512995
 20
296.0415063896
 30
0.0
 40
15.0
100
AcDbArc
 50
345.916124212
 51
19.5185754471
  0
ARC
  5
1FB
330
1F
100
AcDbEntity
  8
0
  6
Continuous
 62
     7
370
    25
100
AcDbCircle
 10
81.2139512995
 20
296.0415063896
 30
0.0
 40
15.0
100
AcDbArc
 50
301.7805103451
 51
319.3335899486
  0
ARC
  5
1FC
330
1F
100
AcDbEntity
  8
0
  6
Continuous
 62
     7
370
    25
100
AcDbCircle
 10
81.2139512995
 20
296.0415063896
 30
0.0
 40
14.99999999999998
100
AcDbArc
 50
226.2049455961
 51
238.2194896549
  0
ARC
  5
1FD
330
1F
100
AcDbEntity
  8
0
  6
Continuous
 62
     7
370
    25
100
AcDbCircle
 10
81.2139512995
 20
296.0415063896
 30
0.0
 40
15.00000000000001
100
AcDbArc
 50
165.5587058217
 51
198.4747863059
  0
ARC
  5
1FE
330
1F
100
AcDbEntity
  8
0
  6
Continuous
 62
     7
370
    25
100
AcDbCircle
 10
81.2139512995
 20
296.0415063896
 30
0.0
 40
15.00000000000002
100
AcDbArc
 50
105.1255731424
 51
138.7600370192
  0
ARC
  5
1FF
330
1F
100
AcDbEntity
  8
0
  6
Continuous
 62
     7
370
    25
100
AcDbCircle
 10
94.6221708935
 20
313.4370172557
 30
0.0
 40
6.213875553933523
100
AcDbArc
 50
239.3038676187
 51
299.7771370676
  0
SPLINE
  5
200
330
1F
100
AcDbEntity
  8
0
  6
Continuous
 62
     7
370
    25
100
AcDbSpline
210
0.0
220
0.0
230
1.0
 70
     8
 71
     3
 72
    46
 73
    42
 74
     0
 42
0.00000001
 43
0.00000001
 40
0.0
 40
0.0
 40
0.0
 40
0.0
 40
0.1249999999999999
 40
0.1249999999999999
 40
0.1562499999999999
 40
0.1562499999999999
 40
0.1874999999999999
 40
0.1874999999999999
 40
0.25
 40
0.25
 40
0.2812500000000001
 40
0.2812500000000001
 40
0.3125000000000002
 40
0.3125000000000002
 40
0.3750000000000003
 40
0.3750000000000003
 40
0.4062500000000004
 40
0.4062500000000004
 40
0.4375000000000005
 40
0.4375000000000005
 40
0.4687500000000006
 40
0.4687500000000006
 40
0.5000000000000007
 40
0.5000000000000007
 40
0.5312500000000008
 40
0.5312500000000008
 40
0.5625000000000008
 40
0.5625000000000008
 40
0.6250000000000011
 40
0.6250000000000011
 40
0.656250000000001
 40
0.656250000000001
 40
0.687500000000001
 40
0.687500000000001
 40
0.7500000000000008
 40
0.7500000000000008
 40
0.8125000000000007
 40
0.8125000000000007
 40
0.8750000000000004
 40
0.8750000000000004
 40
1.0
 40
1.0
 40
1.0
 40
1.0
 10
97.7081533322489
 20
308.0435988788652
 30
0.0
 10
98.95646681423204
 20
307.3437149044387
 30
0.0
 10
100.1571680500148
 20
306.5439617520322
 30
0.0
 10
101.5662711417508
 20
305.3656745063861
 30
0.0
 10
101.843402424337
 20
305.1208768494553
 30
0.0
 10
102.3869072191044
 20
304.6105151343651
 30
0.0
 10
102.653568537875
 20
304.3445325652356
 30
0.0
 10
103.424868142153
 20
303.5216905921613
 30
0.0
 10
103.9044420327798
 20
302.9374197210728
 30
0.0
 10
104.5573008163958
 20
301.9929569670137
 30
0.0
 10
104.7637638025919
 20
301.6667184363505
 30
0.0
 10
105.1505646555483
 20
300.9875773184613
 30
0.0
 10
105.3319371174084
 20
300.6321857928367
 30
0.0
 10
105.8189875891748
 20
299.5413268520655
 30
0.0
 10
106.0696925479655
 20
298.7813618822497
 30
0.0
 10
106.3091401193215
 20
297.5811203511575
 30
0.0
 10
106.36563342725
 20
297.1706441470895
 30
0.0
 10
106.4260163139998
 20
296.3477655683454
 30
0.0
 10
106.4300568318195
 20
295.9329847845373
 30
0.0
 10
106.3869631865212
 20
295.1167813375824
 30
0.0
 10
106.340119068751
 20
294.7127951033967
 30
0.0
 10
106.1980589392081
 20
293.9126946415412
 30
0.0
 10
106.1021985745354
 20
293.5146463894057
 30
0.0
 10
105.8667781452756
 20
292.7365256185326
 30
0.0
 10
105.7270311965993
 20
292.355568853791
 30
0.0
 10
105.4128563652923
 20
291.6197944113075
 30
0.0
 10
105.2391520909591
 20
291.2659998391931
 30
0.0
 10
104.6757180388971
 20
290.2405752089106
 30
0.0
 10
104.2440577855412
 20
289.6045712837302
 30
0.0
 10
103.5312530233579
 20
288.7063670260939
 30
0.0
 10
103.2819990477744
 20
288.4157994140054
 30
0.0
 10
102.7715183210211
 20
287.8599565684162
 30
0.0
 10
102.5094474460422
 20
287.5935235327896
 30
0.0
 10
101.7055528441657
 20
286.8241668657377
 30
0.0
 10
101.1461805162567
 20
286.3509565551911
 30
0.0
 10
99.99064023807503
 20
285.4680484343852
 30
0.0
 10
99.39438913547257
 20
285.0584796935017
 30
0.0
 10
98.17149210929553
 20
284.2934375472621
 30
0.0
 10
97.54966589283256
 20
283.9410929053516
 30
0.0
 10
95.66808224800826
 20
282.9643958378666
 30
0.0
 10
94.3878880231659
 20
282.4171415028832
 30
0.0
 10
93.09904956996255
 20
281.9513608465321
 30
0.0
  0
LINE
  5
201
330
1F
100
AcDbEntity
  8
0
  6
Continuous
 62
     7
370
    25
100
AcDbLine
 10
56.4139512995
 20
364.0415063896
 30
0.0
 11
106.0139512617
 21
364.0415063896
 31
0.0
  0
LWPOLYLINE
  5
202
330
1F
100
AcDbEntity
  8
0
  6
Continuous
 62
     7
370
    25
100
AcDbPolyline
 90
        9
 70
   128
 43
0.0
 10
91.4500814117
 20
308.0937881085
 10
90.8894820171
 20
308.7472422807
 10
90.4563624509
 20
309.5269690824
 10
90.1585788966
 20
310.4188253592
 10
90.0015327316
 20
311.4066340849
 10
89.9880725538
 20
312.4724777902
 10
90.118442512
 20
313.59702356
 10
90.3902778775
 20
314.759873706
 10
90.7986479366
 20
315.9399357522
  0
ARC
  5
203
330
1F
100
AcDbEntity
  8
0
  6
Continuous
 62
     7
370
    25
100
AcDbCircle
 10
61.4701912505
 20
309.4319114891
 30
0.0
 40
7.748014529181534
100
AcDbArc
 50
327.7818157888
 51
13.7464277328
  0
SPLINE
  5
204
330
1F
100
AcDbEntity
  8
0
  6
Continuous
 62
     7
370
    25
100
AcDbSpline
210
0.0
220
0.0
230
1.0
 70
     8
 71
     3
 72
    42
 73
    38
 74
     0
 42
0.00000001
 43
0.00000001
 40
0.0
 40
0.0
 40
0.0
 40
0.0
 40
0.0624999999999998
 40
0.0624999999999998
 40
0.1249999999999997
 40
0.1249999999999997
 40
0.1874999999999996
 40
0.1874999999999996
 40
0.2499999999999995
 40
0.2499999999999995
 40
0.3749999999999996
 40
0.3749999999999996
 40
0.4062499999999997
 40
0.4062499999999997
 40
0.4374999999999998
 40
0.4374999999999998
 40
0.4999999999999999
 40
0.4999999999999999
 40
0.5312499999999999
 40
0.5312499999999999
 40
0.5625
 40
0.5625
 40
0.59375
 40
0.59375
 40
0.625
 40
0.625
 40
0.6875
 40
0.6875
 40
0.71875
 40
0.71875
 40
0.75
 40
0.75
 40
0.8125
 40
0.8125
 40
0.875
 40
0.875
 40
1.0
 40
1.0
 40
1.0
 40
1.0
 10
68.99627852496748
 20
311.273036004585
 30
0.0
 10
69.1901023202428
 20
311.7052094201559
 30
0.0
 10
69.40348267142244
 20
312.1583185507332
 30
0.0
 10
69.86406915730697
 20
313.0720998833239
 30
0.0
 10
70.11206252778429
 20
313.5348293968499
 30
0.0
 10
70.64703486984223
 20
314.4610389941257
 30
0.0
 10
70.93399519487788
 20
314.9246314532411
 30
0.0
 10
71.55293307693957
 20
315.8450918395047
 30
0.0
 10
71.88553186939109
 20
316.3028718176407
 30
0.0
 10
72.96083083179576
 20
317.6503455377884
 30
0.0
 10
73.76552809334646
 20
318.5001961749926
 30
0.0
 10
74.93758295232209
 20
319.4525077551317
 30
0.0
 10
75.18053563479923
 20
319.6373321731347
 30
0.0
 10
75.686239643202
 20
319.9936327420466
 30
0.0
 10
75.94836500005259
 20
320.1644995721253
 30
0.0
 10
76.75247081551274
 20
320.6439767444014
 30
0.0
 10
77.31632548370138
 20
320.9230167569308
 30
0.0
 10
78.21397427025882
 20
321.2646195717035
 30
0.0
 10
78.52188735255655
 20
321.365585730567
 30
0.0
 10
79.15777159534709
 20
321.5376303509986
 30
0.0
 10
79.48402865559451
 20
321.6079921233838
 30
0.0
 10
80.14220205573478
 20
321.7121956112339
 30
0.0
 10
80.4774573989076
 20
321.7464461284723
 30
0.0
 10
81.14292126144608
 20
321.7766914870369
 30
0.0
 10
81.47439605294859
 20
321.7730717670149
 30
0.0
 10
82.46512797707791
 20
321.707169029306
 30
0.0
 10
83.12633678947132
 20
321.5875504577976
 30
0.0
 10
84.07633744183458
 20
321.311409577521
 30
0.0
 10
84.38540735203505
 20
321.2037787286932
 30
0.0
 10
84.98160620377692
 20
320.9645348397885
 30
0.0
 10
85.27018204442625
 20
320.8325032769584
 30
0.0
 10
86.11088208466646
 20
320.4040245426287
 30
0.0
 10
86.63816224126882
 20
320.0754203115935
 30
0.0
 10
87.63867889264002
 20
319.3497923829224
 30
0.0
 10
88.10173364634247
 20
318.9600355700628
 30
0.0
 10
89.39558775473843
 20
317.7412061621565
 30
0.0
 10
90.13840847053555
 20
316.8587564369401
 30
0.0
 10
90.79864793657997
 20
315.9399357521579
 30
0.0
  0
SPLINE
  5
205
330
1F
100
AcDbEntity
  8
0
  6
Continuous
 62
     7
370
    25
100
AcDbSpline
210
0.0
220
0.0
230
1.0
 70
     8
 71
     3
 72
     8
 73
     4
 74
     0
 42
0.00000001
 43
0.00000001
 40
0.0
 40
0.0
 40
0.0
 40
0.0
 40
0.000098823642892
 40
0.000098823642892
 40
0.000098823642892
 40
0.000098823642892
 10
65.26651995030487
 20
354.3236641536907
 30
0.0
 10
65.26922575217537
 20
354.3114232829896
 30
0.0
 10
65.27190947205435
 20
354.299347622934
 30
0.0
 10
65.27458002270714
 20
354.2874192466866
 30
0.0
  0
SPLINE
  5
206
330
1F
100
AcDbEntity
  8
0
  6
Continuous
 62
     7
370
    25
100
AcDbSpline
210
0.0
220
0.0
230
1.0
 70
     8
 71
     3
 72
     8
 73
     4
 74
     0
 42
0.00000001
 43
0.00000001
 40
0.0
 40
0.0
 40
0.0
 40
0.0
 40
0.0002560048126404
 40
0.0002560048126404
 40
0.0002560048126404
 40
0.0002560048126404
 10
65.24515256433658
 20
354.4146265847379
 30
0.0
 10
65.25231634417821
 20
354.3856975997871
 30
0.0
 10
65.25951051126196
 20
354.3553743975095
 30
0.0
 10
65.26651995030555
 20
354.3236641536985
 30
0.0
  0
SPLINE
  5
207
330
1F
100
AcDbEntity
  8
0
  6
Continuous
 62
     7
370
    25
100
AcDbSpline
210
0.0
220
0.0
230
1.0
 70
     8
 71
     3
 72
     8
 73
     4
 74
     0
 42
0.00000001
 43
0.00000001
 40
0.0
 40
0.0
 40
0.0
 40
0.0
 40
0.0002560048126397
 40
0.0002560048126397
 40
0.0002560048126397
 40
0.0002560048126397
 10
97.1613826487731
 20
354.323664153691
 30
0.0
 10
97.16839208781653
 20
354.3553743975019
 30
0.0
 10
97.17558625489897
 20
354.3856975997952
 30
0.0
 10
97.1827500347407
 20
354.4146265847458
 30
0.0
  0
SPLINE
  5
208
330
1F
100
AcDbEntity
  8
0
  6
Continuous
 62
     7
370
    25
100
AcDbSpline
210
0.0
220
0.0
230
1.0
 70
     8
 71
     3
 72
     8
 73
     4
 74
     0
 42
0.00000001
 43
0.00000001
 40
0.0000000000000011
 40
0.0000000000000011
 40
0.0000000000000011
 40
0.0000000000000011
 40
0.0000988236428765
 40
0.0000988236428765
 40
0.0000988236428765
 40
0.0000988236428765
 10
97.15332257637216
 20
354.2874192466898
 30
0.0
 10
97.15599312702453
 20
354.2993476229353
 30
0.0
 10
97.15867684690302
 20
354.3114232829918
 30
0.0
 10
97.16138264877311
 20
354.323664153691
 30
0.0
  0
LINE
  5
209
330
1F
100
AcDbEntity
  8
0
  6
Continuous
 62
     7
370
    25
100
AcDbLine
 10
97.1533225764
 20
354.2874192467
 30
0.0
 11
90.388764514
 21
354.2874192467
 31
0.0
  0
SPLINE
  5
20A
330
1F
100
AcDbEntity
  8
0
  6
Continuous
 62
     7
370
    25
100
AcDbSpline
210
0.0
220
0.0
230
1.0
 70
     8
 71
     3
 72
     8
 73
     4
 74
     0
 42
0.00000001
 43
0.00000001
 40
0.0
 40
0.0
 40
0.0
 40
0.0
 40
0.000098823642892
 40
0.000098823642892
 40
0.000098823642892
 40
0.000098823642892
 10
90.31348130564635
 20
354.3236641536907
 30
0.0
 10
90.33850969524194
 20
354.3114232829896
 30
0.0
 10
90.36360867382706
 20
354.299347622934
 30
0.0
 10
90.38876451397398
 20
354.2874192466866
 30
0.0
  0
SPLINE
  5
20B
330
1F
100
AcDbEntity
  8
0
  6
Continuous
 62
     7
370
    25
100
AcDbSpline
210
0.0
220
0.0
230
1.0
 70
     8
 71
     3
 72
     8
 73
     4
 74
     0
 42
0.00000001
 43
0.00000001
 40
0.0
 40
0.0
 40
0.0
 40
0.0
 40
0.0002560048126404
 40
0.0002560048126404
 40
0.0002560048126404
 40
0.0002560048126404
 10
90.11775327103851
 20
354.4146265847379
 30
0.0
 10
90.18342009403472
 20
354.3856975997871
 30
0.0
 10
90.24864471390171
 20
354.3553743975095
 30
0.0
 10
90.3134813056484
 20
354.3236641536985
 30
0.0
  0
SPLINE
  5
20C
330
1F
100
AcDbEntity
  8
0
  6
Continuous
 62
     7
370
    25
100
AcDbSpline
210
0.0
220
0.0
230
1.0
 70
     8
 71
     3
 72
    14
 73
    10
 74
     0
 42
0.00000001
 43
0.00000001
 40
0.0
 40
0.0
 40
0.0
 40
0.0
 40
0.25
 40
0.25
 40
0.5
 40
0.5
 40
0.75
 40
0.75
 40
1.0
 40
1.0
 40
1.0
 40
1.0
 10
88.2789480632418
 20
354.4146265847379
 30
0.0
 10
88.43466338494581
 20
354.4764781419494
 30
0.0
 10
88.59256291568474
 20
354.5186882816593
 30
0.0
 10
88.90838285370754
 20
354.5738404294411
 30
0.0
 10
89.06636181942743
 20
354.5869146732529
 30
0.0
 10
89.38121898826702
 20
354.587078439015
 30
0.0
 10
89.53428977356667
 20
354.5741684487405
 30
0.0
 10
89.83207856287665
 20
354.5190919620314
 30
0.0
 10
89.9775354181186
 20
354.4763984197676
 30
0.0
 10
90.11775327103888
 20
354.4146265847392
 30
0.0
  0
SPLINE
  5
20D
330
1F
100
AcDbEntity
  8
0
  6
Continuous
 62
     7
370
    25
100
AcDbSpline
210
0.0
220
0.0
230
1.0
 70
     8
 71
     3
 72
     8
 73
     4
 74
     0
 42
0.00000001
 43
0.00000001
 40
0.0
 40
0.0
 40
0.0
 40
0.0
 40
0.0002560048126397
 40
0.0002560048126397
 40
0.0002560048126397
 40
0.0002560048126397
 10
88.06185264266624
 20
354.323664153691
 30
0.0
 10
88.13369867345625
 20
354.3553743975019
 30
0.0
 10
88.20611746040103
 20
354.3856975997952
 30
0.0
 10
88.27894806323874
 20
354.4146265847458
 30
0.0
  0
SPLINE
  5
20E
330
1F
100
AcDbEntity
  8
0
  6
Continuous
 62
     7
370
    25
100
AcDbSpline
210
0.0
220
0.0
230
1.0
 70
     8
 71
     3
 72
     8
 73
     4
 74
     0
 42
0.00000001
 43
0.00000001
 40
0.0000000000000011
 40
0.0000000000000011
 40
0.0000000000000011
 40
0.0000000000000011
 40
0.0000988236428765
 40
0.0000988236428765
 40
0.0000988236428765
 40
0.0000988236428765
 10
87.97850936195032
 20
354.2874192466897
 30
0.0
 10
88.00633575274566
 20
354.2993476229353
 30
0.0
 10
88.03411845120445
 20
354.3114232829918
 30
0.0
 10
88.06185264266622
 20
354.323664153691
 30
0.0
  0
LINE
  5
20F
330
1F
100
AcDbEntity
  8
0
  6
Continuous
 62
     7
370
    25
100
AcDbLine
 10
87.978509362
 20
354.2874192467
 30
0.0
 11
74.4493932371
 21
354.2874192467
 31
0.0
  0
SPLINE
  5
210
330
1F
100
AcDbEntity
  8
0
  6
Continuous
 62
     7
370
    25
100
AcDbSpline
210
0.0
220
0.0
230
1.0
 70
     8
 71
     3
 72
     8
 73
     4
 74
     0
 42
0.00000001
 43
0.00000001
 40
0.0
 40
0.0
 40
0.0
 40
0.0
 40
0.0000988236428927
 40
0.0000988236428927
 40
0.0000988236428927
 40
0.0000988236428927
 10
74.36604995641166
 20
354.323664153691
 30
0.0
 10
74.39378414787798
 20
354.3114232829898
 30
0.0
 10
74.42156684634226
 20
354.2993476229341
 30
0.0
 10
74.44939323714217
 20
354.2874192466866
 30
0.0
  0
SPLINE
  5
211
330
1F
100
AcDbEntity
  8
0
  6
Continuous
 62
     7
370
    25
100
AcDbSpline
210
0.0
220
0.0
230
1.0
 70
     8
 71
     3
 72
     8
 73
     4
 74
     0
 42
0.00000001
 43
0.00000001
 40
0.0
 40
0.0
 40
0.0
 40
0.0
 40
0.0002560048126397
 40
0.0002560048126397
 40
0.0002560048126397
 40
0.0002560048126397
 10
74.14895453583611
 20
354.4146265847379
 30
0.0
 10
74.22178513867375
 20
354.3856975997872
 30
0.0
 10
74.2942039256243
 20
354.3553743975096
 30
0.0
 10
74.3660499564144
 20
354.3236641536988
 30
0.0
  0
SPLINE
  5
212
330
1F
100
AcDbEntity
  8
0
  6
Continuous
 62
     7
370
    25
100
AcDbSpline
210
0.0
220
0.0
230
1.0
 70
     8
 71
     3
 72
    14
 73
    10
 74
     0
 42
0.00000001
 43
0.00000001
 40
0.0
 40
0.0
 40
0.0
 40
0.0
 40
0.25
 40
0.25
 40
0.5
 40
0.5
 40
0.75
 40
0.75
 40
1.0
 40
1.0
 40
1.0
 40
1.0
 10
72.3101493280394
 20
354.4146265847379
 30
0.0
 10
72.45054814487884
 20
354.4764781419494
 30
0.0
 10
72.5943974073796
 20
354.5186882816593
 30
0.0
 10
72.8910932698314
 20
354.5738404294411
 30
0.0
 10
73.04382928719123
 20
354.5869146732529
 30
0.0
 10
73.35862384623967
 20
354.587078439015
 30
0.0
 10
73.51687799844758
 20
354.5741684487405
 30
0.0
 10
73.83378141654003
 20
354.5190919620314
 30
0.0
 10
73.9934399199184
 20
354.4763984197676
 30
0.0
 10
74.14895453583648
 20
354.4146265847392
 30
0.0
  0
SPLINE
  5
213
330
1F
100
AcDbEntity
  8
0
  6
Continuous
 62
     7
370
    25
100
AcDbSpline
210
0.0
220
0.0
230
1.0
 70
     8
 71
     3
 72
     8
 73
     4
 74
     0
 42
0.00000001
 43
0.00000001
 40
0.0
 40
0.0
 40
0.0
 40
0.0
 40
0.0002560048126397
 40
0.0002560048126397
 40
0.0002560048126397
 40
0.0002560048126397
 10
72.1144212934321
 20
354.323664153691
 30
0.0
 10
72.17925788517867
 20
354.3553743975019
 30
0.0
 10
72.24448250504103
 20
354.3856975997952
 30
0.0
 10
72.310149328037
 20
354.4146265847458
 30
0.0
  0
SPLINE
  5
214
330
1F
100
AcDbEntity
  8
0
  6
Continuous
 62
     7
370
    25
100
AcDbSpline
210
0.0
220
0.0
230
1.0
 70
     8
 71
     3
 72
     8
 73
     4
 74
     0
 42
0.00000001
 43
0.00000001
 40
0.0000000000000011
 40
0.0000000000000011
 40
0.0000000000000011
 40
0.0000000000000011
 40
0.0000988236428765
 40
0.0000988236428765
 40
0.0000988236428765
 40
0.0000988236428765
 10
72.03913808511712
 20
354.2874192466897
 30
0.0
 10
72.06429392526007
 20
354.2993476229353
 30
0.0
 10
72.08939290384039
 20
354.3114232829918
 30
0.0
 10
72.11442129343209
 20
354.323664153691
 30
0.0
  0
LINE
  5
215
330
1F
100
AcDbEntity
  8
0
  6
Continuous
 62
     7
370
    25
100
AcDbLine
 10
72.0391380851
 20
354.2874192467
 30
0.0
 11
65.2745800227
 21
354.2874192467
 31
0.0
  0
LINE
  5
216
330
1F
100
AcDbEntity
  8
0
  6
Continuous
 62
     7
370
    25
100
AcDbLine
 10
110.2139512995
 20
306.5327465564
 30
0.0
 11
110.2139512995
 21
280.648969793
 31
0.0
  0
LINE
  5
217
330
1F
100
AcDbEntity
  8
0
  6
Continuous
 62
     7
370
    25
100
AcDbLine
 10
110.2139512995
 20
311.4340429862
 30
0.0
 11
110.2139512995
 21
307.8455930516
 31
0.0
  0
ELLIPSE
  5
218
330
1F
100
AcDbEntity
  8
0
  6
Continuous
 62
     7
370
    25
100
AcDbEllipse
 10
118.4547076883
 20
296.1335396763
 30
0.0
 11
-5.596045292391636
 21
15.00796136777751
 31
0.0
210
0.0
220
0.0
230
1.0
 40
0.4514218124
 41
0.5258794326610039
 42
0.6494913437152808
  0
SPLINE
  5
219
330
1F
100
AcDbEntity
  8
0
  6
Continuous
 62
     7
370
    25
100
AcDbSpline
210
0.0
220
0.0
230
1.0
 70
     8
 71
     3
 72
     8
 73
     4
 74
     0
 42
0.00000001
 43
0.00000001
 40
0.0000002008695006
 40
0.0000002008695006
 40
0.0000002008695006
 40
0.0000002008695006
 40
0.0003147847660132
 40
0.0003147847660132
 40
0.0003147847660132
 40
0.0003147847660132
 10
110.2139512995389
 20
306.5327465564379
 30
0.0
 10
110.1095439169299
 20
306.5411871123298
 30
0.0
 10
110.0051329024058
 20
306.5495940380763
 30
0.0
 10
109.9007183873351
 20
306.5579681601699
 30
0.0
  0
LINE
  5
21A
330
1F
100
AcDbEntity
  8
0
  6
Continuous
 62
     7
370
    25
100
AcDbLine
 10
104.5960504719
 20
311.5512091012
 30
0.0
 11
104.590870026
 21
311.548464281
 31
0.0
  0
SPLINE
  5
21B
330
1F
100
AcDbEntity
  8
0
  6
Continuous
 62
     7
370
    25
100
AcDbSpline
210
0.0
220
0.0
230
1.0
 70
     8
 71
     3
 72
    16
 73
    12
 74
     0
 42
0.00000001
 43
0.00000001
 40
0.0
 40
0.0
 40
0.0
 40
0.0
 40
0.25
 40
0.25
 40
0.5
 40
0.5
 40
0.75
 40
0.75
 40
0.875
 40
0.875
 40
1.0
 40
1.0
 40
1.0
 40
1.0
 10
88.48976740496657
 20
351.7915063896186
 30
0.0
 10
87.85741150426188
 20
351.7915063896186
 30
0.0
 10
87.23632581983988
 20
351.8595015584015
 30
0.0
 10
86.00640078235341
 20
352.0693761362282
 30
0.0
 10
85.39779471692387
 20
352.2126630100195
 30
0.0
 10
84.18798456624906
 20
352.5438941873558
 30
0.0
 10
83.58868741962111
 20
352.7316095642751
 30
0.0
 10
82.69564141419403
 20
353.0278020152981
 30
0.0
 10
82.39878915183998
 20
353.1290621071054
 30
0.0
 10
81.80589863838753
 20
353.3340636216288
 30
0.0
 10
81.50832154935183
 20
353.4383480679506
 30
0.0
 10
81.21395129953896
 20
353.5415063896186
 30
0.0
  0
SPLINE
  5
21C
330
1F
100
AcDbEntity
  8
0
  6
Continuous
 62
     7
370
    25
100
AcDbSpline
210
0.0
220
0.0
230
1.0
 70
     8
 71
     3
 72
    14
 73
    10
 74
     0
 42
0.00000001
 43
0.00000001
 40
0.0
 40
0.0
 40
0.0
 40
0.0
 40
0.25
 40
0.25
 40
0.5
 40
0.5
 40
0.75
 40
0.75
 40
1.0
 40
1.0
 40
1.0
 40
1.0
 10
88.38821920336925
 20
353.3801427793836
 30
0.0
 10
87.80291533346231
 20
353.3180891471964
 30
0.0
 10
87.21504166807733
 20
353.2995646839232
 30
0.0
 10
86.03096793477621
 20
353.2946219677214
 30
0.0
 10
85.43430908163558
 20
353.3100835715184
 30
0.0
 10
84.23441299226897
 20
353.3577479771453
 30
0.0
 10
83.63285048521432
 20
353.3901867174672
 30
0.0
 10
82.4256922861888
 20
353.4621629267378
 30
0.0
 10
81.81792142242442
 20
353.5019784705703
 30
0.0
 10
81.21395129953896
 20
353.5415063896186
 30
0.0
  0
SPLINE
  5
21D
330
1F
100
AcDbEntity
  8
0
  6
Continuous
 62
     7
370
    25
100
AcDbSpline
210
0.0
220
0.0
230
1.0
 70
     8
 71
     3
 72
     8
 73
     4
 74
     0
 42
0.00000001
 43
0.00000001
 40
0.0
 40
0.0
 40
0.0
 40
0.0
 40
0.0001055072942668
 40
0.0001055072942668
 40
0.0001055072942668
 40
0.0001055072942668
 10
88.48976740496657
 20
353.3913470417996
 30
0.0
 10
88.45592913813665
 20
353.3874632187853
 30
0.0
 10
88.42207929953864
 20
353.3837326103437
 30
0.0
 10
88.38821920336929
 20
353.3801427793831
 30
0.0
  0
LINE
  5
21E
330
1F
100
AcDbEntity
  8
0
  6
Continuous
 62
     7
370
    25
100
AcDbLine
 10
88.489767405
 20
353.3913470418
 30
0.0
 11
88.489767405
 21
351.7915063896
 31
0.0
  0
ARC
  5
21F
330
1F
100
AcDbEntity
  8
0
  6
Continuous
 62
     7
370
    25
100
AcDbCircle
 10
89.5680292669
 20
354.4590709787
 30
0.0
 40
1.59876134718267
100
AcDbArc
 50
186.1634674732
 51
222.4427022402
  0
SPLINE
  5
220
330
1F
100
AcDbEntity
  8
0
  6
Continuous
 62
     7
370
    25
100
AcDbSpline
210
0.0
220
0.0
230
1.0
 70
     8
 71
     3
 72
    12
 73
     8
 74
     0
 42
0.00000001
 43
0.00000001
 40
0.0
 40
0.0
 40
0.0
 40
0.0
 40
0.2499999999999999
 40
0.2499999999999999
 40
0.4999999999999998
 40
0.4999999999999998
 40
1.0
 40
1.0
 40
1.0
 40
1.0
 10
87.9785093619499
 20
354.2874192466896
 30
0.0
 10
87.45635123702081
 20
354.1755021349869
 30
0.0
 10
86.91772419943295
 20
354.0961219894418
 30
0.0
 10
85.81467799812452
 20
353.9543741523263
 30
0.0
 10
85.25482297869523
 20
353.894699355385
 30
0.0
 10
83.55236029364929
 20
353.728761035083
 30
0.0
 10
82.38173039381999
 20
353.6354860604464
 30
0.0
 10
81.21395129953896
 20
353.5415063896186
 30
0.0
  0
ARC
  5
221
330
1F
100
AcDbEntity
  8
0
  6
Continuous
 62
     7
370
    25
100
AcDbCircle
 10
72.8598733322
 20
354.4590709787
 30
0.0
 40
1.598761347194619
100
AcDbArc
 50
317.5572977601
 51
353.8365325269
  0
SPLINE
  5
222
330
1F
100
AcDbEntity
  8
0
  6
Continuous
 62
     7
370
    25
100
AcDbSpline
210
0.0
220
0.0
230
1.0
 70
     8
 71
     3
 72
    18
 73
    14
 74
     0
 42
0.00000001
 43
0.00000001
 40
0.0
 40
0.0
 40
0.0
 40
0.0
 40
0.2500000000000001
 40
0.2500000000000001
 40
0.5000000000000001
 40
0.5000000000000001
 40
0.7500000000000002
 40
0.7500000000000002
 40
0.8750000000000003
 40
0.8750000000000003
 40
0.9375000000000002
 40
0.9375000000000002
 40
1.0
 40
1.0
 40
1.0
 40
1.0
 10
74.44939323714217
 20
354.2874192466867
 30
0.0
 10
74.97381823865032
 20
354.1750162624737
 30
0.0
 10
75.51112003412356
 20
354.0960512362448
 30
0.0
 10
76.60583337022595
 20
353.9552740111652
 30
0.0
 10
77.16347779969757
 20
353.8957002958552
 30
0.0
 10
78.29809360343651
 20
353.7849807727966
 30
0.0
 10
78.87745621094518
 20
353.7339482063212
 30
0.0
 10
79.7508932818718
 20
353.6603305725561
 30
0.0
 10
80.04269472282667
 20
353.6363069923727
 30
0.0
 10
80.48134348729683
 20
353.6005993338682
 30
0.0
 10
80.62771765105389
 20
353.5887521504623
 30
0.0
 10
80.92077708116823
 20
353.565100137766
 30
0.0
 10
81.06889102090962
 20
353.5531804424601
 30
0.0
 10
81.21395129953896
 20
353.5415063896186
 30
0.0
  0
SPLINE
  5
223
330
1F
100
AcDbEntity
  8
0
  6
Continuous
 62
     7
370
    25
100
AcDbSpline
210
0.0
220
0.0
230
1.0
 70
     8
 71
     3
 72
    14
 73
    10
 74
     0
 42
0.00000001
 43
0.00000001
 40
0.0
 40
0.0
 40
0.0
 40
0.0
 40
0.2500000000000001
 40
0.2500000000000001
 40
0.5000000000000002
 40
0.5000000000000002
 40
0.7500000000000001
 40
0.7500000000000001
 40
1.0
 40
1.0
 40
1.0
 40
1.0
 10
74.03968339572634
 20
353.3801427793817
 30
0.0
 10
74.62498726565184
 20
353.3180891471935
 30
0.0
 10
75.21286093105557
 20
353.2995646839213
 30
0.0
 10
76.3969346643948
 20
353.2946219677226
 30
0.0
 10
76.99359351755508
 20
353.3100835715216
 30
0.0
 10
78.1934896069601
 20
353.3577479771526
 30
0.0
 10
78.79505211403409
 20
353.3901867174766
 30
0.0
 10
80.00221031309862
 20
353.462162926751
 30
0.0
 10
80.60998117663296
 20
353.5019784705825
 30
0.0
 10
81.21395129953896
 20
353.5415063896186
 30
0.0
  0
LINE
  5
224
330
1F
100
AcDbEntity
  8
0
  6
Continuous
 62
     7
370
    25
100
AcDbLine
 10
73.9381351941
 20
351.7915063896
 30
0.0
 11
73.9381351941
 21
353.3913470418
 31
0.0
  0
SPLINE
  5
225
330
1F
100
AcDbEntity
  8
0
  6
Continuous
 62
     7
370
    25
100
AcDbSpline
210
0.0
220
0.0
230
1.0
 70
     8
 71
     3
 72
     8
 73
     4
 74
     0
 42
0.00000001
 43
0.00000001
 40
0.0
 40
0.0
 40
0.0
 40
0.0
 40
0.0001055072942852
 40
0.0001055072942852
 40
0.0001055072942852
 40
0.0001055072942852
 10
74.03968339572634
 20
353.3801427793817
 30
0.0
 10
74.00582329955108
 20
353.3837326103429
 30
0.0
 10
73.97197346094714
 20
353.3874632187847
 30
0.0
 10
73.93813519411133
 20
353.3913470417996
 30
0.0
  0
SPLINE
  5
226
330
1F
100
AcDbEntity
  8
0
  6
Continuous
 62
     7
370
    25
100
AcDbSpline
210
0.0
220
0.0
230
1.0
 70
     8
 71
     3
 72
    16
 73
    12
 74
     0
 42
0.00000001
 43
0.00000001
 40
0.0
 40
0.0
 40
0.0
 40
0.0
 40
0.2499999999999999
 40
0.2499999999999999
 40
0.4999999999999999
 40
0.4999999999999999
 40
0.75
 40
0.75
 40
0.875
 40
0.875
 40
1.0
 40
1.0
 40
1.0
 40
1.0
 10
73.93813519411133
 20
351.7915063896186
 30
0.0
 10
74.57049109481603
 20
351.7915063896186
 30
0.0
 10
75.19157677923803
 20
351.8595015584015
 30
0.0
 10
76.4215018167245
 20
352.0693761362282
 30
0.0
 10
77.03010788215403
 20
352.2126630100195
 30
0.0
 10
78.23991803282885
 20
352.5438941873558
 30
0.0
 10
78.8392151794568
 20
352.7316095642751
 30
0.0
 10
79.73226118488387
 20
353.0278020152981
 30
0.0
 10
80.02911344723795
 20
353.1290621071054
 30
0.0
 10
80.62200396069039
 20
353.3340636216288
 30
0.0
 10
80.91958104972599
 20
353.4383480679508
 30
0.0
 10
81.21395129953896
 20
353.5415063896186
 30
0.0
  0
ARC
  5
227
330
1F
100
AcDbEntity
  8
0
  6
Continuous
 62
     7
370
    25
100
AcDbCircle
 10
105.1573541432
 20
321.5330174941
 30
0.0
 40
15.40957518232612
100
AcDbArc
 50
201.2821805457
 51
241.0914009813
  0
LINE
  5
228
330
1F
100
AcDbEntity
  8
0
  6
Continuous
 62
     7
370
    25
100
AcDbLine
 10
91.3175810104
 20
351.7915063896
 30
0.0
 11
88.719504799
 21
351.7915063896
 31
0.0
  0
LINE
  5
229
330
1F
100
AcDbEntity
  8
0
  6
Continuous
 62
     7
370
    25
100
AcDbLine
 10
88.719504799
 20
351.7915063896
 30
0.0
 11
88.719504799
 21
353.4202896335
 31
0.0
  0
SPLINE
  5
22A
330
1F
100
AcDbEntity
  8
0
  6
Continuous
 62
     7
370
    25
100
AcDbSpline
210
0.0
220
0.0
230
1.0
 70
     8
 71
     3
 72
    10
 73
     6
 74
     0
 42
0.00000001
 43
0.00000001
 40
0.0
 40
0.0
 40
0.0
 40
0.0
 40
0.5
 40
0.5
 40
1.0
 40
1.0
 40
1.0
 40
1.0
 10
90.35626922901398
 20
353.4202896334963
 30
0.0
 10
90.1142504098423
 20
353.4627136591826
 30
0.0
 10
89.85941837913705
 20
353.4751347437962
 30
0.0
 10
89.30697530428789
 20
353.4751347437962
 30
0.0
 10
89.01652835844804
 20
353.4627136591829
 30
0.0
 10
88.71950479900387
 20
353.4202896334968
 30
0.0
  0
ARC
  5
22B
330
1F
100
AcDbEntity
  8
0
  6
Continuous
 62
     7
370
    25
100
AcDbCircle
 10
89.5554830611
 20
351.8495878318
 30
0.0
 40
1.76305491595408
100
AcDbArc
 50
358.1121270215
 51
62.9862857032
  0
LINE
  5
22C
330
1F
100
AcDbEntity
  8
0
  6
Continuous
 62
     7
370
    25
100
AcDbLine
 10
88.719504799
 20
351.7915063896
 30
0.0
 11
88.489767405
 21
351.7915063896
 31
0.0
  0
SPLINE
  5
22D
330
1F
100
AcDbEntity
  8
0
  6
Continuous
 62
     7
370
    25
100
AcDbSpline
210
0.0
220
0.0
230
1.0
 70
     8
 71
     3
 72
     8
 73
     4
 74
     0
 42
0.00000001
 43
0.00000001
 40
0.0
 40
0.0
 40
0.0
 40
0.0
 40
0.0002416894103822
 40
0.0002416894103822
 40
0.0002416894103822
 40
0.0002416894103822
 10
88.71950479900408
 20
353.4202896334963
 30
0.0
 10
88.64293726930441
 20
353.4111264726484
 30
0.0
 10
88.56634671297888
 20
353.4014872599345
 30
0.0
 10
88.48976740496653
 20
353.3913470417999
 30
0.0
  0
LINE
  5
22E
330
1F
100
AcDbEntity
  8
0
  6
Continuous
 62
     7
370
    25
100
AcDbLine
 10
91.3175810104
 20
351.7915063896
 30
0.0
 11
91.3175810104
 21
341.0415063896
 31
0.0
  0
LINE
  5
22F
330
1F
100
AcDbEntity
  8
0
  6
Continuous
 62
     7
370
    25
100
AcDbLine
 10
88.719504799
 20
341.0415063896
 30
0.0
 11
91.3175810104
 21
341.0415063896
 31
0.0
  0
LINE
  5
230
330
1F
100
AcDbEntity
  8
0
  6
Continuous
 62
     7
370
    25
100
AcDbLine
 10
88.719504799
 20
341.0415063896
 30
0.0
 11
88.719504799
 21
351.7915063896
 31
0.0
  0
LINE
  5
231
330
1F
100
AcDbEntity
  8
0
  6
Continuous
 62
     7
370
    25
100
AcDbLine
 10
89.8020365537
 20
339.2915063896
 30
0.0
 11
88.719504799
 21
339.2915063896
 31
0.0
  0
LINE
  5
232
330
1F
100
AcDbEntity
  8
0
  6
Continuous
 62
     7
370
    25
100
AcDbLine
 10
88.719504799
 20
339.2915063896
 30
0.0
 11
88.719504799
 21
341.0415063896
 31
0.0
  0
ARC
  5
233
330
1F
100
AcDbEntity
  8
0
  6
Continuous
 62
     7
370
    25
100
AcDbCircle
 10
89.6757411823
 20
340.9321313896
 30
0.0
 40
1.645478930724525
100
AcDbArc
 50
274.4019496523
 51
3.8112610495
  0
LINE
  5
234
330
1F
100
AcDbEntity
  8
0
  6
Continuous
 62
     7
370
    25
100
AcDbLine
 10
73.9381351941
 20
351.7915063896
 30
0.0
 11
73.7083978001
 21
351.7915063896
 31
0.0
  0
LINE
  5
235
330
1F
100
AcDbEntity
  8
0
  6
Continuous
 62
     7
370
    25
100
AcDbLine
 10
73.7083978001
 20
351.7915063896
 30
0.0
 11
73.7083978001
 21
353.4202896335
 31
0.0
  0
SPLINE
  5
236
330
1F
100
AcDbEntity
  8
0
  6
Continuous
 62
     7
370
    25
100
AcDbSpline
210
0.0
220
0.0
230
1.0
 70
     8
 71
     3
 72
     8
 73
     4
 74
     0
 42
0.00000001
 43
0.00000001
 40
0.0
 40
0.0
 40
0.0
 40
0.0
 40
0.0002416894103822
 40
0.0002416894103822
 40
0.0002416894103822
 40
0.0002416894103822
 10
73.93813519411133
 20
353.3913470417996
 30
0.0
 10
73.86155588609897
 20
353.4014872599343
 30
0.0
 10
73.78496532977353
 20
353.4111264726486
 30
0.0
 10
73.70839780007385
 20
353.4202896334966
 30
0.0
  0
LINE
  5
237
330
1F
100
AcDbEntity
  8
0
  6
Continuous
 62
     7
370
    25
100
AcDbLine
 10
73.7083978001
 20
341.0415063896
 30
0.0
 11
73.7083978001
 21
339.2915063896
 31
0.0
  0
LINE
  5
238
330
1F
100
AcDbEntity
  8
0
  6
Continuous
 62
     7
370
    25
100
AcDbLine
 10
73.7083978001
 20
341.0415063896
 30
0.0
 11
88.719504799
 21
341.0415063896
 31
0.0
  0
LINE
  5
239
330
1F
100
AcDbEntity
  8
0
  6
Continuous
 62
     7
370
    25
100
AcDbLine
 10
88.719504799
 20
339.2915063896
 30
0.0
 11
85.8239836855
 21
339.2915063896
 31
0.0
  0
SPLINE
  5
23A
330
1F
100
AcDbEntity
  8
0
  6
Continuous
 62
     7
370
    25
100
AcDbSpline
210
0.0
220
0.0
230
1.0
 70
     8
 71
     3
 72
    14
 73
    10
 74
     0
 42
0.00000001
 43
0.00000001
 40
0.0
 40
0.0
 40
0.0
 40
0.0
 40
0.25
 40
0.25
 40
0.5
 40
0.5
 40
0.75
 40
0.75
 40
1.0
 40
1.0
 40
1.0
 40
1.0
 10
76.60391891361415
 20
339.2915063896184
 30
0.0
 10
77.36349714671606
 20
339.2915063896184
 30
0.0
 10
78.1279000153102
 20
339.3109610213506
 30
0.0
 10
79.66647152958642
 20
339.3422905073471
 30
0.0
 10
80.44177951064972
 20
339.3542158233956
 30
0.0
 10
81.99191040483738
 20
339.3541630657641
 30
0.0
 10
82.76496708809827
 20
339.3422231863514
 30
0.0
 10
84.30070021074809
 20
339.310942120911
 30
0.0
 10
85.06440174429302
 20
339.2915063896119
 30
0.0
 10
85.82398368546372
 20
339.2915063896119
 30
0.0
  0
LINE
  5
23B
330
1F
100
AcDbEntity
  8
0
  6
Continuous
 62
     7
370
    25
100
AcDbLine
 10
76.6039189136
 20
339.2915063896
 30
0.0
 11
73.7083978001
 21
339.2915063896
 31
0.0
  0
LINE
  5
23C
330
1F
100
AcDbEntity
  8
0
  6
Continuous
 62
     7
370
    25
100
AcDbLine
 10
71.1103215887
 20
341.0415063896
 30
0.0
 11
73.7083978001
 21
341.0415063896
 31
0.0
  0
LINE
  5
23D
330
1F
100
AcDbEntity
  8
0
  6
Continuous
 62
     7
370
    25
100
AcDbLine
 10
73.7083978001
 20
339.2915063896
 30
0.0
 11
72.6258660453
 21
339.2915063896
 31
0.0
  0
ARC
  5
23E
330
1F
100
AcDbEntity
  8
0
  6
Continuous
 62
     7
370
    25
100
AcDbCircle
 10
72.7521614167
 20
340.9321313896
 30
0.0
 40
1.645478930724525
100
AcDbArc
 50
176.1887389505
 51
265.5980503477
  0
LINE
  5
23F
330
1F
100
AcDbEntity
  8
0
  6
Continuous
 62
     7
370
    25
100
AcDbLine
 10
73.7083978001
 20
351.7915063896
 30
0.0
 11
73.7083978001
 21
341.0415063896
 31
0.0
  0
LINE
  5
240
330
1F
100
AcDbEntity
  8
0
  6
Continuous
 62
     7
370
    25
100
AcDbLine
 10
73.7083978001
 20
351.7915063896
 30
0.0
 11
71.1103215887
 21
351.7915063896
 31
0.0
  0
ARC
  5
241
330
1F
100
AcDbEntity
  8
0
  6
Continuous
 62
     7
370
    25
100
AcDbCircle
 10
72.872419538
 20
351.8495878318
 30
0.0
 40
1.763054915954093
100
AcDbArc
 50
117.0137142968
 51
181.8878729785
  0
SPLINE
  5
242
330
1F
100
AcDbEntity
  8
0
  6
Continuous
 62
     7
370
    25
100
AcDbSpline
210
0.0
220
0.0
230
1.0
 70
     8
 71
     3
 72
    10
 73
     6
 74
     0
 42
0.00000001
 43
0.00000001
 40
0.0
 40
0.0
 40
0.0
 40
0.0
 40
0.5
 40
0.5
 40
1.0
 40
1.0
 40
1.0
 40
1.0
 10
73.70839780007383
 20
353.4202896334963
 30
0.0
 10
73.41137424062966
 20
353.4627136591826
 30
0.0
 10
73.12092729479002
 20
353.4751347437962
 30
0.0
 10
72.56848421994086
 20
353.4751347437962
 30
0.0
 10
72.3136521892358
 20
353.4627136591829
 30
0.0
 10
72.07163337006415
 20
353.4202896334968
 30
0.0
  0
LINE
  5
243
330
1F
100
AcDbEntity
  8
0
  6
Continuous
 62
     7
370
    25
100
AcDbLine
 10
71.1103215887
 20
341.0415063896
 30
0.0
 11
71.1103215887
 21
351.7915063896
 31
0.0
  0
SPLINE
  5
244
330
1F
100
AcDbEntity
  8
0
  6
Continuous
 62
     7
370
    25
100
AcDbSpline
210
0.0
220
0.0
230
1.0
 70
     8
 71
     3
 72
    26
 73
    22
 74
     0
 42
0.00000001
 43
0.00000001
 40
0.0
 40
0.0
 40
0.0
 40
0.0
 40
0.0164500299912593
 40
0.0742462163199685
 40
0.1327423880177306
 40
0.1909816806447822
 40
0.2480461079420347
 40
0.3053606751456352
 40
0.3637113340690808
 40
0.4221552404295451
 40
0.4797405771634524
 40
0.5366131946726088
 40
0.5946927023357595
 40
0.6532143755230008
 40
0.7112188823310853
 40
0.7680468008763588
 40
0.8257330002977563
 40
0.8842045812241769
 40
0.9425070556221264
 40
0.999702199573512
 40
1.0
 40
1.0
 40
1.0
 40
1.0
 10
114.2387659726241
 20
281.9046095455696
 30
0.0
 10
114.2348504620373
 20
281.898206144546
 30
0.0
 10
114.217178041611
 20
281.8693047809721
 30
0.0
 10
114.1840055276406
 20
282.2764989176899
 30
0.0
 10
114.1395874094105
 20
283.134890833591
 30
0.0
 10
114.0954242671385
 20
284.4456962279236
 30
0.0
 10
114.0543692298876
 20
286.1099371512233
 30
0.0
 10
114.0125594736902
 20
288.0938759305802
 30
0.0
 10
113.9682564779167
 20
290.3513971569046
 30
0.0
 10
113.9238550981759
 20
292.7993664756794
 30
0.0
 10
113.8812596534076
 20
295.3308440842193
 30
0.0
 10
113.8407852999208
 20
297.8791580953484
 30
0.0
 10
113.7969289379323
 20
300.3829974463611
 30
0.0
 10
113.7524709073964
 20
302.7610692215929
 30
0.0
 10
113.7087807273128
 20
304.9028610283943
 30
0.0
 10
113.6684441507977
 20
306.751985300417
 30
0.0
 10
113.6255618333348
 20
308.2606834272261
 30
0.0
 10
113.5811591628741
 20
309.3986533048865
 30
0.0
 10
113.536835052539
 20
310.0399577233027
 30
0.0
 10
113.5092302468965
 20
310.3034041222565
 30
0.0
 10
113.4953055516825
 20
310.2288320063186
 30
0.0
 10
113.4952334249161
 20
310.2284457396528
 30
0.0
  0
SPLINE
  5
245
330
1F
100
AcDbEntity
  8
0
  6
Continuous
 62
     7
370
    25
100
AcDbSpline
210
0.0
220
0.0
230
1.0
 70
     8
 71
     3
 72
    25
 73
    21
 74
     0
 42
0.00000001
 43
0.00000001
 40
0.0
 40
0.0
 40
0.0
 40
0.0
 40
0.0214929811013747
 40
0.0794147763447128
 40
0.1379523352347855
 40
0.1961468033627858
 40
0.2531322244044379
 40
0.3106009614510893
 40
0.3690243167921264
 40
0.427454456947402
 40
0.4849428954210083
 40
0.5419143602068242
 40
0.6000972021783076
 40
0.6586366165941178
 40
0.7165735694693076
 40
0.7733984885438677
 40
0.8312176053895802
 40
0.8897384756895039
 40
0.9480038594037804
 40
1.0
 40
1.0
 40
1.0
 40
1.0
 10
112.7386369280442
 20
281.9112561086155
 30
0.0
 10
112.7335309832418
 20
281.9067794966277
 30
0.0
 10
112.7146649421565
 20
281.8902387879132
 30
0.0
 10
112.6800260702439
 20
282.3346642115695
 30
0.0
 10
112.6355955146494
 20
283.2365356915831
 30
0.0
 10
112.5915529976704
 20
284.5809035723794
 30
0.0
 10
112.5508113491479
 20
286.2756045080361
 30
0.0
 10
112.5086205793903
 20
288.2858838645759
 30
0.0
 10
112.4642644152667
 20
290.5651055504165
 30
0.0
 10
112.4199009704488
 20
293.0243406251749
 30
0.0
 10
112.3776534231024
 20
295.5598488541137
 30
0.0
 10
112.3369526399171
 20
298.1067258474108
 30
0.0
 10
112.2929376830522
 20
300.6033803224876
 30
0.0
 10
112.248484499478
 20
302.9643228261749
 30
0.0
 10
112.205015451681
 20
305.081871701042
 30
0.0
 10
112.1647606795016
 20
306.9010958146776
 30
0.0
 10
112.1215934491924
 20
308.382756799967
 30
0.0
 10
112.0771493588784
 20
309.462416597032
 30
0.0
 10
112.0342971395403
 20
310.1196070323645
 30
0.0
 10
112.0079713942943
 20
310.1820090614986
 30
0.0
 10
111.9955569354913
 20
310.2114360506559
 30
0.0
  0
SPLINE
  5
246
330
1F
100
AcDbEntity
  8
0
  6
Continuous
 62
     7
370
    25
100
AcDbSpline
210
0.0
220
0.0
230
1.0
 70
     8
 71
     3
 72
    19
 73
    15
 74
     0
 42
0.00000001
 43
0.00000001
 40
0.0
 40
0.0
 40
0.0
 40
0.0
 40
0.0404831493305041
 40
0.1278400485717897
 40
0.2159961419591587
 40
0.3035063842122955
 40
0.3891943890868415
 40
0.4759129299125847
 40
0.5639444350447208
 40
0.6518558966934931
 40
0.7382258590018412
 40
0.8241607926299955
 40
0.9118767363444448
 40
1.0
 40
1.0
 40
1.0
 40
1.0
 10
111.238753453357
 20
281.9141151033947
 30
0.0
 10
111.2323697414003
 20
281.9134861650454
 30
0.0
 10
111.2122108837003
 20
281.9115000668675
 30
0.0
 10
111.1760435443675
 20
282.3967481089915
 30
0.0
 10
111.1316032240465
 20
283.3414661586602
 30
0.0
 10
111.0877152045541
 20
284.7190884827243
 30
0.0
 10
111.047211530036
 20
286.4439097362634
 30
0.0
 10
111.0046684587747
 20
288.4801975358664
 30
0.0
 10
110.9602720262254
 20
290.780328995954
 30
0.0
 10
110.9159606282714
 20
293.249576960344
 30
0.0
 10
110.8740862020607
 20
295.7895249182371
 30
0.0
 10
110.8330966456192
 20
298.3310197085744
 30
0.0
 10
110.7889068673666
 20
300.8331323007073
 30
0.0
 10
110.7593084250401
 20
302.3668978002324
 30
0.0
 10
110.7444749224559
 20
303.1355569833693
 30
0.0
  0
LINE
  5
247
330
1F
100
AcDbEntity
  8
0
  6
Continuous
 62
     7
370
    25
100
AcDbLine
 10
110.7444749225
 20
303.1355489087
 30
0.0
 11
111.21322508
 21
303.5414978529
 31
0.0
  0
SPLINE
  5
248
330
1F
100
AcDbEntity
  8
0
  6
Continuous
 62
     7
370
    25
100
AcDbSpline
210
0.0
220
0.0
230
1.0
 70
     8
 71
     3
 72
    27
 73
    23
 74
     0
 42
0.00000001
 43
0.00000001
 40
0.0
 40
0.0
 40
0.0
 40
0.0
 40
0.0100400396854842
 40
0.0669707335065468
 40
0.1248426800975565
 40
0.1827168676938405
 40
0.239654068867332
 40
0.2960902482643943
 40
0.3537255730445688
 40
0.4117096198516856
 40
0.4690925593404896
 40
0.5253783206931526
 40
0.5826549372357763
 40
0.6406222518061147
 40
0.6656907788701856
 40
0.7081784552505366
 40
0.7499358845755374
 40
0.8066013098249242
 40
0.8643709424054793
 40
0.9223155958345052
 40
0.9794892490840695
 40
1.0
 40
1.0
 40
1.0
 40
1.0
 10
114.7140599446294
 20
281.0759416830771
 30
0.0
 10
114.7116274516978
 20
281.0650866344001
 30
0.0
 10
114.6954018349688
 20
280.9926794931013
 30
0.0
 10
114.6646789935289
 20
281.3231695750812
 30
0.0
 10
114.6203017747315
 20
282.0968919694753
 30
0.0
 10
114.5759456476957
 20
283.3718005316202
 30
0.0
 10
114.53371578317
 20
285.0328391468094
 30
0.0
 10
114.4930014524137
 20
287.0445690111403
 30
0.0
 10
114.4489791200276
 20
289.3581377101794
 30
0.0
 10
114.4045258818146
 20
291.9041916341378
 30
0.0
 10
114.3610709627515
 20
294.5643751315167
 30
0.0
 10
114.3208122056932
 20
297.2600814830923
 30
0.0
 10
114.2776545262294
 20
299.9262582713376
 30
0.0
 10
114.2415242873876
 20
302.0059389802395
 30
0.0
 10
114.2094852764702
 20
303.752576569737
 30
0.0
 10
114.1818176404791
 20
305.1848040388188
 30
0.0
 10
114.1479780441564
 20
306.8520557890467
 30
0.0
 10
114.1100739006727
 20
308.4315022626463
 30
0.0
 10
114.0658641685914
 20
309.7819051830533
 30
0.0
 10
114.0214304952346
 20
310.6534987410092
 30
0.0
 10
113.9874887037453
 20
311.0558168974331
 30
0.0
 10
113.9688106384855
 20
311.001528707355
 30
0.0
 10
113.9638791319849
 20
310.9871951798429
 30
0.0
  0
SPLINE
  5
249
330
1F
100
AcDbEntity
  8
0
  6
Continuous
 62
     7
370
    25
100
AcDbSpline
210
0.0
220
0.0
230
1.0
 70
     8
 71
     3
 72
    27
 73
    23
 74
     0
 42
0.00000001
 43
0.00000001
 40
0.0
 40
0.0
 40
0.0
 40
0.0
 40
0.0100400396854842
 40
0.0669707335065467
 40
0.1248426800975564
 40
0.1827168676938403
 40
0.2396540688673318
 40
0.296090248264394
 40
0.3537255730445685
 40
0.4117096198516852
 40
0.4690925593404892
 40
0.525378320693152
 40
0.5826549372357758
 40
0.640622251806114
 40
0.6656907788701849
 40
0.7081784552505359
 40
0.7499358845755366
 40
0.8066013098249234
 40
0.8643709424054785
 40
0.9223155958345043
 40
0.9794892490840685
 40
1.0
 40
1.0
 40
1.0
 40
1.0
 10
113.2140599446294
 20
281.0759416830771
 30
0.0
 10
113.2116274516978
 20
281.0650866344001
 30
0.0
 10
113.1954018349688
 20
280.9926794931013
 30
0.0
 10
113.1646789935289
 20
281.3231695750812
 30
0.0
 10
113.1203017747315
 20
282.0968919694753
 30
0.0
 10
113.0759456476956
 20
283.3718005316202
 30
0.0
 10
113.03371578317
 20
285.0328391468094
 30
0.0
 10
112.9930014524137
 20
287.0445690111403
 30
0.0
 10
112.9489791200276
 20
289.3581377101794
 30
0.0
 10
112.9045258818146
 20
291.9041916341379
 30
0.0
 10
112.8610709627515
 20
294.5643751315167
 30
0.0
 10
112.8208122056932
 20
297.2600814830923
 30
0.0
 10
112.7776545262294
 20
299.9262582713376
 30
0.0
 10
112.7415242873876
 20
302.0059389802395
 30
0.0
 10
112.7094852764702
 20
303.752576569737
 30
0.0
 10
112.681817640479
 20
305.1848040388188
 30
0.0
 10
112.6479780441564
 20
306.8520557890467
 30
0.0
 10
112.6100739006726
 20
308.4315022626463
 30
0.0
 10
112.5658641685914
 20
309.7819051830533
 30
0.0
 10
112.5214304952346
 20
310.6534987410092
 30
0.0
 10
112.4874887037453
 20
311.0558168974331
 30
0.0
 10
112.4688106384855
 20
311.001528707355
 30
0.0
 10
112.4638791319849
 20
310.9871951798429
 30
0.0
  0
SPLINE
  5
24A
330
1F
100
AcDbEntity
  8
0
  6
Continuous
 62
     7
370
    25
100
AcDbSpline
210
0.0
220
0.0
230
1.0
 70
     8
 71
     3
 72
    21
 73
    17
 74
     0
 42
0.00000001
 43
0.00000001
 40
0.0
 40
0.0
 40
0.0
 40
0.0
 40
0.0150605813385307
 40
0.1004595809252289
 40
0.1872705085865144
 40
0.2740847978721829
 40
0.3594935588257307
 40
0.4441507610750637
 40
0.530606743722167
 40
0.6175858275337901
 40
0.703663219126634
 40
0.7880947864917012
 40
0.8740126881393593
 40
0.9609666727261912
 40
0.9985707662071613
 40
1.0
 40
1.0
 40
1.0
 40
1.0
 10
111.7140599446294
 20
281.0759416830771
 30
0.0
 10
111.7116274516977
 20
281.0650866344025
 30
0.0
 10
111.695401834968
 20
280.9926794931197
 30
0.0
 10
111.6646789935537
 20
281.3231695745308
 30
0.0
 10
111.6203017746412
 20
282.0968919714787
 30
0.0
 10
111.5759456480291
 20
283.3718005242221
 30
0.0
 10
111.5337157819528
 20
285.0328391738146
 30
0.0
 10
111.4930014569547
 20
287.0445689103941
 30
0.0
 10
111.4489791026286
 20
289.3581380961904
 30
0.0
 10
111.4045259468552
 20
291.9041901911583
 30
0.0
 10
111.3610707248126
 20
294.564380410394
 30
0.0
 10
111.3208130815514
 20
297.2600620514326
 30
0.0
 10
111.2776511740797
 20
299.9263326416294
 30
0.0
 10
111.2415339155577
 20
302.0057253710959
 30
0.0
 10
111.220077867599
 20
303.1748234477304
 30
0.0
 10
111.2134671367606
 20
303.5285460416774
 30
0.0
 10
111.2132250800217
 20
303.5414978528569
 30
0.0
  0
SPLINE
  5
24B
330
1F
100
AcDbEntity
  8
0
  6
Continuous
 62
     7
370
    25
100
AcDbSpline
210
0.0
220
0.0
230
1.0
 70
     8
 71
     3
 72
    16
 73
    12
 74
     0
 42
0.00000001
 43
0.00000001
 40
0.0
 40
0.0
 40
0.0
 40
0.0
 40
0.25
 40
0.25
 40
0.375
 40
0.375
 40
0.5
 40
0.5
 40
0.75
 40
0.75
 40
1.0
 40
1.0
 40
1.0
 40
1.0
 10
85.51626146258259
 20
338.3146215990485
 30
0.0
 10
84.8165125098073
 20
338.3146215990485
 30
0.0
 10
84.10789648754027
 20
338.3446665093004
 30
0.0
 10
83.03072049658591
 20
338.3816754789081
 30
0.0
 10
82.66928349021318
 20
338.3930134260057
 30
0.0
 10
81.94145825709829
 20
338.40877668486
 30
0.0
 10
81.57354992239038
 20
338.4131768238232
 30
0.0
 10
80.47403652911929
 20
338.4130156941289
 30
0.0
 10
79.74998587535853
 20
338.3938106181463
 30
0.0
 10
78.31855699929025
 20
338.3446029295578
 30
0.0
 10
77.61117517981553
 20
338.3146215990485
 30
0.0
 10
76.91164113649532
 20
338.3146215990485
 30
0.0
  0
LWPOLYLINE
  5
24C
330
1F
100
AcDbEntity
  8
0
  6
Continuous
 62
     7
370
    25
100
AcDbPolyline
 90
        9
 70
   128
 43
0.0
 10
76.9116411365
 20
338.314621599
 10
76.9045326664
 20
338.5063943909
 10
76.8862082547
 20
338.6901496811
 10
76.8573515876
 20
338.8590315335
 10
76.8190393116
 20
339.0067389425
 10
76.7727008631
 20
339.1277609237
 10
76.7200651362
 20
339.2175821297
 10
76.6630959772
 20
339.2728513188
 10
76.6039189136
 20
339.2915063896
  0
LWPOLYLINE
  5
24D
330
1F
100
AcDbEntity
  8
0
  6
Continuous
 62
     7
370
    25
100
AcDbPolyline
 90
        9
 70
   128
 43
0.0
 10
85.8239836855
 20
339.2915063896
 10
85.7648066219
 20
339.2728513188
 10
85.7078374629
 20
339.2175821297
 10
85.655201736
 20
339.1277609237
 10
85.6088632875
 20
339.0067389425
 10
85.5705510115
 20
338.8590315335
 10
85.5416943444
 20
338.6901496811
 10
85.5233699327
 20
338.5063943909
 10
85.5162614626
 20
338.314621599
  0
SPLINE
  5
24E
330
1F
100
AcDbEntity
  8
0
  6
Continuous
 62
     7
370
    25
100
AcDbSpline
210
0.0
220
0.0
230
1.0
 70
     8
 71
     3
 72
    26
 73
    22
 74
     0
 42
0.00000001
 43
0.00000001
 40
0.0
 40
0.0
 40
0.0
 40
0.0
 40
0.0050097736229769
 40
0.0618155421883053
 40
0.1196437949784034
 40
0.1775599725932756
 40
0.2346210558703166
 40
0.2909852373515793
 40
0.3485463827338693
 40
0.4065412539661167
 40
0.464019228795079
 40
0.5203338421173853
 40
0.5775067750719397
 40
0.6354536417373222
 40
0.693228461430505
 40
0.749901797733141
 40
0.8043296581558625
 40
0.8598100799709114
 40
0.915719680690678
 40
0.973716894694158
 40
1.0
 40
1.0
 40
1.0
 40
1.0
 10
114.9015281972229
 20
281.0605783365523
 30
0.0
 10
114.9003090400953
 20
281.0543328497162
 30
0.0
 10
114.8852658735722
 20
280.9772698556444
 30
0.0
 10
114.8561372511822
 20
281.278832668239
 30
0.0
 10
114.8117888180112
 20
282.0036403410049
 30
0.0
 10
114.7674004601068
 20
283.2414411132521
 30
0.0
 10
114.7248194831597
 20
284.8685306422524
 30
0.0
 10
114.6843360067549
 20
286.8510001757901
 30
0.0
 10
114.6404703232558
 20
289.1392648589808
 30
0.0
 10
114.5960123459639
 20
291.6692586675076
 30
0.0
 10
114.5523332716802
 20
294.3229554547888
 30
0.0
 10
114.5120014682696
 20
297.0180375948708
 30
0.0
 10
114.4691090056684
 20
299.6899186753079
 30
0.0
 10
114.4246829898899
 20
302.2659374912449
 30
0.0
 10
114.3804452997012
 20
304.6305458779353
 30
0.0
 10
114.3395431642928
 20
306.6745451617967
 30
0.0
 10
114.2992782108597
 20
308.3650506741564
 30
0.0
 10
114.2567979598831
 20
309.6866837088859
 30
0.0
 10
114.2132820640081
 20
310.5881789514301
 30
0.0
 10
114.1779460547272
 20
311.0362143316321
 30
0.0
 10
114.1577324660244
 20
310.9947632117799
 30
0.0
 10
114.1514287893791
 20
310.9818365385417
 30
0.0
  0
SPLINE
  5
24F
330
1F
100
AcDbEntity
  8
0
  6
Continuous
 62
     7
370
    25
100
AcDbSpline
210
0.0
220
0.0
230
1.0
 70
     8
 71
     3
 72
    26
 73
    22
 74
     0
 42
0.00000001
 43
0.00000001
 40
0.0
 40
0.0
 40
0.0
 40
0.0
 40
0.0050097736229761
 40
0.0618155421883046
 40
0.1196437949784027
 40
0.1775599725932749
 40
0.234621055870316
 40
0.2909852373515787
 40
0.3485463827338687
 40
0.4065412539661162
 40
0.4640192287950785
 40
0.5203338421173848
 40
0.5775067750719393
 40
0.6354536417373218
 40
0.6932284614305048
 40
0.7499017977331408
 40
0.8043296581558624
 40
0.8598100799709113
 40
0.9157196806906779
 40
0.9737168946941579
 40
1.0
 40
1.0
 40
1.0
 40
1.0
 10
113.4015281972229
 20
281.0605783365523
 30
0.0
 10
113.4003090400953
 20
281.0543328497162
 30
0.0
 10
113.3852658735722
 20
280.9772698556444
 30
0.0
 10
113.3561372511822
 20
281.278832668239
 30
0.0
 10
113.3117888180112
 20
282.0036403410049
 30
0.0
 10
113.2674004601069
 20
283.2414411132521
 30
0.0
 10
113.2248194831597
 20
284.8685306422524
 30
0.0
 10
113.1843360067549
 20
286.8510001757901
 30
0.0
 10
113.1404703232558
 20
289.1392648589807
 30
0.0
 10
113.0960123459639
 20
291.6692586675076
 30
0.0
 10
113.0523332716802
 20
294.3229554547888
 30
0.0
 10
113.0120014682697
 20
297.0180375948708
 30
0.0
 10
112.9691090056684
 20
299.6899186753079
 30
0.0
 10
112.9246829898899
 20
302.2659374912449
 30
0.0
 10
112.8804452997012
 20
304.6305458779353
 30
0.0
 10
112.8395431642928
 20
306.6745451617967
 30
0.0
 10
112.7992782108597
 20
308.3650506741564
 30
0.0
 10
112.7567979598831
 20
309.6866837088859
 30
0.0
 10
112.7132820640081
 20
310.5881789514301
 30
0.0
 10
112.6779460547272
 20
311.0362143316321
 30
0.0
 10
112.6577324660244
 20
310.9947632117799
 30
0.0
 10
112.6514287893791
 20
310.9818365385417
 30
0.0
  0
SPLINE
  5
250
330
1F
100
AcDbEntity
  8
0
  6
Continuous
 62
     7
370
    25
100
AcDbSpline
210
0.0
220
0.0
230
1.0
 70
     8
 71
     3
 72
    26
 73
    22
 74
     0
 42
0.00000001
 43
0.00000001
 40
0.0
 40
0.0
 40
0.0
 40
0.0
 40
0.005009773622976
 40
0.0618155421883044
 40
0.1196437949784026
 40
0.1775599725932748
 40
0.2346210558703158
 40
0.2909852373515786
 40
0.3485463827338686
 40
0.4065412539661161
 40
0.4640192287950785
 40
0.5203338421173848
 40
0.5775067750719393
 40
0.6354536417373218
 40
0.6932284614305048
 40
0.7499017977331408
 40
0.8043296581558624
 40
0.8598100799709113
 40
0.9157196806906779
 40
0.9737168946941579
 40
1.0
 40
1.0
 40
1.0
 40
1.0
 10
111.9015281972229
 20
281.0605783365523
 30
0.0
 10
111.9003090400953
 20
281.0543328497162
 30
0.0
 10
111.8852658735722
 20
280.9772698556444
 30
0.0
 10
111.8561372511821
 20
281.278832668239
 30
0.0
 10
111.8117888180112
 20
282.0036403410049
 30
0.0
 10
111.7674004601069
 20
283.2414411132521
 30
0.0
 10
111.7248194831597
 20
284.8685306422524
 30
0.0
 10
111.6843360067549
 20
286.8510001757901
 30
0.0
 10
111.6404703232558
 20
289.1392648589808
 30
0.0
 10
111.5960123459639
 20
291.6692586675076
 30
0.0
 10
111.5523332716802
 20
294.3229554547888
 30
0.0
 10
111.5120014682697
 20
297.0180375948708
 30
0.0
 10
111.4691090056684
 20
299.6899186753079
 30
0.0
 10
111.4246829898899
 20
302.2659374912449
 30
0.0
 10
111.3804452997012
 20
304.6305458779353
 30
0.0
 10
111.3395431642928
 20
306.6745451617967
 30
0.0
 10
111.2992782108597
 20
308.3650506741564
 30
0.0
 10
111.2567979598831
 20
309.6866837088859
 30
0.0
 10
111.2132820640081
 20
310.5881789514301
 30
0.0
 10
111.1779460547272
 20
311.0362143316321
 30
0.0
 10
111.1577324660244
 20
310.9947632117799
 30
0.0
 10
111.1514287893791
 20
310.9818365385417
 30
0.0
  0
SPLINE
  5
251
330
1F
100
AcDbEntity
  8
0
  6
Continuous
 62
     7
370
    25
100
AcDbSpline
210
0.0
220
0.0
230
1.0
 70
     8
 71
     3
 72
    13
 73
     9
 74
     0
 42
0.00000001
 43
0.00000001
 40
0.0
 40
0.0
 40
0.0
 40
0.0
 40
0.0200384432477407
 40
0.2472541330585794
 40
0.4785596268509374
 40
0.710216808512628
 40
0.9384537239807504
 40
1.0
 40
1.0
 40
1.0
 40
1.0
 10
110.4015281972229
 20
281.0605783365523
 30
0.0
 10
110.4003090354766
 20
281.0543327046875
 30
0.0
 10
110.3852658119638
 20
280.977267921108
 30
0.0
 10
110.3561411623695
 20
281.2789554815955
 30
0.0
 10
110.3117746922033
 20
282.0031967831483
 30
0.0
 10
110.2674527028308
 20
283.2430815624817
 30
0.0
 10
110.2348703162137
 20
284.4752405613464
 30
0.0
 10
110.2176159155003
 20
285.2667898335928
 30
0.0
 10
110.2139512995389
 20
285.4349048638071
 30
0.0
  0
SPLINE
  5
252
330
1F
100
AcDbEntity
  8
0
  6
Continuous
 62
     7
370
    25
100
AcDbSpline
210
0.0
220
0.0
230
1.0
 70
     8
 71
     3
 72
    15
 73
    11
 74
     0
 42
0.00000001
 43
0.00000001
 40
0.0
 40
0.0
 40
0.0
 40
0.0
 40
0.1122165153752137
 40
0.2415378725793633
 40
0.3699052039538454
 40
0.4956006037741075
 40
0.6228219470951503
 40
0.7519629625968112
 40
0.8809212254182139
 40
0.9999999999999999
 40
0.9999999999999999
 40
0.9999999999999999
 40
0.9999999999999999
 10
114.963951299539
 20
297.9372694769346
 30
0.0
 10
114.9513521564304
 20
298.6754832239299
 30
0.0
 10
114.924233418938
 20
300.2644345236729
 30
0.0
 10
114.8814179148555
 20
302.5546054397615
 30
0.0
 10
114.8375939692754
 20
304.7224244184466
 30
0.0
 10
114.7970830932506
 20
306.5978901180408
 30
0.0
 10
114.7545278512896
 20
308.1441024393798
 30
0.0
 10
114.7101464475262
 20
309.2989709436107
 30
0.0
 10
114.6666508131932
 20
310.0410855207796
 30
0.0
 10
114.6395569062657
 20
310.1562202791185
 30
0.0
 10
114.6265495374092
 20
310.2114947094146
 30
0.0
  0
SPLINE
  5
253
330
1F
100
AcDbEntity
  8
0
  6
Continuous
 62
     7
370
    25
100
AcDbSpline
210
0.0
220
0.0
230
1.0
 70
     8
 71
     3
 72
    25
 73
    21
 74
     0
 42
0.00000001
 43
0.00000001
 40
0.0
 40
0.0
 40
0.0
 40
0.0
 40
0.0257469084017606
 40
0.0835160444071806
 40
0.1419848402784085
 40
0.2001968794462262
 40
0.2572346043658993
 40
0.3145223458552414
 40
0.3728456962425885
 40
0.4312622526312572
 40
0.4888206433312943
 40
0.5456666437094934
 40
0.6037189689059127
 40
0.6622132549243751
 40
0.7201906188297202
 40
0.7769919438158954
 40
0.8346511440008183
 40
0.8930953603608971
 40
0.9513705516448872
 40
0.9999999999999999
 40
0.9999999999999999
 40
0.9999999999999999
 40
0.9999999999999999
 10
113.8704378236943
 20
281.9083507870565
 30
0.0
 10
113.8643150026314
 20
281.8958659326011
 30
0.0
 10
113.8444542182686
 20
281.8553684234307
 30
0.0
 10
113.8090234382624
 20
282.2713132725516
 30
0.0
 10
113.7645827322449
 20
283.1362786274342
 30
0.0
 10
113.7204256132975
 20
284.4453294528834
 30
0.0
 10
113.6793689859975
 20
286.110029967756
 30
0.0
 10
113.6375596646256
 20
288.0938445083441
 30
0.0
 10
113.593256555092
 20
290.3513990334906
 30
0.0
 10
113.5488552060983
 20
292.7993583593418
 30
0.0
 10
113.5062597458396
 20
295.3308403482753
 30
0.0
 10
113.465785397066
 20
297.8791458384443
 30
0.0
 10
113.4219290504642
 20
300.383015548481
 30
0.0
 10
113.377470979672
 20
302.7609745824871
 30
0.0
 10
113.3337809453328
 20
304.9031832604623
 30
0.0
 10
113.2934438134097
 20
306.7507806109752
 30
0.0
 10
113.2505635982697
 20
308.265266130222
 30
0.0
 10
113.2061529940463
 20
309.3813058885929
 30
0.0
 10
113.1640334398929
 20
310.068447477275
 30
0.0
 10
113.1383461059782
 20
310.1558988803497
 30
0.0
 10
113.1266612915286
 20
310.1956793192882
 30
0.0
  0
SPLINE
  5
254
330
1F
100
AcDbEntity
  8
0
  6
Continuous
 62
     7
370
    25
100
AcDbSpline
210
0.0
220
0.0
230
1.0
 70
     8
 71
     3
 72
    25
 73
    21
 74
     0
 42
0.00000001
 43
0.00000001
 40
0.0
 40
0.0
 40
0.0
 40
0.0
 40
0.0306618722263066
 40
0.0885464751448541
 40
0.1470464488625983
 40
0.2052035546754545
 40
0.2621523902164347
 40
0.3195842249010227
 40
0.377970067434953
 40
0.436362693058635
 40
0.493814224162716
 40
0.5507491069960863
 40
0.6088945896066973
 40
0.6673964183778135
 40
0.7252961750749224
 40
0.7820846094267591
 40
0.8398665994628782
 40
0.8983498950323948
 40
0.9565778707899941
 40
0.9999999999999999
 40
0.9999999999999999
 40
0.9999999999999999
 40
0.9999999999999999
 10
112.3702193017388
 20
281.9084681104792
 30
0.0
 10
112.3629404211286
 20
281.8995584584533
 30
0.0
 10
112.341920203698
 20
281.8738288397319
 30
0.0
 10
112.3050437985615
 20
282.3301981670615
 30
0.0
 10
112.2605909219862
 20
283.2377271214273
 30
0.0
 10
112.2165543433097
 20
284.5805876757574
 30
0.0
 10
112.1758111275401
 20
286.2756830143747
 30
0.0
 10
112.1336207892166
 20
288.2858551266703
 30
0.0
 10
112.0892645123445
 20
290.5651052188767
 30
0.0
 10
112.0449010979003
 20
293.0243320461039
 30
0.0
 10
112.0026535304703
 20
295.5598424891084
 30
0.0
 10
111.9619527632829
 20
298.1067178126304
 30
0.0
 10
111.9179377909763
 20
300.603376992561
 30
0.0
 10
111.8734846823297
 20
302.9643036000316
 30
0.0
 10
111.8300153540311
 20
305.0819133983073
 30
0.0
 10
111.7897615866884
 20
306.9009172281404
 30
0.0
 10
111.7465905481847
 20
308.3834186581826
 30
0.0
 10
111.702160906162
 20
309.4599027375882
 30
0.0
 10
111.6614291979131
 20
310.0946509585261
 30
0.0
 10
111.6371225254287
 20
310.156916545193
 30
0.0
 10
111.6267393834377
 20
310.1835146913578
 30
0.0
  0
SPLINE
  5
255
330
1F
100
AcDbEntity
  8
0
  6
Continuous
 62
     7
370
    25
100
AcDbSpline
210
0.0
220
0.0
230
1.0
 70
     8
 71
     3
 72
    19
 73
    15
 74
     0
 42
0.00000001
 43
0.00000001
 40
0.0
 40
0.0
 40
0.0
 40
0.0
 40
0.0532475561386642
 40
0.1394423464909378
 40
0.2264257037311102
 40
0.3127718059995497
 40
0.3973199112399582
 40
0.4828848336205094
 40
0.5697452583404884
 40
0.6564872410560131
 40
0.7417082352434675
 40
0.8264999749873017
 40
0.9130490345028692
 40
1.0
 40
1.0
 40
1.0
 40
1.0
 10
110.8701732349463
 20
281.9050855848951
 30
0.0
 10
110.8616743291938
 20
281.9017415230444
 30
0.0
 10
110.839417770458
 20
281.8929842416758
 30
0.0
 10
110.8010600787047
 20
282.3929442356244
 30
0.0
 10
110.7565989857392
 20
283.3424773698211
 30
0.0
 10
110.7127164797419
 20
284.7188188979872
 30
0.0
 10
110.6722113499823
 20
286.443974989589
 30
0.0
 10
110.6296686823283
 20
288.4801711498529
 30
0.0
 10
110.5852721447664
 20
290.7803266141519
 30
0.0
 10
110.5409607739316
 20
293.2495675686284
 30
0.0
 10
110.4990863268523
 20
295.7895171212397
 30
0.0
 10
110.4580967849078
 20
298.3310114957916
 30
0.0
 10
110.413907011096
 20
300.8331244548136
 30
0.0
 10
110.3843085684202
 20
302.3668903545839
 30
0.0
 10
110.3694750652684
 20
303.1355497586493
 30
0.0
  0
ELLIPSE
  5
256
330
1F
100
AcDbEntity
  8
0
  6
Continuous
 62
     7
370
    25
100
AcDbEllipse
 10
102.5529680937
 20
296.0415063896
 30
0.0
 11
5.514779443589616
 21
14.79197504224379
 31
0.0
210
0.0
220
0.0
230
1.0
 40
0.4514183623
 41
5.402723445751572
 42
5.733243257345098
  0
LINE
  5
257
330
1F
100
AcDbEntity
  8
0
  6
Continuous
 62
     7
370
    25
100
AcDbLine
 10
110.74446552
 20
307.35138327
 30
0.0
 11
110.3694656628
 21
307.3513832699
 31
0.0
  0
ELLIPSE
  5
258
330
1F
100
AcDbEntity
  8
0
  6
Continuous
 62
     7
370
    25
100
AcDbEllipse
 10
118.5609782736
 20
296.0415063896
 30
0.0
 11
-5.514823779167059
 21
14.79197426083272
 31
0.0
210
0.0
220
0.0
230
1.0
 40
0.4514155752
 41
0.5499417359511735
 42
0.6106875643056934
  0
ARC
  5
259
330
1F
100
AcDbEntity
  8
0
  6
Continuous
 62
     7
370
    25
100
AcDbCircle
 10
72.786594498
 20
354.4842416918
 30
0.0
 40
1.587597143788355
100
AcDbArc
 50
316.4967713478
 51
354.1948906197
  0
ARC
  5
25A
330
1F
100
AcDbEntity
  8
0
  6
Continuous
 62
     7
370
    25
100
AcDbCircle
 10
89.6413081011
 20
354.4842416918
 30
0.0
 40
1.587597143788438
100
AcDbArc
 50
185.8051093803
 51
223.5032286522
  0
ARC
  5
25B
330
1F
100
AcDbEntity
  8
0
  6
Continuous
 62
     7
370
    25
100
AcDbCircle
 10
72.6148715614
 20
354.4995600497
 30
0.0
 40
1.536432317411237
100
AcDbArc
 50
315.3759149485
 51
356.8310931139
  0
ARC
  5
25C
330
1F
100
AcDbEntity
  8
0
  6
Continuous
 62
     7
370
    25
100
AcDbCircle
 10
89.8130310377
 20
354.4995600497
 30
0.0
 40
1.536432317411024
100
AcDbArc
 50
183.1689068861
 51
224.6240850515
  0
ARC
  5
25D
330
1F
100
AcDbEntity
  8
0
  6
Continuous
 62
     7
370
    25
100
AcDbCircle
 10
91.0908211015
 20
354.1222652164
 30
0.0
 40
1.016039454124328
100
AcDbArc
 50
163.2769349669
 51
223.7009200217
  0
ARC
  5
25E
330
1F
100
AcDbEntity
  8
0
  6
Continuous
 62
     7
370
    25
100
AcDbCircle
 10
71.3370814976
 20
354.1222652164
 30
0.0
 40
1.016039454124388
100
AcDbArc
 50
316.2990799783
 51
16.723065033
  0
SPLINE
  5
25F
330
1F
100
AcDbEntity
  8
0
  6
Continuous
 62
     7
370
    25
100
AcDbSpline
210
0.0
220
0.0
230
1.0
 70
     8
 71
     3
 72
    12
 73
     8
 74
     0
 42
0.00000001
 43
0.00000001
 40
0.0
 40
0.0
 40
0.0
 40
0.0
 40
0.5000000000000004
 40
0.5000000000000004
 40
0.7500000000000002
 40
0.7500000000000002
 40
1.0
 40
1.0
 40
1.0
 40
1.0
 10
68.99627852496765
 20
311.2730360045849
 30
0.0
 10
68.83360967111949
 20
310.9103294851161
 30
0.0
 10
68.67971219984445
 20
310.5791884757114
 30
0.0
 10
68.46093049592459
 20
310.1915708839525
 30
0.0
 10
68.38974585246369
 20
310.0813701351698
 30
0.0
 10
68.25837354101415
 20
309.9287635488968
 30
0.0
 10
68.19681636012855
 20
309.8850919586431
 30
0.0
 10
68.1426808982504
 20
309.8850919586428
 30
0.0
  0
SPLINE
  5
260
330
1F
100
AcDbEntity
  8
0
  6
Continuous
 62
     7
370
    25
100
AcDbSpline
210
0.0
220
0.0
230
1.0
 70
     8
 71
     3
 72
    16
 73
    12
 74
     0
 42
0.00000001
 43
0.00000001
 40
0.0
 40
0.0
 40
0.0
 40
0.0
 40
0.2500000000000001
 40
0.2500000000000001
 40
0.3750000000000002
 40
0.3750000000000002
 40
0.5000000000000001
 40
0.5000000000000001
 40
0.7500000000000001
 40
0.7500000000000001
 40
1.0
 40
1.0
 40
1.0
 40
1.0
 10
71.84800377190659
 20
338.3146215990485
 30
0.0
 10
71.30208148297851
 20
338.3146215990485
 30
0.0
 10
70.80107972050841
 20
338.3446665093004
 30
0.0
 10
70.11474687146949
 20
338.3816754789081
 30
0.0
 10
69.89688789971596
 20
338.3930134260057
 30
0.0
 10
69.48329717606741
 20
338.40877668486
 30
0.0
 10
69.28682705674773
 20
338.4131768238232
 30
0.0
 10
68.73754396805741
 20
338.4130156941289
 30
0.0
 10
68.42581213513618
 20
338.3938106181463
 30
0.0
 10
67.90678674979716
 20
338.3446029295578
 30
0.0
 10
67.69947302890316
 20
338.3146215990485
 30
0.0
 10
67.54569360886296
 20
338.3146215990485
 30
0.0
  0
LINE
  5
261
330
1F
100
AcDbEntity
  8
0
  6
Continuous
 62
     7
370
    25
100
AcDbLine
 10
76.9116411365
 20
338.314621599
 30
0.0
 11
71.8480037719
 21
338.314621599
 31
0.0
  0
LINE
  5
262
330
1F
100
AcDbEntity
  8
0
  6
Continuous
 62
     7
370
    25
100
AcDbLine
 10
90.5798988272
 20
338.314621599
 30
0.0
 11
85.5162614626
 21
338.314621599
 31
0.0
  0
SPLINE
  5
263
330
1F
100
AcDbEntity
  8
0
  6
Continuous
 62
     7
370
    25
100
AcDbSpline
210
0.0
220
0.0
230
1.0
 70
     8
 71
     3
 72
    16
 73
    12
 74
     0
 42
0.00000001
 43
0.00000001
 40
0.0
 40
0.0
 40
0.0
 40
0.0
 40
0.2499999999999998
 40
0.2499999999999998
 40
0.3749999999999998
 40
0.3749999999999998
 40
0.4999999999999999
 40
0.4999999999999999
 40
0.7499999999999999
 40
0.7499999999999999
 40
1.0
 40
1.0
 40
1.0
 40
1.0
 10
94.88220899021495
 20
338.3146215990485
 30
0.0
 10
94.72838232636771
 20
338.3146215990485
 30
0.0
 10
94.52076806657081
 20
338.3446665093004
 30
0.0
 10
94.12992492465538
 20
338.3816754789081
 30
0.0
 10
93.98634689003616
 20
338.3930134260057
 30
0.0
 10
93.67211238056984
 20
338.40877668486
 30
0.0
 10
93.5006741651816
 20
338.4131768238232
 30
0.0
 10
92.95044386060083
 20
338.4130156941289
 30
0.0
 10
92.53812503976131
 20
338.3938106181463
 30
0.0
 10
91.62572154903204
 20
338.3446029295578
 30
0.0
 10
91.12565345045134
 20
338.3146215990485
 30
0.0
 10
90.5798988271713
 20
338.3146215990485
 30
0.0
  0
LINE
  5
264
330
1F
100
AcDbEntity
  8
0
  6
Continuous
 62
     7
370
    25
100
AcDbLine
 10
91.4324497074
 20
351.7915063896
 30
0.0
 11
91.3175810104
 21
351.7915063896
 31
0.0
  0
SPLINE
  5
265
330
1F
100
AcDbEntity
  8
0
  6
Continuous
 62
     7
370
    25
100
AcDbSpline
210
0.0
220
0.0
230
1.0
 70
     8
 71
     3
 72
     8
 73
     4
 74
     0
 42
0.00000001
 43
0.00000001
 40
0.0000000000000002
 40
0.0000000000000002
 40
0.0000000000000002
 40
0.0000000000000002
 40
0.0002416894103824
 40
0.0002416894103824
 40
0.0002416894103824
 40
0.0002416894103824
 10
90.53111809311501
 20
353.3913470417996
 30
0.0
 10
90.47301926376073
 20
353.4014872599342
 30
0.0
 10
90.41474956948437
 20
353.4111264726486
 30
0.0
 10
90.35626922901396
 20
353.4202896334966
 30
0.0
  0
ARC
  5
266
330
1F
100
AcDbEntity
  8
0
  6
Continuous
 62
     7
370
    25
100
AcDbCircle
 10
89.6559786332
 20
351.8444834499
 30
0.0
 40
1.777260826753894
100
AcDbArc
 50
358.291859247
 51
60.5009498435
  0
SPLINE
  5
267
330
1F
100
AcDbEntity
  8
0
  6
Continuous
 62
     7
370
    25
100
AcDbSpline
210
0.0
220
0.0
230
1.0
 70
     8
 71
     3
 72
    16
 73
    12
 74
     0
 42
0.00000001
 43
0.00000001
 40
0.0
 40
0.0
 40
0.0
 40
0.0
 40
0.2500000000000001
 40
0.2500000000000001
 40
0.5000000000000001
 40
0.5000000000000001
 40
0.7500000000000002
 40
0.7500000000000002
 40
0.8750000000000001
 40
0.8750000000000001
 40
1.0
 40
1.0
 40
1.0
 40
1.0
 10
91.43244970737615
 20
351.7915063896186
 30
0.0
 10
91.74813673077365
 20
351.7915063896186
 30
0.0
 10
92.05865073824141
 20
351.8593518820488
 30
0.0
 10
92.67401621358704
 20
352.0693085935373
 30
0.0
 10
92.97909907966246
 20
352.2129819701865
 30
0.0
 10
93.58435613840615
 20
352.5444942031243
 30
0.0
 10
93.8834939643625
 20
352.7319349832781
 30
0.0
 10
94.32980181413383
 20
353.0279983375474
 30
0.0
 10
94.47816374898412
 20
353.1292166189267
 30
0.0
 10
94.7744878778447
 20
353.3341364192008
 30
0.0
 10
94.92309854031956
 20
353.4382961366228
 30
0.0
 10
95.07035776008999
 20
353.5415063896186
 30
0.0
  0
SPLINE
  5
268
330
1F
100
AcDbEntity
  8
0
  6
Continuous
 62
     7
370
    25
100
AcDbSpline
210
0.0
220
0.0
230
1.0
 70
     8
 71
     3
 72
    16
 73
    12
 74
     0
 42
0.00000001
 43
0.00000001
 40
0.0
 40
0.0
 40
0.0
 40
0.0
 40
0.2499999999999998
 40
0.2499999999999998
 40
0.4999999999999996
 40
0.4999999999999996
 40
0.7499999999999993
 40
0.7499999999999993
 40
0.8749999999999997
 40
0.8749999999999997
 40
1.0
 40
1.0
 40
1.0
 40
1.0
 10
98.70826581280379
 20
351.7915063896186
 30
0.0
 10
98.39208786245143
 20
351.7915063896186
 30
0.0
 10
98.08154502024044
 20
351.8595015584015
 30
0.0
 10
97.4665825014972
 20
352.0693761362282
 30
0.0
 10
97.16227946878243
 20
352.2126630100195
 30
0.0
 10
96.55737439344503
 20
352.5438941873558
 30
0.0
 10
96.25772582013104
 20
352.7316095642751
 30
0.0
 10
95.81120281741752
 20
353.0278020152981
 30
0.0
 10
95.66277668624049
 20
353.1290621071054
 30
0.0
 10
95.36633142951428
 20
353.3340636216288
 30
0.0
 10
95.21754288499717
 20
353.4383480679549
 30
0.0
 10
95.07035776008999
 20
353.5415063896186
 30
0.0
  0
LINE
  5
269
330
1F
100
AcDbEntity
  8
0
  6
Continuous
 62
     7
370
    25
100
AcDbLine
 10
98.8231345098
 20
351.7915063896
 30
0.0
 11
98.7082658128
 21
351.7915063896
 31
0.0
  0
LINE
  5
26A
330
1F
100
AcDbEntity
  8
0
  6
Continuous
 62
     7
370
    25
100
AcDbLine
 10
98.8231345098
 20
341.0415063896
 30
0.0
 11
98.8231345098
 21
351.7915063896
 31
0.0
  0
LINE
  5
26B
330
1F
100
AcDbEntity
  8
0
  6
Continuous
 62
     7
370
    25
100
AcDbLine
 10
91.3175810104
 20
341.0415063896
 30
0.0
 11
98.8231345098
 21
341.0415063896
 31
0.0
  0
ARC
  5
26C
330
1F
100
AcDbEntity
  8
0
  6
Continuous
 62
     7
370
    25
100
AcDbCircle
 10
97.1812946818
 20
340.9321313896
 30
0.0
 40
1.645478930724526
100
AcDbArc
 50
274.4019496523
 51
3.8112610495
  0
LINE
  5
26D
330
1F
100
AcDbEntity
  8
0
  6
Continuous
 62
     7
370
    25
100
AcDbLine
 10
97.3075900532
 20
339.2915063896
 30
0.0
 11
95.8598294964
 21
339.2915063896
 31
0.0
  0
SPLINE
  5
26E
330
1F
100
AcDbEntity
  8
0
  6
Continuous
 62
     7
370
    25
100
AcDbSpline
210
0.0
220
0.0
230
1.0
 70
     8
 71
     3
 72
    14
 73
    10
 74
     0
 42
0.00000001
 43
0.00000001
 40
0.0
 40
0.0
 40
0.0
 40
0.0
 40
0.2499999999999999
 40
0.2499999999999999
 40
0.4999999999999998
 40
0.4999999999999998
 40
0.7499999999999999
 40
0.7499999999999999
 40
1.0
 40
1.0
 40
1.0
 40
1.0
 10
91.24979711050482
 20
339.2915063896184
 30
0.0
 10
91.76501084200143
 20
339.2915063896184
 30
0.0
 10
92.24719440772633
 20
339.3109610213506
 30
0.0
 10
93.14986309980071
 20
339.3422905073471
 30
0.0
 10
93.57080068128725
 20
339.3542158233956
 30
0.0
 10
94.34570004440863
 20
339.3541630657641
 30
0.0
 10
94.69886637525715
 20
339.3422231863514
 30
0.0
 10
95.33347181176067
 20
339.3109421209109
 30
0.0
 10
95.61546380189856
 20
339.2915063896119
 30
0.0
 10
95.8598294964295
 20
339.2915063896119
 30
0.0
  0
LINE
  5
26F
330
1F
100
AcDbEntity
  8
0
  6
Continuous
 62
     7
370
    25
100
AcDbLine
 10
91.2497971105
 20
339.2915063896
 30
0.0
 11
89.8020365537
 21
339.2915063896
 31
0.0
  0
ARC
  5
270
330
1F
100
AcDbEntity
  8
0
  6
Continuous
 62
     7
370
    25
100
AcDbCircle
 10
65.2466079173
 20
340.9321313896
 30
0.0
 40
1.645478930724531
100
AcDbArc
 50
176.1887389505
 51
265.5980503477
  0
LINE
  5
271
330
1F
100
AcDbEntity
  8
0
  6
Continuous
 62
     7
370
    25
100
AcDbLine
 10
63.6047680893
 20
341.0415063896
 30
0.0
 11
71.1103215887
 21
341.0415063896
 31
0.0
  0
LINE
  5
272
330
1F
100
AcDbEntity
  8
0
  6
Continuous
 62
     7
370
    25
100
AcDbLine
 10
72.6258660453
 20
339.2915063896
 30
0.0
 11
71.1781054886
 21
339.2915063896
 31
0.0
  0
SPLINE
  5
273
330
1F
100
AcDbEntity
  8
0
  6
Continuous
 62
     7
370
    25
100
AcDbSpline
210
0.0
220
0.0
230
1.0
 70
     8
 71
     3
 72
    14
 73
    10
 74
     0
 42
0.00000001
 43
0.00000001
 40
0.0
 40
0.0
 40
0.0
 40
0.0
 40
0.25
 40
0.25
 40
0.5
 40
0.5
 40
0.75
 40
0.75
 40
1.0
 40
1.0
 40
1.0
 40
1.0
 10
66.56807310264831
 20
339.2915063896184
 30
0.0
 10
66.81243760425356
 20
339.2915063896184
 30
0.0
 10
67.09465690712285
 20
339.3109610213506
 30
0.0
 10
67.73055972932468
 20
339.3422905073471
 30
0.0
 10
68.08493012890142
 20
339.3542158233956
 30
0.0
 10
68.8601616599677
 20
339.3541630657641
 30
0.0
 10
69.28005201238008
 20
339.3422231863514
 30
0.0
 10
70.18117969852636
 20
339.310942120911
 30
0.0
 10
70.66288924193343
 20
339.2915063896119
 30
0.0
 10
71.17810548857317
 20
339.2915063896119
 30
0.0
  0
LINE
  5
274
330
1F
100
AcDbEntity
  8
0
  6
Continuous
 62
     7
370
    25
100
AcDbLine
 10
66.5680731026
 20
339.2915063896
 30
0.0
 11
65.1203125459
 21
339.2915063896
 31
0.0
  0
LINE
  5
275
330
1F
100
AcDbEntity
  8
0
  6
Continuous
 62
     7
370
    25
100
AcDbLine
 10
63.7196367863
 20
351.7915063896
 30
0.0
 11
63.6047680893
 21
351.7915063896
 31
0.0
  0
SPLINE
  5
276
330
1F
100
AcDbEntity
  8
0
  6
Continuous
 62
     7
370
    25
100
AcDbSpline
210
0.0
220
0.0
230
1.0
 70
     8
 71
     3
 72
    16
 73
    12
 74
     0
 42
0.00000001
 43
0.00000001
 40
0.0
 40
0.0
 40
0.0
 40
0.0
 40
0.2500000000000001
 40
0.2500000000000001
 40
0.5000000000000002
 40
0.5000000000000002
 40
0.75
 40
0.75
 40
0.875
 40
0.875
 40
1.0
 40
1.0
 40
1.0
 40
1.0
 10
63.71963678627412
 20
351.7915063896186
 30
0.0
 10
64.03532380967161
 20
351.7915063896186
 30
0.0
 10
64.34583781713937
 20
351.8593518820488
 30
0.0
 10
64.96120329248501
 20
352.0693085935373
 30
0.0
 10
65.26628615856042
 20
352.2129819701865
 30
0.0
 10
65.87154321730411
 20
352.5444942031243
 30
0.0
 10
66.17068104326046
 20
352.7319349832781
 30
0.0
 10
66.61698889303179
 20
353.0279983375474
 30
0.0
 10
66.76535082788207
 20
353.1292166189267
 30
0.0
 10
67.06167495674268
 20
353.3341364192008
 30
0.0
 10
67.21028561921847
 20
353.4382961366174
 30
0.0
 10
67.35754483898792
 20
353.5415063896186
 30
0.0
  0
SPLINE
  5
277
330
1F
100
AcDbEntity
  8
0
  6
Continuous
 62
     7
370
    25
100
AcDbSpline
210
0.0
220
0.0
230
1.0
 70
     8
 71
     3
 72
    16
 73
    12
 74
     0
 42
0.00000001
 43
0.00000001
 40
0.0
 40
0.0
 40
0.0
 40
0.0
 40
0.2499999999999999
 40
0.2499999999999999
 40
0.4999999999999998
 40
0.4999999999999998
 40
0.7499999999999997
 40
0.7499999999999997
 40
0.8749999999999998
 40
0.8749999999999998
 40
1.0
 40
1.0
 40
1.0
 40
1.0
 10
70.99545289170175
 20
351.7915063896186
 30
0.0
 10
70.67927494134939
 20
351.7915063896186
 30
0.0
 10
70.3687320991384
 20
351.8595015584015
 30
0.0
 10
69.75376958039517
 20
352.0693761362282
 30
0.0
 10
69.44946654768039
 20
352.2126630100194
 30
0.0
 10
68.84456147234299
 20
352.5438941873558
 30
0.0
 10
68.544912899029
 20
352.7316095642751
 30
0.0
 10
68.09838989631548
 20
353.0278020152981
 30
0.0
 10
67.94996376513843
 20
353.1290621071054
 30
0.0
 10
67.65351850841222
 20
353.3340636216288
 30
0.0
 10
67.50472996389446
 20
353.4383480679511
 30
0.0
 10
67.35754483898792
 20
353.5415063896186
 30
0.0
  0
LINE
  5
278
330
1F
100
AcDbEntity
  8
0
  6
Continuous
 62
     7
370
    25
100
AcDbLine
 10
71.1103215887
 20
351.7915063896
 30
0.0
 11
70.9954528917
 21
351.7915063896
 31
0.0
  0
LINE
  5
279
330
1F
100
AcDbEntity
  8
0
  6
Continuous
 62
     7
370
    25
100
AcDbLine
 10
63.6047680893
 20
351.7915063896
 30
0.0
 11
63.6047680893
 21
341.0415063896
 31
0.0
  0
ARC
  5
27A
330
1F
100
AcDbEntity
  8
0
  6
Continuous
 62
     7
370
    25
100
AcDbCircle
 10
72.7719239659
 20
351.8444834499
 30
0.0
 40
1.777260826753845
100
AcDbArc
 50
119.4990501565
 51
181.708140753
  0
SPLINE
  5
27B
330
1F
100
AcDbEntity
  8
0
  6
Continuous
 62
     7
370
    25
100
AcDbSpline
210
0.0
220
0.0
230
1.0
 70
     8
 71
     3
 72
     8
 73
     4
 74
     0
 42
0.00000001
 43
0.00000001
 40
0.0
 40
0.0
 40
0.0
 40
0.0
 40
0.0002416894103822
 40
0.0002416894103822
 40
0.0002416894103822
 40
0.0002416894103822
 10
72.07163337006394
 20
353.4202896334963
 30
0.0
 10
72.01315302959357
 20
353.4111264726484
 30
0.0
 10
71.9548833353173
 20
353.4014872599345
 30
0.0
 10
71.89678450596307
 20
353.3913470417999
 30
0.0
  0
SPLINE
  5
27C
330
1F
100
AcDbEntity
  8
0
  6
Continuous
 62
     7
370
    25
100
AcDbSpline
210
0.0
220
0.0
230
1.0
 70
     8
 71
     3
 72
    14
 73
    10
 74
     0
 42
0.00000001
 43
0.00000001
 40
0.0
 40
0.0
 40
0.0
 40
0.0
 40
0.25
 40
0.25
 40
0.5
 40
0.5
 40
0.75
 40
0.75
 40
1.0
 40
1.0
 40
1.0
 40
1.0
 10
71.82319237940249
 20
353.3801427793836
 30
0.0
 10
71.39877621781713
 20
353.3180891471964
 30
0.0
 10
70.98007766315139
 20
353.2995646839232
 30
0.0
 10
70.16958439429187
 20
353.2946219677214
 30
0.0
 10
69.77683135897217
 20
353.3100835715184
 30
0.0
 10
69.02404459931529
 20
353.3577479771453
 30
0.0
 10
68.66493616237157
 20
353.3901867174672
 30
0.0
 10
67.98321449768109
 20
353.4621629267377
 30
0.0
 10
67.65952990043084
 20
353.5019784705758
 30
0.0
 10
67.35754483898792
 20
353.5415063896186
 30
0.0
  0
SPLINE
  5
27D
330
1F
100
AcDbEntity
  8
0
  6
Continuous
 62
     7
370
    25
100
AcDbSpline
210
0.0
220
0.0
230
1.0
 70
     8
 71
     3
 72
     8
 73
     4
 74
     0
 42
0.00000001
 43
0.00000001
 40
0.0
 40
0.0
 40
0.0
 40
0.0
 40
0.0001055072942668
 40
0.0001055072942668
 40
0.0001055072942668
 40
0.0001055072942668
 10
71.89678450596304
 20
353.3913470417996
 30
0.0
 10
71.87227822500452
 20
353.3874632187853
 30
0.0
 10
71.84774504817167
 20
353.3837326103437
 30
0.0
 10
71.82319237940257
 20
353.3801427793831
 30
0.0
  0
SPLINE
  5
27E
330
1F
100
AcDbEntity
  8
0
  6
Continuous
 62
     7
370
    25
100
AcDbSpline
210
0.0
220
0.0
230
1.0
 70
     8
 71
     3
 72
     8
 73
     4
 74
     0
 42
0.00000001
 43
0.00000001
 40
0.0
 40
0.0
 40
0.0
 40
0.0
 40
0.000105507294285
 40
0.000105507294285
 40
0.000105507294285
 40
0.000105507294285
 10
90.60471021968824
 20
353.3801427793817
 30
0.0
 10
90.58015755091489
 20
353.3837326103428
 30
0.0
 10
90.55562437407772
 20
353.3874632187847
 30
0.0
 10
90.53111809311501
 20
353.3913470417996
 30
0.0
  0
SPLINE
  5
27F
330
1F
100
AcDbEntity
  8
0
  6
Continuous
 62
     7
370
    25
100
AcDbSpline
210
0.0
220
0.0
230
1.0
 70
     8
 71
     3
 72
    14
 73
    10
 74
     0
 42
0.00000001
 43
0.00000001
 40
0.0
 40
0.0
 40
0.0
 40
0.0
 40
0.25
 40
0.25
 40
0.5
 40
0.5
 40
0.75
 40
0.75
 40
1.0
 40
1.0
 40
1.0
 40
1.0
 10
90.60471021968824
 20
353.3801427793817
 30
0.0
 10
91.02912638127245
 20
353.3180891471956
 30
0.0
 10
91.4478249359369
 20
353.2995646839228
 30
0.0
 10
92.25831820479401
 20
353.2946219677216
 30
0.0
 10
92.65107124011254
 20
353.3100835715188
 30
0.0
 10
93.4038579997672
 20
353.3577479771457
 30
0.0
 10
93.76296643670986
 20
353.3901867174675
 30
0.0
 10
94.44468810139844
 20
353.462162926738
 30
0.0
 10
94.76837269864794
 20
353.5019784705728
 30
0.0
 10
95.07035776008998
 20
353.5415063896186
 30
0.0
  0
ARC
  5
280
330
1F
100
AcDbEntity
  8
0
  6
Continuous
 62
     7
370
    25
100
AcDbCircle
 10
91.448999468
 20
338.4367698563
 30
0.0
 40
0.8776423648442877
100
AcDbArc
 50
103.119007754
 51
188.0002668541
  0
ARC
  5
281
330
1F
100
AcDbEntity
  8
0
  6
Continuous
 62
     7
370
    25
100
AcDbCircle
 10
70.9789031311
 20
338.4367698563
 30
0.0
 40
0.8776423648442737
100
AcDbArc
 50
351.9997331459
 51
76.880992246
  0
LINE
  5
282
330
1F
100
AcDbEntity
  8
0
  6
Continuous
 62
     7
370
    25
100
AcDbLine
 10
110.3694750653
 20
303.1355482814
 30
0.0
 11
110.7444749225
 21
303.1355489087
 31
0.0
  0
ARC
  5
283
330
1F
100
AcDbEntity
  8
0
  6
Continuous
 62
     7
370
    25
100
AcDbCircle
 10
91.2750078849
 20
354.0565587609
 30
0.0
 40
0.9979371992159757
100
AcDbArc
 50
164.4750771131
 51
221.8041723328
  0
ARC
  5
284
330
1F
100
AcDbEntity
  8
0
  6
Continuous
 62
     7
370
    25
100
AcDbCircle
 10
71.1528947141
 20
354.0565587609
 30
0.0
 40
0.9979371992166104
100
AcDbArc
 50
318.1958276672
 51
15.5249228869
  0
ARC
  5
285
330
1F
100
AcDbEntity
  8
0
  6
Continuous
 62
     7
370
    25
100
AcDbCircle
 10
91.3636484118
 20
354.0401191295
 30
0.0
 40
1.005761384292121
100
AcDbArc
 50
165.7659488811
 51
221.0103806761
  0
ARC
  5
286
330
1F
100
AcDbEntity
  8
0
  6
Continuous
 62
     7
370
    25
100
AcDbCircle
 10
71.0642541873
 20
354.0401191295
 30
0.0
 40
1.005761384288413
100
AcDbArc
 50
318.9896193238
 51
14.2340511189
  0
SPLINE
  5
287
330
1F
100
AcDbEntity
  8
0
  6
Continuous
 62
     7
370
    25
100
AcDbSpline
210
0.0
220
0.0
230
1.0
 70
     8
 71
     3
 72
    12
 73
     8
 74
     0
 42
0.00000001
 43
0.00000001
 40
0.0
 40
0.0
 40
0.0
 40
0.0
 40
0.25
 40
0.25
 40
0.5
 40
0.5
 40
1.0
 40
1.0
 40
1.0
 40
1.0
 10
72.03913808511672
 20
354.2874192466896
 30
0.0
 10
71.5670924498531
 20
354.1755021349869
 30
0.0
 10
71.10996042775122
 20
354.0961219894418
 30
0.0
 10
70.23351981080694
 20
353.9543741523263
 30
0.0
 10
69.81771861985905
 20
353.894699355385
 30
0.0
 10
68.6386008406482
 20
353.728761035083
 30
0.0
 10
67.94143438612865
 20
353.6354860604415
 30
0.0
 10
67.35754483898792
 20
353.5415063896186
 30
0.0
  0
SPLINE
  5
288
330
1F
100
AcDbEntity
  8
0
  6
Continuous
 62
     7
370
    25
100
AcDbSpline
210
0.0
220
0.0
230
1.0
 70
     8
 71
     3
 72
    18
 73
    14
 74
     0
 42
0.00000001
 43
0.00000001
 40
0.0
 40
0.0
 40
0.0
 40
0.0
 40
0.2500000000000003
 40
0.2500000000000003
 40
0.5000000000000006
 40
0.5000000000000006
 40
0.7500000000000009
 40
0.7500000000000009
 40
0.875000000000001
 40
0.875000000000001
 40
0.9375000000000004
 40
0.9375000000000004
 40
1.0
 40
1.0
 40
1.0
 40
1.0
 10
90.38876451397398
 20
354.2874192466867
 30
0.0
 10
90.86285946936576
 20
354.1750162624914
 30
0.0
 10
91.31857742612556
 20
354.0960512362706
 30
0.0
 10
92.18862225376739
 20
353.955274011206
 30
0.0
 10
92.60320804078151
 20
353.8957002959017
 30
0.0
 10
93.38968365174571
 20
353.7849807728551
 30
0.0
 10
93.76295509827042
 20
353.7339482063851
 30
0.0
 10
94.28310864184033
 20
353.6603305726287
 30
0.0
 10
94.44988045498496
 20
353.6363069924483
 30
0.0
 10
94.69010191730979
 20
353.6005993339487
 30
0.0
 10
94.76851886496904
 20
353.5887521505443
 30
0.0
 10
94.9220259340399
 20
353.5651001378516
 30
0.0
 10
94.99782762078677
 20
353.5531804424546
 30
0.0
 10
95.07035776008998
 20
353.5415063896186
 30
0.0
  0
SPLINE
  5
289
330
1F
100
AcDbEntity
  8
0
  6
Continuous
 62
     7
370
    25
100
AcDbSpline
210
0.0
220
0.0
230
1.0
 70
     8
 71
     3
 72
    18
 73
    14
 74
     0
 42
0.00000001
 43
0.00000001
 40
0.0
 40
0.0
 40
0.0
 40
0.0
 40
0.2499999999999997
 40
0.2499999999999997
 40
0.4999999999999994
 40
0.4999999999999994
 40
0.7499999999999991
 40
0.7499999999999991
 40
0.8749999999999992
 40
0.8749999999999992
 40
0.9374999999999997
 40
0.9374999999999997
 40
1.0
 40
1.0
 40
1.0
 40
1.0
 10
65.27458002270714
 20
354.2874192466866
 30
0.0
 10
65.3249100687408
 20
354.1750162624914
 30
0.0
 10
65.40649390736758
 20
354.0960512362706
 30
0.0
 10
65.6311624156489
 20
353.955274011206
 30
0.0
 10
65.77422105801377
 20
353.8957002959017
 30
0.0
 10
66.12236125059727
 20
353.7849807728551
 30
0.0
 10
66.32845241148144
 20
353.7339482063851
 30
0.0
 10
66.68173593869672
 20
353.6603305726286
 30
0.0
 10
66.80676556645965
 20
353.6363069924483
 30
0.0
 10
67.00519286853373
 20
353.6005993339487
 30
0.0
 10
67.07315008460775
 20
353.5887521505444
 30
0.0
 10
67.21270244560357
 20
353.5651001378517
 30
0.0
 10
67.28501469968487
 20
353.553180442458
 30
0.0
 10
67.35754483898792
 20
353.5415063896186
 30
0.0
  0
SPLINE
  5
28A
330
1F
100
AcDbEntity
  8
0
  6
Continuous
 62
     7
370
    25
100
AcDbSpline
210
0.0
220
0.0
230
1.0
 70
     8
 71
     3
 72
    12
 73
     8
 74
     0
 42
0.00000001
 43
0.00000001
 40
0.0
 40
0.0
 40
0.0
 40
0.0
 40
0.2499999999999999
 40
0.2499999999999999
 40
0.4999999999999999
 40
0.4999999999999999
 40
1.0
 40
1.0
 40
1.0
 40
1.0
 10
97.15332257637213
 20
354.2874192466896
 30
0.0
 10
97.10321008670665
 20
354.1755021349869
 30
0.0
 10
97.02171507122071
 20
354.0961219894418
 30
0.0
 10
96.79510948685653
 20
353.9543741523263
 30
0.0
 10
96.65105565837513
 20
353.894699355385
 30
0.0
 10
96.12771075254005
 20
353.728761035083
 30
0.0
 10
95.65424730723043
 20
353.6354860604476
 30
0.0
 10
95.07035776008998
 20
353.5415063896186
 30
0.0
  0
LINE
  5
28B
330
1F
100
AcDbEntity
  8
0
  6
Continuous
 62
     7
370
    25
100
AcDbLine
 10
110.3694656628
 20
307.3513832699
 30
0.0
 11
110.3694750653
 21
303.1355482814
 31
0.0
  0
LINE
  5
28C
330
1F
100
AcDbEntity
  8
0
  6
Continuous
 62
     7
370
    25
100
AcDbLine
 10
110.2139512995
 20
306.7323463969
 30
0.0
 11
110.2139512995
 21
307.8455930516
 31
0.0
  0
LINE
  5
28D
330
1F
100
AcDbEntity
  8
0
  6
Continuous
 62
     7
370
    25
100
AcDbLine
 10
110.74446552
 20
307.35138327
 30
0.0
 11
110.7444749225
 21
303.1355489087
 31
0.0
  0
ARC
  5
28E
330
1F
100
AcDbEntity
  8
0
  6
Continuous
 62
     7
370
    25
100
AcDbCircle
 10
95.8706671341
 20
338.3030398066
 30
0.0
 40
0.9885259936317291
100
AcDbArc
 50
90.628170975
 51
179.3286944278
  0
ARC
  5
28F
330
1F
100
AcDbEntity
  8
0
  6
Continuous
 62
     7
370
    25
100
AcDbCircle
 10
66.557235465
 20
338.3030398066
 30
0.0
 40
0.988525993631715
100
AcDbArc
 50
0.6713055722
 51
89.371829025
  0
SPLINE
  5
290
330
1F
100
AcDbEntity
  8
0
  6
Continuous
 62
     7
370
    25
100
AcDbSpline
210
0.0
220
0.0
230
1.0
 70
     8
 71
     3
 72
     8
 73
     4
 74
     0
 42
0.00000001
 43
0.00000001
 40
0.0
 40
0.0
 40
0.0
 40
0.0
 40
1.0
 40
1.0
 40
1.0
 40
1.0
 10
93.09904956996256
 20
281.9513608465322
 30
0.0
 10
92.29094631830756
 20
281.7146963406223
 30
0.0
 10
91.47352846870841
 20
281.488700530172
 30
0.0
 10
90.64138124101027
 20
281.2699134534951
 30
0.0
  0
SPLINE
  5
291
330
1F
100
AcDbEntity
  8
0
  6
Continuous
 62
     7
370
    25
100
AcDbSpline
210
0.0
220
0.0
230
1.0
 70
     8
 71
     3
 72
    10
 73
     6
 74
     0
 42
0.00000001
 43
0.00000001
 40
0.0
 40
0.0
 40
0.0
 40
0.0
 40
0.5
 40
0.5
 40
1.0
 40
1.0
 40
1.0
 40
1.0
 10
66.80685843074139
 20
304.6122978366795
 30
0.0
 10
66.9849145398644
 20
304.5676808968837
 30
0.0
 10
67.17534993539539
 20
304.6121753095445
 30
0.0
 10
67.58147005099508
 20
304.8537939977485
 30
0.0
 10
67.79580700448872
 20
305.0491503437861
 30
0.0
 10
68.02519751196611
 20
305.3010977609025
 30
0.0
  0
ARC
  5
292
330
1F
100
AcDbEntity
  8
0
  6
Continuous
 62
     7
370
    25
100
AcDbCircle
 10
57.9976523708
 20
309.6496508074
 30
0.0
 40
10.14776016461666
100
AcDbArc
 50
330.2378582576
 51
1.3294554288
  0
ARC
  5
293
330
1F
100
AcDbEntity
  8
0
  6
Continuous
 62
     7
370
    25
100
AcDbCircle
 10
98.1560307278
 20
354.3095207691
 30
0.0
 40
1.002951700818475
100
AcDbArc
 50
181.2626993566
 51
247.9173961432
  0
SPLINE
  5
294
330
1F
100
AcDbEntity
  8
0
  6
Continuous
 62
     7
370
    25
100
AcDbSpline
210
0.0
220
0.0
230
1.0
 70
     8
 71
     3
 72
    14
 73
    10
 74
     0
 42
0.00000001
 43
0.00000001
 40
0.0
 40
0.0
 40
0.0
 40
0.0
 40
0.2499999999999999
 40
0.2499999999999999
 40
0.4999999999999998
 40
0.4999999999999998
 40
0.7499999999999999
 40
0.7499999999999999
 40
1.0
 40
1.0
 40
1.0
 40
1.0
 10
97.77897812350572
 20
353.3801427793836
 30
0.0
 10
97.61809041518416
 20
353.3180891471964
 30
0.0
 10
97.44891530446488
 20
353.2995646839232
 30
0.0
 10
97.07533484002329
 20
353.2946219677214
 30
0.0
 10
96.87142902220238
 20
353.3100835715184
 30
0.0
 10
96.42431969249265
 20
353.3577479771453
 30
0.0
 10
96.18186562238171
 20
353.3901867174671
 30
0.0
 10
95.65642908804666
 20
353.4621629267377
 30
0.0
 10
95.37234282153258
 20
353.501978470567
 30
0.0
 10
95.07035776008998
 20
353.5415063896186
 30
0.0
  0
SPLINE
  5
295
330
1F
100
AcDbEntity
  8
0
  6
Continuous
 62
     7
370
    25
100
AcDbSpline
210
0.0
220
0.0
230
1.0
 70
     8
 71
     3
 72
     8
 73
     4
 74
     0
 42
0.00000001
 43
0.00000001
 40
0.0
 40
0.0
 40
0.0
 40
0.0
 40
0.0001055072942668
 40
0.0001055072942668
 40
0.0001055072942668
 40
0.0001055072942668
 10
97.80693419854249
 20
353.3913470417996
 30
0.0
 10
97.79760221267108
 20
353.3874632187853
 30
0.0
 10
97.78828555090593
 20
353.3837326103437
 30
0.0
 10
97.77897812350568
 20
353.3801427793831
 30
0.0
  0
ARC
  5
296
330
1F
100
AcDbEntity
  8
0
  6
Continuous
 62
     7
370
    25
100
AcDbCircle
 10
96.9317947386
 20
351.8444834499
 30
0.0
 40
1.777260826753922
100
AcDbArc
 50
358.291859247
 51
60.5009498435
  0
ARC
  5
297
330
1F
100
AcDbEntity
  8
0
  6
Continuous
 62
     7
370
    25
100
AcDbCircle
 10
64.2718718713
 20
354.3095207691
 30
0.0
 40
1.00295170081895
100
AcDbArc
 50
292.082603857
 51
358.7373006436
  0
SPLINE
  5
298
330
1F
100
AcDbEntity
  8
0
  6
Continuous
 62
     7
370
    25
100
AcDbSpline
210
0.0
220
0.0
230
1.0
 70
     8
 71
     3
 72
    14
 73
    10
 74
     0
 42
0.00000001
 43
0.00000001
 40
0.0
 40
0.0
 40
0.0
 40
0.0
 40
0.2500000000000001
 40
0.2500000000000001
 40
0.5000000000000002
 40
0.5000000000000002
 40
0.7500000000000001
 40
0.7500000000000001
 40
1.0
 40
1.0
 40
1.0
 40
1.0
 10
64.64892447557706
 20
353.3801427793817
 30
0.0
 10
64.80981218389836
 20
353.3180891471956
 30
0.0
 10
64.97898729461748
 20
353.2995646839228
 30
0.0
 10
65.35256775905862
 20
353.2946219677216
 30
0.0
 10
65.5564735768793
 20
353.3100835715188
 30
0.0
 10
66.00358290658828
 20
353.3577479771457
 30
0.0
 10
66.24603697669876
 20
353.3901867174675
 30
0.0
 10
66.77147351103267
 20
353.462162926738
 30
0.0
 10
67.05555977754582
 20
353.5019784705748
 30
0.0
 10
67.35754483898792
 20
353.5415063896186
 30
0.0
  0
ARC
  5
299
330
1F
100
AcDbEntity
  8
0
  6
Continuous
 62
     7
370
    25
100
AcDbCircle
 10
65.4961078605
 20
351.8444834499
 30
0.0
 40
1.777260826753958
100
AcDbArc
 50
119.4990501565
 51
181.708140753
  0
SPLINE
  5
29A
330
1F
100
AcDbEntity
  8
0
  6
Continuous
 62
     7
370
    25
100
AcDbSpline
210
0.0
220
0.0
230
1.0
 70
     8
 71
     3
 72
     8
 73
     4
 74
     0
 42
0.00000001
 43
0.00000001
 40
0.0
 40
0.0
 40
0.0
 40
0.0
 40
0.000105507294285
 40
0.000105507294285
 40
0.000105507294285
 40
0.000105507294285
 10
64.64892447557706
 20
353.3801427793817
 30
0.0
 10
64.63961704817521
 20
353.3837326103428
 30
0.0
 10
64.63030038640849
 20
353.3874632187846
 30
0.0
 10
64.62096840053546
 20
353.3913470417996
 30
0.0
  0
SPLINE
  5
29B
330
1F
100
AcDbEntity
  8
0
  6
Continuous
 62
     7
370
    25
100
AcDbSpline
210
0.0
220
0.0
230
1.0
 70
     8
 71
     3
 72
     8
 73
     4
 74
     0
 42
0.00000001
 43
0.00000001
 40
0.0
 40
0.0
 40
0.0
 40
0.0
 40
0.0002416894103822
 40
0.0002416894103822
 40
0.0002416894103822
 40
0.0002416894103822
 10
97.86182272847911
 20
353.4202896334963
 30
0.0
 10
97.84373553924979
 20
353.4111264726484
 30
0.0
 10
97.82541467720056
 20
353.4014872599345
 30
0.0
 10
97.80693419854242
 20
353.3913470417999
 30
0.0
  0
ARC
  5
29C
330
1F
100
AcDbEntity
  8
0
  6
Continuous
 62
     7
370
    25
100
AcDbCircle
 10
97.0610365606
 20
351.8495878318
 30
0.0
 40
1.763054915954093
100
AcDbArc
 50
358.1121270215
 51
62.9862857032
  0
ARC
  5
29D
330
1F
100
AcDbEntity
  8
0
  6
Continuous
 62
     7
370
    25
100
AcDbCircle
 10
65.3668660385
 20
351.8495878318
 30
0.0
 40
1.7630549159541
100
AcDbArc
 50
117.0137142968
 51
181.8878729785
  0
SPLINE
  5
29E
330
1F
100
AcDbEntity
  8
0
  6
Continuous
 62
     7
370
    25
100
AcDbSpline
210
0.0
220
0.0
230
1.0
 70
     8
 71
     3
 72
     8
 73
     4
 74
     0
 42
0.00000001
 43
0.00000001
 40
0.0000000000000002
 40
0.0000000000000002
 40
0.0000000000000002
 40
0.0000000000000002
 40
0.0002416894103823
 40
0.0002416894103823
 40
0.0002416894103823
 40
0.0002416894103823
 10
64.62096840053546
 20
353.3913470417996
 30
0.0
 10
64.60248792187731
 20
353.4014872599342
 30
0.0
 10
64.58416705982816
 20
353.4111264726486
 30
0.0
 10
64.56607987059884
 20
353.4202896334966
 30
0.0
  0
LINE
  5
29F
330
1F
100
AcDbEntity
  8
0
  6
Continuous
 62
     7
370
    25
100
AcDbLine
 10
97.4750582985
 20
339.2915063896
 30
0.0
 11
97.3075900532
 21
339.2915063896
 31
0.0
  0
LINE
  5
2A0
330
1F
100
AcDbEntity
  8
0
  6
Continuous
 62
     7
370
    25
100
AcDbLine
 10
65.1203125459
 20
339.2915063896
 30
0.0
 11
64.9528443006
 21
339.2915063896
 31
0.0
  0
ARC
  5
2A1
330
1F
100
AcDbEntity
  8
0
  6
Continuous
 62
     7
370
    25
100
AcDbCircle
 10
64.2645581581
 20
354.3277850557
 30
0.0
 40
1.001970266457674
100
AcDbArc
 50
290.8369281334
 51
359.7643533258
  0
ARC
  5
2A2
330
1F
100
AcDbEntity
  8
0
  6
Continuous
 62
     7
370
    25
100
AcDbCircle
 10
98.163344441
 20
354.3277850557
 30
0.0
 40
1.001970266457745
100
AcDbArc
 50
180.2356466742
 51
249.1630718666
  0
ARC
  5
2A3
330
1F
100
AcDbEntity
  8
0
  6
Continuous
 62
     7
370
    25
100
AcDbCircle
 10
64.2448650372
 20
354.3687116639
 30
0.0
 40
1.001340759618277
100
AcDbArc
 50
288.7103891537
 51
2.628130234
  0
ARC
  5
2A4
330
1F
100
AcDbEntity
  8
0
  6
Continuous
 62
     7
370
    25
100
AcDbCircle
 10
98.1830375619
 20
354.3687116639
 30
0.0
 40
1.001340759618263
100
AcDbArc
 50
177.371869766
 51
251.2896108463
  0
ARC
  5
2A5
330
1F
100
AcDbEntity
  8
0
  6
Continuous
 62
     8
370
    25
100
AcDbCircle
 10
81.27595163
 20
210.8359758734
 30
0.0
 40
7.83821417124166
100
AcDbArc
 50
269.546785246
 51
359.5761175805
  0
ARC
  5
2A6
330
1F
100
AcDbEntity
  8
0
  6
Continuous
 62
     8
370
    25
100
AcDbCircle
 10
81.156844556
 20
210.8409449518
 30
0.0
 40
7.843145937027415
100
AcDbArc
 50
180.4599170876
 51
270.4171800859
  0
ARC
  5
2A7
330
1F
100
AcDbEntity
  8
0
  6
Continuous
 62
     8
370
    25
100
AcDbCircle
 10
81.2329517203
 20
210.7600377289
 30
0.0
 40
7.935701735411262
100
AcDbArc
 50
269.8628168001
 51
321.6367970783
  0
ARC
  5
2A8
330
1F
100
AcDbEntity
  8
0
  6
Continuous
 62
     8
370
    25
100
AcDbCircle
 10
81.1942921133
 20
210.7576221533
 30
0.0
 40
7.933287771900045
100
AcDbArc
 50
217.0621709026
 51
270.1419826921
  0
ARC
  5
2A9
330
1F
100
AcDbEntity
  8
0
  6
Continuous
 62
     8
370
    25
100
AcDbCircle
 10
81.3556028978
 20
210.2457092173
 30
0.0
 40
9.673452674028278
100
AcDbArc
 50
269.160968778
 51
36.6761115444
  0
ARC
  5
2AA
330
1F
100
AcDbEntity
  8
0
  6
Continuous
 62
     8
370
    25
100
AcDbCircle
 10
81.0860318538
 20
210.2527307085
 30
0.0
 40
9.680282212235298
100
AcDbArc
 50
143.4057663713
 51
270.7571533063
  0
LINE
  5
2AB
330
1F
100
AcDbEntity
  8
0
  6
Continuous
 62
     8
370
    25
100
AcDbLine
 10
91.4822215911
 20
207.955515841
 30
0.0
 11
91.7760296694
 21
207.8637394482
 31
0.0
  0
ARC
  5
2AC
330
1F
100
AcDbEntity
  8
0
  6
Continuous
 62
     8
370
    25
100
AcDbCircle
 10
81.2139512995
 20
296.0415063896
 30
0.0
 40
9.375000000000025
100
AcDbArc
 50
119.4063269879
 51
212.5772063232
  0
ARC
  5
2AD
330
1F
100
AcDbEntity
  8
0
  6
Continuous
 62
     8
370
    25
100
AcDbCircle
 10
81.2139512995
 20
296.0415063896
 30
0.0
 40
9.375000000000025
100
AcDbArc
 50
327.4227936768
 51
119.4063269879
  0
ARC
  5
2AE
330
1F
100
AcDbEntity
  8
0
  6
Continuous
 62
     8
370
    25
100
AcDbCircle
 10
81.2139512995
 20
296.0415063896
 30
0.0
 40
11.05993649053892
100
AcDbArc
 50
182.3675813795
 51
224.4149728023
  0
ARC
  5
2AF
330
1F
100
AcDbEntity
  8
0
  6
Continuous
 62
     8
370
    25
100
AcDbCircle
 10
81.2139512995
 20
296.0415063896
 30
0.0
 40
11.05993649053892
100
AcDbArc
 50
315.5850271977
 51
182.3675813795
  0
ARC
  5
2B0
330
1F
100
AcDbEntity
  8
0
  6
Continuous
 62
     8
370
    25
100
AcDbCircle
 10
81.2139512995
 20
296.0415063896
 30
0.0
 40
11.30993649053892
100
AcDbArc
 50
314.3068486059
 51
182.3675813795
  0
ARC
  5
2B1
330
1F
100
AcDbEntity
  8
0
  6
Continuous
 62
     8
370
    25
100
AcDbCircle
 10
81.2139512995
 20
296.0415063896
 30
0.0
 40
11.30993649053892
100
AcDbArc
 50
182.3675813795
 51
225.6931513941
  0
SPLINE
  5
2B2
330
1F
100
AcDbEntity
  8
0
  6
Continuous
 62
     8
370
    25
100
AcDbSpline
210
0.0
220
0.0
230
1.0
 70
     8
 71
     3
 72
     9
 73
     5
 74
     0
 42
0.00000001
 43
0.00000001
 40
0.0
 40
0.0
 40
0.0
 40
0.0
 40
0.5050734883508552
 40
1.0
 40
1.0
 40
1.0
 40
1.0
 10
71.64038422278533
 20
285.1945071221544
 30
0.0
 10
71.91535503274397
 20
285.0057084241091
 30
0.0
 10
72.45977246169369
 20
284.6319040126721
 30
0.0
 10
73.03115763092381
 20
284.2999670536743
 30
0.0
 10
73.31395129953894
 20
284.1356826524701
 30
0.0
  0
SPLINE
  5
2B3
330
1F
100
AcDbEntity
  8
0
  6
Continuous
 62
     8
370
    25
100
AcDbSpline
210
0.0
220
0.0
230
1.0
 70
     8
 71
     3
 72
     9
 73
     5
 74
     0
 42
0.00000001
 43
0.00000001
 40
0.0
 40
0.0
 40
0.0
 40
0.0
 40
0.1103590486141771
 40
1.0
 40
1.0
 40
1.0
 40
1.0
 10
89.11395129953894
 20
284.1723988738394
 30
0.0
 10
89.21187819110062
 20
284.2336845222244
 30
0.0
 10
90.0992262861721
 20
284.7890141409065
 30
0.0
 10
90.92003720795594
 20
285.4414206159647
 30
0.0
 10
91.65026421731959
 20
286.0218281331257
 30
0.0
  0
LINE
  5
2B4
330
1F
100
AcDbEntity
  8
0
  6
Continuous
 62
     8
370
    25
100
AcDbLine
 10
164.9793998533
 20
294.8189683613
 30
0.0
 11
164.7581570294
 21
294.8189683613
 31
0.0
  0
LINE
  5
2B5
330
1F
100
AcDbEntity
  8
0
  6
Continuous
 62
     8
370
    25
100
AcDbLine
 10
164.8564879865
 20
297.5047393519
 30
0.0
 11
164.9793998533
 21
297.5047393519
 31
0.0
  0
LINE
  5
2B6
330
1F
100
AcDbEntity
  8
0
  6
Continuous
 62
     8
370
    25
100
AcDbLine
 10
164.9793998533
 20
295.2121085543
 30
0.0
 11
164.7584633796
 21
295.2121085543
 31
0.0
  0
LINE
  5
2B7
330
1F
100
AcDbEntity
  8
0
  6
Continuous
 62
     8
370
    25
100
AcDbLine
 10
164.0238833036
 20
290.1163887555
 30
0.0
 11
164.0238833036
 21
301.9666341608
 31
0.0
  0
LINE
  5
2B8
330
1F
100
AcDbEntity
  8
0
  6
Continuous
 62
     8
370
    25
100
AcDbLine
 10
157.5519952567
 20
288.0930524561
 30
0.0
 11
157.5519952567
 21
287.0658483454
 31
0.0
  0
LINE
  5
2B9
330
1F
100
AcDbEntity
  8
0
  6
Continuous
 62
     8
370
    25
100
AcDbLine
 10
156.6185750428
 20
305.0334573443
 30
0.0
 11
156.6185750428
 21
304.3753606207
 31
0.0
  0
LINE
  5
2BA
330
1F
100
AcDbEntity
  8
0
  6
Continuous
 62
     8
370
    25
100
AcDbLine
 10
161.9226775028
 20
287.1421388878
 30
0.0
 11
161.9226775028
 21
304.9408738915
 31
0.0
  0
SPLINE
  5
2BB
330
1F
100
AcDbEntity
  8
0
  6
Continuous
 62
     8
370
    25
100
AcDbSpline
210
0.0
220
0.0
230
1.0
 70
     8
 71
     3
 72
    10
 73
     6
 74
     0
 42
0.00000001
 43
0.00000001
 40
0.0
 40
0.0
 40
0.0
 40
0.0
 40
0.3150852619719769
 40
0.9660915367608174
 40
1.0
 40
1.0
 40
1.0
 40
1.0
 10
157.5073889235051
 20
288.0922854755747
 30
0.0
 10
157.3173356666306
 20
287.8828819299484
 30
0.0
 10
156.7346081793111
 20
287.2408239932136
 30
0.0
 10
156.1007518146645
 20
286.721094616249
 30
0.0
 10
155.7494394755731
 20
286.5412237775615
 30
0.0
 10
155.7320468559168
 20
286.5323188097125
 30
0.0
  0
ARC
  5
2BC
330
1F
100
AcDbEntity
  8
0
  6
Continuous
 62
     8
370
    25
100
AcDbCircle
 10
152.2028690596
 20
285.9959051659
 30
0.0
 40
1.921101550876743
100
AcDbArc
 50
268.5777133464
 51
338.9678192278
  0
SPLINE
  5
2BD
330
1F
100
AcDbEntity
  8
0
  6
Continuous
 62
     8
370
    25
100
AcDbSpline
210
0.0
220
0.0
230
1.0
 70
     8
 71
     3
 72
    11
 73
     7
 74
     0
 42
0.00000001
 43
0.00000001
 40
0.0
 40
0.0
 40
0.0
 40
0.0
 40
0.1869850297061659
 40
0.8392317873888431
 40
0.8428766719154442
 40
1.0
 40
1.0
 40
1.0
 40
1.0
 10
155.4658926878089
 20
305.2973539978626
 30
0.0
 10
155.5312699071538
 20
305.2712694531903
 30
0.0
 10
155.8246978929751
 20
305.154196021788
 30
0.0
 10
156.1540557676632
 20
304.8457491847611
 30
0.0
 10
156.4644292111655
 20
304.5152784891761
 30
0.0
 10
156.5259322457223
 20
304.4448281927632
 30
0.0
 10
156.5860409035217
 20
304.3759751225129
 30
0.0
  0
ARC
  5
2BE
330
1F
100
AcDbEntity
  8
0
  6
Continuous
 62
     8
370
    25
100
AcDbCircle
 10
152.0713943843
 20
305.3608190275
 30
0.0
 40
2.003535731596957
100
AcDbArc
 50
31.0558719373
 51
89.2146432105
  0
LINE
  5
2BF
330
1F
100
AcDbEntity
  8
0
  6
Continuous
 62
     8
370
    25
100
AcDbLine
 10
152.0988561124
 20
283.7411789075
 30
0.0
 11
152.0988561124
 21
283.7957530452
 31
0.0
  0
LINE
  5
2C0
330
1F
100
AcDbEntity
  8
0
  6
Continuous
 62
     8
370
    25
100
AcDbLine
 10
148.0726775028
 20
284.0067946126
 30
0.0
 11
148.0726775028
 21
283.6709016985
 31
0.0
  0
ARC
  5
2C1
330
1F
100
AcDbEntity
  8
0
  6
Continuous
 62
     8
370
    25
100
AcDbCircle
 10
152.0675971595
 20
285.7943142616
 30
0.0
 40
1.9988056579085
100
AcDbArc
 50
270.8960746543
 51
341.7959298614
  0
ARC
  5
2C2
330
1F
100
AcDbEntity
  8
0
  6
Continuous
 62
     8
370
    25
100
AcDbCircle
 10
152.0711707474
 20
305.3981480589
 30
0.0
 40
2.002948385305129
100
AcDbArc
 50
30.2003890467
 51
89.2080149966
  0
LINE
  5
2C3
330
1F
100
AcDbEntity
  8
0
  6
Continuous
 62
     8
370
    25
100
AcDbLine
 10
152.0988561124
 20
307.4009050973
 30
0.0
 11
152.0988561124
 21
307.5369266009
 31
0.0
  0
LINE
  5
2C4
330
1F
100
AcDbEntity
  8
0
  6
Continuous
 62
     8
370
    25
100
AcDbLine
 10
148.0726775028
 20
307.60720381
 30
0.0
 11
148.0726775028
 21
307.470111803
 31
0.0
  0
SPLINE
  5
2C5
330
1F
100
AcDbEntity
  8
0
  6
Continuous
 62
     8
370
    25
100
AcDbSpline
210
0.0
220
0.0
230
1.0
 70
     8
 71
     3
 72
    14
 73
    10
 74
     0
 42
0.00000001
 43
0.00000001
 40
0.0
 40
0.0
 40
0.0
 40
0.0
 40
0.0138312418648061
 40
0.270602413150913
 40
0.526708206103665
 40
0.6972160476159383
 40
0.8672490664778942
 40
0.9787292724190042
 40
1.0
 40
1.0
 40
1.0
 40
1.0
 10
91.45008141167587
 20
308.093788108482
 30
0.0
 10
91.42297108775705
 20
308.1141897021797
 30
0.0
 10
90.89256903525578
 20
308.5133382776057
 30
0.0
 10
89.74245698374989
 20
309.286937495559
 30
0.0
 10
87.89773439735934
 20
310.2112820301629
 30
0.0
 10
85.98888773438573
 20
310.8929597366496
 30
0.0
 10
84.34556713883043
 20
311.2731788010924
 30
0.0
 10
83.16603909672182
 20
311.4565355409183
 30
0.0
 10
82.62818743148858
 20
311.4830364320879
 30
0.0
 10
82.54200727481
 20
311.4872826789637
 30
0.0
  0
SPLINE
  5
2C6
330
1F
100
AcDbEntity
  8
0
  6
Continuous
 62
     8
370
    25
100
AcDbSpline
210
0.0
220
0.0
230
1.0
 70
     8
 71
     3
 72
    15
 73
    11
 74
     0
 42
0.00000001
 43
0.00000001
 40
0.0
 40
0.0
 40
0.0
 40
0.0
 40
0.0803957008704469
 40
0.1766826074584142
 40
0.2039242566746063
 40
0.3578392287669016
 40
0.5121620453356812
 40
0.7318246702636556
 40
0.9516810719380088
 40
1.0
 40
1.0
 40
1.0
 40
1.0
 10
78.63549873908566
 20
311.3376872711662
 30
0.0
 10
78.1564716599281
 20
311.2552243035088
 30
0.0
 10
77.10373186821795
 20
311.0739985415997
 30
0.0
 10
76.02731293770093
 20
310.7397061383184
 30
0.0
 10
74.65690572131838
 20
310.2452390567594
 30
0.0
 10
73.17482260575876
 20
309.557695972907
 30
0.0
 10
71.26662630685973
 20
308.3676134737586
 30
0.0
 10
69.57781445926426
 20
306.9790493391989
 30
0.0
 10
68.55342746744874
 20
305.9061732468331
 30
0.0
 10
68.10584196155806
 20
305.3934741568603
 30
0.0
 10
68.02519751196611
 20
305.3010977609025
 30
0.0
  0
SPLINE
  5
2C7
330
1F
100
AcDbEntity
  8
0
  6
Continuous
 62
     8
370
    25
100
AcDbSpline
210
0.0
220
0.0
230
1.0
 70
     8
 71
     3
 72
    11
 73
     7
 74
     0
 42
0.00000001
 43
0.00000001
 40
0.0
 40
0.0
 40
0.0
 40
0.0
 40
0.2384242343747379
 40
0.5631992810121932
 40
0.8749383079173592
 40
1.0
 40
1.0
 40
1.0
 40
1.0
 10
89.11395129953893
 20
282.1685249542729
 30
0.0
 10
89.5286901660444
 20
282.4429217023997
 30
0.0
 10
90.50837510468433
 20
283.0910942829361
 30
0.0
 10
91.99555059911076
 20
284.4898996986433
 30
0.0
 10
93.25978453039626
 20
285.8726469771999
 30
0.0
 10
93.88440482826415
 20
286.9475032445569
 30
0.0
 10
94.0632416936007
 20
287.2552484878632
 30
0.0
  0
SPLINE
  5
2C8
330
1F
100
AcDbEntity
  8
0
  6
Continuous
 62
     8
370
    25
100
AcDbSpline
210
0.0
220
0.0
230
1.0
 70
     8
 71
     3
 72
    15
 73
    11
 74
     0
 42
0.00000001
 43
0.00000001
 40
0.0
 40
0.0
 40
0.0
 40
0.0
 40
0.1357132786831099
 40
0.2529213528144549
 40
0.3700165346220408
 40
0.4599338352151804
 40
0.5974791128355396
 40
0.7352205725661257
 40
0.8088261232177734
 40
1.0
 40
1.0
 40
1.0
 40
1.0
 10
95.74555999583872
 20
290.7352311433248
 30
0.0
 10
95.90835292237264
 20
291.2286532216364
 30
0.0
 10
96.2117411214281
 20
292.1482167364674
 30
0.0
 10
96.48886193654359
 20
293.6676150240402
 30
0.0
 10
96.63010141216628
 20
295.0519459610178
 30
0.0
 10
96.65561245228646
 20
296.5518103053
 30
0.0
 10
96.53779451208214
 20
298.1319437987355
 30
0.0
 10
96.27856884810484
 20
299.5635128228936
 30
0.0
 10
95.87550080810954
 20
301.1182654199838
 30
0.0
 10
95.51356822003925
 20
302.0174289065324
 30
0.0
 10
95.25224861275026
 20
302.6666355735701
 30
0.0
  0
SPLINE
  5
2C9
330
1F
100
AcDbEntity
  8
0
  6
Continuous
 62
     8
370
    25
100
AcDbSpline
210
0.0
220
0.0
230
1.0
 70
     8
 71
     3
 72
     9
 73
     5
 74
     0
 42
0.00000001
 43
0.00000001
 40
0.0
 40
0.0
 40
0.0
 40
0.0
 40
0.2699319459935929
 40
1.0
 40
1.0
 40
1.0
 40
1.0
 10
93.4232293579216
 20
305.7908755290188
 30
0.0
 10
93.25704859868165
 20
306.0367006434734
 30
0.0
 10
92.64140913211817
 20
306.9473935722028
 30
0.0
 10
91.95280747989791
 20
307.6100233072727
 30
0.0
 10
91.45008141167587
 20
308.093788108482
 30
0.0
  0
ARC
  5
2CA
330
1F
100
AcDbEntity
  8
0
  6
Continuous
 62
     8
370
    25
100
AcDbCircle
 10
81.2139512995
 20
296.0415063896
 30
0.0
 40
16.11469077681543
100
AcDbArc
 50
144.927984031
 51
240.6439119643
  0
ARC
  5
2CB
330
1F
100
AcDbEntity
  8
0
  6
Continuous
 62
     8
370
    25
100
AcDbCircle
 10
90.9830236636
 20
276.3079486398
 30
0.0
 40
6.027077813605527
100
AcDbArc
 50
69.4462127364
 51
108.0660123474
  0
LINE
  5
2CC
330
1F
100
AcDbEntity
  8
0
  6
Continuous
 62
     8
370
    25
100
AcDbLine
 10
106.5139512995
 20
363.5415063896
 30
0.0
 11
55.9139512995
 21
363.5415063896
 31
0.0
  0
LINE
  5
2CD
330
1F
100
AcDbEntity
  8
0
  6
Continuous
 62
     8
370
    25
100
AcDbLine
 10
106.2317317636
 20
359.9049485496
 30
0.0
 11
56.1961708355
 21
359.9049485496
 31
0.0
  0
LINE
  5
2CE
330
1F
100
AcDbEntity
  8
0
  6
Continuous
 62
     8
370
    25
100
AcDbLine
 10
55.9139512995
 20
360.3550281754
 30
0.0
 11
106.5139512995
 21
360.3550281754
 31
0.0
  0
LINE
  5
2CF
330
1F
100
AcDbEntity
  8
0
  6
Continuous
 62
     8
370
    25
100
AcDbLine
 10
64.0850731557
 20
356.0877377495
 30
0.0
 11
98.3428294433
 21
356.0877377495
 31
0.0
  0
SPLINE
  5
2D0
330
1F
100
AcDbEntity
  8
0
  6
Continuous
 62
     8
370
    25
100
AcDbSpline
210
0.0
220
0.0
230
1.0
 70
     8
 71
     3
 72
    10
 73
     6
 74
     0
 42
0.00000001
 43
0.00000001
 40
0.0
 40
0.0
 40
0.0
 40
0.0
 40
0.0002450181715046
 40
0.8869518243570769
 40
1.0
 40
1.0
 40
1.0
 40
1.0
 10
65.19140051852537
 20
354.5869546137771
 30
0.0
 10
65.19139611742575
 20
354.5869687231134
 30
0.0
 10
65.17546438746781
 20
354.638043716998
 30
0.0
 10
65.21236758051967
 20
354.5421017889082
 30
0.0
 10
65.24182198193834
 20
354.4275766192291
 30
0.0
 10
65.24515256433658
 20
354.4146265847379
 30
0.0
  0
LINE
  5
2D1
330
1F
100
AcDbEntity
  8
0
  6
Continuous
 62
     8
370
    25
100
AcDbLine
 10
97.1827500347
 20
354.4146265847
 30
0.0
 11
97.2365025156
 21
354.5869560087
 31
0.0
  0
SPLINE
  5
2D2
330
1F
100
AcDbEntity
  8
0
  6
Continuous
 62
     8
370
    25
100
AcDbSpline
210
0.0
220
0.0
230
1.0
 70
     8
 71
     3
 72
    15
 73
    11
 74
     0
 42
0.00000001
 43
0.00000001
 40
0.0
 40
0.0
 40
0.0
 40
0.0
 40
0.0624115434458107
 40
0.1698010418150066
 40
0.2806314019261877
 40
0.3473111430067065
 40
0.5030505440632206
 40
0.6630141744786833
 40
0.8305089040856821
 40
1.0
 40
1.0
 40
1.0
 40
1.0
 10
104.5908700260141
 20
311.5484642809805
 30
0.0
 10
104.5852508076076
 20
311.5454859072324
 30
0.0
 10
104.5699627841601
 20
311.5373827433395
 30
0.0
 10
104.3341874258296
 20
311.4124935110246
 30
0.0
 10
103.9228812585373
 20
311.1953330798227
 30
0.0
 10
103.2916093047798
 20
310.8635705662802
 30
0.0
 10
102.3867835640829
 20
310.3908153549738
 30
0.0
 10
101.0190191557164
 20
309.6867107134334
 30
0.0
 10
99.45347205427913
 20
308.8940389732151
 30
0.0
 10
98.29221939803958
 20
308.3281962958457
 30
0.0
 10
97.7081533322489
 20
308.0435988788652
 30
0.0
  0
LINE
  5
2D3
330
1F
100
AcDbEntity
  8
0
  6
Continuous
 62
     8
370
    25
100
AcDbLine
 10
93.09904957
 20
281.9513608465
 30
0.0
 11
93.09904957
 21
280.2904637084
 31
0.0
  0
LINE
  5
2D4
330
1F
100
AcDbEntity
  8
0
  6
Continuous
 62
     8
370
    25
100
AcDbLine
 10
67.8938683962
 20
309.8850919587
 30
0.0
 11
68.1426808982
 21
309.8850919587
 31
0.0
  0
SPLINE
  5
2D5
330
1F
100
AcDbEntity
  8
0
  6
Continuous
 62
     8
370
    25
100
AcDbSpline
210
0.0
220
0.0
230
1.0
 70
     8
 71
     3
 72
    15
 73
    11
 74
     0
 42
0.00000001
 43
0.00000001
 40
0.0
 40
0.0
 40
0.0
 40
0.0
 40
0.1644199879401093
 40
0.3304593616963783
 40
0.4870741887796826
 40
0.6471808244852008
 40
0.7534881094079755
 40
0.8622470515298735
 40
0.9365098595842815
 40
1.0
 40
1.0
 40
1.0
 40
1.0
 10
90.79864793657997
 20
315.9399357521579
 30
0.0
 10
91.13720138456601
 20
316.4124330707263
 30
0.0
 10
91.81764272094617
 20
317.3620813723322
 30
0.0
 10
92.71870472103264
 20
318.6674918412263
 30
0.0
 10
93.51637940696189
 20
319.8412167970766
 30
0.0
 10
94.09595966734724
 20
320.7063726141389
 30
0.0
 10
94.4912700138991
 20
321.3005758046009
 30
0.0
 10
94.68830637899487
 20
321.5980023969464
 30
0.0
 10
94.81052744969217
 20
321.782838665718
 30
0.0
 10
94.77460006636873
 20
321.7285203371046
 30
0.0
 10
94.75804118587064
 20
321.7034850957604
 30
0.0
  0
LINE
  5
2D6
330
1F
100
AcDbEntity
  8
0
  6
Continuous
 62
     8
370
    25
100
AcDbLine
 10
67.5456936089
 20
338.314621599
 30
0.0
 11
67.2365382311
 21
338.314621599
 31
0.0
  0
LINE
  5
2D7
330
1F
100
AcDbEntity
  8
0
  6
Continuous
 62
     8
370
    25
100
AcDbLine
 10
95.191364368
 20
338.314621599
 30
0.0
 11
94.8822089902
 21
338.314621599
 31
0.0
  0
ARC
  5
2D8
330
1F
100
AcDbEntity
  8
0
  6
Continuous
 62
     8
370
    25
100
AcDbCircle
 10
89.100070486
 20
275.6155485736
 30
0.0
 40
5.860672405015065
100
AcDbArc
 50
74.7523207299
 51
89.864296668
  0
LINE
  5
2D9
330
1F
100
AcDbEntity
  8
0
  6
Continuous
 62
     8
370
    25
100
AcDbLine
 10
89.1139512995
 20
280.8584668423
 30
0.0
 11
90.641381241
 21
281.2699134535
 31
0.0
  0
ARC
  5
2DA
330
1F
100
AcDbEntity
  8
0
  6
Continuous
 62
     8
370
    25
100
AcDbCircle
 10
81.2139512995
 20
296.0415063896
 30
0.0
 40
16.76373439777599
100
AcDbArc
 50
149.2515511975
 51
241.8841832281
  0
LINE
  5
2DB
330
1F
100
AcDbEntity
  8
0
  6
Continuous
 62
     8
370
    25
100
AcDbLine
 10
66.8068584307
 20
304.6122978367
 30
0.0
 11
66.5326184591
 21
304.6122978367
 31
0.0
  0
LINE
  5
2DC
330
1F
100
AcDbEntity
  8
0
  6
Continuous
 62
     8
370
    25
100
AcDbLine
 10
99.2250582985
 20
351.7915063896
 30
0.0
 11
98.8231345098
 21
351.7915063896
 31
0.0
  0
LINE
  5
2DD
330
1F
100
AcDbEntity
  8
0
  6
Continuous
 62
     8
370
    25
100
AcDbLine
 10
98.8231345098
 20
341.0415063896
 30
0.0
 11
99.2250582985
 21
341.0415063896
 31
0.0
  0
LINE
  5
2DE
330
1F
100
AcDbEntity
  8
0
  6
Continuous
 62
     8
370
    25
100
AcDbLine
 10
63.6047680893
 20
351.7915063896
 30
0.0
 11
63.2028443006
 21
351.7915063896
 31
0.0
  0
LINE
  5
2DF
330
1F
100
AcDbEntity
  8
0
  6
Continuous
 62
     8
370
    25
100
AcDbLine
 10
63.2028443006
 20
341.0415063896
 30
0.0
 11
63.6047680893
 21
341.0415063896
 31
0.0
  0
LINE
  5
2E0
330
1F
100
AcDbEntity
  8
0
  6
Continuous
 62
     8
370
    25
100
AcDbLine
 10
64.5660798706
 20
353.4202896335
 30
0.0
 11
64.4756771549
 21
353.4750034469
 31
0.0
  0
SPLINE
  5
2E1
330
1F
100
AcDbEntity
  8
0
  6
Continuous
 62
     8
370
    25
100
AcDbSpline
210
0.0
220
0.0
230
1.0
 70
    24
 71
     3
 72
     9
 73
     5
 74
     0
 42
0.00000001
 43
0.00000001
 40
0.0
 40
0.0
 40
0.0
 40
0.0
 40
0.0011254209461464
 40
1.0
 40
1.0
 40
1.0
 40
1.0
 10
97.95234028372198
 20
353.4750729504167
 30
0.0
 10
97.95237435541186
 20
353.4750935713911
 30
0.0
 10
97.9826489739904
 20
353.4934164704095
 30
0.0
 10
97.9222018369977
 20
353.4568324657504
 30
0.0
 10
97.86182272847911
 20
353.4202896334963
 30
0.0
  0
ENDSEC
  0
SECTION
  2
OBJECTS
  0
DICTIONARY
  5
C
330
0
100
AcDbDictionary
281
     1
  3
ACAD_GROUP
350
D
  3
ACAD_LAYOUT
350
1A
  3
ACAD_MLINESTYLE
350
17
  3
ACAD_PLOTSETTINGS
350
19
  3
ACAD_PLOTSTYLENAME
350
E
  3
ACAD_SCALELIST
350
47
  3
DWGPROPS
350
2E2
  0
DICTIONARY
  5
D
102
{ACAD_REACTORS
330
C
102
}
330
C
100
AcDbDictionary
281
     1
  0
DICTIONARY
  5
1A
102
{ACAD_REACTORS
330
C
102
}
330
C
100
AcDbDictionary
281
     1
  3
Layout1
350
1E
  3
Layout2
350
26
  3
Model
350
22
  0
DICTIONARY
  5
17
102
{ACAD_REACTORS
330
C
102
}
330
C
100
AcDbDictionary
281
     1
  3
Standard
350
18
  0
DICTIONARY
  5
19
102
{ACAD_REACTORS
330
C
102
}
330
C
100
AcDbDictionary
281
     1
  0
ACDBDICTIONARYWDFLT
  5
E
102
{ACAD_REACTORS
330
C
102
}
330
C
100
AcDbDictionary
281
     1
  3
Normal
350
F
100
AcDbDictionaryWithDefault
340
F
  0
DICTIONARY
  5
47
102
{ACAD_REACTORS
330
C
102
}
330
C
100
AcDbDictionary
281
     1
  3
A0
350
48
  3
A1
350
49
  3
A2
350
4A
  3
A3
350
4B
  3
A4
350
4C
  3
A5
350
4D
  3
A6
350
4E
  3
A7
350
4F
  3
A8
350
50
  3
A9
350
51
  3
B0
350
52
  3
B1
350
53
  3
B2
350
54
  3
B3
350
55
  3
B4
350
56
  3
B5
350
57
  3
B6
350
58
  3
B7
350
59
  3
B8
350
5A
  3
B9
350
5B
  3
C0
350
5C
  3
C1
350
5D
  3
C2
350
5E
  3
C3
350
5F
  3
C4
350
60
  3
C5
350
61
  3
C6
350
62
  3
C7
350
63
  3
C8
350
64
  3
C9
350
65
  3
D0
350
66
  3
D1
350
67
  3
D2
350
68
  0
XRECORD
  5
2E2
102
{ACAD_REACTORS
330
C
102
}
330
C
100
AcDbXrecord
280
     1
  1
DWGPROPS COOKIE
  2

  3

  4

  6

  7

  8
vishesh
  9

300
=
301
=
302
=
303
=
304
=
305
=
306
=
307
=
308
=
309
=
 40
0.0
 41
2460383.493574537
 42
2460383.493574965
  1

 90
        0
  0
LAYOUT
  5
1E
102
{ACAD_REACTORS
330
1A
102
}
330
1A
100
AcDbPlotSettings
  1

  2
none_device
  4

  6

 40
0.0
 41
0.0
 42
0.0
 43
0.0
 44
0.0
 45
0.0
 46
0.0
 47
0.0
 48
0.0
 49
0.0
140
0.0
141
0.0
142
1.0
143
1.0
 70
   688
 72
     1
 73
     0
 74
     5
  7

 75
    16
147
1.0
148
0.0
149
0.0
100
AcDbLayout
  1
Layout1
 70
     1
 71
     1
 10
0.0
 20
0.0
 11
420.0
 21
297.0
 12
0.0
 22
0.0
 32
0.0
 14
1.0000000000E+20
 24
1.0000000000E+20
 34
1.0000000000E+20
 15
-1.0000000000E+20
 25
-1.0000000000E+20
 35
-1.0000000000E+20
146
0.0
 13
0.0
 23
0.0
 33
0.0
 16
1.0
 26
0.0
 36
0.0
 17
0.0
 27
1.0
 37
0.0
 76
     0
330
1B
  0
LAYOUT
  5
26
102
{ACAD_REACTORS
330
1A
102
}
330
1A
100
AcDbPlotSettings
  1

  2
none_device
  4

  6

 40
0.0
 41
0.0
 42
0.0
 43
0.0
 44
0.0
 45
0.0
 46
0.0
 47
0.0
 48
0.0
 49
0.0
140
0.0
141
0.0
142
1.0
143
1.0
 70
   688
 72
     1
 73
     0
 74
     5
  7

 75
    16
147
1.0
148
0.0
149
0.0
100
AcDbLayout
  1
Layout2
 70
     1
 71
     2
 10
0.0
 20
0.0
 11
0.0
 21
0.0
 12
0.0
 22
0.0
 32
0.0
 14
0.0
 24
0.0
 34
0.0
 15
0.0
 25
0.0
 35
0.0
146
0.0
 13
0.0
 23
0.0
 33
0.0
 16
1.0
 26
0.0
 36
0.0
 17
0.0
 27
1.0
 37
0.0
 76
     0
330
23
  0
LAYOUT
  5
22
102
{ACAD_REACTORS
330
1A
102
}
330
1A
100
AcDbPlotSettings
  1

  2
none_device
  4
Letter_(8.50_x_11.00_Inches)
  6

 40
6.35
 41
6.35
 42
6.35000508
 43
6.35000508
 44
215.9
 45
279.4
 46
0.0
 47
0.0
 48
0.0
 49
0.0
140
0.0
141
0.0
142
1.0
143
1.0
 70
  1712
 72
     1
 73
     0
 74
     0
  7

 75
     0
147
1.0
148
0.0
149
0.0
100
AcDbLayout
  1
Model
 70
     1
 71
     0
 10
0.0
 20
0.0
 11
279.4
 21
215.9
 12
0.0
 22
0.0
 32
0.0
 14
0.0
 24
0.0
 34
0.0
 15
279.4
 25
215.9
 35
0.0
146
0.0
 13
0.0
 23
0.0
 33
0.0
 16
1.0
 26
0.0
 36
0.0
 17
0.0
 27
1.0
 37
0.0
 76
     0
330
1F
331
29
  0
MLINESTYLE
  5
18
102
{ACAD_REACTORS
330
17
102
}
330
17
100
AcDbMlineStyle
  2
Standard
 70
     0
  3

 62
   256
 51
90.0
 52
90.0
 71
     2
 49
0.5
 62
   256
  6
BYLAYER
 49
-0.5
 62
   256
  6
BYLAYER
  0
ACDBPLACEHOLDER
  5
F
102
{ACAD_REACTORS
330
E
102
}
330
E
  0
SCALE
  5
48
102
{ACAD_REACTORS
330
47
102
}
330
47
100
AcDbScale
 70
     0
300
1:1
140
1.0
141
1.0
290
     1
  0
SCALE
  5
49
102
{ACAD_REACTORS
330
47
102
}
330
47
100
AcDbScale
 70
     0
300
1:2
140
1.0
141
2.0
290
     0
  0
SCALE
  5
4A
102
{ACAD_REACTORS
330
47
102
}
330
47
100
AcDbScale
 70
     0
300
1:4
140
1.0
141
4.0
290
     0
  0
SCALE
  5
4B
102
{ACAD_REACTORS
330
47
102
}
330
47
100
AcDbScale
 70
     0
300
1:5
140
1.0
141
5.0
290
     0
  0
SCALE
  5
4C
102
{ACAD_REACTORS
330
47
102
}
330
47
100
AcDbScale
 70
     0
300
1:8
140
1.0
141
8.0
290
     0
  0
SCALE
  5
4D
102
{ACAD_REACTORS
330
47
102
}
330
47
100
AcDbScale
 70
     0
300
1:10
140
1.0
141
10.0
290
     0
  0
SCALE
  5
4E
102
{ACAD_REACTORS
330
47
102
}
330
47
100
AcDbScale
 70
     0
300
1:16
140
1.0
141
16.0
290
     0
  0
SCALE
  5
4F
102
{ACAD_REACTORS
330
47
102
}
330
47
100
AcDbScale
 70
     0
300
1:20
140
1.0
141
20.0
290
     0
  0
SCALE
  5
50
102
{ACAD_REACTORS
330
47
102
}
330
47
100
AcDbScale
 70
     0
300
1:30
140
1.0
141
30.0
290
     0
  0
SCALE
  5
51
102
{ACAD_REACTORS
330
47
102
}
330
47
100
AcDbScale
 70
     0
300
1:40
140
1.0
141
40.0
290
     0
  0
SCALE
  5
52
102
{ACAD_REACTORS
330
47
102
}
330
47
100
AcDbScale
 70
     0
300
1:50
140
1.0
141
50.0
290
     0
  0
SCALE
  5
53
102
{ACAD_REACTORS
330
47
102
}
330
47
100
AcDbScale
 70
     0
300
1:100
140
1.0
141
100.0
290
     0
  0
SCALE
  5
54
102
{ACAD_REACTORS
330
47
102
}
330
47
100
AcDbScale
 70
     0
300
2:1
140
2.0
141
1.0
290
     0
  0
SCALE
  5
55
102
{ACAD_REACTORS
330
47
102
}
330
47
100
AcDbScale
 70
     0
300
4:1
140
4.0
141
1.0
290
     0
  0
SCALE
  5
56
102
{ACAD_REACTORS
330
47
102
}
330
47
100
AcDbScale
 70
     0
300
8:1
140
8.0
141
1.0
290
     0
  0
SCALE
  5
57
102
{ACAD_REACTORS
330
47
102
}
330
47
100
AcDbScale
 70
     0
300
10:1
140
10.0
141
1.0
290
     0
  0
SCALE
  5
58
102
{ACAD_REACTORS
330
47
102
}
330
47
100
AcDbScale
 70
     0
300
100:1
140
100.0
141
1.0
290
     0
  0
SCALE
  5
59
102
{ACAD_REACTORS
330
47
102
}
330
47
100
AcDbScale
 70
     0
300
1/128" = 1'-0"
140
0.0078125
141
12.0
290
     0
  0
SCALE
  5
5A
102
{ACAD_REACTORS
330
47
102
}
330
47
100
AcDbScale
 70
     0
300
1/64" = 1'-0"
140
0.015625
141
12.0
290
     0
  0
SCALE
  5
5B
102
{ACAD_REACTORS
330
47
102
}
330
47
100
AcDbScale
 70
     0
300
1/32" = 1'-0"
140
0.03125
141
12.0
290
     0
  0
SCALE
  5
5C
102
{ACAD_REACTORS
330
47
102
}
330
47
100
AcDbScale
 70
     0
300
1/16" = 1'-0"
140
0.0625
141
12.0
290
     0
  0
SCALE
  5
5D
102
{ACAD_REACTORS
330
47
102
}
330
47
100
AcDbScale
 70
     0
300
3/32" = 1'-0"
140
0.09375
141
12.0
290
     0
  0
SCALE
  5
5E
102
{ACAD_REACTORS
330
47
102
}
330
47
100
AcDbScale
 70
     0
300
1/8" = 1'-0"
140
0.125
141
12.0
290
     0
  0
SCALE
  5
5F
102
{ACAD_REACTORS
330
47
102
}
330
47
100
AcDbScale
 70
     0
300
3/16" = 1'-0"
140
0.1875
141
12.0
290
     0
  0
SCALE
  5
60
102
{ACAD_REACTORS
330
47
102
}
330
47
100
AcDbScale
 70
     0
300
1/4" = 1'-0"
140
0.25
141
12.0
290
     0
  0
SCALE
  5
61
102
{ACAD_REACTORS
330
47
102
}
330
47
100
AcDbScale
 70
     0
300
3/8" = 1'-0"
140
0.375
141
12.0
290
     0
  0
SCALE
  5
62
102
{ACAD_REACTORS
330
47
102
}
330
47
100
AcDbScale
 70
     0
300
1/2" = 1'-0"
140
0.5
141
12.0
290
     0
  0
SCALE
  5
63
102
{ACAD_REACTORS
330
47
102
}
330
47
100
AcDbScale
 70
     0
300
3/4" = 1'-0"
140
0.75
141
12.0
290
     0
  0
SCALE
  5
64
102
{ACAD_REACTORS
330
47
102
}
330
47
100
AcDbScale
 70
     0
300
1" = 1'-0"
140
1.0
141
12.0
290
     0
  0
SCALE
  5
65
102
{ACAD_REACTORS
330
47
102
}
330
47
100
AcDbScale
 70
     0
300
1-1/2" = 1'-0"
140
1.5
141
12.0
290
     0
  0
SCALE
  5
66
102
{ACAD_REACTORS
330
47
102
}
330
47
100
AcDbScale
 70
     0
300
3" = 1'-0"
140
3.0
141
12.0
290
     0
  0
SCALE
  5
67
102
{ACAD_REACTORS
330
47
102
}
330
47
100
AcDbScale
 70
     0
300
6" = 1'-0"
140
6.0
141
12.0
290
     0
  0
SCALE
  5
68
102
{ACAD_REACTORS
330
47
102
}
330
47
100
AcDbScale
 70
     0
300
1'-0" = 1'-0"
140
12.0
141
12.0
290
     0
  0
ENDSEC
  0
EOF
