  0
SECTION
  2
HEADER
  9
$ACADVER
  1
AC1015
  9
$ACADMAINTVER
 70
     6
  9
$DWGCODEPAGE
  3
ANSI_1252
  9
$INSBASE
 10
0.0
 20
0.0
 30
0.0
  9
$EXTMIN
 10
0.0
 20
0.0
 30
0.0
  9
$EXTMAX
 10
279.4
 20
215.9
 30
0.0
  9
$LIMMIN
 10
0.0
 20
0.0
  9
$LIMMAX
 10
279.4
 20
215.9
  9
$ORTHOMODE
 70
     0
  9
$REGENMODE
 70
     1
  9
$FILLMODE
 70
     1
  9
$QTEXTMODE
 70
     0
  9
$MIRRTEXT
 70
     1
  9
$LTSCALE
 40
1.0
  9
$ATTMODE
 70
     1
  9
$TEXTSIZE
 40
3.5
  9
$TRACEWID
 40
1.0
  9
$TEXTSTYLE
  7
Standard
  9
$CLAYER
  8
0
  9
$CELTYPE
  6
ByLayer
  9
$CECOLOR
 62
   256
  9
$CELTSCALE
 40
1.0
  9
$DISPSILH
 70
     0
  9
$DIMSCALE
 40
1.0
  9
$DIMASZ
 40
3.556
  9
$DIMEXO
 40
1.0
  9
$DIMDLI
 40
3.75
  9
$DIMRND
 40
0.0
  9
$DIMDLE
 40
0.0
  9
$DIMEXE
 40
1.0
  9
$DIMTP
 40
0.0
  9
$DIMTM
 40
0.0
  9
$DIMTXT
 40
3.5
  9
$DIMCEN
 40
2.5
  9
$DIMTSZ
 40
0.0
  9
$DIMTOL
 70
     0
  9
$DIMLIM
 70
     0
  9
$DIMTIH
 70
     1
  9
$DIMTOH
 70
     1
  9
$DIMSE1
 70
     0
  9
$DIMSE2
 70
     0
  9
$DIMTAD
 70
     1
  9
$DIMZIN
 70
     1
  9
$DIMBLK
  1

  9
$DIMASO
 70
     1
  9
$DIMSHO
 70
     1
  9
$DIMPOST
  1

  9
$DIMAPOST
  1

  9
$DIMALT
 70
     0
  9
$DIMALTD
 70
     3
  9
$DIMALTF
 40
0.0393700787
  9
$DIMLFAC
 40
10.0
  9
$DIMTOFL
 70
     1
  9
$DIMTVP
 40
0.0
  9
$DIMTIX
 70
     0
  9
$DIMSOXD
 70
     0
  9
$DIMSAH
 70
     0
  9
$DIMBLK1
  1

  9
$DIMBLK2
  1

  9
$DIMSTYLE
  2
ISO-25
  9
$DIMCLRD
 70
     0
  9
$DIMCLRE
 70
     0
  9
$DIMCLRT
 70
     0
  9
$DIMTFAC
 40
1.0
  9
$DIMGAP
 40
1.524
  9
$DIMJUST
 70
     0
  9
$DIMSD1
 70
     0
  9
$DIMSD2
 70
     0
  9
$DIMTOLJ
 70
     0
  9
$DIMTZIN
 70
     1
  9
$DIMALTZ
 70
     0
  9
$DIMALTTZ
 70
     0
  9
$DIMUPT
 70
     0
  9
$DIMDEC
 70
     2
  9
$DIMTDEC
 70
     2
  9
$DIMALTU
 70
     2
  9
$DIMALTTD
 70
     3
  9
$DIMTXSTY
  7
Standard
  9
$DIMAUNIT
 70
     0
  9
$DIMADEC
 70
     2
  9
$DIMALTRND
 40
0.0
  9
$DIMAZIN
 70
     0
  9
$DIMDSEP
 70
    44
  9
$DIMATFIT
 70
     3
  9
$DIMFRAC
 70
     0
  9
$DIMLDRBLK
  1

  9
$DIMLUNIT
 70
     2
  9
$DIMLWD
 70
    -2
  9
$DIMLWE
 70
    -2
  9
$DIMTMOVE
 70
     0
  9
$LUNITS
 70
     2
  9
$LUPREC
 70
     2
  9
$SKETCHINC
 40
1.0
  9
$FILLETRAD
 40
10.0
  9
$AUNITS
 70
     0
  9
$AUPREC
 70
     2
  9
$MENU
  1
.
  9
$ELEVATION
 40
0.0
  9
$PELEVATION
 40
0.0
  9
$THICKNESS
 40
0.0
  9
$LIMCHECK
 70
     0
  9
$CHAMFERA
 40
0.0
  9
$CHAMFERB
 40
0.0
  9
$CHAMFERC
 40
0.0
  9
$CHAMFERD
 40
0.0
  9
$SKPOLY
 70
     0
  9
$TDCREATE
 40
2460383.723570104
  9
$TDUCREATE
 40
2460383.494403438
  9
$TDUPDATE
 40
2460383.723570498
  9
$TDUUPDATE
 40
2460383.494403831
  9
$TDINDWG
 40
0.0000000116
  9
$TDUSRTIMER
 40
0.0000000116
  9
$USRTIMER
 70
     1
  9
$ANGBASE
 50
0.0
  9
$ANGDIR
 70
     0
  9
$PDMODE
 70
     0
  9
$PDSIZE
 40
-1.0
  9
$PLINEWID
 40
0.0
  9
$SPLFRAME
 70
     0
  9
$SPLINETYPE
 70
     6
  9
$SPLINESEGS
 70
     8
  9
$HANDSEED
  5
2CF
  9
$SURFTAB1
 70
     6
  9
$SURFTAB2
 70
     6
  9
$SURFTYPE
 70
     6
  9
$SURFU
 70
     6
  9
$SURFV
 70
     6
  9
$UCSBASE
  2

  9
$UCSNAME
  2

  9
$UCSORG
 10
0.0
 20
0.0
 30
0.0
  9
$UCSXDIR
 10
1.0
 20
0.0
 30
0.0
  9
$UCSYDIR
 10
0.0
 20
1.0
 30
0.0
  9
$UCSORTHOREF
  2

  9
$UCSORTHOVIEW
 70
     0
  9
$UCSORGTOP
 10
0.0
 20
0.0
 30
0.0
  9
$UCSORGBOTTOM
 10
0.0
 20
0.0
 30
0.0
  9
$UCSORGLEFT
 10
0.0
 20
0.0
 30
0.0
  9
$UCSORGRIGHT
 10
0.0
 20
0.0
 30
0.0
  9
$UCSORGFRONT
 10
0.0
 20
0.0
 30
0.0
  9
$UCSORGBACK
 10
0.0
 20
0.0
 30
0.0
  9
$PUCSBASE
  2

  9
$PUCSNAME
  2

  9
$PUCSORG
 10
0.0
 20
0.0
 30
0.0
  9
$PUCSXDIR
 10
1.0
 20
0.0
 30
0.0
  9
$PUCSYDIR
 10
0.0
 20
1.0
 30
0.0
  9
$PUCSORTHOREF
  2

  9
$PUCSORTHOVIEW
 70
     0
  9
$PUCSORGTOP
 10
0.0
 20
0.0
 30
0.0
  9
$PUCSORGBOTTOM
 10
0.0
 20
0.0
 30
0.0
  9
$PUCSORGLEFT
 10
0.0
 20
0.0
 30
0.0
  9
$PUCSORGRIGHT
 10
0.0
 20
0.0
 30
0.0
  9
$PUCSORGFRONT
 10
0.0
 20
0.0
 30
0.0
  9
$PUCSORGBACK
 10
0.0
 20
0.0
 30
0.0
  9
$USERI1
 70
     0
  9
$USERI2
 70
     0
  9
$USERI3
 70
     0
  9
$USERI4
 70
     0
  9
$USERI5
 70
     0
  9
$USERR1
 40
0.0
  9
$USERR2
 40
0.0
  9
$USERR3
 40
0.0
  9
$USERR4
 40
0.0
  9
$USERR5
 40
0.0
  9
$WORLDVIEW
 70
     1
  9
$SHADEDGE
 70
     3
  9
$SHADEDIF
 70
    70
  9
$TILEMODE
 70
     1
  9
$MAXACTVP
 70
    64
  9
$PINSBASE
 10
0.0
 20
0.0
 30
0.0
  9
$PLIMCHECK
 70
     0
  9
$PEXTMIN
 10
1.0000000000E+20
 20
1.0000000000E+20
 30
1.0000000000E+20
  9
$PEXTMAX
 10
-1.0000000000E+20
 20
-1.0000000000E+20
 30
-1.0000000000E+20
  9
$PLIMMIN
 10
0.0
 20
0.0
  9
$PLIMMAX
 10
420.0
 20
297.0
  9
$UNITMODE
 70
     0
  9
$VISRETAIN
 70
     1
  9
$PLINEGEN
 70
     0
  9
$PSLTSCALE
 70
     1
  9
$TREEDEPTH
 70
  3020
  9
$CMLSTYLE
  2
Standard
  9
$CMLJUST
 70
     0
  9
$CMLSCALE
 40
20.0
  9
$PROXYGRAPHICS
 70
     1
  9
$MEASUREMENT
 70
     1
  9
$CELWEIGHT
370
    -1
  9
$ENDCAPS
280
     0
  9
$JOINSTYLE
280
     0
  9
$LWDISPLAY
290
     1
  9
$INSUNITS
 70
     4
  9
$HYPERLINKBASE
  1

  9
$STYLESHEET
  1

  9
$XEDIT
290
     1
  9
$CEPSNTYPE
380
     0
  9
$PSTYLEMODE
290
     1
  9
$FINGERPRINTGUID
  2
{1e304c85-908a-4895-b70a-7d6a87fea768}
  9
$VERSIONGUID
  2
{FAEB1C32-E019-11D5-929B-00C0DF256EC4}
  9
$EXTNAMES
290
     1
  9
$PSVPSCALE
 40
0.0
  9
$OLESTARTUP
290
     0
  0
ENDSEC
  0
SECTION
  2
CLASSES
  0
CLASS
  1
ACDBDICTIONARYWDFLT
  2
AcDbDictionaryWithDefault
  3
ObjectDBX Classes
 90
        0
280
     0
281
     0
  0
CLASS
  1
VISUALSTYLE
  2
AcDbVisualStyle
  3
ObjectDBX Classes
 90
     4095
280
     0
281
     0
  0
CLASS
  1
MATERIAL
  2
AcDbMaterial
  3
ObjectDBX Classes
 90
     1153
280
     0
281
     0
  0
CLASS
  1
SCALE
  2
AcDbScale
  3
ObjectDBX Classes
 90
     1153
280
     0
281
     0
  0
CLASS
  1
TABLESTYLE
  2
AcDbTableStyle
  3
ObjectDBX Classes
 90
     4095
280
     0
281
     0
  0
CLASS
  1
MLEADERSTYLE
  2
AcDbMLeaderStyle
  3
ACDB_MLEADERSTYLE_CLASS
 90
     4095
280
     0
281
     0
  0
CLASS
  1
SUN
  2
AcDbSun
  3
SCENEOE
 90
     1153
280
     0
281
     0
  0
CLASS
  1
ACDBPLACEHOLDER
  2
AcDbPlaceHolder
  3
ObjectDBX Classes
 90
        0
280
     0
281
     0
  0
CLASS
  1
LAYOUT
  2
AcDbLayout
  3
ObjectDBX Classes
 90
        0
280
     0
281
     0
  0
ENDSEC
  0
SECTION
  2
TABLES
  0
TABLE
  2
VPORT
  5
8
330
0
100
AcDbSymbolTable
 70
     1
  0
VPORT
  5
29
330
8
100
AcDbSymbolTableRecord
100
AcDbViewportTableRecord
  2
*Active
 70
     0
 10
0.0
 20
0.0
 11
1.0
 21
1.0
 12
139.7
 22
107.95
 13
0.0
 23
0.0
 14
10.0
 24
10.0
 15
10.0
 25
10.0
 16
0.0
 26
0.0
 36
1.0
 17
0.0
 27
0.0
 37
0.0
 40
215.9
 41
1.2941176471
 42
50.0
 43
0.0
 44
0.0
 50
0.0
 51
0.0
 71
     0
 72
  2000
 73
     1
 74
     3
 75
     0
 76
     0
 77
     0
 78
     0
281
     0
 65
     1
110
0.0
120
0.0
130
0.0
111
1.0
121
0.0
131
0.0
112
0.0
122
1.0
132
0.0
 79
     0
146
0.0
  0
ENDTAB
  0
TABLE
  2
LTYPE
  5
5
330
0
100
AcDbSymbolTable
 70
     6
  0
LTYPE
  5
14
330
5
100
AcDbSymbolTableRecord
100
AcDbLinetypeTableRecord
  2
ByBlock
 70
     0
  3

 72
    65
 73
     0
 40
0.0
  0
LTYPE
  5
15
330
5
100
AcDbSymbolTableRecord
100
AcDbLinetypeTableRecord
  2
ByLayer
 70
     0
  3

 72
    65
 73
     0
 40
0.0
  0
LTYPE
  5
16
330
5
100
AcDbSymbolTableRecord
100
AcDbLinetypeTableRecord
  2
Continuous
 70
     0
  3
Solid line
 72
    65
 73
     0
 40
0.0
  0
LTYPE
  5
6E
330
5
100
AcDbSymbolTableRecord
100
AcDbLinetypeTableRecord
  2
HIDDEN
 70
     0
  3
Hidden __ __ __ __ __ __ __ __ __ __ __ __ __ __
 72
    65
 73
     2
 40
1.905
 49
1.27
 74
     0
 49
-0.635
 74
     0
  0
LTYPE
  5
6F
330
5
100
AcDbSymbolTableRecord
100
AcDbLinetypeTableRecord
  2
PHANTOM
 70
     0
  3
Phantom ______  __  __  ______  __  __  ______
 72
    65
 73
     6
 40
12.7
 49
6.35
 74
     0
 49
-1.27
 74
     0
 49
1.27
 74
     0
 49
-1.27
 74
     0
 49
1.27
 74
     0
 49
-1.27
 74
     0
  0
LTYPE
  5
70
330
5
100
AcDbSymbolTableRecord
100
AcDbLinetypeTableRecord
  2
CENTER
 70
     0
  3
Center ____ _ ____ _ ____ _ ____ _ ____ _ ____
 72
    65
 73
     4
 40
10.16
 49
6.35
 74
     0
 49
-1.27
 74
     0
 49
1.27
 74
     0
 49
-1.27
 74
     0
  0
LTYPE
  5
71
330
5
100
AcDbSymbolTableRecord
100
AcDbLinetypeTableRecord
  2
CENTERX2
 70
     0
  3
Center (2x) ________  __  ________  __  _____
 72
    65
 73
     4
 40
20.32
 49
12.7
 74
     0
 49
-2.54
 74
     0
 49
2.54
 74
     0
 49
-2.54
 74
     0
  0
LTYPE
  5
72
330
5
100
AcDbSymbolTableRecord
100
AcDbLinetypeTableRecord
  2
DOT2
 70
     0
  3
Dot (.5x) ........................................
 72
    65
 73
     2
 40
0.635
 49
0.0
 74
     0
 49
-0.635
 74
     0
  0
ENDTAB
  0
TABLE
  2
LAYER
  5
2
330
0
100
AcDbSymbolTable
 70
     1
  0
LAYER
  5
10
330
2
100
AcDbSymbolTableRecord
100
AcDbLayerTableRecord
  2
0
 70
     0
 62
     7
  6
Continuous
370
    -3
390
F
  0
ENDTAB
  0
TABLE
  2
STYLE
  5
3
330
0
100
AcDbSymbolTable
 70
     1
  0
STYLE
  5
11
330
3
100
AcDbSymbolTableRecord
100
AcDbTextStyleTableRecord
  2
Standard
 70
     0
 40
0.0
 41
1.0
 50
0.0
 71
     0
 42
3.5
  3
txt
  4

  0
ENDTAB
  0
TABLE
  2
VIEW
  5
6
330
0
100
AcDbSymbolTable
 70
     0
  0
ENDTAB
  0
TABLE
  2
UCS
  5
7
330
0
100
AcDbSymbolTable
 70
     0
  0
ENDTAB
  0
TABLE
  2
APPID
  5
9
330
0
100
AcDbSymbolTable
 70
     1
  0
APPID
  5
12
330
9
100
AcDbSymbolTableRecord
100
AcDbRegAppTableRecord
  2
ACAD
 70
     0
  0
ENDTAB
  0
TABLE
  2
DIMSTYLE
  5
A
330
0
100
AcDbSymbolTable
 70
     1
100
AcDbDimStyleTable
  0
DIMSTYLE
105
27
330
A
100
AcDbSymbolTableRecord
100
AcDbDimStyleTableRecord
  2
ISO-25
 70
     0
 41
2.5
 42
0.625
 43
3.75
 44
1.25
 73
     0
 74
     0
 77
     1
 78
     8
140
2.5
141
2.5
143
0.0393700787
147
0.625
171
     3
172
     1
178
     0
271
     2
272
     2
274
     3
278
    44
283
     0
284
     8
340
11
  0
ENDTAB
  0
TABLE
  2
BLOCK_RECORD
  5
1
330
0
100
AcDbSymbolTable
 70
     1
  0
BLOCK_RECORD
  5
1F
330
1
100
AcDbSymbolTableRecord
100
AcDbBlockTableRecord
  2
*Model_Space
340
22
  0
BLOCK_RECORD
  5
1B
330
1
100
AcDbSymbolTableRecord
100
AcDbBlockTableRecord
  2
*Paper_Space
340
1E
  0
BLOCK_RECORD
  5
23
330
1
100
AcDbSymbolTableRecord
100
AcDbBlockTableRecord
  2
*Paper_Space0
340
26
  0
ENDTAB
  0
ENDSEC
  0
SECTION
  2
BLOCKS
  0
BLOCK
  5
20
330
1F
100
AcDbEntity
  8
0
100
AcDbBlockBegin
  2
*Model_Space
 70
     0
 10
0.0
 20
0.0
 30
0.0
  3
*Model_Space
  1

  0
ENDBLK
  5
21
330
1F
100
AcDbEntity
  8
0
100
AcDbBlockEnd
  0
BLOCK
  5
1C
330
1B
100
AcDbEntity
 67
     1
  8
0
100
AcDbBlockBegin
  2
*Paper_Space
 70
     0
 10
0.0
 20
0.0
 30
0.0
  3
*Paper_Space
  1

  0
ENDBLK
  5
1D
330
1B
100
AcDbEntity
 67
     1
  8
0
100
AcDbBlockEnd
  0
BLOCK
  5
24
330
23
100
AcDbEntity
  8
0
100
AcDbBlockBegin
  2
*Paper_Space0
 70
     0
 10
0.0
 20
0.0
 30
0.0
  3
*Paper_Space0
  1

  0
ENDBLK
  5
25
330
23
100
AcDbEntity
  8
0
100
AcDbBlockEnd
  0
ENDSEC
  0
SECTION
  2
ENTITIES
  0
SPLINE
  5
73
330
1F
100
AcDbEntity
  8
0
  6
Continuous
 62
     7
370
    25
100
AcDbSpline
210
0.0
220
0.0
230
1.0
 70
    24
 71
     3
 72
    42
 73
    38
 74
     0
 42
0.00000001
 43
0.00000001
 40
0.0
 40
0.0
 40
0.0
 40
0.0
 40
0.0363363056647346
 40
0.0700663818991959
 40
0.1011869834431246
 40
0.1296983084857965
 40
0.1555995292997784
 40
0.1788914818336817
 40
0.2033950804936153
 40
0.2241497481991341
 40
0.2433917943779698
 40
0.2628271226352976
 40
0.2824550201964903
 40
0.3155889784197899
 40
0.3492525901946028
 40
0.3831114610834463
 40
0.4169702478433994
 40
0.4508300251046471
 40
0.484689005610961
 40
0.5185478755814696
 40
0.5524069734788681
 40
0.5862667107600497
 40
0.6197276349499328
 40
0.6518169388009228
 40
0.6824903494540905
 40
0.7002184695759057
 40
0.7178461255792976
 40
0.7388323184432172
 40
0.7639597870287226
 40
0.793227005409719
 40
0.8207822253893932
 40
0.8512116994979206
 40
0.8845150179256319
 40
0.9113835132553771
 40
0.9398696532089054
 40
0.96997414665917
 40
0.9999999999999999
 40
0.9999999999999999
 40
0.9999999999999999
 40
0.9999999999999999
 10
89.1139512995385
 20
153.3082302152907
 30
0.0
 10
89.1139512995385
 20
153.5501948135043
 30
0.0
 10
89.1139512995385
 20
154.0167690464752
 30
0.0
 10
89.1139512995385
 20
155.6642476349556
 30
0.0
 10
89.1139512995385
 20
157.767924168054
 30
0.0
 10
89.1139512995385
 20
160.2232182492963
 30
0.0
 10
89.1139512995385
 20
162.8673951555076
 30
0.0
 10
89.1139512995385
 20
165.714709309099
 30
0.0
 10
89.1139512995385
 20
168.6550087601937
 30
0.0
 10
89.1139512995385
 20
171.6677143676916
 30
0.0
 10
89.1139512995385
 20
174.6346859339363
 30
0.0
 10
89.1139512995385
 20
177.7186135825708
 30
0.0
 10
89.1139512995385
 20
181.7392142619839
 30
0.0
 10
89.1139512995385
 20
186.8561232400567
 30
0.0
 10
89.1139512995385
 20
193.1986082942621
 30
0.0
 10
89.11395129953848
 20
199.9152039985912
 30
0.0
 10
89.11395129953848
 20
206.9055521355465
 30
0.0
 10
89.1139512995385
 20
214.0799428920667
 30
0.0
 10
89.1139512995385
 20
221.3647074652987
 30
0.0
 10
89.1139512995385
 20
228.684641248201
 30
0.0
 10
89.11395129953848
 20
235.9620535706887
 30
0.0
 10
89.1139512995385
 20
243.0939886865301
 30
0.0
 10
89.1139512995385
 20
249.9151824537576
 30
0.0
 10
89.1139512995385
 20
256.2723241729497
 30
0.0
 10
89.1139512995385
 20
261.3469446626236
 30
0.0
 10
89.1139512995385
 20
265.3275645266526
 30
0.0
 10
89.1139512995385
 20
268.6020902541364
 30
0.0
 10
89.1139512995385
 20
272.1439282308925
 30
0.0
 10
89.1139512995385
 20
276.0814901413768
 30
0.0
 10
89.1139512995385
 20
280.0139297673303
 30
0.0
 10
89.1139512995385
 20
283.7849946073814
 30
0.0
 10
89.1139512995385
 20
287.2603960976514
 30
0.0
 10
89.1139512995385
 20
290.1596580872508
 30
0.0
 10
89.1139512995385
 20
292.4655727703029
 30
0.0
 10
89.1139512995385
 20
294.1909969061051
 30
0.0
 10
89.1139512995385
 20
295.4798820590648
 30
0.0
 10
89.1139512995385
 20
295.8439791479005
 30
0.0
 10
89.1139512995385
 20
296.025789604261
 30
0.0
  0
SPLINE
  5
74
330
1F
100
AcDbEntity
  8
0
  6
Continuous
 62
     7
370
    25
100
AcDbSpline
210
0.0
220
0.0
230
1.0
 70
    24
 71
     3
 72
    42
 73
    38
 74
     0
 42
0.00000001
 43
0.00000001
 40
0.0
 40
0.0
 40
0.0
 40
0.0
 40
0.0346410723038495
 40
0.0683703572774312
 40
0.0994894456750952
 40
0.1280001167985726
 40
0.1539013380974652
 40
0.1771932453938799
 40
0.2016968882726532
 40
0.222451662817401
 40
0.2416936570004422
 40
0.2611289718792816
 40
0.280756841780843
 40
0.3138907322663835
 40
0.347554410502752
 40
0.3814132993585461
 40
0.4152720850106705
 40
0.449131866590614
 40
0.4829909293653015
 40
0.5168498212192392
 40
0.5507088785443867
 40
0.5845686618364708
 40
0.6180296518610975
 40
0.6501190477394362
 40
0.6807924999718443
 40
0.6985206970806902
 40
0.7161483938706626
 40
0.7371345388059345
 40
0.7622619962262649
 40
0.7915292085896783
 40
0.8190844696115909
 40
0.8495140968507183
 40
0.8828175889182936
 40
0.9096872135862512
 40
0.9381747325679765
 40
0.9682796674526993
 40
1.0
 40
1.0
 40
1.0
 40
1.0
 10
73.3139512995385
 20
296.0232335033393
 30
0.0
 10
73.3139512995385
 20
295.803647069657
 30
0.0
 10
73.31395129953849
 20
295.3702539346973
 30
0.0
 10
73.3139512995385
 20
293.7811975674491
 30
0.0
 10
73.31395129953849
 20
291.7113882952474
 30
0.0
 10
73.31395129953849
 20
289.2848214145582
 30
0.0
 10
73.31395129953849
 20
286.6661571347885
 30
0.0
 10
73.31395129953849
 20
283.8416271214143
 30
0.0
 10
73.31395129953849
 20
280.9215108498345
 30
0.0
 10
73.31395129953849
 20
277.9268405173857
 30
0.0
 10
73.31395129953849
 20
274.9757158888418
 30
0.0
 10
73.31395129953849
 20
271.9065732823552
 30
0.0
 10
73.31395129953849
 20
267.9028706682864
 30
0.0
 10
73.31395129953849
 20
262.8040799679685
 30
0.0
 10
73.31395129953849
 20
256.4795579962939
 30
0.0
 10
73.31395129953849
 20
249.7779205791776
 30
0.0
 10
73.31395129953849
 20
242.798765924523
 30
0.0
 10
73.31395129953849
 20
235.6318257982237
 30
0.0
 10
73.31395129953849
 20
228.3508220780634
 30
0.0
 10
73.31395129953849
 20
221.0307998975802
 30
0.0
 10
73.31395129953849
 20
213.7494598378774
 30
0.0
 10
73.31395129953849
 20
206.6099375409395
 30
0.0
 10
73.31395129953849
 20
199.7776347991652
 30
0.0
 10
73.31395129953849
 20
193.4062690985175
 30
0.0
 10
73.31395129953849
 20
188.3174367613611
 30
0.0
 10
73.31395129953849
 20
184.323675122499
 30
0.0
 10
73.31395129953849
 20
181.0370149604127
 30
0.0
 10
73.31395129953849
 20
177.4803106580372
 30
0.0
 10
73.31395129953849
 20
173.5234567509989
 30
0.0
 10
73.31395129953849
 20
169.5685989084838
 30
0.0
 10
73.31395129953849
 20
165.7720330964042
 30
0.0
 10
73.31395129953849
 20
162.2683099040842
 30
0.0
 10
73.31395129953849
 20
159.3387474983028
 30
0.0
 10
73.31395129953849
 20
157.0027709351907
 30
0.0
 10
73.31395129953849
 20
155.2459876285803
 30
0.0
 10
73.31395129953849
 20
153.9044215986287
 30
0.0
 10
73.31395129953849
 20
153.5103924649903
 30
0.0
 10
73.3139512995385
 20
153.3082302152907
 30
0.0
  0
LINE
  5
75
330
1F
100
AcDbEntity
  8
0
  6
Continuous
 62
     7
370
    25
100
AcDbLine
 10
73.3139512995
 20
153.3082302153
 30
0.0
 11
73.3139512995
 21
151.5909432454
 31
0.0
  0
LINE
  5
76
330
1F
100
AcDbEntity
  8
0
  6
Continuous
 62
     7
370
    25
100
AcDbLine
 10
89.1139512995
 20
151.5909432454
 30
0.0
 11
89.1139512995
 21
153.3082302153
 31
0.0
  0
LINE
  5
77
330
1F
100
AcDbEntity
  8
0
  6
Continuous
 62
     7
370
    25
100
AcDbLine
 10
92.7639512995
 20
150.6506556989
 30
0.0
 11
92.7639512995
 21
151.4477388034
 31
0.0
  0
LINE
  5
78
330
1F
100
AcDbEntity
  8
0
  6
Continuous
 62
     7
370
    25
100
AcDbLine
 10
69.6639512995
 20
151.4477388034
 30
0.0
 11
69.6639512995
 21
150.6506556989
 31
0.0
  0
ARC
  5
79
330
1F
100
AcDbEntity
  8
0
  6
Continuous
 62
     7
370
    25
100
AcDbCircle
 10
154.4525579717
 20
296.0415063896
 30
0.0
 40
10.63000000000001
100
AcDbArc
 50
6.7559023724
 51
21.8505108422
  0
ARC
  5
7A
330
1F
100
AcDbEntity
  8
0
  6
Continuous
 62
     7
370
    25
100
AcDbCircle
 10
154.4525579717
 20
296.0415063896
 30
0.0
 40
10.63000000000003
100
AcDbArc
 50
338.1494891578
 51
353.2047789955
  0
LINE
  5
7B
330
1F
100
AcDbEntity
  8
0
  6
Continuous
 62
     7
370
    25
100
AcDbLine
 10
165.015415531
 20
294.9321264731
 30
0.0
 11
164.7549988026
 21
294.9321264731
 31
0.0
  0
LINE
  5
7C
330
1F
100
AcDbEntity
  8
0
  6
Continuous
 62
     7
370
    25
100
AcDbLine
 10
164.9318424661
 20
297.1508863062
 30
0.0
 11
165.015415531
 21
297.1508863062
 31
0.0
  0
LINE
  5
7D
330
1F
100
AcDbEntity
  8
0
  6
Continuous
 62
     7
370
    25
100
AcDbLine
 10
162.4188783141
 20
288.8915063896
 30
0.0
 11
164.0238833036
 21
290.1163786185
 31
0.0
  0
LINE
  5
7E
330
1F
100
AcDbEntity
  8
0
  6
Continuous
 62
     7
370
    25
100
AcDbLine
 10
164.0238833036
 20
301.9666341608
 30
0.0
 11
162.4188783141
 21
303.1915063896
 31
0.0
  0
ARC
  5
7F
330
1F
100
AcDbEntity
  8
0
  6
Continuous
 62
     7
370
    25
100
AcDbCircle
 10
163.5688783141
 20
290.712592053
 30
0.0
 40
0.7499999999999841
100
AcDbArc
 50
307.3493490446
 51
0.0
  0
ARC
  5
80
330
1F
100
AcDbEntity
  8
0
  6
Continuous
 62
     7
370
    25
100
AcDbCircle
 10
163.5688783141
 20
301.3704207262
 30
0.0
 40
0.7500000000000294
100
AcDbArc
 50
0.0
 51
52.6506509554
  0
LINE
  5
81
330
1F
100
AcDbEntity
  8
0
  6
Continuous
 62
     7
370
    25
100
AcDbLine
 10
162.4188783141
 20
300.5415063896
 30
0.0
 11
162.4139512995
 21
300.5377598057
 31
0.0
  0
LINE
  5
82
330
1F
100
AcDbEntity
  8
0
  6
Continuous
 62
     7
370
    25
100
AcDbLine
 10
162.4139512995
 20
291.5452529736
 30
0.0
 11
162.4188783141
 21
291.5415063896
 31
0.0
  0
LINE
  5
83
330
1F
100
AcDbEntity
  8
0
  6
Continuous
 62
     7
370
    25
100
AcDbLine
 10
157.5519952567
 20
287.0658483454
 30
0.0
 11
161.9226775028
 21
287.1421388878
 31
0.0
  0
LINE
  5
84
330
1F
100
AcDbEntity
  8
0
  6
Continuous
 62
     7
370
    25
100
AcDbLine
 10
161.9226775028
 20
304.9408738915
 30
0.0
 11
156.6185750428
 21
305.0334573443
 31
0.0
  0
ARC
  5
85
330
1F
100
AcDbEntity
  8
0
  6
Continuous
 62
     7
370
    25
100
AcDbCircle
 10
161.9139512995
 20
287.6420627354
 30
0.0
 40
0.5000000000000616
100
AcDbArc
 50
271.0
 51
0.0
  0
ARC
  5
86
330
1F
100
AcDbEntity
  8
0
  6
Continuous
 62
     7
370
    25
100
AcDbCircle
 10
161.9139512995
 20
304.4409500439
 30
0.0
 40
0.5000000000000616
100
AcDbArc
 50
0.0
 51
89.0
  0
SPLINE
  5
87
330
1F
100
AcDbEntity
  8
0
  6
Continuous
 62
     7
370
    25
100
AcDbSpline
210
0.0
220
0.0
230
1.0
 70
     8
 71
     3
 72
    12
 73
     8
 74
     0
 42
0.00000001
 43
0.00000001
 40
0.0
 40
0.0
 40
0.0
 40
0.0
 40
0.086159706799108
 40
0.2619830803238284
 40
0.4719028504028393
 40
0.721152476002789
 40
1.0
 40
1.0
 40
1.0
 40
1.0
 10
153.9434453746091
 20
285.1838582436568
 30
0.0
 10
153.9413878455811
 20
285.1808195919151
 30
0.0
 10
153.9351315825015
 20
285.1715800602024
 30
0.0
 10
154.0804219177823
 20
285.3405179197147
 30
0.0
 10
154.4066945275131
 20
285.6230894656118
 30
0.0
 10
154.9604130973868
 20
286.0339069875075
 30
0.0
 10
155.477543557063
 20
286.3622615147012
 30
0.0
 10
155.7506004148291
 20
286.5356403086809
 30
0.0
  0
ARC
  5
88
330
1F
100
AcDbEntity
  8
0
  6
Continuous
 62
     7
370
    25
100
AcDbCircle
 10
157.6139512995
 20
283.5163890276
 30
0.0
 40
3.550000000000008
100
AcDbArc
 50
91.0
 51
121.7654088545
  0
ARC
  5
89
330
1F
100
AcDbEntity
  8
0
  6
Continuous
 62
     7
370
    25
100
AcDbCircle
 10
156.6639512995
 20
307.6330613517
 30
0.0
 40
2.600000000000026
100
AcDbArc
 50
242.9558679133
 51
269.0
  0
SPLINE
  5
8A
330
1F
100
AcDbEntity
  8
0
  6
Continuous
 62
     7
370
    25
100
AcDbSpline
210
0.0
220
0.0
230
1.0
 70
     8
 71
     3
 72
    12
 73
     8
 74
     0
 42
0.00000001
 43
0.00000001
 40
0.0
 40
0.0
 40
0.0
 40
0.0
 40
0.1337804855985728
 40
0.4431236941657395
 40
0.6934984591112825
 40
0.8972763878163139
 40
1.0
 40
1.0
 40
1.0
 40
1.0
 10
155.4764250167808
 20
305.323396396516
 30
0.0
 10
155.3498635119318
 20
305.3890341795418
 30
0.0
 10
154.9306513875558
 20
305.6064474798526
 30
0.0
 10
154.4003148653522
 20
305.908564729608
 30
0.0
 10
153.9547092001739
 20
306.1879613106601
 30
0.0
 10
153.7481762041697
 20
306.3533025613181
 30
0.0
 10
153.7502603674877
 20
306.3515289130716
 30
0.0
 10
153.750958872245
 20
306.3509344770563
 30
0.0
  0
LINE
  5
8B
330
1F
100
AcDbEntity
  8
0
  6
Continuous
 62
     7
370
    25
100
AcDbLine
 10
148.0726775028
 20
283.6709016985
 30
0.0
 11
152.0988561124
 21
283.7411789075
 31
0.0
  0
ARC
  5
8C
330
1F
100
AcDbEntity
  8
0
  6
Continuous
 62
     7
370
    25
100
AcDbCircle
 10
148.0639512995
 20
284.1708255461
 30
0.0
 40
0.5000000000000058
100
AcDbArc
 50
180.0
 51
271.0
  0
LINE
  5
8D
330
1F
100
AcDbEntity
  8
0
  6
Continuous
 62
     7
370
    25
100
AcDbLine
 10
162.4438708424
 20
299.979121618
 30
0.0
 11
162.4139512995
 21
300.0914972983
 31
0.0
  0
ARC
  5
8E
330
1F
100
AcDbEntity
  8
0
  6
Continuous
 62
     7
370
    25
100
AcDbCircle
 10
152.0639512995
 20
305.5372312106
 30
0.0
 40
2.000000000000026
100
AcDbArc
 50
20.0672270063
 51
89.0
  0
ARC
  5
8F
330
1F
100
AcDbEntity
  8
0
  6
Continuous
 62
     7
370
    25
100
AcDbCircle
 10
148.0639512995
 20
307.1072799624
 30
0.0
 40
0.5
100
AcDbArc
 50
89.0
 51
180.0
  0
LINE
  5
90
330
1F
100
AcDbEntity
  8
0
  6
Continuous
 62
     7
370
    25
100
AcDbLine
 10
152.0988561124
 20
307.5369266009
 30
0.0
 11
148.0726775028
 21
307.60720381
 31
0.0
  0
ARC
  5
91
330
1F
100
AcDbEntity
  8
0
  6
Continuous
 62
     7
370
    25
100
AcDbCircle
 10
152.0639512995
 20
285.7408742978
 30
0.0
 40
1.999999999999978
100
AcDbArc
 50
271.0
 51
344.6692829981
  0
LINE
  5
92
330
1F
100
AcDbEntity
  8
0
  6
Continuous
 62
     7
370
    25
100
AcDbLine
 10
147.5639512995
 20
301.6915063896
 30
0.0
 11
139.6139512995
 21
301.6915063896
 31
0.0
  0
LINE
  5
93
330
1F
100
AcDbEntity
  8
0
  6
Continuous
 62
     7
370
    25
100
AcDbLine
 10
139.6139512995
 20
290.3915063896
 30
0.0
 11
147.5639512995
 21
290.3915063896
 31
0.0
  0
LINE
  5
94
330
1F
100
AcDbEntity
  8
0
  6
Continuous
 62
     7
370
    25
100
AcDbLine
 10
137.9058069084
 20
286.0406583887
 30
0.0
 11
139.6139512995
 21
287.7915063896
 31
0.0
  0
LINE
  5
95
330
1F
100
AcDbEntity
  8
0
  6
Continuous
 62
     7
370
    25
100
AcDbLine
 10
139.6139512995
 20
304.2915063896
 30
0.0
 11
137.9058069084
 21
306.0423543906
 31
0.0
  0
LINE
  5
96
330
1F
100
AcDbEntity
  8
0
  6
Continuous
 62
     7
370
    25
100
AcDbLine
 10
132.1872526311
 20
286.6415063896
 30
0.0
 11
132.5400441106
 21
286.6415063896
 31
0.0
  0
SPLINE
  5
97
330
1F
100
AcDbEntity
  8
0
  6
Continuous
 62
     7
370
    25
100
AcDbSpline
210
0.0
220
0.0
230
1.0
 70
     8
 71
     3
 72
     9
 73
     5
 74
     0
 42
0.00000001
 43
0.00000001
 40
0.0
 40
0.0
 40
0.0
 40
0.0
 40
0.5017901106541904
 40
1.0
 40
1.0
 40
1.0
 40
1.0
 10
132.5487772711697
 20
286.6491658420522
 30
0.0
 10
132.622654611465
 20
286.777043518769
 30
0.0
 10
132.7698821847604
 20
287.0318864780095
 30
0.0
 10
132.9171624956382
 20
287.2866898819744
 30
0.0
 10
132.9905390030234
 20
287.4136354576688
 30
0.0
  0
LINE
  5
98
330
1F
100
AcDbEntity
  8
0
  6
Continuous
 62
     7
370
    25
100
AcDbLine
 10
132.2849848626
 20
304.669374883
 30
0.0
 11
132.1639512995
 21
304.8788035736
 31
0.0
  0
LINE
  5
99
330
1F
100
AcDbEntity
  8
0
  6
Continuous
 62
     7
370
    25
100
AcDbLine
 10
133.1478658394
 20
287.4136098447
 30
0.0
 11
133.2920464144
 21
287.1641137467
 31
0.0
  0
SPLINE
  5
9A
330
1F
100
AcDbEntity
  8
0
  6
Continuous
 62
     7
370
    25
100
AcDbSpline
210
0.0
220
0.0
230
1.0
 70
     8
 71
     3
 72
     9
 73
     5
 74
     0
 42
0.00000001
 43
0.00000001
 40
0.0
 40
0.0
 40
0.0
 40
0.0
 40
0.4989150937459075
 40
1.0
 40
1.0
 40
1.0
 40
1.0
 10
132.8840416253676
 20
305.4338601554931
 30
0.0
 10
132.8105830795481
 20
305.3067258162028
 30
0.0
 10
132.6633465121632
 20
305.0519042225409
 30
0.0
 10
132.5160940381359
 20
304.7970850182244
 30
0.0
 10
132.4423080459922
 20
304.6693989611177
 30
0.0
  0
LINE
  5
9B
330
1F
100
AcDbEntity
  8
0
  6
Continuous
 62
     7
370
    25
100
AcDbLine
 10
133.3139512995
 20
304.9415063896
 30
0.0
 11
132.8698135554
 21
305.3856441338
 31
0.0
  0
SPLINE
  5
9C
330
1F
100
AcDbEntity
  8
0
  6
Continuous
 62
     7
370
    25
100
AcDbSpline
210
0.0
220
0.0
230
1.0
 70
     8
 71
     3
 72
     9
 73
     5
 74
     0
 42
0.00000001
 43
0.00000001
 40
0.0
 40
0.0
 40
0.0
 40
0.0
 40
0.5165667873823608
 40
1.0
 40
1.0
 40
1.0
 40
1.0
 10
132.9806310926869
 20
287.4053006585227
 30
0.0
 10
133.0102919670348
 20
287.4053061649035
 30
0.0
 10
133.0677112109205
 20
287.4053168244757
 30
0.0
 10
133.1249811215136
 20
287.4053062913503
 30
0.0
 10
133.152667298378
 20
287.4053011992876
 30
0.0
  0
SPLINE
  5
9D
330
1F
100
AcDbEntity
  8
0
  6
Continuous
 62
     7
370
    25
100
AcDbSpline
210
0.0
220
0.0
230
1.0
 70
     8
 71
     3
 72
     9
 73
     5
 74
     0
 42
0.00000001
 43
0.00000001
 40
0.0
 40
0.0
 40
0.0
 40
0.0
 40
0.512086911069741
 40
1.0
 40
1.0
 40
1.0
 40
1.0
 10
132.4514636416404
 20
304.6777120782323
 30
0.0
 10
132.4222358191916
 20
304.6777142084659
 30
0.0
 10
132.365159917002
 20
304.6777183683722
 30
0.0
 10
132.3080373278684
 20
304.6777143042447
 30
0.0
 10
132.2801664689565
 20
304.6777123213037
 30
0.0
  0
LINE
  5
9E
330
1F
100
AcDbEntity
  8
0
  6
Continuous
 62
     7
370
    25
100
AcDbLine
 10
133.3139512995
 20
287.9165063896
 30
0.0
 11
134.8139512995
 21
287.9165063896
 31
0.0
  0
LINE
  5
9F
330
1F
100
AcDbEntity
  8
0
  6
Continuous
 62
     7
370
    25
100
AcDbLine
 10
134.8139512995
 20
304.1665063896
 30
0.0
 11
133.3139512995
 21
304.1665063896
 31
0.0
  0
SPLINE
  5
A0
330
1F
100
AcDbEntity
  8
0
  6
Continuous
 62
     7
370
    25
100
AcDbSpline
210
0.0
220
0.0
230
1.0
 70
     8
 71
     3
 72
     9
 73
     5
 74
     0
 42
0.00000001
 43
0.00000001
 40
0.0
 40
0.0
 40
0.0
 40
0.0
 40
0.2985650935669252
 40
1.0
 40
1.0
 40
1.0
 40
1.0
 10
134.7874790155591
 20
287.0181794712244
 30
0.0
 10
134.7901136960925
 20
287.0136200888688
 30
0.0
 10
134.7989381721956
 20
286.998349106246
 30
0.0
 10
134.8077619757314
 20
286.9830777282152
 30
0.0
 10
134.813951299539
 20
286.9723658505951
 30
0.0
  0
LINE
  5
A1
330
1F
100
AcDbEntity
  8
0
  6
Continuous
 62
     7
370
    25
100
AcDbLine
 10
115.836480181
 20
313.1140352711
 30
0.0
 11
114.9639512995
 21
312.2415063896
 31
0.0
  0
LINE
  5
A2
330
1F
100
AcDbEntity
  8
0
  6
Continuous
 62
     7
370
    25
100
AcDbLine
 10
114.9639512995
 20
279.8415063896
 30
0.0
 11
115.836480181
 21
278.9689775081
 31
0.0
  0
LINE
  5
A3
330
1F
100
AcDbEntity
  8
0
  6
Continuous
 62
     7
370
    25
100
AcDbLine
 10
123.5414224181
 20
278.9689775081
 30
0.0
 11
124.4139512995
 21
279.8415063896
 31
0.0
  0
LINE
  5
A4
330
1F
100
AcDbEntity
  8
0
  6
Continuous
 62
     7
370
    25
100
AcDbLine
 10
124.4139512995
 20
312.2415063896
 30
0.0
 11
123.5414224181
 21
313.1140352711
 31
0.0
  0
ARC
  5
A5
330
1F
100
AcDbEntity
  8
0
  6
Continuous
 62
     7
370
    25
100
AcDbCircle
 10
124.4139512995
 20
290.3005180175
 30
0.0
 40
9.134011627907
100
AcDbArc
 50
270.0
 51
328.0464183091
  0
ARC
  5
A6
330
1F
100
AcDbEntity
  8
0
  6
Continuous
 62
     7
370
    25
100
AcDbCircle
 10
124.4139512995
 20
301.7824947617
 30
0.0
 40
9.134011627907
100
AcDbArc
 50
31.9535816909
 51
90.0
  0
LINE
  5
A7
330
1F
100
AcDbEntity
  8
0
  6
Continuous
 62
     7
370
    25
100
AcDbLine
 10
122.9761459147
 20
313.5566035281
 30
0.0
 11
116.3765833931
 21
313.5566035281
 31
0.0
  0
LINE
  5
A8
330
1F
100
AcDbEntity
  8
0
  6
Continuous
 62
     7
370
    25
100
AcDbLine
 10
116.3765833931
 20
278.5264092512
 30
0.0
 11
122.9761459147
 21
278.5264092512
 31
0.0
  0
ARC
  5
A9
330
1F
100
AcDbEntity
  8
0
  6
Continuous
 62
     7
370
    25
100
AcDbCircle
 10
56.4139512995
 20
360.3550281754
 30
0.0
 40
0.50000000000004
100
AcDbArc
 50
180.0
 51
244.1790080258
  0
ARC
  5
AA
330
1F
100
AcDbEntity
  8
0
  6
Continuous
 62
     7
370
    25
100
AcDbCircle
 10
106.0139512995
 20
360.3550281754
 30
0.0
 40
0.50000000000004
100
AcDbArc
 50
295.8209919742
 51
0.0
  0
ARC
  5
AB
330
1F
100
AcDbEntity
  8
0
  6
Continuous
 62
     7
370
    25
100
AcDbCircle
 10
56.4139512995
 20
363.5415063896
 30
0.0
 40
0.5
100
AcDbArc
 50
90.0
 51
180.0
  0
ARC
  5
AC
330
1F
100
AcDbEntity
  8
0
  6
Continuous
 62
     7
370
    25
100
AcDbCircle
 10
106.0139512995
 20
363.5415063896
 30
0.0
 40
0.5
100
AcDbArc
 50
0.0
 51
90.0
  0
LINE
  5
AD
330
1F
100
AcDbEntity
  8
0
  6
Continuous
 62
     7
370
    25
100
AcDbLine
 10
106.5139512995
 20
360.3550281754
 30
0.0
 11
106.5139512995
 21
363.5415063896
 31
0.0
  0
LINE
  5
AE
330
1F
100
AcDbEntity
  8
0
  6
Continuous
 62
     7
370
    25
100
AcDbLine
 10
55.9139512995
 20
363.5415063896
 30
0.0
 11
55.9139512995
 21
360.3550281754
 31
0.0
  0
LINE
  5
AF
330
1F
100
AcDbEntity
  8
0
  6
Continuous
 62
     7
370
    25
100
AcDbLine
 10
56.1961708355
 20
359.9049485496
 30
0.0
 11
64.0850731557
 21
356.0877377495
 31
0.0
  0
LINE
  5
B0
330
1F
100
AcDbEntity
  8
0
  6
Continuous
 62
     7
370
    25
100
AcDbLine
 10
98.3428294433
 20
356.0877377495
 30
0.0
 11
106.2317317636
 21
359.9049485496
 31
0.0
  0
ARC
  5
B1
330
1F
100
AcDbEntity
  8
0
  6
Continuous
 62
     7
370
    25
100
AcDbCircle
 10
99.2139512995
 20
354.2874192467
 30
0.0
 40
1.999999999999995
100
AcDbArc
 50
115.8209919742
 51
171.4096175468
  0
ARC
  5
B2
330
1F
100
AcDbEntity
  8
0
  6
Continuous
 62
     7
370
    25
100
AcDbCircle
 10
63.2139512995
 20
354.2874192467
 30
0.0
 40
2.000000000000004
100
AcDbArc
 50
8.6121549306
 51
64.1790080258
  0
LINE
  5
B3
330
1F
100
AcDbEntity
  8
0
  6
Continuous
 62
     7
370
    25
100
AcDbLine
 10
93.09904957
 20
280.2904637084
 30
0.0
 11
110.2139512995
 21
280.648969793
 31
0.0
  0
LINE
  5
B4
330
1F
100
AcDbEntity
  8
0
  6
Continuous
 62
     7
370
    25
100
AcDbLine
 10
110.2139512995
 20
311.4340429862
 30
0.0
 11
104.5909404916
 21
311.5518282718
 31
0.0
  0
SPLINE
  5
B5
330
1F
100
AcDbEntity
  8
0
  6
Continuous
 62
     7
370
    25
100
AcDbSpline
210
0.0
220
0.0
230
1.0
 70
     8
 71
     3
 72
     9
 73
     5
 74
     0
 42
0.00000001
 43
0.00000001
 40
0.0
 40
0.0
 40
0.0
 40
0.0
 40
0.499996177972525
 40
1.0
 40
1.0
 40
1.0
 40
1.0
 10
111.2388932837056
 20
281.858853964241
 30
0.0
 10
111.3170763449859
 20
281.72348893443
 30
0.0
 10
111.4734436628269
 20
281.4527568053168
 30
0.0
 10
111.6298073203736
 20
281.1820227200436
 30
0.0
 10
111.7079897467732
 20
281.0466546426539
 30
0.0
  0
SPLINE
  5
B6
330
1F
100
AcDbEntity
  8
0
  6
Continuous
 62
     7
370
    25
100
AcDbSpline
210
0.0
220
0.0
230
1.0
 70
     8
 71
     3
 72
     9
 73
     5
 74
     0
 42
0.00000001
 43
0.00000001
 40
0.0
 40
0.0
 40
0.0
 40
0.0
 40
0.4999960105738552
 40
1.0
 40
1.0
 40
1.0
 40
1.0
 10
112.7387325128601
 20
281.8591336448432
 30
0.0
 10
112.8169168581624
 20
281.723766494933
 30
0.0
 10
112.9732867964198
 20
281.4530300349464
 30
0.0
 10
113.1296529141334
 20
281.182291470174
 30
0.0
 10
113.2078365968013
 20
281.0469211076962
 30
0.0
  0
SPLINE
  5
B7
330
1F
100
AcDbEntity
  8
0
  6
Continuous
 62
     7
370
    25
100
AcDbSpline
210
0.0
220
0.0
230
1.0
 70
     8
 71
     3
 72
     9
 73
     5
 74
     0
 42
0.00000001
 43
0.00000001
 40
0.0
 40
0.0
 40
0.0
 40
0.0
 40
0.4999960910112508
 40
0.9999999999999999
 40
0.9999999999999999
 40
0.9999999999999999
 40
0.9999999999999999
 10
114.238815863662
 20
281.8589877816983
 30
0.0
 10
114.3169995946591
 20
281.7236216467703
 30
0.0
 10
114.4733682791402
 20
281.4528872603192
 30
0.0
 10
114.6297332200736
 20
281.1821508583371
 30
0.0
 10
114.7079163017691
 20
281.0467815990405
 30
0.0
  0
LINE
  5
B8
330
1F
100
AcDbEntity
  8
0
  6
Continuous
 62
     7
370
    25
100
AcDbLine
 10
114.9920397661
 20
310.2296065706
 30
0.0
 11
114.9888966987
 21
310.2241646807
 31
0.0
  0
SPLINE
  5
B9
330
1F
100
AcDbEntity
  8
0
  6
Continuous
 62
     7
370
    25
100
AcDbSpline
210
0.0
220
0.0
230
1.0
 70
     8
 71
     3
 72
     9
 73
     5
 74
     0
 42
0.00000001
 43
0.00000001
 40
0.0
 40
0.0
 40
0.0
 40
0.0
 40
0.5035653169057785
 40
1.0
 40
1.0
 40
1.0
 40
1.0
 10
113.9578235038757
 20
311.0360685825393
 30
0.0
 10
113.8796403727865
 20
310.9006991819699
 30
0.0
 10
113.7243812068662
 20
310.6318772515771
 30
0.0
 10
113.5691183184518
 20
310.3630575633371
 30
0.0
 10
113.4920404356455
 20
310.229606146596
 30
0.0
  0
SPLINE
  5
BA
330
1F
100
AcDbEntity
  8
0
  6
Continuous
 62
     7
370
    25
100
AcDbSpline
210
0.0
220
0.0
230
1.0
 70
     8
 71
     3
 72
     9
 73
     5
 74
     0
 42
0.00000001
 43
0.00000001
 40
0.0
 40
0.0
 40
0.0
 40
0.0
 40
0.5000038267495277
 40
1.0
 40
1.0
 40
1.0
 40
1.0
 10
112.4578971836585
 20
311.0361978817775
 30
0.0
 10
112.3797147132148
 20
310.9008296780556
 30
0.0
 10
112.2233509690572
 20
310.6300953426767
 30
0.0
 10
112.0669835601586
 20
310.3593632042841
 30
0.0
 10
111.9888004540883
 20
310.2239981711119
 30
0.0
  0
SPLINE
  5
BB
330
1F
100
AcDbEntity
  8
0
  6
Continuous
 62
     7
370
    25
100
AcDbSpline
210
0.0
220
0.0
230
1.0
 70
     8
 71
     3
 72
     9
 73
     5
 74
     0
 42
0.00000001
 43
0.00000001
 40
0.0
 40
0.0
 40
0.0
 40
0.0
 40
0.4987844281256523
 40
1.0
 40
1.0
 40
1.0
 40
1.0
 10
114.6265077783632
 20
310.2241614624346
 30
0.0
 10
114.5485084004793
 20
310.3591905365696
 30
0.0
 10
114.3921294650402
 20
310.6299068350764
 30
0.0
 10
114.2357793812487
 20
310.9006533254282
 30
0.0
 10
114.1574142845886
 20
311.0363556824228
 30
0.0
  0
SPLINE
  5
BC
330
1F
100
AcDbEntity
  8
0
  6
Continuous
 62
     7
370
    25
100
AcDbSpline
210
0.0
220
0.0
230
1.0
 70
     8
 71
     3
 72
     9
 73
     5
 74
     0
 42
0.00000001
 43
0.00000001
 40
0.0
 40
0.0
 40
0.0
 40
0.0
 40
0.4984739077222043
 40
0.9999999999999999
 40
0.9999999999999999
 40
0.9999999999999999
 40
0.9999999999999999
 10
113.1265077783632
 20
310.2241614624346
 30
0.0
 10
113.0485536710084
 20
310.3591010397021
 30
0.0
 10
112.8921681387927
 20
310.6298064370699
 30
0.0
 10
112.7358246324018
 20
310.9005638001579
 30
0.0
 10
112.6574142845886
 20
311.0363556824228
 30
0.0
  0
SPLINE
  5
BD
330
1F
100
AcDbEntity
  8
0
  6
Continuous
 62
     7
370
    25
100
AcDbSpline
210
0.0
220
0.0
230
1.0
 70
     8
 71
     3
 72
     9
 73
     5
 74
     0
 42
0.00000001
 43
0.00000001
 40
0.0
 40
0.0
 40
0.0
 40
0.0
 40
0.4981617098938687
 40
1.0
 40
1.0
 40
1.0
 40
1.0
 10
111.6265077783632
 20
310.2241614624346
 30
0.0
 10
111.5485988378058
 20
310.3590090744275
 30
0.0
 10
111.3922059657522
 20
310.6296995135253
 30
0.0
 10
111.2358697724947
 20
310.9004717874622
 30
0.0
 10
111.1574142845886
 20
311.0363556824228
 30
0.0
  0
LINE
  5
BE
330
1F
100
AcDbEntity
  8
0
  6
Continuous
 62
     7
370
    25
100
AcDbLine
 10
114.9074151914
 20
281.0466586553
 30
0.0
 11
114.9542846526
 21
281.1278136451
 31
0.0
  0
SPLINE
  5
BF
330
1F
100
AcDbEntity
  8
0
  6
Continuous
 62
     7
370
    25
100
AcDbSpline
210
0.0
220
0.0
230
1.0
 70
     8
 71
     3
 72
     9
 73
     5
 74
     0
 42
0.00000001
 43
0.00000001
 40
0.0
 40
0.0
 40
0.0
 40
0.0
 40
0.5012156693466765
 40
1.0
 40
1.0
 40
1.0
 40
1.0
 10
113.4074151913539
 20
281.0466586552759
 30
0.0
 10
113.485780287297
 20
281.1823610825049
 30
0.0
 10
113.6421303392522
 20
281.4531076603323
 30
0.0
 10
113.7985093318643
 20
281.7238239141051
 30
0.0
 10
113.8765087230225
 20
281.8588529395402
 30
0.0
  0
SPLINE
  5
C0
330
1F
100
AcDbEntity
  8
0
  6
Continuous
 62
     7
370
    25
100
AcDbSpline
210
0.0
220
0.0
230
1.0
 70
     8
 71
     3
 72
     9
 73
     5
 74
     0
 42
0.00000001
 43
0.00000001
 40
0.0
 40
0.0
 40
0.0
 40
0.0
 40
0.5015262135375156
 40
1.0
 40
1.0
 40
1.0
 40
1.0
 10
111.9074151913539
 20
281.0466586552759
 30
0.0
 10
111.9858255367259
 20
281.1824506226132
 30
0.0
 10
112.1421690004482
 20
281.4532080898641
 30
0.0
 10
112.2985546007112
 20
281.723913425747
 30
0.0
 10
112.3765087230225
 20
281.8588529395402
 30
0.0
  0
SPLINE
  5
C1
330
1F
100
AcDbEntity
  8
0
  6
Continuous
 62
     7
370
    25
100
AcDbSpline
210
0.0
220
0.0
230
1.0
 70
     8
 71
     3
 72
     9
 73
     5
 74
     0
 42
0.00000001
 43
0.00000001
 40
0.0
 40
0.0
 40
0.0
 40
0.0
 40
0.5018384349021675
 40
1.0
 40
1.0
 40
1.0
 40
1.0
 10
110.4074151913539
 20
281.0466586552759
 30
0.0
 10
110.4858706751092
 20
281.1825426501945
 30
0.0
 10
110.6422068149877
 20
281.4533150451887
 30
0.0
 10
110.7985997658505
 20
281.7240054058275
 30
0.0
 10
110.8765087230225
 20
281.8588529395402
 30
0.0
  0
LINE
  5
C2
330
1F
100
AcDbEntity
  8
0
  6
Continuous
 62
     7
370
    25
100
AcDbLine
 10
111.1514287894
 20
311.0415063896
 30
0.0
 11
110.2139512995
 21
311.0415063896
 31
0.0
  0
LINE
  5
C3
330
1F
100
AcDbEntity
  8
0
  6
Continuous
 62
     7
370
    25
100
AcDbLine
 10
112.6514287894
 20
311.0415063896
 30
0.0
 11
112.4641001849
 21
311.0415063896
 31
0.0
  0
LINE
  5
C4
330
1F
100
AcDbEntity
  8
0
  6
Continuous
 62
     7
370
    25
100
AcDbLine
 10
114.1514287894
 20
311.0415063896
 30
0.0
 11
113.9641001849
 21
311.0415063896
 31
0.0
  0
LINE
  5
C5
330
1F
100
AcDbEntity
  8
0
  6
Continuous
 62
     7
370
    25
100
AcDbLine
 10
114.7140037607
 20
281.0415063896
 30
0.0
 11
114.9012493303
 21
281.0415063896
 31
0.0
  0
LINE
  5
C6
330
1F
100
AcDbEntity
  8
0
  6
Continuous
 62
     7
370
    25
100
AcDbLine
 10
113.2140037607
 20
281.0415063896
 30
0.0
 11
113.4012493303
 21
281.0415063896
 31
0.0
  0
LINE
  5
C7
330
1F
100
AcDbEntity
  8
0
  6
Continuous
 62
     7
370
    25
100
AcDbLine
 10
111.7140037607
 20
281.0415063896
 30
0.0
 11
111.9012493303
 21
281.0415063896
 31
0.0
  0
LINE
  5
C8
330
1F
100
AcDbEntity
  8
0
  6
Continuous
 62
     7
370
    25
100
AcDbLine
 10
110.2139512995
 20
281.0415063896
 30
0.0
 11
110.4012493303
 21
281.0415063896
 31
0.0
  0
LINE
  5
C9
330
1F
100
AcDbEntity
  8
0
  6
Continuous
 62
     7
370
    25
100
AcDbLine
 10
67.2365382311
 20
338.314621599
 30
0.0
 11
67.8938683962
 21
309.8850919587
 31
0.0
  0
LINE
  5
CA
330
1F
100
AcDbEntity
  8
0
  6
Continuous
 62
     7
370
    25
100
AcDbLine
 10
94.8072655324
 20
321.7023469606
 30
0.0
 11
95.191364368
 21
338.314621599
 31
0.0
  0
SPLINE
  5
CB
330
1F
100
AcDbEntity
  8
0
  6
Continuous
 62
     7
370
    25
100
AcDbSpline
210
0.0
220
0.0
230
1.0
 70
     8
 71
     3
 72
     9
 73
     5
 74
     0
 42
0.00000001
 43
0.00000001
 40
0.0
 40
0.0
 40
0.0
 40
0.0
 40
0.5027752844605446
 40
1.0
 40
1.0
 40
1.0
 40
1.0
 10
114.9952392554864
 20
310.2296073776457
 30
0.0
 10
114.9329245915952
 20
310.2295837776199
 30
0.0
 10
114.808983208999
 20
310.2295368381091
 30
0.0
 10
114.6850067292759
 20
310.2295834285059
 30
0.0
 10
114.623362559412
 20
310.2296065944027
 30
0.0
  0
SPLINE
  5
CC
330
1F
100
AcDbEntity
  8
0
  6
Continuous
 62
     7
370
    25
100
AcDbSpline
210
0.0
220
0.0
230
1.0
 70
     8
 71
     3
 72
     9
 73
     5
 74
     0
 42
0.00000001
 43
0.00000001
 40
0.0
 40
0.0
 40
0.0
 40
0.0
 40
0.5024505677200923
 40
0.9999999999999999
 40
0.9999999999999999
 40
0.9999999999999999
 40
0.9999999999999999
 10
113.4952392554864
 20
310.2296073776457
 30
0.0
 10
113.4329729381974
 20
310.2295714129353
 30
0.0
 10
113.3090476781035
 20
310.2294998343309
 30
0.0
 10
113.1850550731138
 20
310.2295708503782
 30
0.0
 10
113.1233626228943
 20
310.2296061843721
 30
0.0
  0
SPLINE
  5
CD
330
1F
100
AcDbEntity
  8
0
  6
Continuous
 62
     7
370
    25
100
AcDbSpline
210
0.0
220
0.0
230
1.0
 70
     8
 71
     3
 72
     9
 73
     5
 74
     0
 42
0.00000001
 43
0.00000001
 40
0.0
 40
0.0
 40
0.0
 40
0.0
 40
0.5021449888945024
 40
1.0
 40
1.0
 40
1.0
 40
1.0
 10
111.9952392554864
 20
310.2296073776457
 30
0.0
 10
111.9330224993484
 20
310.2295564658962
 30
0.0
 10
111.8091205237955
 20
310.2294550773518
 30
0.0
 10
111.6851046288465
 20
310.2295556288733
 30
0.0
 10
111.6233626940895
 20
310.2296056889521
 30
0.0
  0
SPLINE
  5
CE
330
1F
100
AcDbEntity
  8
0
  6
Continuous
 62
     7
370
    25
100
AcDbSpline
210
0.0
220
0.0
230
1.0
 70
     8
 71
     3
 72
     9
 73
     5
 74
     0
 42
0.00000001
 43
0.00000001
 40
0.0
 40
0.0
 40
0.0
 40
0.0
 40
0.5057289412931915
 40
1.0
 40
1.0
 40
1.0
 40
1.0
 10
113.8702404397732
 20
281.8534054142328
 30
0.0
 10
113.9329258107007
 20
281.8534291956016
 30
0.0
 10
114.0568763419223
 20
281.8534762195443
 30
0.0
 10
114.1807917832086
 20
281.8534293774046
 30
0.0
 10
114.2420395995633
 20
281.8534062246904
 30
0.0
  0
SPLINE
  5
CF
330
1F
100
AcDbEntity
  8
0
  6
Continuous
 62
     7
370
    25
100
AcDbSpline
210
0.0
220
0.0
230
1.0
 70
     8
 71
     3
 72
     9
 73
     5
 74
     0
 42
0.00000001
 43
0.00000001
 40
0.0
 40
0.0
 40
0.0
 40
0.0
 40
0.5060529424439243
 40
1.0
 40
1.0
 40
1.0
 40
1.0
 10
112.3702404397732
 20
281.8534054142328
 30
0.0
 10
112.4329742035917
 20
281.8534416618301
 30
0.0
 10
112.5569410034201
 20
281.8535132899037
 30
0.0
 10
112.6808404721244
 20
281.8534419083574
 30
0.0
 10
112.7420402501237
 20
281.8534066496526
 30
0.0
  0
SPLINE
  5
D0
330
1F
100
AcDbEntity
  8
0
  6
Continuous
 62
     7
370
    25
100
AcDbSpline
210
0.0
220
0.0
230
1.0
 70
     8
 71
     3
 72
     9
 73
     5
 74
     0
 42
0.00000001
 43
0.00000001
 40
0.0
 40
0.0
 40
0.0
 40
0.0
 40
0.5063601542004668
 40
1.0
 40
1.0
 40
1.0
 40
1.0
 10
110.8702404397732
 20
281.8534054142328
 30
0.0
 10
110.9330238438948
 20
281.8534567438184
 30
0.0
 10
111.0570134659075
 20
281.8535581135354
 30
0.0
 10
111.180889192372
 20
281.8534570525615
 30
0.0
 10
111.2420391868823
 20
281.853407164838
 30
0.0
  0
SPLINE
  5
D1
330
1F
100
AcDbEntity
  8
0
  6
Continuous
 62
     7
370
    25
100
AcDbSpline
210
0.0
220
0.0
230
1.0
 70
     8
 71
     3
 72
    18
 73
    14
 74
     0
 42
0.00000001
 43
0.00000001
 40
0.0
 40
0.0
 40
0.0
 40
0.0
 40
0.0562034571906656
 40
0.1495967614778594
 40
0.2453107217847785
 40
0.342386287424417
 40
0.4402370940888461
 40
0.5485127555547435
 40
0.6512240792966396
 40
0.7487978045265342
 40
0.8419043052395581
 40
0.9308604451081816
 40
1.0
 40
1.0
 40
1.0
 40
1.0
 10
104.5733112520493
 20
311.542500895023
 30
0.0
 10
104.2795453049601
 20
311.5470700156597
 30
0.0
 10
103.4976283818084
 20
311.5592316456414
 30
0.0
 10
102.2340124960746
 20
311.8141262123933
 30
0.0
 10
100.8149332030264
 20
312.293155655077
 30
0.0
 10
99.46458335094792
 20
313.0002572950973
 30
0.0
 10
98.18424843750209
 20
313.9411383822046
 30
0.0
 10
97.05008426851998
 20
315.0988393953076
 30
0.0
 10
96.12399134942652
 20
316.425299184616
 30
0.0
 10
95.45002843848563
 20
317.8083017261002
 30
0.0
 10
95.0172174891535
 20
319.2066870306209
 30
0.0
 10
94.79166351578675
 20
320.5057391219216
 30
0.0
 10
94.79247946026467
 20
321.3322600137635
 30
0.0
 10
94.79283629501658
 20
321.6937201196653
 30
0.0
  0
ARC
  5
D2
330
1F
100
AcDbEntity
  8
0
  6
Continuous
 62
     7
370
    25
100
AcDbCircle
 10
94.1461705641
 20
230.3014295347
 30
0.0
 40
50.00000000000001
100
AcDbArc
 50
91.2
 51
95.794250136
  0
ARC
  5
D3
330
1F
100
AcDbEntity
  8
0
  6
Continuous
 62
     7
370
    25
100
AcDbCircle
 10
96.1910971758
 20
338.2915063896
 30
0.0
 40
1.0
100
AcDbArc
 50
90.0
 51
178.6754780877
  0
ARC
  5
D4
330
1F
100
AcDbEntity
  8
0
  6
Continuous
 62
     7
370
    25
100
AcDbCircle
 10
66.2368054233
 20
338.2915063896
 30
0.0
 40
1.0
100
AcDbArc
 50
1.3245219123
 51
90.0
  0
ARC
  5
D5
330
1F
100
AcDbEntity
  8
0
  6
Continuous
 62
     7
370
    25
100
AcDbCircle
 10
81.2139512995
 20
296.0415063896
 30
0.0
 40
17.00000000000002
100
AcDbArc
 50
149.7241140142
 51
242.2382277461
  0
ARC
  5
D6
330
1F
100
AcDbEntity
  8
0
  6
Continuous
 62
     7
370
    25
100
AcDbCircle
 10
57.8965403177
 20
309.6539398644
 30
0.0
 40
10.0
100
AcDbArc
 50
329.7241140142
 51
1.3245219123
  0
ARC
  5
D7
330
1F
100
AcDbEntity
  8
0
  6
Continuous
 62
     7
370
    25
100
AcDbCircle
 10
97.4750582985
 20
351.7915063896
 30
0.0
 40
1.750000000000018
100
AcDbArc
 50
0.0
 51
74.1552676611
  0
LINE
  5
D8
330
1F
100
AcDbEntity
  8
0
  6
Continuous
 62
     7
370
    25
100
AcDbLine
 10
99.2250582985
 20
341.0415063896
 30
0.0
 11
99.2250582985
 21
351.7915063896
 31
0.0
  0
ARC
  5
D9
330
1F
100
AcDbEntity
  8
0
  6
Continuous
 62
     7
370
    25
100
AcDbCircle
 10
97.4750582985
 20
341.0415063896
 30
0.0
 40
1.75
100
AcDbArc
 50
270.0
 51
0.0
  0
LINE
  5
DA
330
1F
100
AcDbEntity
  8
0
  6
Continuous
 62
     7
370
    25
100
AcDbLine
 10
63.2028443006
 20
351.7915063896
 30
0.0
 11
63.2028443006
 21
341.0415063896
 31
0.0
  0
ARC
  5
DB
330
1F
100
AcDbEntity
  8
0
  6
Continuous
 62
     7
370
    25
100
AcDbCircle
 10
64.9528443006
 20
351.7915063896
 30
0.0
 40
1.750000000000008
100
AcDbArc
 50
105.8492995417
 51
180.0
  0
ARC
  5
DC
330
1F
100
AcDbEntity
  8
0
  6
Continuous
 62
     7
370
    25
100
AcDbCircle
 10
64.9528443006
 20
341.0415063896
 30
0.0
 40
1.750000000000007
100
AcDbArc
 50
180.0
 51
270.0
  0
ARC
  5
DD
330
1F
100
AcDbEntity
  8
0
  6
Continuous
 62
     7
370
    25
100
AcDbCircle
 10
98.2252332898
 20
354.437208089
 30
0.0
 40
1.000000000000003
100
AcDbArc
 50
171.3922075034
 51
254.1356649369
  0
ARC
  5
DE
330
1F
100
AcDbEntity
  8
0
  6
Continuous
 62
     7
370
    25
100
AcDbCircle
 10
64.2026693092
 20
354.437208089
 30
0.0
 40
1.000000000000006
100
AcDbArc
 50
285.8464245101
 51
8.5681325442
  0
SPLINE
  5
DF
330
1F
100
AcDbEntity
  8
0
  6
Continuous
 62
     7
370
    25
100
AcDbSpline
210
0.0
220
0.0
230
1.0
 70
     8
 71
     3
 72
    19
 73
    15
 74
     0
 42
0.00000001
 43
0.00000001
 40
0.0
 40
0.0
 40
0.0
 40
0.0
 40
0.0029114949483362
 40
0.1103449700018815
 40
0.2177792512512349
 40
0.3251903449012482
 40
0.432553586376474
 40
0.5398727389020744
 40
0.6471708839500624
 40
0.754480280017078
 40
0.8618784706644689
 40
0.9692754543929452
 40
0.9970885050516539
 40
0.9999999999999999
 40
0.9999999999999999
 40
0.9999999999999999
 40
0.9999999999999999
 10
89.1139512995385
 20
296.0415063896195
 30
0.0
 10
89.11387980804756
 20
296.0654751108134
 30
0.0
 10
89.1111702974473
 20
296.973883975691
 30
0.0
 10
88.78600068146524
 20
298.7783527663282
 30
0.0
 10
87.45393547546625
 20
301.129221755892
 30
0.0
 10
85.41696985308782
 20
302.9088640551011
 30
0.0
 10
82.90667365270757
 20
303.9127984350837
 30
0.0
 10
80.20626557148314
 20
304.0293607652802
 30
0.0
 10
77.61997271180226
 20
303.2460654529337
 30
0.0
 10
75.43837905868264
 20
301.6504455190313
 30
0.0
 10
73.90702207559374
 20
299.4245821450801
 30
0.0
 10
73.37511797846663
 20
297.4547999617082
 30
0.0
 10
73.3147734639553
 20
296.3184351879016
 30
0.0
 10
73.31402246509505
 20
296.0654770111279
 30
0.0
 10
73.31395129953849
 20
296.0415063896177
 30
0.0
  0
ARC
  5
E0
330
1F
100
AcDbEntity
  8
0
  6
Continuous
 62
     7
370
    25
100
AcDbCircle
 10
81.2213119748
 20
151.5983176755
 30
0.0
 40
7.892642769867599
100
AcDbArc
 50
269.9465659729
 51
359.9464661214
  0
ARC
  5
E1
330
1F
100
AcDbEntity
  8
0
  6
Continuous
 62
     7
370
    25
100
AcDbCircle
 10
81.2065906243
 20
151.5983176755
 30
0.0
 40
7.89264276986756
100
AcDbArc
 50
180.0535338786
 51
270.0534340271
  0
SPLINE
  5
E2
330
1F
100
AcDbEntity
  8
0
  6
Continuous
 62
     7
370
    25
100
AcDbSpline
210
0.0
220
0.0
230
1.0
 70
     8
 71
     3
 72
    26
 73
    22
 74
     0
 42
0.00000001
 43
0.00000001
 40
0.0
 40
0.0
 40
0.0
 40
0.0
 40
0.0373949440464554
 40
0.0917984607298448
 40
0.1477796868989923
 40
0.2021833089486321
 40
0.2581629553053365
 40
0.3126343452806032
 40
0.3686712887539498
 40
0.4233751471368685
 40
0.4796653771310891
 40
0.5343702208386447
 40
0.5906479831388838
 40
0.6455763754421128
 40
0.7020960939089472
 40
0.7570513109130368
 40
0.8135942762352973
 40
0.8686675366092025
 40
0.9253324936867288
 40
0.9804949119972862
 40
1.0
 40
1.0
 40
1.0
 40
1.0
 10
88.15465571492022
 20
143.5069527477388
 30
0.0
 10
87.84445433089029
 20
143.2505790795151
 30
0.0
 10
87.08296075745855
 20
142.6212237290869
 30
0.0
 10
85.69498353887482
 20
141.8267231010907
 30
0.0
 10
84.02997148495433
 20
141.1983919046628
 30
0.0
 10
82.26426094355304
 20
140.858664989282
 30
0.0
 10
80.48303809668764
 20
140.8191861797771
 30
0.0
 10
78.703486832959
 20
141.0798575681918
 30
0.0
 10
77.00530554767249
 20
141.6296476020576
 30
0.0
 10
75.40670905790321
 20
142.4643997944398
 30
0.0
 10
73.98231593512106
 20
143.5469768895945
 30
0.0
 10
72.74916739006538
 20
144.8645857445454
 30
0.0
 10
71.7616498666979
 20
146.3573816532009
 30
0.0
 10
71.03109937872888
 20
148.0115021792994
 30
0.0
 10
70.59254172332575
 20
149.7512816367183
 30
0.0
 10
70.45155310258399
 20
151.5568332808591
 30
0.0
 10
70.61538441025961
 20
153.3444618654358
 30
0.0
 10
71.07742422195376
 20
155.1005468427328
 30
0.0
 10
71.8370932816094
 20
156.7265929223659
 30
0.0
 10
72.59814578232115
 20
157.9307986569036
 30
0.0
 10
73.16569320271572
 20
158.4986706568906
 30
0.0
 10
73.31395129953849
 20
158.6470135423159
 30
0.0
  0
SPLINE
  5
E3
330
1F
100
AcDbEntity
  8
0
  6
Continuous
 62
     7
370
    25
100
AcDbSpline
210
0.0
220
0.0
230
1.0
 70
     8
 71
     3
 72
     9
 73
     5
 74
     0
 42
0.00000001
 43
0.00000001
 40
0.0
 40
0.0
 40
0.0
 40
0.0
 40
0.7118256125494702
 40
1.0
 40
1.0
 40
1.0
 40
1.0
 10
88.22228064496873
 20
143.4191432799798
 30
0.0
 10
88.20954982198259
 20
143.4363888941431
 30
0.0
 10
88.1916650721763
 20
143.4606161962508
 30
0.0
 10
88.1629349890318
 20
143.4965869094861
 30
0.0
 10
88.15465571492022
 20
143.5069527477388
 30
0.0
  0
LINE
  5
E4
330
1F
100
AcDbEntity
  8
0
  6
Continuous
 62
     7
370
    25
100
AcDbLine
 10
81.2139512995
 20
303.9415063896
 30
0.0
 11
80.6479173083
 21
303.8981020298
 31
0.0
  0
SPLINE
  5
E5
330
1F
100
AcDbEntity
  8
0
  6
Continuous
 62
     7
370
    25
100
AcDbSpline
210
0.0
220
0.0
230
1.0
 70
     8
 71
     3
 72
    27
 73
    23
 74
     0
 42
0.00000001
 43
0.00000001
 40
0.0
 40
0.0
 40
0.0
 40
0.0
 40
0.0105576388416009
 40
0.0489454086825492
 40
0.1018493607400487
 40
0.1547534606506872
 40
0.2076581786657623
 40
0.2605620674206846
 40
0.3134672956886032
 40
0.3663711466951067
 40
0.4192761869788702
 40
0.472180143450082
 40
0.5250843067036464
 40
0.57798897994254
 40
0.6308928732402852
 40
0.6837980918028002
 40
0.7367019385155908
 40
0.789607006209592
 40
0.8425109648323759
 40
0.8954151897439202
 40
0.948319816504827
 40
1.0
 40
1.0
 40
1.0
 40
1.0
 10
77.27600993391526
 20
302.8098758721017
 30
0.0
 10
77.11099968524519
 20
302.7387600360109
 30
0.0
 10
76.34600912446365
 20
302.4090657062949
 30
0.0
 10
75.36027302268936
 20
301.4172493492165
 30
0.0
 10
73.83289351503652
 20
299.3301393096772
 30
0.0
 10
73.20145953815185
 20
296.7266936169798
 30
0.0
 10
73.41544868683131
 20
294.0285843766058
 30
0.0
 10
74.52452018453323
 20
291.5622023112334
 30
0.0
 10
76.38389377299391
 20
289.5996761114534
 30
0.0
 10
78.78906257202878
 20
288.3640441323298
 30
0.0
 10
81.4674505796075
 20
287.9941534796645
 30
0.0
 10
84.11730273209186
 20
288.5318794652542
 30
0.0
 10
86.43968269641438
 20
289.9164933520115
 30
0.0
 10
88.17275754985118
 20
291.9919298017713
 30
0.0
 10
89.12098131578463
 20
294.5240231903468
 30
0.0
 10
89.17751848919339
 20
297.2272755172471
 30
0.0
 10
88.33574794151994
 20
299.7969869610998
 30
0.0
 10
86.69145756263612
 20
301.9422057024438
 30
0.0
 10
84.42687338254134
 20
303.4256630844889
 30
0.0
 10
81.80949874424208
 20
304.0623639111941
 30
0.0
 10
79.11030690065624
 20
303.8483646957012
 30
0.0
 10
77.56040817428791
 20
303.0059617993558
 30
0.0
 10
76.79453165377289
 20
302.5896916339905
 30
0.0
  0
ARC
  5
E6
330
1F
100
AcDbEntity
  8
0
  6
Continuous
 62
     7
370
    25
100
AcDbCircle
 10
81.2139510891
 20
151.4433637515
 30
0.0
 40
11.54194977139337
100
AcDbArc
 50
133.8761556993
 51
46.124746573
  0
ARC
  5
E7
330
1F
100
AcDbEntity
  8
0
  6
Continuous
 62
     7
370
    25
100
AcDbCircle
 10
81.2139428521
 20
151.4452158644
 30
0.0
 40
10.79260756446655
100
AcDbArc
 50
137.8598457757
 51
42.1795578223
  0
ARC
  5
E8
330
1F
100
AcDbEntity
  8
0
  6
Continuous
 62
     7
370
    25
100
AcDbCircle
 10
81.2139512995
 20
150.6677885578
 30
0.0
 40
11.55001270712947
100
AcDbArc
 50
180.0849904574
 51
359.9150095426
  0
ARC
  5
E9
330
1F
100
AcDbEntity
  8
0
  6
Continuous
 62
     7
370
    25
100
AcDbCircle
 10
81.2153805825
 20
151.4600328551
 30
0.0
 40
10.51100264300997
100
AcDbArc
 50
270.8948818376
 51
311.2999581455
  0
ARC
  5
EA
330
1F
100
AcDbEntity
  8
0
  6
Continuous
 62
     7
370
    25
100
AcDbCircle
 10
81.2139512995
 20
296.0415063896
 30
0.0
 40
8.050000000000013
100
AcDbArc
 50
351.4055733532
 51
190.9983005586
  0
ARC
  5
EB
330
1F
100
AcDbEntity
  8
0
  6
Continuous
 62
     7
370
    25
100
AcDbCircle
 10
81.2139512995
 20
296.0415063896
 30
0.0
 40
8.250000000000014
100
AcDbArc
 50
345.1409807337
 51
192.9237557392
  0
ARC
  5
EC
330
1F
100
AcDbEntity
  8
0
  6
Continuous
 62
     7
370
    25
100
AcDbCircle
 10
81.2139512995
 20
296.0415063896
 30
0.0
 40
9.574999999999974
100
AcDbArc
 50
326.5128807601
 51
214.0578145862
  0
ARC
  5
ED
330
1F
100
AcDbEntity
  8
0
  6
Continuous
 62
     7
370
    25
100
AcDbCircle
 10
81.2139512995
 20
296.0415063896
 30
0.0
 40
9.92500000000006
100
AcDbArc
 50
323.6616074866
 51
67.9957718913
  0
ARC
  5
EE
330
1F
100
AcDbEntity
  8
0
  6
Continuous
 62
     7
370
    25
100
AcDbCircle
 10
81.2139512995
 20
296.0415063896
 30
0.0
 40
9.92500000000006
100
AcDbArc
 50
67.9957718913
 51
216.4209177241
  0
ARC
  5
EF
330
1F
100
AcDbEntity
  8
0
  6
Continuous
 62
     7
370
    25
100
AcDbCircle
 10
81.2139512995
 20
296.0415063896
 30
0.0
 40
9.725000000000048
100
AcDbArc
 50
67.9957718913
 51
214.556041342
  0
ARC
  5
F0
330
1F
100
AcDbEntity
  8
0
  6
Continuous
 62
     7
370
    25
100
AcDbCircle
 10
81.2139512995
 20
296.0415063896
 30
0.0
 40
9.725000000000048
100
AcDbArc
 50
324.7251912266
 51
67.9957718913
  0
ARC
  5
F1
330
1F
100
AcDbEntity
  8
0
  6
Continuous
 62
     7
370
    25
100
AcDbCircle
 10
81.2139512995
 20
296.0415063896
 30
0.0
 40
14.22500000000004
100
AcDbArc
 50
304.1359256908
 51
67.9957718913
  0
ARC
  5
F2
330
1F
100
AcDbEntity
  8
0
  6
Continuous
 62
     7
370
    25
100
AcDbCircle
 10
81.2139512995
 20
296.0415063896
 30
0.0
 40
14.22500000000005
100
AcDbArc
 50
67.9957718913
 51
235.9348350554
  0
LINE
  5
F3
330
1F
100
AcDbEntity
  8
0
  6
Continuous
 62
     7
370
    25
100
AcDbLine
 10
70.0359057354
 20
304.8393426216
 30
0.0
 11
69.8452935926
 21
304.9893665597
 31
0.0
  0
SPLINE
  5
F4
330
1F
100
AcDbEntity
  8
0
  6
Continuous
 62
     7
370
    25
100
AcDbSpline
210
0.0
220
0.0
230
1.0
 70
     8
 71
     3
 72
    11
 73
     7
 74
     0
 42
0.00000001
 43
0.00000001
 40
0.0
 40
0.0
 40
0.0
 40
0.0
 40
0.1446702591042515
 40
0.3907520209323662
 40
0.5962314811354613
 40
1.0
 40
1.0
 40
1.0
 40
1.0
 10
75.28415563423967
 20
309.2380249854165
 30
0.0
 10
74.99962766198642
 20
309.064108544791
 30
0.0
 10
74.23112222860895
 20
308.5943630624193
 30
0.0
 10
73.10464062469086
 20
307.8041378983567
 30
0.0
 10
71.54166186409442
 20
306.5987280015245
 30
0.0
 10
70.52143273331062
 20
305.6308264836391
 30
0.0
 10
69.8452935926122
 20
304.9893665597483
 30
0.0
  0
LINE
  5
F5
330
1F
100
AcDbEntity
  8
0
  6
Continuous
 62
     7
370
    25
100
AcDbLine
 10
75.3835773151
 20
309.0167660865
 30
0.0
 11
75.2841556342
 21
309.2380249854
 31
0.0
  0
LINE
  5
F6
330
1F
100
AcDbEntity
  8
0
  6
Continuous
 62
     7
370
    25
100
AcDbLine
 10
68.0057788422
 20
290.7599530824
 30
0.0
 11
67.7805482292
 21
290.6698900936
 31
0.0
  0
SPLINE
  5
F7
330
1F
100
AcDbEntity
  8
0
  6
Continuous
 62
     7
370
    25
100
AcDbSpline
210
0.0
220
0.0
230
1.0
 70
     8
 71
     3
 72
    11
 73
     7
 74
     0
 42
0.00000001
 43
0.00000001
 40
0.0
 40
0.0
 40
0.0
 40
0.0
 40
0.1446702591042583
 40
0.3907520209323604
 40
0.5962314811354762
 40
0.9999999999999999
 40
0.9999999999999999
 40
0.9999999999999999
 40
0.9999999999999999
 10
66.82053312141356
 20
297.5044120021174
 30
0.0
 10
66.82888519100436
 20
297.1710453297461
 30
0.0
 10
66.85144399536244
 20
296.270627360309
 30
0.0
 10
66.97255826019139
 20
294.8999530923887
 30
0.0
 10
67.23498447252297
 20
292.9436688317206
 30
0.0
 10
67.56309720998141
 20
291.5761737278382
 30
0.0
 10
67.78054822923127
 20
290.669890093555
 30
0.0
  0
LINE
  5
F8
330
1F
100
AcDbEntity
  8
0
  6
Continuous
 62
     7
370
    25
100
AcDbLine
 10
67.0618597891
 20
297.4798842539
 30
0.0
 11
66.8205331214
 21
297.5044120021
 31
0.0
  0
LINE
  5
F9
330
1F
100
AcDbEntity
  8
0
  6
Continuous
 62
     7
370
    25
100
AcDbLine
 10
72.8922337736
 20
284.5046245571
 30
0.0
 11
72.7503287867
 21
284.3078934063
 31
0.0
  0
LINE
  5
FA
330
1F
100
AcDbEntity
  8
0
  6
Continuous
 62
     7
370
    25
100
AcDbLine
 10
83.2440781927
 20
310.1208959289
 30
0.0
 11
83.2786966629
 21
310.3609828558
 31
0.0
  0
SPLINE
  5
FB
330
1F
100
AcDbEntity
  8
0
  6
Continuous
 62
     7
370
    25
100
AcDbSpline
210
0.0
220
0.0
230
1.0
 70
     8
 71
     3
 72
    11
 73
     7
 74
     0
 42
0.00000001
 43
0.00000001
 40
0.0
 40
0.0
 40
0.0
 40
0.0
 40
0.1446702591042547
 40
0.3907520209323659
 40
0.5962314811354797
 40
0.9999999999999999
 40
0.9999999999999999
 40
0.9999999999999999
 40
0.9999999999999999
 10
89.67757381236457
 20
307.7751193729167
 30
0.0
 10
89.38469377052054
 20
307.9345696046626
 30
0.0
 10
88.59362953278496
 20
308.365242091728
 30
0.0
 10
87.34603366403789
 20
308.9456911955856
 30
0.0
 10
85.52062869110988
 20
309.6965655594215
 30
0.0
 10
84.17228682286765
 20
310.0961591454184
 30
0.0
 10
83.27869666291943
 20
310.3609828558108
 30
0.0
  0
LINE
  5
FC
330
1F
100
AcDbEntity
  8
0
  6
Continuous
 62
     7
370
    25
100
AcDbLine
 10
89.6775738124
 20
307.7751193729
 30
0.0
 11
89.5356688255
 21
307.5783882222
 31
0.0
  0
LINE
  5
FD
330
1F
100
AcDbEntity
  8
0
  6
Continuous
 62
     7
370
    25
100
AcDbLine
 10
92.5826090065
 20
287.0936462195
 30
0.0
 11
92.3919968637
 21
287.2436701576
 31
0.0
  0
LINE
  5
FE
330
1F
100
AcDbEntity
  8
0
  6
Continuous
 62
     7
370
    25
100
AcDbLine
 10
94.6473543698
 20
301.4131226857
 30
0.0
 11
94.4221237569
 21
301.3230596968
 31
0.0
  0
SPLINE
  5
FF
330
1F
100
AcDbEntity
  8
0
  6
Continuous
 62
     7
370
    25
100
AcDbSpline
210
0.0
220
0.0
230
1.0
 70
     8
 71
     3
 72
    11
 73
     7
 74
     0
 42
0.00000001
 43
0.00000001
 40
0.0
 40
0.0
 40
0.0
 40
0.0
 40
0.1446702591042541
 40
0.390752020932363
 40
0.5962314811354598
 40
1.0
 40
1.0
 40
1.0
 40
1.0
 10
95.60736947766343
 20
294.5786007771179
 30
0.0
 10
95.59901740807261
 20
294.9119674494892
 30
0.0
 10
95.57645860371449
 20
295.8123854189262
 30
0.0
 10
95.45534433888557
 20
297.1830596868465
 30
0.0
 10
95.19291812655395
 20
299.1393439475145
 30
0.0
 10
94.86480538909555
 20
300.5068390513969
 30
0.0
 10
94.6473543698457
 20
301.4131226856801
 30
0.0
  0
LINE
  5
100
330
1F
100
AcDbEntity
  8
0
  6
Continuous
 62
     7
370
    25
100
AcDbLine
 10
95.6073694777
 20
294.5786007771
 30
0.0
 11
95.36604281
 21
294.6031285253
 31
0.0
  0
SPLINE
  5
101
330
1F
100
AcDbEntity
  8
0
  6
Continuous
 62
     7
370
    25
100
AcDbSpline
210
0.0
220
0.0
230
1.0
 70
     8
 71
     3
 72
     9
 73
     5
 74
     0
 42
0.00000001
 43
0.00000001
 40
0.0
 40
0.0
 40
0.0
 40
0.0
 40
0.5862283062032545
 40
1.0
 40
1.0
 40
1.0
 40
1.0
 10
92.58260900646468
 20
287.093646219487
 30
0.0
 10
92.81631379771952
 20
287.3305497573787
 30
0.0
 10
93.21497211698157
 20
287.7346645627965
 30
0.0
 10
93.59856197974693
 20
288.1546986972701
 30
0.0
 10
93.75728060698661
 20
288.3284969325437
 30
0.0
  0
SPLINE
  5
102
330
1F
100
AcDbEntity
  8
0
  6
Continuous
 62
     7
370
    25
100
AcDbSpline
210
0.0
220
0.0
230
1.0
 70
     8
 71
     3
 72
     9
 73
     5
 74
     0
 42
0.00000001
 43
0.00000001
 40
0.0
 40
0.0
 40
0.0
 40
0.0
 40
0.5863847898283551
 40
1.0
 40
1.0
 40
1.0
 40
1.0
 10
95.59430659666943
 20
292.8743299612704
 30
0.0
 10
95.60296086380609
 20
293.2077778712991
 30
0.0
 10
95.61771954664843
 20
293.7764282111662
 30
0.0
 10
95.61039784487942
 20
294.3438899646757
 30
0.0
 10
95.60736947766343
 20
294.5786007771179
 30
0.0
  0
ARC
  5
103
330
1F
100
AcDbEntity
  8
0
  6
Continuous
 62
     7
370
    25
100
AcDbCircle
 10
81.2139512995
 20
296.0415063896
 30
0.0
 40
14.72500000000002
100
AcDbArc
 50
328.4122563286
 51
347.579287454
  0
SPLINE
  5
104
330
1F
100
AcDbEntity
  8
0
  6
Continuous
 62
     7
370
    25
100
AcDbSpline
210
0.0
220
0.0
230
1.0
 70
     8
 71
     3
 72
     9
 73
     5
 74
     0
 42
0.00000001
 43
0.00000001
 40
0.0
 40
0.0
 40
0.0
 40
0.0
 40
0.5862283062032788
 40
1.0
 40
1.0
 40
1.0
 40
1.0
 10
94.6473543698457
 20
301.4131226856801
 30
0.0
 10
94.55904228341245
 20
301.7339687408388
 30
0.0
 10
94.40839775550624
 20
302.2812743754587
 30
0.0
 10
94.23643245597823
 20
302.8234900084844
 30
0.0
 10
94.16527808271826
 20
303.0478434893646
 30
0.0
  0
SPLINE
  5
105
330
1F
100
AcDbEntity
  8
0
  6
Continuous
 62
     7
370
    25
100
AcDbSpline
210
0.0
220
0.0
230
1.0
 70
     8
 71
     3
 72
     9
 73
     5
 74
     0
 42
0.00000001
 43
0.00000001
 40
0.0
 40
0.0
 40
0.0
 40
0.0
 40
0.5863847898283728
 40
1.0
 40
1.0
 40
1.0
 40
1.0
 10
91.14698419331994
 20
306.9116711782055
 30
0.0
 10
90.86253696596452
 20
307.0858899484114
 30
0.0
 10
90.37745066719016
 20
307.3829965126128
 30
0.0
 10
89.8823535220904
 20
307.6603866096367
 30
0.0
 10
89.67757381236457
 20
307.7751193729167
 30
0.0
  0
ARC
  5
106
330
1F
100
AcDbEntity
  8
0
  6
Continuous
 62
     7
370
    25
100
AcDbCircle
 10
81.2139512995
 20
296.0415063896
 30
0.0
 40
14.725
100
AcDbArc
 50
28.4122563286
 51
47.579287454
  0
SPLINE
  5
107
330
1F
100
AcDbEntity
  8
0
  6
Continuous
 62
     7
370
    25
100
AcDbSpline
210
0.0
220
0.0
230
1.0
 70
     8
 71
     3
 72
     9
 73
     5
 74
     0
 42
0.00000001
 43
0.00000001
 40
0.0
 40
0.0
 40
0.0
 40
0.0
 40
0.5862283062032736
 40
1.0
 40
1.0
 40
1.0
 40
1.0
 10
67.78054822923127
 20
290.669890093555
 30
0.0
 10
67.86886031566452
 20
290.3490440383964
 30
0.0
 10
68.01950484357073
 20
289.8017384037765
 30
0.0
 10
68.19147014309873
 20
289.2595227707508
 30
0.0
 10
68.26262451635868
 20
289.0351692898707
 30
0.0
  0
SPLINE
  5
108
330
1F
100
AcDbEntity
  8
0
  6
Continuous
 62
     7
370
    25
100
AcDbSpline
210
0.0
220
0.0
230
1.0
 70
     8
 71
     3
 72
     9
 73
     5
 74
     0
 42
0.00000001
 43
0.00000001
 40
0.0
 40
0.0
 40
0.0
 40
0.0
 40
0.5863847898283553
 40
1.0
 40
1.0
 40
1.0
 40
1.0
 10
71.28091840575699
 20
285.1713416010297
 30
0.0
 10
71.56536563311242
 20
284.9971228308239
 30
0.0
 10
72.05045193188681
 20
284.7000162666225
 30
0.0
 10
72.54554907698656
 20
284.4226261695987
 30
0.0
 10
72.75032878671236
 20
284.3078934063186
 30
0.0
  0
ARC
  5
109
330
1F
100
AcDbEntity
  8
0
  6
Continuous
 62
     7
370
    25
100
AcDbCircle
 10
81.2139512995
 20
296.0415063896
 30
0.0
 40
14.72500000000007
100
AcDbArc
 50
208.4122563286
 51
227.579287454
  0
SPLINE
  5
10A
330
1F
100
AcDbEntity
  8
0
  6
Continuous
 62
     7
370
    25
100
AcDbSpline
210
0.0
220
0.0
230
1.0
 70
     8
 71
     3
 72
     9
 73
     5
 74
     0
 42
0.00000001
 43
0.00000001
 40
0.0
 40
0.0
 40
0.0
 40
0.0
 40
0.5863847898283813
 40
1.0
 40
1.0
 40
1.0
 40
1.0
 10
76.76662889618902
 20
310.0788476065528
 30
0.0
 10
76.47352740169694
 20
309.9196184667299
 30
0.0
 10
75.97368242008024
 20
309.6480746910642
 30
0.0
 10
75.48590697674948
 20
309.3580030345786
 30
0.0
 10
75.28415563423967
 20
309.2380249854165
 30
0.0
  0
ARC
  5
10B
330
1F
100
AcDbEntity
  8
0
  6
Continuous
 62
     7
370
    25
100
AcDbCircle
 10
81.2139512995
 20
296.0415063896
 30
0.0
 40
14.72500000000001
100
AcDbArc
 50
88.4122563286
 51
107.579287454
  0
SPLINE
  5
10C
330
1F
100
AcDbEntity
  8
0
  6
Continuous
 62
     7
370
    25
100
AcDbSpline
210
0.0
220
0.0
230
1.0
 70
     8
 71
     3
 72
     9
 73
     5
 74
     0
 42
0.00000001
 43
0.00000001
 40
0.0
 40
0.0
 40
0.0
 40
0.0
 40
0.5862283062032884
 40
1.0
 40
1.0
 40
1.0
 40
1.0
 10
83.27869666291943
 20
310.3609828558108
 30
0.0
 10
82.95667978523134
 20
310.4449253730778
 30
0.0
 10
82.40737693806311
 20
310.5881162022798
 30
0.0
 10
81.85182177576976
 20
310.710297700832
 30
0.0
 10
81.62194877527014
 20
310.7608529464386
 30
0.0
  0
SPLINE
  5
10D
330
1F
100
AcDbEntity
  8
0
  6
Continuous
 62
     7
370
    25
100
AcDbSpline
210
0.0
220
0.0
230
1.0
 70
     8
 71
     3
 72
     9
 73
     5
 74
     0
 42
0.00000001
 43
0.00000001
 40
0.0
 40
0.0
 40
0.0
 40
0.0
 40
0.586228306203291
 40
1.0
 40
1.0
 40
1.0
 40
1.0
 10
69.8452935926122
 20
304.9893665597483
 30
0.0
 10
69.61158880135737
 20
304.7524630218566
 30
0.0
 10
69.21293048209535
 20
304.3483482164388
 30
0.0
 10
68.82934061933
 20
303.9283140819652
 30
0.0
 10
68.67062199209035
 20
303.7545158466917
 30
0.0
  0
SPLINE
  5
10E
330
1F
100
AcDbEntity
  8
0
  6
Continuous
 62
     7
370
    25
100
AcDbSpline
210
0.0
220
0.0
230
1.0
 70
     8
 71
     3
 72
     9
 73
     5
 74
     0
 42
0.00000001
 43
0.00000001
 40
0.0
 40
0.0
 40
0.0
 40
0.0
 40
0.5863847898283603
 40
1.0
 40
1.0
 40
1.0
 40
1.0
 10
66.83359600240752
 20
299.2086828179649
 30
0.0
 10
66.82494173527087
 20
298.8752349079361
 30
0.0
 10
66.8101830524285
 20
298.306584568069
 30
0.0
 10
66.81750475419754
 20
297.7391228145596
 30
0.0
 10
66.82053312141356
 20
297.5044120021174
 30
0.0
  0
ARC
  5
10F
330
1F
100
AcDbEntity
  8
0
  6
Continuous
 62
     7
370
    25
100
AcDbCircle
 10
81.2139512995
 20
296.0415063896
 30
0.0
 40
14.72500000000002
100
AcDbArc
 50
148.4122563286
 51
167.579287454
  0
ARC
  5
110
330
1F
100
AcDbEntity
  8
0
  6
Continuous
 62
     7
370
    25
100
AcDbCircle
 10
94.7382718469
 20
301.0347110526
 30
0.0
 40
0.3891803588389539
100
AcDbArc
 50
64.8832402544
 51
103.5098606992
  0
SPLINE
  5
111
330
1F
100
AcDbEntity
  8
0
  6
Continuous
 62
     7
370
    25
100
AcDbSpline
210
0.0
220
0.0
230
1.0
 70
    24
 71
     3
 72
    12
 73
     8
 74
     0
 42
0.00000001
 43
0.00000001
 40
0.0
 40
0.0
 40
0.0
 40
0.0
 40
0.3013828945621554
 40
0.4108442493795788
 40
0.6247185195336634
 40
0.6986171054378622
 40
1.0
 40
1.0
 40
1.0
 40
1.0
 10
94.9034650135846
 20
301.3870923367033
 30
0.0
 10
94.99793272628587
 20
300.7145595329475
 30
0.0
 10
95.12671082622332
 20
299.797764851074
 30
0.0
 10
95.32346786931348
 20
298.3970157266982
 30
0.0
 10
95.44881281900993
 20
297.5046622649119
 30
0.0
 10
95.63430415364056
 20
296.1841157651147
 30
0.0
 10
95.7519324733288
 20
295.346698393836
 30
0.0
 10
95.84639800204624
 20
294.6741811382577
 30
0.0
  0
ARC
  5
112
330
1F
100
AcDbEntity
  8
0
  6
Continuous
 62
     7
370
    25
100
AcDbCircle
 10
95.5905179686
 20
294.9674161296
 30
0.0
 40
0.3891803587975829
100
AcDbArc
 50
272.4816830813
 51
311.1083035304
  0
SPLINE
  5
113
330
1F
100
AcDbEntity
  8
0
  6
Continuous
 62
     7
370
    25
100
AcDbSpline
210
0.0
220
0.0
230
1.0
 70
    24
 71
     3
 72
    12
 73
     8
 74
     0
 42
0.00000001
 43
0.00000001
 40
0.0
 40
0.0
 40
0.0
 40
0.0
 40
0.3013828945620896
 40
0.4108442493795674
 40
0.6247185195336445
 40
0.6986171054378643
 40
1.0
 40
1.0
 40
1.0
 40
1.0
 10
69.73978121422606
 20
305.2241800578942
 30
0.0
 10
70.27497785080627
 20
305.6422578988087
 30
0.0
 10
71.00455628539443
 20
306.2121803457424
 30
0.0
 10
72.11926208988763
 20
307.0829515056199
 30
0.0
 10
72.82939038210141
 20
307.6376801471863
 30
0.0
 10
73.88027153048913
 20
308.4585936050569
 30
0.0
 10
74.54668208774274
 20
308.9791714037507
 30
0.0
 10
75.0818663511982
 20
309.3972395791911
 30
0.0
  0
ARC
  5
114
330
1F
100
AcDbEntity
  8
0
  6
Continuous
 62
     7
370
    25
100
AcDbCircle
 10
74.9558574162
 20
309.0290234742
 30
0.0
 40
0.3891803587961982
100
AcDbArc
 50
32.4816830813
 51
71.1083035305
  0
ARC
  5
115
330
1F
100
AcDbEntity
  8
0
  6
Continuous
 62
     7
370
    25
100
AcDbCircle
 10
70.1275489414
 20
305.2573092211
 30
0.0
 40
0.3891803587984241
100
AcDbArc
 50
184.8832402523
 51
223.5098607013
  0
ARC
  5
116
330
1F
100
AcDbEntity
  8
0
  6
Continuous
 62
     7
370
    25
100
AcDbCircle
 10
92.3003536577
 20
286.8257035581
 30
0.0
 40
0.3891803588384422
100
AcDbArc
 50
4.8832402544
 51
43.5098606992
  0
SPLINE
  5
117
330
1F
100
AcDbEntity
  8
0
  6
Continuous
 62
     7
370
    25
100
AcDbSpline
210
0.0
220
0.0
230
1.0
 70
    24
 71
     3
 72
    11
 73
     7
 74
     0
 42
0.00000001
 43
0.00000001
 40
0.0
 40
0.0
 40
0.0
 40
0.0
 40
0.4507457568859875
 40
0.6144552510781467
 40
0.934323835256068
 40
1.0
 40
1.0
 40
1.0
 40
1.0
 10
92.68812138485082
 20
286.8588327213411
 30
0.0
 10
92.1529173802803
 20
286.4407491247971
 30
0.0
 10
91.42332890167017
 20
285.870818831807
 30
0.0
 10
90.30867028346363
 20
285.0000845322899
 30
0.0
 10
89.65195719944877
 20
284.4870820776787
 30
0.0
 10
89.19225920381682
 20
284.1279812680872
 30
0.0
 10
89.1139512995385
 20
284.0668097335343
 30
0.0
  0
SPLINE
  5
118
330
1F
100
AcDbEntity
  8
0
  6
Continuous
 62
     7
370
    25
100
AcDbSpline
210
0.0
220
0.0
230
1.0
 70
    24
 71
     3
 72
    12
 73
     8
 74
     0
 42
0.00000001
 43
0.00000001
 40
0.0
 40
0.0
 40
0.0
 40
0.0
 40
0.3013828945620985
 40
0.4108442493795585
 40
0.6247185195336514
 40
0.6986171054378598
 40
1.0
 40
1.0
 40
1.0
 40
1.0
 10
67.52443758549236
 20
290.6959204425319
 30
0.0
 10
67.42996987279109
 20
291.3684532462876
 30
0.0
 10
67.30119177285366
 20
292.2852479281611
 30
0.0
 10
67.10443472976351
 20
293.6859970525369
 30
0.0
 10
66.97908978006703
 20
294.5783505143232
 30
0.0
 10
66.79359844543639
 20
295.8988970141205
 30
0.0
 10
66.67597012574818
 20
296.7363143853992
 30
0.0
 10
66.58150459703074
 20
297.4088316409776
 30
0.0
  0
ARC
  5
119
330
1F
100
AcDbEntity
  8
0
  6
Continuous
 62
     7
370
    25
100
AcDbCircle
 10
66.8373846305
 20
297.1155966496
 30
0.0
 40
0.389180358797801
100
AcDbArc
 50
92.4816830813
 51
131.1083035304
  0
ARC
  5
11A
330
1F
100
AcDbEntity
  8
0
  6
Continuous
 62
     7
370
    25
100
AcDbCircle
 10
67.6896307521
 20
291.0483017266
 30
0.0
 40
0.3891803587997701
100
AcDbArc
 50
244.8832402524
 51
283.5098607012
  0
ARC
  5
11B
330
1F
100
AcDbEntity
  8
0
  6
Continuous
 62
     7
370
    25
100
AcDbCircle
 10
83.6518694888
 20
310.2505138841
 30
0.0
 40
0.3891803588386933
100
AcDbArc
 50
124.8832402544
 51
163.5098606992
  0
SPLINE
  5
11C
330
1F
100
AcDbEntity
  8
0
  6
Continuous
 62
     7
370
    25
100
AcDbSpline
210
0.0
220
0.0
230
1.0
 70
    24
 71
     3
 72
    12
 73
     8
 74
     0
 42
0.00000001
 43
0.00000001
 40
0.0
 40
0.0
 40
0.0
 40
0.0
 40
0.3013828945620946
 40
0.4108442493795592
 40
0.6247185195336503
 40
0.6986171054378643
 40
0.9999999999999999
 40
0.9999999999999999
 40
0.9999999999999999
 40
0.9999999999999999
 10
83.42929492827218
 20
310.56976600498
 30
0.0
 10
84.05895927755365
 20
310.3153110421387
 30
0.0
 10
84.91731581207922
 20
309.9684388071989
 30
0.0
 10
86.22877865966261
 20
309.4384608427006
 30
0.0
 10
87.06425190157285
 20
309.1008360224806
 30
0.0
 10
88.30062438459122
 20
308.601202980554
 30
0.0
 10
89.08466326153305
 20
308.2843634079692
 30
0.0
 10
89.71431305370596
 20
308.0299143278312
 30
0.0
  0
ARC
  5
11D
330
1F
100
AcDbEntity
  8
0
  6
Continuous
 62
     7
370
    25
100
AcDbCircle
 10
89.3324240852
 20
307.9549332142
 30
0.0
 40
0.389180358796354
100
AcDbArc
 50
332.4816830813
 51
11.1083035305
  0
LINE
  5
11E
330
1F
100
AcDbEntity
  8
0
  6
Continuous
 62
     7
370
    25
100
AcDbLine
 10
73.3139512995
 20
283.8104850209
 30
0.0
 11
72.7135895454
 21
284.0530984514
 31
0.0
  0
ARC
  5
11F
330
1F
100
AcDbEntity
  8
0
  6
Continuous
 62
     7
370
    25
100
AcDbCircle
 10
73.0954785139
 20
284.1280795651
 30
0.0
 40
0.389180358796489
100
AcDbArc
 50
152.4816830813
 51
191.1083035305
  0
LINE
  5
120
330
1F
100
AcDbEntity
  8
0
  6
Continuous
 62
     7
370
    25
100
AcDbLine
 10
75.0818663512
 20
309.3972395792
 30
0.0
 11
76.4588272348
 21
310.4728756985
 31
0.0
  0
LINE
  5
121
330
1F
100
AcDbEntity
  8
0
  6
Continuous
 62
     7
370
    25
100
AcDbLine
 10
76.4588272348
 20
310.4728756985
 30
0.0
 11
76.7666288962
 21
310.0788476066
 31
0.0
  0
LINE
  5
122
330
1F
100
AcDbEntity
  8
0
  6
Continuous
 62
     7
370
    25
100
AcDbLine
 10
95.846398002
 20
294.6741811383
 30
0.0
 11
96.0894457648
 21
292.9438799734
 31
0.0
  0
LINE
  5
123
330
1F
100
AcDbEntity
  8
0
  6
Continuous
 62
     7
370
    25
100
AcDbLine
 10
96.0894457648
 20
292.9438799734
 30
0.0
 11
95.5943065967
 21
292.8743299613
 31
0.0
  0
LINE
  5
124
330
1F
100
AcDbEntity
  8
0
  6
Continuous
 62
     7
370
    25
100
AcDbLine
 10
89.7143130537
 20
308.0299143278
 30
0.0
 11
91.3343217
 21
307.3752492823
 31
0.0
  0
LINE
  5
125
330
1F
100
AcDbEntity
  8
0
  6
Continuous
 62
     7
370
    25
100
AcDbLine
 10
91.1469841933
 20
306.9116711782
 30
0.0
 11
91.3343217
 21
307.3752492823
 31
0.0
  0
LINE
  5
126
330
1F
100
AcDbEntity
  8
0
  6
Continuous
 62
     7
370
    25
100
AcDbLine
 10
72.7135895454
 20
284.0530984514
 30
0.0
 11
71.0935808991
 21
284.7077634969
 31
0.0
  0
LINE
  5
127
330
1F
100
AcDbEntity
  8
0
  6
Continuous
 62
     7
370
    25
100
AcDbLine
 10
71.0935808991
 20
284.7077634969
 30
0.0
 11
71.2809184058
 21
285.171341601
 31
0.0
  0
LINE
  5
128
330
1F
100
AcDbEntity
  8
0
  6
Continuous
 62
     7
370
    25
100
AcDbLine
 10
66.581504597
 20
297.408831641
 30
0.0
 11
66.3384568343
 21
299.1391328058
 31
0.0
  0
LINE
  5
129
330
1F
100
AcDbEntity
  8
0
  6
Continuous
 62
     7
370
    25
100
AcDbLine
 10
66.3384568343
 20
299.1391328058
 30
0.0
 11
66.8335960024
 21
299.208682818
 31
0.0
  0
LINE
  5
12A
330
1F
100
AcDbEntity
  8
0
  6
Continuous
 62
     7
370
    25
100
AcDbLine
 10
94.1652780827
 20
303.0478434894
 30
0.0
 11
94.6604172508
 21
303.1173935015
 31
0.0
  0
LINE
  5
12B
330
1F
100
AcDbEntity
  8
0
  6
Continuous
 62
     7
370
    25
100
AcDbLine
 10
94.6604172508
 20
303.1173935015
 30
0.0
 11
94.9034650136
 21
301.3870923367
 31
0.0
  0
LINE
  5
12C
330
1F
100
AcDbEntity
  8
0
  6
Continuous
 62
     7
370
    25
100
AcDbLine
 10
67.7674853482
 20
288.9656192777
 30
0.0
 11
67.5244375855
 21
290.6959204425
 31
0.0
  0
LINE
  5
12D
330
1F
100
AcDbEntity
  8
0
  6
Continuous
 62
     7
370
    25
100
AcDbLine
 10
68.2626245164
 20
289.0351692899
 30
0.0
 11
67.7674853482
 21
288.9656192777
 31
0.0
  0
LINE
  5
12E
330
1F
100
AcDbEntity
  8
0
  6
Continuous
 62
     7
370
    25
100
AcDbLine
 10
68.3628203307
 20
304.1485439386
 30
0.0
 11
69.7397812142
 21
305.2241800579
 31
0.0
  0
LINE
  5
12F
330
1F
100
AcDbEntity
  8
0
  6
Continuous
 62
     7
370
    25
100
AcDbLine
 10
68.3628203307
 20
304.1485439386
 30
0.0
 11
68.6706219921
 21
303.7545158467
 31
0.0
  0
LINE
  5
130
330
1F
100
AcDbEntity
  8
0
  6
Continuous
 62
     7
370
    25
100
AcDbLine
 10
93.757280607
 20
288.3284969325
 30
0.0
 11
94.0650822684
 21
287.9344688406
 31
0.0
  0
LINE
  5
131
330
1F
100
AcDbEntity
  8
0
  6
Continuous
 62
     7
370
    25
100
AcDbLine
 10
94.0650822684
 20
287.9344688406
 30
0.0
 11
92.6881213849
 21
286.8588327213
 31
0.0
  0
LINE
  5
132
330
1F
100
AcDbEntity
  8
0
  6
Continuous
 62
     7
370
    25
100
AcDbLine
 10
81.6219487753
 20
310.7608529464
 30
0.0
 11
81.809286282
 21
311.2244310505
 31
0.0
  0
LINE
  5
133
330
1F
100
AcDbEntity
  8
0
  6
Continuous
 62
     7
370
    25
100
AcDbLine
 10
81.809286282
 20
311.2244310505
 30
0.0
 11
83.4292949283
 21
310.569766005
 31
0.0
  0
LINE
  5
134
330
1F
100
AcDbEntity
  8
0
  6
Continuous
 62
     7
370
    25
100
AcDbLine
 10
68.6706219921
 20
303.7545158467
 30
0.0
 11
67.1568243635
 21
302.571987406
 31
0.0
  0
LINE
  5
135
330
1F
100
AcDbEntity
  8
0
  6
Continuous
 62
     7
370
    25
100
AcDbLine
 10
66.5663951463
 20
301.1109342408
 30
0.0
 11
66.8335960024
 21
299.208682818
 31
0.0
  0
ARC
  5
136
330
1F
100
AcDbEntity
  8
0
  6
Continuous
 62
     7
370
    25
100
AcDbCircle
 10
81.2139512995
 20
296.0415063896
 30
0.0
 40
15.5
100
AcDbArc
 50
155.0819616499
 51
160.9095821328
  0
LINE
  5
137
330
1F
100
AcDbEntity
  8
0
  6
Continuous
 62
     7
370
    25
100
AcDbLine
 10
96.0894457648
 20
292.9438799734
 30
0.0
 11
96.3566466209
 21
291.0416285506
 31
0.0
  0
LINE
  5
138
330
1F
100
AcDbEntity
  8
0
  6
Continuous
 62
     7
370
    25
100
AcDbLine
 10
96.3566466209
 20
291.0416285506
 30
0.0
 11
95.8615074527
 21
290.9720785384
 31
0.0
  0
LINE
  5
139
330
1F
100
AcDbEntity
  8
0
  6
Continuous
 62
     7
370
    25
100
AcDbLine
 10
95.8615074527
 20
290.9720785384
 30
0.0
 11
95.5943065967
 21
292.8743299613
 31
0.0
  0
LINE
  5
13A
330
1F
100
AcDbEntity
  8
0
  6
Continuous
 62
     7
370
    25
100
AcDbLine
 10
66.8490227021
 20
302.9660154979
 30
0.0
 11
68.3628203307
 21
304.1485439386
 31
0.0
  0
LINE
  5
13B
330
1F
100
AcDbEntity
  8
0
  6
Continuous
 62
     7
370
    25
100
AcDbLine
 10
66.8490227021
 20
302.9660154979
 30
0.0
 11
67.1568243635
 21
302.571987406
 31
0.0
  0
LINE
  5
13C
330
1F
100
AcDbEntity
  8
0
  6
Continuous
 62
     7
370
    25
100
AcDbLine
 10
66.7033686559
 20
302.7826480839
 30
0.0
 11
67.1568243635
 21
302.571987406
 31
0.0
  0
ARC
  5
13D
330
1F
100
AcDbEntity
  8
0
  6
Continuous
 62
     7
370
    25
100
AcDbCircle
 10
67.1568243635
 20
302.571987406
 30
0.0
 40
0.5000000000000386
100
AcDbArc
 50
127.9957718913
 51
155.0819616499
  0
ARC
  5
13E
330
1F
100
AcDbEntity
  8
0
  6
Continuous
 62
     7
370
    25
100
AcDbCircle
 10
81.2139512995
 20
296.0415063896
 30
0.0
 40
16.00000000000003
100
AcDbArc
 50
155.0819616499
 51
160.9095821328
  0
LINE
  5
13F
330
1F
100
AcDbEntity
  8
0
  6
Continuous
 62
     7
370
    25
100
AcDbLine
 10
66.0938933349
 20
301.2744641715
 30
0.0
 11
66.5663951463
 21
301.1109342408
 31
0.0
  0
ARC
  5
140
330
1F
100
AcDbEntity
  8
0
  6
Continuous
 62
     7
370
    25
100
AcDbCircle
 10
93.8980772266
 20
304.9500949122
 30
0.0
 40
0.5000000000000205
100
AcDbArc
 50
7.9957718913
 51
35.0819616499
  0
LINE
  5
141
330
1F
100
AcDbEntity
  8
0
  6
Continuous
 62
     7
370
    25
100
AcDbLine
 10
93.8980772266
 20
304.9500949122
 30
0.0
 11
94.3932163948
 21
305.0196449244
 31
0.0
  0
LINE
  5
142
330
1F
100
AcDbEntity
  8
0
  6
Continuous
 62
     7
370
    25
100
AcDbLine
 10
93.8980772266
 20
304.9500949122
 30
0.0
 11
94.3072425791
 21
305.2374687355
 31
0.0
  0
LINE
  5
143
330
1F
100
AcDbEntity
  8
0
  6
Continuous
 62
     7
370
    25
100
AcDbLine
 10
66.3384568343
 20
299.1391328058
 30
0.0
 11
66.0712559782
 21
301.0413842287
 31
0.0
  0
LINE
  5
144
330
1F
100
AcDbEntity
  8
0
  6
Continuous
 62
     7
370
    25
100
AcDbLine
 10
66.0712559782
 20
301.0413842287
 30
0.0
 11
66.5663951463
 21
301.1109342408
 31
0.0
  0
LINE
  5
145
330
1F
100
AcDbEntity
  8
0
  6
Continuous
 62
     7
370
    25
100
AcDbLine
 10
93.757280607
 20
288.3284969325
 30
0.0
 11
95.2710782355
 21
289.5110253733
 31
0.0
  0
ARC
  5
146
330
1F
100
AcDbEntity
  8
0
  6
Continuous
 62
     7
370
    25
100
AcDbCircle
 10
81.2139512995
 20
296.0415063896
 30
0.0
 40
15.50000000000003
100
AcDbArc
 50
335.0819616499
 51
340.9095821328
  0
ARC
  5
147
330
1F
100
AcDbEntity
  8
0
  6
Continuous
 62
     7
370
    25
100
AcDbCircle
 10
66.5663951463
 20
301.1109342408
 30
0.0
 40
0.5000000000000135
100
AcDbArc
 50
160.9095821328
 51
187.9957718913
  0
ARC
  5
148
330
1F
100
AcDbEntity
  8
0
  6
Continuous
 62
     7
370
    25
100
AcDbCircle
 10
81.2139512995
 20
296.0415063896
 30
0.0
 40
15.50000000000005
100
AcDbArc
 50
35.0819616499
 51
40.9095821328
  0
LINE
  5
149
330
1F
100
AcDbEntity
  8
0
  6
Continuous
 62
     7
370
    25
100
AcDbLine
 10
92.9279826779
 20
306.191948196
 30
0.0
 11
93.3058546579
 21
306.5193818027
 31
0.0
  0
ARC
  5
14A
330
1F
100
AcDbEntity
  8
0
  6
Continuous
 62
     7
370
    25
100
AcDbCircle
 10
81.2139512995
 20
296.0415063896
 30
0.0
 40
16.00000000000002
100
AcDbArc
 50
35.0819616499
 51
40.9095821328
  0
LINE
  5
14B
330
1F
100
AcDbEntity
  8
0
  6
Continuous
 62
     7
370
    25
100
AcDbLine
 10
94.1652780827
 20
303.0478434894
 30
0.0
 11
93.8980772266
 21
304.9500949122
 31
0.0
  0
LINE
  5
14C
330
1F
100
AcDbEntity
  8
0
  6
Continuous
 62
     7
370
    25
100
AcDbLine
 10
94.3932163948
 20
305.0196449244
 30
0.0
 11
94.6604172508
 21
303.1173935015
 31
0.0
  0
LINE
  5
14D
330
1F
100
AcDbEntity
  8
0
  6
Continuous
 62
     7
370
    25
100
AcDbLine
 10
92.9279826779
 20
306.191948196
 30
0.0
 11
91.1469841933
 21
306.9116711782
 31
0.0
  0
LINE
  5
14E
330
1F
100
AcDbEntity
  8
0
  6
Continuous
 62
     7
370
    25
100
AcDbLine
 10
91.3343217
 20
307.3752492823
 30
0.0
 11
93.1153201846
 21
306.6555263001
 31
0.0
  0
LINE
  5
14F
330
1F
100
AcDbEntity
  8
0
  6
Continuous
 62
     7
370
    25
100
AcDbLine
 10
92.9279826779
 20
306.191948196
 30
0.0
 11
93.1153201846
 21
306.6555263001
 31
0.0
  0
ARC
  5
150
330
1F
100
AcDbEntity
  8
0
  6
Continuous
 62
     7
370
    25
100
AcDbCircle
 10
92.9279826779
 20
306.191948196
 30
0.0
 40
0.4999999999999454
100
AcDbArc
 50
40.9095821328
 51
67.9957718913
  0
LINE
  5
151
330
1F
100
AcDbEntity
  8
0
  6
Continuous
 62
     7
370
    25
100
AcDbLine
 10
71.0935808991
 20
284.7077634969
 30
0.0
 11
69.3125824144
 21
285.4274864791
 31
0.0
  0
LINE
  5
152
330
1F
100
AcDbEntity
  8
0
  6
Continuous
 62
     7
370
    25
100
AcDbLine
 10
69.3125824144
 20
285.4274864791
 30
0.0
 11
69.4999199211
 21
285.8910645832
 31
0.0
  0
LINE
  5
153
330
1F
100
AcDbEntity
  8
0
  6
Continuous
 62
     7
370
    25
100
AcDbLine
 10
69.4999199211
 20
285.8910645832
 30
0.0
 11
71.2809184058
 21
285.171341601
 31
0.0
  0
LINE
  5
154
330
1F
100
AcDbEntity
  8
0
  6
Continuous
 62
     7
370
    25
100
AcDbLine
 10
95.2710782355
 20
289.5110253733
 30
0.0
 11
95.578879897
 21
289.1169972813
 31
0.0
  0
LINE
  5
155
330
1F
100
AcDbEntity
  8
0
  6
Continuous
 62
     7
370
    25
100
AcDbLine
 10
95.578879897
 20
289.1169972813
 30
0.0
 11
94.0650822684
 21
287.9344688406
 31
0.0
  0
LINE
  5
156
330
1F
100
AcDbEntity
  8
0
  6
Continuous
 62
     7
370
    25
100
AcDbLine
 10
69.1220479412
 20
285.5636309765
 30
0.0
 11
69.4999199211
 21
285.8910645832
 31
0.0
  0
ARC
  5
157
330
1F
100
AcDbEntity
  8
0
  6
Continuous
 62
     7
370
    25
100
AcDbCircle
 10
69.4999199211
 20
285.8910645832
 30
0.0
 40
0.4999999999999826
100
AcDbArc
 50
220.9095821328
 51
247.9957718913
  0
ARC
  5
158
330
1F
100
AcDbEntity
  8
0
  6
Continuous
 62
     7
370
    25
100
AcDbCircle
 10
81.2139512995
 20
296.0415063896
 30
0.0
 40
16.00000000000002
100
AcDbArc
 50
215.0819616499
 51
220.9095821328
  0
LINE
  5
159
330
1F
100
AcDbEntity
  8
0
  6
Continuous
 62
     7
370
    25
100
AcDbLine
 10
68.1206600199
 20
286.8455440437
 30
0.0
 11
68.5298253724
 21
287.132917867
 31
0.0
  0
ARC
  5
15A
330
1F
100
AcDbEntity
  8
0
  6
Continuous
 62
     7
370
    25
100
AcDbCircle
 10
81.2139512995
 20
296.0415063896
 30
0.0
 40
15.50000000000004
100
AcDbArc
 50
215.0819616499
 51
220.9095821328
  0
LINE
  5
15B
330
1F
100
AcDbEntity
  8
0
  6
Continuous
 62
     7
370
    25
100
AcDbLine
 10
81.6219487753
 20
310.7608529464
 30
0.0
 11
79.8409502906
 21
311.4805759286
 31
0.0
  0
LINE
  5
15C
330
1F
100
AcDbEntity
  8
0
  6
Continuous
 62
     7
370
    25
100
AcDbLine
 10
79.8409502906
 20
311.4805759286
 30
0.0
 11
80.0282877973
 21
311.9441540327
 31
0.0
  0
LINE
  5
15D
330
1F
100
AcDbEntity
  8
0
  6
Continuous
 62
     7
370
    25
100
AcDbLine
 10
80.0282877973
 20
311.9441540327
 30
0.0
 11
81.809286282
 21
311.2244310505
 31
0.0
  0
ARC
  5
15E
330
1F
100
AcDbEntity
  8
0
  6
Continuous
 62
     7
370
    25
100
AcDbCircle
 10
95.8615074527
 20
290.9720785384
 30
0.0
 40
0.5000000000000008
100
AcDbArc
 50
340.9095821328
 51
7.9957718913
  0
LINE
  5
15F
330
1F
100
AcDbEntity
  8
0
  6
Continuous
 62
     7
370
    25
100
AcDbLine
 10
95.8615074527
 20
290.9720785384
 30
0.0
 11
96.3340092641
 21
290.8085486077
 31
0.0
  0
ARC
  5
160
330
1F
100
AcDbEntity
  8
0
  6
Continuous
 62
     7
370
    25
100
AcDbCircle
 10
81.2139512995
 20
296.0415063896
 30
0.0
 40
16.00000000000003
100
AcDbArc
 50
335.0819616499
 51
340.9095821328
  0
LINE
  5
161
330
1F
100
AcDbEntity
  8
0
  6
Continuous
 62
     7
370
    25
100
AcDbLine
 10
95.2710782355
 20
289.5110253733
 30
0.0
 11
95.7245339432
 21
289.3003646953
 31
0.0
  0
LINE
  5
162
330
1F
100
AcDbEntity
  8
0
  6
Continuous
 62
     7
370
    25
100
AcDbLine
 10
68.2626245164
 20
289.0351692899
 30
0.0
 11
68.5298253724
 21
287.132917867
 31
0.0
  0
LINE
  5
163
330
1F
100
AcDbEntity
  8
0
  6
Continuous
 62
     7
370
    25
100
AcDbLine
 10
68.5298253724
 20
287.132917867
 30
0.0
 11
68.0346862043
 21
287.0633678548
 31
0.0
  0
LINE
  5
164
330
1F
100
AcDbEntity
  8
0
  6
Continuous
 62
     7
370
    25
100
AcDbLine
 10
68.0346862043
 20
287.0633678548
 30
0.0
 11
67.7674853482
 21
288.9656192777
 31
0.0
  0
ARC
  5
165
330
1F
100
AcDbEntity
  8
0
  6
Continuous
 62
     7
370
    25
100
AcDbCircle
 10
68.5298253724
 20
287.132917867
 30
0.0
 40
0.5000000000000008
100
AcDbArc
 50
187.9957718913
 51
215.0819616499
  0
LINE
  5
166
330
1F
100
AcDbEntity
  8
0
  6
Continuous
 62
     7
370
    25
100
AcDbLine
 10
78.2804265247
 20
311.2613760473
 30
0.0
 11
76.7666288962
 21
310.0788476066
 31
0.0
  0
ARC
  5
167
330
1F
100
AcDbEntity
  8
0
  6
Continuous
 62
     7
370
    25
100
AcDbCircle
 10
81.2139512995
 20
296.0415063896
 30
0.0
 40
15.49999999999997
100
AcDbArc
 50
95.0819616499
 51
100.9095821328
  0
ARC
  5
168
330
1F
100
AcDbEntity
  8
0
  6
Continuous
 62
     7
370
    25
100
AcDbCircle
 10
95.2710782355
 20
289.5110253733
 30
0.0
 40
0.5000000000000322
100
AcDbArc
 50
307.9957718913
 51
335.0819616499
  0
LINE
  5
169
330
1F
100
AcDbEntity
  8
0
  6
Continuous
 62
     7
370
    25
100
AcDbLine
 10
78.1857966933
 20
311.7523395846
 30
0.0
 11
78.2804265247
 21
311.2613760473
 31
0.0
  0
ARC
  5
16A
330
1F
100
AcDbEntity
  8
0
  6
Continuous
 62
     7
370
    25
100
AcDbCircle
 10
81.2139512995
 20
296.0415063896
 30
0.0
 40
16.00000000000004
100
AcDbArc
 50
95.0819616499
 51
100.9095821328
  0
LINE
  5
16B
330
1F
100
AcDbEntity
  8
0
  6
Continuous
 62
     7
370
    25
100
AcDbLine
 10
79.8409502906
 20
311.4805759286
 30
0.0
 11
79.7966599355
 21
311.9786104299
 31
0.0
  0
LINE
  5
16C
330
1F
100
AcDbEntity
  8
0
  6
Continuous
 62
     7
370
    25
100
AcDbLine
 10
77.9726248633
 20
311.6554041392
 30
0.0
 11
78.2804265247
 21
311.2613760473
 31
0.0
  0
ARC
  5
16D
330
1F
100
AcDbEntity
  8
0
  6
Continuous
 62
     7
370
    25
100
AcDbCircle
 10
78.2804265247
 20
311.2613760473
 30
0.0
 40
0.5000000000000749
100
AcDbArc
 50
100.9095821328
 51
127.9957718913
  0
ARC
  5
16E
330
1F
100
AcDbEntity
  8
0
  6
Continuous
 62
     7
370
    25
100
AcDbCircle
 10
79.8409502906
 20
311.4805759286
 30
0.0
 40
0.500000000000032
100
AcDbArc
 50
67.9957718913
 51
95.0819616499
  0
LINE
  5
16F
330
1F
100
AcDbEntity
  8
0
  6
Continuous
 62
     7
370
    25
100
AcDbLine
 10
76.4588272348
 20
310.4728756985
 30
0.0
 11
77.9726248633
 21
311.6554041392
 31
0.0
  0
ARC
  5
170
330
1F
100
AcDbEntity
  8
0
  6
Continuous
 62
     7
370
    25
100
AcDbCircle
 10
157.3253089589
 20
294.668196948
 30
0.0
 40
7.43437665833275
100
AcDbArc
 50
356.0704737418
 51
3.9295262582
  0
ARC
  5
171
330
1F
100
AcDbEntity
  8
0
  6
Continuous
 62
     7
370
    25
100
AcDbCircle
 10
161.7014217341
 20
295.6238480044
 30
0.0
 40
3.375347654717446
100
AcDbArc
 50
334.2741059287
 51
346.2044345254
  0
SPLINE
  5
172
330
1F
100
AcDbEntity
  8
0
  6
Continuous
 62
     7
370
    25
100
AcDbSpline
210
0.0
220
0.0
230
1.0
 70
     8
 71
     3
 72
    11
 73
     7
 74
     0
 42
0.00000001
 43
0.00000001
 40
0.0
 40
0.0
 40
0.0
 40
0.0
 40
0.2369930693599237
 40
0.5186068734131599
 40
0.7991278554577861
 40
1.0
 40
1.0
 40
1.0
 40
1.0
 10
165.0077059902491
 20
294.7857102283702
 30
0.0
 10
165.0120439945701
 20
294.8240824770535
 30
0.0
 10
165.0215367568008
 20
294.9080516495245
 30
0.0
 10
165.0180768353765
 20
294.9441807911786
 30
0.0
 10
165.0032865148721
 20
294.912987612165
 30
0.0
 10
164.9864325503305
 20
294.8466494544867
 30
0.0
 10
164.9793998533214
 20
294.8189683612972
 30
0.0
  0
ARC
  5
173
330
1F
100
AcDbEntity
  8
0
  6
Continuous
 62
     7
370
    25
100
AcDbCircle
 10
157.3203903579
 20
296.3690277534
 30
0.0
 40
7.745894944075792
100
AcDbArc
 50
349.3094308212
 51
351.4102179214
  0
SPLINE
  5
174
330
1F
100
AcDbEntity
  8
0
  6
Continuous
 62
     7
370
    25
100
AcDbSpline
210
0.0
220
0.0
230
1.0
 70
     8
 71
     3
 72
    10
 73
     6
 74
     0
 42
0.00000001
 43
0.00000001
 40
0.0
 40
0.0
 40
0.0
 40
0.0
 40
0.2263048787387373
 40
0.6771582524837764
 40
1.0
 40
1.0
 40
1.0
 40
1.0
 10
165.0171084524338
 20
295.7387056469637
 30
0.0
 10
165.0170709433897
 20
295.6980803497631
 30
0.0
 10
165.0169587073702
 20
295.5765197567599
 30
0.0
 10
165.0029395962384
 20
295.388925367273
 30
0.0
 10
164.986330410748
 20
295.2641668575629
 30
0.0
 10
164.9793998533214
 20
295.2121085542527
 30
0.0
  0
SPLINE
  5
175
330
1F
100
AcDbEntity
  8
0
  6
Continuous
 62
     7
370
    25
100
AcDbSpline
210
0.0
220
0.0
230
1.0
 70
     8
 71
     3
 72
    11
 73
     7
 74
     0
 42
0.00000001
 43
0.00000001
 40
0.0
 40
0.0
 40
0.0
 40
0.0
 40
0.3307540669562893
 40
0.6616399873463896
 40
0.9896169167736562
 40
1.0
 40
1.0
 40
1.0
 40
1.0
 10
164.9793998533214
 20
297.5047393518643
 30
0.0
 10
164.9891481901257
 20
297.4376019589503
 30
0.0
 10
165.0086487498593
 20
297.3033004091407
 30
0.0
 10
165.0196271712738
 20
297.1883116195311
 30
0.0
 10
165.0214505272712
 20
297.1381408312787
 30
0.0
 10
165.0155952101571
 20
297.151725645666
 30
0.0
 10
165.015415530991
 20
297.1521425160204
 30
0.0
  0
ARC
  5
176
330
1F
100
AcDbEntity
  8
0
  6
Continuous
 62
     7
370
    25
100
AcDbCircle
 10
157.2574705979
 20
296.3363241537
 30
0.0
 40
7.809826214494908
100
AcDbArc
 50
8.6042304424
 51
16.5896030164
  0
ARC
  5
177
330
1F
100
AcDbEntity
  8
0
  6
Continuous
 62
     7
370
    25
100
AcDbCircle
 10
161.8767395077
 20
298.2492249355
 30
0.0
 40
2.882940696889739
100
AcDbArc
 50
353.6888017346
 51
6.3111982654
  0
ARC
  5
178
330
1F
100
AcDbEntity
  8
0
  6
Continuous
 62
     7
370
    25
100
AcDbCircle
 10
157.2574705979
 20
295.7024890268
 30
0.0
 40
7.809826214502489
100
AcDbArc
 50
8.6042304424
 51
16.5896030164
  0
SPLINE
  5
179
330
1F
100
AcDbEntity
  8
0
  6
Continuous
 62
     7
370
    25
100
AcDbSpline
210
0.0
220
0.0
230
1.0
 70
     8
 71
     3
 72
    12
 73
     8
 74
     0
 42
0.00000001
 43
0.00000001
 40
0.0
 40
0.0
 40
0.0
 40
0.0
 40
0.2133534395476138
 40
0.4267919313634461
 40
0.6383539739091598
 40
0.8490950351927609
 40
1.0
 40
1.0
 40
1.0
 40
1.0
 10
164.9793998533214
 20
295.8379153824579
 30
0.0
 10
164.9890589970488
 20
295.8888956794223
 30
0.0
 10
165.0083811350723
 20
295.9908765963883
 30
0.0
 10
165.0206942050804
 20
296.2172854289011
 30
0.0
 10
165.0183567647836
 20
296.465716298598
 30
0.0
 10
165.0032392457698
 20
296.6938042658974
 30
0.0
 10
164.9864186333889
 20
296.8187625579732
 30
0.0
 10
164.9793998533214
 20
296.8709042249837
 30
0.0
  0
ARC
  5
17A
330
1F
100
AcDbEntity
  8
0
  6
Continuous
 62
     7
370
    25
100
AcDbCircle
 10
161.7014217341
 20
296.6427950256
 30
0.0
 40
3.375347654717162
100
AcDbArc
 50
334.2741059287
 51
346.2044345254
  0
LINE
  5
17B
330
1F
100
AcDbEntity
  8
0
  6
Continuous
 62
     7
370
    25
100
AcDbLine
 10
162.4188783141
 20
303.1915063896
 30
0.0
 11
162.4188783141
 21
288.8915186223
 31
0.0
  0
LINE
  5
17C
330
1F
100
AcDbEntity
  8
0
  6
Continuous
 62
     7
370
    25
100
AcDbLine
 10
164.3188783141
 20
301.3704116092
 30
0.0
 11
164.3188783141
 21
290.712592053
 31
0.0
  0
LWPOLYLINE
  5
17D
330
1F
100
AcDbEntity
  8
0
  6
Continuous
 62
     7
370
    25
100
AcDbPolyline
 90
        3
 70
   128
 43
0.0
 10
148.0726775028
 20
287.9963255091
 10
154.0641512995
 20
288.05730585
 10
157.5519952567
 20
288.0930524561
  0
LINE
  5
17E
330
1F
100
AcDbEntity
  8
0
  6
Continuous
 62
     7
370
    25
100
AcDbLine
 10
148.0726775028
 20
304.4773098522
 30
0.0
 11
148.0726775028
 21
287.9963255091
 31
0.0
  0
LWPOLYLINE
  5
17F
330
1F
100
AcDbEntity
  8
0
  6
Continuous
 62
     7
370
    25
100
AcDbPolyline
 90
        3
 70
   128
 43
0.0
 10
156.6185750428
 20
304.3753606207
 10
154.0641512995
 20
304.4059484072
 10
148.0726774858
 20
304.4773095971
  0
SPLINE
  5
180
330
1F
100
AcDbEntity
  8
0
  6
Continuous
 62
     7
370
    25
100
AcDbSpline
210
0.0
220
0.0
230
1.0
 70
     8
 71
     3
 72
    11
 73
     7
 74
     0
 42
0.00000001
 43
0.00000001
 40
0.0
 40
0.0
 40
0.0
 40
0.0
 40
0.2499999999999937
 40
0.500000000000001
 40
0.7499999999999979
 40
1.0
 40
1.0
 40
1.0
 40
1.0
 10
148.0726775027576
 20
287.9963239717981
 30
0.0
 10
148.0063064500202
 20
288.0020695216218
 30
0.0
 10
147.8735643445455
 20
288.0135606212691
 30
0.0
 10
147.7051006037648
 20
288.114891040266
 30
0.0
 10
147.5870132447297
 20
288.2613267306103
 30
0.0
 10
147.5716386146025
 20
288.3779046117905
 30
0.0
 10
147.563951299539
 20
288.4361935523806
 30
0.0
  0
LINE
  5
181
330
1F
100
AcDbEntity
  8
0
  6
Continuous
 62
     7
370
    25
100
AcDbLine
 10
147.5639512995
 20
288.436253875
 30
0.0
 11
147.5639512995
 21
304.0159592233
 31
0.0
  0
SPLINE
  5
182
330
1F
100
AcDbEntity
  8
0
  6
Continuous
 62
     7
370
    25
100
AcDbSpline
210
0.0
220
0.0
230
1.0
 70
     8
 71
     3
 72
    11
 73
     7
 74
     0
 42
0.00000001
 43
0.00000001
 40
0.0
 40
0.0
 40
0.0
 40
0.0
 40
0.2499999999999895
 40
0.5000000000000012
 40
0.7499999999999961
 40
1.0
 40
1.0
 40
1.0
 40
1.0
 10
148.0726775027576
 20
304.4773095969416
 30
0.0
 10
148.0063064500202
 20
304.4712834663003
 30
0.0
 10
147.8735643445455
 20
304.459231205018
 30
0.0
 10
147.7051006037648
 20
304.352952369825
 30
0.0
 10
147.5870132447297
 20
304.1993655717584
 30
0.0
 10
147.5716386146025
 20
304.0770946728147
 30
0.0
 10
147.563951299539
 20
304.0159592233428
 30
0.0
  0
LINE
  5
183
330
1F
100
AcDbEntity
  8
0
  6
Continuous
 62
     7
370
    25
100
AcDbLine
 10
162.4139512995
 20
304.4409500439
 30
0.0
 11
162.4139512995
 21
287.6420627354
 31
0.0
  0
SPLINE
  5
184
330
1F
100
AcDbEntity
  8
0
  6
Continuous
 62
     7
370
    25
100
AcDbSpline
210
0.0
220
0.0
230
1.0
 70
     8
 71
     3
 72
    12
 73
     8
 74
     0
 42
0.00000001
 43
0.00000001
 40
0.0
 40
0.0
 40
0.0
 40
0.0
 40
0.1662426524176538
 40
0.3368059756191286
 40
0.6054181071254578
 40
0.880143508713619
 40
1.0
 40
1.0
 40
1.0
 40
1.0
 10
152.1551853294828
 20
284.0753954860271
 30
0.0
 10
152.2546420367581
 20
284.262337436105
 30
0.0
 10
152.456140345637
 20
284.6410799848099
 30
0.0
 10
153.2783881016595
 20
285.4116301214382
 30
0.0
 10
154.6402172686461
 20
286.3800005599088
 30
0.0
 10
156.2013234573049
 20
287.3191412346727
 30
0.0
 10
157.1715631494666
 20
287.9116135928162
 30
0.0
 10
157.4662789671694
 20
288.0915804369964
 30
0.0
  0
LINE
  5
185
330
1F
100
AcDbEntity
  8
0
  6
Continuous
 62
     7
370
    25
100
AcDbLine
 10
152.1551853295
 20
284.075395486
 30
0.0
 11
148.0726775028
 21
284.0067946126
 31
0.0
  0
LINE
  5
186
330
1F
100
AcDbEntity
  8
0
  6
Continuous
 62
     7
370
    25
100
AcDbLine
 10
148.0726775028
 20
287.996324287
 30
0.0
 11
148.0726775028
 21
284.0067946126
 31
0.0
  0
LWPOLYLINE
  5
187
330
1F
100
AcDbEntity
  8
0
  6
Continuous
 62
     7
370
    25
100
AcDbPolyline
 90
        3
 70
   128
 43
0.0
 10
157.4662789672
 20
288.091580437
 10
154.0639512995
 20
288.0570504182
 10
148.0726775197
 20
287.996323972
  0
ARC
  5
188
330
1F
100
AcDbEntity
  8
0
  6
Continuous
 62
     7
370
    25
100
AcDbCircle
 10
148.0551671631
 20
284.4977947863
 30
0.0
 40
0.4913123065720113
100
AcDbArc
 50
181.1352754124
 51
272.0424505137
  0
LINE
  5
189
330
1F
100
AcDbEntity
  8
0
  6
Continuous
 62
     7
370
    25
100
AcDbLine
 10
147.5639512995
 20
284.4880604169
 30
0.0
 11
147.5639512995
 21
288.4362526519
 31
0.0
  0
LINE
  5
18A
330
1F
100
AcDbEntity
  8
0
  6
Continuous
 62
     7
370
    25
100
AcDbLine
 10
157.4662789672
 20
288.091580437
 30
0.0
 11
157.5073889235
 21
288.0922854756
 31
0.0
  0
LINE
  5
18B
330
1F
100
AcDbEntity
  8
0
  6
Continuous
 62
     7
370
    25
100
AcDbLine
 10
157.5519952567
 20
288.0930524561
 30
0.0
 11
157.5073889235
 21
288.0922854756
 31
0.0
  0
LINE
  5
18C
330
1F
100
AcDbEntity
  8
0
  6
Continuous
 62
     7
370
    25
100
AcDbLine
 10
152.0988561124
 20
307.3641665464
 30
0.0
 11
152.0988561124
 21
307.4009050973
 31
0.0
  0
SPLINE
  5
18D
330
1F
100
AcDbEntity
  8
0
  6
Continuous
 62
     7
370
    25
100
AcDbSpline
210
0.0
220
0.0
230
1.0
 70
     8
 71
     3
 72
    13
 73
     9
 74
     0
 42
0.00000001
 43
0.00000001
 40
0.0
 40
0.0
 40
0.0
 40
0.0
 40
0.0460329529079877
 40
0.2492425848193729
 40
0.4775225570272892
 40
0.7051721168687848
 40
0.8526808263814667
 40
1.0
 40
1.0
 40
1.0
 40
1.0
 10
156.547865099556
 20
304.3766946500343
 30
0.0
 10
156.4458745652475
 20
304.4327572861091
 30
0.0
 10
155.893653106655
 20
304.7363049719374
 30
0.0
 10
154.8525341821933
 20
305.286040208381
 30
0.0
 10
153.5673337388127
 20
305.9958572755705
 30
0.0
 10
152.6747628386899
 20
306.5876475804939
 30
0.0
 10
152.1862203812984
 20
307.0447774463587
 30
0.0
 10
152.1279650518476
 20
307.2577491507244
 30
0.0
 10
152.0988561124135
 20
307.3641665463861
 30
0.0
  0
LWPOLYLINE
  5
18E
330
1F
100
AcDbEntity
  8
0
  6
Continuous
 62
     7
370
    25
100
AcDbPolyline
 90
        3
 70
   128
 43
0.0
 10
156.5478650996
 20
304.37669465
 10
154.0639512995
 20
304.4062041855
 10
148.0726775028
 20
304.4773111343
  0
LINE
  5
18F
330
1F
100
AcDbEntity
  8
0
  6
Continuous
 62
     7
370
    25
100
AcDbLine
 10
148.0726775028
 20
307.470111803
 30
0.0
 11
148.0726775028
 21
304.4773111343
 31
0.0
  0
LINE
  5
190
330
1F
100
AcDbEntity
  8
0
  6
Continuous
 62
     7
370
    25
100
AcDbLine
 10
152.0988561124
 20
307.4009050973
 30
0.0
 11
148.0726775028
 21
307.470111803
 31
0.0
  0
ARC
  5
191
330
1F
100
AcDbEntity
  8
0
  6
Continuous
 62
     7
370
    25
100
AcDbCircle
 10
148.0603257747
 20
306.9738754878
 30
0.0
 40
0.4963900136583504
100
AcDbArc
 50
88.5741555685
 51
179.5466524836
  0
LINE
  5
192
330
1F
100
AcDbEntity
  8
0
  6
Continuous
 62
     7
370
    25
100
AcDbLine
 10
147.5639512995
 20
304.0160084079
 30
0.0
 11
147.5639512995
 21
306.9778030866
 31
0.0
  0
LINE
  5
193
330
1F
100
AcDbEntity
  8
0
  6
Continuous
 62
     7
370
    25
100
AcDbLine
 10
156.5860409035
 20
304.3759751225
 30
0.0
 11
156.5478650996
 21
304.37669465
 31
0.0
  0
LINE
  5
194
330
1F
100
AcDbEntity
  8
0
  6
Continuous
 62
     7
370
    25
100
AcDbLine
 10
156.5860409035
 20
304.3759751225
 30
0.0
 11
156.6185750428
 21
304.3753606207
 31
0.0
  0
LINE
  5
195
330
1F
100
AcDbEntity
  8
0
  6
Continuous
 62
     7
370
    25
100
AcDbLine
 10
152.0988561124
 20
283.7957530452
 30
0.0
 11
152.1551853295
 21
284.075395486
 31
0.0
  0
LINE
  5
196
330
1F
100
AcDbEntity
  8
0
  6
Continuous
 62
     7
370
    25
100
AcDbLine
 10
147.5639512995
 20
284.1708255461
 30
0.0
 11
147.5639512995
 21
284.4880604169
 31
0.0
  0
LINE
  5
197
330
1F
100
AcDbEntity
  8
0
  6
Continuous
 62
     7
370
    25
100
AcDbLine
 10
147.5639512995
 20
306.9778030866
 30
0.0
 11
147.5639512995
 21
307.1072799624
 31
0.0
  0
SPLINE
  5
198
330
1F
100
AcDbEntity
  8
0
  6
Continuous
 62
     7
370
    25
100
AcDbSpline
210
0.0
220
0.0
230
1.0
 70
     8
 71
     3
 72
    11
 73
     7
 74
     0
 42
0.00000001
 43
0.00000001
 40
0.0
 40
0.0
 40
0.0
 40
0.0
 40
0.2431641197380914
 40
0.4936284730588937
 40
0.7421706076863286
 40
0.9999999999999999
 40
0.9999999999999999
 40
0.9999999999999999
 40
0.9999999999999999
 10
137.613951299539
 20
285.7787400955746
 30
0.0
 10
137.8240916227477
 20
285.9711701438238
 30
0.0
 10
138.2506810677094
 20
286.3618073438772
 30
0.0
 10
138.4610654978523
 20
286.9814842200943
 30
0.0
 10
138.2703788041854
 20
287.6142356354002
 30
0.0
 10
137.8354196337907
 20
288.0154021325695
 30
0.0
 10
137.613951299539
 20
288.2196642379185
 30
0.0
  0
LINE
  5
199
330
1F
100
AcDbEntity
  8
0
  6
Continuous
 62
     7
370
    25
100
AcDbLine
 10
137.6139512995
 20
290.1523495327
 30
0.0
 11
137.6139512995
 21
288.2196642379
 31
0.0
  0
SPLINE
  5
19A
330
1F
100
AcDbEntity
  8
0
  6
Continuous
 62
     7
370
    25
100
AcDbSpline
210
0.0
220
0.0
230
1.0
 70
     8
 71
     3
 72
    11
 73
     7
 74
     0
 42
0.00000001
 43
0.00000001
 40
0.0
 40
0.0
 40
0.0
 40
0.0
 40
0.243164119738091
 40
0.4936284730588926
 40
0.7421706076863281
 40
1.0
 40
1.0
 40
1.0
 40
1.0
 10
137.613951299539
 20
290.1523495327187
 30
0.0
 10
137.8240916227477
 20
290.7658286488074
 30
0.0
 10
138.2506810677094
 20
292.0112046510502
 30
0.0
 10
138.4610654978523
 20
293.9867735694232
 30
0.0
 10
138.2703788041853
 20
296.0040249420511
 30
0.0
 10
137.8354196337907
 20
297.2829690068003
 30
0.0
 10
137.613951299539
 20
297.9341694662917
 30
0.0
  0
LINE
  5
19B
330
1F
100
AcDbEntity
  8
0
  6
Continuous
 62
     7
370
    25
100
AcDbLine
 10
137.6139512995
 20
300.4151158268
 30
0.0
 11
137.6139512995
 21
297.9341694663
 31
0.0
  0
SPLINE
  5
19C
330
1F
100
AcDbEntity
  8
0
  6
Continuous
 62
     7
370
    25
100
AcDbSpline
210
0.0
220
0.0
230
1.0
 70
     8
 71
     3
 72
    13
 73
     9
 74
     0
 42
0.00000001
 43
0.00000001
 40
0.0
 40
0.0
 40
0.0
 40
0.0
 40
0.0290865078712627
 40
0.2691317361521214
 40
0.5086847447945265
 40
0.7393528760311802
 40
0.9704551097945733
 40
1.0
 40
1.0
 40
1.0
 40
1.0
 10
137.613951299539
 20
300.4151158267624
 30
0.0
 10
137.6414491459826
 20
300.4647905345259
 30
0.0
 10
137.8958813104278
 20
300.9244208346787
 30
0.0
 10
138.2672264666492
 20
301.8213644245611
 30
0.0
 10
138.4620671015014
 20
303.1174281188508
 30
0.0
 10
138.2503195313072
 20
304.3950648622063
 30
0.0
 10
137.8882308474099
 20
305.260396521676
 30
0.0
 10
137.6418761173549
 20
305.7055522914436
 30
0.0
 10
137.613951299539
 20
305.7560116179914
 30
0.0
  0
LINE
  5
19D
330
1F
100
AcDbEntity
  8
0
  6
Continuous
 62
     7
370
    25
100
AcDbLine
 10
137.6139512995
 20
306.3042726837
 30
0.0
 11
137.6139512995
 21
305.756011618
 31
0.0
  0
LINE
  5
19E
330
1F
100
AcDbEntity
  8
0
  6
Continuous
 62
     7
370
    25
100
AcDbLine
 10
137.6139512995
 20
306.3042726837
 30
0.0
 11
137.8853501355
 21
306.0223965634
 31
0.0
  0
LINE
  5
19F
330
1F
100
AcDbEntity
  8
0
  6
Continuous
 62
     7
370
    25
100
AcDbLine
 10
139.6139512995
 20
304.2915063896
 30
0.0
 11
139.6139512995
 21
287.7915063896
 31
0.0
  0
LINE
  5
1A0
330
1F
100
AcDbEntity
  8
0
  6
Continuous
 62
     7
370
    25
100
AcDbLine
 10
135.0639512995
 20
290.1523495327
 30
0.0
 11
134.8139512995
 21
290.8375193341
 31
0.0
  0
LINE
  5
1A1
330
1F
100
AcDbEntity
  8
0
  6
Continuous
 62
     7
370
    25
100
AcDbLine
 10
134.8139512995
 20
297.2489996649
 30
0.0
 11
135.0639512995
 21
297.9341694663
 31
0.0
  0
LINE
  5
1A2
330
1F
100
AcDbEntity
  8
0
  6
Continuous
 62
     7
370
    25
100
AcDbLine
 10
137.6139512995
 20
297.9341694663
 30
0.0
 11
135.0639512995
 21
297.9341694663
 31
0.0
  0
LINE
  5
1A3
330
1F
100
AcDbEntity
  8
0
  6
Continuous
 62
     7
370
    25
100
AcDbLine
 10
135.0639512995
 20
290.1523495327
 30
0.0
 11
137.6139512995
 21
290.1523495327
 31
0.0
  0
LINE
  5
1A4
330
1F
100
AcDbEntity
  8
0
  6
Continuous
 62
     7
370
    25
100
AcDbLine
 10
134.8139512995
 20
297.2489996649
 30
0.0
 11
134.8139512995
 21
290.8375193341
 31
0.0
  0
SPLINE
  5
1A5
330
1F
100
AcDbEntity
  8
0
  6
Continuous
 62
     7
370
    25
100
AcDbSpline
210
0.0
220
0.0
230
1.0
 70
     8
 71
     3
 72
    24
 73
    20
 74
     0
 42
0.00000001
 43
0.00000001
 40
0.0
 40
0.0
 40
0.0
 40
0.0
 40
0.0325343468780934
 40
0.0929229890870891
 40
0.1554977631181848
 40
0.2546717726831114
 40
0.3431550828624063
 40
0.4085157009039971
 40
0.4507277423335689
 40
0.4911197982128748
 40
0.5362821929160397
 40
0.5780540431199804
 40
0.6330131149740985
 40
0.7273916669847644
 40
0.811171421415399
 40
0.8798138290061601
 40
0.9333072526231058
 40
0.9810372359012471
 40
1.0
 40
1.0
 40
1.0
 40
1.0
 10
132.163951299539
 20
297.050611246597
 30
0.0
 10
132.1680623864939
 20
296.8767358816496
 30
0.0
 10
132.1798042693013
 20
296.380121681891
 30
0.0
 10
132.1984553252709
 20
295.5398192336752
 30
0.0
 10
132.2273312519594
 20
294.3490959132064
 30
0.0
 10
132.2602912206762
 20
293.035004679575
 30
0.0
 10
132.2934468226726
 20
291.7790054632177
 30
0.0
 10
132.3189730588743
 20
290.8709699572709
 30
0.0
 10
132.3379726021917
 20
290.2272319827072
 30
0.0
 10
132.353803686565
 20
289.7015685547962
 30
0.0
 10
132.3697613339864
 20
289.2115612670111
 30
0.0
 10
132.3872424085475
 20
288.7070570508584
 30
0.0
 10
132.4122268054544
 20
288.0939138202283
 30
0.0
 10
132.4430498572784
 20
287.4787745651303
 30
0.0
 10
132.4754116948295
 20
287.0161118497767
 30
0.0
 10
132.5020089190086
 20
286.7635539640815
 30
0.0
 10
132.5235250608561
 20
286.6672978852071
 30
0.0
 10
132.5380254876421
 20
286.6123963047218
 30
0.0
 10
132.5466822149075
 20
286.665035588065
 30
0.0
 10
132.5491435841486
 20
286.6800025275243
 30
0.0
  0
SPLINE
  5
1A6
330
1F
100
AcDbEntity
  8
0
  6
Continuous
 62
     7
370
    25
100
AcDbSpline
210
0.0
220
0.0
230
1.0
 70
     8
 71
     3
 72
     9
 73
     5
 74
     0
 42
0.00000001
 43
0.00000001
 40
0.0
 40
0.0
 40
0.0
 40
0.0
 40
0.3778463394531937
 40
1.0
 40
1.0
 40
1.0
 40
1.0
 10
132.163951299539
 20
286.7108339837451
 30
0.0
 10
132.1668949839423
 20
286.6916929074416
 30
0.0
 10
132.1746856758084
 20
286.6410345463436
 30
0.0
 10
132.1824327565097
 20
286.6521525349756
 30
0.0
 10
132.1872526311266
 20
286.6590696323009
 30
0.0
  0
SPLINE
  5
1A7
330
1F
100
AcDbEntity
  8
0
  6
Continuous
 62
     7
370
    25
100
AcDbSpline
210
0.0
220
0.0
230
1.0
 70
     8
 71
     3
 72
    19
 73
    15
 74
     0
 42
0.00000001
 43
0.00000001
 40
0.0
 40
0.0
 40
0.0
 40
0.0
 40
0.0116514889834617
 40
0.1135665139260462
 40
0.2146374580415999
 40
0.3151222302177992
 40
0.4172473009835986
 40
0.5171209075502502
 40
0.6190070154415854
 40
0.7201334402092072
 40
0.7891893318117872
 40
0.8593810417623541
 40
0.9300306089769395
 40
1.0
 40
1.0
 40
1.0
 40
1.0
 10
132.2852561825489
 20
304.6266215781005
 30
0.0
 10
132.2878830167877
 20
304.6357351297887
 30
0.0
 10
132.3134866462968
 20
304.7245644885249
 30
0.0
 10
132.3656348393596
 20
304.0902990110613
 30
0.0
 10
132.4356420030724
 20
302.7178542064132
 30
0.0
 10
132.5039036572367
 20
300.6143183452077
 30
0.0
 10
132.5778228715819
 20
298.0948462121861
 30
0.0
 10
132.644085423694
 20
295.3606977389439
 30
0.0
 10
132.7169427854719
 20
292.7004466755113
 30
0.0
 10
132.7803963834152
 20
290.6042796223266
 30
0.0
 10
132.8334901082068
 20
289.1203374574377
 30
0.0
 10
132.8836663092952
 20
288.1609015807991
 30
0.0
 10
132.9337082102342
 20
287.5022489847353
 30
0.0
 10
132.9651660237157
 20
287.4951484606369
 30
0.0
 10
132.9808188494783
 20
287.4916153712631
 30
0.0
  0
SPLINE
  5
1A8
330
1F
100
AcDbEntity
  8
0
  6
Continuous
 62
     7
370
    25
100
AcDbSpline
210
0.0
220
0.0
230
1.0
 70
     8
 71
     3
 72
    27
 73
    23
 74
     0
 42
0.00000001
 43
0.00000001
 40
0.0
 40
0.0
 40
0.0
 40
0.0
 40
0.0151436181910954
 40
0.0478952108099446
 40
0.1018265553387762
 40
0.1557578997567095
 40
0.2096892441726297
 40
0.2633179399052672
 40
0.3166010242089368
 40
0.3698841080331789
 40
0.423167191858044
 40
0.4764502756799134
 40
0.529252100205425
 40
0.5818869257002746
 40
0.6345217508141898
 40
0.6871565759276632
 40
0.7397806675130871
 40
0.7917672369352939
 40
0.8437538056994792
 40
0.8957403742085731
 40
0.9500942275614135
 40
1.0
 40
1.0
 40
1.0
 40
1.0
 10
132.8639623627245
 20
305.3797929410675
 30
0.0
 10
132.8660771579054
 20
305.3801918632079
 30
0.0
 10
132.8727656889905
 20
305.3814535471572
 30
0.0
 10
132.8876210358989
 20
305.2577874587182
 30
0.0
 10
132.9086028945456
 20
304.9374691337962
 30
0.0
 10
132.932953142356
 20
304.3141751822519
 30
0.0
 10
132.9568524814571
 20
303.4684719761703
 30
0.0
 10
132.9791543078838
 20
302.4239159838197
 30
0.0
 10
133.0028754484348
 20
301.2103157510455
 30
0.0
 10
133.0271510333282
 20
299.8604153626496
 30
0.0
 10
133.0514687873886
 20
298.4088197174757
 30
0.0
 10
133.0749362339561
 20
296.9001551639182
 30
0.0
 10
133.0973564382723
 20
295.3778448601667
 30
0.0
 10
133.1213791638243
 20
293.8839154271772
 30
0.0
 10
133.1456827759624
 20
292.4548517734581
 30
0.0
 10
133.1699579959556
 20
291.1287113530367
 30
0.0
 10
133.1928291201848
 20
289.9462925241501
 30
0.0
 10
133.215731340004
 20
288.9398864633533
 30
0.0
 10
133.2398895612891
 20
288.1337232630589
 30
0.0
 10
133.2646026150139
 20
287.5449525826063
 30
0.0
 10
133.2886931297626
 20
287.1809754164298
 30
0.0
 10
133.3039260874412
 20
287.1620528504795
 30
0.0
 10
133.3112176206085
 20
287.1529952189841
 30
0.0
  0
SPLINE
  5
1A9
330
1F
100
AcDbEntity
  8
0
  6
Continuous
 62
     7
370
    25
100
AcDbSpline
210
0.0
220
0.0
230
1.0
 70
     8
 71
     3
 72
    19
 73
    15
 74
     0
 42
0.00000001
 43
0.00000001
 40
0.0
 40
0.0
 40
0.0
 40
0.0
 40
0.0264486571732608
 40
0.1282748711900122
 40
0.2292577415038583
 40
0.3296549485708127
 40
0.4316910261694921
 40
0.5250869281487421
 40
0.6198711414847782
 40
0.6403958896822824
 40
0.7412043131663627
 40
0.8417681440894772
 40
0.9437564079845547
 40
1.0
 40
1.0
 40
1.0
 40
1.0
 10
132.4515947385834
 20
304.5975278029548
 30
0.0
 10
132.4575473019231
 20
304.6215433832854
 30
0.0
 10
132.4864169829294
 20
304.7380179344611
 30
0.0
 10
132.5419679960206
 20
304.1020424349927
 30
0.0
 10
132.612048145373
 20
302.7146938825322
 30
0.0
 10
132.6802784786954
 20
300.6153560532066
 30
0.0
 10
132.7526865040134
 20
298.1472272598435
 30
0.0
 10
132.8161023674884
 20
295.5432192809035
 30
0.0
 10
132.8658752952911
 20
293.6960886148128
 30
0.0
 10
132.9171754773037
 20
291.9137817135023
 30
0.0
 10
132.9680644200089
 20
290.2132199113097
 30
0.0
 10
133.0368442416754
 20
288.5025983392864
 30
0.0
 10
133.0999348080709
 20
287.5443109196766
 30
0.0
 10
133.1353481563517
 20
287.5223956785113
 30
0.0
 10
133.1479358486413
 20
287.5146058951208
 30
0.0
  0
LINE
  5
1AA
330
1F
100
AcDbEntity
  8
0
  6
Continuous
 62
     7
370
    25
100
AcDbLine
 10
133.3139512995
 20
304.9415063896
 30
0.0
 11
133.3139512995
 21
287.1415063896
 31
0.0
  0
LINE
  5
1AB
330
1F
100
AcDbEntity
  8
0
  6
Continuous
 62
     7
370
    25
100
AcDbLine
 10
135.0639512995
 20
300.4151158268
 30
0.0
 11
134.8139512995
 21
300.8853683564
 31
0.0
  0
LINE
  5
1AC
330
1F
100
AcDbEntity
  8
0
  6
Continuous
 62
     7
370
    25
100
AcDbLine
 10
135.0639512995
 20
300.4151158268
 30
0.0
 11
135.0639512995
 21
297.9341694663
 31
0.0
  0
LINE
  5
1AD
330
1F
100
AcDbEntity
  8
0
  6
Continuous
 62
     7
370
    25
100
AcDbLine
 10
134.8139512995
 20
297.2489996649
 30
0.0
 11
134.8139512995
 21
300.8853683564
 31
0.0
  0
LINE
  5
1AE
330
1F
100
AcDbEntity
  8
0
  6
Continuous
 62
     7
370
    25
100
AcDbLine
 10
135.0639512995
 20
300.4151158268
 30
0.0
 11
137.6139512995
 21
300.4151158268
 31
0.0
  0
LINE
  5
1AF
330
1F
100
AcDbEntity
  8
0
  6
Continuous
 62
     7
370
    25
100
AcDbLine
 10
134.8139512995
 20
305.2857590884
 30
0.0
 11
135.0639512995
 21
305.756011618
 31
0.0
  0
LINE
  5
1B0
330
1F
100
AcDbEntity
  8
0
  6
Continuous
 62
     7
370
    25
100
AcDbLine
 10
137.6139512995
 20
305.756011618
 30
0.0
 11
135.0639512995
 21
305.756011618
 31
0.0
  0
LINE
  5
1B1
330
1F
100
AcDbEntity
  8
0
  6
Continuous
 62
     7
370
    25
100
AcDbLine
 10
134.8139512995
 20
305.2857590884
 30
0.0
 11
134.8139512995
 21
300.8853683564
 31
0.0
  0
LINE
  5
1B2
330
1F
100
AcDbEntity
  8
0
  6
Continuous
 62
     7
370
    25
100
AcDbLine
 10
135.0639512995
 20
290.1523495327
 30
0.0
 11
135.0639512995
 21
288.2196642379
 31
0.0
  0
LINE
  5
1B3
330
1F
100
AcDbEntity
  8
0
  6
Continuous
 62
     7
370
    25
100
AcDbLine
 10
134.8139512995
 20
288.0047469661
 30
0.0
 11
135.0639512995
 21
288.2196642379
 31
0.0
  0
LINE
  5
1B4
330
1F
100
AcDbEntity
  8
0
  6
Continuous
 62
     7
370
    25
100
AcDbLine
 10
134.8139512995
 20
288.0047469661
 30
0.0
 11
134.8139512995
 21
290.8375193341
 31
0.0
  0
LINE
  5
1B5
330
1F
100
AcDbEntity
  8
0
  6
Continuous
 62
     7
370
    25
100
AcDbLine
 10
137.6139512995
 20
288.2196642379
 30
0.0
 11
135.0639512995
 21
288.2196642379
 31
0.0
  0
LINE
  5
1B6
330
1F
100
AcDbEntity
  8
0
  6
Continuous
 62
     7
370
    25
100
AcDbLine
 10
135.0639512995
 20
285.7787400956
 30
0.0
 11
134.8139512995
 21
285.9936573674
 31
0.0
  0
LINE
  5
1B7
330
1F
100
AcDbEntity
  8
0
  6
Continuous
 62
     7
370
    25
100
AcDbLine
 10
135.0639512995
 20
285.7787400956
 30
0.0
 11
137.6139512995
 21
285.7787400956
 31
0.0
  0
LINE
  5
1B8
330
1F
100
AcDbEntity
  8
0
  6
Continuous
 62
     7
370
    25
100
AcDbLine
 10
134.8139512995
 20
288.0047469661
 30
0.0
 11
134.8139512995
 21
285.9936573674
 31
0.0
  0
LINE
  5
1B9
330
1F
100
AcDbEntity
  8
0
  6
Continuous
 62
     7
370
    25
100
AcDbLine
 10
135.0639512995
 20
306.3042726837
 30
0.0
 11
134.8139512995
 21
306.0893554118
 31
0.0
  0
LINE
  5
1BA
330
1F
100
AcDbEntity
  8
0
  6
Continuous
 62
     7
370
    25
100
AcDbLine
 10
135.0639512995
 20
306.3042726837
 30
0.0
 11
135.0639512995
 21
305.756011618
 31
0.0
  0
LINE
  5
1BB
330
1F
100
AcDbEntity
  8
0
  6
Continuous
 62
     7
370
    25
100
AcDbLine
 10
134.8139512995
 20
305.2857590884
 30
0.0
 11
134.8139512995
 21
306.0893554118
 31
0.0
  0
LINE
  5
1BC
330
1F
100
AcDbEntity
  8
0
  6
Continuous
 62
     7
370
    25
100
AcDbLine
 10
135.0639512995
 20
306.3042726837
 30
0.0
 11
137.6139512995
 21
306.3042726837
 31
0.0
  0
LINE
  5
1BD
330
1F
100
AcDbEntity
  8
0
  6
Continuous
 62
     7
370
    25
100
AcDbLine
 10
116.049494392
 20
313.3157110138
 30
0.0
 11
115.8650230409
 21
313.1036537042
 31
0.0
  0
SPLINE
  5
1BE
330
1F
100
AcDbEntity
  8
0
  6
Continuous
 62
     7
370
    25
100
AcDbSpline
210
0.0
220
0.0
230
1.0
 70
     8
 71
     3
 72
     9
 73
     5
 74
     0
 42
0.00000001
 43
0.00000001
 40
0.0
 40
0.0
 40
0.0
 40
0.0
 40
0.5841917497409969
 40
1.0
 40
1.0
 40
1.0
 40
1.0
 10
116.463951299539
 20
313.4838071259014
 30
0.0
 10
116.4377833357183
 20
313.5294226813276
 30
0.0
 10
116.3929898859097
 20
313.6075058713871
 30
0.0
 10
116.1503754683958
 20
313.4014081476802
 30
0.0
 10
116.0494943919617
 20
313.3157110138033
 30
0.0
  0
LINE
  5
1BF
330
1F
100
AcDbEntity
  8
0
  6
Continuous
 62
     7
370
    25
100
AcDbLine
 10
116.4639512995
 20
313.4838071259
 30
0.0
 11
116.4639512995
 21
313.1780430121
 31
0.0
  0
SPLINE
  5
1C0
330
1F
100
AcDbEntity
  8
0
  6
Continuous
 62
     7
370
    25
100
AcDbSpline
210
0.0
220
0.0
230
1.0
 70
     8
 71
     3
 72
     9
 73
     5
 74
     0
 42
0.00000001
 43
0.00000001
 40
0.0
 40
0.0
 40
0.0
 40
0.0
 40
0.5850553834536127
 40
1.0
 40
1.0
 40
1.0
 40
1.0
 10
116.0494943919616
 20
312.0446120538842
 30
0.0
 10
116.1860485259859
 20
312.3328746833105
 30
0.0
 10
116.4194522991779
 20
312.8255846686877
 30
0.0
 10
116.4509015869031
 20
313.0746815868618
 30
0.0
 10
116.463951299539
 20
313.1780430120565
 30
0.0
  0
SPLINE
  5
1C1
330
1F
100
AcDbEntity
  8
0
  6
Continuous
 62
     7
370
    25
100
AcDbSpline
210
0.0
220
0.0
230
1.0
 70
     8
 71
     3
 72
    11
 73
     7
 74
     0
 42
0.00000001
 43
0.00000001
 40
0.0
 40
0.0
 40
0.0
 40
0.0
 40
0.232871632211144
 40
0.4710265024313159
 40
0.7311421212560256
 40
0.9999999999999999
 40
0.9999999999999999
 40
0.9999999999999999
 40
0.9999999999999999
 10
116.0494943919616
 20
304.1364916005793
 30
0.0
 10
115.7790976572888
 20
304.736247168919
 30
0.0
 10
115.232169605158
 20
305.9493651643843
 30
0.0
 10
114.9309452871744
 20
307.9137612003331
 30
0.0
 10
115.1385970525841
 20
309.985128255231
 30
0.0
 10
115.7425348843644
 20
311.3505951703009
 30
0.0
 10
116.0494943919616
 20
312.0446120538842
 30
0.0
  0
SPLINE
  5
1C2
330
1F
100
AcDbEntity
  8
0
  6
Continuous
 62
     7
370
    25
100
AcDbSpline
210
0.0
220
0.0
230
1.0
 70
     8
 71
     3
 72
     9
 73
     5
 74
     0
 42
0.00000001
 43
0.00000001
 40
0.0
 40
0.0
 40
0.0
 40
0.0
 40
0.5841917497409228
 40
1.0
 40
1.0
 40
1.0
 40
1.0
 10
116.463951299539
 20
302.1564893094191
 30
0.0
 10
116.4377833357183
 20
302.5963197030583
 30
0.0
 10
116.3929898859097
 20
303.3492067368692
 30
0.0
 10
116.1503754683957
 20
303.9052741729546
 30
0.0
 10
116.0494943919616
 20
304.1364916005793
 30
0.0
  0
LINE
  5
1C3
330
1F
100
AcDbEntity
  8
0
  6
Continuous
 62
     7
370
    25
100
AcDbLine
 10
116.4639512995
 20
302.1564893094
 30
0.0
 11
116.4639512995
 21
300.7728704225
 31
0.0
  0
SPLINE
  5
1C4
330
1F
100
AcDbEntity
  8
0
  6
Continuous
 62
     7
370
    25
100
AcDbSpline
210
0.0
220
0.0
230
1.0
 70
     8
 71
     3
 72
     9
 73
     5
 74
     0
 42
0.00000001
 43
0.00000001
 40
0.0
 40
0.0
 40
0.0
 40
0.0
 40
0.5850553834536169
 40
1.0
 40
1.0
 40
1.0
 40
1.0
 10
116.0494943919616
 20
298.3846180208768
 30
0.0
 10
116.1860485259859
 20
298.8455369796001
 30
0.0
 10
116.4194522991779
 20
299.6333580504918
 30
0.0
 10
116.4509015869031
 20
300.4386986685734
 30
0.0
 10
116.463951299539
 20
300.7728704225325
 30
0.0
  0
SPLINE
  5
1C5
330
1F
100
AcDbEntity
  8
0
  6
Continuous
 62
     7
370
    25
100
AcDbSpline
210
0.0
220
0.0
230
1.0
 70
     8
 71
     3
 72
    11
 73
     7
 74
     0
 42
0.00000001
 43
0.00000001
 40
0.0
 40
0.0
 40
0.0
 40
0.0
 40
0.2328716322111452
 40
0.4710265024313183
 40
0.7311421212560267
 40
1.0
 40
1.0
 40
1.0
 40
1.0
 10
116.0494943919616
 20
286.8622869763944
 30
0.0
 10
115.7790976572888
 20
287.7361459729772
 30
0.0
 10
115.232169605158
 20
289.5036895027332
 30
0.0
 10
114.9309452871744
 20
292.3658640943218
 30
0.0
 10
115.1385970525841
 20
295.3838981596975
 30
0.0
 10
115.7425348843644
 20
297.3734179095071
 30
0.0
 10
116.0494943919616
 20
298.3846180208768
 30
0.0
  0
SPLINE
  5
1C6
330
1F
100
AcDbEntity
  8
0
  6
Continuous
 62
     7
370
    25
100
AcDbSpline
210
0.0
220
0.0
230
1.0
 70
     8
 71
     3
 72
     9
 73
     5
 74
     0
 42
0.00000001
 43
0.00000001
 40
0.0
 40
0.0
 40
0.0
 40
0.0
 40
0.5841917497409206
 40
1.0
 40
1.0
 40
1.0
 40
1.0
 10
116.463951299539
 20
284.7141885731359
 30
0.0
 10
116.4377833357183
 20
285.1084034113488
 30
0.0
 10
116.3929898859097
 20
285.7832072551002
 30
0.0
 10
116.1503754683957
 20
286.5453724148927
 30
0.0
 10
116.0494943919616
 20
286.8622869763944
 30
0.0
  0
LINE
  5
1C7
330
1F
100
AcDbEntity
  8
0
  6
Continuous
 62
     7
370
    25
100
AcDbLine
 10
116.4639512995
 20
284.7141885731
 30
0.0
 11
116.4639512995
 21
283.6363338001
 31
0.0
  0
SPLINE
  5
1C8
330
1F
100
AcDbEntity
  8
0
  6
Continuous
 62
     7
370
    25
100
AcDbSpline
210
0.0
220
0.0
230
1.0
 70
     8
 71
     3
 72
     9
 73
     5
 74
     0
 42
0.00000001
 43
0.00000001
 40
0.0
 40
0.0
 40
0.0
 40
0.0
 40
0.5850553834536156
 40
1.0
 40
1.0
 40
1.0
 40
1.0
 10
116.0494943919616
 20
282.3815123566108
 30
0.0
 10
116.1860485259859
 20
282.5541686859078
 30
0.0
 10
116.4194522991778
 20
282.8492797714223
 30
0.0
 10
116.4509015869031
 20
283.4055234713298
 30
0.0
 10
116.463951299539
 20
283.6363338000942
 30
0.0
  0
SPLINE
  5
1C9
330
1F
100
AcDbEntity
  8
0
  6
Continuous
 62
     7
370
    25
100
AcDbSpline
210
0.0
220
0.0
230
1.0
 70
     8
 71
     3
 72
    11
 73
     7
 74
     0
 42
0.00000001
 43
0.00000001
 40
0.0
 40
0.0
 40
0.0
 40
0.0
 40
0.2085293426162336
 40
0.488038072369993
 40
0.7406111560876617
 40
1.0
 40
1.0
 40
1.0
 40
1.0
 10
115.8691350995961
 20
278.9793281341242
 30
0.0
 10
115.6472458599869
 20
279.2107170207209
 30
0.0
 10
115.1279405410331
 20
279.7522551312125
 30
0.0
 10
114.93216381083
 20
280.6123795503887
 30
0.0
 10
115.2104439524034
 20
281.5269531578227
 30
0.0
 10
115.7673395908898
 20
282.0941422899612
 30
0.0
 10
116.0494943919616
 20
282.3815123566108
 30
0.0
  0
SPLINE
  5
1CA
330
1F
100
AcDbEntity
  8
0
  6
Continuous
 62
     7
370
    25
100
AcDbSpline
210
0.0
220
0.0
230
1.0
 70
     8
 71
     3
 72
     9
 73
     5
 74
     0
 42
0.00000001
 43
0.00000001
 40
0.0
 40
0.0
 40
0.0
 40
0.0
 40
0.3607400128961893
 40
1.0
 40
1.0
 40
1.0
 40
1.0
 10
116.376583393098
 20
278.5753548295429
 30
0.0
 10
116.3626155073674
 20
278.56199975141
 30
0.0
 10
116.3238954174653
 20
278.5249784128964
 30
0.0
 10
116.1565021865792
 20
278.6728032573037
 30
0.0
 10
116.0494943919616
 20
278.7673017654332
 30
0.0
  0
LINE
  5
1CB
330
1F
100
AcDbEntity
  8
0
  6
Continuous
 62
     7
370
    25
100
AcDbLine
 10
114.9639512995
 20
279.8415063896
 30
0.0
 11
114.9639512995
 21
312.2415063896
 31
0.0
  0
SPLINE
  5
1CC
330
1F
100
AcDbEntity
  8
0
  6
Continuous
 62
     7
370
    25
100
AcDbSpline
210
0.0
220
0.0
230
1.0
 70
     8
 71
     3
 72
     9
 73
     5
 74
     0
 42
0.00000001
 43
0.00000001
 40
0.0
 40
0.0
 40
0.0
 40
0.0
 40
0.8988656309358773
 40
1.0
 40
1.0
 40
1.0
 40
1.0
 10
123.3284082071169
 20
278.7673017654336
 30
0.0
 10
123.1794947026322
 20
278.6373490801471
 30
0.0
 10
123.0138264432622
 20
278.4927749849608
 30
0.0
 10
122.9796067061947
 20
278.5357992433127
 30
0.0
 10
122.9761459146768
 20
278.5401504745356
 30
0.0
  0
SPLINE
  5
1CD
330
1F
100
AcDbEntity
  8
0
  6
Continuous
 62
     7
370
    25
100
AcDbSpline
210
0.0
220
0.0
230
1.0
 70
     8
 71
     3
 72
    11
 73
     7
 74
     0
 42
0.00000001
 43
0.00000001
 40
0.0
 40
0.0
 40
0.0
 40
0.0
 40
0.2529469169943676
 40
0.5119326675128117
 40
0.7832266345354039
 40
1.0
 40
1.0
 40
1.0
 40
1.0
 10
123.3284082071162
 20
282.3815123566108
 30
0.0
 10
123.6042924761847
 20
282.1013772708496
 30
0.0
 10
124.1626474522694
 20
281.5344191777377
 30
0.0
 10
124.4445178443571
 20
280.6292770457301
 30
0.0
 10
124.2546524553495
 20
279.7618289121453
 30
0.0
 10
123.7369139595255
 20
279.2199735225379
 30
0.0
 10
123.5069622526608
 20
278.9793103832908
 30
0.0
  0
SPLINE
  5
1CE
330
1F
100
AcDbEntity
  8
0
  6
Continuous
 62
     7
370
    25
100
AcDbSpline
210
0.0
220
0.0
230
1.0
 70
     8
 71
     3
 72
     9
 73
     5
 74
     0
 42
0.00000001
 43
0.00000001
 40
0.0
 40
0.0
 40
0.0
 40
0.0
 40
0.5841917497409931
 40
1.0
 40
1.0
 40
1.0
 40
1.0
 10
122.9139512995389
 20
283.6363338000942
 30
0.0
 10
122.9401192633596
 20
283.3181970221504
 30
0.0
 10
122.9849127131682
 20
282.7736210707014
 30
0.0
 10
123.2275271306822
 20
282.4966706333672
 30
0.0
 10
123.3284082071162
 20
282.3815123566108
 30
0.0
  0
LINE
  5
1CF
330
1F
100
AcDbEntity
  8
0
  6
Continuous
 62
     7
370
    25
100
AcDbLine
 10
122.9139512995
 20
283.6363338001
 30
0.0
 11
122.9139512995
 21
284.7141885731
 31
0.0
  0
SPLINE
  5
1D0
330
1F
100
AcDbEntity
  8
0
  6
Continuous
 62
     7
370
    25
100
AcDbSpline
210
0.0
220
0.0
230
1.0
 70
     8
 71
     3
 72
     9
 73
     5
 74
     0
 42
0.00000001
 43
0.00000001
 40
0.0
 40
0.0
 40
0.0
 40
0.0
 40
0.58505538345362
 40
1.0
 40
1.0
 40
1.0
 40
1.0
 10
123.3284082071163
 20
286.8622869763944
 30
0.0
 10
123.191854073092
 20
286.4147030204645
 30
0.0
 10
122.9584502999001
 20
285.6496746682975
 30
0.0
 10
122.9270010121748
 20
284.9885278755382
 30
0.0
 10
122.9139512995389
 20
284.7141885731359
 30
0.0
  0
SPLINE
  5
1D1
330
1F
100
AcDbEntity
  8
0
  6
Continuous
 62
     7
370
    25
100
AcDbSpline
210
0.0
220
0.0
230
1.0
 70
     8
 71
     3
 72
    11
 73
     7
 74
     0
 42
0.00000001
 43
0.00000001
 40
0.0
 40
0.0
 40
0.0
 40
0.0
 40
0.2328716322111472
 40
0.4710265024313228
 40
0.7311421212560293
 40
1.0
 40
1.0
 40
1.0
 40
1.0
 10
123.3284082071163
 20
298.3846180208768
 30
0.0
 10
123.5988049417891
 20
297.5107590242939
 30
0.0
 10
124.1457329939199
 20
295.7432154945379
 30
0.0
 10
124.4469573119035
 20
292.8810409029493
 30
0.0
 10
124.2393055464938
 20
289.8630068375736
 30
0.0
 10
123.6353677147136
 20
287.873487087764
 30
0.0
 10
123.3284082071163
 20
286.8622869763944
 30
0.0
  0
SPLINE
  5
1D2
330
1F
100
AcDbEntity
  8
0
  6
Continuous
 62
     7
370
    25
100
AcDbSpline
210
0.0
220
0.0
230
1.0
 70
     8
 71
     3
 72
     9
 73
     5
 74
     0
 42
0.00000001
 43
0.00000001
 40
0.0
 40
0.0
 40
0.0
 40
0.0
 40
0.5841917497409245
 40
1.0
 40
1.0
 40
1.0
 40
1.0
 10
122.9139512995389
 20
300.7728704225325
 30
0.0
 10
122.9401192633596
 20
300.2982704356879
 30
0.0
 10
122.9849127131682
 20
299.4858659690806
 30
0.0
 10
123.2275271306822
 20
298.7080431615059
 30
0.0
 10
123.3284082071163
 20
298.3846180208768
 30
0.0
  0
LINE
  5
1D3
330
1F
100
AcDbEntity
  8
0
  6
Continuous
 62
     7
370
    25
100
AcDbLine
 10
122.9139512995
 20
300.7728704225
 30
0.0
 11
122.9139512995
 21
302.1564893094
 31
0.0
  0
SPLINE
  5
1D4
330
1F
100
AcDbEntity
  8
0
  6
Continuous
 62
     7
370
    25
100
AcDbSpline
210
0.0
220
0.0
230
1.0
 70
     8
 71
     3
 72
     9
 73
     5
 74
     0
 42
0.00000001
 43
0.00000001
 40
0.0
 40
0.0
 40
0.0
 40
0.0
 40
0.5850553834536156
 40
1.0
 40
1.0
 40
1.0
 40
1.0
 10
123.3284082071163
 20
304.1364916005793
 30
0.0
 10
123.191854073092
 20
303.8012215044208
 30
0.0
 10
122.9584502999001
 20
303.2281644817174
 30
0.0
 10
122.9270010121748
 20
302.4707672240678
 30
0.0
 10
122.9139512995389
 20
302.1564893094191
 30
0.0
  0
SPLINE
  5
1D5
330
1F
100
AcDbEntity
  8
0
  6
Continuous
 62
     7
370
    25
100
AcDbSpline
210
0.0
220
0.0
230
1.0
 70
     8
 71
     3
 72
    11
 73
     7
 74
     0
 42
0.00000001
 43
0.00000001
 40
0.0
 40
0.0
 40
0.0
 40
0.0
 40
0.2328716322111487
 40
0.4710265024313253
 40
0.731142121256031
 40
1.0
 40
1.0
 40
1.0
 40
1.0
 10
123.3284082071163
 20
312.0446120538842
 30
0.0
 10
123.5988049417891
 20
311.4448564855446
 30
0.0
 10
124.1457329939199
 20
310.2317384900792
 30
0.0
 10
124.4469573119035
 20
308.2673424541304
 30
0.0
 10
124.2393055464938
 20
306.1959753992325
 30
0.0
 10
123.6353677147135
 20
304.8305084841626
 30
0.0
 10
123.3284082071163
 20
304.1364916005793
 30
0.0
  0
SPLINE
  5
1D6
330
1F
100
AcDbEntity
  8
0
  6
Continuous
 62
     7
370
    25
100
AcDbSpline
210
0.0
220
0.0
230
1.0
 70
     8
 71
     3
 72
     9
 73
     5
 74
     0
 42
0.00000001
 43
0.00000001
 40
0.0
 40
0.0
 40
0.0
 40
0.0
 40
0.5841917497409231
 40
1.0
 40
1.0
 40
1.0
 40
1.0
 10
122.9139512995389
 20
313.1780430120565
 30
0.0
 10
122.9401192633596
 20
313.0215798031557
 30
0.0
 10
122.9849127131682
 20
312.7537512879975
 30
0.0
 10
123.2275271306822
 20
312.252878917757
 30
0.0
 10
123.3284082071163
 20
312.0446120538842
 30
0.0
  0
LINE
  5
1D7
330
1F
100
AcDbEntity
  8
0
  6
Continuous
 62
     7
370
    25
100
AcDbLine
 10
122.9139512995
 20
313.1780430121
 30
0.0
 11
122.9139512995
 21
313.4838071259
 31
0.0
  0
SPLINE
  5
1D8
330
1F
100
AcDbEntity
  8
0
  6
Continuous
 62
     7
370
    25
100
AcDbSpline
210
0.0
220
0.0
230
1.0
 70
     8
 71
     3
 72
     9
 73
     5
 74
     0
 42
0.00000001
 43
0.00000001
 40
0.0
 40
0.0
 40
0.0
 40
0.0
 40
0.5850553834536242
 40
1.0
 40
1.0
 40
1.0
 40
1.0
 10
123.3284082071163
 20
313.3157110138032
 30
0.0
 10
123.191854073092
 20
313.4280248735746
 30
0.0
 10
122.9584502999001
 20
313.6199962030382
 30
0.0
 10
122.9270010121748
 20
313.5237457381477
 30
0.0
 10
122.913951299539
 20
313.4838071259014
 30
0.0
  0
LINE
  5
1D9
330
1F
100
AcDbEntity
  8
0
  6
Continuous
 62
     7
370
    25
100
AcDbLine
 10
123.511481424
 20
313.10366274
 30
0.0
 11
123.3284082071
 21
313.3157110138
 31
0.0
  0
LINE
  5
1DA
330
1F
100
AcDbEntity
  8
0
  6
Continuous
 62
     7
370
    25
100
AcDbLine
 10
124.4139512995
 20
280.6219981359
 30
0.0
 11
124.4139512995
 21
279.8415063896
 31
0.0
  0
LINE
  5
1DB
330
1F
100
AcDbEntity
  8
0
  6
Continuous
 62
     7
370
    25
100
AcDbLine
 10
124.4139512995
 20
312.2415063896
 30
0.0
 11
124.4139512995
 21
280.6219981359
 31
0.0
  0
LINE
  5
1DC
330
1F
100
AcDbEntity
  8
0
  6
Continuous
 62
     7
370
    25
100
AcDbLine
 10
116.049494392
 20
286.8622869764
 30
0.0
 11
123.3284082071
 21
286.8622869764
 31
0.0
  0
LINE
  5
1DD
330
1F
100
AcDbEntity
  8
0
  6
Continuous
 62
     7
370
    25
100
AcDbLine
 10
123.3284082071
 20
298.3846180209
 30
0.0
 11
116.049494392
 21
298.3846180209
 31
0.0
  0
LINE
  5
1DE
330
1F
100
AcDbEntity
  8
0
  6
Continuous
 62
     7
370
    25
100
AcDbLine
 10
132.1639512995
 20
285.4665063896
 30
0.0
 11
132.1639512995
 21
306.6165063896
 31
0.0
  0
LINE
  5
1DF
330
1F
100
AcDbEntity
  8
0
  6
Continuous
 62
     7
370
    25
100
AcDbLine
 10
116.4639512995
 20
300.7728704225
 30
0.0
 11
122.9139512995
 21
300.7728704225
 31
0.0
  0
LINE
  5
1E0
330
1F
100
AcDbEntity
  8
0
  6
Continuous
 62
     7
370
    25
100
AcDbLine
 10
122.9139512995
 20
302.1564893094
 30
0.0
 11
116.4639512995
 21
302.1564893094
 31
0.0
  0
LINE
  5
1E1
330
1F
100
AcDbEntity
  8
0
  6
Continuous
 62
     7
370
    25
100
AcDbLine
 10
116.049494392
 20
304.1364916006
 30
0.0
 11
123.3284082071
 21
304.1364916006
 31
0.0
  0
LINE
  5
1E2
330
1F
100
AcDbEntity
  8
0
  6
Continuous
 62
     7
370
    25
100
AcDbLine
 10
123.3284082071
 20
312.0446120539
 30
0.0
 11
116.049494392
 21
312.0446120539
 31
0.0
  0
LINE
  5
1E3
330
1F
100
AcDbEntity
  8
0
  6
Continuous
 62
     7
370
    25
100
AcDbLine
 10
122.9139512995
 20
284.7141885731
 30
0.0
 11
116.4639512995
 21
284.7141885731
 31
0.0
  0
LINE
  5
1E4
330
1F
100
AcDbEntity
  8
0
  6
Continuous
 62
     7
370
    25
100
AcDbLine
 10
116.4639512995
 20
283.6363338001
 30
0.0
 11
122.9139512995
 21
283.6363338001
 31
0.0
  0
LINE
  5
1E5
330
1F
100
AcDbEntity
  8
0
  6
Continuous
 62
     7
370
    25
100
AcDbLine
 10
123.3284082071
 20
282.3815123566
 30
0.0
 11
116.049494392
 21
282.3815123566
 31
0.0
  0
LINE
  5
1E6
330
1F
100
AcDbEntity
  8
0
  6
Continuous
 62
     7
370
    25
100
AcDbLine
 10
116.049494392
 20
278.7673017654
 30
0.0
 11
123.3284082071
 21
278.7673017654
 31
0.0
  0
LINE
  5
1E7
330
1F
100
AcDbEntity
  8
0
  6
Continuous
 62
     7
370
    25
100
AcDbLine
 10
116.4639512995
 20
313.1780430121
 30
0.0
 11
122.9139512995
 21
313.1780430121
 31
0.0
  0
LINE
  5
1E8
330
1F
100
AcDbEntity
  8
0
  6
Continuous
 62
     7
370
    25
100
AcDbLine
 10
122.9139512995
 20
313.4838071259
 30
0.0
 11
116.4639512995
 21
313.4838071259
 31
0.0
  0
ARC
  5
1E9
330
1F
100
AcDbEntity
  8
0
  6
Continuous
 62
     7
370
    25
100
AcDbCircle
 10
81.2139512995
 20
296.0415063896
 30
0.0
 40
15.00000000000004
100
AcDbArc
 50
52.1401101772
 51
83.7785522012
  0
ARC
  5
1EA
330
1F
100
AcDbEntity
  8
0
  6
Continuous
 62
     7
370
    25
100
AcDbCircle
 10
81.2139512995
 20
296.0415063896
 30
0.0
 40
15.0
100
AcDbArc
 50
351.3723929383
 51
25.2830753679
  0
ARC
  5
1EB
330
1F
100
AcDbEntity
  8
0
  6
Continuous
 62
     7
370
    25
100
AcDbCircle
 10
81.2139512995
 20
296.0415063896
 30
0.0
 40
14.99999999999998
100
AcDbArc
 50
302.0150702689
 51
324.5691404423
  0
LWPOLYLINE
  5
1EC
330
1F
100
AcDbEntity
  8
0
  6
Continuous
 62
     7
370
    25
100
AcDbPolyline
 90
        3
 70
   128
 43
0.0
 10
73.2529153526
 20
283.3284459142
 10
73.1043390377
 20
283.4227033972
 10
72.0277644922
 20
284.1834301569
  0
ARC
  5
1ED
330
1F
100
AcDbEntity
  8
0
  6
Continuous
 62
     7
370
    25
100
AcDbCircle
 10
81.2139512995
 20
296.0415063896
 30
0.0
 40
14.99999999999999
100
AcDbArc
 50
172.1103459263
 51
203.8085505754
  0
ARC
  5
1EE
330
1F
100
AcDbEntity
  8
0
  6
Continuous
 62
     7
370
    25
100
AcDbCircle
 10
81.2139512995
 20
296.0415063896
 30
0.0
 40
15.00000000000004
100
AcDbArc
 50
111.3155718511
 51
145.458898744
  0
ARC
  5
1EF
330
1F
100
AcDbEntity
  8
0
  6
Continuous
 62
     7
370
    25
100
AcDbCircle
 10
94.6221708935
 20
313.4370172557
 30
0.0
 40
6.213875553933523
100
AcDbArc
 50
239.3038676187
 51
299.7771370676
  0
SPLINE
  5
1F0
330
1F
100
AcDbEntity
  8
0
  6
Continuous
 62
     7
370
    25
100
AcDbSpline
210
0.0
220
0.0
230
1.0
 70
     8
 71
     3
 72
    46
 73
    42
 74
     0
 42
0.00000001
 43
0.00000001
 40
0.0
 40
0.0
 40
0.0
 40
0.0
 40
0.1249999999999999
 40
0.1249999999999999
 40
0.1562499999999999
 40
0.1562499999999999
 40
0.1874999999999999
 40
0.1874999999999999
 40
0.25
 40
0.25
 40
0.2812500000000001
 40
0.2812500000000001
 40
0.3125000000000002
 40
0.3125000000000002
 40
0.3750000000000003
 40
0.3750000000000003
 40
0.4062500000000004
 40
0.4062500000000004
 40
0.4375000000000005
 40
0.4375000000000005
 40
0.4687500000000006
 40
0.4687500000000006
 40
0.5000000000000007
 40
0.5000000000000007
 40
0.5312500000000008
 40
0.5312500000000008
 40
0.5625000000000008
 40
0.5625000000000008
 40
0.6250000000000011
 40
0.6250000000000011
 40
0.656250000000001
 40
0.656250000000001
 40
0.687500000000001
 40
0.687500000000001
 40
0.7500000000000008
 40
0.7500000000000008
 40
0.8125000000000007
 40
0.8125000000000007
 40
0.8750000000000004
 40
0.8750000000000004
 40
1.0
 40
1.0
 40
1.0
 40
1.0
 10
97.7081533322489
 20
308.0435988788652
 30
0.0
 10
98.95646681423204
 20
307.3437149044387
 30
0.0
 10
100.1571680500148
 20
306.5439617520322
 30
0.0
 10
101.5662711417508
 20
305.3656745063861
 30
0.0
 10
101.843402424337
 20
305.1208768494553
 30
0.0
 10
102.3869072191044
 20
304.6105151343651
 30
0.0
 10
102.653568537875
 20
304.3445325652356
 30
0.0
 10
103.424868142153
 20
303.5216905921613
 30
0.0
 10
103.9044420327798
 20
302.9374197210728
 30
0.0
 10
104.5573008163958
 20
301.9929569670137
 30
0.0
 10
104.7637638025919
 20
301.6667184363505
 30
0.0
 10
105.1505646555483
 20
300.9875773184613
 30
0.0
 10
105.3319371174084
 20
300.6321857928367
 30
0.0
 10
105.8189875891748
 20
299.5413268520655
 30
0.0
 10
106.0696925479655
 20
298.7813618822497
 30
0.0
 10
106.3091401193215
 20
297.5811203511575
 30
0.0
 10
106.36563342725
 20
297.1706441470895
 30
0.0
 10
106.4260163139998
 20
296.3477655683454
 30
0.0
 10
106.4300568318195
 20
295.9329847845373
 30
0.0
 10
106.3869631865212
 20
295.1167813375824
 30
0.0
 10
106.340119068751
 20
294.7127951033967
 30
0.0
 10
106.1980589392081
 20
293.9126946415412
 30
0.0
 10
106.1021985745354
 20
293.5146463894057
 30
0.0
 10
105.8667781452756
 20
292.7365256185326
 30
0.0
 10
105.7270311965993
 20
292.355568853791
 30
0.0
 10
105.4128563652923
 20
291.6197944113075
 30
0.0
 10
105.2391520909591
 20
291.2659998391931
 30
0.0
 10
104.6757180388971
 20
290.2405752089106
 30
0.0
 10
104.2440577855412
 20
289.6045712837302
 30
0.0
 10
103.5312530233579
 20
288.7063670260939
 30
0.0
 10
103.2819990477744
 20
288.4157994140054
 30
0.0
 10
102.7715183210211
 20
287.8599565684162
 30
0.0
 10
102.5094474460422
 20
287.5935235327896
 30
0.0
 10
101.7055528441657
 20
286.8241668657377
 30
0.0
 10
101.1461805162567
 20
286.3509565551911
 30
0.0
 10
99.99064023807503
 20
285.4680484343852
 30
0.0
 10
99.39438913547257
 20
285.0584796935017
 30
0.0
 10
98.17149210929553
 20
284.2934375472621
 30
0.0
 10
97.54966589283256
 20
283.9410929053516
 30
0.0
 10
95.66808224800826
 20
282.9643958378666
 30
0.0
 10
94.3878880231659
 20
282.4171415028832
 30
0.0
 10
93.09904956996255
 20
281.9513608465321
 30
0.0
  0
LINE
  5
1F1
330
1F
100
AcDbEntity
  8
0
  6
Continuous
 62
     7
370
    25
100
AcDbLine
 10
56.4139512995
 20
364.0415063896
 30
0.0
 11
106.0139512952
 21
364.0415063896
 31
0.0
  0
LWPOLYLINE
  5
1F2
330
1F
100
AcDbEntity
  8
0
  6
Continuous
 62
     7
370
    25
100
AcDbPolyline
 90
        9
 70
   128
 43
0.0
 10
91.4500814117
 20
308.0937881085
 10
90.8894820171
 20
308.7472422807
 10
90.4563624509
 20
309.5269690824
 10
90.1585788966
 20
310.4188253592
 10
90.0015327316
 20
311.4066340849
 10
89.9880725538
 20
312.4724777902
 10
90.118442512
 20
313.59702356
 10
90.3902778775
 20
314.759873706
 10
90.7986479366
 20
315.9399357522
  0
ARC
  5
1F3
330
1F
100
AcDbEntity
  8
0
  6
Continuous
 62
     7
370
    25
100
AcDbCircle
 10
61.4701912505
 20
309.4319114891
 30
0.0
 40
7.748014529181534
100
AcDbArc
 50
327.7818157888
 51
13.7464277328
  0
SPLINE
  5
1F4
330
1F
100
AcDbEntity
  8
0
  6
Continuous
 62
     7
370
    25
100
AcDbSpline
210
0.0
220
0.0
230
1.0
 70
     8
 71
     3
 72
    42
 73
    38
 74
     0
 42
0.00000001
 43
0.00000001
 40
0.0
 40
0.0
 40
0.0
 40
0.0
 40
0.0624999999999998
 40
0.0624999999999998
 40
0.1249999999999997
 40
0.1249999999999997
 40
0.1874999999999996
 40
0.1874999999999996
 40
0.2499999999999995
 40
0.2499999999999995
 40
0.3749999999999996
 40
0.3749999999999996
 40
0.4062499999999997
 40
0.4062499999999997
 40
0.4374999999999998
 40
0.4374999999999998
 40
0.4999999999999999
 40
0.4999999999999999
 40
0.5312499999999999
 40
0.5312499999999999
 40
0.5625
 40
0.5625
 40
0.59375
 40
0.59375
 40
0.625
 40
0.625
 40
0.6875
 40
0.6875
 40
0.71875
 40
0.71875
 40
0.75
 40
0.75
 40
0.8125
 40
0.8125
 40
0.875
 40
0.875
 40
1.0
 40
1.0
 40
1.0
 40
1.0
 10
68.99627852496748
 20
311.273036004585
 30
0.0
 10
69.1901023202428
 20
311.7052094201559
 30
0.0
 10
69.40348267142244
 20
312.1583185507332
 30
0.0
 10
69.86406915730697
 20
313.0720998833239
 30
0.0
 10
70.11206252778429
 20
313.5348293968499
 30
0.0
 10
70.64703486984223
 20
314.4610389941257
 30
0.0
 10
70.93399519487788
 20
314.9246314532411
 30
0.0
 10
71.55293307693957
 20
315.8450918395047
 30
0.0
 10
71.88553186939109
 20
316.3028718176407
 30
0.0
 10
72.96083083179576
 20
317.6503455377884
 30
0.0
 10
73.76552809334646
 20
318.5001961749926
 30
0.0
 10
74.93758295232209
 20
319.4525077551317
 30
0.0
 10
75.18053563479923
 20
319.6373321731347
 30
0.0
 10
75.686239643202
 20
319.9936327420466
 30
0.0
 10
75.94836500005259
 20
320.1644995721253
 30
0.0
 10
76.75247081551274
 20
320.6439767444014
 30
0.0
 10
77.31632548370138
 20
320.9230167569308
 30
0.0
 10
78.21397427025882
 20
321.2646195717035
 30
0.0
 10
78.52188735255655
 20
321.365585730567
 30
0.0
 10
79.15777159534709
 20
321.5376303509986
 30
0.0
 10
79.48402865559451
 20
321.6079921233838
 30
0.0
 10
80.14220205573478
 20
321.7121956112339
 30
0.0
 10
80.4774573989076
 20
321.7464461284723
 30
0.0
 10
81.14292126144608
 20
321.7766914870369
 30
0.0
 10
81.47439605294859
 20
321.7730717670149
 30
0.0
 10
82.46512797707791
 20
321.707169029306
 30
0.0
 10
83.12633678947132
 20
321.5875504577976
 30
0.0
 10
84.07633744183458
 20
321.311409577521
 30
0.0
 10
84.38540735203505
 20
321.2037787286932
 30
0.0
 10
84.98160620377692
 20
320.9645348397885
 30
0.0
 10
85.27018204442625
 20
320.8325032769584
 30
0.0
 10
86.11088208466646
 20
320.4040245426287
 30
0.0
 10
86.63816224126882
 20
320.0754203115935
 30
0.0
 10
87.63867889264002
 20
319.3497923829224
 30
0.0
 10
88.10173364634247
 20
318.9600355700628
 30
0.0
 10
89.39558775473843
 20
317.7412061621565
 30
0.0
 10
90.13840847053555
 20
316.8587564369401
 30
0.0
 10
90.79864793657997
 20
315.9399357521579
 30
0.0
  0
SPLINE
  5
1F5
330
1F
100
AcDbEntity
  8
0
  6
Continuous
 62
     7
370
    25
100
AcDbSpline
210
0.0
220
0.0
230
1.0
 70
     8
 71
     3
 72
     8
 73
     4
 74
     0
 42
0.00000001
 43
0.00000001
 40
0.0
 40
0.0
 40
0.0
 40
0.0
 40
0.000098823642892
 40
0.000098823642892
 40
0.000098823642892
 40
0.000098823642892
 10
65.26651995030487
 20
354.3236641536907
 30
0.0
 10
65.26922575217537
 20
354.3114232829896
 30
0.0
 10
65.27190947205435
 20
354.299347622934
 30
0.0
 10
65.27458002270714
 20
354.2874192466866
 30
0.0
  0
SPLINE
  5
1F6
330
1F
100
AcDbEntity
  8
0
  6
Continuous
 62
     7
370
    25
100
AcDbSpline
210
0.0
220
0.0
230
1.0
 70
     8
 71
     3
 72
     8
 73
     4
 74
     0
 42
0.00000001
 43
0.00000001
 40
0.0
 40
0.0
 40
0.0
 40
0.0
 40
0.0002560048126404
 40
0.0002560048126404
 40
0.0002560048126404
 40
0.0002560048126404
 10
65.24515256433658
 20
354.4146265847379
 30
0.0
 10
65.25231634417821
 20
354.3856975997871
 30
0.0
 10
65.25951051126196
 20
354.3553743975095
 30
0.0
 10
65.26651995030555
 20
354.3236641536985
 30
0.0
  0
SPLINE
  5
1F7
330
1F
100
AcDbEntity
  8
0
  6
Continuous
 62
     7
370
    25
100
AcDbSpline
210
0.0
220
0.0
230
1.0
 70
     8
 71
     3
 72
     8
 73
     4
 74
     0
 42
0.00000001
 43
0.00000001
 40
0.0
 40
0.0
 40
0.0
 40
0.0
 40
0.0002560048126397
 40
0.0002560048126397
 40
0.0002560048126397
 40
0.0002560048126397
 10
97.1613826487731
 20
354.323664153691
 30
0.0
 10
97.16839208781653
 20
354.3553743975019
 30
0.0
 10
97.17558625489897
 20
354.3856975997952
 30
0.0
 10
97.1827500347407
 20
354.4146265847458
 30
0.0
  0
SPLINE
  5
1F8
330
1F
100
AcDbEntity
  8
0
  6
Continuous
 62
     7
370
    25
100
AcDbSpline
210
0.0
220
0.0
230
1.0
 70
     8
 71
     3
 72
     8
 73
     4
 74
     0
 42
0.00000001
 43
0.00000001
 40
0.0000000000000011
 40
0.0000000000000011
 40
0.0000000000000011
 40
0.0000000000000011
 40
0.0000988236428765
 40
0.0000988236428765
 40
0.0000988236428765
 40
0.0000988236428765
 10
97.15332257637216
 20
354.2874192466898
 30
0.0
 10
97.15599312702453
 20
354.2993476229353
 30
0.0
 10
97.15867684690302
 20
354.3114232829918
 30
0.0
 10
97.16138264877311
 20
354.323664153691
 30
0.0
  0
LINE
  5
1F9
330
1F
100
AcDbEntity
  8
0
  6
Continuous
 62
     7
370
    25
100
AcDbLine
 10
97.1533225764
 20
354.2874192467
 30
0.0
 11
90.388764514
 21
354.2874192467
 31
0.0
  0
SPLINE
  5
1FA
330
1F
100
AcDbEntity
  8
0
  6
Continuous
 62
     7
370
    25
100
AcDbSpline
210
0.0
220
0.0
230
1.0
 70
     8
 71
     3
 72
     8
 73
     4
 74
     0
 42
0.00000001
 43
0.00000001
 40
0.0
 40
0.0
 40
0.0
 40
0.0
 40
0.000098823642892
 40
0.000098823642892
 40
0.000098823642892
 40
0.000098823642892
 10
90.31348130564635
 20
354.3236641536907
 30
0.0
 10
90.33850969524194
 20
354.3114232829896
 30
0.0
 10
90.36360867382706
 20
354.299347622934
 30
0.0
 10
90.38876451397398
 20
354.2874192466866
 30
0.0
  0
SPLINE
  5
1FB
330
1F
100
AcDbEntity
  8
0
  6
Continuous
 62
     7
370
    25
100
AcDbSpline
210
0.0
220
0.0
230
1.0
 70
     8
 71
     3
 72
     8
 73
     4
 74
     0
 42
0.00000001
 43
0.00000001
 40
0.0
 40
0.0
 40
0.0
 40
0.0
 40
0.0002560048126404
 40
0.0002560048126404
 40
0.0002560048126404
 40
0.0002560048126404
 10
90.11775327103851
 20
354.4146265847379
 30
0.0
 10
90.18342009403472
 20
354.3856975997871
 30
0.0
 10
90.24864471390171
 20
354.3553743975095
 30
0.0
 10
90.3134813056484
 20
354.3236641536985
 30
0.0
  0
SPLINE
  5
1FC
330
1F
100
AcDbEntity
  8
0
  6
Continuous
 62
     7
370
    25
100
AcDbSpline
210
0.0
220
0.0
230
1.0
 70
     8
 71
     3
 72
    14
 73
    10
 74
     0
 42
0.00000001
 43
0.00000001
 40
0.0
 40
0.0
 40
0.0
 40
0.0
 40
0.25
 40
0.25
 40
0.5
 40
0.5
 40
0.75
 40
0.75
 40
1.0
 40
1.0
 40
1.0
 40
1.0
 10
88.2789480632418
 20
354.4146265847379
 30
0.0
 10
88.43466338494581
 20
354.4764781419494
 30
0.0
 10
88.59256291568474
 20
354.5186882816593
 30
0.0
 10
88.90838285370754
 20
354.5738404294411
 30
0.0
 10
89.06636181942743
 20
354.5869146732529
 30
0.0
 10
89.38121898826702
 20
354.587078439015
 30
0.0
 10
89.53428977356667
 20
354.5741684487405
 30
0.0
 10
89.83207856287665
 20
354.5190919620314
 30
0.0
 10
89.9775354181186
 20
354.4763984197676
 30
0.0
 10
90.11775327103888
 20
354.4146265847392
 30
0.0
  0
SPLINE
  5
1FD
330
1F
100
AcDbEntity
  8
0
  6
Continuous
 62
     7
370
    25
100
AcDbSpline
210
0.0
220
0.0
230
1.0
 70
     8
 71
     3
 72
     8
 73
     4
 74
     0
 42
0.00000001
 43
0.00000001
 40
0.0
 40
0.0
 40
0.0
 40
0.0
 40
0.0002560048126397
 40
0.0002560048126397
 40
0.0002560048126397
 40
0.0002560048126397
 10
88.06185264266624
 20
354.323664153691
 30
0.0
 10
88.13369867345625
 20
354.3553743975019
 30
0.0
 10
88.20611746040103
 20
354.3856975997952
 30
0.0
 10
88.27894806323874
 20
354.4146265847458
 30
0.0
  0
SPLINE
  5
1FE
330
1F
100
AcDbEntity
  8
0
  6
Continuous
 62
     7
370
    25
100
AcDbSpline
210
0.0
220
0.0
230
1.0
 70
     8
 71
     3
 72
     8
 73
     4
 74
     0
 42
0.00000001
 43
0.00000001
 40
0.0000000000000011
 40
0.0000000000000011
 40
0.0000000000000011
 40
0.0000000000000011
 40
0.0000988236428765
 40
0.0000988236428765
 40
0.0000988236428765
 40
0.0000988236428765
 10
87.97850936195032
 20
354.2874192466897
 30
0.0
 10
88.00633575274566
 20
354.2993476229353
 30
0.0
 10
88.03411845120445
 20
354.3114232829918
 30
0.0
 10
88.06185264266622
 20
354.323664153691
 30
0.0
  0
LINE
  5
1FF
330
1F
100
AcDbEntity
  8
0
  6
Continuous
 62
     7
370
    25
100
AcDbLine
 10
87.978509362
 20
354.2874192467
 30
0.0
 11
74.4493932371
 21
354.2874192467
 31
0.0
  0
SPLINE
  5
200
330
1F
100
AcDbEntity
  8
0
  6
Continuous
 62
     7
370
    25
100
AcDbSpline
210
0.0
220
0.0
230
1.0
 70
     8
 71
     3
 72
     8
 73
     4
 74
     0
 42
0.00000001
 43
0.00000001
 40
0.0
 40
0.0
 40
0.0
 40
0.0
 40
0.0000988236428927
 40
0.0000988236428927
 40
0.0000988236428927
 40
0.0000988236428927
 10
74.36604995641166
 20
354.323664153691
 30
0.0
 10
74.39378414787798
 20
354.3114232829898
 30
0.0
 10
74.42156684634226
 20
354.2993476229341
 30
0.0
 10
74.44939323714217
 20
354.2874192466866
 30
0.0
  0
SPLINE
  5
201
330
1F
100
AcDbEntity
  8
0
  6
Continuous
 62
     7
370
    25
100
AcDbSpline
210
0.0
220
0.0
230
1.0
 70
     8
 71
     3
 72
     8
 73
     4
 74
     0
 42
0.00000001
 43
0.00000001
 40
0.0
 40
0.0
 40
0.0
 40
0.0
 40
0.0002560048126397
 40
0.0002560048126397
 40
0.0002560048126397
 40
0.0002560048126397
 10
74.14895453583611
 20
354.4146265847379
 30
0.0
 10
74.22178513867375
 20
354.3856975997872
 30
0.0
 10
74.2942039256243
 20
354.3553743975096
 30
0.0
 10
74.3660499564144
 20
354.3236641536988
 30
0.0
  0
SPLINE
  5
202
330
1F
100
AcDbEntity
  8
0
  6
Continuous
 62
     7
370
    25
100
AcDbSpline
210
0.0
220
0.0
230
1.0
 70
     8
 71
     3
 72
    14
 73
    10
 74
     0
 42
0.00000001
 43
0.00000001
 40
0.0
 40
0.0
 40
0.0
 40
0.0
 40
0.25
 40
0.25
 40
0.5
 40
0.5
 40
0.75
 40
0.75
 40
1.0
 40
1.0
 40
1.0
 40
1.0
 10
72.3101493280394
 20
354.4146265847379
 30
0.0
 10
72.45054814487884
 20
354.4764781419494
 30
0.0
 10
72.5943974073796
 20
354.5186882816593
 30
0.0
 10
72.8910932698314
 20
354.5738404294411
 30
0.0
 10
73.04382928719123
 20
354.5869146732529
 30
0.0
 10
73.35862384623967
 20
354.587078439015
 30
0.0
 10
73.51687799844758
 20
354.5741684487405
 30
0.0
 10
73.83378141654003
 20
354.5190919620314
 30
0.0
 10
73.9934399199184
 20
354.4763984197676
 30
0.0
 10
74.14895453583648
 20
354.4146265847392
 30
0.0
  0
SPLINE
  5
203
330
1F
100
AcDbEntity
  8
0
  6
Continuous
 62
     7
370
    25
100
AcDbSpline
210
0.0
220
0.0
230
1.0
 70
     8
 71
     3
 72
     8
 73
     4
 74
     0
 42
0.00000001
 43
0.00000001
 40
0.0
 40
0.0
 40
0.0
 40
0.0
 40
0.0002560048126397
 40
0.0002560048126397
 40
0.0002560048126397
 40
0.0002560048126397
 10
72.1144212934321
 20
354.323664153691
 30
0.0
 10
72.17925788517867
 20
354.3553743975019
 30
0.0
 10
72.24448250504103
 20
354.3856975997952
 30
0.0
 10
72.310149328037
 20
354.4146265847458
 30
0.0
  0
SPLINE
  5
204
330
1F
100
AcDbEntity
  8
0
  6
Continuous
 62
     7
370
    25
100
AcDbSpline
210
0.0
220
0.0
230
1.0
 70
     8
 71
     3
 72
     8
 73
     4
 74
     0
 42
0.00000001
 43
0.00000001
 40
0.0000000000000011
 40
0.0000000000000011
 40
0.0000000000000011
 40
0.0000000000000011
 40
0.0000988236428765
 40
0.0000988236428765
 40
0.0000988236428765
 40
0.0000988236428765
 10
72.03913808511712
 20
354.2874192466897
 30
0.0
 10
72.06429392526007
 20
354.2993476229353
 30
0.0
 10
72.08939290384039
 20
354.3114232829918
 30
0.0
 10
72.11442129343209
 20
354.323664153691
 30
0.0
  0
LINE
  5
205
330
1F
100
AcDbEntity
  8
0
  6
Continuous
 62
     7
370
    25
100
AcDbLine
 10
72.0391380851
 20
354.2874192467
 30
0.0
 11
65.2745800227
 21
354.2874192467
 31
0.0
  0
LINE
  5
206
330
1F
100
AcDbEntity
  8
0
  6
Continuous
 62
     7
370
    25
100
AcDbLine
 10
110.2139512995
 20
306.5327465564
 30
0.0
 11
110.2139512995
 21
280.648969793
 31
0.0
  0
LINE
  5
207
330
1F
100
AcDbEntity
  8
0
  6
Continuous
 62
     7
370
    25
100
AcDbLine
 10
110.2139512995
 20
311.4340429862
 30
0.0
 11
110.2139512995
 21
307.8455930516
 31
0.0
  0
ELLIPSE
  5
208
330
1F
100
AcDbEntity
  8
0
  6
Continuous
 62
     7
370
    25
100
AcDbEllipse
 10
118.4547076883
 20
296.1335396763
 30
0.0
 11
-5.596045292391636
 21
15.00796136777751
 31
0.0
210
0.0
220
0.0
230
1.0
 40
0.4514218124
 41
0.5258794326610039
 42
0.6494913437152808
  0
SPLINE
  5
209
330
1F
100
AcDbEntity
  8
0
  6
Continuous
 62
     7
370
    25
100
AcDbSpline
210
0.0
220
0.0
230
1.0
 70
     8
 71
     3
 72
     8
 73
     4
 74
     0
 42
0.00000001
 43
0.00000001
 40
0.0000002008695006
 40
0.0000002008695006
 40
0.0000002008695006
 40
0.0000002008695006
 40
0.0003147847660132
 40
0.0003147847660132
 40
0.0003147847660132
 40
0.0003147847660132
 10
110.2139512995389
 20
306.5327465564379
 30
0.0
 10
110.1095439169299
 20
306.5411871123298
 30
0.0
 10
110.0051329024058
 20
306.5495940380763
 30
0.0
 10
109.9007183873351
 20
306.5579681601699
 30
0.0
  0
SPLINE
  5
20A
330
1F
100
AcDbEntity
  8
0
  6
Continuous
 62
     7
370
    25
100
AcDbSpline
210
0.0
220
0.0
230
1.0
 70
     8
 71
     3
 72
     9
 73
     5
 74
     0
 42
0.00000001
 43
0.00000001
 40
0.0
 40
0.0
 40
0.0
 40
0.0
 40
0.5157282296324021
 40
1.0
 40
1.0
 40
1.0
 40
1.0
 10
104.5731825879464
 20
311.5391149992829
 30
0.0
 10
104.5832450257927
 20
311.5444371668765
 30
0.0
 10
104.6027561505832
 20
311.554756880415
 30
0.0
 10
104.5947480992233
 20
311.5505173606989
 30
0.0
 10
104.5908700260141
 20
311.5484642809805
 30
0.0
  0
SPLINE
  5
20B
330
1F
100
AcDbEntity
  8
0
  6
Continuous
 62
     7
370
    25
100
AcDbSpline
210
0.0
220
0.0
230
1.0
 70
     8
 71
     3
 72
    16
 73
    12
 74
     0
 42
0.00000001
 43
0.00000001
 40
0.0
 40
0.0
 40
0.0
 40
0.0
 40
0.25
 40
0.25
 40
0.5
 40
0.5
 40
0.75
 40
0.75
 40
0.875
 40
0.875
 40
1.0
 40
1.0
 40
1.0
 40
1.0
 10
88.48976740496657
 20
351.7915063896186
 30
0.0
 10
87.85741150426188
 20
351.7915063896186
 30
0.0
 10
87.23632581983988
 20
351.8595015584015
 30
0.0
 10
86.00640078235341
 20
352.0693761362282
 30
0.0
 10
85.39779471692387
 20
352.2126630100195
 30
0.0
 10
84.18798456624906
 20
352.5438941873558
 30
0.0
 10
83.58868741962111
 20
352.7316095642751
 30
0.0
 10
82.69564141419403
 20
353.0278020152981
 30
0.0
 10
82.39878915183998
 20
353.1290621071054
 30
0.0
 10
81.80589863838753
 20
353.3340636216288
 30
0.0
 10
81.50832154935183
 20
353.4383480679506
 30
0.0
 10
81.21395129953896
 20
353.5415063896186
 30
0.0
  0
SPLINE
  5
20C
330
1F
100
AcDbEntity
  8
0
  6
Continuous
 62
     7
370
    25
100
AcDbSpline
210
0.0
220
0.0
230
1.0
 70
     8
 71
     3
 72
    14
 73
    10
 74
     0
 42
0.00000001
 43
0.00000001
 40
0.0
 40
0.0
 40
0.0
 40
0.0
 40
0.25
 40
0.25
 40
0.5
 40
0.5
 40
0.75
 40
0.75
 40
1.0
 40
1.0
 40
1.0
 40
1.0
 10
88.38821920336925
 20
353.3801427793836
 30
0.0
 10
87.80291533346231
 20
353.3180891471964
 30
0.0
 10
87.21504166807733
 20
353.2995646839232
 30
0.0
 10
86.03096793477621
 20
353.2946219677214
 30
0.0
 10
85.43430908163558
 20
353.3100835715184
 30
0.0
 10
84.23441299226897
 20
353.3577479771453
 30
0.0
 10
83.63285048521432
 20
353.3901867174672
 30
0.0
 10
82.4256922861888
 20
353.4621629267378
 30
0.0
 10
81.81792142242442
 20
353.5019784705703
 30
0.0
 10
81.21395129953896
 20
353.5415063896186
 30
0.0
  0
SPLINE
  5
20D
330
1F
100
AcDbEntity
  8
0
  6
Continuous
 62
     7
370
    25
100
AcDbSpline
210
0.0
220
0.0
230
1.0
 70
     8
 71
     3
 72
     8
 73
     4
 74
     0
 42
0.00000001
 43
0.00000001
 40
0.0
 40
0.0
 40
0.0
 40
0.0
 40
0.0001055072942668
 40
0.0001055072942668
 40
0.0001055072942668
 40
0.0001055072942668
 10
88.48976740496657
 20
353.3913470417996
 30
0.0
 10
88.45592913813665
 20
353.3874632187853
 30
0.0
 10
88.42207929953864
 20
353.3837326103437
 30
0.0
 10
88.38821920336929
 20
353.3801427793831
 30
0.0
  0
LINE
  5
20E
330
1F
100
AcDbEntity
  8
0
  6
Continuous
 62
     7
370
    25
100
AcDbLine
 10
88.489767405
 20
353.3913470418
 30
0.0
 11
88.489767405
 21
351.7915063896
 31
0.0
  0
ARC
  5
20F
330
1F
100
AcDbEntity
  8
0
  6
Continuous
 62
     7
370
    25
100
AcDbCircle
 10
89.5680292669
 20
354.4590709787
 30
0.0
 40
1.59876134718267
100
AcDbArc
 50
186.1634674732
 51
222.4427022402
  0
SPLINE
  5
210
330
1F
100
AcDbEntity
  8
0
  6
Continuous
 62
     7
370
    25
100
AcDbSpline
210
0.0
220
0.0
230
1.0
 70
     8
 71
     3
 72
    12
 73
     8
 74
     0
 42
0.00000001
 43
0.00000001
 40
0.0
 40
0.0
 40
0.0
 40
0.0
 40
0.2499999999999999
 40
0.2499999999999999
 40
0.4999999999999998
 40
0.4999999999999998
 40
1.0
 40
1.0
 40
1.0
 40
1.0
 10
87.9785093619499
 20
354.2874192466896
 30
0.0
 10
87.45635123702081
 20
354.1755021349869
 30
0.0
 10
86.91772419943295
 20
354.0961219894418
 30
0.0
 10
85.81467799812452
 20
353.9543741523263
 30
0.0
 10
85.25482297869523
 20
353.894699355385
 30
0.0
 10
83.55236029364929
 20
353.728761035083
 30
0.0
 10
82.38173039381999
 20
353.6354860604464
 30
0.0
 10
81.21395129953896
 20
353.5415063896186
 30
0.0
  0
LINE
  5
211
330
1F
100
AcDbEntity
  8
0
  6
Continuous
 62
     7
370
    25
100
AcDbLine
 10
73.9381351941
 20
351.7915063896
 30
0.0
 11
73.9381351941
 21
353.3913470418
 31
0.0
  0
SPLINE
  5
212
330
1F
100
AcDbEntity
  8
0
  6
Continuous
 62
     7
370
    25
100
AcDbSpline
210
0.0
220
0.0
230
1.0
 70
     8
 71
     3
 72
     8
 73
     4
 74
     0
 42
0.00000001
 43
0.00000001
 40
0.0
 40
0.0
 40
0.0
 40
0.0
 40
0.0001055072942852
 40
0.0001055072942852
 40
0.0001055072942852
 40
0.0001055072942852
 10
74.03968339572634
 20
353.3801427793817
 30
0.0
 10
74.00582329955108
 20
353.3837326103429
 30
0.0
 10
73.97197346094714
 20
353.3874632187847
 30
0.0
 10
73.93813519411133
 20
353.3913470417996
 30
0.0
  0
SPLINE
  5
213
330
1F
100
AcDbEntity
  8
0
  6
Continuous
 62
     7
370
    25
100
AcDbSpline
210
0.0
220
0.0
230
1.0
 70
     8
 71
     3
 72
    14
 73
    10
 74
     0
 42
0.00000001
 43
0.00000001
 40
0.0
 40
0.0
 40
0.0
 40
0.0
 40
0.2500000000000001
 40
0.2500000000000001
 40
0.5000000000000002
 40
0.5000000000000002
 40
0.7500000000000001
 40
0.7500000000000001
 40
1.0
 40
1.0
 40
1.0
 40
1.0
 10
74.03968339572634
 20
353.3801427793817
 30
0.0
 10
74.62498726565184
 20
353.3180891471935
 30
0.0
 10
75.21286093105557
 20
353.2995646839213
 30
0.0
 10
76.3969346643948
 20
353.2946219677226
 30
0.0
 10
76.99359351755508
 20
353.3100835715216
 30
0.0
 10
78.1934896069601
 20
353.3577479771526
 30
0.0
 10
78.79505211403409
 20
353.3901867174766
 30
0.0
 10
80.00221031309862
 20
353.462162926751
 30
0.0
 10
80.60998117663296
 20
353.5019784705825
 30
0.0
 10
81.21395129953896
 20
353.5415063896186
 30
0.0
  0
SPLINE
  5
214
330
1F
100
AcDbEntity
  8
0
  6
Continuous
 62
     7
370
    25
100
AcDbSpline
210
0.0
220
0.0
230
1.0
 70
     8
 71
     3
 72
    16
 73
    12
 74
     0
 42
0.00000001
 43
0.00000001
 40
0.0
 40
0.0
 40
0.0
 40
0.0
 40
0.2499999999999999
 40
0.2499999999999999
 40
0.4999999999999999
 40
0.4999999999999999
 40
0.75
 40
0.75
 40
0.875
 40
0.875
 40
1.0
 40
1.0
 40
1.0
 40
1.0
 10
73.93813519411133
 20
351.7915063896186
 30
0.0
 10
74.57049109481603
 20
351.7915063896186
 30
0.0
 10
75.19157677923803
 20
351.8595015584015
 30
0.0
 10
76.4215018167245
 20
352.0693761362282
 30
0.0
 10
77.03010788215403
 20
352.2126630100195
 30
0.0
 10
78.23991803282885
 20
352.5438941873558
 30
0.0
 10
78.8392151794568
 20
352.7316095642751
 30
0.0
 10
79.73226118488387
 20
353.0278020152981
 30
0.0
 10
80.02911344723795
 20
353.1290621071054
 30
0.0
 10
80.62200396069039
 20
353.3340636216288
 30
0.0
 10
80.91958104972599
 20
353.4383480679508
 30
0.0
 10
81.21395129953896
 20
353.5415063896186
 30
0.0
  0
ARC
  5
215
330
1F
100
AcDbEntity
  8
0
  6
Continuous
 62
     7
370
    25
100
AcDbCircle
 10
72.8598733322
 20
354.4590709787
 30
0.0
 40
1.598761347194619
100
AcDbArc
 50
317.5572977601
 51
353.8365325269
  0
SPLINE
  5
216
330
1F
100
AcDbEntity
  8
0
  6
Continuous
 62
     7
370
    25
100
AcDbSpline
210
0.0
220
0.0
230
1.0
 70
     8
 71
     3
 72
    18
 73
    14
 74
     0
 42
0.00000001
 43
0.00000001
 40
0.0
 40
0.0
 40
0.0
 40
0.0
 40
0.2500000000000001
 40
0.2500000000000001
 40
0.5000000000000001
 40
0.5000000000000001
 40
0.7500000000000002
 40
0.7500000000000002
 40
0.8750000000000003
 40
0.8750000000000003
 40
0.9375000000000002
 40
0.9375000000000002
 40
1.0
 40
1.0
 40
1.0
 40
1.0
 10
74.44939323714217
 20
354.2874192466867
 30
0.0
 10
74.97381823865032
 20
354.1750162624737
 30
0.0
 10
75.51112003412356
 20
354.0960512362448
 30
0.0
 10
76.60583337022595
 20
353.9552740111652
 30
0.0
 10
77.16347779969757
 20
353.8957002958552
 30
0.0
 10
78.29809360343651
 20
353.7849807727966
 30
0.0
 10
78.87745621094518
 20
353.7339482063212
 30
0.0
 10
79.7508932818718
 20
353.6603305725561
 30
0.0
 10
80.04269472282667
 20
353.6363069923727
 30
0.0
 10
80.48134348729683
 20
353.6005993338682
 30
0.0
 10
80.62771765105389
 20
353.5887521504623
 30
0.0
 10
80.92077708116823
 20
353.565100137766
 30
0.0
 10
81.06889102090962
 20
353.5531804424601
 30
0.0
 10
81.21395129953896
 20
353.5415063896186
 30
0.0
  0
ARC
  5
217
330
1F
100
AcDbEntity
  8
0
  6
Continuous
 62
     7
370
    25
100
AcDbCircle
 10
105.1573541432
 20
321.5330174941
 30
0.0
 40
15.40957518232612
100
AcDbArc
 50
201.2821805457
 51
241.0914009813
  0
LINE
  5
218
330
1F
100
AcDbEntity
  8
0
  6
Continuous
 62
     7
370
    25
100
AcDbLine
 10
91.3175810104
 20
351.7915063896
 30
0.0
 11
88.719504799
 21
351.7915063896
 31
0.0
  0
LINE
  5
219
330
1F
100
AcDbEntity
  8
0
  6
Continuous
 62
     7
370
    25
100
AcDbLine
 10
88.719504799
 20
351.7915063896
 30
0.0
 11
88.719504799
 21
353.4202896335
 31
0.0
  0
SPLINE
  5
21A
330
1F
100
AcDbEntity
  8
0
  6
Continuous
 62
     7
370
    25
100
AcDbSpline
210
0.0
220
0.0
230
1.0
 70
     8
 71
     3
 72
    10
 73
     6
 74
     0
 42
0.00000001
 43
0.00000001
 40
0.0
 40
0.0
 40
0.0
 40
0.0
 40
0.5
 40
0.5
 40
1.0
 40
1.0
 40
1.0
 40
1.0
 10
90.35626922901398
 20
353.4202896334963
 30
0.0
 10
90.1142504098423
 20
353.4627136591826
 30
0.0
 10
89.85941837913705
 20
353.4751347437962
 30
0.0
 10
89.30697530428789
 20
353.4751347437962
 30
0.0
 10
89.01652835844804
 20
353.4627136591829
 30
0.0
 10
88.71950479900387
 20
353.4202896334968
 30
0.0
  0
ARC
  5
21B
330
1F
100
AcDbEntity
  8
0
  6
Continuous
 62
     7
370
    25
100
AcDbCircle
 10
89.5554830611
 20
351.8495878318
 30
0.0
 40
1.76305491595408
100
AcDbArc
 50
358.1121270215
 51
62.9862857032
  0
LINE
  5
21C
330
1F
100
AcDbEntity
  8
0
  6
Continuous
 62
     7
370
    25
100
AcDbLine
 10
88.719504799
 20
351.7915063896
 30
0.0
 11
88.489767405
 21
351.7915063896
 31
0.0
  0
SPLINE
  5
21D
330
1F
100
AcDbEntity
  8
0
  6
Continuous
 62
     7
370
    25
100
AcDbSpline
210
0.0
220
0.0
230
1.0
 70
     8
 71
     3
 72
     8
 73
     4
 74
     0
 42
0.00000001
 43
0.00000001
 40
0.0
 40
0.0
 40
0.0
 40
0.0
 40
0.0002416894103822
 40
0.0002416894103822
 40
0.0002416894103822
 40
0.0002416894103822
 10
88.71950479900408
 20
353.4202896334963
 30
0.0
 10
88.64293726930441
 20
353.4111264726484
 30
0.0
 10
88.56634671297888
 20
353.4014872599345
 30
0.0
 10
88.48976740496653
 20
353.3913470417999
 30
0.0
  0
LINE
  5
21E
330
1F
100
AcDbEntity
  8
0
  6
Continuous
 62
     7
370
    25
100
AcDbLine
 10
89.8020365537
 20
339.2915063896
 30
0.0
 11
88.719504799
 21
339.2915063896
 31
0.0
  0
LINE
  5
21F
330
1F
100
AcDbEntity
  8
0
  6
Continuous
 62
     7
370
    25
100
AcDbLine
 10
88.719504799
 20
339.2915063896
 30
0.0
 11
88.719504799
 21
341.0415063896
 31
0.0
  0
LINE
  5
220
330
1F
100
AcDbEntity
  8
0
  6
Continuous
 62
     7
370
    25
100
AcDbLine
 10
88.719504799
 20
341.0415063896
 30
0.0
 11
91.3175810104
 21
341.0415063896
 31
0.0
  0
ARC
  5
221
330
1F
100
AcDbEntity
  8
0
  6
Continuous
 62
     7
370
    25
100
AcDbCircle
 10
89.6757411823
 20
340.9321313896
 30
0.0
 40
1.645478930724525
100
AcDbArc
 50
274.4019496523
 51
3.8112610495
  0
LINE
  5
222
330
1F
100
AcDbEntity
  8
0
  6
Continuous
 62
     7
370
    25
100
AcDbLine
 10
91.3175810104
 20
351.7915063896
 30
0.0
 11
91.3175810104
 21
341.0415063896
 31
0.0
  0
LINE
  5
223
330
1F
100
AcDbEntity
  8
0
  6
Continuous
 62
     7
370
    25
100
AcDbLine
 10
88.719504799
 20
341.0415063896
 30
0.0
 11
88.719504799
 21
351.7915063896
 31
0.0
  0
LINE
  5
224
330
1F
100
AcDbEntity
  8
0
  6
Continuous
 62
     7
370
    25
100
AcDbLine
 10
73.7083978001
 20
351.7915063896
 30
0.0
 11
71.1103215887
 21
351.7915063896
 31
0.0
  0
ARC
  5
225
330
1F
100
AcDbEntity
  8
0
  6
Continuous
 62
     7
370
    25
100
AcDbCircle
 10
72.872419538
 20
351.8495878318
 30
0.0
 40
1.763054915954093
100
AcDbArc
 50
117.0137142968
 51
181.8878729785
  0
SPLINE
  5
226
330
1F
100
AcDbEntity
  8
0
  6
Continuous
 62
     7
370
    25
100
AcDbSpline
210
0.0
220
0.0
230
1.0
 70
     8
 71
     3
 72
    10
 73
     6
 74
     0
 42
0.00000001
 43
0.00000001
 40
0.0
 40
0.0
 40
0.0
 40
0.0
 40
0.5
 40
0.5
 40
1.0
 40
1.0
 40
1.0
 40
1.0
 10
73.70839780007383
 20
353.4202896334963
 30
0.0
 10
73.41137424062966
 20
353.4627136591826
 30
0.0
 10
73.12092729479002
 20
353.4751347437962
 30
0.0
 10
72.56848421994086
 20
353.4751347437962
 30
0.0
 10
72.3136521892358
 20
353.4627136591829
 30
0.0
 10
72.07163337006415
 20
353.4202896334968
 30
0.0
  0
LINE
  5
227
330
1F
100
AcDbEntity
  8
0
  6
Continuous
 62
     7
370
    25
100
AcDbLine
 10
73.7083978001
 20
351.7915063896
 30
0.0
 11
73.7083978001
 21
353.4202896335
 31
0.0
  0
LINE
  5
228
330
1F
100
AcDbEntity
  8
0
  6
Continuous
 62
     7
370
    25
100
AcDbLine
 10
73.7083978001
 20
341.0415063896
 30
0.0
 11
73.7083978001
 21
339.2915063896
 31
0.0
  0
LINE
  5
229
330
1F
100
AcDbEntity
  8
0
  6
Continuous
 62
     7
370
    25
100
AcDbLine
 10
73.7083978001
 20
341.0415063896
 30
0.0
 11
88.719504799
 21
341.0415063896
 31
0.0
  0
LINE
  5
22A
330
1F
100
AcDbEntity
  8
0
  6
Continuous
 62
     7
370
    25
100
AcDbLine
 10
88.719504799
 20
339.2915063896
 30
0.0
 11
85.8239836855
 21
339.2915063896
 31
0.0
  0
SPLINE
  5
22B
330
1F
100
AcDbEntity
  8
0
  6
Continuous
 62
     7
370
    25
100
AcDbSpline
210
0.0
220
0.0
230
1.0
 70
     8
 71
     3
 72
    14
 73
    10
 74
     0
 42
0.00000001
 43
0.00000001
 40
0.0
 40
0.0
 40
0.0
 40
0.0
 40
0.25
 40
0.25
 40
0.5
 40
0.5
 40
0.75
 40
0.75
 40
1.0
 40
1.0
 40
1.0
 40
1.0
 10
76.60391891361415
 20
339.2915063896184
 30
0.0
 10
77.36349714671606
 20
339.2915063896184
 30
0.0
 10
78.1279000153102
 20
339.3109610213506
 30
0.0
 10
79.66647152958642
 20
339.3422905073471
 30
0.0
 10
80.44177951064972
 20
339.3542158233956
 30
0.0
 10
81.99191040483738
 20
339.3541630657641
 30
0.0
 10
82.76496708809827
 20
339.3422231863514
 30
0.0
 10
84.30070021074809
 20
339.310942120911
 30
0.0
 10
85.06440174429302
 20
339.2915063896119
 30
0.0
 10
85.82398368546372
 20
339.2915063896119
 30
0.0
  0
LINE
  5
22C
330
1F
100
AcDbEntity
  8
0
  6
Continuous
 62
     7
370
    25
100
AcDbLine
 10
76.6039189136
 20
339.2915063896
 30
0.0
 11
73.7083978001
 21
339.2915063896
 31
0.0
  0
LINE
  5
22D
330
1F
100
AcDbEntity
  8
0
  6
Continuous
 62
     7
370
    25
100
AcDbLine
 10
73.9381351941
 20
351.7915063896
 30
0.0
 11
73.7083978001
 21
351.7915063896
 31
0.0
  0
LINE
  5
22E
330
1F
100
AcDbEntity
  8
0
  6
Continuous
 62
     7
370
    25
100
AcDbLine
 10
73.7083978001
 20
351.7915063896
 30
0.0
 11
73.7083978001
 21
341.0415063896
 31
0.0
  0
SPLINE
  5
22F
330
1F
100
AcDbEntity
  8
0
  6
Continuous
 62
     7
370
    25
100
AcDbSpline
210
0.0
220
0.0
230
1.0
 70
     8
 71
     3
 72
     8
 73
     4
 74
     0
 42
0.00000001
 43
0.00000001
 40
0.0
 40
0.0
 40
0.0
 40
0.0
 40
0.0002416894103822
 40
0.0002416894103822
 40
0.0002416894103822
 40
0.0002416894103822
 10
73.93813519411133
 20
353.3913470417996
 30
0.0
 10
73.86155588609897
 20
353.4014872599343
 30
0.0
 10
73.78496532977353
 20
353.4111264726486
 30
0.0
 10
73.70839780007385
 20
353.4202896334966
 30
0.0
  0
LINE
  5
230
330
1F
100
AcDbEntity
  8
0
  6
Continuous
 62
     7
370
    25
100
AcDbLine
 10
71.1103215887
 20
341.0415063896
 30
0.0
 11
73.7083978001
 21
341.0415063896
 31
0.0
  0
LINE
  5
231
330
1F
100
AcDbEntity
  8
0
  6
Continuous
 62
     7
370
    25
100
AcDbLine
 10
73.7083978001
 20
339.2915063896
 30
0.0
 11
72.6258660453
 21
339.2915063896
 31
0.0
  0
ARC
  5
232
330
1F
100
AcDbEntity
  8
0
  6
Continuous
 62
     7
370
    25
100
AcDbCircle
 10
72.7521614167
 20
340.9321313896
 30
0.0
 40
1.645478930724525
100
AcDbArc
 50
176.1887389505
 51
265.5980503477
  0
LINE
  5
233
330
1F
100
AcDbEntity
  8
0
  6
Continuous
 62
     7
370
    25
100
AcDbLine
 10
71.1103215887
 20
341.0415063896
 30
0.0
 11
71.1103215887
 21
351.7915063896
 31
0.0
  0
SPLINE
  5
234
330
1F
100
AcDbEntity
  8
0
  6
Continuous
 62
     7
370
    25
100
AcDbSpline
210
0.0
220
0.0
230
1.0
 70
     8
 71
     3
 72
    26
 73
    22
 74
     0
 42
0.00000001
 43
0.00000001
 40
0.0
 40
0.0
 40
0.0
 40
0.0
 40
0.0164500299912593
 40
0.0742462163199685
 40
0.1327423880177306
 40
0.1909816806447822
 40
0.2480461079420347
 40
0.3053606751456352
 40
0.3637113340690808
 40
0.4221552404295451
 40
0.4797405771634524
 40
0.5366131946726088
 40
0.5946927023357595
 40
0.6532143755230008
 40
0.7112188823310853
 40
0.7680468008763588
 40
0.8257330002977563
 40
0.8842045812241769
 40
0.9425070556221264
 40
0.999702199573512
 40
1.0
 40
1.0
 40
1.0
 40
1.0
 10
114.2387659726241
 20
281.9046095455696
 30
0.0
 10
114.2348504620373
 20
281.898206144546
 30
0.0
 10
114.217178041611
 20
281.8693047809721
 30
0.0
 10
114.1840055276406
 20
282.2764989176899
 30
0.0
 10
114.1395874094105
 20
283.134890833591
 30
0.0
 10
114.0954242671385
 20
284.4456962279236
 30
0.0
 10
114.0543692298876
 20
286.1099371512233
 30
0.0
 10
114.0125594736902
 20
288.0938759305802
 30
0.0
 10
113.9682564779167
 20
290.3513971569046
 30
0.0
 10
113.9238550981759
 20
292.7993664756794
 30
0.0
 10
113.8812596534076
 20
295.3308440842193
 30
0.0
 10
113.8407852999208
 20
297.8791580953484
 30
0.0
 10
113.7969289379323
 20
300.3829974463611
 30
0.0
 10
113.7524709073964
 20
302.7610692215929
 30
0.0
 10
113.7087807273128
 20
304.9028610283943
 30
0.0
 10
113.6684441507977
 20
306.751985300417
 30
0.0
 10
113.6255618333348
 20
308.2606834272261
 30
0.0
 10
113.5811591628741
 20
309.3986533048865
 30
0.0
 10
113.536835052539
 20
310.0399577233027
 30
0.0
 10
113.5092302468965
 20
310.3034041222565
 30
0.0
 10
113.4953055516825
 20
310.2288320063186
 30
0.0
 10
113.4952334249161
 20
310.2284457396528
 30
0.0
  0
SPLINE
  5
235
330
1F
100
AcDbEntity
  8
0
  6
Continuous
 62
     7
370
    25
100
AcDbSpline
210
0.0
220
0.0
230
1.0
 70
     8
 71
     3
 72
    25
 73
    21
 74
     0
 42
0.00000001
 43
0.00000001
 40
0.0
 40
0.0
 40
0.0
 40
0.0
 40
0.0214992853243475
 40
0.0794257726692797
 40
0.1379680735424389
 40
0.1961672558605902
 40
0.2531572931504747
 40
0.3106306855975945
 40
0.3690587736703706
 40
0.4274936471070062
 40
0.4849867425770448
 40
0.5419628224805312
 40
0.6001503777003596
 40
0.6586945342495677
 40
0.716636180454234
 40
0.7734657027751587
 40
0.8312895034047417
 40
0.8898151143358505
 40
0.9480852179849745
 40
1.0
 40
1.0
 40
1.0
 40
1.0
 10
112.7386401965854
 20
281.9112547241853
 30
0.0
 10
112.7335331717386
 20
281.9067761731519
 30
0.0
 10
112.7146660611169
 20
281.8902308614868
 30
0.0
 10
112.6800260801084
 20
282.3346617108413
 30
0.0
 10
112.6355955120099
 20
283.2365363607105
 30
0.0
 10
112.5915529983593
 20
284.5809033977196
 30
0.0
 10
112.5508113489633
 20
286.2756045548439
 30
0.0
 10
112.5086205794411
 20
288.2858838517156
 30
0.0
 10
112.4642644152523
 20
290.5651055540412
 30
0.0
 10
112.4199009704552
 20
293.024340623656
 30
0.0
 10
112.3776534230913
 20
295.5598488565735
 30
0.0
 10
112.336952639955
 20
298.1067258390648
 30
0.0
 10
112.2929376829079
 20
300.6033803542338
 30
0.0
 10
112.2484845000174
 20
302.9643227075495
 30
0.0
 10
112.2050154497075
 20
305.0818721350171
 30
0.0
 10
112.1647606867651
 20
306.9010942174202
 30
0.0
 10
112.1215934213952
 20
308.3827629125989
 30
0.0
 10
112.0771494637713
 20
309.4623935309702
 30
0.0
 10
112.0343184918954
 20
310.119355553667
 30
0.0
 10
112.008012963007
 20
310.181755911187
 30
0.0
 10
111.9956188329973
 20
310.2111565040068
 30
0.0
  0
SPLINE
  5
236
330
1F
100
AcDbEntity
  8
0
  6
Continuous
 62
     7
370
    25
100
AcDbSpline
210
0.0
220
0.0
230
1.0
 70
     8
 71
     3
 72
    19
 73
    15
 74
     0
 42
0.00000001
 43
0.00000001
 40
0.0
 40
0.0
 40
0.0
 40
0.0
 40
0.0404965618425304
 40
0.1278522399739825
 40
0.2160071010800612
 40
0.3035161200798744
 40
0.389202927173063
 40
0.4759202558122032
 40
0.5639505304045939
 40
0.6518607631916365
 40
0.7382295181859523
 40
0.8241632505810798
 40
0.9118779681668278
 40
1.0
 40
1.0
 40
1.0
 40
1.0
 10
111.2387601093204
 20
281.9141057414974
 30
0.0
 10
111.2323742024867
 20
281.9134744107274
 30
0.0
 10
111.212213170147
 20
281.9114812278632
 30
0.0
 10
111.1760435633373
 20
282.3967437106314
 30
0.0
 10
111.1316032189822
 20
283.3414673328792
 30
0.0
 10
111.087715205875
 20
284.719088176471
 30
0.0
 10
111.0472115296807
 20
286.4439098186429
 30
0.0
 10
111.004668458872
 20
288.4801975133054
 30
0.0
 10
110.9602720261992
 20
290.780329002032
 30
0.0
 10
110.9159606282783
 20
293.249576958748
 30
0.0
 10
110.8740862020588
 20
295.7895249186587
 30
0.0
 10
110.8330966456197
 20
298.3310197084597
 30
0.0
 10
110.7889068673665
 20
300.8331323007364
 30
0.0
 10
110.7593084250401
 20
302.3668978002422
 30
0.0
 10
110.7444749224559
 20
303.1355569833693
 30
0.0
  0
LINE
  5
237
330
1F
100
AcDbEntity
  8
0
  6
Continuous
 62
     7
370
    25
100
AcDbLine
 10
110.7444749225
 20
303.1355489087
 30
0.0
 11
111.21322508
 21
303.5414978529
 31
0.0
  0
SPLINE
  5
238
330
1F
100
AcDbEntity
  8
0
  6
Continuous
 62
     7
370
    25
100
AcDbSpline
210
0.0
220
0.0
230
1.0
 70
     8
 71
     3
 72
    20
 73
    16
 74
     0
 42
0.00000001
 43
0.00000001
 40
0.0
 40
0.0
 40
0.0
 40
0.0
 40
0.0301300913983253
 40
0.1173732779173708
 40
0.2046214803347964
 40
0.2900758996214763
 40
0.3774520390278673
 40
0.4645422371435465
 40
0.5500454956368058
 40
0.6375284090081355
 40
0.6628523632347553
 40
0.7477699010572197
 40
0.8339655149681382
 40
0.9216104593488298
 40
1.0
 40
1.0
 40
1.0
 40
1.0
 10
114.707840347333
 20
281.1679513525752
 30
0.0
 10
114.7006247779353
 20
281.1479153249666
 30
0.0
 10
114.672516166479
 20
281.0698639773695
 30
0.0
 10
114.6202855980949
 20
282.0549287597705
 30
0.0
 10
114.5540481767341
 20
284.0569180582068
 30
0.0
 10
114.4933126836405
 20
286.9956973196042
 30
0.0
 10
114.4266415011938
 20
290.5691672204496
 30
0.0
 10
114.3608741456569
 20
294.5477841005052
 30
0.0
 10
114.3000024956979
 20
298.629740402566
 30
0.0
 10
114.2488483052476
 20
301.6082785277483
 30
0.0
 10
114.1988063583048
 20
304.3302216230839
 30
0.0
 10
114.1511986267794
 20
306.7911604403853
 30
0.0
 10
114.0885180858814
 20
309.2349120279713
 30
0.0
 10
114.0229466049191
 20
310.7833272545715
 30
0.0
 10
113.9829728952077
 20
310.9295195977526
 30
0.0
 10
113.964100184868
 20
310.9985411063054
 30
0.0
  0
SPLINE
  5
239
330
1F
100
AcDbEntity
  8
0
  6
Continuous
 62
     7
370
    25
100
AcDbSpline
210
0.0
220
0.0
230
1.0
 70
     8
 71
     3
 72
    20
 73
    16
 74
     0
 42
0.00000001
 43
0.00000001
 40
0.0
 40
0.0
 40
0.0
 40
0.0
 40
0.030021476767391
 40
0.1172744335519343
 40
0.2045324067965824
 40
0.2899963960267467
 40
0.3773823205878785
 40
0.4644822718360577
 40
0.5499951057422486
 40
0.6374878162258143
 40
0.6628146064533428
 40
0.7477416540945454
 40
0.8339469209544935
 40
0.9216016805930901
 40
1.0
 40
1.0
 40
1.0
 40
1.0
 10
113.2077594454726
 20
281.1678854592
 30
0.0
 10
113.2005705844607
 20
281.147961324378
 30
0.0
 10
113.1724883681996
 20
281.070130655242
 30
0.0
 10
113.1202853071581
 20
282.055029815637
 30
0.0
 10
113.0540482528537
 20
284.0568916183623
 30
0.0
 10
112.9933126629133
 20
286.995704519139
 30
0.0
 10
112.9266415067835
 20
290.5691652788888
 30
0.0
 10
112.860874144189
 20
294.5477846103926
 30
0.0
 10
112.8000024961119
 20
298.6297402587516
 30
0.0
 10
112.7488483052211
 20
301.6082785369613
 30
0.0
 10
112.6988063583188
 20
304.3302216182315
 30
0.0
 10
112.651198626774
 20
306.7911604422624
 30
0.0
 10
112.5885180858829
 20
309.2349120274562
 30
0.0
 10
112.5229466049188
 20
310.7833272546853
 30
0.0
 10
112.4829728952076
 20
310.9295195977891
 30
0.0
 10
112.464100184868
 20
310.9985411063054
 30
0.0
  0
SPLINE
  5
23A
330
1F
100
AcDbEntity
  8
0
  6
Continuous
 62
     7
370
    25
100
AcDbSpline
210
0.0
220
0.0
230
1.0
 70
     8
 71
     3
 72
    17
 73
    13
 74
     0
 42
0.00000001
 43
0.00000001
 40
0.0
 40
0.0
 40
0.0
 40
0.0
 40
0.0455378147311934
 40
0.1769443538592604
 40
0.3083584479824283
 40
0.4370707284446962
 40
0.5686775225094549
 40
0.6998536290110301
 40
0.8286394715629744
 40
0.9604070896159594
 40
0.9985502766627924
 40
1.0
 40
1.0
 40
1.0
 40
1.0
 10
111.7079149736705
 20
281.1680121346293
 30
0.0
 10
111.7006747684645
 20
281.1478727215608
 30
0.0
 10
111.6725418104045
 20
281.0696178590135
 30
0.0
 10
111.6202858450356
 20
282.0548354173255
 30
0.0
 10
111.5540481817789
 20
284.0569435311002
 30
0.0
 10
111.493312426748
 20
286.9956865272682
 30
0.0
 10
111.4266425509327
 20
290.5691849272951
 30
0.0
 10
111.3608702573933
 20
294.5477249319363
 30
0.0
 10
111.3000168571601
 20
298.629957273267
 30
0.0
 10
111.2488098449984
 20
301.607698105282
 30
0.0
 10
111.2200779828164
 20
303.1748218479311
 30
0.0
 10
111.2134671408303
 20
303.5285459851686
 30
0.0
 10
111.2132250800217
 20
303.5414978528569
 30
0.0
  0
SPLINE
  5
23B
330
1F
100
AcDbEntity
  8
0
  6
Continuous
 62
     7
370
    25
100
AcDbSpline
210
0.0
220
0.0
230
1.0
 70
     8
 71
     3
 72
    16
 73
    12
 74
     0
 42
0.00000001
 43
0.00000001
 40
0.0
 40
0.0
 40
0.0
 40
0.0
 40
0.25
 40
0.25
 40
0.375
 40
0.375
 40
0.5
 40
0.5
 40
0.75
 40
0.75
 40
1.0
 40
1.0
 40
1.0
 40
1.0
 10
85.51626146258259
 20
338.3146215990485
 30
0.0
 10
84.8165125098073
 20
338.3146215990485
 30
0.0
 10
84.10789648754027
 20
338.3446665093004
 30
0.0
 10
83.03072049658591
 20
338.3816754789081
 30
0.0
 10
82.66928349021318
 20
338.3930134260057
 30
0.0
 10
81.94145825709829
 20
338.40877668486
 30
0.0
 10
81.57354992239038
 20
338.4131768238232
 30
0.0
 10
80.47403652911929
 20
338.4130156941289
 30
0.0
 10
79.74998587535853
 20
338.3938106181463
 30
0.0
 10
78.31855699929025
 20
338.3446029295578
 30
0.0
 10
77.61117517981553
 20
338.3146215990485
 30
0.0
 10
76.91164113649532
 20
338.3146215990485
 30
0.0
  0
LWPOLYLINE
  5
23C
330
1F
100
AcDbEntity
  8
0
  6
Continuous
 62
     7
370
    25
100
AcDbPolyline
 90
        9
 70
   128
 43
0.0
 10
76.9116411365
 20
338.314621599
 10
76.9045326664
 20
338.5063943909
 10
76.8862082547
 20
338.6901496811
 10
76.8573515876
 20
338.8590315335
 10
76.8190393116
 20
339.0067389425
 10
76.7727008631
 20
339.1277609237
 10
76.7200651362
 20
339.2175821297
 10
76.6630959772
 20
339.2728513188
 10
76.6039189136
 20
339.2915063896
  0
LWPOLYLINE
  5
23D
330
1F
100
AcDbEntity
  8
0
  6
Continuous
 62
     7
370
    25
100
AcDbPolyline
 90
        9
 70
   128
 43
0.0
 10
85.8239836855
 20
339.2915063896
 10
85.7648066219
 20
339.2728513188
 10
85.7078374629
 20
339.2175821297
 10
85.655201736
 20
339.1277609237
 10
85.6088632875
 20
339.0067389425
 10
85.5705510115
 20
338.8590315335
 10
85.5416943444
 20
338.6901496811
 10
85.5233699327
 20
338.5063943909
 10
85.5162614626
 20
338.314621599
  0
SPLINE
  5
23E
330
1F
100
AcDbEntity
  8
0
  6
Continuous
 62
     7
370
    25
100
AcDbSpline
210
0.0
220
0.0
230
1.0
 70
     8
 71
     3
 72
    20
 73
    16
 74
     0
 42
0.00000001
 43
0.00000001
 40
0.0
 40
0.0
 40
0.0
 40
0.0
 40
0.0618604983634789
 40
0.1486736585079683
 40
0.2346251464162644
 40
0.3196413359554091
 40
0.4065076190857682
 40
0.492226838407726
 40
0.5774389464690521
 40
0.6643319671795412
 40
0.7497945655650844
 40
0.831875366163091
 40
0.9155956773229004
 40
0.9736782238205747
 40
1.0
 40
1.0
 40
1.0
 40
1.0
 10
114.9012493303181
 20
281.1466418867849
 30
0.0
 10
114.8863389735007
 20
281.1595166865395
 30
0.0
 10
114.8505038710305
 20
281.1904595924764
 30
0.0
 10
114.7892692588908
 20
282.4998046211536
 30
0.0
 10
114.7247277727431
 20
284.7850460715386
 30
0.0
 10
114.6630968601985
 20
287.9182914088262
 30
0.0
 10
114.5956273223552
 20
291.6297402611947
 30
0.0
 10
114.5318235728078
 20
295.666034409802
 30
0.0
 10
114.4695893184229
 20
299.7280248231842
 30
0.0
 10
114.4020185559469
 20
303.5224423129137
 30
0.0
 10
114.3398352936039
 20
306.7287464527329
 30
0.0
 10
114.2784542250471
 20
309.1678763368684
 30
0.0
 10
114.2201689342841
 20
310.5045847645857
 30
0.0
 10
114.1779536689115
 20
311.0358095235072
 30
0.0
 10
114.1577342760661
 20
310.9946669809096
 30
0.0
 10
114.1514287893791
 20
310.9818365385417
 30
0.0
  0
SPLINE
  5
23F
330
1F
100
AcDbEntity
  8
0
  6
Continuous
 62
     7
370
    25
100
AcDbSpline
210
0.0
220
0.0
230
1.0
 70
     8
 71
     3
 72
    20
 73
    16
 74
     0
 42
0.00000001
 43
0.00000001
 40
0.0
 40
0.0
 40
0.0
 40
0.0
 40
0.0618604983634799
 40
0.1486736585079692
 40
0.2346251464162652
 40
0.3196413359554098
 40
0.4065076190857688
 40
0.4922268384077265
 40
0.5774389464690527
 40
0.6643319671795417
 40
0.7497945655650846
 40
0.8318753661630912
 40
0.9155956773229005
 40
0.9736782238205747
 40
1.0
 40
1.0
 40
1.0
 40
1.0
 10
113.4012493303181
 20
281.1466418867849
 30
0.0
 10
113.3863389735007
 20
281.1595166865395
 30
0.0
 10
113.3505038710305
 20
281.1904595924764
 30
0.0
 10
113.2892692588908
 20
282.4998046211535
 30
0.0
 10
113.2247277727431
 20
284.7850460715386
 30
0.0
 10
113.1630968601985
 20
287.9182914088262
 30
0.0
 10
113.0956273223552
 20
291.6297402611947
 30
0.0
 10
113.0318235728078
 20
295.666034409802
 30
0.0
 10
112.9695893184229
 20
299.7280248231842
 30
0.0
 10
112.9020185559469
 20
303.5224423129137
 30
0.0
 10
112.8398352936039
 20
306.7287464527329
 30
0.0
 10
112.7784542250471
 20
309.1678763368684
 30
0.0
 10
112.7201689342841
 20
310.5045847645857
 30
0.0
 10
112.6779536689115
 20
311.0358095235072
 30
0.0
 10
112.6577342760661
 20
310.9946669809096
 30
0.0
 10
112.6514287893791
 20
310.9818365385417
 30
0.0
  0
SPLINE
  5
240
330
1F
100
AcDbEntity
  8
0
  6
Continuous
 62
     7
370
    25
100
AcDbSpline
210
0.0
220
0.0
230
1.0
 70
     8
 71
     3
 72
    20
 73
    16
 74
     0
 42
0.00000001
 43
0.00000001
 40
0.0
 40
0.0
 40
0.0
 40
0.0
 40
0.0618604983634794
 40
0.1486736585079687
 40
0.2346251464162648
 40
0.3196413359554094
 40
0.4065076190857684
 40
0.4922268384077261
 40
0.5774389464690524
 40
0.6643319671795413
 40
0.7497945655650845
 40
0.831875366163091
 40
0.9155956773229004
 40
0.9736782238205746
 40
0.9999999999999999
 40
0.9999999999999999
 40
0.9999999999999999
 40
0.9999999999999999
 10
111.9012493303181
 20
281.1466418867849
 30
0.0
 10
111.8863389735007
 20
281.1595166865395
 30
0.0
 10
111.8505038710305
 20
281.1904595924764
 30
0.0
 10
111.7892692588908
 20
282.4998046211535
 30
0.0
 10
111.7247277727431
 20
284.7850460715386
 30
0.0
 10
111.6630968601985
 20
287.9182914088262
 30
0.0
 10
111.5956273223552
 20
291.6297402611947
 30
0.0
 10
111.5318235728078
 20
295.666034409802
 30
0.0
 10
111.4695893184229
 20
299.7280248231842
 30
0.0
 10
111.4020185559469
 20
303.5224423129137
 30
0.0
 10
111.3398352936039
 20
306.7287464527329
 30
0.0
 10
111.2784542250471
 20
309.1678763368684
 30
0.0
 10
111.2201689342841
 20
310.5045847645857
 30
0.0
 10
111.1779536689115
 20
311.0358095235072
 30
0.0
 10
111.1577342760661
 20
310.9946669809096
 30
0.0
 10
111.1514287893791
 20
310.9818365385417
 30
0.0
  0
SPLINE
  5
241
330
1F
100
AcDbEntity
  8
0
  6
Continuous
 62
     7
370
    25
100
AcDbSpline
210
0.0
220
0.0
230
1.0
 70
     8
 71
     3
 72
    11
 73
     7
 74
     0
 42
0.00000001
 43
0.00000001
 40
0.0
 40
0.0
 40
0.0
 40
0.0
 40
0.247407500106263
 40
0.5946117337590727
 40
0.9383697589346256
 40
0.9999999999999999
 40
0.9999999999999999
 40
0.9999999999999999
 40
0.9999999999999999
 10
110.4012493303181
 20
281.1466418867849
 30
0.0
 10
110.3863300473679
 20
281.1593658505165
 30
0.0
 10
110.3504734920992
 20
281.1899462416987
 30
0.0
 10
110.2894491240271
 20
282.5028440272066
 30
0.0
 10
110.2417246705525
 20
284.1607023452111
 30
0.0
 10
110.2176164209934
 20
285.26675433624
 30
0.0
 10
110.2139512995389
 20
285.4349048638071
 30
0.0
  0
SPLINE
  5
242
330
1F
100
AcDbEntity
  8
0
  6
Continuous
 62
     7
370
    25
100
AcDbSpline
210
0.0
220
0.0
230
1.0
 70
     8
 71
     3
 72
    15
 73
    11
 74
     0
 42
0.00000001
 43
0.00000001
 40
0.0
 40
0.0
 40
0.0
 40
0.0
 40
0.1122145500550131
 40
0.2415336423708366
 40
0.369898725565462
 40
0.4955919240011279
 40
0.6228110392127418
 40
0.7519497929845173
 40
0.8809057972766998
 40
1.0
 40
1.0
 40
1.0
 40
1.0
 10
114.963951299539
 20
297.9372694769346
 30
0.0
 10
114.9513521564333
 20
298.6754832232172
 30
0.0
 10
114.9242334189471
 20
300.2644345214259
 30
0.0
 10
114.8814179148127
 20
302.554605450337
 30
0.0
 10
114.8375939694324
 20
304.7224243796443
 30
0.0
 10
114.7970830926749
 20
306.5978902602608
 30
0.0
 10
114.7545278534826
 20
308.1441018976017
 30
0.0
 10
114.7101464392122
 20
309.2989729975897
 30
0.0
 10
114.6666488234719
 20
310.0411125780224
 30
0.0
 10
114.6395530206309
 20
310.1562512184113
 30
0.0
 10
114.6265437469225
 20
310.2115317390154
 30
0.0
  0
SPLINE
  5
243
330
1F
100
AcDbEntity
  8
0
  6
Continuous
 62
     7
370
    25
100
AcDbSpline
210
0.0
220
0.0
230
1.0
 70
     8
 71
     3
 72
    25
 73
    21
 74
     0
 42
0.00000001
 43
0.00000001
 40
0.0
 40
0.0
 40
0.0
 40
0.0
 40
0.0258174174169374
 40
0.0835825443732785
 40
0.1420472826405947
 40
0.2002552820228428
 40
0.2572890486517336
 40
0.3145728144997016
 40
0.3728921173767289
 40
0.4313046197867895
 40
0.4888590160630014
 40
0.5457010714556735
 40
0.6037493679503162
 40
0.6622395945959076
 40
0.7202129350016224
 40
0.7770103181026432
 40
0.8346655168677877
 40
0.8931056773297179
 40
0.9513768244455226
 40
1.0
 40
1.0
 40
1.0
 40
1.0
 10
113.8704896663107
 20
281.9083798594344
 30
0.0
 10
113.8643497092043
 20
281.8958431611824
 30
0.0
 10
113.8444719178277
 20
281.8552562534753
 30
0.0
 10
113.8090235595664
 20
282.2712779664751
 30
0.0
 10
113.7645826997143
 20
283.1362880956299
 30
0.0
 10
113.720425621801
 20
284.4453269778971
 30
0.0
 10
113.679368983729
 20
286.1100306280242
 30
0.0
 10
113.6375596652468
 20
288.0938443275304
 30
0.0
 10
113.5932565549238
 20
290.3513990824236
 30
0.0
 10
113.5488552061428
 20
292.7993583464106
 30
0.0
 10
113.5062597458276
 20
295.3308403517433
 30
0.0
 10
113.4657853970705
 20
297.8791458372215
 30
0.0
 10
113.4219290504583
 20
300.3830155498785
 30
0.0
 10
113.3774709796908
 20
302.7609745781278
 30
0.0
 10
113.3337809452647
 20
304.9031832762
 30
0.0
 10
113.2934438136597
 20
306.750780553244
 30
0.0
 10
113.2505635973152
 20
308.2652663507057
 30
0.0
 10
113.2061529976563
 20
309.3813050546599
 30
0.0
 10
113.1640341656784
 20
310.0684383169109
 30
0.0
 10
113.1383475210481
 20
310.1558889913867
 30
0.0
 10
113.1266633997584
 20
310.1956678064928
 30
0.0
  0
SPLINE
  5
244
330
1F
100
AcDbEntity
  8
0
  6
Continuous
 62
     7
370
    25
100
AcDbSpline
210
0.0
220
0.0
230
1.0
 70
     8
 71
     3
 72
    25
 73
    21
 74
     0
 42
0.00000001
 43
0.00000001
 40
0.0
 40
0.0
 40
0.0
 40
0.0
 40
0.0306622963176906
 40
0.0885476998514511
 40
0.1470484826957429
 40
0.2052063928928621
 40
0.2621560161062423
 40
0.319588645143702
 40
0.3779752952256053
 40
0.4363687284910789
 40
0.4938210542204574
 40
0.5507567245332443
 40
0.6089030113673553
 40
0.6674056492906767
 40
0.7253062068125941
 40
0.782095426618285
 40
0.8398782158503548
 40
0.8983623203157397
 40
0.9565911014378204
 40
1.0
 40
1.0
 40
1.0
 40
1.0
 10
112.3702193017388
 20
281.9084681104792
 30
0.0
 10
112.3629404211286
 20
281.8995584584533
 30
0.0
 10
112.341920203698
 20
281.8738288397319
 30
0.0
 10
112.3050437985615
 20
282.3301981670614
 30
0.0
 10
112.2605909219862
 20
283.2377271214275
 30
0.0
 10
112.2165543433097
 20
284.5805876757569
 30
0.0
 10
112.1758111275401
 20
286.2756830143769
 30
0.0
 10
112.1336207892166
 20
288.285855126662
 30
0.0
 10
112.0892645123444
 20
290.5651052189082
 30
0.0
 10
112.0449010979008
 20
293.0243320459869
 30
0.0
 10
112.0026535304684
 20
295.5598424895355
 30
0.0
 10
111.9619527632901
 20
298.1067178110373
 30
0.0
 10
111.9179377909485
 20
300.6033769986653
 30
0.0
 10
111.8734846824335
 20
302.9643035772099
 30
0.0
 10
111.8300153536514
 20
305.0819134818006
 30
0.0
 10
111.7897615880859
 20
306.9009169208401
 30
0.0
 10
111.7465905428367
 20
308.3834198342071
 30
0.0
 10
111.7021609263426
 20
309.4598982998503
 30
0.0
 10
111.6614326491309
 20
310.0946108367184
 30
0.0
 10
111.6371292461798
 20
310.1568762542401
 30
0.0
 10
111.6267493953539
 20
310.1834694744073
 30
0.0
  0
SPLINE
  5
245
330
1F
100
AcDbEntity
  8
0
  6
Continuous
 62
     7
370
    25
100
AcDbSpline
210
0.0
220
0.0
230
1.0
 70
     8
 71
     3
 72
    19
 73
    15
 74
     0
 42
0.00000001
 43
0.00000001
 40
0.0
 40
0.0
 40
0.0
 40
0.0
 40
0.0532475561386642
 40
0.1394423464909378
 40
0.2264257037311102
 40
0.3127718059995497
 40
0.3973199112399582
 40
0.4828848336205094
 40
0.5697452583404884
 40
0.6564872410560131
 40
0.7417082352434675
 40
0.8264999749873017
 40
0.9130490345028692
 40
1.0
 40
1.0
 40
1.0
 40
1.0
 10
110.8701732349463
 20
281.9050855848951
 30
0.0
 10
110.8616743291938
 20
281.9017415230444
 30
0.0
 10
110.839417770458
 20
281.8929842416758
 30
0.0
 10
110.8010600787047
 20
282.3929442356244
 30
0.0
 10
110.7565989857392
 20
283.3424773698211
 30
0.0
 10
110.7127164797419
 20
284.7188188979872
 30
0.0
 10
110.6722113499823
 20
286.443974989589
 30
0.0
 10
110.6296686823283
 20
288.4801711498529
 30
0.0
 10
110.5852721447664
 20
290.7803266141519
 30
0.0
 10
110.5409607739316
 20
293.2495675686284
 30
0.0
 10
110.4990863268523
 20
295.7895171212397
 30
0.0
 10
110.4580967849078
 20
298.3310114957916
 30
0.0
 10
110.413907011096
 20
300.8331244548136
 30
0.0
 10
110.3843085684202
 20
302.3668903545839
 30
0.0
 10
110.3694750652684
 20
303.1355497586493
 30
0.0
  0
ELLIPSE
  5
246
330
1F
100
AcDbEntity
  8
0
  6
Continuous
 62
     7
370
    25
100
AcDbEllipse
 10
102.5529680937
 20
296.0415063896
 30
0.0
 11
5.514779443589616
 21
14.79197504224379
 31
0.0
210
0.0
220
0.0
230
1.0
 40
0.4514183623
 41
5.402723445751572
 42
5.733243257345098
  0
LINE
  5
247
330
1F
100
AcDbEntity
  8
0
  6
Continuous
 62
     7
370
    25
100
AcDbLine
 10
110.74446552
 20
307.35138327
 30
0.0
 11
110.3694656628
 21
307.3513832699
 31
0.0
  0
ELLIPSE
  5
248
330
1F
100
AcDbEntity
  8
0
  6
Continuous
 62
     7
370
    25
100
AcDbEllipse
 10
118.5609782736
 20
296.0415063896
 30
0.0
 11
-5.514823779167059
 21
14.79197426083272
 31
0.0
210
0.0
220
0.0
230
1.0
 40
0.4514155752
 41
0.5499417359511735
 42
0.6106875643056934
  0
ARC
  5
249
330
1F
100
AcDbEntity
  8
0
  6
Continuous
 62
     7
370
    25
100
AcDbCircle
 10
72.786594498
 20
354.4842416918
 30
0.0
 40
1.587597143788355
100
AcDbArc
 50
316.4967713478
 51
354.1948906197
  0
ARC
  5
24A
330
1F
100
AcDbEntity
  8
0
  6
Continuous
 62
     7
370
    25
100
AcDbCircle
 10
89.6413081011
 20
354.4842416918
 30
0.0
 40
1.587597143788438
100
AcDbArc
 50
185.8051093803
 51
223.5032286522
  0
ARC
  5
24B
330
1F
100
AcDbEntity
  8
0
  6
Continuous
 62
     7
370
    25
100
AcDbCircle
 10
72.6148715614
 20
354.4995600497
 30
0.0
 40
1.536432317411237
100
AcDbArc
 50
315.3759149485
 51
356.8310931139
  0
ARC
  5
24C
330
1F
100
AcDbEntity
  8
0
  6
Continuous
 62
     7
370
    25
100
AcDbCircle
 10
89.8130310377
 20
354.4995600497
 30
0.0
 40
1.536432317411024
100
AcDbArc
 50
183.1689068861
 51
224.6240850515
  0
ARC
  5
24D
330
1F
100
AcDbEntity
  8
0
  6
Continuous
 62
     7
370
    25
100
AcDbCircle
 10
71.3370814976
 20
354.1222652164
 30
0.0
 40
1.016039454124388
100
AcDbArc
 50
316.2990799783
 51
16.723065033
  0
ARC
  5
24E
330
1F
100
AcDbEntity
  8
0
  6
Continuous
 62
     7
370
    25
100
AcDbCircle
 10
91.0908211015
 20
354.1222652164
 30
0.0
 40
1.016039454124328
100
AcDbArc
 50
163.2769349669
 51
223.7009200217
  0
SPLINE
  5
24F
330
1F
100
AcDbEntity
  8
0
  6
Continuous
 62
     7
370
    25
100
AcDbSpline
210
0.0
220
0.0
230
1.0
 70
     8
 71
     3
 72
    12
 73
     8
 74
     0
 42
0.00000001
 43
0.00000001
 40
0.0
 40
0.0
 40
0.0
 40
0.0
 40
0.5000000000000004
 40
0.5000000000000004
 40
0.7500000000000002
 40
0.7500000000000002
 40
1.0
 40
1.0
 40
1.0
 40
1.0
 10
68.99627852496765
 20
311.2730360045849
 30
0.0
 10
68.83360967111949
 20
310.9103294851161
 30
0.0
 10
68.67971219984445
 20
310.5791884757114
 30
0.0
 10
68.46093049592459
 20
310.1915708839525
 30
0.0
 10
68.38974585246369
 20
310.0813701351698
 30
0.0
 10
68.25837354101415
 20
309.9287635488968
 30
0.0
 10
68.19681636012855
 20
309.8850919586431
 30
0.0
 10
68.1426808982504
 20
309.8850919586428
 30
0.0
  0
SPLINE
  5
250
330
1F
100
AcDbEntity
  8
0
  6
Continuous
 62
     7
370
    25
100
AcDbSpline
210
0.0
220
0.0
230
1.0
 70
     8
 71
     3
 72
    16
 73
    12
 74
     0
 42
0.00000001
 43
0.00000001
 40
0.0
 40
0.0
 40
0.0
 40
0.0
 40
0.2500000000000001
 40
0.2500000000000001
 40
0.3750000000000002
 40
0.3750000000000002
 40
0.5000000000000001
 40
0.5000000000000001
 40
0.7500000000000001
 40
0.7500000000000001
 40
1.0
 40
1.0
 40
1.0
 40
1.0
 10
71.84800377190659
 20
338.3146215990485
 30
0.0
 10
71.30208148297851
 20
338.3146215990485
 30
0.0
 10
70.80107972050841
 20
338.3446665093004
 30
0.0
 10
70.11474687146949
 20
338.3816754789081
 30
0.0
 10
69.89688789971596
 20
338.3930134260057
 30
0.0
 10
69.48329717606741
 20
338.40877668486
 30
0.0
 10
69.28682705674773
 20
338.4131768238232
 30
0.0
 10
68.73754396805741
 20
338.4130156941289
 30
0.0
 10
68.42581213513618
 20
338.3938106181463
 30
0.0
 10
67.90678674979716
 20
338.3446029295578
 30
0.0
 10
67.69947302890316
 20
338.3146215990485
 30
0.0
 10
67.54569360886296
 20
338.3146215990485
 30
0.0
  0
LINE
  5
251
330
1F
100
AcDbEntity
  8
0
  6
Continuous
 62
     7
370
    25
100
AcDbLine
 10
76.9116411365
 20
338.314621599
 30
0.0
 11
71.8480037719
 21
338.314621599
 31
0.0
  0
LINE
  5
252
330
1F
100
AcDbEntity
  8
0
  6
Continuous
 62
     7
370
    25
100
AcDbLine
 10
90.5798988272
 20
338.314621599
 30
0.0
 11
85.5162614626
 21
338.314621599
 31
0.0
  0
SPLINE
  5
253
330
1F
100
AcDbEntity
  8
0
  6
Continuous
 62
     7
370
    25
100
AcDbSpline
210
0.0
220
0.0
230
1.0
 70
     8
 71
     3
 72
    16
 73
    12
 74
     0
 42
0.00000001
 43
0.00000001
 40
0.0
 40
0.0
 40
0.0
 40
0.0
 40
0.2499999999999998
 40
0.2499999999999998
 40
0.3749999999999998
 40
0.3749999999999998
 40
0.4999999999999999
 40
0.4999999999999999
 40
0.7499999999999999
 40
0.7499999999999999
 40
1.0
 40
1.0
 40
1.0
 40
1.0
 10
94.88220899021495
 20
338.3146215990485
 30
0.0
 10
94.72838232636771
 20
338.3146215990485
 30
0.0
 10
94.52076806657081
 20
338.3446665093004
 30
0.0
 10
94.12992492465538
 20
338.3816754789081
 30
0.0
 10
93.98634689003616
 20
338.3930134260057
 30
0.0
 10
93.67211238056984
 20
338.40877668486
 30
0.0
 10
93.5006741651816
 20
338.4131768238232
 30
0.0
 10
92.95044386060083
 20
338.4130156941289
 30
0.0
 10
92.53812503976131
 20
338.3938106181463
 30
0.0
 10
91.62572154903204
 20
338.3446029295578
 30
0.0
 10
91.12565345045134
 20
338.3146215990485
 30
0.0
 10
90.5798988271713
 20
338.3146215990485
 30
0.0
  0
LINE
  5
254
330
1F
100
AcDbEntity
  8
0
  6
Continuous
 62
     7
370
    25
100
AcDbLine
 10
91.4324497074
 20
351.7915063896
 30
0.0
 11
91.3175810104
 21
351.7915063896
 31
0.0
  0
SPLINE
  5
255
330
1F
100
AcDbEntity
  8
0
  6
Continuous
 62
     7
370
    25
100
AcDbSpline
210
0.0
220
0.0
230
1.0
 70
     8
 71
     3
 72
    16
 73
    12
 74
     0
 42
0.00000001
 43
0.00000001
 40
0.0
 40
0.0
 40
0.0
 40
0.0
 40
0.2500000000000001
 40
0.2500000000000001
 40
0.5000000000000001
 40
0.5000000000000001
 40
0.7500000000000002
 40
0.7500000000000002
 40
0.8750000000000001
 40
0.8750000000000001
 40
1.0
 40
1.0
 40
1.0
 40
1.0
 10
91.43244970737615
 20
351.7915063896186
 30
0.0
 10
91.74813673077365
 20
351.7915063896186
 30
0.0
 10
92.05865073824141
 20
351.8593518820488
 30
0.0
 10
92.67401621358704
 20
352.0693085935373
 30
0.0
 10
92.97909907966246
 20
352.2129819701865
 30
0.0
 10
93.58435613840615
 20
352.5444942031243
 30
0.0
 10
93.8834939643625
 20
352.7319349832781
 30
0.0
 10
94.32980181413383
 20
353.0279983375474
 30
0.0
 10
94.47816374898412
 20
353.1292166189267
 30
0.0
 10
94.7744878778447
 20
353.3341364192008
 30
0.0
 10
94.92309854031956
 20
353.4382961366228
 30
0.0
 10
95.07035776008999
 20
353.5415063896186
 30
0.0
  0
SPLINE
  5
256
330
1F
100
AcDbEntity
  8
0
  6
Continuous
 62
     7
370
    25
100
AcDbSpline
210
0.0
220
0.0
230
1.0
 70
     8
 71
     3
 72
    16
 73
    12
 74
     0
 42
0.00000001
 43
0.00000001
 40
0.0
 40
0.0
 40
0.0
 40
0.0
 40
0.2499999999999998
 40
0.2499999999999998
 40
0.4999999999999996
 40
0.4999999999999996
 40
0.7499999999999993
 40
0.7499999999999993
 40
0.8749999999999997
 40
0.8749999999999997
 40
1.0
 40
1.0
 40
1.0
 40
1.0
 10
98.70826581280379
 20
351.7915063896186
 30
0.0
 10
98.39208786245143
 20
351.7915063896186
 30
0.0
 10
98.08154502024044
 20
351.8595015584015
 30
0.0
 10
97.4665825014972
 20
352.0693761362282
 30
0.0
 10
97.16227946878243
 20
352.2126630100195
 30
0.0
 10
96.55737439344503
 20
352.5438941873558
 30
0.0
 10
96.25772582013104
 20
352.7316095642751
 30
0.0
 10
95.81120281741752
 20
353.0278020152981
 30
0.0
 10
95.66277668624049
 20
353.1290621071054
 30
0.0
 10
95.36633142951428
 20
353.3340636216288
 30
0.0
 10
95.21754288499717
 20
353.4383480679549
 30
0.0
 10
95.07035776008999
 20
353.5415063896186
 30
0.0
  0
LINE
  5
257
330
1F
100
AcDbEntity
  8
0
  6
Continuous
 62
     7
370
    25
100
AcDbLine
 10
98.8231345098
 20
351.7915063896
 30
0.0
 11
98.7082658128
 21
351.7915063896
 31
0.0
  0
LINE
  5
258
330
1F
100
AcDbEntity
  8
0
  6
Continuous
 62
     7
370
    25
100
AcDbLine
 10
98.8231345098
 20
341.0415063896
 30
0.0
 11
98.8231345098
 21
351.7915063896
 31
0.0
  0
LINE
  5
259
330
1F
100
AcDbEntity
  8
0
  6
Continuous
 62
     7
370
    25
100
AcDbLine
 10
91.3175810104
 20
341.0415063896
 30
0.0
 11
98.8231345098
 21
341.0415063896
 31
0.0
  0
ARC
  5
25A
330
1F
100
AcDbEntity
  8
0
  6
Continuous
 62
     7
370
    25
100
AcDbCircle
 10
97.1812946818
 20
340.9321313896
 30
0.0
 40
1.645478930724526
100
AcDbArc
 50
274.4019496523
 51
3.8112610495
  0
LINE
  5
25B
330
1F
100
AcDbEntity
  8
0
  6
Continuous
 62
     7
370
    25
100
AcDbLine
 10
97.3075900532
 20
339.2915063896
 30
0.0
 11
95.8598294964
 21
339.2915063896
 31
0.0
  0
SPLINE
  5
25C
330
1F
100
AcDbEntity
  8
0
  6
Continuous
 62
     7
370
    25
100
AcDbSpline
210
0.0
220
0.0
230
1.0
 70
     8
 71
     3
 72
    14
 73
    10
 74
     0
 42
0.00000001
 43
0.00000001
 40
0.0
 40
0.0
 40
0.0
 40
0.0
 40
0.2499999999999999
 40
0.2499999999999999
 40
0.4999999999999998
 40
0.4999999999999998
 40
0.7499999999999999
 40
0.7499999999999999
 40
1.0
 40
1.0
 40
1.0
 40
1.0
 10
91.24979711050482
 20
339.2915063896184
 30
0.0
 10
91.76501084200143
 20
339.2915063896184
 30
0.0
 10
92.24719440772633
 20
339.3109610213506
 30
0.0
 10
93.14986309980071
 20
339.3422905073471
 30
0.0
 10
93.57080068128725
 20
339.3542158233956
 30
0.0
 10
94.34570004440863
 20
339.3541630657641
 30
0.0
 10
94.69886637525715
 20
339.3422231863514
 30
0.0
 10
95.33347181176067
 20
339.3109421209109
 30
0.0
 10
95.61546380189856
 20
339.2915063896119
 30
0.0
 10
95.8598294964295
 20
339.2915063896119
 30
0.0
  0
LINE
  5
25D
330
1F
100
AcDbEntity
  8
0
  6
Continuous
 62
     7
370
    25
100
AcDbLine
 10
91.2497971105
 20
339.2915063896
 30
0.0
 11
89.8020365537
 21
339.2915063896
 31
0.0
  0
SPLINE
  5
25E
330
1F
100
AcDbEntity
  8
0
  6
Continuous
 62
     7
370
    25
100
AcDbSpline
210
0.0
220
0.0
230
1.0
 70
     8
 71
     3
 72
     8
 73
     4
 74
     0
 42
0.00000001
 43
0.00000001
 40
0.0000000000000002
 40
0.0000000000000002
 40
0.0000000000000002
 40
0.0000000000000002
 40
0.0002416894103824
 40
0.0002416894103824
 40
0.0002416894103824
 40
0.0002416894103824
 10
90.53111809311501
 20
353.3913470417996
 30
0.0
 10
90.47301926376073
 20
353.4014872599342
 30
0.0
 10
90.41474956948437
 20
353.4111264726486
 30
0.0
 10
90.35626922901396
 20
353.4202896334966
 30
0.0
  0
ARC
  5
25F
330
1F
100
AcDbEntity
  8
0
  6
Continuous
 62
     7
370
    25
100
AcDbCircle
 10
89.6559786332
 20
351.8444834499
 30
0.0
 40
1.777260826753894
100
AcDbArc
 50
358.291859247
 51
60.5009498435
  0
LINE
  5
260
330
1F
100
AcDbEntity
  8
0
  6
Continuous
 62
     7
370
    25
100
AcDbLine
 10
63.7196367863
 20
351.7915063896
 30
0.0
 11
63.6047680893
 21
351.7915063896
 31
0.0
  0
SPLINE
  5
261
330
1F
100
AcDbEntity
  8
0
  6
Continuous
 62
     7
370
    25
100
AcDbSpline
210
0.0
220
0.0
230
1.0
 70
     8
 71
     3
 72
    16
 73
    12
 74
     0
 42
0.00000001
 43
0.00000001
 40
0.0
 40
0.0
 40
0.0
 40
0.0
 40
0.2500000000000001
 40
0.2500000000000001
 40
0.5000000000000002
 40
0.5000000000000002
 40
0.75
 40
0.75
 40
0.875
 40
0.875
 40
1.0
 40
1.0
 40
1.0
 40
1.0
 10
63.71963678627412
 20
351.7915063896186
 30
0.0
 10
64.03532380967161
 20
351.7915063896186
 30
0.0
 10
64.34583781713937
 20
351.8593518820488
 30
0.0
 10
64.96120329248501
 20
352.0693085935373
 30
0.0
 10
65.26628615856042
 20
352.2129819701865
 30
0.0
 10
65.87154321730411
 20
352.5444942031243
 30
0.0
 10
66.17068104326046
 20
352.7319349832781
 30
0.0
 10
66.61698889303179
 20
353.0279983375474
 30
0.0
 10
66.76535082788207
 20
353.1292166189267
 30
0.0
 10
67.06167495674268
 20
353.3341364192008
 30
0.0
 10
67.21028561921847
 20
353.4382961366174
 30
0.0
 10
67.35754483898792
 20
353.5415063896186
 30
0.0
  0
SPLINE
  5
262
330
1F
100
AcDbEntity
  8
0
  6
Continuous
 62
     7
370
    25
100
AcDbSpline
210
0.0
220
0.0
230
1.0
 70
     8
 71
     3
 72
    16
 73
    12
 74
     0
 42
0.00000001
 43
0.00000001
 40
0.0
 40
0.0
 40
0.0
 40
0.0
 40
0.2499999999999999
 40
0.2499999999999999
 40
0.4999999999999998
 40
0.4999999999999998
 40
0.7499999999999997
 40
0.7499999999999997
 40
0.8749999999999998
 40
0.8749999999999998
 40
1.0
 40
1.0
 40
1.0
 40
1.0
 10
70.99545289170175
 20
351.7915063896186
 30
0.0
 10
70.67927494134939
 20
351.7915063896186
 30
0.0
 10
70.3687320991384
 20
351.8595015584015
 30
0.0
 10
69.75376958039517
 20
352.0693761362282
 30
0.0
 10
69.44946654768039
 20
352.2126630100194
 30
0.0
 10
68.84456147234299
 20
352.5438941873558
 30
0.0
 10
68.544912899029
 20
352.7316095642751
 30
0.0
 10
68.09838989631548
 20
353.0278020152981
 30
0.0
 10
67.94996376513843
 20
353.1290621071054
 30
0.0
 10
67.65351850841222
 20
353.3340636216288
 30
0.0
 10
67.50472996389446
 20
353.4383480679511
 30
0.0
 10
67.35754483898792
 20
353.5415063896186
 30
0.0
  0
LINE
  5
263
330
1F
100
AcDbEntity
  8
0
  6
Continuous
 62
     7
370
    25
100
AcDbLine
 10
71.1103215887
 20
351.7915063896
 30
0.0
 11
70.9954528917
 21
351.7915063896
 31
0.0
  0
LINE
  5
264
330
1F
100
AcDbEntity
  8
0
  6
Continuous
 62
     7
370
    25
100
AcDbLine
 10
63.6047680893
 20
341.0415063896
 30
0.0
 11
71.1103215887
 21
341.0415063896
 31
0.0
  0
LINE
  5
265
330
1F
100
AcDbEntity
  8
0
  6
Continuous
 62
     7
370
    25
100
AcDbLine
 10
63.6047680893
 20
351.7915063896
 30
0.0
 11
63.6047680893
 21
341.0415063896
 31
0.0
  0
ARC
  5
266
330
1F
100
AcDbEntity
  8
0
  6
Continuous
 62
     7
370
    25
100
AcDbCircle
 10
65.2466079173
 20
340.9321313896
 30
0.0
 40
1.645478930724531
100
AcDbArc
 50
176.1887389505
 51
265.5980503477
  0
LINE
  5
267
330
1F
100
AcDbEntity
  8
0
  6
Continuous
 62
     7
370
    25
100
AcDbLine
 10
72.6258660453
 20
339.2915063896
 30
0.0
 11
71.1781054886
 21
339.2915063896
 31
0.0
  0
SPLINE
  5
268
330
1F
100
AcDbEntity
  8
0
  6
Continuous
 62
     7
370
    25
100
AcDbSpline
210
0.0
220
0.0
230
1.0
 70
     8
 71
     3
 72
    14
 73
    10
 74
     0
 42
0.00000001
 43
0.00000001
 40
0.0
 40
0.0
 40
0.0
 40
0.0
 40
0.25
 40
0.25
 40
0.5
 40
0.5
 40
0.75
 40
0.75
 40
1.0
 40
1.0
 40
1.0
 40
1.0
 10
66.56807310264831
 20
339.2915063896184
 30
0.0
 10
66.81243760425356
 20
339.2915063896184
 30
0.0
 10
67.09465690712285
 20
339.3109610213506
 30
0.0
 10
67.73055972932468
 20
339.3422905073471
 30
0.0
 10
68.08493012890142
 20
339.3542158233956
 30
0.0
 10
68.8601616599677
 20
339.3541630657641
 30
0.0
 10
69.28005201238008
 20
339.3422231863514
 30
0.0
 10
70.18117969852636
 20
339.310942120911
 30
0.0
 10
70.66288924193343
 20
339.2915063896119
 30
0.0
 10
71.17810548857317
 20
339.2915063896119
 30
0.0
  0
LINE
  5
269
330
1F
100
AcDbEntity
  8
0
  6
Continuous
 62
     7
370
    25
100
AcDbLine
 10
66.5680731026
 20
339.2915063896
 30
0.0
 11
65.1203125459
 21
339.2915063896
 31
0.0
  0
ARC
  5
26A
330
1F
100
AcDbEntity
  8
0
  6
Continuous
 62
     7
370
    25
100
AcDbCircle
 10
72.7719239659
 20
351.8444834499
 30
0.0
 40
1.777260826753845
100
AcDbArc
 50
119.4990501565
 51
181.708140753
  0
SPLINE
  5
26B
330
1F
100
AcDbEntity
  8
0
  6
Continuous
 62
     7
370
    25
100
AcDbSpline
210
0.0
220
0.0
230
1.0
 70
     8
 71
     3
 72
     8
 73
     4
 74
     0
 42
0.00000001
 43
0.00000001
 40
0.0
 40
0.0
 40
0.0
 40
0.0
 40
0.0002416894103822
 40
0.0002416894103822
 40
0.0002416894103822
 40
0.0002416894103822
 10
72.07163337006394
 20
353.4202896334963
 30
0.0
 10
72.01315302959357
 20
353.4111264726484
 30
0.0
 10
71.9548833353173
 20
353.4014872599345
 30
0.0
 10
71.89678450596307
 20
353.3913470417999
 30
0.0
  0
SPLINE
  5
26C
330
1F
100
AcDbEntity
  8
0
  6
Continuous
 62
     7
370
    25
100
AcDbSpline
210
0.0
220
0.0
230
1.0
 70
     8
 71
     3
 72
     8
 73
     4
 74
     0
 42
0.00000001
 43
0.00000001
 40
0.0
 40
0.0
 40
0.0
 40
0.0
 40
0.000105507294285
 40
0.000105507294285
 40
0.000105507294285
 40
0.000105507294285
 10
90.60471021968824
 20
353.3801427793817
 30
0.0
 10
90.58015755091489
 20
353.3837326103428
 30
0.0
 10
90.55562437407772
 20
353.3874632187847
 30
0.0
 10
90.53111809311501
 20
353.3913470417996
 30
0.0
  0
SPLINE
  5
26D
330
1F
100
AcDbEntity
  8
0
  6
Continuous
 62
     7
370
    25
100
AcDbSpline
210
0.0
220
0.0
230
1.0
 70
     8
 71
     3
 72
    14
 73
    10
 74
     0
 42
0.00000001
 43
0.00000001
 40
0.0
 40
0.0
 40
0.0
 40
0.0
 40
0.25
 40
0.25
 40
0.5
 40
0.5
 40
0.75
 40
0.75
 40
1.0
 40
1.0
 40
1.0
 40
1.0
 10
90.60471021968824
 20
353.3801427793817
 30
0.0
 10
91.02912638127245
 20
353.3180891471956
 30
0.0
 10
91.4478249359369
 20
353.2995646839228
 30
0.0
 10
92.25831820479401
 20
353.2946219677216
 30
0.0
 10
92.65107124011254
 20
353.3100835715188
 30
0.0
 10
93.4038579997672
 20
353.3577479771457
 30
0.0
 10
93.76296643670986
 20
353.3901867174675
 30
0.0
 10
94.44468810139844
 20
353.462162926738
 30
0.0
 10
94.76837269864794
 20
353.5019784705728
 30
0.0
 10
95.07035776008998
 20
353.5415063896186
 30
0.0
  0
SPLINE
  5
26E
330
1F
100
AcDbEntity
  8
0
  6
Continuous
 62
     7
370
    25
100
AcDbSpline
210
0.0
220
0.0
230
1.0
 70
     8
 71
     3
 72
    14
 73
    10
 74
     0
 42
0.00000001
 43
0.00000001
 40
0.0
 40
0.0
 40
0.0
 40
0.0
 40
0.25
 40
0.25
 40
0.5
 40
0.5
 40
0.75
 40
0.75
 40
1.0
 40
1.0
 40
1.0
 40
1.0
 10
71.82319237940249
 20
353.3801427793836
 30
0.0
 10
71.39877621781713
 20
353.3180891471964
 30
0.0
 10
70.98007766315139
 20
353.2995646839232
 30
0.0
 10
70.16958439429187
 20
353.2946219677214
 30
0.0
 10
69.77683135897217
 20
353.3100835715184
 30
0.0
 10
69.02404459931529
 20
353.3577479771453
 30
0.0
 10
68.66493616237157
 20
353.3901867174672
 30
0.0
 10
67.98321449768109
 20
353.4621629267377
 30
0.0
 10
67.65952990043084
 20
353.5019784705758
 30
0.0
 10
67.35754483898792
 20
353.5415063896186
 30
0.0
  0
SPLINE
  5
26F
330
1F
100
AcDbEntity
  8
0
  6
Continuous
 62
     7
370
    25
100
AcDbSpline
210
0.0
220
0.0
230
1.0
 70
     8
 71
     3
 72
     8
 73
     4
 74
     0
 42
0.00000001
 43
0.00000001
 40
0.0
 40
0.0
 40
0.0
 40
0.0
 40
0.0001055072942668
 40
0.0001055072942668
 40
0.0001055072942668
 40
0.0001055072942668
 10
71.89678450596304
 20
353.3913470417996
 30
0.0
 10
71.87227822500452
 20
353.3874632187853
 30
0.0
 10
71.84774504817167
 20
353.3837326103437
 30
0.0
 10
71.82319237940257
 20
353.3801427793831
 30
0.0
  0
ARC
  5
270
330
1F
100
AcDbEntity
  8
0
  6
Continuous
 62
     7
370
    25
100
AcDbCircle
 10
91.448999468
 20
338.4367698563
 30
0.0
 40
0.8776423648442877
100
AcDbArc
 50
103.119007754
 51
188.0002668541
  0
ARC
  5
271
330
1F
100
AcDbEntity
  8
0
  6
Continuous
 62
     7
370
    25
100
AcDbCircle
 10
70.9789031311
 20
338.4367698563
 30
0.0
 40
0.8776423648442737
100
AcDbArc
 50
351.9997331459
 51
76.880992246
  0
LINE
  5
272
330
1F
100
AcDbEntity
  8
0
  6
Continuous
 62
     7
370
    25
100
AcDbLine
 10
110.3694750653
 20
303.1355482814
 30
0.0
 11
110.7444749225
 21
303.1355489087
 31
0.0
  0
ARC
  5
273
330
1F
100
AcDbEntity
  8
0
  6
Continuous
 62
     7
370
    25
100
AcDbCircle
 10
91.2750078849
 20
354.0565587609
 30
0.0
 40
0.9979371992159757
100
AcDbArc
 50
164.4750771131
 51
221.8041723328
  0
ARC
  5
274
330
1F
100
AcDbEntity
  8
0
  6
Continuous
 62
     7
370
    25
100
AcDbCircle
 10
71.1528947141
 20
354.0565587609
 30
0.0
 40
0.9979371992166104
100
AcDbArc
 50
318.1958276672
 51
15.5249228869
  0
ARC
  5
275
330
1F
100
AcDbEntity
  8
0
  6
Continuous
 62
     7
370
    25
100
AcDbCircle
 10
91.3636484118
 20
354.0401191295
 30
0.0
 40
1.005761384292121
100
AcDbArc
 50
165.7659488811
 51
221.0103806761
  0
ARC
  5
276
330
1F
100
AcDbEntity
  8
0
  6
Continuous
 62
     7
370
    25
100
AcDbCircle
 10
71.0642541873
 20
354.0401191295
 30
0.0
 40
1.005761384288413
100
AcDbArc
 50
318.9896193238
 51
14.2340511189
  0
SPLINE
  5
277
330
1F
100
AcDbEntity
  8
0
  6
Continuous
 62
     7
370
    25
100
AcDbSpline
210
0.0
220
0.0
230
1.0
 70
     8
 71
     3
 72
    12
 73
     8
 74
     0
 42
0.00000001
 43
0.00000001
 40
0.0
 40
0.0
 40
0.0
 40
0.0
 40
0.25
 40
0.25
 40
0.5
 40
0.5
 40
1.0
 40
1.0
 40
1.0
 40
1.0
 10
72.03913808511672
 20
354.2874192466896
 30
0.0
 10
71.5670924498531
 20
354.1755021349869
 30
0.0
 10
71.10996042775122
 20
354.0961219894418
 30
0.0
 10
70.23351981080694
 20
353.9543741523263
 30
0.0
 10
69.81771861985905
 20
353.894699355385
 30
0.0
 10
68.6386008406482
 20
353.728761035083
 30
0.0
 10
67.94143438612865
 20
353.6354860604415
 30
0.0
 10
67.35754483898792
 20
353.5415063896186
 30
0.0
  0
SPLINE
  5
278
330
1F
100
AcDbEntity
  8
0
  6
Continuous
 62
     7
370
    25
100
AcDbSpline
210
0.0
220
0.0
230
1.0
 70
     8
 71
     3
 72
    18
 73
    14
 74
     0
 42
0.00000001
 43
0.00000001
 40
0.0
 40
0.0
 40
0.0
 40
0.0
 40
0.2500000000000003
 40
0.2500000000000003
 40
0.5000000000000006
 40
0.5000000000000006
 40
0.7500000000000009
 40
0.7500000000000009
 40
0.875000000000001
 40
0.875000000000001
 40
0.9375000000000004
 40
0.9375000000000004
 40
1.0
 40
1.0
 40
1.0
 40
1.0
 10
90.38876451397398
 20
354.2874192466867
 30
0.0
 10
90.86285946936576
 20
354.1750162624914
 30
0.0
 10
91.31857742612556
 20
354.0960512362706
 30
0.0
 10
92.18862225376739
 20
353.955274011206
 30
0.0
 10
92.60320804078151
 20
353.8957002959017
 30
0.0
 10
93.38968365174571
 20
353.7849807728551
 30
0.0
 10
93.76295509827042
 20
353.7339482063851
 30
0.0
 10
94.28310864184033
 20
353.6603305726287
 30
0.0
 10
94.44988045498496
 20
353.6363069924483
 30
0.0
 10
94.69010191730979
 20
353.6005993339487
 30
0.0
 10
94.76851886496904
 20
353.5887521505443
 30
0.0
 10
94.9220259340399
 20
353.5651001378516
 30
0.0
 10
94.99782762078677
 20
353.5531804424546
 30
0.0
 10
95.07035776008998
 20
353.5415063896186
 30
0.0
  0
SPLINE
  5
279
330
1F
100
AcDbEntity
  8
0
  6
Continuous
 62
     7
370
    25
100
AcDbSpline
210
0.0
220
0.0
230
1.0
 70
     8
 71
     3
 72
    18
 73
    14
 74
     0
 42
0.00000001
 43
0.00000001
 40
0.0
 40
0.0
 40
0.0
 40
0.0
 40
0.2499999999999997
 40
0.2499999999999997
 40
0.4999999999999994
 40
0.4999999999999994
 40
0.7499999999999991
 40
0.7499999999999991
 40
0.8749999999999992
 40
0.8749999999999992
 40
0.9374999999999997
 40
0.9374999999999997
 40
1.0
 40
1.0
 40
1.0
 40
1.0
 10
65.27458002270714
 20
354.2874192466866
 30
0.0
 10
65.3249100687408
 20
354.1750162624914
 30
0.0
 10
65.40649390736758
 20
354.0960512362706
 30
0.0
 10
65.6311624156489
 20
353.955274011206
 30
0.0
 10
65.77422105801377
 20
353.8957002959017
 30
0.0
 10
66.12236125059727
 20
353.7849807728551
 30
0.0
 10
66.32845241148144
 20
353.7339482063851
 30
0.0
 10
66.68173593869672
 20
353.6603305726286
 30
0.0
 10
66.80676556645965
 20
353.6363069924483
 30
0.0
 10
67.00519286853373
 20
353.6005993339487
 30
0.0
 10
67.07315008460775
 20
353.5887521505444
 30
0.0
 10
67.21270244560357
 20
353.5651001378517
 30
0.0
 10
67.28501469968487
 20
353.553180442458
 30
0.0
 10
67.35754483898792
 20
353.5415063896186
 30
0.0
  0
SPLINE
  5
27A
330
1F
100
AcDbEntity
  8
0
  6
Continuous
 62
     7
370
    25
100
AcDbSpline
210
0.0
220
0.0
230
1.0
 70
     8
 71
     3
 72
    12
 73
     8
 74
     0
 42
0.00000001
 43
0.00000001
 40
0.0
 40
0.0
 40
0.0
 40
0.0
 40
0.2499999999999999
 40
0.2499999999999999
 40
0.4999999999999999
 40
0.4999999999999999
 40
1.0
 40
1.0
 40
1.0
 40
1.0
 10
97.15332257637213
 20
354.2874192466896
 30
0.0
 10
97.10321008670665
 20
354.1755021349869
 30
0.0
 10
97.02171507122071
 20
354.0961219894418
 30
0.0
 10
96.79510948685653
 20
353.9543741523263
 30
0.0
 10
96.65105565837513
 20
353.894699355385
 30
0.0
 10
96.12771075254005
 20
353.728761035083
 30
0.0
 10
95.65424730723043
 20
353.6354860604476
 30
0.0
 10
95.07035776008998
 20
353.5415063896186
 30
0.0
  0
LINE
  5
27B
330
1F
100
AcDbEntity
  8
0
  6
Continuous
 62
     7
370
    25
100
AcDbLine
 10
110.3694656628
 20
307.3513832699
 30
0.0
 11
110.3694750653
 21
303.1355482814
 31
0.0
  0
LINE
  5
27C
330
1F
100
AcDbEntity
  8
0
  6
Continuous
 62
     7
370
    25
100
AcDbLine
 10
110.2139512995
 20
306.7323463969
 30
0.0
 11
110.2139512995
 21
307.8455930516
 31
0.0
  0
LINE
  5
27D
330
1F
100
AcDbEntity
  8
0
  6
Continuous
 62
     7
370
    25
100
AcDbLine
 10
110.74446552
 20
307.35138327
 30
0.0
 11
110.7444749225
 21
303.1355489087
 31
0.0
  0
ARC
  5
27E
330
1F
100
AcDbEntity
  8
0
  6
Continuous
 62
     7
370
    25
100
AcDbCircle
 10
95.8706671341
 20
338.3030398066
 30
0.0
 40
0.9885259936317291
100
AcDbArc
 50
90.628170975
 51
179.3286944278
  0
ARC
  5
27F
330
1F
100
AcDbEntity
  8
0
  6
Continuous
 62
     7
370
    25
100
AcDbCircle
 10
66.557235465
 20
338.3030398066
 30
0.0
 40
0.988525993631715
100
AcDbArc
 50
0.6713055722
 51
89.371829025
  0
SPLINE
  5
280
330
1F
100
AcDbEntity
  8
0
  6
Continuous
 62
     7
370
    25
100
AcDbSpline
210
0.0
220
0.0
230
1.0
 70
     8
 71
     3
 72
     8
 73
     4
 74
     0
 42
0.00000001
 43
0.00000001
 40
0.0
 40
0.0
 40
0.0
 40
0.0
 40
1.0
 40
1.0
 40
1.0
 40
1.0
 10
93.09904956996256
 20
281.9513608465322
 30
0.0
 10
92.29094631830756
 20
281.7146963406223
 30
0.0
 10
91.47352846870841
 20
281.488700530172
 30
0.0
 10
90.64138124101027
 20
281.2699134534951
 30
0.0
  0
SPLINE
  5
281
330
1F
100
AcDbEntity
  8
0
  6
Continuous
 62
     7
370
    25
100
AcDbSpline
210
0.0
220
0.0
230
1.0
 70
     8
 71
     3
 72
    10
 73
     6
 74
     0
 42
0.00000001
 43
0.00000001
 40
0.0
 40
0.0
 40
0.0
 40
0.0
 40
0.5
 40
0.5
 40
1.0
 40
1.0
 40
1.0
 40
1.0
 10
66.80685843074139
 20
304.6122978366795
 30
0.0
 10
66.9849145398644
 20
304.5676808968837
 30
0.0
 10
67.17534993539539
 20
304.6121753095445
 30
0.0
 10
67.58147005099508
 20
304.8537939977485
 30
0.0
 10
67.79580700448872
 20
305.0491503437861
 30
0.0
 10
68.02519751196611
 20
305.3010977609025
 30
0.0
  0
ARC
  5
282
330
1F
100
AcDbEntity
  8
0
  6
Continuous
 62
     7
370
    25
100
AcDbCircle
 10
57.9976523708
 20
309.6496508074
 30
0.0
 40
10.14776016461666
100
AcDbArc
 50
330.2378582576
 51
1.3294554288
  0
ARC
  5
283
330
1F
100
AcDbEntity
  8
0
  6
Continuous
 62
     7
370
    25
100
AcDbCircle
 10
98.1560307278
 20
354.3095207691
 30
0.0
 40
1.002951700818475
100
AcDbArc
 50
181.2626993566
 51
247.9173961432
  0
SPLINE
  5
284
330
1F
100
AcDbEntity
  8
0
  6
Continuous
 62
     7
370
    25
100
AcDbSpline
210
0.0
220
0.0
230
1.0
 70
     8
 71
     3
 72
    14
 73
    10
 74
     0
 42
0.00000001
 43
0.00000001
 40
0.0
 40
0.0
 40
0.0
 40
0.0
 40
0.2499999999999999
 40
0.2499999999999999
 40
0.4999999999999998
 40
0.4999999999999998
 40
0.7499999999999999
 40
0.7499999999999999
 40
1.0
 40
1.0
 40
1.0
 40
1.0
 10
97.77897812350572
 20
353.3801427793836
 30
0.0
 10
97.61809041518416
 20
353.3180891471964
 30
0.0
 10
97.44891530446488
 20
353.2995646839232
 30
0.0
 10
97.07533484002329
 20
353.2946219677214
 30
0.0
 10
96.87142902220238
 20
353.3100835715184
 30
0.0
 10
96.42431969249265
 20
353.3577479771453
 30
0.0
 10
96.18186562238171
 20
353.3901867174671
 30
0.0
 10
95.65642908804666
 20
353.4621629267377
 30
0.0
 10
95.37234282153258
 20
353.501978470567
 30
0.0
 10
95.07035776008998
 20
353.5415063896186
 30
0.0
  0
SPLINE
  5
285
330
1F
100
AcDbEntity
  8
0
  6
Continuous
 62
     7
370
    25
100
AcDbSpline
210
0.0
220
0.0
230
1.0
 70
     8
 71
     3
 72
     8
 73
     4
 74
     0
 42
0.00000001
 43
0.00000001
 40
0.0
 40
0.0
 40
0.0
 40
0.0
 40
0.0001055072942668
 40
0.0001055072942668
 40
0.0001055072942668
 40
0.0001055072942668
 10
97.80693419854249
 20
353.3913470417996
 30
0.0
 10
97.79760221267108
 20
353.3874632187853
 30
0.0
 10
97.78828555090593
 20
353.3837326103437
 30
0.0
 10
97.77897812350568
 20
353.3801427793831
 30
0.0
  0
ARC
  5
286
330
1F
100
AcDbEntity
  8
0
  6
Continuous
 62
     7
370
    25
100
AcDbCircle
 10
96.9317947386
 20
351.8444834499
 30
0.0
 40
1.777260826753922
100
AcDbArc
 50
358.291859247
 51
60.5009498435
  0
ARC
  5
287
330
1F
100
AcDbEntity
  8
0
  6
Continuous
 62
     7
370
    25
100
AcDbCircle
 10
65.4961078605
 20
351.8444834499
 30
0.0
 40
1.777260826753958
100
AcDbArc
 50
119.4990501565
 51
181.708140753
  0
SPLINE
  5
288
330
1F
100
AcDbEntity
  8
0
  6
Continuous
 62
     7
370
    25
100
AcDbSpline
210
0.0
220
0.0
230
1.0
 70
     8
 71
     3
 72
     8
 73
     4
 74
     0
 42
0.00000001
 43
0.00000001
 40
0.0
 40
0.0
 40
0.0
 40
0.0
 40
0.000105507294285
 40
0.000105507294285
 40
0.000105507294285
 40
0.000105507294285
 10
64.64892447557706
 20
353.3801427793817
 30
0.0
 10
64.63961704817521
 20
353.3837326103428
 30
0.0
 10
64.63030038640849
 20
353.3874632187846
 30
0.0
 10
64.62096840053546
 20
353.3913470417996
 30
0.0
  0
SPLINE
  5
289
330
1F
100
AcDbEntity
  8
0
  6
Continuous
 62
     7
370
    25
100
AcDbSpline
210
0.0
220
0.0
230
1.0
 70
     8
 71
     3
 72
    14
 73
    10
 74
     0
 42
0.00000001
 43
0.00000001
 40
0.0
 40
0.0
 40
0.0
 40
0.0
 40
0.2500000000000001
 40
0.2500000000000001
 40
0.5000000000000002
 40
0.5000000000000002
 40
0.7500000000000001
 40
0.7500000000000001
 40
1.0
 40
1.0
 40
1.0
 40
1.0
 10
64.64892447557706
 20
353.3801427793817
 30
0.0
 10
64.80981218389836
 20
353.3180891471956
 30
0.0
 10
64.97898729461748
 20
353.2995646839228
 30
0.0
 10
65.35256775905862
 20
353.2946219677216
 30
0.0
 10
65.5564735768793
 20
353.3100835715188
 30
0.0
 10
66.00358290658828
 20
353.3577479771457
 30
0.0
 10
66.24603697669876
 20
353.3901867174675
 30
0.0
 10
66.77147351103267
 20
353.462162926738
 30
0.0
 10
67.05555977754582
 20
353.5019784705748
 30
0.0
 10
67.35754483898792
 20
353.5415063896186
 30
0.0
  0
ARC
  5
28A
330
1F
100
AcDbEntity
  8
0
  6
Continuous
 62
     7
370
    25
100
AcDbCircle
 10
64.2718718713
 20
354.3095207691
 30
0.0
 40
1.00295170081895
100
AcDbArc
 50
292.082603857
 51
358.7373006436
  0
SPLINE
  5
28B
330
1F
100
AcDbEntity
  8
0
  6
Continuous
 62
     7
370
    25
100
AcDbSpline
210
0.0
220
0.0
230
1.0
 70
     8
 71
     3
 72
     8
 73
     4
 74
     0
 42
0.00000001
 43
0.00000001
 40
0.0
 40
0.0
 40
0.0
 40
0.0
 40
0.0002416894103822
 40
0.0002416894103822
 40
0.0002416894103822
 40
0.0002416894103822
 10
97.86182272847911
 20
353.4202896334963
 30
0.0
 10
97.84373553924979
 20
353.4111264726484
 30
0.0
 10
97.82541467720056
 20
353.4014872599345
 30
0.0
 10
97.80693419854242
 20
353.3913470417999
 30
0.0
  0
ARC
  5
28C
330
1F
100
AcDbEntity
  8
0
  6
Continuous
 62
     7
370
    25
100
AcDbCircle
 10
97.0610365606
 20
351.8495878318
 30
0.0
 40
1.763054915954093
100
AcDbArc
 50
358.1121270215
 51
62.9862857032
  0
ARC
  5
28D
330
1F
100
AcDbEntity
  8
0
  6
Continuous
 62
     7
370
    25
100
AcDbCircle
 10
65.3668660385
 20
351.8495878318
 30
0.0
 40
1.7630549159541
100
AcDbArc
 50
117.0137142968
 51
181.8878729785
  0
SPLINE
  5
28E
330
1F
100
AcDbEntity
  8
0
  6
Continuous
 62
     7
370
    25
100
AcDbSpline
210
0.0
220
0.0
230
1.0
 70
     8
 71
     3
 72
     8
 73
     4
 74
     0
 42
0.00000001
 43
0.00000001
 40
0.0000000000000002
 40
0.0000000000000002
 40
0.0000000000000002
 40
0.0000000000000002
 40
0.0002416894103823
 40
0.0002416894103823
 40
0.0002416894103823
 40
0.0002416894103823
 10
64.62096840053546
 20
353.3913470417996
 30
0.0
 10
64.60248792187731
 20
353.4014872599342
 30
0.0
 10
64.58416705982816
 20
353.4111264726486
 30
0.0
 10
64.56607987059884
 20
353.4202896334966
 30
0.0
  0
LINE
  5
28F
330
1F
100
AcDbEntity
  8
0
  6
Continuous
 62
     7
370
    25
100
AcDbLine
 10
97.4750582985
 20
339.2915063896
 30
0.0
 11
97.3075900532
 21
339.2915063896
 31
0.0
  0
LINE
  5
290
330
1F
100
AcDbEntity
  8
0
  6
Continuous
 62
     7
370
    25
100
AcDbLine
 10
65.1203125459
 20
339.2915063896
 30
0.0
 11
64.9528443006
 21
339.2915063896
 31
0.0
  0
ARC
  5
291
330
1F
100
AcDbEntity
  8
0
  6
Continuous
 62
     7
370
    25
100
AcDbCircle
 10
64.2645581581
 20
354.3277850557
 30
0.0
 40
1.001970266457674
100
AcDbArc
 50
290.8369281334
 51
359.7643533258
  0
ARC
  5
292
330
1F
100
AcDbEntity
  8
0
  6
Continuous
 62
     7
370
    25
100
AcDbCircle
 10
98.163344441
 20
354.3277850557
 30
0.0
 40
1.001970266457745
100
AcDbArc
 50
180.2356466742
 51
249.1630718666
  0
ARC
  5
293
330
1F
100
AcDbEntity
  8
0
  6
Continuous
 62
     7
370
    25
100
AcDbCircle
 10
64.2448650372
 20
354.3687116639
 30
0.0
 40
1.001340759618277
100
AcDbArc
 50
288.7103891537
 51
2.628130234
  0
ARC
  5
294
330
1F
100
AcDbEntity
  8
0
  6
Continuous
 62
     7
370
    25
100
AcDbCircle
 10
98.1830375619
 20
354.3687116639
 30
0.0
 40
1.001340759618263
100
AcDbArc
 50
177.371869766
 51
251.2896108463
  0
ARC
  5
295
330
1F
100
AcDbEntity
  8
0
  6
Continuous
 62
     8
370
    25
100
AcDbCircle
 10
81.2225926547
 20
153.3143172116
 30
0.0
 40
7.891356635177694
100
AcDbArc
 50
269.9372587879
 51
359.9967686527
  0
ARC
  5
296
330
1F
100
AcDbEntity
  8
0
  6
Continuous
 62
     8
370
    25
100
AcDbCircle
 10
81.2059883832
 20
153.3149981469
 30
0.0
 40
7.892036856404631
100
AcDbArc
 50
180.0226632207
 51
270.0578103709
  0
ARC
  5
297
330
1F
100
AcDbEntity
  8
0
  6
Continuous
 62
     8
370
    25
100
AcDbCircle
 10
81.2305431105
 20
151.4680494408
 30
0.0
 40
9.814141633410367
100
AcDbArc
 50
269.9031355739
 51
35.5205899102
  0
ARC
  5
298
330
1F
100
AcDbEntity
  8
0
  6
Continuous
 62
     8
370
    25
100
AcDbCircle
 10
81.198089241
 20
151.4683910592
 30
0.0
 40
9.814482044838499
100
AcDbArc
 50
144.0734033417
 51
270.0926008523
  0
ARC
  5
299
330
1F
100
AcDbEntity
  8
0
  6
Continuous
 62
     8
370
    25
100
AcDbCircle
 10
81.2139512995
 20
296.0415063896
 30
0.0
 40
9.374999999999979
100
AcDbArc
 50
328.3909605002
 51
211.5126386886
  0
ARC
  5
29A
330
1F
100
AcDbEntity
  8
0
  6
Continuous
 62
     8
370
    25
100
AcDbCircle
 10
81.2139512995
 20
296.0415063896
 30
0.0
 40
11.05993649053894
100
AcDbArc
 50
67.9957718913
 51
223.7244702052
  0
ARC
  5
29B
330
1F
100
AcDbEntity
  8
0
  6
Continuous
 62
     8
370
    25
100
AcDbCircle
 10
81.2139512995
 20
296.0415063896
 30
0.0
 40
11.05993649053894
100
AcDbArc
 50
316.2825652068
 51
67.9957718913
  0
ARC
  5
29C
330
1F
100
AcDbEntity
  8
0
  6
Continuous
 62
     8
370
    25
100
AcDbCircle
 10
81.2139512995
 20
296.0415063896
 30
0.0
 40
11.30993649053893
100
AcDbArc
 50
314.638356793
 51
67.9957718913
  0
ARC
  5
29D
330
1F
100
AcDbEntity
  8
0
  6
Continuous
 62
     8
370
    25
100
AcDbCircle
 10
81.2139512995
 20
296.0415063896
 30
0.0
 40
11.30993649053893
100
AcDbArc
 50
67.9957718913
 51
225.6170938029
  0
LINE
  5
29E
330
1F
100
AcDbEntity
  8
0
  6
Continuous
 62
     8
370
    25
100
AcDbLine
 10
72.7503287867
 20
284.3078934063
 30
0.0
 11
73.3139512995
 21
284.006713301
 31
0.0
  0
SPLINE
  5
29F
330
1F
100
AcDbEntity
  8
0
  6
Continuous
 62
     8
370
    25
100
AcDbSpline
210
0.0
220
0.0
230
1.0
 70
     8
 71
     3
 72
    10
 73
     6
 74
     0
 42
0.00000001
 43
0.00000001
 40
0.0
 40
0.0
 40
0.0
 40
0.0
 40
0.074252668089136
 40
0.3864770308791595
 40
1.0
 40
1.0
 40
1.0
 40
1.0
 10
89.1139512995385
 20
284.1512002302039
 30
0.0
 10
89.20680276503538
 20
284.2150463827988
 30
0.0
 10
89.69008450590069
 20
284.547358636661
 30
0.0
 10
90.88125019208978
 20
285.4916036841796
 30
0.0
 10
91.90448073319416
 20
286.455103468249
 30
0.0
 10
92.58260900646468
 20
287.093646219487
 30
0.0
  0
LINE
  5
2A0
330
1F
100
AcDbEntity
  8
0
  6
Continuous
 62
     8
370
    25
100
AcDbLine
 10
164.9793998533
 20
294.8189683613
 30
0.0
 11
164.7581570294
 21
294.8189683613
 31
0.0
  0
LINE
  5
2A1
330
1F
100
AcDbEntity
  8
0
  6
Continuous
 62
     8
370
    25
100
AcDbLine
 10
164.8564879865
 20
297.5047393519
 30
0.0
 11
164.9793998533
 21
297.5047393519
 31
0.0
  0
LINE
  5
2A2
330
1F
100
AcDbEntity
  8
0
  6
Continuous
 62
     8
370
    25
100
AcDbLine
 10
164.9793998533
 20
295.2121085543
 30
0.0
 11
164.7584633796
 21
295.2121085543
 31
0.0
  0
LINE
  5
2A3
330
1F
100
AcDbEntity
  8
0
  6
Continuous
 62
     8
370
    25
100
AcDbLine
 10
164.0238833036
 20
290.1163887555
 30
0.0
 11
164.0238833036
 21
301.9666341608
 31
0.0
  0
LINE
  5
2A4
330
1F
100
AcDbEntity
  8
0
  6
Continuous
 62
     8
370
    25
100
AcDbLine
 10
157.5519952567
 20
288.0930524561
 30
0.0
 11
157.5519952567
 21
287.0658483454
 31
0.0
  0
LINE
  5
2A5
330
1F
100
AcDbEntity
  8
0
  6
Continuous
 62
     8
370
    25
100
AcDbLine
 10
156.6185750428
 20
305.0334573443
 30
0.0
 11
156.6185750428
 21
304.3753606207
 31
0.0
  0
LINE
  5
2A6
330
1F
100
AcDbEntity
  8
0
  6
Continuous
 62
     8
370
    25
100
AcDbLine
 10
161.9226775028
 20
287.1421388878
 30
0.0
 11
161.9226775028
 21
304.9408738915
 31
0.0
  0
SPLINE
  5
2A7
330
1F
100
AcDbEntity
  8
0
  6
Continuous
 62
     8
370
    25
100
AcDbSpline
210
0.0
220
0.0
230
1.0
 70
     8
 71
     3
 72
    10
 73
     6
 74
     0
 42
0.00000001
 43
0.00000001
 40
0.0
 40
0.0
 40
0.0
 40
0.0
 40
0.318161051174318
 40
0.9755222981320245
 40
1.0
 40
1.0
 40
1.0
 40
1.0
 10
157.5073889235051
 20
288.0922854755747
 30
0.0
 10
157.3173693162233
 20
287.8829534742799
 30
0.0
 10
156.7347450028401
 20
287.2411149015762
 30
0.0
 10
156.1061492957754
 20
286.7245663987021
 30
0.0
 10
155.7594279220042
 20
286.5464525629264
 30
0.0
 10
155.7469807855755
 20
286.5400583588725
 30
0.0
  0
ARC
  5
2A8
330
1F
100
AcDbEntity
  8
0
  6
Continuous
 62
     8
370
    25
100
AcDbCircle
 10
152.2029038087
 20
285.9957619175
 30
0.0
 40
1.920959209467999
100
AcDbArc
 50
268.5765711659
 51
339.0967445013
  0
SPLINE
  5
2A9
330
1F
100
AcDbEntity
  8
0
  6
Continuous
 62
     8
370
    25
100
AcDbSpline
210
0.0
220
0.0
230
1.0
 70
     8
 71
     3
 72
    11
 73
     7
 74
     0
 42
0.00000001
 43
0.00000001
 40
0.0
 40
0.0
 40
0.0
 40
0.0
 40
0.1869850297061659
 40
0.8392317873888431
 40
0.8428766719154442
 40
1.0
 40
1.0
 40
1.0
 40
1.0
 10
155.4658926878089
 20
305.2973539978626
 30
0.0
 10
155.5312699071538
 20
305.2712694531903
 30
0.0
 10
155.8246978929751
 20
305.154196021788
 30
0.0
 10
156.1540557676632
 20
304.8457491847611
 30
0.0
 10
156.4644292111655
 20
304.5152784891761
 30
0.0
 10
156.5259322457223
 20
304.4448281927632
 30
0.0
 10
156.5860409035217
 20
304.3759751225129
 30
0.0
  0
ARC
  5
2AA
330
1F
100
AcDbEntity
  8
0
  6
Continuous
 62
     8
370
    25
100
AcDbCircle
 10
152.0714892957
 20
305.3611156977
 30
0.0
 40
2.003237790472723
100
AcDbArc
 50
30.4758311854
 51
89.2172412684
  0
LINE
  5
2AB
330
1F
100
AcDbEntity
  8
0
  6
Continuous
 62
     8
370
    25
100
AcDbLine
 10
152.0988561124
 20
283.7411789075
 30
0.0
 11
152.0988561124
 21
283.7957530452
 31
0.0
  0
LINE
  5
2AC
330
1F
100
AcDbEntity
  8
0
  6
Continuous
 62
     8
370
    25
100
AcDbLine
 10
148.0726775028
 20
284.0067946126
 30
0.0
 11
148.0726775028
 21
283.6709016985
 31
0.0
  0
ARC
  5
2AD
330
1F
100
AcDbEntity
  8
0
  6
Continuous
 62
     8
370
    25
100
AcDbCircle
 10
152.0676220509
 20
285.7942357383
 30
0.0
 40
1.998726755009096
100
AcDbArc
 50
270.8953964028
 51
342.1908680834
  0
ARC
  5
2AE
330
1F
100
AcDbEntity
  8
0
  6
Continuous
 62
     8
370
    25
100
AcDbCircle
 10
152.0712522797
 20
305.3984030342
 30
0.0
 40
2.002692308936989
100
AcDbArc
 50
29.678108929
 51
89.210246533
  0
LINE
  5
2AF
330
1F
100
AcDbEntity
  8
0
  6
Continuous
 62
     8
370
    25
100
AcDbLine
 10
152.0988561124
 20
307.4009050973
 30
0.0
 11
152.0988561124
 21
307.5369266009
 31
0.0
  0
LINE
  5
2B0
330
1F
100
AcDbEntity
  8
0
  6
Continuous
 62
     8
370
    25
100
AcDbLine
 10
148.0726775028
 20
307.60720381
 30
0.0
 11
148.0726775028
 21
307.470111803
 31
0.0
  0
SPLINE
  5
2B1
330
1F
100
AcDbEntity
  8
0
  6
Continuous
 62
     8
370
    25
100
AcDbSpline
210
0.0
220
0.0
230
1.0
 70
     8
 71
     3
 72
    14
 73
    10
 74
     0
 42
0.00000001
 43
0.00000001
 40
0.0
 40
0.0
 40
0.0
 40
0.0
 40
0.0123108749913156
 40
0.2408570765526072
 40
0.4688110399357272
 40
0.6205762062464876
 40
0.7719187436748788
 40
0.9696012695241726
 40
1.0
 40
1.0
 40
1.0
 40
1.0
 10
91.45008141167587
 20
308.093788108482
 30
0.0
 10
91.42297121112895
 20
308.1141897719211
 30
0.0
 10
90.89257157234698
 20
308.5133397118092
 30
0.0
 10
89.74218846808094
 20
309.286785705153
 30
0.0
 10
87.89854345347264
 20
310.2117393850593
 30
0.0
 10
85.98697407575709
 20
310.8918779561285
 30
0.0
 10
83.95156907034402
 20
311.3708277721381
 30
0.0
 10
82.21328346713685
 20
311.5702404474314
 30
0.0
 10
81.17085184539962
 20
311.5422996115727
 30
0.0
 10
81.03191628173586
 20
311.5385756495417
 30
0.0
  0
SPLINE
  5
2B2
330
1F
100
AcDbEntity
  8
0
  6
Continuous
 62
     8
370
    25
100
AcDbSpline
210
0.0
220
0.0
230
1.0
 70
     8
 71
     3
 72
    14
 73
    10
 74
     0
 42
0.00000001
 43
0.00000001
 40
0.0
 40
0.0
 40
0.0
 40
0.0
 40
0.1044292017824094
 40
0.1340615474055178
 40
0.3014839238341473
 40
0.4693499367104731
 40
0.7082899058249732
 40
0.9474406573145361
 40
1.0
 40
1.0
 40
1.0
 40
1.0
 10
77.21877775633176
 20
311.0665238112308
 30
0.0
 10
76.69550591604903
 20
310.9240504300263
 30
0.0
 10
76.0237528869662
 20
310.7411494634159
 30
0.0
 10
74.65890254790841
 20
310.2434408594901
 30
0.0
 10
73.17401032648854
 20
309.5584274527324
 30
0.0
 10
71.26694956872417
 20
308.367322367558
 30
0.0
 10
69.57771124692619
 20
306.9791422847483
 30
0.0
 10
68.55343193105097
 20
305.9061692272365
 30
0.0
 10
68.10584264301266
 20
305.3934735431917
 30
0.0
 10
68.02519751196611
 20
305.3010977609025
 30
0.0
  0
SPLINE
  5
2B3
330
1F
100
AcDbEntity
  8
0
  6
Continuous
 62
     8
370
    25
100
AcDbSpline
210
0.0
220
0.0
230
1.0
 70
     8
 71
     3
 72
    11
 73
     7
 74
     0
 42
0.00000001
 43
0.00000001
 40
0.0
 40
0.0
 40
0.0
 40
0.0
 40
0.2022939240122824
 40
0.4778532386005682
 40
0.7423519846520141
 40
0.9999999999999999
 40
0.9999999999999999
 40
0.9999999999999999
 40
0.9999999999999999
 10
89.1139512995385
 20
282.1685249542726
 30
0.0
 10
89.52845360774303
 20
282.4435851048785
 30
0.0
 10
90.50757975475928
 20
283.093324756817
 30
0.0
 10
92.00003890114819
 20
284.477312735156
 30
0.0
 10
93.54052463212082
 20
286.2410815258879
 30
0.0
 10
94.41145455643668
 20
287.7809289309384
 30
0.0
 10
94.8412060805211
 20
288.5407509909024
 30
0.0
  0
SPLINE
  5
2B4
330
1F
100
AcDbEntity
  8
0
  6
Continuous
 62
     8
370
    25
100
AcDbSpline
210
0.0
220
0.0
230
1.0
 70
     8
 71
     3
 72
    15
 73
    11
 74
     0
 42
0.00000001
 43
0.00000001
 40
0.0
 40
0.0
 40
0.0
 40
0.0
 40
0.0028133208985921
 40
0.230931932489908
 40
0.3187786982030316
 40
0.4531567066436465
 40
0.5877263796889652
 40
0.6596370077953219
 40
0.8547668116603324
 40
1.0
 40
1.0
 40
1.0
 40
1.0
 10
96.19145945682033
 20
292.2176259723556
 30
0.0
 10
96.19468919701806
 20
292.2283295529274
 30
0.0
 10
96.45980297969304
 20
293.1069348152146
 30
0.0
 10
96.61368353102634
 20
294.5551938433713
 30
0.0
 10
96.6577010231111
 20
296.5493130379333
 30
0.0
 10
96.53675555937406
 20
298.1320489630897
 30
0.0
 10
96.27980802995786
 20
299.5655773866731
 30
0.0
 10
95.86326528418206
 20
301.1445796257326
 30
0.0
 10
95.32246397694699
 20
302.6480646680802
 30
0.0
 10
94.76162915650607
 20
303.6661232500973
 30
0.0
 10
94.52232044501267
 20
304.1005297430746
 30
0.0
  0
LINE
  5
2B5
330
1F
100
AcDbEntity
  8
0
  6
Continuous
 62
     8
370
    25
100
AcDbLine
 10
92.5861963434
 20
306.8693516302
 30
0.0
 11
91.4500814117
 21
308.0937881085
 31
0.0
  0
ARC
  5
2B6
330
1F
100
AcDbEntity
  8
0
  6
Continuous
 62
     8
370
    25
100
AcDbCircle
 10
81.2139512995
 20
296.0415063896
 30
0.0
 40
16.11469077681543
100
AcDbArc
 50
144.927984031
 51
240.4848429911
  0
ARC
  5
2B7
330
1F
100
AcDbEntity
  8
0
  6
Continuous
 62
     8
370
    25
100
AcDbCircle
 10
90.9845108135
 20
276.3167460921
 30
0.0
 40
6.018318501314018
100
AcDbArc
 50
69.4300646674
 51
108.4452999631
  0
LINE
  5
2B8
330
1F
100
AcDbEntity
  8
0
  6
Continuous
 62
     8
370
    25
100
AcDbLine
 10
106.2317317636
 20
359.9049485496
 30
0.0
 11
56.1961708355
 21
359.9049485496
 31
0.0
  0
LINE
  5
2B9
330
1F
100
AcDbEntity
  8
0
  6
Continuous
 62
     8
370
    25
100
AcDbLine
 10
55.9139512995
 20
360.3550281754
 30
0.0
 11
106.5139512995
 21
360.3550281754
 31
0.0
  0
LINE
  5
2BA
330
1F
100
AcDbEntity
  8
0
  6
Continuous
 62
     8
370
    25
100
AcDbLine
 10
106.5139512995
 20
363.5415063896
 30
0.0
 11
55.9139512995
 21
363.5415063896
 31
0.0
  0
LINE
  5
2BB
330
1F
100
AcDbEntity
  8
0
  6
Continuous
 62
     8
370
    25
100
AcDbLine
 10
64.0850731557
 20
356.0877377495
 30
0.0
 11
98.3428294433
 21
356.0877377495
 31
0.0
  0
SPLINE
  5
2BC
330
1F
100
AcDbEntity
  8
0
  6
Continuous
 62
     8
370
    25
100
AcDbSpline
210
0.0
220
0.0
230
1.0
 70
     8
 71
     3
 72
    10
 73
     6
 74
     0
 42
0.00000001
 43
0.00000001
 40
0.0
 40
0.0
 40
0.0
 40
0.0
 40
0.0002867563780401
 40
0.8869565439415643
 40
1.0
 40
1.0
 40
1.0
 40
1.0
 10
65.19140276768526
 20
354.5869474030135
 30
0.0
 10
65.19139761640797
 20
354.5869639172185
 30
0.0
 10
65.17546437325991
 20
354.6380434510844
 30
0.0
 10
65.21236751095527
 20
354.542101983565
 30
0.0
 10
65.24182197487139
 20
354.427576639004
 30
0.0
 10
65.24515256433658
 20
354.4146265847379
 30
0.0
  0
LINE
  5
2BD
330
1F
100
AcDbEntity
  8
0
  6
Continuous
 62
     8
370
    25
100
AcDbLine
 10
97.1827500347
 20
354.4146265847
 30
0.0
 11
97.2365003725
 21
354.5869491378
 31
0.0
  0
SPLINE
  5
2BE
330
1F
100
AcDbEntity
  8
0
  6
Continuous
 62
     8
370
    25
100
AcDbSpline
210
0.0
220
0.0
230
1.0
 70
     8
 71
     3
 72
    13
 73
     9
 74
     0
 42
0.00000001
 43
0.00000001
 40
0.0
 40
0.0
 40
0.0
 40
0.0
 40
0.0624921984852712
 40
0.280165255553228
 40
0.3469311675061709
 40
0.5028718320925426
 40
0.6630421850501997
 40
1.0
 40
1.0
 40
1.0
 40
1.0
 10
104.5908700260141
 20
311.5484642809805
 30
0.0
 10
104.5849163233205
 20
311.5453100279664
 30
0.0
 10
104.5582246613681
 20
311.5311688691787
 30
0.0
 10
104.1218654734867
 20
311.2999484833924
 30
0.0
 10
103.2927675167464
 20
310.8641197859896
 30
0.0
 10
102.3849153555018
 20
310.3904397926756
 30
0.0
 10
100.5491051703595
 20
309.4415553623872
 30
0.0
 10
98.85585386123766
 20
308.6083516402878
 30
0.0
 10
97.7081533322489
 20
308.0435988788652
 30
0.0
  0
LINE
  5
2BF
330
1F
100
AcDbEntity
  8
0
  6
Continuous
 62
     8
370
    25
100
AcDbLine
 10
93.09904957
 20
281.9513608465
 30
0.0
 11
93.09904957
 21
280.2904637084
 31
0.0
  0
LINE
  5
2C0
330
1F
100
AcDbEntity
  8
0
  6
Continuous
 62
     8
370
    25
100
AcDbLine
 10
67.8938683962
 20
309.8850919587
 30
0.0
 11
68.1426808982
 21
309.8850919587
 31
0.0
  0
SPLINE
  5
2C1
330
1F
100
AcDbEntity
  8
0
  6
Continuous
 62
     8
370
    25
100
AcDbSpline
210
0.0
220
0.0
230
1.0
 70
     8
 71
     3
 72
    13
 73
     9
 74
     0
 42
0.00000001
 43
0.00000001
 40
0.0
 40
0.0
 40
0.0
 40
0.0
 40
0.3303824594534193
 40
0.4871650594317135
 40
0.6474432086157422
 40
0.862099484333404
 40
0.9364418460707512
 40
0.9999999999999999
 40
0.9999999999999999
 40
0.9999999999999999
 40
0.9999999999999999
 10
90.79864793657997
 20
315.9399357521579
 30
0.0
 10
91.46801658464659
 20
316.8832334954968
 30
0.0
 10
92.45503332202601
 20
318.2741720518467
 30
0.0
 10
93.5139348973541
 20
319.8385658987887
 30
0.0
 10
94.25005573841646
 20
320.9361263042165
 30
0.0
 10
94.6389460367986
 20
321.5233973990699
 30
0.0
 10
94.81017680670656
 20
321.7823033861296
 30
0.0
 10
94.77448944208584
 20
321.7283514618581
 30
0.0
 10
94.75804118587064
 20
321.7034850957604
 30
0.0
  0
LINE
  5
2C2
330
1F
100
AcDbEntity
  8
0
  6
Continuous
 62
     8
370
    25
100
AcDbLine
 10
67.5456936089
 20
338.314621599
 30
0.0
 11
67.2365382311
 21
338.314621599
 31
0.0
  0
LINE
  5
2C3
330
1F
100
AcDbEntity
  8
0
  6
Continuous
 62
     8
370
    25
100
AcDbLine
 10
95.191364368
 20
338.314621599
 30
0.0
 11
94.8822089902
 21
338.314621599
 31
0.0
  0
ARC
  5
2C4
330
1F
100
AcDbEntity
  8
0
  6
Continuous
 62
     8
370
    25
100
AcDbCircle
 10
89.101676223
 20
275.623710376
 30
0.0
 40
5.852375648867933
100
AcDbArc
 50
74.7464732727
 51
90.1548424858
  0
LINE
  5
2C5
330
1F
100
AcDbEntity
  8
0
  6
Continuous
 62
     8
370
    25
100
AcDbLine
 10
89.1139512995
 20
280.8584668423
 30
0.0
 11
90.641381241
 21
281.2699134535
 31
0.0
  0
ARC
  5
2C6
330
1F
100
AcDbEntity
  8
0
  6
Continuous
 62
     8
370
    25
100
AcDbCircle
 10
81.2139512995
 20
296.0415063896
 30
0.0
 40
16.76373439777597
100
AcDbArc
 50
149.2515511975
 51
241.6393095183
  0
LINE
  5
2C7
330
1F
100
AcDbEntity
  8
0
  6
Continuous
 62
     8
370
    25
100
AcDbLine
 10
66.8068584307
 20
304.6122978367
 30
0.0
 11
66.5326184591
 21
304.6122978367
 31
0.0
  0
LINE
  5
2C8
330
1F
100
AcDbEntity
  8
0
  6
Continuous
 62
     8
370
    25
100
AcDbLine
 10
99.2250582985
 20
351.7915063896
 30
0.0
 11
98.8231345098
 21
351.7915063896
 31
0.0
  0
SPLINE
  5
2C9
330
1F
100
AcDbEntity
  8
0
  6
Continuous
 62
     8
370
    25
100
AcDbSpline
210
0.0
220
0.0
230
1.0
 70
    24
 71
     3
 72
     9
 73
     5
 74
     0
 42
0.00000001
 43
0.00000001
 40
0.0
 40
0.0
 40
0.0
 40
0.0
 40
0.0011254209461464
 40
1.0
 40
1.0
 40
1.0
 40
1.0
 10
97.95234028372198
 20
353.4750729504167
 30
0.0
 10
97.95237435541186
 20
353.4750935713911
 30
0.0
 10
97.9826489739904
 20
353.4934164704095
 30
0.0
 10
97.9222018369977
 20
353.4568324657504
 30
0.0
 10
97.86182272847911
 20
353.4202896334963
 30
0.0
  0
LINE
  5
2CA
330
1F
100
AcDbEntity
  8
0
  6
Continuous
 62
     8
370
    25
100
AcDbLine
 10
98.8231345098
 20
341.0415063896
 30
0.0
 11
99.2250582985
 21
341.0415063896
 31
0.0
  0
LINE
  5
2CB
330
1F
100
AcDbEntity
  8
0
  6
Continuous
 62
     8
370
    25
100
AcDbLine
 10
63.6047680893
 20
351.7915063896
 30
0.0
 11
63.2028443006
 21
351.7915063896
 31
0.0
  0
LINE
  5
2CC
330
1F
100
AcDbEntity
  8
0
  6
Continuous
 62
     8
370
    25
100
AcDbLine
 10
63.2028443006
 20
341.0415063896
 30
0.0
 11
63.6047680893
 21
341.0415063896
 31
0.0
  0
LINE
  5
2CD
330
1F
100
AcDbEntity
  8
0
  6
Continuous
 62
     8
370
    25
100
AcDbLine
 10
64.5660798706
 20
353.4202896335
 30
0.0
 11
64.4756771549
 21
353.4750034469
 31
0.0
  0
ENDSEC
  0
SECTION
  2
OBJECTS
  0
DICTIONARY
  5
C
330
0
100
AcDbDictionary
281
     1
  3
ACAD_GROUP
350
D
  3
ACAD_LAYOUT
350
1A
  3
ACAD_MLINESTYLE
350
17
  3
ACAD_PLOTSETTINGS
350
19
  3
ACAD_PLOTSTYLENAME
350
E
  3
ACAD_SCALELIST
350
47
  3
DWGPROPS
350
2CE
  0
DICTIONARY
  5
D
102
{ACAD_REACTORS
330
C
102
}
330
C
100
AcDbDictionary
281
     1
  0
DICTIONARY
  5
1A
102
{ACAD_REACTORS
330
C
102
}
330
C
100
AcDbDictionary
281
     1
  3
Layout1
350
1E
  3
Layout2
350
26
  3
Model
350
22
  0
DICTIONARY
  5
17
102
{ACAD_REACTORS
330
C
102
}
330
C
100
AcDbDictionary
281
     1
  3
Standard
350
18
  0
DICTIONARY
  5
19
102
{ACAD_REACTORS
330
C
102
}
330
C
100
AcDbDictionary
281
     1
  0
ACDBDICTIONARYWDFLT
  5
E
102
{ACAD_REACTORS
330
C
102
}
330
C
100
AcDbDictionary
281
     1
  3
Normal
350
F
100
AcDbDictionaryWithDefault
340
F
  0
DICTIONARY
  5
47
102
{ACAD_REACTORS
330
C
102
}
330
C
100
AcDbDictionary
281
     1
  3
A0
350
48
  3
A1
350
49
  3
A2
350
4A
  3
A3
350
4B
  3
A4
350
4C
  3
A5
350
4D
  3
A6
350
4E
  3
A7
350
4F
  3
A8
350
50
  3
A9
350
51
  3
B0
350
52
  3
B1
350
53
  3
B2
350
54
  3
B3
350
55
  3
B4
350
56
  3
B5
350
57
  3
B6
350
58
  3
B7
350
59
  3
B8
350
5A
  3
B9
350
5B
  3
C0
350
5C
  3
C1
350
5D
  3
C2
350
5E
  3
C3
350
5F
  3
C4
350
60
  3
C5
350
61
  3
C6
350
62
  3
C7
350
63
  3
C8
350
64
  3
C9
350
65
  3
D0
350
66
  3
D1
350
67
  3
D2
350
68
  0
XRECORD
  5
2CE
102
{ACAD_REACTORS
330
C
102
}
330
C
100
AcDbXrecord
280
     1
  1
DWGPROPS COOKIE
  2

  3

  4

  6

  7

  8
vishesh
  9

300
=
301
=
302
=
303
=
304
=
305
=
306
=
307
=
308
=
309
=
 40
0.0
 41
2460383.494403438
 42
2460383.494403831
  1

 90
        0
  0
LAYOUT
  5
1E
102
{ACAD_REACTORS
330
1A
102
}
330
1A
100
AcDbPlotSettings
  1

  2
none_device
  4

  6

 40
0.0
 41
0.0
 42
0.0
 43
0.0
 44
0.0
 45
0.0
 46
0.0
 47
0.0
 48
0.0
 49
0.0
140
0.0
141
0.0
142
1.0
143
1.0
 70
   688
 72
     1
 73
     0
 74
     5
  7

 75
    16
147
1.0
148
0.0
149
0.0
100
AcDbLayout
  1
Layout1
 70
     1
 71
     1
 10
0.0
 20
0.0
 11
420.0
 21
297.0
 12
0.0
 22
0.0
 32
0.0
 14
1.0000000000E+20
 24
1.0000000000E+20
 34
1.0000000000E+20
 15
-1.0000000000E+20
 25
-1.0000000000E+20
 35
-1.0000000000E+20
146
0.0
 13
0.0
 23
0.0
 33
0.0
 16
1.0
 26
0.0
 36
0.0
 17
0.0
 27
1.0
 37
0.0
 76
     0
330
1B
  0
LAYOUT
  5
26
102
{ACAD_REACTORS
330
1A
102
}
330
1A
100
AcDbPlotSettings
  1

  2
none_device
  4

  6

 40
0.0
 41
0.0
 42
0.0
 43
0.0
 44
0.0
 45
0.0
 46
0.0
 47
0.0
 48
0.0
 49
0.0
140
0.0
141
0.0
142
1.0
143
1.0
 70
   688
 72
     1
 73
     0
 74
     5
  7

 75
    16
147
1.0
148
0.0
149
0.0
100
AcDbLayout
  1
Layout2
 70
     1
 71
     2
 10
0.0
 20
0.0
 11
0.0
 21
0.0
 12
0.0
 22
0.0
 32
0.0
 14
0.0
 24
0.0
 34
0.0
 15
0.0
 25
0.0
 35
0.0
146
0.0
 13
0.0
 23
0.0
 33
0.0
 16
1.0
 26
0.0
 36
0.0
 17
0.0
 27
1.0
 37
0.0
 76
     0
330
23
  0
LAYOUT
  5
22
102
{ACAD_REACTORS
330
1A
102
}
330
1A
100
AcDbPlotSettings
  1

  2
none_device
  4
Letter_(8.50_x_11.00_Inches)
  6

 40
6.35
 41
6.35
 42
6.35000508
 43
6.35000508
 44
215.9
 45
279.4
 46
0.0
 47
0.0
 48
0.0
 49
0.0
140
0.0
141
0.0
142
1.0
143
1.0
 70
  1712
 72
     1
 73
     0
 74
     0
  7

 75
     0
147
1.0
148
0.0
149
0.0
100
AcDbLayout
  1
Model
 70
     1
 71
     0
 10
0.0
 20
0.0
 11
279.4
 21
215.9
 12
0.0
 22
0.0
 32
0.0
 14
0.0
 24
0.0
 34
0.0
 15
279.4
 25
215.9
 35
0.0
146
0.0
 13
0.0
 23
0.0
 33
0.0
 16
1.0
 26
0.0
 36
0.0
 17
0.0
 27
1.0
 37
0.0
 76
     0
330
1F
331
29
  0
MLINESTYLE
  5
18
102
{ACAD_REACTORS
330
17
102
}
330
17
100
AcDbMlineStyle
  2
Standard
 70
     0
  3

 62
   256
 51
90.0
 52
90.0
 71
     2
 49
0.5
 62
   256
  6
BYLAYER
 49
-0.5
 62
   256
  6
BYLAYER
  0
ACDBPLACEHOLDER
  5
F
102
{ACAD_REACTORS
330
E
102
}
330
E
  0
SCALE
  5
48
102
{ACAD_REACTORS
330
47
102
}
330
47
100
AcDbScale
 70
     0
300
1:1
140
1.0
141
1.0
290
     1
  0
SCALE
  5
49
102
{ACAD_REACTORS
330
47
102
}
330
47
100
AcDbScale
 70
     0
300
1:2
140
1.0
141
2.0
290
     0
  0
SCALE
  5
4A
102
{ACAD_REACTORS
330
47
102
}
330
47
100
AcDbScale
 70
     0
300
1:4
140
1.0
141
4.0
290
     0
  0
SCALE
  5
4B
102
{ACAD_REACTORS
330
47
102
}
330
47
100
AcDbScale
 70
     0
300
1:5
140
1.0
141
5.0
290
     0
  0
SCALE
  5
4C
102
{ACAD_REACTORS
330
47
102
}
330
47
100
AcDbScale
 70
     0
300
1:8
140
1.0
141
8.0
290
     0
  0
SCALE
  5
4D
102
{ACAD_REACTORS
330
47
102
}
330
47
100
AcDbScale
 70
     0
300
1:10
140
1.0
141
10.0
290
     0
  0
SCALE
  5
4E
102
{ACAD_REACTORS
330
47
102
}
330
47
100
AcDbScale
 70
     0
300
1:16
140
1.0
141
16.0
290
     0
  0
SCALE
  5
4F
102
{ACAD_REACTORS
330
47
102
}
330
47
100
AcDbScale
 70
     0
300
1:20
140
1.0
141
20.0
290
     0
  0
SCALE
  5
50
102
{ACAD_REACTORS
330
47
102
}
330
47
100
AcDbScale
 70
     0
300
1:30
140
1.0
141
30.0
290
     0
  0
SCALE
  5
51
102
{ACAD_REACTORS
330
47
102
}
330
47
100
AcDbScale
 70
     0
300
1:40
140
1.0
141
40.0
290
     0
  0
SCALE
  5
52
102
{ACAD_REACTORS
330
47
102
}
330
47
100
AcDbScale
 70
     0
300
1:50
140
1.0
141
50.0
290
     0
  0
SCALE
  5
53
102
{ACAD_REACTORS
330
47
102
}
330
47
100
AcDbScale
 70
     0
300
1:100
140
1.0
141
100.0
290
     0
  0
SCALE
  5
54
102
{ACAD_REACTORS
330
47
102
}
330
47
100
AcDbScale
 70
     0
300
2:1
140
2.0
141
1.0
290
     0
  0
SCALE
  5
55
102
{ACAD_REACTORS
330
47
102
}
330
47
100
AcDbScale
 70
     0
300
4:1
140
4.0
141
1.0
290
     0
  0
SCALE
  5
56
102
{ACAD_REACTORS
330
47
102
}
330
47
100
AcDbScale
 70
     0
300
8:1
140
8.0
141
1.0
290
     0
  0
SCALE
  5
57
102
{ACAD_REACTORS
330
47
102
}
330
47
100
AcDbScale
 70
     0
300
10:1
140
10.0
141
1.0
290
     0
  0
SCALE
  5
58
102
{ACAD_REACTORS
330
47
102
}
330
47
100
AcDbScale
 70
     0
300
100:1
140
100.0
141
1.0
290
     0
  0
SCALE
  5
59
102
{ACAD_REACTORS
330
47
102
}
330
47
100
AcDbScale
 70
     0
300
1/128" = 1'-0"
140
0.0078125
141
12.0
290
     0
  0
SCALE
  5
5A
102
{ACAD_REACTORS
330
47
102
}
330
47
100
AcDbScale
 70
     0
300
1/64" = 1'-0"
140
0.015625
141
12.0
290
     0
  0
SCALE
  5
5B
102
{ACAD_REACTORS
330
47
102
}
330
47
100
AcDbScale
 70
     0
300
1/32" = 1'-0"
140
0.03125
141
12.0
290
     0
  0
SCALE
  5
5C
102
{ACAD_REACTORS
330
47
102
}
330
47
100
AcDbScale
 70
     0
300
1/16" = 1'-0"
140
0.0625
141
12.0
290
     0
  0
SCALE
  5
5D
102
{ACAD_REACTORS
330
47
102
}
330
47
100
AcDbScale
 70
     0
300
3/32" = 1'-0"
140
0.09375
141
12.0
290
     0
  0
SCALE
  5
5E
102
{ACAD_REACTORS
330
47
102
}
330
47
100
AcDbScale
 70
     0
300
1/8" = 1'-0"
140
0.125
141
12.0
290
     0
  0
SCALE
  5
5F
102
{ACAD_REACTORS
330
47
102
}
330
47
100
AcDbScale
 70
     0
300
3/16" = 1'-0"
140
0.1875
141
12.0
290
     0
  0
SCALE
  5
60
102
{ACAD_REACTORS
330
47
102
}
330
47
100
AcDbScale
 70
     0
300
1/4" = 1'-0"
140
0.25
141
12.0
290
     0
  0
SCALE
  5
61
102
{ACAD_REACTORS
330
47
102
}
330
47
100
AcDbScale
 70
     0
300
3/8" = 1'-0"
140
0.375
141
12.0
290
     0
  0
SCALE
  5
62
102
{ACAD_REACTORS
330
47
102
}
330
47
100
AcDbScale
 70
     0
300
1/2" = 1'-0"
140
0.5
141
12.0
290
     0
  0
SCALE
  5
63
102
{ACAD_REACTORS
330
47
102
}
330
47
100
AcDbScale
 70
     0
300
3/4" = 1'-0"
140
0.75
141
12.0
290
     0
  0
SCALE
  5
64
102
{ACAD_REACTORS
330
47
102
}
330
47
100
AcDbScale
 70
     0
300
1" = 1'-0"
140
1.0
141
12.0
290
     0
  0
SCALE
  5
65
102
{ACAD_REACTORS
330
47
102
}
330
47
100
AcDbScale
 70
     0
300
1-1/2" = 1'-0"
140
1.5
141
12.0
290
     0
  0
SCALE
  5
66
102
{ACAD_REACTORS
330
47
102
}
330
47
100
AcDbScale
 70
     0
300
3" = 1'-0"
140
3.0
141
12.0
290
     0
  0
SCALE
  5
67
102
{ACAD_REACTORS
330
47
102
}
330
47
100
AcDbScale
 70
     0
300
6" = 1'-0"
140
6.0
141
12.0
290
     0
  0
SCALE
  5
68
102
{ACAD_REACTORS
330
47
102
}
330
47
100
AcDbScale
 70
     0
300
1'-0" = 1'-0"
140
12.0
141
12.0
290
     0
  0
ENDSEC
  0
EOF
