  0
SECTION
  2
HEADER
  9
$ACADVER
  1
AC1015
  9
$ACADMAINTVER
 70
     6
  9
$DWGCODEPAGE
  3
ANSI_1252
  9
$INSBASE
 10
0.0
 20
0.0
 30
0.0
  9
$EXTMIN
 10
0.0
 20
0.0
 30
0.0
  9
$EXTMAX
 10
279.4
 20
215.9
 30
0.0
  9
$LIMMIN
 10
0.0
 20
0.0
  9
$LIMMAX
 10
279.4
 20
215.9
  9
$ORTHOMODE
 70
     0
  9
$REGENMODE
 70
     1
  9
$FILLMODE
 70
     1
  9
$QTEXTMODE
 70
     0
  9
$MIRRTEXT
 70
     1
  9
$LTSCALE
 40
1.0
  9
$ATTMODE
 70
     1
  9
$TEXTSIZE
 40
3.5
  9
$TRACEWID
 40
1.0
  9
$TEXTSTYLE
  7
Standard
  9
$CLAYER
  8
0
  9
$CELTYPE
  6
ByLayer
  9
$CECOLOR
 62
   256
  9
$CELTSCALE
 40
1.0
  9
$DISPSILH
 70
     0
  9
$DIMSCALE
 40
1.0
  9
$DIMASZ
 40
3.556
  9
$DIMEXO
 40
1.0
  9
$DIMDLI
 40
3.75
  9
$DIMRND
 40
0.0
  9
$DIMDLE
 40
0.0
  9
$DIMEXE
 40
1.0
  9
$DIMTP
 40
0.0
  9
$DIMTM
 40
0.0
  9
$DIMTXT
 40
3.5
  9
$DIMCEN
 40
2.5
  9
$DIMTSZ
 40
0.0
  9
$DIMTOL
 70
     0
  9
$DIMLIM
 70
     0
  9
$DIMTIH
 70
     1
  9
$DIMTOH
 70
     1
  9
$DIMSE1
 70
     0
  9
$DIMSE2
 70
     0
  9
$DIMTAD
 70
     1
  9
$DIMZIN
 70
     1
  9
$DIMBLK
  1

  9
$DIMASO
 70
     1
  9
$DIMSHO
 70
     1
  9
$DIMPOST
  1

  9
$DIMAPOST
  1

  9
$DIMALT
 70
     0
  9
$DIMALTD
 70
     3
  9
$DIMALTF
 40
0.0393700787
  9
$DIMLFAC
 40
10.0
  9
$DIMTOFL
 70
     1
  9
$DIMTVP
 40
0.0
  9
$DIMTIX
 70
     0
  9
$DIMSOXD
 70
     0
  9
$DIMSAH
 70
     0
  9
$DIMBLK1
  1

  9
$DIMBLK2
  1

  9
$DIMSTYLE
  2
ISO-25
  9
$DIMCLRD
 70
     0
  9
$DIMCLRE
 70
     0
  9
$DIMCLRT
 70
     0
  9
$DIMTFAC
 40
1.0
  9
$DIMGAP
 40
1.524
  9
$DIMJUST
 70
     0
  9
$DIMSD1
 70
     0
  9
$DIMSD2
 70
     0
  9
$DIMTOLJ
 70
     0
  9
$DIMTZIN
 70
     1
  9
$DIMALTZ
 70
     0
  9
$DIMALTTZ
 70
     0
  9
$DIMUPT
 70
     0
  9
$DIMDEC
 70
     2
  9
$DIMTDEC
 70
     2
  9
$DIMALTU
 70
     2
  9
$DIMALTTD
 70
     3
  9
$DIMTXSTY
  7
Standard
  9
$DIMAUNIT
 70
     0
  9
$DIMADEC
 70
     2
  9
$DIMALTRND
 40
0.0
  9
$DIMAZIN
 70
     0
  9
$DIMDSEP
 70
    44
  9
$DIMATFIT
 70
     3
  9
$DIMFRAC
 70
     0
  9
$DIMLDRBLK
  1

  9
$DIMLUNIT
 70
     2
  9
$DIMLWD
 70
    -2
  9
$DIMLWE
 70
    -2
  9
$DIMTMOVE
 70
     0
  9
$LUNITS
 70
     2
  9
$LUPREC
 70
     2
  9
$SKETCHINC
 40
1.0
  9
$FILLETRAD
 40
10.0
  9
$AUNITS
 70
     0
  9
$AUPREC
 70
     2
  9
$MENU
  1
.
  9
$ELEVATION
 40
0.0
  9
$PELEVATION
 40
0.0
  9
$THICKNESS
 40
0.0
  9
$LIMCHECK
 70
     0
  9
$CHAMFERA
 40
0.0
  9
$CHAMFERB
 40
0.0
  9
$CHAMFERC
 40
0.0
  9
$CHAMFERD
 40
0.0
  9
$SKPOLY
 70
     0
  9
$TDCREATE
 40
2460383.727978704
  9
$TDUCREATE
 40
2460383.498812037
  9
$TDUPDATE
 40
2460383.727979167
  9
$TDUUPDATE
 40
2460383.4988125
  9
$TDINDWG
 40
0.0000000116
  9
$TDUSRTIMER
 40
0.0000000116
  9
$USRTIMER
 70
     1
  9
$ANGBASE
 50
0.0
  9
$ANGDIR
 70
     0
  9
$PDMODE
 70
     0
  9
$PDSIZE
 40
-1.0
  9
$PLINEWID
 40
0.0
  9
$SPLFRAME
 70
     0
  9
$SPLINETYPE
 70
     6
  9
$SPLINESEGS
 70
     8
  9
$HANDSEED
  5
2E1
  9
$SURFTAB1
 70
     6
  9
$SURFTAB2
 70
     6
  9
$SURFTYPE
 70
     6
  9
$SURFU
 70
     6
  9
$SURFV
 70
     6
  9
$UCSBASE
  2

  9
$UCSNAME
  2

  9
$UCSORG
 10
0.0
 20
0.0
 30
0.0
  9
$UCSXDIR
 10
1.0
 20
0.0
 30
0.0
  9
$UCSYDIR
 10
0.0
 20
1.0
 30
0.0
  9
$UCSORTHOREF
  2

  9
$UCSORTHOVIEW
 70
     0
  9
$UCSORGTOP
 10
0.0
 20
0.0
 30
0.0
  9
$UCSORGBOTTOM
 10
0.0
 20
0.0
 30
0.0
  9
$UCSORGLEFT
 10
0.0
 20
0.0
 30
0.0
  9
$UCSORGRIGHT
 10
0.0
 20
0.0
 30
0.0
  9
$UCSORGFRONT
 10
0.0
 20
0.0
 30
0.0
  9
$UCSORGBACK
 10
0.0
 20
0.0
 30
0.0
  9
$PUCSBASE
  2

  9
$PUCSNAME
  2

  9
$PUCSORG
 10
0.0
 20
0.0
 30
0.0
  9
$PUCSXDIR
 10
1.0
 20
0.0
 30
0.0
  9
$PUCSYDIR
 10
0.0
 20
1.0
 30
0.0
  9
$PUCSORTHOREF
  2

  9
$PUCSORTHOVIEW
 70
     0
  9
$PUCSORGTOP
 10
0.0
 20
0.0
 30
0.0
  9
$PUCSORGBOTTOM
 10
0.0
 20
0.0
 30
0.0
  9
$PUCSORGLEFT
 10
0.0
 20
0.0
 30
0.0
  9
$PUCSORGRIGHT
 10
0.0
 20
0.0
 30
0.0
  9
$PUCSORGFRONT
 10
0.0
 20
0.0
 30
0.0
  9
$PUCSORGBACK
 10
0.0
 20
0.0
 30
0.0
  9
$USERI1
 70
     0
  9
$USERI2
 70
     0
  9
$USERI3
 70
     0
  9
$USERI4
 70
     0
  9
$USERI5
 70
     0
  9
$USERR1
 40
0.0
  9
$USERR2
 40
0.0
  9
$USERR3
 40
0.0
  9
$USERR4
 40
0.0
  9
$USERR5
 40
0.0
  9
$WORLDVIEW
 70
     1
  9
$SHADEDGE
 70
     3
  9
$SHADEDIF
 70
    70
  9
$TILEMODE
 70
     1
  9
$MAXACTVP
 70
    64
  9
$PINSBASE
 10
0.0
 20
0.0
 30
0.0
  9
$PLIMCHECK
 70
     0
  9
$PEXTMIN
 10
1.0000000000E+20
 20
1.0000000000E+20
 30
1.0000000000E+20
  9
$PEXTMAX
 10
-1.0000000000E+20
 20
-1.0000000000E+20
 30
-1.0000000000E+20
  9
$PLIMMIN
 10
0.0
 20
0.0
  9
$PLIMMAX
 10
420.0
 20
297.0
  9
$UNITMODE
 70
     0
  9
$VISRETAIN
 70
     1
  9
$PLINEGEN
 70
     0
  9
$PSLTSCALE
 70
     1
  9
$TREEDEPTH
 70
  3020
  9
$CMLSTYLE
  2
Standard
  9
$CMLJUST
 70
     0
  9
$CMLSCALE
 40
20.0
  9
$PROXYGRAPHICS
 70
     1
  9
$MEASUREMENT
 70
     1
  9
$CELWEIGHT
370
    -1
  9
$ENDCAPS
280
     0
  9
$JOINSTYLE
280
     0
  9
$LWDISPLAY
290
     1
  9
$INSUNITS
 70
     4
  9
$HYPERLINKBASE
  1

  9
$STYLESHEET
  1

  9
$XEDIT
290
     1
  9
$CEPSNTYPE
380
     0
  9
$PSTYLEMODE
290
     1
  9
$FINGERPRINTGUID
  2
{e0f2b81a-6966-4cd3-8562-5800e8df3d98}
  9
$VERSIONGUID
  2
{FAEB1C32-E019-11D5-929B-00C0DF256EC4}
  9
$EXTNAMES
290
     1
  9
$PSVPSCALE
 40
0.0
  9
$OLESTARTUP
290
     0
  0
ENDSEC
  0
SECTION
  2
CLASSES
  0
CLASS
  1
ACDBDICTIONARYWDFLT
  2
AcDbDictionaryWithDefault
  3
ObjectDBX Classes
 90
        0
280
     0
281
     0
  0
CLASS
  1
VISUALSTYLE
  2
AcDbVisualStyle
  3
ObjectDBX Classes
 90
     4095
280
     0
281
     0
  0
CLASS
  1
MATERIAL
  2
AcDbMaterial
  3
ObjectDBX Classes
 90
     1153
280
     0
281
     0
  0
CLASS
  1
SCALE
  2
AcDbScale
  3
ObjectDBX Classes
 90
     1153
280
     0
281
     0
  0
CLASS
  1
TABLESTYLE
  2
AcDbTableStyle
  3
ObjectDBX Classes
 90
     4095
280
     0
281
     0
  0
CLASS
  1
MLEADERSTYLE
  2
AcDbMLeaderStyle
  3
ACDB_MLEADERSTYLE_CLASS
 90
     4095
280
     0
281
     0
  0
CLASS
  1
SUN
  2
AcDbSun
  3
SCENEOE
 90
     1153
280
     0
281
     0
  0
CLASS
  1
ACDBPLACEHOLDER
  2
AcDbPlaceHolder
  3
ObjectDBX Classes
 90
        0
280
     0
281
     0
  0
CLASS
  1
LAYOUT
  2
AcDbLayout
  3
ObjectDBX Classes
 90
        0
280
     0
281
     0
  0
ENDSEC
  0
SECTION
  2
TABLES
  0
TABLE
  2
VPORT
  5
8
330
0
100
AcDbSymbolTable
 70
     1
  0
VPORT
  5
29
330
8
100
AcDbSymbolTableRecord
100
AcDbViewportTableRecord
  2
*Active
 70
     0
 10
0.0
 20
0.0
 11
1.0
 21
1.0
 12
139.7
 22
107.95
 13
0.0
 23
0.0
 14
10.0
 24
10.0
 15
10.0
 25
10.0
 16
0.0
 26
0.0
 36
1.0
 17
0.0
 27
0.0
 37
0.0
 40
215.9
 41
1.2941176471
 42
50.0
 43
0.0
 44
0.0
 50
0.0
 51
0.0
 71
     0
 72
  2000
 73
     1
 74
     3
 75
     0
 76
     0
 77
     0
 78
     0
281
     0
 65
     1
110
0.0
120
0.0
130
0.0
111
1.0
121
0.0
131
0.0
112
0.0
122
1.0
132
0.0
 79
     0
146
0.0
  0
ENDTAB
  0
TABLE
  2
LTYPE
  5
5
330
0
100
AcDbSymbolTable
 70
     6
  0
LTYPE
  5
14
330
5
100
AcDbSymbolTableRecord
100
AcDbLinetypeTableRecord
  2
ByBlock
 70
     0
  3

 72
    65
 73
     0
 40
0.0
  0
LTYPE
  5
15
330
5
100
AcDbSymbolTableRecord
100
AcDbLinetypeTableRecord
  2
ByLayer
 70
     0
  3

 72
    65
 73
     0
 40
0.0
  0
LTYPE
  5
16
330
5
100
AcDbSymbolTableRecord
100
AcDbLinetypeTableRecord
  2
Continuous
 70
     0
  3
Solid line
 72
    65
 73
     0
 40
0.0
  0
LTYPE
  5
6E
330
5
100
AcDbSymbolTableRecord
100
AcDbLinetypeTableRecord
  2
HIDDEN
 70
     0
  3
Hidden __ __ __ __ __ __ __ __ __ __ __ __ __ __
 72
    65
 73
     2
 40
1.905
 49
1.27
 74
     0
 49
-0.635
 74
     0
  0
LTYPE
  5
6F
330
5
100
AcDbSymbolTableRecord
100
AcDbLinetypeTableRecord
  2
PHANTOM
 70
     0
  3
Phantom ______  __  __  ______  __  __  ______
 72
    65
 73
     6
 40
12.7
 49
6.35
 74
     0
 49
-1.27
 74
     0
 49
1.27
 74
     0
 49
-1.27
 74
     0
 49
1.27
 74
     0
 49
-1.27
 74
     0
  0
LTYPE
  5
70
330
5
100
AcDbSymbolTableRecord
100
AcDbLinetypeTableRecord
  2
CENTER
 70
     0
  3
Center ____ _ ____ _ ____ _ ____ _ ____ _ ____
 72
    65
 73
     4
 40
10.16
 49
6.35
 74
     0
 49
-1.27
 74
     0
 49
1.27
 74
     0
 49
-1.27
 74
     0
  0
LTYPE
  5
71
330
5
100
AcDbSymbolTableRecord
100
AcDbLinetypeTableRecord
  2
CENTERX2
 70
     0
  3
Center (2x) ________  __  ________  __  _____
 72
    65
 73
     4
 40
20.32
 49
12.7
 74
     0
 49
-2.54
 74
     0
 49
2.54
 74
     0
 49
-2.54
 74
     0
  0
LTYPE
  5
72
330
5
100
AcDbSymbolTableRecord
100
AcDbLinetypeTableRecord
  2
DOT2
 70
     0
  3
Dot (.5x) ........................................
 72
    65
 73
     2
 40
0.635
 49
0.0
 74
     0
 49
-0.635
 74
     0
  0
ENDTAB
  0
TABLE
  2
LAYER
  5
2
330
0
100
AcDbSymbolTable
 70
     1
  0
LAYER
  5
10
330
2
100
AcDbSymbolTableRecord
100
AcDbLayerTableRecord
  2
0
 70
     0
 62
     7
  6
Continuous
370
    -3
390
F
  0
ENDTAB
  0
TABLE
  2
STYLE
  5
3
330
0
100
AcDbSymbolTable
 70
     1
  0
STYLE
  5
11
330
3
100
AcDbSymbolTableRecord
100
AcDbTextStyleTableRecord
  2
Standard
 70
     0
 40
0.0
 41
1.0
 50
0.0
 71
     0
 42
3.5
  3
txt
  4

  0
ENDTAB
  0
TABLE
  2
VIEW
  5
6
330
0
100
AcDbSymbolTable
 70
     0
  0
ENDTAB
  0
TABLE
  2
UCS
  5
7
330
0
100
AcDbSymbolTable
 70
     0
  0
ENDTAB
  0
TABLE
  2
APPID
  5
9
330
0
100
AcDbSymbolTable
 70
     1
  0
APPID
  5
12
330
9
100
AcDbSymbolTableRecord
100
AcDbRegAppTableRecord
  2
ACAD
 70
     0
  0
ENDTAB
  0
TABLE
  2
DIMSTYLE
  5
A
330
0
100
AcDbSymbolTable
 70
     1
100
AcDbDimStyleTable
  0
DIMSTYLE
105
27
330
A
100
AcDbSymbolTableRecord
100
AcDbDimStyleTableRecord
  2
ISO-25
 70
     0
 41
2.5
 42
0.625
 43
3.75
 44
1.25
 73
     0
 74
     0
 77
     1
 78
     8
140
2.5
141
2.5
143
0.0393700787
147
0.625
171
     3
172
     1
178
     0
271
     2
272
     2
274
     3
278
    44
283
     0
284
     8
340
11
  0
ENDTAB
  0
TABLE
  2
BLOCK_RECORD
  5
1
330
0
100
AcDbSymbolTable
 70
     1
  0
BLOCK_RECORD
  5
1F
330
1
100
AcDbSymbolTableRecord
100
AcDbBlockTableRecord
  2
*Model_Space
340
22
  0
BLOCK_RECORD
  5
1B
330
1
100
AcDbSymbolTableRecord
100
AcDbBlockTableRecord
  2
*Paper_Space
340
1E
  0
BLOCK_RECORD
  5
23
330
1
100
AcDbSymbolTableRecord
100
AcDbBlockTableRecord
  2
*Paper_Space0
340
26
  0
ENDTAB
  0
ENDSEC
  0
SECTION
  2
BLOCKS
  0
BLOCK
  5
20
330
1F
100
AcDbEntity
  8
0
100
AcDbBlockBegin
  2
*Model_Space
 70
     0
 10
0.0
 20
0.0
 30
0.0
  3
*Model_Space
  1

  0
ENDBLK
  5
21
330
1F
100
AcDbEntity
  8
0
100
AcDbBlockEnd
  0
BLOCK
  5
1C
330
1B
100
AcDbEntity
 67
     1
  8
0
100
AcDbBlockBegin
  2
*Paper_Space
 70
     0
 10
0.0
 20
0.0
 30
0.0
  3
*Paper_Space
  1

  0
ENDBLK
  5
1D
330
1B
100
AcDbEntity
 67
     1
  8
0
100
AcDbBlockEnd
  0
BLOCK
  5
24
330
23
100
AcDbEntity
  8
0
100
AcDbBlockBegin
  2
*Paper_Space0
 70
     0
 10
0.0
 20
0.0
 30
0.0
  3
*Paper_Space0
  1

  0
ENDBLK
  5
25
330
23
100
AcDbEntity
  8
0
100
AcDbBlockEnd
  0
ENDSEC
  0
SECTION
  2
ENTITIES
  0
LINE
  5
73
330
1F
100
AcDbEntity
  8
0
  6
Continuous
 62
     7
370
    25
100
AcDbLine
 10
111.8348560614
 20
-8.0940585255
 30
0.0
 11
111.8348560614
 21
204.7273746576
 31
0.0
  0
LINE
  5
74
330
1F
100
AcDbEntity
  8
0
  6
Continuous
 62
     7
370
    25
100
AcDbLine
 10
96.0348560614
 20
204.7273746576
 30
0.0
 11
96.0348560614
 21
-8.0940585255
 31
0.0
  0
LINE
  5
75
330
1F
100
AcDbEntity
  8
0
  6
Continuous
 62
     7
370
    25
100
AcDbLine
 10
96.0348560614
 20
-8.0940585255
 30
0.0
 11
96.0348560614
 21
-8.2409152072
 31
0.0
  0
LINE
  5
76
330
1F
100
AcDbEntity
  8
0
  6
Continuous
 62
     7
370
    25
100
AcDbLine
 10
111.8348560614
 20
-8.2409152072
 30
0.0
 11
111.8348560614
 21
-8.0940585255
 31
0.0
  0
LINE
  5
77
330
1F
100
AcDbEntity
  8
0
  6
Continuous
 62
     7
370
    25
100
AcDbLine
 10
115.4848560614
 20
-10.5959892344
 30
0.0
 11
115.4848560614
 21
-8.6785481186
 31
0.0
  0
LINE
  5
78
330
1F
100
AcDbEntity
  8
0
  6
Continuous
 62
     7
370
    25
100
AcDbLine
 10
92.3848560614
 20
-8.6785481186
 30
0.0
 11
92.3848560614
 21
-10.5959892344
 31
0.0
  0
LINE
  5
79
330
1F
100
AcDbEntity
  8
0
  6
Continuous
 62
     7
370
    25
100
AcDbLine
 10
100.2115995693
 20
-21.4108752099
 30
0.0
 11
100.3888974975
 21
-21.4705974121
 31
0.0
  0
LINE
  5
7A
330
1F
100
AcDbEntity
  8
0
  6
Continuous
 62
     7
370
    25
100
AcDbLine
 10
107.4808146254
 20
-21.4705974121
 30
0.0
 11
107.6581125536
 21
-21.4108752099
 31
0.0
  0
ARC
  5
7B
330
1F
100
AcDbEntity
  8
0
  6
Continuous
 62
     7
370
    25
100
AcDbCircle
 10
177.1734627336
 20
204.7273746576
 30
0.0
 40
10.62999999999998
100
AcDbArc
 50
6.8092889909
 51
21.8505108422
  0
ARC
  5
7C
330
1F
100
AcDbEntity
  8
0
  6
Continuous
 62
     7
370
    25
100
AcDbCircle
 10
177.1734627336
 20
204.7273746576
 30
0.0
 40
10.63
100
AcDbArc
 50
338.1494891578
 51
353.2114148072
  0
LINE
  5
7D
330
1F
100
AcDbEntity
  8
0
  6
Continuous
 62
     7
370
    25
100
AcDbLine
 10
187.7363202929
 20
203.617994741
 30
0.0
 11
187.4759035645
 21
203.617994741
 31
0.0
  0
LINE
  5
7E
330
1F
100
AcDbEntity
  8
0
  6
Continuous
 62
     7
370
    25
100
AcDbLine
 10
187.652747228
 20
205.8367545741
 30
0.0
 11
187.7363202929
 21
205.8367545741
 31
0.0
  0
LINE
  5
7F
330
1F
100
AcDbEntity
  8
0
  6
Continuous
 62
     7
370
    25
100
AcDbLine
 10
185.139783076
 20
197.5773746576
 30
0.0
 11
186.7447880655
 21
198.8022468864
 31
0.0
  0
LINE
  5
80
330
1F
100
AcDbEntity
  8
0
  6
Continuous
 62
     7
370
    25
100
AcDbLine
 10
186.7447880655
 20
210.6525024287
 30
0.0
 11
185.139783076
 21
211.8773746576
 31
0.0
  0
ARC
  5
81
330
1F
100
AcDbEntity
  8
0
  6
Continuous
 62
     7
370
    25
100
AcDbCircle
 10
186.289783076
 20
199.398460321
 30
0.0
 40
0.7500000000000068
100
AcDbArc
 50
307.3493490446
 51
0.0
  0
ARC
  5
82
330
1F
100
AcDbEntity
  8
0
  6
Continuous
 62
     7
370
    25
100
AcDbCircle
 10
186.289783076
 20
210.0562889942
 30
0.0
 40
0.7499999999999841
100
AcDbArc
 50
0.0
 51
52.6506509554
  0
LINE
  5
83
330
1F
100
AcDbEntity
  8
0
  6
Continuous
 62
     7
370
    25
100
AcDbLine
 10
185.139783076
 20
209.2273746576
 30
0.0
 11
185.1348560614
 21
209.2236280736
 31
0.0
  0
LINE
  5
84
330
1F
100
AcDbEntity
  8
0
  6
Continuous
 62
     7
370
    25
100
AcDbLine
 10
185.1348560614
 20
200.2311212415
 30
0.0
 11
185.139783076
 21
200.2273746576
 31
0.0
  0
LINE
  5
85
330
1F
100
AcDbEntity
  8
0
  6
Continuous
 62
     7
370
    25
100
AcDbLine
 10
180.2729000186
 20
195.7517166134
 30
0.0
 11
184.6435822647
 21
195.8280071557
 31
0.0
  0
LINE
  5
86
330
1F
100
AcDbEntity
  8
0
  6
Continuous
 62
     7
370
    25
100
AcDbLine
 10
184.6435822647
 20
213.6267421594
 30
0.0
 11
179.3394798047
 21
213.7193256122
 31
0.0
  0
ARC
  5
87
330
1F
100
AcDbEntity
  8
0
  6
Continuous
 62
     7
370
    25
100
AcDbCircle
 10
184.6348560614
 20
196.3279310033
 30
0.0
 40
0.5000000000000048
100
AcDbArc
 50
271.0
 51
0.0
  0
ARC
  5
88
330
1F
100
AcDbEntity
  8
0
  6
Continuous
 62
     7
370
    25
100
AcDbCircle
 10
184.6348560614
 20
213.1268183118
 30
0.0
 40
0.5000000000000332
100
AcDbArc
 50
0.0
 51
89.0
  0
SPLINE
  5
89
330
1F
100
AcDbEntity
  8
0
  6
Continuous
 62
     7
370
    25
100
AcDbSpline
210
0.0
220
0.0
230
1.0
 70
     8
 71
     3
 72
    12
 73
     8
 74
     0
 42
0.00000001
 43
0.00000001
 40
0.0
 40
0.0
 40
0.0
 40
0.0
 40
0.1287022160758279
 40
0.3287254645486343
 40
0.5707274729530489
 40
0.8610440498433684
 40
0.9999999999999999
 40
0.9999999999999999
 40
0.9999999999999999
 40
0.9999999999999999
 10
176.6639718417178
 20
193.8674138199039
 30
0.0
 10
176.666039219156
 20
193.8708147640337
 30
0.0
 10
176.6713196224739
 20
193.8795013039633
 30
0.0
 10
176.8827847521823
 20
194.1053821491192
 30
0.0
 10
177.3202964167744
 20
194.4585043288546
 30
0.0
 10
177.866204830581
 20
194.8441226046917
 30
0.0
 10
178.3084324122781
 20
195.1151835811634
 30
0.0
 10
178.4515819266971
 20
195.2029262927576
 30
0.0
  0
ARC
  5
8A
330
1F
100
AcDbEntity
  8
0
  6
Continuous
 62
     7
370
    25
100
AcDbCircle
 10
180.3348560614
 20
192.2022572956
 30
0.0
 40
3.550000000000023
100
AcDbArc
 50
91.0
 51
121.7654088545
  0
ARC
  5
8B
330
1F
100
AcDbEntity
  8
0
  6
Continuous
 62
     7
370
    25
100
AcDbCircle
 10
179.3848560614
 20
216.3189296196
 30
0.0
 40
2.599999999999994
100
AcDbArc
 50
242.9558679133
 51
269.0
  0
SPLINE
  5
8C
330
1F
100
AcDbEntity
  8
0
  6
Continuous
 62
     7
370
    25
100
AcDbSpline
210
0.0
220
0.0
230
1.0
 70
     8
 71
     3
 72
    12
 73
     8
 74
     0
 42
0.00000001
 43
0.00000001
 40
0.0
 40
0.0
 40
0.0
 40
0.0
 40
0.1862884897185655
 40
0.505777191905644
 40
0.7610563113386104
 40
0.9635588671229853
 40
1.0
 40
1.0
 40
1.0
 40
1.0
 10
178.1935934174463
 20
214.0122146586933
 30
0.0
 10
178.0199660285875
 20
214.1024810985926
 30
0.0
 10
177.548563993456
 20
214.3475563931777
 30
0.0
 10
176.9884840802713
 20
214.6749508511171
 30
0.0
 10
176.5926887032005
 20
214.9292452405908
 30
0.0
 10
176.4389050680265
 20
215.0720860720839
 30
0.0
 10
176.4641559248647
 20
215.0428253513398
 30
0.0
 10
176.4680069151731
 20
215.0383628195245
 30
0.0
  0
LINE
  5
8D
330
1F
100
AcDbEntity
  8
0
  6
Continuous
 62
     7
370
    25
100
AcDbLine
 10
170.7935822647
 20
192.3567699664
 30
0.0
 11
174.8197608743
 21
192.4270471755
 31
0.0
  0
ARC
  5
8E
330
1F
100
AcDbEntity
  8
0
  6
Continuous
 62
     7
370
    25
100
AcDbCircle
 10
170.7848560614
 20
192.856693814
 30
0.0
 40
0.5000000000000063
100
AcDbArc
 50
180.0
 51
271.0
  0
LINE
  5
8F
330
1F
100
AcDbEntity
  8
0
  6
Continuous
 62
     7
370
    25
100
AcDbLine
 10
185.1647756044
 20
208.664989886
 30
0.0
 11
185.1348560614
 21
208.7773655663
 31
0.0
  0
ARC
  5
90
330
1F
100
AcDbEntity
  8
0
  6
Continuous
 62
     7
370
    25
100
AcDbCircle
 10
174.7848560614
 20
214.2230994786
 30
0.0
 40
2.000000000000009
100
AcDbArc
 50
20.1140840338
 51
89.0
  0
ARC
  5
91
330
1F
100
AcDbEntity
  8
0
  6
Continuous
 62
     7
370
    25
100
AcDbCircle
 10
170.7848560614
 20
215.7931482304
 30
0.0
 40
0.5000000000000347
100
AcDbArc
 50
89.0
 51
180.0
  0
LINE
  5
92
330
1F
100
AcDbEntity
  8
0
  6
Continuous
 62
     7
370
    25
100
AcDbLine
 10
174.8197608743
 20
216.2227948689
 30
0.0
 11
170.7935822647
 21
216.293072078
 31
0.0
  0
ARC
  5
93
330
1F
100
AcDbEntity
  8
0
  6
Continuous
 62
     7
370
    25
100
AcDbCircle
 10
174.7848560614
 20
194.4267425658
 30
0.0
 40
2.00000000000003
100
AcDbArc
 50
271.0
 51
344.7435775975
  0
LINE
  5
94
330
1F
100
AcDbEntity
  8
0
  6
Continuous
 62
     7
370
    25
100
AcDbLine
 10
170.2848560614
 20
210.3773746576
 30
0.0
 11
162.3348560614
 21
210.3773746576
 31
0.0
  0
LINE
  5
95
330
1F
100
AcDbEntity
  8
0
  6
Continuous
 62
     7
370
    25
100
AcDbLine
 10
162.3348560614
 20
199.0773746576
 30
0.0
 11
170.2848560614
 21
199.0773746576
 31
0.0
  0
LINE
  5
96
330
1F
100
AcDbEntity
  8
0
  6
Continuous
 62
     7
370
    25
100
AcDbLine
 10
160.6267116703
 20
194.7265266566
 30
0.0
 11
162.3348560614
 21
196.4773746576
 31
0.0
  0
LINE
  5
97
330
1F
100
AcDbEntity
  8
0
  6
Continuous
 62
     7
370
    25
100
AcDbLine
 10
162.3348560614
 20
212.9773746576
 30
0.0
 11
160.6267116703
 21
214.7282226585
 31
0.0
  0
LINE
  5
98
330
1F
100
AcDbEntity
  8
0
  6
Continuous
 62
     7
370
    25
100
AcDbLine
 10
154.908157393
 20
195.3273746576
 30
0.0
 11
155.2609355739
 21
195.3273746576
 31
0.0
  0
SPLINE
  5
99
330
1F
100
AcDbEntity
  8
0
  6
Continuous
 62
     7
370
    25
100
AcDbSpline
210
0.0
220
0.0
230
1.0
 70
     8
 71
     3
 72
     9
 73
     5
 74
     0
 42
0.00000001
 43
0.00000001
 40
0.0
 40
0.0
 40
0.0
 40
0.0
 40
0.5017901106541882
 40
1.0
 40
1.0
 40
1.0
 40
1.0
 10
155.2696820330744
 20
195.3350341100155
 30
0.0
 10
155.3435593733697
 20
195.4629117867323
 30
0.0
 10
155.4907869466652
 20
195.7177547459728
 30
0.0
 10
155.6380672575429
 20
195.9725581499377
 30
0.0
 10
155.7114437649282
 20
196.099503725632
 30
0.0
  0
SPLINE
  5
9A
330
1F
100
AcDbEntity
  8
0
  6
Continuous
 62
     7
370
    25
100
AcDbSpline
210
0.0
220
0.0
230
1.0
 70
     8
 71
     3
 72
     9
 73
     5
 74
     0
 42
0.00000001
 43
0.00000001
 40
0.0
 40
0.0
 40
0.0
 40
0.0
 40
0.4988103511399682
 40
1.0
 40
1.0
 40
1.0
 40
1.0
 10
155.0058896244829
 20
213.3552431509425
 30
0.0
 10
154.9324297896574
 20
213.4823472387779
 30
0.0
 10
154.785159720667
 20
213.7371616939009
 30
0.0
 10
154.6379218661252
 20
213.9919937662828
 30
0.0
 10
154.5641277775086
 20
214.1197129631582
 30
0.0
  0
LINE
  5
9B
330
1F
100
AcDbEntity
  8
0
  6
Continuous
 62
     7
370
    25
100
AcDbLine
 10
155.8687706013
 20
196.0994781127
 30
0.0
 11
156.0129511764
 21
195.8499820147
 31
0.0
  0
SPLINE
  5
9C
330
1F
100
AcDbEntity
  8
0
  6
Continuous
 62
     7
370
    25
100
AcDbSpline
210
0.0
220
0.0
230
1.0
 70
     8
 71
     3
 72
     9
 73
     5
 74
     0
 42
0.00000001
 43
0.00000001
 40
0.0
 40
0.0
 40
0.0
 40
0.0
 40
0.4989150937459073
 40
1.0
 40
1.0
 40
1.0
 40
1.0
 10
155.6049463872724
 20
214.1197284234563
 30
0.0
 10
155.5314878414528
 20
213.9925940841661
 30
0.0
 10
155.384251274068
 20
213.7377724905042
 30
0.0
 10
155.2369988000406
 20
213.4829532861877
 30
0.0
 10
155.163212807897
 20
213.355267229081
 30
0.0
  0
LINE
  5
9D
330
1F
100
AcDbEntity
  8
0
  6
Continuous
 62
     7
370
    25
100
AcDbLine
 10
156.0348560614
 20
213.6273746576
 30
0.0
 11
155.5907183173
 21
214.0715124017
 31
0.0
  0
SPLINE
  5
9E
330
1F
100
AcDbEntity
  8
0
  6
Continuous
 62
     7
370
    25
100
AcDbSpline
210
0.0
220
0.0
230
1.0
 70
     8
 71
     3
 72
     9
 73
     5
 74
     0
 42
0.00000001
 43
0.00000001
 40
0.0
 40
0.0
 40
0.0
 40
0.0
 40
0.5165667873823397
 40
1.0
 40
1.0
 40
1.0
 40
1.0
 10
155.7015358545917
 20
196.0911689264859
 30
0.0
 10
155.7311967289396
 20
196.0911744328668
 30
0.0
 10
155.7886159728252
 20
196.091185092439
 30
0.0
 10
155.8458858834184
 20
196.0911745593136
 30
0.0
 10
155.8735720602827
 20
196.0911694672509
 30
0.0
  0
SPLINE
  5
9F
330
1F
100
AcDbEntity
  8
0
  6
Continuous
 62
     7
370
    25
100
AcDbSpline
210
0.0
220
0.0
230
1.0
 70
     8
 71
     3
 72
     9
 73
     5
 74
     0
 42
0.00000001
 43
0.00000001
 40
0.0
 40
0.0
 40
0.0
 40
0.0
 40
0.5120869110697421
 40
1.0
 40
1.0
 40
1.0
 40
1.0
 10
155.1723684035451
 20
213.3635803461956
 30
0.0
 10
155.1431405810964
 20
213.3635824764292
 30
0.0
 10
155.0860646789067
 20
213.3635866363355
 30
0.0
 10
155.0289420897731
 20
213.3635825722079
 30
0.0
 10
155.0010712308613
 20
213.3635805892669
 30
0.0
  0
LINE
  5
A0
330
1F
100
AcDbEntity
  8
0
  6
Continuous
 62
     7
370
    25
100
AcDbLine
 10
156.0348560614
 20
196.6023746576
 30
0.0
 11
157.5348560614
 21
196.6023746576
 31
0.0
  0
LINE
  5
A1
330
1F
100
AcDbEntity
  8
0
  6
Continuous
 62
     7
370
    25
100
AcDbLine
 10
157.5348560614
 20
212.8523746576
 30
0.0
 11
156.0348560614
 21
212.8523746576
 31
0.0
  0
SPLINE
  5
A2
330
1F
100
AcDbEntity
  8
0
  6
Continuous
 62
     7
370
    25
100
AcDbSpline
210
0.0
220
0.0
230
1.0
 70
     8
 71
     3
 72
     9
 73
     5
 74
     0
 42
0.00000001
 43
0.00000001
 40
0.0
 40
0.0
 40
0.0
 40
0.0
 40
0.2985650935667693
 40
1.0
 40
1.0
 40
1.0
 40
1.0
 10
157.5083837774639
 20
195.7040477391877
 30
0.0
 10
157.5110184579973
 20
195.699488356832
 30
0.0
 10
157.5198429341004
 20
195.6842173742093
 30
0.0
 10
157.5286667376362
 20
195.6689459961785
 30
0.0
 10
157.5348560614437
 20
195.6582341185583
 30
0.0
  0
LINE
  5
A3
330
1F
100
AcDbEntity
  8
0
  6
Continuous
 62
     7
370
    25
100
AcDbLine
 10
138.5573849429
 20
221.799903539
 30
0.0
 11
137.6848560614
 21
220.9273746576
 31
0.0
  0
LINE
  5
A4
330
1F
100
AcDbEntity
  8
0
  6
Continuous
 62
     7
370
    25
100
AcDbLine
 10
137.6848560614
 20
188.5273746576
 30
0.0
 11
138.5573849429
 21
187.6548457761
 31
0.0
  0
LINE
  5
A5
330
1F
100
AcDbEntity
  8
0
  6
Continuous
 62
     7
370
    25
100
AcDbLine
 10
146.26232718
 20
187.6548457761
 30
0.0
 11
147.1348560614
 21
188.5273746576
 31
0.0
  0
LINE
  5
A6
330
1F
100
AcDbEntity
  8
0
  6
Continuous
 62
     7
370
    25
100
AcDbLine
 10
147.1348560614
 20
220.9273746576
 30
0.0
 11
146.26232718
 21
221.799903539
 31
0.0
  0
ARC
  5
A7
330
1F
100
AcDbEntity
  8
0
  6
Continuous
 62
     7
370
    25
100
AcDbCircle
 10
147.1348560614
 20
198.9863862855
 30
0.0
 40
9.13401162790696
100
AcDbArc
 50
270.0
 51
328.0464183091
  0
ARC
  5
A8
330
1F
100
AcDbEntity
  8
0
  6
Continuous
 62
     7
370
    25
100
AcDbCircle
 10
147.1348560614
 20
210.4683630297
 30
0.0
 40
9.134011627907029
100
AcDbArc
 50
31.9535816909
 51
90.0
  0
LINE
  5
A9
330
1F
100
AcDbEntity
  8
0
  6
Continuous
 62
     7
370
    25
100
AcDbLine
 10
145.6970506766
 20
222.242471796
 30
0.0
 11
139.097488155
 21
222.242471796
 31
0.0
  0
LINE
  5
AA
330
1F
100
AcDbEntity
  8
0
  6
Continuous
 62
     7
370
    25
100
AcDbLine
 10
139.097488155
 20
187.2122775191
 30
0.0
 11
145.6970506766
 21
187.2122775191
 31
0.0
  0
ARC
  5
AB
330
1F
100
AcDbEntity
  8
0
  6
Continuous
 62
     7
370
    25
100
AcDbCircle
 10
79.1348560614
 20
272.2273746576
 30
0.0
 40
0.5
100
AcDbArc
 50
90.0
 51
180.0
  0
ARC
  5
AC
330
1F
100
AcDbEntity
  8
0
  6
Continuous
 62
     7
370
    25
100
AcDbCircle
 10
128.7348560614
 20
272.2273746576
 30
0.0
 40
0.5
100
AcDbArc
 50
0.0
 51
90.0
  0
ARC
  5
AD
330
1F
100
AcDbEntity
  8
0
  6
Continuous
 62
     7
370
    25
100
AcDbCircle
 10
79.1348560614
 20
269.0408964433
 30
0.0
 40
0.5
100
AcDbArc
 50
180.0
 51
244.1790080258
  0
ARC
  5
AE
330
1F
100
AcDbEntity
  8
0
  6
Continuous
 62
     7
370
    25
100
AcDbCircle
 10
128.7348560614
 20
269.0408964433
 30
0.0
 40
0.5000000000000011
100
AcDbArc
 50
295.8209919742
 51
0.0
  0
LINE
  5
AF
330
1F
100
AcDbEntity
  8
0
  6
Continuous
 62
     7
370
    25
100
AcDbLine
 10
129.2348560614
 20
269.0408964433
 30
0.0
 11
129.2348560614
 21
272.2273746576
 31
0.0
  0
LINE
  5
B0
330
1F
100
AcDbEntity
  8
0
  6
Continuous
 62
     7
370
    25
100
AcDbLine
 10
78.6348560614
 20
272.2273746576
 30
0.0
 11
78.6348560614
 21
269.0408964433
 31
0.0
  0
LINE
  5
B1
330
1F
100
AcDbEntity
  8
0
  6
Continuous
 62
     7
370
    25
100
AcDbLine
 10
78.9170755974
 20
268.5908168176
 30
0.0
 11
86.8059779177
 21
264.7736060175
 31
0.0
  0
LINE
  5
B2
330
1F
100
AcDbEntity
  8
0
  6
Continuous
 62
     7
370
    25
100
AcDbLine
 10
121.0637342052
 20
264.7736060175
 30
0.0
 11
128.9526365255
 21
268.5908168176
 31
0.0
  0
ARC
  5
B3
330
1F
100
AcDbEntity
  8
0
  6
Continuous
 62
     7
370
    25
100
AcDbCircle
 10
121.9348560614
 20
262.9732875146
 30
0.0
 40
1.999999999999995
100
AcDbArc
 50
115.8209919742
 51
171.4096175468
  0
ARC
  5
B4
330
1F
100
AcDbEntity
  8
0
  6
Continuous
 62
     7
370
    25
100
AcDbCircle
 10
85.9348560614
 20
262.9732875146
 30
0.0
 40
2.000000000000002
100
AcDbArc
 50
8.6121549306
 51
64.1790080258
  0
LINE
  5
B5
330
1F
100
AcDbEntity
  8
0
  6
Continuous
 62
     7
370
    25
100
AcDbLine
 10
115.8199543319
 20
188.9763319764
 30
0.0
 11
132.9348560614
 21
189.334838061
 31
0.0
  0
LINE
  5
B6
330
1F
100
AcDbEntity
  8
0
  6
Continuous
 62
     7
370
    25
100
AcDbLine
 10
132.9348560614
 20
220.1199112542
 30
0.0
 11
127.3118452535
 21
220.2376965398
 31
0.0
  0
SPLINE
  5
B7
330
1F
100
AcDbEntity
  8
0
  6
Continuous
 62
     7
370
    25
100
AcDbSpline
210
0.0
220
0.0
230
1.0
 70
     8
 71
     3
 72
     9
 73
     5
 74
     0
 42
0.00000001
 43
0.00000001
 40
0.0
 40
0.0
 40
0.0
 40
0.0
 40
0.499996177972525
 40
1.0
 40
1.0
 40
1.0
 40
1.0
 10
133.9597980456103
 20
190.5447222322042
 30
0.0
 10
134.0379811068906
 20
190.4093572023932
 30
0.0
 10
134.1943484247316
 20
190.1386250732801
 30
0.0
 10
134.3507120822783
 20
189.8678909880069
 30
0.0
 10
134.4288945086779
 20
189.7325229106171
 30
0.0
  0
SPLINE
  5
B8
330
1F
100
AcDbEntity
  8
0
  6
Continuous
 62
     7
370
    25
100
AcDbSpline
210
0.0
220
0.0
230
1.0
 70
     8
 71
     3
 72
     9
 73
     5
 74
     0
 42
0.00000001
 43
0.00000001
 40
0.0
 40
0.0
 40
0.0
 40
0.0
 40
0.4999960105738552
 40
1.0
 40
1.0
 40
1.0
 40
1.0
 10
135.4596372747648
 20
190.5450019128064
 30
0.0
 10
135.5378216200672
 20
190.4096347628962
 30
0.0
 10
135.6941915583246
 20
190.1388983029097
 30
0.0
 10
135.8505576760381
 20
189.8681597381373
 30
0.0
 10
135.928741358706
 20
189.7327893756595
 30
0.0
  0
SPLINE
  5
B9
330
1F
100
AcDbEntity
  8
0
  6
Continuous
 62
     7
370
    25
100
AcDbSpline
210
0.0
220
0.0
230
1.0
 70
     8
 71
     3
 72
     9
 73
     5
 74
     0
 42
0.00000001
 43
0.00000001
 40
0.0
 40
0.0
 40
0.0
 40
0.0
 40
0.4999960910112508
 40
0.9999999999999999
 40
0.9999999999999999
 40
0.9999999999999999
 40
0.9999999999999999
 10
136.9597206255667
 20
190.5448560496615
 30
0.0
 10
137.0379043565639
 20
190.4094899147336
 30
0.0
 10
137.194273041045
 20
190.1387555282825
 30
0.0
 10
137.3506379819784
 20
189.8680191263004
 30
0.0
 10
137.4288210636738
 20
189.7326498670038
 30
0.0
  0
LINE
  5
BA
330
1F
100
AcDbEntity
  8
0
  6
Continuous
 62
     7
370
    25
100
AcDbLine
 10
137.712944528
 20
218.9154748386
 30
0.0
 11
137.7098014606
 21
218.9100329487
 31
0.0
  0
SPLINE
  5
BB
330
1F
100
AcDbEntity
  8
0
  6
Continuous
 62
     7
370
    25
100
AcDbSpline
210
0.0
220
0.0
230
1.0
 70
     8
 71
     3
 72
     9
 73
     5
 74
     0
 42
0.00000001
 43
0.00000001
 40
0.0
 40
0.0
 40
0.0
 40
0.0
 40
0.5035653169057785
 40
1.0
 40
1.0
 40
1.0
 40
1.0
 10
136.6787282657804
 20
219.7219368505025
 30
0.0
 10
136.6005451346912
 20
219.5865674499331
 30
0.0
 10
136.4452859687709
 20
219.3177455195404
 30
0.0
 10
136.2900230803566
 20
219.0489258313003
 30
0.0
 10
136.2129451975503
 20
218.9154744145594
 30
0.0
  0
SPLINE
  5
BC
330
1F
100
AcDbEntity
  8
0
  6
Continuous
 62
     7
370
    25
100
AcDbSpline
210
0.0
220
0.0
230
1.0
 70
     8
 71
     3
 72
     9
 73
     5
 74
     0
 42
0.00000001
 43
0.00000001
 40
0.0
 40
0.0
 40
0.0
 40
0.0
 40
0.5000038267495277
 40
1.0
 40
1.0
 40
1.0
 40
1.0
 10
135.1788019455632
 20
219.7220661497408
 30
0.0
 10
135.1006194751196
 20
219.5866979460188
 30
0.0
 10
134.944255730962
 20
219.31596361064
 30
0.0
 10
134.7878883220634
 20
219.0452314722474
 30
0.0
 10
134.709705215993
 20
218.9098664390751
 30
0.0
  0
SPLINE
  5
BD
330
1F
100
AcDbEntity
  8
0
  6
Continuous
 62
     7
370
    25
100
AcDbSpline
210
0.0
220
0.0
230
1.0
 70
     8
 71
     3
 72
     9
 73
     5
 74
     0
 42
0.00000001
 43
0.00000001
 40
0.0
 40
0.0
 40
0.0
 40
0.0
 40
0.4987844281256523
 40
1.0
 40
1.0
 40
1.0
 40
1.0
 10
137.347412540268
 20
218.9100297303978
 30
0.0
 10
137.2694131623841
 20
219.0450588045329
 30
0.0
 10
137.1130342269449
 20
219.3157751030397
 30
0.0
 10
136.9566841431535
 20
219.5865215933915
 30
0.0
 10
136.8783190464934
 20
219.7222239503862
 30
0.0
  0
SPLINE
  5
BE
330
1F
100
AcDbEntity
  8
0
  6
Continuous
 62
     7
370
    25
100
AcDbSpline
210
0.0
220
0.0
230
1.0
 70
     8
 71
     3
 72
     9
 73
     5
 74
     0
 42
0.00000001
 43
0.00000001
 40
0.0
 40
0.0
 40
0.0
 40
0.0
 40
0.4984739077222043
 40
0.9999999999999999
 40
0.9999999999999999
 40
0.9999999999999999
 40
0.9999999999999999
 10
135.847412540268
 20
218.9100297303978
 30
0.0
 10
135.7694584329132
 20
219.0449693076653
 30
0.0
 10
135.6130729006974
 20
219.3156747050333
 30
0.0
 10
135.4567293943066
 20
219.5864320681212
 30
0.0
 10
135.3783190464934
 20
219.7222239503862
 30
0.0
  0
SPLINE
  5
BF
330
1F
100
AcDbEntity
  8
0
  6
Continuous
 62
     7
370
    25
100
AcDbSpline
210
0.0
220
0.0
230
1.0
 70
     8
 71
     3
 72
     9
 73
     5
 74
     0
 42
0.00000001
 43
0.00000001
 40
0.0
 40
0.0
 40
0.0
 40
0.0
 40
0.4981617098938687
 40
1.0
 40
1.0
 40
1.0
 40
1.0
 10
134.347412540268
 20
218.9100297303978
 30
0.0
 10
134.2695035997105
 20
219.0448773423907
 30
0.0
 10
134.113110727657
 20
219.3155677814886
 30
0.0
 10
133.9567745343994
 20
219.5863400554255
 30
0.0
 10
133.8783190464934
 20
219.7222239503862
 30
0.0
  0
LINE
  5
C0
330
1F
100
AcDbEntity
  8
0
  6
Continuous
 62
     7
370
    25
100
AcDbLine
 10
137.6283199533
 20
189.7325269232
 30
0.0
 11
137.6751894145
 21
189.813681913
 31
0.0
  0
SPLINE
  5
C1
330
1F
100
AcDbEntity
  8
0
  6
Continuous
 62
     7
370
    25
100
AcDbSpline
210
0.0
220
0.0
230
1.0
 70
     8
 71
     3
 72
     9
 73
     5
 74
     0
 42
0.00000001
 43
0.00000001
 40
0.0
 40
0.0
 40
0.0
 40
0.0
 40
0.5012156693466765
 40
1.0
 40
1.0
 40
1.0
 40
1.0
 10
136.1283199532586
 20
189.7325269232392
 30
0.0
 10
136.2066850492018
 20
189.8682293504682
 30
0.0
 10
136.363035101157
 20
190.1389759282955
 30
0.0
 10
136.5194140937691
 20
190.4096921820684
 30
0.0
 10
136.5974134849273
 20
190.5447212075034
 30
0.0
  0
SPLINE
  5
C2
330
1F
100
AcDbEntity
  8
0
  6
Continuous
 62
     7
370
    25
100
AcDbSpline
210
0.0
220
0.0
230
1.0
 70
     8
 71
     3
 72
     9
 73
     5
 74
     0
 42
0.00000001
 43
0.00000001
 40
0.0
 40
0.0
 40
0.0
 40
0.0
 40
0.5015262135375156
 40
1.0
 40
1.0
 40
1.0
 40
1.0
 10
134.6283199532586
 20
189.7325269232392
 30
0.0
 10
134.7067302986306
 20
189.8683188905765
 30
0.0
 10
134.863073762353
 20
190.1390763578273
 30
0.0
 10
135.019459362616
 20
190.4097816937102
 30
0.0
 10
135.0974134849273
 20
190.5447212075034
 30
0.0
  0
SPLINE
  5
C3
330
1F
100
AcDbEntity
  8
0
  6
Continuous
 62
     7
370
    25
100
AcDbSpline
210
0.0
220
0.0
230
1.0
 70
     8
 71
     3
 72
     9
 73
     5
 74
     0
 42
0.00000001
 43
0.00000001
 40
0.0
 40
0.0
 40
0.0
 40
0.0
 40
0.5018384349021675
 40
1.0
 40
1.0
 40
1.0
 40
1.0
 10
133.1283199532586
 20
189.7325269232392
 30
0.0
 10
133.2067754370139
 20
189.8684109181578
 30
0.0
 10
133.3631115768924
 20
190.139183313152
 30
0.0
 10
133.5195045277552
 20
190.4098736737907
 30
0.0
 10
133.5974134849273
 20
190.5447212075034
 30
0.0
  0
LINE
  5
C4
330
1F
100
AcDbEntity
  8
0
  6
Continuous
 62
     7
370
    25
100
AcDbLine
 10
133.8723335513
 20
219.7273746576
 30
0.0
 11
132.9348560614
 21
219.7273746576
 31
0.0
  0
LINE
  5
C5
330
1F
100
AcDbEntity
  8
0
  6
Continuous
 62
     7
370
    25
100
AcDbLine
 10
135.3723335513
 20
219.7273746576
 30
0.0
 11
135.1850049468
 21
219.7273746576
 31
0.0
  0
LINE
  5
C6
330
1F
100
AcDbEntity
  8
0
  6
Continuous
 62
     7
370
    25
100
AcDbLine
 10
136.8723335513
 20
219.7273746576
 30
0.0
 11
136.6850049468
 21
219.7273746576
 31
0.0
  0
LINE
  5
C7
330
1F
100
AcDbEntity
  8
0
  6
Continuous
 62
     7
370
    25
100
AcDbLine
 10
137.4349085226
 20
189.7273746576
 30
0.0
 11
137.6221540922
 21
189.7273746576
 31
0.0
  0
LINE
  5
C8
330
1F
100
AcDbEntity
  8
0
  6
Continuous
 62
     7
370
    25
100
AcDbLine
 10
135.9349085226
 20
189.7273746576
 30
0.0
 11
136.1221540922
 21
189.7273746576
 31
0.0
  0
LINE
  5
C9
330
1F
100
AcDbEntity
  8
0
  6
Continuous
 62
     7
370
    25
100
AcDbLine
 10
134.4349085226
 20
189.7273746576
 30
0.0
 11
134.6221540922
 21
189.7273746576
 31
0.0
  0
LINE
  5
CA
330
1F
100
AcDbEntity
  8
0
  6
Continuous
 62
     7
370
    25
100
AcDbLine
 10
132.9348560614
 20
189.7273746576
 30
0.0
 11
133.1221540922
 21
189.7273746576
 31
0.0
  0
LINE
  5
CB
330
1F
100
AcDbEntity
  8
0
  6
Continuous
 62
     7
370
    25
100
AcDbLine
 10
89.957442993
 20
247.000489867
 30
0.0
 11
90.6147731581
 21
218.5709602266
 31
0.0
  0
LINE
  5
CC
330
1F
100
AcDbEntity
  8
0
  6
Continuous
 62
     7
370
    25
100
AcDbLine
 10
117.5281702943
 20
230.3882152285
 30
0.0
 11
117.9122691299
 21
247.000489867
 31
0.0
  0
SPLINE
  5
CD
330
1F
100
AcDbEntity
  8
0
  6
Continuous
 62
     7
370
    25
100
AcDbSpline
210
0.0
220
0.0
230
1.0
 70
     8
 71
     3
 72
     9
 73
     5
 74
     0
 42
0.00000001
 43
0.00000001
 40
0.0
 40
0.0
 40
0.0
 40
0.0
 40
0.5027752844605446
 40
1.0
 40
1.0
 40
1.0
 40
1.0
 10
137.7161440173912
 20
218.915475645609
 30
0.0
 10
137.6538293534999
 20
218.9154520455832
 30
0.0
 10
137.5298879709037
 20
218.9154051060724
 30
0.0
 10
137.4059114911806
 20
218.9154516964692
 30
0.0
 10
137.3442673213167
 20
218.915474862366
 30
0.0
  0
SPLINE
  5
CE
330
1F
100
AcDbEntity
  8
0
  6
Continuous
 62
     7
370
    25
100
AcDbSpline
210
0.0
220
0.0
230
1.0
 70
     8
 71
     3
 72
     9
 73
     5
 74
     0
 42
0.00000001
 43
0.00000001
 40
0.0
 40
0.0
 40
0.0
 40
0.0
 40
0.5024505677200923
 40
0.9999999999999999
 40
0.9999999999999999
 40
0.9999999999999999
 40
0.9999999999999999
 10
136.2161440173912
 20
218.915475645609
 30
0.0
 10
136.1538777001021
 20
218.9154396808985
 30
0.0
 10
136.0299524400083
 20
218.9153681022942
 30
0.0
 10
135.9059598350186
 20
218.9154391183414
 30
0.0
 10
135.8442673847991
 20
218.9154744523354
 30
0.0
  0
SPLINE
  5
CF
330
1F
100
AcDbEntity
  8
0
  6
Continuous
 62
     7
370
    25
100
AcDbSpline
210
0.0
220
0.0
230
1.0
 70
     8
 71
     3
 72
     9
 73
     5
 74
     0
 42
0.00000001
 43
0.00000001
 40
0.0
 40
0.0
 40
0.0
 40
0.0
 40
0.5021449888945024
 40
1.0
 40
1.0
 40
1.0
 40
1.0
 10
134.7161440173912
 20
218.915475645609
 30
0.0
 10
134.6539272612531
 20
218.9154247338595
 30
0.0
 10
134.5300252857002
 20
218.9153233453151
 30
0.0
 10
134.4060093907513
 20
218.9154238968366
 30
0.0
 10
134.3442674559943
 20
218.9154739569154
 30
0.0
  0
SPLINE
  5
D0
330
1F
100
AcDbEntity
  8
0
  6
Continuous
 62
     7
370
    25
100
AcDbSpline
210
0.0
220
0.0
230
1.0
 70
     8
 71
     3
 72
     9
 73
     5
 74
     0
 42
0.00000001
 43
0.00000001
 40
0.0
 40
0.0
 40
0.0
 40
0.0
 40
0.5057289412931915
 40
1.0
 40
1.0
 40
1.0
 40
1.0
 10
136.591145201678
 20
190.5392736821961
 30
0.0
 10
136.6538305726054
 20
190.5392974635648
 30
0.0
 10
136.7777811038271
 20
190.5393444875076
 30
0.0
 10
136.9016965451133
 20
190.5392976453678
 30
0.0
 10
136.962944361468
 20
190.5392744926537
 30
0.0
  0
SPLINE
  5
D1
330
1F
100
AcDbEntity
  8
0
  6
Continuous
 62
     7
370
    25
100
AcDbSpline
210
0.0
220
0.0
230
1.0
 70
     8
 71
     3
 72
     9
 73
     5
 74
     0
 42
0.00000001
 43
0.00000001
 40
0.0
 40
0.0
 40
0.0
 40
0.0
 40
0.5060529424439243
 40
1.0
 40
1.0
 40
1.0
 40
1.0
 10
135.091145201678
 20
190.5392736821961
 30
0.0
 10
135.1538789654965
 20
190.5393099297935
 30
0.0
 10
135.2778457653248
 20
190.5393815578669
 30
0.0
 10
135.4017452340291
 20
190.5393101763207
 30
0.0
 10
135.4629450120284
 20
190.539274917616
 30
0.0
  0
SPLINE
  5
D2
330
1F
100
AcDbEntity
  8
0
  6
Continuous
 62
     7
370
    25
100
AcDbSpline
210
0.0
220
0.0
230
1.0
 70
     8
 71
     3
 72
     9
 73
     5
 74
     0
 42
0.00000001
 43
0.00000001
 40
0.0
 40
0.0
 40
0.0
 40
0.0
 40
0.5063601542004668
 40
1.0
 40
1.0
 40
1.0
 40
1.0
 10
133.591145201678
 20
190.5392736821961
 30
0.0
 10
133.6539286057996
 20
190.5393250117816
 30
0.0
 10
133.7779182278122
 20
190.5394263814987
 30
0.0
 10
133.9017939542768
 20
190.5393253205248
 30
0.0
 10
133.9629439487871
 20
190.5392754328012
 30
0.0
  0
SPLINE
  5
D3
330
1F
100
AcDbEntity
  8
0
  6
Continuous
 62
     7
370
    25
100
AcDbSpline
210
0.0
220
0.0
230
1.0
 70
     8
 71
     3
 72
    17
 73
    13
 74
     0
 42
0.00000001
 43
0.00000001
 40
0.0
 40
0.0
 40
0.0
 40
0.0
 40
0.0827514781153413
 40
0.1843892145913947
 40
0.2886621136872273
 40
0.3944112042871287
 40
0.5009222432866187
 40
0.6150214020391391
 40
0.7224691110782819
 40
0.824054987090827
 40
0.9204172804025079
 40
1.0
 40
1.0
 40
1.0
 40
1.0
 10
127.293548662723
 20
220.21946003735
 30
0.0
 10
126.8612555994685
 20
220.2390241315373
 30
0.0
 10
125.8980078095535
 20
220.2826174067701
 30
0.0
 10
124.4250991891077
 20
220.6459835956441
 30
0.0
 10
122.9142608194896
 20
221.2640398343979
 30
0.0
 10
121.5043864772876
 20
222.1417781198992
 30
0.0
 10
120.2202732233908
 20
223.273087376771
 30
0.0
 10
119.1441492504653
 20
224.617143329265
 30
0.0
 10
118.3277588346487
 20
226.103161769757
 30
0.0
 10
117.8020868739752
 20
227.6137174747037
 30
0.0
 10
117.521795455421
 20
229.0439971977535
 30
0.0
 10
117.5149761116248
 20
229.9639034582744
 30
0.0
 10
117.5118916142798
 20
230.3799916484228
 30
0.0
  0
ARC
  5
D4
330
1F
100
AcDbEntity
  8
0
  6
Continuous
 62
     7
370
    25
100
AcDbCircle
 10
116.867075326
 20
138.9872978026
 30
0.0
 40
50.00000000000003
100
AcDbArc
 50
91.2
 51
95.7762782441
  0
ARC
  5
D5
330
1F
100
AcDbEntity
  8
0
  6
Continuous
 62
     7
370
    25
100
AcDbCircle
 10
88.9577101852
 20
246.9773746576
 30
0.0
 40
1.0
100
AcDbArc
 50
1.3245219123
 51
90.0
  0
ARC
  5
D6
330
1F
100
AcDbEntity
  8
0
  6
Continuous
 62
     7
370
    25
100
AcDbCircle
 10
118.9120019377
 20
246.9773746576
 30
0.0
 40
1.0
100
AcDbArc
 50
90.0
 51
178.6754780877
  0
ARC
  5
D7
330
1F
100
AcDbEntity
  8
0
  6
Continuous
 62
     7
370
    25
100
AcDbCircle
 10
103.9348560614
 20
204.7273746576
 30
0.0
 40
16.99999999999999
100
AcDbArc
 50
149.7241140142
 51
242.3088110772
  0
ARC
  5
D8
330
1F
100
AcDbEntity
  8
0
  6
Continuous
 62
     7
370
    25
100
AcDbCircle
 10
80.6174450796
 20
218.3398081323
 30
0.0
 40
10.00000000000004
100
AcDbArc
 50
329.7241140142
 51
1.3245219123
  0
LINE
  5
D9
330
1F
100
AcDbEntity
  8
0
  6
Continuous
 62
     7
370
    25
100
AcDbLine
 10
121.9459630604
 20
249.7273746576
 30
0.0
 11
121.9459630604
 21
260.4773746576
 31
0.0
  0
LINE
  5
DA
330
1F
100
AcDbEntity
  8
0
  6
Continuous
 62
     7
370
    25
100
AcDbLine
 10
85.9237490625
 20
260.4773746576
 30
0.0
 11
85.9237490625
 21
249.7273746576
 31
0.0
  0
ARC
  5
DB
330
1F
100
AcDbEntity
  8
0
  6
Continuous
 62
     7
370
    25
100
AcDbCircle
 10
120.1959630604
 20
249.7273746576
 30
0.0
 40
1.750000000000028
100
AcDbArc
 50
270.0
 51
0.0
  0
ARC
  5
DC
330
1F
100
AcDbEntity
  8
0
  6
Continuous
 62
     7
370
    25
100
AcDbCircle
 10
87.6737490625
 20
260.4773746576
 30
0.0
 40
1.750000000000008
100
AcDbArc
 50
105.8492995417
 51
180.0
  0
ARC
  5
DD
330
1F
100
AcDbEntity
  8
0
  6
Continuous
 62
     7
370
    25
100
AcDbCircle
 10
120.1959630604
 20
260.4773746576
 30
0.0
 40
1.750000000000018
100
AcDbArc
 50
0.0
 51
74.1552676611
  0
ARC
  5
DE
330
1F
100
AcDbEntity
  8
0
  6
Continuous
 62
     7
370
    25
100
AcDbCircle
 10
87.6737490625
 20
249.7273746576
 30
0.0
 40
1.750000000000028
100
AcDbArc
 50
180.0
 51
270.0
  0
ARC
  5
DF
330
1F
100
AcDbEntity
  8
0
  6
Continuous
 62
     7
370
    25
100
AcDbCircle
 10
120.9461380517
 20
263.123076357
 30
0.0
 40
0.9999999999999898
100
AcDbArc
 50
171.4115319253
 51
254.1356649369
  0
ARC
  5
E0
330
1F
100
AcDbEntity
  8
0
  6
Continuous
 62
     7
370
    25
100
AcDbCircle
 10
86.9235740711
 20
263.123076357
 30
0.0
 40
0.9999999999999988
100
AcDbArc
 50
285.8464245101
 51
8.5643993733
  0
ARC
  5
E1
330
1F
100
AcDbEntity
  8
0
  6
Continuous
 62
     7
370
    25
100
AcDbCircle
 10
103.9348560614
 20
204.7273746576
 30
0.0
 40
7.899999999999991
100
AcDbArc
 50
0.0
 51
90.0
  0
ARC
  5
E2
330
1F
100
AcDbEntity
  8
0
  6
Continuous
 62
     7
370
    25
100
AcDbCircle
 10
103.9348560614
 20
204.7273746576
 30
0.0
 40
7.899999999999991
100
AcDbArc
 50
90.0
 51
180.0
  0
ARC
  5
E3
330
1F
100
AcDbEntity
  8
0
  6
Continuous
 62
     7
370
    25
100
AcDbCircle
 10
103.9804215604
 20
-8.2008571928
 30
0.0
 40
7.854536649335072
100
AcDbArc
 50
269.6676156034
 51
359.7077911514
  0
ARC
  5
E4
330
1F
100
AcDbEntity
  8
0
  6
Continuous
 62
     7
370
    25
100
AcDbCircle
 10
103.8892905625
 20
-8.2008571928
 30
0.0
 40
7.854536649335039
100
AcDbArc
 50
180.2922088486
 51
270.3323843966
  0
SPLINE
  5
E5
330
1F
100
AcDbEntity
  8
0
  6
Continuous
 62
     7
370
    25
100
AcDbSpline
210
0.0
220
0.0
230
1.0
 70
     8
 71
     3
 72
     9
 73
     5
 74
     0
 42
0.00000001
 43
0.00000001
 40
0.0
 40
0.0
 40
0.0
 40
0.0
 40
0.3733283679056137
 40
1.0
 40
1.0
 40
1.0
 40
1.0
 10
114.6596740034545
 20
-7.788419127547505
 30
0.0
 10
114.6511233764216
 20
-7.822921082145371
 30
0.0
 10
114.6282196065292
 20
-7.91533826113304
 30
0.0
 10
114.6007833218096
 20
-8.03363247494278
 30
0.0
 10
114.5835897804857
 20
-8.107764102978212
 30
0.0
  0
SPLINE
  5
E6
330
1F
100
AcDbEntity
  8
0
  6
Continuous
 62
     7
370
    25
100
AcDbSpline
210
0.0
220
0.0
230
1.0
 70
     8
 71
     3
 72
     9
 73
     5
 74
     0
 42
0.00000001
 43
0.00000001
 40
0.0
 40
0.0
 40
0.0
 40
0.0
 40
0.8169784353419379
 40
1.0
 40
1.0
 40
1.0
 40
1.0
 10
114.583589780482
 20
-8.107764102977741
 30
0.0
 10
114.5357437862409
 20
-8.83310503508443
 30
0.0
 10
114.4771792119862
 20
-9.72093866780828
 30
0.0
 10
114.2935624283912
 20
-10.60354461104419
 30
0.0
 10
114.2599565973602
 20
-10.76508053175172
 30
0.0
  0
SPLINE
  5
E7
330
1F
100
AcDbEntity
  8
0
  6
Continuous
 62
     7
370
    25
100
AcDbSpline
210
0.0
220
0.0
230
1.0
 70
     8
 71
     3
 72
    19
 73
    15
 74
     0
 42
0.00000001
 43
0.00000001
 40
0.0
 40
0.0
 40
0.0
 40
0.0
 40
0.0309875197273638
 40
0.1220346502357652
 40
0.2130781325958137
 40
0.3044553685839391
 40
0.3960144663038081
 40
0.4877063042634163
 40
0.5797065501159625
 40
0.6717020630512986
 40
0.7640557667699921
 40
0.856412536248486
 40
0.9489597756151691
 40
1.0
 40
1.0
 40
1.0
 40
1.0
 10
114.259958165612
 20
-10.76507327490499
 30
0.0
 10
114.1652761276983
 20
-11.15252833868659
 30
0.0
 10
113.7924005480434
 20
-12.67839887000606
 30
0.0
 10
112.4491531009072
 20
-15.14886647894438
 30
0.0
 10
109.8078162605863
 20
-17.58717383274071
 30
0.0
 10
106.4851653039024
 20
-19.0294282311594
 30
0.0
 10
102.8634747240703
 20
-19.30370690461104
 30
0.0
 10
99.34633543685344
 20
-18.38019830030978
 30
0.0
 10
96.33174982395357
 20
-16.35436886686088
 30
0.0
 10
94.16298678906574
 20
-13.45380778143061
 30
0.0
 10
93.07363904725277
 20
-9.992540870329512
 30
0.0
 10
93.24679636706809
 20
-6.403252461265177
 30
0.0
 10
94.27799711661156
 20
-3.440096776373982
 30
0.0
 10
95.57412780836022
 20
-2.102217615369592
 30
0.0
 10
96.03485606144368
 20
-1.62664926982363
 30
0.0
  0
LINE
  5
E8
330
1F
100
AcDbEntity
  8
0
  6
Continuous
 62
     7
370
    25
100
AcDbLine
 10
111.7799629388
 20
-1.5485057323
 30
0.0
 11
112.9515809608
 21
-2.8010595573
 31
0.0
  0
ARC
  5
E9
330
1F
100
AcDbEntity
  8
0
  6
Continuous
 62
     7
370
    25
100
AcDbCircle
 10
104.145275001
 20
-8.6814231635
 30
0.0
 40
10.58913125798436
100
AcDbArc
 50
348.3951793204
 51
33.7328054928
  0
SPLINE
  5
EA
330
1F
100
AcDbEntity
  8
0
  6
Continuous
 62
     7
370
    25
100
AcDbSpline
210
0.0
220
0.0
230
1.0
 70
     8
 71
     3
 72
     9
 73
     5
 74
     0
 42
0.00000001
 43
0.00000001
 40
0.0
 40
0.0
 40
0.0
 40
0.0
 40
0.6275173949570049
 40
1.0
 40
1.0
 40
1.0
 40
1.0
 10
114.5179467119904
 20
-10.81153639382974
 30
0.0
 10
114.6205018548654
 20
-10.18274708244059
 30
0.0
 10
114.7839318150533
 20
-9.18072018017084
 30
0.0
 10
114.6933967429572
 20
-8.166280326792021
 30
0.0
 10
114.659674003455
 20
-7.788419127546089
 30
0.0
  0
LINE
  5
EB
330
1F
100
AcDbEntity
  8
0
  6
Continuous
 62
     7
370
    25
100
AcDbLine
 10
102.6220723202
 20
-19.3105592044
 30
0.0
 11
103.4187478605
 21
-19.3820324912
 31
0.0
  0
LINE
  5
EC
330
1F
100
AcDbEntity
  8
0
  6
Continuous
 62
     7
370
    25
100
AcDbLine
 10
100.4572193926
 20
-18.7122903519
 30
0.0
 11
100.8281679124
 21
-18.8189902505
 31
0.0
  0
LINE
  5
ED
330
1F
100
AcDbEntity
  8
0
  6
Continuous
 62
     7
370
    25
100
AcDbLine
 10
114.6596740035
 20
-7.7884191275
 30
0.0
 11
114.5768416574
 21
-8.172346614
 31
0.0
  0
LINE
  5
EE
330
1F
100
AcDbEntity
  8
0
  6
Continuous
 62
     7
370
    25
100
AcDbLine
 10
96.8987690009
 20
208.1964890565
 30
0.0
 11
96.4712885468
 21
207.3168070189
 31
0.0
  0
ARC
  5
EF
330
1F
100
AcDbEntity
  8
0
  6
Continuous
 62
     7
370
    25
100
AcDbCircle
 10
103.9726812116
 20
-8.681280236
 30
0.0
 40
11.51156068270987
100
AcDbArc
 50
133.5946937535
 51
356.3477284925
  0
ARC
  5
F0
330
1F
100
AcDbEntity
  8
0
  6
Continuous
 62
     7
370
    25
100
AcDbCircle
 10
104.1141507175
 20
-8.6906148015
 30
0.0
 40
11.36978388018169
100
AcDbArc
 50
356.3492597238
 51
47.2301808293
  0
LINE
  5
F1
330
1F
100
AcDbEntity
  8
0
  6
Continuous
 62
     7
370
    25
100
AcDbLine
 10
115.4608622448
 20
-11.3320193128
 30
0.0
 11
115.4848560614
 21
-10.5959892344
 31
0.0
  0
ARC
  5
F2
330
1F
100
AcDbEntity
  8
0
  6
Continuous
 62
     7
370
    25
100
AcDbCircle
 10
103.9377705455
 20
-10.4965024801
 30
0.0
 40
11.55334283614262
100
AcDbArc
 50
180.4933846131
 51
355.852852733
  0
ARC
  5
F3
330
1F
100
AcDbEntity
  8
0
  6
Continuous
 62
     7
370
    25
100
AcDbCircle
 10
103.9695564408
 20
-8.6699494495
 30
0.0
 40
10.76544016808462
100
AcDbArc
 50
137.480980988
 51
356.2887152623
  0
ARC
  5
F4
330
1F
100
AcDbEntity
  8
0
  6
Continuous
 62
     7
370
    25
100
AcDbCircle
 10
104.1182845236
 20
-8.6851782914
 30
0.0
 40
10.61603970031855
100
AcDbArc
 50
356.3187765843
 51
42.9217010631
  0
ARC
  5
F5
330
1F
100
AcDbEntity
  8
0
  6
Continuous
 62
     7
370
    25
100
AcDbCircle
 10
103.9348560614
 20
-10.9404060068
 30
0.0
 40
11.11119944789885
100
AcDbArc
 50
251.3894551427
 51
288.6105448573
  0
ARC
  5
F6
330
1F
100
AcDbEntity
  8
0
  6
Continuous
 62
     7
370
    25
100
AcDbCircle
 10
103.9348560614
 20
204.7273746576
 30
0.0
 40
9.574999999999978
100
AcDbArc
 50
325.5951096848
 51
119.4063269879
  0
ARC
  5
F7
330
1F
100
AcDbEntity
  8
0
  6
Continuous
 62
     7
370
    25
100
AcDbCircle
 10
103.9348560614
 20
204.7273746576
 30
0.0
 40
9.574999999999962
100
AcDbArc
 50
119.4063269879
 51
214.4048903152
  0
ARC
  5
F8
330
1F
100
AcDbEntity
  8
0
  6
Continuous
 62
     7
370
    25
100
AcDbCircle
 10
103.9348560614
 20
204.7273746576
 30
0.0
 40
8.250000000000002
100
AcDbArc
 50
343.2508741362
 51
119.4063269879
  0
ARC
  5
F9
330
1F
100
AcDbEntity
  8
0
  6
Continuous
 62
     7
370
    25
100
AcDbCircle
 10
103.9348560614
 20
204.7273746576
 30
0.0
 40
8.250000000000002
100
AcDbArc
 50
119.4063269879
 51
196.7491258638
  0
ARC
  5
FA
330
1F
100
AcDbEntity
  8
0
  6
Continuous
 62
     7
370
    25
100
AcDbCircle
 10
103.9348560614
 20
204.7273746576
 30
0.0
 40
8.049999999999994
100
AcDbArc
 50
29.4063269879
 51
191.0780164461
  0
ARC
  5
FB
330
1F
100
AcDbEntity
  8
0
  6
Continuous
 62
     7
370
    25
100
AcDbCircle
 10
103.9348560614
 20
204.7273746576
 30
0.0
 40
8.049999999999994
100
AcDbArc
 50
348.9219835539
 51
29.4063269879
  0
ARC
  5
FC
330
1F
100
AcDbEntity
  8
0
  6
Continuous
 62
     7
370
    25
100
AcDbCircle
 10
103.9348560614
 20
204.7273746576
 30
0.0
 40
9.92500000000003
100
AcDbArc
 50
322.7469493593
 51
182.3675813795
  0
ARC
  5
FD
330
1F
100
AcDbEntity
  8
0
  6
Continuous
 62
     7
370
    25
100
AcDbCircle
 10
103.9348560614
 20
204.7273746576
 30
0.0
 40
9.925000000000008
100
AcDbArc
 50
182.3675813795
 51
217.2530506407
  0
ARC
  5
FE
330
1F
100
AcDbEntity
  8
0
  6
Continuous
 62
     7
370
    25
100
AcDbCircle
 10
103.9348560614
 20
204.7273746576
 30
0.0
 40
9.72500000000001
100
AcDbArc
 50
182.3675813795
 51
215.6748758017
  0
ARC
  5
FF
330
1F
100
AcDbEntity
  8
0
  6
Continuous
 62
     7
370
    25
100
AcDbCircle
 10
103.9348560614
 20
204.7273746576
 30
0.0
 40
9.72500000000003
100
AcDbArc
 50
324.9366182384
 51
182.3675813795
  0
ARC
  5
100
330
1F
100
AcDbEntity
  8
0
  6
Continuous
 62
     7
370
    25
100
AcDbCircle
 10
103.9348560614
 20
204.7273746576
 30
0.0
 40
14.22500000000002
100
AcDbArc
 50
303.7355336397
 51
182.3675813795
  0
ARC
  5
101
330
1F
100
AcDbEntity
  8
0
  6
Continuous
 62
     7
370
    25
100
AcDbCircle
 10
103.9348560614
 20
204.7273746576
 30
0.0
 40
14.22500000000001
100
AcDbArc
 50
182.3675813795
 51
236.2644663603
  0
LINE
  5
102
330
1F
100
AcDbEntity
  8
0
  6
Continuous
 62
     7
370
    25
100
AcDbLine
 10
94.5218038125
 20
194.0622411676
 30
0.0
 11
94.3612889847
 21
193.8803753901
 31
0.0
  0
LINE
  5
103
330
1F
100
AcDbEntity
  8
0
  6
Continuous
 62
     7
370
    25
100
AcDbLine
 10
114.1961889579
 20
194.8756909341
 30
0.0
 11
114.3711689792
 21
194.7076964011
 31
0.0
  0
LINE
  5
104
330
1F
100
AcDbEntity
  8
0
  6
Continuous
 62
     7
370
    25
100
AcDbLine
 10
117.8303084282
 20
208.755647638
 30
0.0
 11
117.5973308843
 21
208.6881077609
 31
0.0
  0
SPLINE
  5
105
330
1F
100
AcDbEntity
  8
0
  6
Continuous
 62
     7
370
    25
100
AcDbSpline
210
0.0
220
0.0
230
1.0
 70
     8
 71
     3
 72
    11
 73
     7
 74
     0
 42
0.00000001
 43
0.00000001
 40
0.0
 40
0.0
 40
0.0
 40
0.0
 40
0.144670259104256
 40
0.3907520209323696
 40
0.5962314811354847
 40
1.0
 40
1.0
 40
1.0
 40
1.0
 10
118.1154165202753
 20
201.8599219980104
 30
0.0
 10
118.1397988357518
 20
202.1925007075009
 30
0.0
 10
118.2056550739753
 20
203.0907904019906
 30
0.0
 10
118.21955019891
 20
204.4667350009432
 30
0.0
 10
118.1502468728833
 20
206.4393253472792
 30
0.0
 10
117.9578296207997
 20
207.8324069775957
 30
0.0
 10
117.8303084282031
 20
208.7556476379769
 30
0.0
  0
LINE
  5
106
330
1F
100
AcDbEntity
  8
0
  6
Continuous
 62
     7
370
    25
100
AcDbLine
 10
117.877658723
 20
201.9079990278
 30
0.0
 11
118.1154165203
 21
201.859921998
 31
0.0
  0
LINE
  5
107
330
1F
100
AcDbEntity
  8
0
  6
Continuous
 62
     7
370
    25
100
AcDbLine
 10
90.2723812386
 20
200.7666415543
 30
0.0
 11
90.0394036947
 21
200.6991016772
 31
0.0
  0
SPLINE
  5
108
330
1F
100
AcDbEntity
  8
0
  6
Continuous
 62
     7
370
    25
100
AcDbSpline
210
0.0
220
0.0
230
1.0
 70
     8
 71
     3
 72
    11
 73
     7
 74
     0
 42
0.00000001
 43
0.00000001
 40
0.0
 40
0.0
 40
0.0
 40
0.0
 40
0.1446702591042548
 40
0.390752020932366
 40
0.5962314811354797
 40
0.9999999999999999
 40
0.9999999999999999
 40
0.9999999999999999
 40
0.9999999999999999
 10
89.75429560261207
 20
207.5948273171525
 30
0.0
 10
89.72991328713563
 20
207.262248607662
 30
0.0
 10
89.66405704891214
 20
206.3639589131724
 30
0.0
 10
89.65016192397735
 20
204.9880143142197
 30
0.0
 10
89.71946525000416
 20
203.0154239678837
 30
0.0
 10
89.91188250208774
 20
201.6223423375672
 30
0.0
 10
90.0394036946843
 20
200.699101677186
 30
0.0
  0
LINE
  5
109
330
1F
100
AcDbEntity
  8
0
  6
Continuous
 62
     7
370
    25
100
AcDbLine
 10
89.7542956026
 20
207.5948273172
 30
0.0
 11
89.9920533999
 21
207.5467502873
 31
0.0
  0
LINE
  5
10A
330
1F
100
AcDbEntity
  8
0
  6
Continuous
 62
     7
370
    25
100
AcDbLine
 10
107.3939955104
 20
218.7753258945
 30
0.0
 11
107.3359979878
 21
218.5397914844
 31
0.0
  0
SPLINE
  5
10B
330
1F
100
AcDbEntity
  8
0
  6
Continuous
 62
     7
370
    25
100
AcDbSpline
210
0.0
220
0.0
230
1.0
 70
     8
 71
     3
 72
    11
 73
     7
 74
     0
 42
0.00000001
 43
0.00000001
 40
0.0
 40
0.0
 40
0.0
 40
0.0
 40
0.1446702591042545
 40
0.3907520209323626
 40
0.5962314811354612
 40
1.0
 40
1.0
 40
1.0
 40
1.0
 10
113.5084231381973
 20
215.5743739250453
 30
0.0
 10
113.2325926847589
 20
215.7617789843962
 30
0.0
 10
112.4875791084849
 20
216.2679570069402
 30
0.0
 10
111.3029236940593
 20
216.9679628375988
 30
0.0
 10
109.5599586798591
 20
217.8942395698608
 30
0.0
 10
108.2573059724177
 20
218.4241421565883
 30
0.0
 10
107.3939955104226
 20
218.7753258944695
 30
0.0
  0
LINE
  5
10C
330
1F
100
AcDbEntity
  8
0
  6
Continuous
 62
     7
370
    25
100
AcDbLine
 10
113.5084231382
 20
215.574373925
 30
0.0
 11
113.3479083104
 21
215.3925081476
 31
0.0
  0
LINE
  5
10D
330
1F
100
AcDbEntity
  8
0
  6
Continuous
 62
     7
370
    25
100
AcDbLine
 10
93.4985431437
 20
214.7470529141
 30
0.0
 11
93.673523165
 21
214.5790583811
 31
0.0
  0
SPLINE
  5
10E
330
1F
100
AcDbEntity
  8
0
  6
Continuous
 62
     7
370
    25
100
AcDbSpline
210
0.0
220
0.0
230
1.0
 70
     8
 71
     3
 72
    11
 73
     7
 74
     0
 42
0.00000001
 43
0.00000001
 40
0.0
 40
0.0
 40
0.0
 40
0.0
 40
0.1446702591042539
 40
0.3907520209323629
 40
0.5962314811354598
 40
1.0
 40
1.0
 40
1.0
 40
1.0
 10
99.3278626793657
 20
218.4418265846164
 30
0.0
 10
99.02764991045083
 20
218.2966529344768
 30
0.0
 10
98.21678009595331
 20
217.9045412625312
 30
0.0
 10
97.01822955659298
 20
217.2286024942372
 30
0.0
 10
95.34456786841952
 20
216.1822888801632
 30
0.0
 10
94.23433241306171
 20
215.3191098365742
 30
0.0
 10
93.49854314366316
 20
214.7470529140741
 30
0.0
  0
LINE
  5
10F
330
1F
100
AcDbEntity
  8
0
  6
Continuous
 62
     7
370
    25
100
AcDbLine
 10
99.3278626794
 20
218.4418265846
 30
0.0
 11
99.4051056488
 21
218.2118837773
 31
0.0
  0
SPLINE
  5
110
330
1F
100
AcDbEntity
  8
0
  6
Continuous
 62
     7
370
    25
100
AcDbSpline
210
0.0
220
0.0
230
1.0
 70
     8
 71
     3
 72
     9
 73
     5
 74
     0
 42
0.00000001
 43
0.00000001
 40
0.0
 40
0.0
 40
0.0
 40
0.0
 40
0.5862283062032536
 40
1.0
 40
1.0
 40
1.0
 40
1.0
 10
107.3939955104226
 20
218.7753258944695
 30
0.0
 10
107.0817634474143
 20
218.890444765862
 30
0.0
 10
106.5491517333358
 20
219.0868168450919
 30
0.0
 10
106.0082574060965
 20
219.2628940545758
 30
0.0
 10
105.7844506441497
 20
219.335749819783
 30
0.0
  0
SPLINE
  5
111
330
1F
100
AcDbEntity
  8
0
  6
Continuous
 62
     7
370
    25
100
AcDbSpline
210
0.0
220
0.0
230
1.0
 70
     8
 71
     3
 72
     9
 73
     5
 74
     0
 42
0.00000001
 43
0.00000001
 40
0.0
 40
0.0
 40
0.0
 40
0.0
 40
0.5863847898283555
 40
0.9999999999999999
 40
0.9999999999999999
 40
0.9999999999999999
 40
0.9999999999999999
 10
100.8856509580335
 20
219.1332058809902
 30
0.0
 10
100.5783464186858
 20
219.0034895553465
 30
0.0
 10
100.0542800638308
 20
218.7822758951463
 30
0.0
 10
99.54040798659352
 20
218.5414399816104
 30
0.0
 10
99.3278626793657
 20
218.4418265846164
 30
0.0
  0
ARC
  5
112
330
1F
100
AcDbEntity
  8
0
  6
Continuous
 62
     7
370
    25
100
AcDbCircle
 10
103.9348560614
 20
204.7273746576
 30
0.0
 40
14.72500000000003
100
AcDbArc
 50
82.7840658168
 51
101.9510969422
  0
SPLINE
  5
113
330
1F
100
AcDbEntity
  8
0
  6
Continuous
 62
     7
370
    25
100
AcDbSpline
210
0.0
220
0.0
230
1.0
 70
     8
 71
     3
 72
     9
 73
     5
 74
     0
 42
0.00000001
 43
0.00000001
 40
0.0
 40
0.0
 40
0.0
 40
0.0
 40
0.5862283062032794
 40
0.9999999999999999
 40
0.9999999999999999
 40
0.9999999999999999
 40
0.9999999999999999
 10
93.49854314366316
 20
214.7470529140741
 30
0.0
 10
93.24273124507806
 20
214.5342114513292
 30
0.0
 10
92.80636217883176
 20
214.1711422161989
 30
0.0
 10
92.38342767877155
 20
213.7907525927888
 30
0.0
 10
92.20842935431658
 20
213.6333581340077
 30
0.0
  0
SPLINE
  5
114
330
1F
100
AcDbEntity
  8
0
  6
Continuous
 62
     7
370
    25
100
AcDbSpline
210
0.0
220
0.0
230
1.0
 70
     8
 71
     3
 72
     9
 73
     5
 74
     0
 42
0.00000001
 43
0.00000001
 40
0.0
 40
0.0
 40
0.0
 40
0.0
 40
0.5863847898283736
 40
1.0
 40
1.0
 40
1.0
 40
1.0
 10
89.93443770763564
 20
209.2896011883835
 30
0.0
 10
89.89312307125475
 20
208.9586094877882
 30
0.0
 10
89.82266654322478
 20
208.3941478811149
 30
0.0
 10
89.77430052387187
 20
207.828703651164
 30
0.0
 10
89.75429560261207
 20
207.5948273171525
 30
0.0
  0
ARC
  5
115
330
1F
100
AcDbEntity
  8
0
  6
Continuous
 62
     7
370
    25
100
AcDbCircle
 10
103.9348560614
 20
204.7273746576
 30
0.0
 40
14.72500000000001
100
AcDbArc
 50
142.7840658168
 51
161.9510969422
  0
SPLINE
  5
116
330
1F
100
AcDbEntity
  8
0
  6
Continuous
 62
     7
370
    25
100
AcDbSpline
210
0.0
220
0.0
230
1.0
 70
     8
 71
     3
 72
     9
 73
     5
 74
     0
 42
0.00000001
 43
0.00000001
 40
0.0
 40
0.0
 40
0.0
 40
0.0
 40
0.5862283062032687
 40
0.9999999999999999
 40
0.9999999999999999
 40
0.9999999999999999
 40
0.9999999999999999
 10
117.8303084282031
 20
208.7556476379769
 30
0.0
 10
117.77388826378
 20
209.0836079721143
 30
0.0
 10
117.6776456159478
 20
209.6430492864744
 30
0.0
 10
117.5596857887687
 20
210.1995161193685
 30
0.0
 10
117.5108773512768
 20
210.4297663433568
 30
0.0
  0
SPLINE
  5
117
330
1F
100
AcDbEntity
  8
0
  6
Continuous
 62
     7
370
    25
100
AcDbSpline
210
0.0
220
0.0
230
1.0
 70
     8
 71
     3
 72
     9
 73
     5
 74
     0
 42
0.00000001
 43
0.00000001
 40
0.0
 40
0.0
 40
0.0
 40
0.0
 40
0.5863847898283566
 40
1.0
 40
1.0
 40
1.0
 40
1.0
 10
114.8860693118416
 20
214.5709793501882
 30
0.0
 10
114.6200794088748
 20
214.7722547251398
 30
0.0
 10
114.1664695820497
 20
215.1155026716128
 30
0.0
 10
113.7009635241653
 20
215.4401109880278
 30
0.0
 10
113.5084231381973
 20
215.5743739250453
 30
0.0
  0
ARC
  5
118
330
1F
100
AcDbEntity
  8
0
  6
Continuous
 62
     7
370
    25
100
AcDbCircle
 10
103.9348560614
 20
204.7273746576
 30
0.0
 40
14.72500000000006
100
AcDbArc
 50
22.7840658168
 51
41.9510969422
  0
SPLINE
  5
119
330
1F
100
AcDbEntity
  8
0
  6
Continuous
 62
     7
370
    25
100
AcDbSpline
210
0.0
220
0.0
230
1.0
 70
     8
 71
     3
 72
     9
 73
     5
 74
     0
 42
0.00000001
 43
0.00000001
 40
0.0
 40
0.0
 40
0.0
 40
0.0
 40
0.5862283062032734
 40
1.0
 40
1.0
 40
1.0
 40
1.0
 10
114.3711689792243
 20
194.7076964010889
 30
0.0
 10
114.6269808778094
 20
194.9205378638338
 30
0.0
 10
115.0633499440557
 20
195.2836070989641
 30
0.0
 10
115.4862844441159
 20
195.6639967223742
 30
0.0
 10
115.6612827685709
 20
195.8213911811553
 30
0.0
  0
SPLINE
  5
11A
330
1F
100
AcDbEntity
  8
0
  6
Continuous
 62
     7
370
    25
100
AcDbSpline
210
0.0
220
0.0
230
1.0
 70
     8
 71
     3
 72
     9
 73
     5
 74
     0
 42
0.00000001
 43
0.00000001
 40
0.0
 40
0.0
 40
0.0
 40
0.0
 40
0.5863847898283554
 40
1.0
 40
1.0
 40
1.0
 40
1.0
 10
117.9352744152518
 20
200.1651481267795
 30
0.0
 10
117.9765890516327
 20
200.4961398273747
 30
0.0
 10
118.0470455796626
 20
201.060601434048
 30
0.0
 10
118.0954115990155
 20
201.6260456639989
 30
0.0
 10
118.1154165202753
 20
201.8599219980104
 30
0.0
  0
ARC
  5
11B
330
1F
100
AcDbEntity
  8
0
  6
Continuous
 62
     7
370
    25
100
AcDbCircle
 10
103.9348560614
 20
204.7273746576
 30
0.0
 40
14.72500000000005
100
AcDbArc
 50
322.7840658168
 51
341.9510969422
  0
SPLINE
  5
11C
330
1F
100
AcDbEntity
  8
0
  6
Continuous
 62
     7
370
    25
100
AcDbSpline
210
0.0
220
0.0
230
1.0
 70
     8
 71
     3
 72
     9
 73
     5
 74
     0
 42
0.00000001
 43
0.00000001
 40
0.0
 40
0.0
 40
0.0
 40
0.0
 40
0.5863847898283805
 40
0.9999999999999999
 40
0.9999999999999999
 40
0.9999999999999999
 40
0.9999999999999999
 10
92.98364281104575
 20
194.8837699649748
 30
0.0
 10
93.24963271401265
 20
194.6824945900232
 30
0.0
 10
93.70324254083772
 20
194.3392466435502
 30
0.0
 10
94.16874859872208
 20
194.0146383271352
 30
0.0
 10
94.36128898469006
 20
193.8803753901177
 30
0.0
  0
ARC
  5
11D
330
1F
100
AcDbEntity
  8
0
  6
Continuous
 62
     7
370
    25
100
AcDbCircle
 10
103.9348560614
 20
204.7273746576
 30
0.0
 40
14.72500000000002
100
AcDbArc
 50
202.7840658168
 51
221.9510969422
  0
SPLINE
  5
11E
330
1F
100
AcDbEntity
  8
0
  6
Continuous
 62
     7
370
    25
100
AcDbSpline
210
0.0
220
0.0
230
1.0
 70
     8
 71
     3
 72
     9
 73
     5
 74
     0
 42
0.00000001
 43
0.00000001
 40
0.0
 40
0.0
 40
0.0
 40
0.0
 40
0.5862283062032897
 40
1.0
 40
1.0
 40
1.0
 40
1.0
 10
90.0394036946843
 20
200.699101677186
 30
0.0
 10
90.0958238591075
 20
200.3711413430486
 30
0.0
 10
90.19206650693972
 20
199.8117000286885
 30
0.0
 10
90.31002633411877
 20
199.2552331957944
 30
0.0
 10
90.35883477161063
 20
199.0249829718062
 30
0.0
  0
ARC
  5
11F
330
1F
100
AcDbEntity
  8
0
  6
Continuous
 62
     7
370
    25
100
AcDbCircle
 10
93.8057156367
 20
214.9860223916
 30
0.0
 40
0.3891803588387376
100
AcDbArc
 50
179.2550497425
 51
217.8816701873
  0
SPLINE
  5
120
330
1F
100
AcDbEntity
  8
0
  6
Continuous
 62
     7
370
    25
100
AcDbSpline
210
0.0
220
0.0
230
1.0
 70
    24
 71
     3
 72
    12
 73
     8
 74
     0
 42
0.00000001
 43
0.00000001
 40
0.0
 40
0.0
 40
0.0
 40
0.0
 40
0.3013828945621553
 40
0.4108442493795784
 40
0.624718519533663
 40
0.6986171054378617
 40
1.0
 40
1.0
 40
1.0
 40
1.0
 10
93.41656817245172
 20
214.9910823077936
 30
0.0
 10
93.99018673184553
 20
215.3546566044507
 30
0.0
 10
94.7721418152842
 20
215.8502799848711
 30
0.0
 10
95.9668726749677
 20
216.6075313410041
 30
0.0
 10
96.72798128463148
 20
217.0899416865316
 30
0.0
 10
97.85430549751132
 20
217.803835138547
 30
0.0
 10
98.568557863257
 20
218.2565467833482
 30
0.0
 10
99.1421631612557
 20
218.6201126745896
 30
0.0
  0
ARC
  5
121
330
1F
100
AcDbEntity
  8
0
  6
Continuous
 62
     7
370
    25
100
AcDbCircle
 10
98.9806497867
 20
218.2660296596
 30
0.0
 40
0.3891803587964833
100
AcDbArc
 50
26.8534925694
 51
65.4801130186
  0
ARC
  5
122
330
1F
100
AcDbEntity
  8
0
  6
Continuous
 62
     7
370
    25
100
AcDbCircle
 10
107.7545353953
 20
218.6287914509
 30
0.0
 40
0.3891803588382838
100
AcDbArc
 50
119.2550497425
 51
157.8816701874
  0
SPLINE
  5
123
330
1F
100
AcDbEntity
  8
0
  6
Continuous
 62
     7
370
    25
100
AcDbSpline
210
0.0
220
0.0
230
1.0
 70
    24
 71
     3
 72
    12
 73
     8
 74
     0
 42
0.00000001
 43
0.00000001
 40
0.0
 40
0.0
 40
0.0
 40
0.0
 40
0.3013828945621514
 40
0.4108442493795597
 40
0.6247185195336407
 40
0.6986171054378663
 40
1.0
 40
1.0
 40
1.0
 40
1.0
 10
107.5643436790481
 20
218.9683329988727
 30
0.0
 10
108.1660175358131
 20
218.653351902684
 30
0.0
 10
108.986217515686
 20
218.223970626018
 30
0.0
 10
110.2393818569891
 20
217.5679290289134
 30
0.0
 10
111.0377157760962
 20
217.1499948106693
 30
0.0
 10
112.2191277475768
 20
216.5315161554255
 30
0.0
 10
112.9683137154366
 20
216.1393112843772
 30
0.0
 10
113.5699736622006
 20
215.8243374701857
 30
0.0
  0
ARC
  5
124
330
1F
100
AcDbEntity
  8
0
  6
Continuous
 62
     7
370
    25
100
AcDbCircle
 10
113.1825720889
 20
215.7871706481
 30
0.0
 40
0.3891803587968789
100
AcDbArc
 50
326.8534925694
 51
5.4801130186
  0
LINE
  5
125
330
1F
100
AcDbEntity
  8
0
  6
Continuous
 62
     7
370
    25
100
AcDbLine
 10
96.0348560614
 20
192.7220638459
 30
0.0
 11
94.2997384607
 21
193.630411845
 31
0.0
  0
ARC
  5
126
330
1F
100
AcDbEntity
  8
0
  6
Continuous
 62
     7
370
    25
100
AcDbCircle
 10
94.687140034
 20
193.6675786671
 30
0.0
 40
0.3891803587967937
100
AcDbArc
 50
146.8534925694
 51
185.4801130186
  0
ARC
  5
127
330
1F
100
AcDbEntity
  8
0
  6
Continuous
 62
     7
370
    25
100
AcDbCircle
 10
89.9860363029
 20
201.0846055983
 30
0.0
 40
0.3891803588383821
100
AcDbArc
 50
239.2550497425
 51
277.8816701874
  0
SPLINE
  5
128
330
1F
100
AcDbEntity
  8
0
  6
Continuous
 62
     7
370
    25
100
AcDbSpline
210
0.0
220
0.0
230
1.0
 70
    24
 71
     3
 72
    12
 73
     8
 74
     0
 42
0.00000001
 43
0.00000001
 40
0.0
 40
0.0
 40
0.0
 40
0.0
 40
0.3013828945620947
 40
0.4108442493795592
 40
0.6247185195336502
 40
0.698617105437864
 40
1.0
 40
1.0
 40
1.0
 40
1.0
 10
89.78708055484738
 20
200.7501239665022
 30
0.0
 10
89.75902525747617
 20
201.4286793593479
 30
0.0
 10
89.7207803610419
 20
202.3536840164343
 30
0.0
 10
89.66234687942222
 20
203.7669769696719
 30
0.0
 10
89.62512156997886
 20
204.6673215334438
 30
0.0
 10
89.57003381137817
 20
205.9996936407029
 30
0.0
 10
89.53510020926412
 20
206.8446101565524
 30
0.0
 10
89.5070455604988
 20
207.5231498619854
 30
0.0
  0
ARC
  5
129
330
1F
100
AcDbEntity
  8
0
  6
Continuous
 62
     7
370
    25
100
AcDbCircle
 10
89.7329337593
 20
207.2062336691
 30
0.0
 40
0.3891803587962763
100
AcDbArc
 50
86.8534925694
 51
125.4801130186
  0
SPLINE
  5
12A
330
1F
100
AcDbEntity
  8
0
  6
Continuous
 62
     7
370
    25
100
AcDbSpline
210
0.0
220
0.0
230
1.0
 70
    24
 71
     3
 72
    10
 73
     6
 74
     0
 42
0.00000001
 43
0.00000001
 40
0.0
 40
0.0
 40
0.0
 40
0.0
 40
0.6588579034621659
 40
0.898153099196308
 40
1.0
 40
1.0
 40
1.0
 40
1.0
 10
114.4531439504357
 20
194.4636670073695
 30
0.0
 10
113.8795179657529
 20
194.1000880043719
 30
0.0
 10
113.0975527601826
 20
193.6044582082823
 30
0.0
 10
112.2227799932548
 20
193.050004576575
 30
0.0
 10
111.9240430399909
 20
192.8606573598755
 30
0.0
 10
111.8348560614437
 20
192.8041283433971
 30
0.0
  0
ARC
  5
12B
330
1F
100
AcDbEntity
  8
0
  6
Continuous
 62
     7
370
    25
100
AcDbCircle
 10
114.0639964862
 20
194.4687269235
 30
0.0
 40
0.3891803587985024
100
AcDbArc
 50
359.2550497404
 51
37.8816701894
  0
SPLINE
  5
12C
330
1F
100
AcDbEntity
  8
0
  6
Continuous
 62
     7
370
    25
100
AcDbSpline
210
0.0
220
0.0
230
1.0
 70
    24
 71
     3
 72
    12
 73
     8
 74
     0
 42
0.00000001
 43
0.00000001
 40
0.0
 40
0.0
 40
0.0
 40
0.0
 40
0.3013828945621545
 40
0.4108442493795549
 40
0.6247185195336478
 40
0.69861710543786
 40
1.0
 40
1.0
 40
1.0
 40
1.0
 10
118.08263156804
 20
208.7046253486607
 30
0.0
 10
118.1106868654112
 20
208.0260699558148
 30
0.0
 10
118.1489317618455
 20
207.1010652987284
 30
0.0
 10
118.2073652434652
 20
205.6877723454909
 30
0.0
 10
118.2445905529085
 20
204.7874277817192
 30
0.0
 10
118.2996783115093
 20
203.45505567446
 30
0.0
 10
118.3346119136233
 20
202.6101391586105
 30
0.0
 10
118.3626665623886
 20
201.9315994531776
 30
0.0
  0
ARC
  5
12D
330
1F
100
AcDbEntity
  8
0
  6
Continuous
 62
     7
370
    25
100
AcDbCircle
 10
118.1367783636
 20
202.2485156461
 30
0.0
 40
0.3891803587961837
100
AcDbArc
 50
266.8534925694
 51
305.4801130186
  0
ARC
  5
12E
330
1F
100
AcDbEntity
  8
0
  6
Continuous
 62
     7
370
    25
100
AcDbCircle
 10
117.88367582
 20
208.3701437169
 30
0.0
 40
0.3891803587983252
100
AcDbArc
 50
59.2550497404
 51
97.8816701894
  0
LINE
  5
12F
330
1F
100
AcDbEntity
  8
0
  6
Continuous
 62
     7
370
    25
100
AcDbLine
 10
113.5699736622
 20
215.8243374702
 30
0.0
 11
115.1179680045
 21
215.0139499997
 31
0.0
  0
LINE
  5
130
330
1F
100
AcDbEntity
  8
0
  6
Continuous
 62
     7
370
    25
100
AcDbLine
 10
115.1179680045
 20
215.0139499997
 30
0.0
 11
114.8860693118
 21
214.5709793502
 31
0.0
  0
LINE
  5
131
330
1F
100
AcDbEntity
  8
0
  6
Continuous
 62
     7
370
    25
100
AcDbLine
 10
99.1421631613
 20
218.6201126746
 30
0.0
 11
100.6179764687
 21
219.5555213647
 31
0.0
  0
LINE
  5
132
330
1F
100
AcDbEntity
  8
0
  6
Continuous
 62
     7
370
    25
100
AcDbLine
 10
100.6179764687
 20
219.5555213647
 30
0.0
 11
100.885650958
 21
219.133205881
 31
0.0
  0
LINE
  5
133
330
1F
100
AcDbEntity
  8
0
  6
Continuous
 62
     7
370
    25
100
AcDbLine
 10
94.2997384607
 20
193.630411845
 30
0.0
 11
92.7517441184
 21
194.4407993154
 31
0.0
  0
LINE
  5
134
330
1F
100
AcDbEntity
  8
0
  6
Continuous
 62
     7
370
    25
100
AcDbLine
 10
92.7517441184
 20
194.4407993154
 30
0.0
 11
92.983642811
 21
194.883769965
 31
0.0
  0
LINE
  5
135
330
1F
100
AcDbEntity
  8
0
  6
Continuous
 62
     7
370
    25
100
AcDbLine
 10
89.5070455605
 20
207.523149862
 30
0.0
 11
89.4348645257
 21
209.2689460225
 31
0.0
  0
LINE
  5
136
330
1F
100
AcDbEntity
  8
0
  6
Continuous
 62
     7
370
    25
100
AcDbLine
 10
89.9344377076
 20
209.2896011884
 30
0.0
 11
89.4348645257
 21
209.2689460225
 31
0.0
  0
LINE
  5
137
330
1F
100
AcDbEntity
  8
0
  6
Continuous
 62
     7
370
    25
100
AcDbLine
 10
118.3626665624
 20
201.9315994532
 30
0.0
 11
118.4348475972
 21
200.1858032926
 31
0.0
  0
LINE
  5
138
330
1F
100
AcDbEntity
  8
0
  6
Continuous
 62
     7
370
    25
100
AcDbLine
 10
118.4348475972
 20
200.1858032926
 30
0.0
 11
117.9352744153
 21
200.1651481268
 31
0.0
  0
LINE
  5
139
330
1F
100
AcDbEntity
  8
0
  6
Continuous
 62
     7
370
    25
100
AcDbLine
 10
118.0104505332
 20
210.4504215092
 30
0.0
 11
118.082631568
 21
208.7046253487
 31
0.0
  0
LINE
  5
13A
330
1F
100
AcDbEntity
  8
0
  6
Continuous
 62
     7
370
    25
100
AcDbLine
 10
117.5108773513
 20
210.4297663434
 30
0.0
 11
118.0104505332
 21
210.4504215092
 31
0.0
  0
LINE
  5
13B
330
1F
100
AcDbEntity
  8
0
  6
Continuous
 62
     7
370
    25
100
AcDbLine
 10
92.2084293543
 20
213.633358134
 30
0.0
 11
91.940754865
 21
214.0556736177
 31
0.0
  0
LINE
  5
13C
330
1F
100
AcDbEntity
  8
0
  6
Continuous
 62
     7
370
    25
100
AcDbLine
 10
91.940754865
 20
214.0556736177
 30
0.0
 11
93.4165681725
 21
214.9910823078
 31
0.0
  0
LINE
  5
13D
330
1F
100
AcDbEntity
  8
0
  6
Continuous
 62
     7
370
    25
100
AcDbLine
 10
105.7844506441
 20
219.3357498198
 30
0.0
 11
106.0163493368
 21
219.7787204693
 31
0.0
  0
LINE
  5
13E
330
1F
100
AcDbEntity
  8
0
  6
Continuous
 62
     7
370
    25
100
AcDbLine
 10
106.0163493368
 20
219.7787204693
 30
0.0
 11
107.564343679
 21
218.9683329989
 31
0.0
  0
LINE
  5
13F
330
1F
100
AcDbEntity
  8
0
  6
Continuous
 62
     7
370
    25
100
AcDbLine
 10
115.9289572579
 20
195.3990756975
 30
0.0
 11
114.4531439504
 21
194.4636670074
 31
0.0
  0
LINE
  5
140
330
1F
100
AcDbEntity
  8
0
  6
Continuous
 62
     7
370
    25
100
AcDbLine
 10
115.6612827686
 20
195.8213911812
 30
0.0
 11
115.9289572579
 21
195.3990756975
 31
0.0
  0
LINE
  5
141
330
1F
100
AcDbEntity
  8
0
  6
Continuous
 62
     7
370
    25
100
AcDbLine
 10
90.3588347716
 20
199.0249829718
 30
0.0
 11
89.8592615897
 21
199.004327806
 31
0.0
  0
LINE
  5
142
330
1F
100
AcDbEntity
  8
0
  6
Continuous
 62
     7
370
    25
100
AcDbLine
 10
89.8592615897
 20
199.004327806
 30
0.0
 11
89.7870805548
 21
200.7501239665
 31
0.0
  0
LINE
  5
143
330
1F
100
AcDbEntity
  8
0
  6
Continuous
 62
     7
370
    25
100
AcDbLine
 10
105.7844506441
 20
219.3357498198
 30
0.0
 11
104.0826229508
 21
220.226670285
 31
0.0
  0
LINE
  5
144
330
1F
100
AcDbEntity
  8
0
  6
Continuous
 62
     7
370
    25
100
AcDbLine
 10
102.5081245604
 20
220.1615716637
 30
0.0
 11
100.885650958
 21
219.133205881
 31
0.0
  0
ARC
  5
145
330
1F
100
AcDbEntity
  8
0
  6
Continuous
 62
     7
370
    25
100
AcDbCircle
 10
103.9348560614
 20
204.7273746576
 30
0.0
 40
15.50000000000003
100
AcDbArc
 50
89.453771138
 51
95.2813916209
  0
LINE
  5
146
330
1F
100
AcDbEntity
  8
0
  6
Continuous
 62
     7
370
    25
100
AcDbLine
 10
104.0826229508
 20
220.226670285
 30
0.0
 11
104.3145216434
 21
220.6696409346
 31
0.0
  0
LINE
  5
147
330
1F
100
AcDbEntity
  8
0
  6
Continuous
 62
     7
370
    25
100
AcDbLine
 10
104.3145216434
 20
220.6696409346
 30
0.0
 11
106.0163493368
 21
219.7787204693
 31
0.0
  0
ARC
  5
148
330
1F
100
AcDbEntity
  8
0
  6
Continuous
 62
     7
370
    25
100
AcDbCircle
 10
117.4315232602
 20
212.3490525913
 30
0.0
 40
0.5000000000000372
100
AcDbArc
 50
2.3675813795
 51
29.453771138
  0
LINE
  5
149
330
1F
100
AcDbEntity
  8
0
  6
Continuous
 62
     7
370
    25
100
AcDbLine
 10
117.4315232602
 20
212.3490525913
 30
0.0
 11
117.9310964422
 21
212.3697077571
 31
0.0
  0
LINE
  5
14A
330
1F
100
AcDbEntity
  8
0
  6
Continuous
 62
     7
370
    25
100
AcDbLine
 10
117.8668996215
 20
212.5949131698
 30
0.0
 11
117.4315232602
 21
212.3490525913
 31
0.0
  0
ARC
  5
14B
330
1F
100
AcDbEntity
  8
0
  6
Continuous
 62
     7
370
    25
100
AcDbCircle
 10
116.5878970052
 20
213.680058885
 30
0.0
 40
0.4999999999999773
100
AcDbArc
 50
35.2813916209
 51
62.3675813795
  0
LINE
  5
14C
330
1F
100
AcDbEntity
  8
0
  6
Continuous
 62
     7
370
    25
100
AcDbLine
 10
116.5878970052
 20
213.680058885
 30
0.0
 11
116.9960596163
 21
213.9688551504
 31
0.0
  0
LINE
  5
14D
330
1F
100
AcDbEntity
  8
0
  6
Continuous
 62
     7
370
    25
100
AcDbLine
 10
116.8197956978
 20
214.1230295345
 30
0.0
 11
116.5878970052
 21
213.680058885
 31
0.0
  0
LINE
  5
14E
330
1F
100
AcDbEntity
  8
0
  6
Continuous
 62
     7
370
    25
100
AcDbLine
 10
100.6179764687
 20
219.5555213647
 30
0.0
 11
102.240450071
 21
220.5838871474
 31
0.0
  0
LINE
  5
14F
330
1F
100
AcDbEntity
  8
0
  6
Continuous
 62
     7
370
    25
100
AcDbLine
 10
102.240450071
 20
220.5838871474
 30
0.0
 11
102.5081245604
 21
220.1615716637
 31
0.0
  0
LINE
  5
150
330
1F
100
AcDbEntity
  8
0
  6
Continuous
 62
     7
370
    25
100
AcDbLine
 10
115.1179680045
 20
215.0139499997
 30
0.0
 11
116.8197956978
 21
214.1230295345
 31
0.0
  0
LINE
  5
151
330
1F
100
AcDbEntity
  8
0
  6
Continuous
 62
     7
370
    25
100
AcDbLine
 10
116.5878970052
 20
213.680058885
 30
0.0
 11
114.8860693118
 21
214.5709793502
 31
0.0
  0
ARC
  5
152
330
1F
100
AcDbEntity
  8
0
  6
Continuous
 62
     7
370
    25
100
AcDbCircle
 10
103.9348560614
 20
204.7273746576
 30
0.0
 40
16.00000000000005
100
AcDbArc
 50
29.453771138
 51
35.2813916209
  0
ARC
  5
153
330
1F
100
AcDbEntity
  8
0
  6
Continuous
 62
     7
370
    25
100
AcDbCircle
 10
103.9348560614
 20
204.7273746576
 30
0.0
 40
15.50000000000005
100
AcDbArc
 50
29.453771138
 51
35.2813916209
  0
LINE
  5
154
330
1F
100
AcDbEntity
  8
0
  6
Continuous
 62
     7
370
    25
100
AcDbLine
 10
117.5108773513
 20
210.4297663434
 30
0.0
 11
117.4315232602
 21
212.3490525913
 31
0.0
  0
LINE
  5
155
330
1F
100
AcDbEntity
  8
0
  6
Continuous
 62
     7
370
    25
100
AcDbLine
 10
117.9310964422
 20
212.3697077571
 30
0.0
 11
118.0104505332
 21
210.4504215092
 31
0.0
  0
LINE
  5
156
330
1F
100
AcDbEntity
  8
0
  6
Continuous
 62
     7
370
    25
100
AcDbLine
 10
102.5081245604
 20
220.1615716637
 30
0.0
 11
102.4621009636
 21
220.6594489865
 31
0.0
  0
ARC
  5
157
330
1F
100
AcDbEntity
  8
0
  6
Continuous
 62
     7
370
    25
100
AcDbCircle
 10
103.9348560614
 20
204.7273746576
 30
0.0
 40
16.00000000000002
100
AcDbArc
 50
89.453771138
 51
95.2813916209
  0
LINE
  5
158
330
1F
100
AcDbEntity
  8
0
  6
Continuous
 62
     7
370
    25
100
AcDbLine
 10
104.0826229508
 20
220.226670285
 30
0.0
 11
104.0873896246
 21
220.7266475633
 31
0.0
  0
LINE
  5
159
330
1F
100
AcDbEntity
  8
0
  6
Continuous
 62
     7
370
    25
100
AcDbLine
 10
118.4688147142
 20
198.0367808215
 30
0.0
 11
118.0146285063
 21
198.2458618788
 31
0.0
  0
LINE
  5
15A
330
1F
100
AcDbEntity
  8
0
  6
Continuous
 62
     7
370
    25
100
AcDbLine
 10
118.5142016883
 20
198.2665170447
 30
0.0
 11
118.0146285063
 21
198.2458618788
 31
0.0
  0
ARC
  5
15B
330
1F
100
AcDbEntity
  8
0
  6
Continuous
 62
     7
370
    25
100
AcDbCircle
 10
118.0146285063
 20
198.2458618788
 30
0.0
 40
0.4999999999999922
100
AcDbArc
 50
335.2813916209
 51
2.3675813795
  0
ARC
  5
15C
330
1F
100
AcDbEntity
  8
0
  6
Continuous
 62
     7
370
    25
100
AcDbCircle
 10
90.585955752
 20
212.6049923513
 30
0.0
 40
0.5000000000000371
100
AcDbArc
 50
122.3675813795
 51
149.453771138
  0
LINE
  5
15D
330
1F
100
AcDbEntity
  8
0
  6
Continuous
 62
     7
370
    25
100
AcDbLine
 10
90.585955752
 20
212.6049923513
 30
0.0
 11
90.3182812627
 21
213.027307835
 31
0.0
  0
LINE
  5
15E
330
1F
100
AcDbEntity
  8
0
  6
Continuous
 62
     7
370
    25
100
AcDbLine
 10
90.585955752
 20
212.6049923513
 30
0.0
 11
90.1553460646
 21
212.8591090511
 31
0.0
  0
LINE
  5
15F
330
1F
100
AcDbEntity
  8
0
  6
Continuous
 62
     7
370
    25
100
AcDbLine
 10
118.4348475972
 20
200.1858032926
 30
0.0
 11
118.5142016883
 21
198.2665170447
 31
0.0
  0
LINE
  5
160
330
1F
100
AcDbEntity
  8
0
  6
Continuous
 62
     7
370
    25
100
AcDbLine
 10
118.0146285063
 20
198.2458618788
 30
0.0
 11
117.9352744153
 21
200.1651481268
 31
0.0
  0
ARC
  5
161
330
1F
100
AcDbEntity
  8
0
  6
Continuous
 62
     7
370
    25
100
AcDbCircle
 10
103.9348560614
 20
204.7273746576
 30
0.0
 40
15.50000000000004
100
AcDbArc
 50
149.453771138
 51
155.2813916209
  0
LINE
  5
162
330
1F
100
AcDbEntity
  8
0
  6
Continuous
 62
     7
370
    25
100
AcDbLine
 10
89.8550836166
 20
211.2088874363
 30
0.0
 11
89.4008974087
 21
211.4179684937
 31
0.0
  0
ARC
  5
163
330
1F
100
AcDbEntity
  8
0
  6
Continuous
 62
     7
370
    25
100
AcDbCircle
 10
103.9348560614
 20
204.7273746576
 30
0.0
 40
16.00000000000001
100
AcDbArc
 50
149.453771138
 51
155.2813916209
  0
LINE
  5
164
330
1F
100
AcDbEntity
  8
0
  6
Continuous
 62
     7
370
    25
100
AcDbLine
 10
92.2084293543
 20
213.633358134
 30
0.0
 11
90.585955752
 21
212.6049923513
 31
0.0
  0
LINE
  5
165
330
1F
100
AcDbEntity
  8
0
  6
Continuous
 62
     7
370
    25
100
AcDbLine
 10
89.8550836166
 20
211.2088874363
 30
0.0
 11
89.9344377076
 21
209.2896011884
 31
0.0
  0
LINE
  5
166
330
1F
100
AcDbEntity
  8
0
  6
Continuous
 62
     7
370
    25
100
AcDbLine
 10
90.3182812627
 20
213.027307835
 30
0.0
 11
91.940754865
 21
214.0556736177
 31
0.0
  0
ARC
  5
167
330
1F
100
AcDbEntity
  8
0
  6
Continuous
 62
     7
370
    25
100
AcDbCircle
 10
103.9348560614
 20
204.7273746576
 30
0.0
 40
16.00000000000003
100
AcDbArc
 50
329.453771138
 51
335.2813916209
  0
LINE
  5
168
330
1F
100
AcDbEntity
  8
0
  6
Continuous
 62
     7
370
    25
100
AcDbLine
 10
117.7143660583
 20
196.5956402641
 30
0.0
 11
117.2837563709
 21
196.8497569639
 31
0.0
  0
ARC
  5
169
330
1F
100
AcDbEntity
  8
0
  6
Continuous
 62
     7
370
    25
100
AcDbCircle
 10
103.9348560614
 20
204.7273746576
 30
0.0
 40
15.50000000000005
100
AcDbArc
 50
329.453771138
 51
335.2813916209
  0
ARC
  5
16A
330
1F
100
AcDbEntity
  8
0
  6
Continuous
 62
     7
370
    25
100
AcDbCircle
 10
102.5081245604
 20
220.1615716637
 30
0.0
 40
0.500000000000018
100
AcDbArc
 50
95.2813916209
 51
122.3675813795
  0
ARC
  5
16B
330
1F
100
AcDbEntity
  8
0
  6
Continuous
 62
     7
370
    25
100
AcDbCircle
 10
89.8550836166
 20
211.2088874363
 30
0.0
 40
0.49999999999996
100
AcDbArc
 50
155.2813916209
 51
182.3675813795
  0
LINE
  5
16C
330
1F
100
AcDbEntity
  8
0
  6
Continuous
 62
     7
370
    25
100
AcDbLine
 10
89.8550836166
 20
211.2088874363
 30
0.0
 11
89.3555104346
 21
211.1882322705
 31
0.0
  0
ARC
  5
16D
330
1F
100
AcDbEntity
  8
0
  6
Continuous
 62
     7
370
    25
100
AcDbCircle
 10
104.0826229508
 20
220.226670285
 30
0.0
 40
0.4999999999999911
100
AcDbArc
 50
62.3675813795
 51
89.453771138
  0
LINE
  5
16E
330
1F
100
AcDbEntity
  8
0
  6
Continuous
 62
     7
370
    25
100
AcDbLine
 10
89.4348645257
 20
209.2689460225
 30
0.0
 11
89.3555104346
 21
211.1882322705
 31
0.0
  0
LINE
  5
16F
330
1F
100
AcDbEntity
  8
0
  6
Continuous
 62
     7
370
    25
100
AcDbLine
 10
115.6612827686
 20
195.8213911812
 30
0.0
 11
117.2837563709
 21
196.8497569639
 31
0.0
  0
LINE
  5
170
330
1F
100
AcDbEntity
  8
0
  6
Continuous
 62
     7
370
    25
100
AcDbLine
 10
117.2837563709
 20
196.8497569639
 30
0.0
 11
117.5514308602
 21
196.4274414802
 31
0.0
  0
LINE
  5
171
330
1F
100
AcDbEntity
  8
0
  6
Continuous
 62
     7
370
    25
100
AcDbLine
 10
117.5514308602
 20
196.4274414802
 30
0.0
 11
115.9289572579
 21
195.3990756975
 31
0.0
  0
ARC
  5
172
330
1F
100
AcDbEntity
  8
0
  6
Continuous
 62
     7
370
    25
100
AcDbCircle
 10
117.2837563709
 20
196.8497569639
 30
0.0
 40
0.5000000000000371
100
AcDbArc
 50
302.3675813795
 51
329.453771138
  0
LINE
  5
173
330
1F
100
AcDbEntity
  8
0
  6
Continuous
 62
     7
370
    25
100
AcDbLine
 10
90.3588347716
 20
199.0249829718
 30
0.0
 11
90.4381888627
 21
197.1056967239
 31
0.0
  0
LINE
  5
174
330
1F
100
AcDbEntity
  8
0
  6
Continuous
 62
     7
370
    25
100
AcDbLine
 10
90.4381888627
 20
197.1056967239
 30
0.0
 11
89.9386156807
 21
197.085041558
 31
0.0
  0
LINE
  5
175
330
1F
100
AcDbEntity
  8
0
  6
Continuous
 62
     7
370
    25
100
AcDbLine
 10
89.9386156807
 20
197.085041558
 30
0.0
 11
89.8592615897
 21
199.004327806
 31
0.0
  0
LINE
  5
176
330
1F
100
AcDbEntity
  8
0
  6
Continuous
 62
     7
370
    25
100
AcDbLine
 10
91.2818151177
 20
195.7746904302
 30
0.0
 11
92.983642811
 21
194.883769965
 31
0.0
  0
ARC
  5
177
330
1F
100
AcDbEntity
  8
0
  6
Continuous
 62
     7
370
    25
100
AcDbCircle
 10
103.9348560614
 20
204.7273746576
 30
0.0
 40
15.50000000000001
100
AcDbArc
 50
209.453771138
 51
215.2813916209
  0
LINE
  5
178
330
1F
100
AcDbEntity
  8
0
  6
Continuous
 62
     7
370
    25
100
AcDbLine
 10
90.8736525066
 20
195.4858941648
 30
0.0
 11
91.2818151177
 21
195.7746904302
 31
0.0
  0
ARC
  5
179
330
1F
100
AcDbEntity
  8
0
  6
Continuous
 62
     7
370
    25
100
AcDbCircle
 10
103.9348560614
 20
204.7273746576
 30
0.0
 40
16.00000000000003
100
AcDbArc
 50
209.453771138
 51
215.2813916209
  0
LINE
  5
17A
330
1F
100
AcDbEntity
  8
0
  6
Continuous
 62
     7
370
    25
100
AcDbLine
 10
90.4381888627
 20
197.1056967239
 30
0.0
 11
90.0028125014
 21
196.8598361454
 31
0.0
  0
LINE
  5
17B
330
1F
100
AcDbEntity
  8
0
  6
Continuous
 62
     7
370
    25
100
AcDbLine
 10
92.7517441184
 20
194.4407993154
 30
0.0
 11
91.049916425
 21
195.3317197807
 31
0.0
  0
LINE
  5
17C
330
1F
100
AcDbEntity
  8
0
  6
Continuous
 62
     7
370
    25
100
AcDbLine
 10
91.049916425
 20
195.3317197807
 30
0.0
 11
91.2818151177
 21
195.7746904302
 31
0.0
  0
ARC
  5
17D
330
1F
100
AcDbEntity
  8
0
  6
Continuous
 62
     7
370
    25
100
AcDbCircle
 10
91.2818151177
 20
195.7746904302
 30
0.0
 40
0.5000000000000272
100
AcDbArc
 50
215.2813916209
 51
242.3675813795
  0
ARC
  5
17E
330
1F
100
AcDbEntity
  8
0
  6
Continuous
 62
     7
370
    25
100
AcDbCircle
 10
90.4381888627
 20
197.1056967239
 30
0.0
 40
0.5000000000000232
100
AcDbArc
 50
182.3675813795
 51
209.453771138
  0
ARC
  5
17F
330
1F
100
AcDbEntity
  8
0
  6
Continuous
 62
     7
370
    25
100
AcDbCircle
 10
180.0462137209
 20
203.354065216
 30
0.0
 40
7.434376658329489
100
AcDbArc
 50
356.0704737418
 51
3.9295262582
  0
ARC
  5
180
330
1F
100
AcDbEntity
  8
0
  6
Continuous
 62
     7
370
    25
100
AcDbCircle
 10
184.422326496
 20
204.3097162724
 30
0.0
 40
3.375347654716805
100
AcDbArc
 50
334.2741059287
 51
346.2044345254
  0
SPLINE
  5
181
330
1F
100
AcDbEntity
  8
0
  6
Continuous
 62
     7
370
    25
100
AcDbSpline
210
0.0
220
0.0
230
1.0
 70
     8
 71
     3
 72
    11
 73
     7
 74
     0
 42
0.00000001
 43
0.00000001
 40
0.0
 40
0.0
 40
0.0
 40
0.0
 40
0.2364990095747654
 40
0.5182951632895066
 40
0.7989977873750578
 40
1.0
 40
1.0
 40
1.0
 40
1.0
 10
187.7286395931561
 20
203.4718583067513
 30
0.0
 10
187.7329646235346
 20
203.5101199594976
 30
0.0
 10
187.7424430662997
 20
203.5939715984265
 30
0.0
 10
187.7389803443109
 20
203.6300425987448
 30
0.0
 10
187.7241914883544
 20
203.5988569710361
 30
0.0
 10
187.7073373745278
 20
203.5325180436344
 30
0.0
 10
187.7003046152262
 20
203.5048366292605
 30
0.0
  0
ARC
  5
182
330
1F
100
AcDbEntity
  8
0
  6
Continuous
 62
     7
370
    25
100
AcDbCircle
 10
180.0412951202
 20
205.0548960213
 30
0.0
 40
7.745894943656285
100
AcDbArc
 50
349.3094308211
 51
351.4102179214
  0
SPLINE
  5
183
330
1F
100
AcDbEntity
  8
0
  6
Continuous
 62
     7
370
    25
100
AcDbSpline
210
0.0
220
0.0
230
1.0
 70
     8
 71
     3
 72
    11
 73
     7
 74
     0
 42
0.00000001
 43
0.00000001
 40
0.0
 40
0.0
 40
0.0
 40
0.0
 40
0.2349550601255063
 40
0.5173210611905081
 40
0.7985913212939693
 40
1.0
 40
1.0
 40
1.0
 40
1.0
 10
187.7287294819299
 20
204.7273746575815
 30
0.0
 10
187.7330140966303
 20
204.6690714076539
 30
0.0
 10
187.7424479067488
 20
204.5407000539692
 30
0.0
 10
187.7389764174097
 20
204.302089868481
 30
0.0
 10
187.724192151454
 20
204.0752582864141
 30
0.0
 10
187.7073375697572
 20
203.9501719278559
 30
0.0
 10
187.7003046152262
 20
203.897976822216
 30
0.0
  0
SPLINE
  5
184
330
1F
100
AcDbEntity
  8
0
  6
Continuous
 62
     7
370
    25
100
AcDbSpline
210
0.0
220
0.0
230
1.0
 70
     8
 71
     3
 72
    11
 73
     7
 74
     0
 42
0.00000001
 43
0.00000001
 40
0.0
 40
0.0
 40
0.0
 40
0.0
 40
0.3307540669562893
 40
0.6616399873463896
 40
0.9896169167736562
 40
1.0
 40
1.0
 40
1.0
 40
1.0
 10
187.7003046152262
 20
206.1906076198276
 30
0.0
 10
187.7100529520305
 20
206.1234702269136
 30
0.0
 10
187.7295535117641
 20
205.9891686771039
 30
0.0
 10
187.7405319331786
 20
205.8741798874943
 30
0.0
 10
187.742355289176
 20
205.824009099242
 30
0.0
 10
187.7364999720619
 20
205.8375939136293
 30
0.0
 10
187.7363202928958
 20
205.8380107839837
 30
0.0
  0
ARC
  5
185
330
1F
100
AcDbEntity
  8
0
  6
Continuous
 62
     7
370
    25
100
AcDbCircle
 10
179.9783753598
 20
205.0221924216
 30
0.0
 40
7.809826214497627
100
AcDbArc
 50
8.6042304424
 51
16.5896030164
  0
ARC
  5
186
330
1F
100
AcDbEntity
  8
0
  6
Continuous
 62
     7
370
    25
100
AcDbCircle
 10
184.5976442696
 20
206.9350932034
 30
0.0
 40
2.882940696888326
100
AcDbArc
 50
353.6888017346
 51
6.3111982654
  0
ARC
  5
187
330
1F
100
AcDbEntity
  8
0
  6
Continuous
 62
     7
370
    25
100
AcDbCircle
 10
179.9783753598
 20
204.3883572948
 30
0.0
 40
7.809826214499209
100
AcDbArc
 50
8.6042304424
 51
16.5896030164
  0
SPLINE
  5
188
330
1F
100
AcDbEntity
  8
0
  6
Continuous
 62
     7
370
    25
100
AcDbSpline
210
0.0
220
0.0
230
1.0
 70
     8
 71
     3
 72
    12
 73
     8
 74
     0
 42
0.00000001
 43
0.00000001
 40
0.0
 40
0.0
 40
0.0
 40
0.0
 40
0.213353439547615
 40
0.4267919313634486
 40
0.638353973909168
 40
0.8490950351927649
 40
1.0
 40
1.0
 40
1.0
 40
1.0
 10
187.7003046152262
 20
204.5237836504212
 30
0.0
 10
187.7099637589535
 20
204.5747639473856
 30
0.0
 10
187.729285896977
 20
204.6767448643516
 30
0.0
 10
187.7415989669852
 20
204.9031536968643
 30
0.0
 10
187.7392615266884
 20
205.1515845665613
 30
0.0
 10
187.7241440076746
 20
205.3796725338607
 30
0.0
 10
187.7073233952936
 20
205.5046308259366
 30
0.0
 10
187.7003046152262
 20
205.556772492947
 30
0.0
  0
ARC
  5
189
330
1F
100
AcDbEntity
  8
0
  6
Continuous
 62
     7
370
    25
100
AcDbCircle
 10
184.422326496
 20
205.3286632935
 30
0.0
 40
3.375347654716448
100
AcDbArc
 50
334.2741059287
 51
346.2044345254
  0
LINE
  5
18A
330
1F
100
AcDbEntity
  8
0
  6
Continuous
 62
     7
370
    25
100
AcDbLine
 10
185.139783076
 20
211.8773746576
 30
0.0
 11
185.139783076
 21
197.5773868903
 31
0.0
  0
LINE
  5
18B
330
1F
100
AcDbEntity
  8
0
  6
Continuous
 62
     7
370
    25
100
AcDbLine
 10
187.039783076
 20
210.0562798772
 30
0.0
 11
187.039783076
 21
199.398460321
 31
0.0
  0
LWPOLYLINE
  5
18C
330
1F
100
AcDbEntity
  8
0
  6
Continuous
 62
     7
370
    25
100
AcDbPolyline
 90
        3
 70
   128
 43
0.0
 10
170.7935822647
 20
196.6821937771
 10
176.7850560614
 20
196.7431741179
 10
180.2729000186
 20
196.778920724
  0
LINE
  5
18D
330
1F
100
AcDbEntity
  8
0
  6
Continuous
 62
     7
370
    25
100
AcDbLine
 10
170.7935822647
 20
213.1631781201
 30
0.0
 11
170.7935822647
 21
196.6821937771
 31
0.0
  0
LWPOLYLINE
  5
18E
330
1F
100
AcDbEntity
  8
0
  6
Continuous
 62
     7
370
    25
100
AcDbPolyline
 90
        3
 70
   128
 43
0.0
 10
179.3394798047
 20
213.0612288886
 10
176.7850560614
 20
213.0918166752
 10
170.7935822477
 20
213.1631778651
  0
SPLINE
  5
18F
330
1F
100
AcDbEntity
  8
0
  6
Continuous
 62
     7
370
    25
100
AcDbSpline
210
0.0
220
0.0
230
1.0
 70
     8
 71
     3
 72
    11
 73
     7
 74
     0
 42
0.00000001
 43
0.00000001
 40
0.0
 40
0.0
 40
0.0
 40
0.0
 40
0.2499999999999946
 40
0.5000000000000026
 40
0.7499999999999994
 40
1.0
 40
1.0
 40
1.0
 40
1.0
 10
170.7935822646623
 20
196.6821922397613
 30
0.0
 10
170.727211211925
 20
196.687937789585
 30
0.0
 10
170.5944691064502
 20
196.6994288892324
 30
0.0
 10
170.4260053656695
 20
196.8007593082293
 30
0.0
 10
170.3079180066344
 20
196.9471949985737
 30
0.0
 10
170.2925433765073
 20
197.0637728797538
 30
0.0
 10
170.2848560614437
 20
197.1220618203439
 30
0.0
  0
LINE
  5
190
330
1F
100
AcDbEntity
  8
0
  6
Continuous
 62
     7
370
    25
100
AcDbLine
 10
170.2848560614
 20
197.122122143
 30
0.0
 11
170.2848560614
 21
212.7018274913
 31
0.0
  0
SPLINE
  5
191
330
1F
100
AcDbEntity
  8
0
  6
Continuous
 62
     7
370
    25
100
AcDbSpline
210
0.0
220
0.0
230
1.0
 70
     8
 71
     3
 72
    11
 73
     7
 74
     0
 42
0.00000001
 43
0.00000001
 40
0.0
 40
0.0
 40
0.0
 40
0.0
 40
0.2499999999999889
 40
0.4999999999999988
 40
0.7499999999999931
 40
1.0
 40
1.0
 40
1.0
 40
1.0
 10
170.7935822646623
 20
213.1631778649048
 30
0.0
 10
170.727211211925
 20
213.1571517342637
 30
0.0
 10
170.5944691064502
 20
213.1450994729813
 30
0.0
 10
170.4260053656695
 20
213.0388206377883
 30
0.0
 10
170.3079180066344
 20
212.8852338397217
 30
0.0
 10
170.2925433765073
 20
212.762962940778
 30
0.0
 10
170.2848560614437
 20
212.7018274913061
 30
0.0
  0
LINE
  5
192
330
1F
100
AcDbEntity
  8
0
  6
Continuous
 62
     7
370
    25
100
AcDbLine
 10
185.1348560614
 20
213.1268183118
 30
0.0
 11
185.1348560614
 21
196.3279310033
 31
0.0
  0
SPLINE
  5
193
330
1F
100
AcDbEntity
  8
0
  6
Continuous
 62
     7
370
    25
100
AcDbSpline
210
0.0
220
0.0
230
1.0
 70
     8
 71
     3
 72
    12
 73
     8
 74
     0
 42
0.00000001
 43
0.00000001
 40
0.0
 40
0.0
 40
0.0
 40
0.0
 40
0.1662426524176533
 40
0.3368059756191276
 40
0.6054181071254571
 40
0.8801435087136182
 40
1.0
 40
1.0
 40
1.0
 40
1.0
 10
174.8760900913876
 20
192.7612637539904
 30
0.0
 10
174.9755467986628
 20
192.9482057040683
 30
0.0
 10
175.1770451075417
 20
193.3269482527731
 30
0.0
 10
175.9992928635642
 20
194.0974983894015
 30
0.0
 10
177.3611220305508
 20
195.0658688278721
 30
0.0
 10
178.9222282192097
 20
196.0050095026359
 30
0.0
 10
179.8924679113713
 20
196.5974818607795
 30
0.0
 10
180.1871837290741
 20
196.7774487049596
 30
0.0
  0
LINE
  5
194
330
1F
100
AcDbEntity
  8
0
  6
Continuous
 62
     7
370
    25
100
AcDbLine
 10
174.8760900914
 20
192.761263754
 30
0.0
 11
170.7935822647
 21
192.6926628806
 31
0.0
  0
LINE
  5
195
330
1F
100
AcDbEntity
  8
0
  6
Continuous
 62
     7
370
    25
100
AcDbLine
 10
170.7935822647
 20
196.682192555
 30
0.0
 11
170.7935822647
 21
192.6926628806
 31
0.0
  0
LWPOLYLINE
  5
196
330
1F
100
AcDbEntity
  8
0
  6
Continuous
 62
     7
370
    25
100
AcDbPolyline
 90
        3
 70
   128
 43
0.0
 10
180.1871837291
 20
196.777448705
 10
176.7848560614
 20
196.7429186862
 10
170.7935822816
 20
196.6821922399
  0
ARC
  5
197
330
1F
100
AcDbEntity
  8
0
  6
Continuous
 62
     7
370
    25
100
AcDbCircle
 10
170.776071925
 20
193.1836630543
 30
0.0
 40
0.4913123065720671
100
AcDbArc
 50
181.1352754124
 51
272.0424505137
  0
LINE
  5
198
330
1F
100
AcDbEntity
  8
0
  6
Continuous
 62
     7
370
    25
100
AcDbLine
 10
170.2848560614
 20
193.1739286849
 30
0.0
 11
170.2848560614
 21
197.1221209199
 31
0.0
  0
LINE
  5
199
330
1F
100
AcDbEntity
  8
0
  6
Continuous
 62
     7
370
    25
100
AcDbLine
 10
180.1871837291
 20
196.777448705
 30
0.0
 11
180.2282936854
 21
196.7781537435
 31
0.0
  0
LINE
  5
19A
330
1F
100
AcDbEntity
  8
0
  6
Continuous
 62
     7
370
    25
100
AcDbLine
 10
180.2729000186
 20
196.778920724
 30
0.0
 11
180.2282936854
 21
196.7781537435
 31
0.0
  0
LINE
  5
19B
330
1F
100
AcDbEntity
  8
0
  6
Continuous
 62
     7
370
    25
100
AcDbLine
 10
174.8197608743
 20
216.0500348143
 30
0.0
 11
174.8197608743
 21
216.0867733653
 31
0.0
  0
SPLINE
  5
19C
330
1F
100
AcDbEntity
  8
0
  6
Continuous
 62
     7
370
    25
100
AcDbSpline
210
0.0
220
0.0
230
1.0
 70
     8
 71
     3
 72
    12
 73
     8
 74
     0
 42
0.00000001
 43
0.00000001
 40
0.0
 40
0.0
 40
0.0
 40
0.0
 40
0.0460732444350179
 40
0.2494607408078312
 40
0.4779405209378904
 40
0.705789336916877
 40
1.0
 40
1.0
 40
1.0
 40
1.0
 10
179.2687698614608
 20
213.0625629179975
 30
0.0
 10
179.1667974204637
 20
213.11862185962
 30
0.0
 10
178.6146739269905
 20
213.4221495420643
 30
0.0
 10
177.5706939716783
 20
213.9724689690784
 30
0.0
 10
176.2994156961663
 20
214.6794432849611
 30
0.0
 10
175.132652671589
 20
215.4266086119804
 30
0.0
 10
174.9325373908111
 20
215.8253314632011
 30
0.0
 10
174.8197608743183
 20
216.0500348143494
 30
0.0
  0
LWPOLYLINE
  5
19D
330
1F
100
AcDbEntity
  8
0
  6
Continuous
 62
     7
370
    25
100
AcDbPolyline
 90
        3
 70
   128
 43
0.0
 10
179.2687698615
 20
213.062562918
 10
176.7848560614
 20
213.0920724535
 10
170.7935822647
 20
213.1631794023
  0
LINE
  5
19E
330
1F
100
AcDbEntity
  8
0
  6
Continuous
 62
     7
370
    25
100
AcDbLine
 10
170.7935822647
 20
216.1559800709
 30
0.0
 11
170.7935822647
 21
213.1631794023
 31
0.0
  0
LINE
  5
19F
330
1F
100
AcDbEntity
  8
0
  6
Continuous
 62
     7
370
    25
100
AcDbLine
 10
174.8197608743
 20
216.0867733653
 30
0.0
 11
170.7935822647
 21
216.1559800709
 31
0.0
  0
ARC
  5
1A0
330
1F
100
AcDbEntity
  8
0
  6
Continuous
 62
     7
370
    25
100
AcDbCircle
 10
170.7812305366
 20
215.6597437558
 30
0.0
 40
0.4963900136584228
100
AcDbArc
 50
88.5741555685
 51
179.5466524836
  0
LINE
  5
1A1
330
1F
100
AcDbEntity
  8
0
  6
Continuous
 62
     7
370
    25
100
AcDbLine
 10
170.2848560614
 20
212.7018766759
 30
0.0
 11
170.2848560614
 21
215.6636713545
 31
0.0
  0
LINE
  5
1A2
330
1F
100
AcDbEntity
  8
0
  6
Continuous
 62
     7
370
    25
100
AcDbLine
 10
179.3069456654
 20
213.0618433905
 30
0.0
 11
179.2687698615
 21
213.062562918
 31
0.0
  0
LINE
  5
1A3
330
1F
100
AcDbEntity
  8
0
  6
Continuous
 62
     7
370
    25
100
AcDbLine
 10
179.3069456654
 20
213.0618433905
 30
0.0
 11
179.3394798047
 21
213.0612288886
 31
0.0
  0
LINE
  5
1A4
330
1F
100
AcDbEntity
  8
0
  6
Continuous
 62
     7
370
    25
100
AcDbLine
 10
174.8197608743
 20
192.4816213131
 30
0.0
 11
174.8760900914
 21
192.761263754
 31
0.0
  0
LINE
  5
1A5
330
1F
100
AcDbEntity
  8
0
  6
Continuous
 62
     7
370
    25
100
AcDbLine
 10
170.2848560614
 20
192.856693814
 30
0.0
 11
170.2848560614
 21
193.1739286849
 31
0.0
  0
LINE
  5
1A6
330
1F
100
AcDbEntity
  8
0
  6
Continuous
 62
     7
370
    25
100
AcDbLine
 10
170.2848560614
 20
215.6636713545
 30
0.0
 11
170.2848560614
 21
215.7931482304
 31
0.0
  0
SPLINE
  5
1A7
330
1F
100
AcDbEntity
  8
0
  6
Continuous
 62
     7
370
    25
100
AcDbSpline
210
0.0
220
0.0
230
1.0
 70
     8
 71
     3
 72
    11
 73
     7
 74
     0
 42
0.00000001
 43
0.00000001
 40
0.0
 40
0.0
 40
0.0
 40
0.0
 40
0.2431641197380917
 40
0.4936284730588939
 40
0.7421706076863289
 40
1.0
 40
1.0
 40
1.0
 40
1.0
 10
160.3348560614437
 20
194.4646083635378
 30
0.0
 10
160.5449963846525
 20
194.6570384117871
 30
0.0
 10
160.9715858296141
 20
195.0476756118405
 30
0.0
 10
161.1819702597571
 20
195.6673524880576
 30
0.0
 10
160.9912835660901
 20
196.3001039033635
 30
0.0
 10
160.5563243956954
 20
196.7012704005328
 30
0.0
 10
160.3348560614437
 20
196.9055325058818
 30
0.0
  0
LINE
  5
1A8
330
1F
100
AcDbEntity
  8
0
  6
Continuous
 62
     7
370
    25
100
AcDbLine
 10
160.3348560614
 20
198.8382178007
 30
0.0
 11
160.3348560614
 21
196.9055325059
 31
0.0
  0
SPLINE
  5
1A9
330
1F
100
AcDbEntity
  8
0
  6
Continuous
 62
     7
370
    25
100
AcDbSpline
210
0.0
220
0.0
230
1.0
 70
     8
 71
     3
 72
    11
 73
     7
 74
     0
 42
0.00000001
 43
0.00000001
 40
0.0
 40
0.0
 40
0.0
 40
0.0
 40
0.2431641197380908
 40
0.4936284730588918
 40
0.7421706076863277
 40
1.0
 40
1.0
 40
1.0
 40
1.0
 10
160.3348560614437
 20
198.8382178006821
 30
0.0
 10
160.5449963846525
 20
199.4516969167706
 30
0.0
 10
160.9715858296141
 20
200.6970729190135
 30
0.0
 10
161.1819702597571
 20
202.6726418373865
 30
0.0
 10
160.9912835660901
 20
204.6898932100144
 30
0.0
 10
160.5563243956954
 20
205.9688372747636
 30
0.0
 10
160.3348560614437
 20
206.620037734255
 30
0.0
  0
LINE
  5
1AA
330
1F
100
AcDbEntity
  8
0
  6
Continuous
 62
     7
370
    25
100
AcDbLine
 10
160.3348560614
 20
209.1009840947
 30
0.0
 11
160.3348560614
 21
206.6200377343
 31
0.0
  0
SPLINE
  5
1AB
330
1F
100
AcDbEntity
  8
0
  6
Continuous
 62
     7
370
    25
100
AcDbSpline
210
0.0
220
0.0
230
1.0
 70
     8
 71
     3
 72
    13
 73
     9
 74
     0
 42
0.00000001
 43
0.00000001
 40
0.0
 40
0.0
 40
0.0
 40
0.0
 40
0.029086507871262
 40
0.2691317361521209
 40
0.5086847447945265
 40
0.7393528760311802
 40
0.9704551097945733
 40
1.0
 40
1.0
 40
1.0
 40
1.0
 10
160.3348560614437
 20
209.1009840947257
 30
0.0
 10
160.3623539078874
 20
209.1506588024892
 30
0.0
 10
160.6167860723325
 20
209.610289102642
 30
0.0
 10
160.988131228554
 20
210.5072326925244
 30
0.0
 10
161.1829718634061
 20
211.8032963868141
 30
0.0
 10
160.971224293212
 20
213.0809331301695
 30
0.0
 10
160.6091356093146
 20
213.9462647896393
 30
0.0
 10
160.3627808792596
 20
214.3914205594069
 30
0.0
 10
160.3348560614437
 20
214.4418798859547
 30
0.0
  0
LINE
  5
1AC
330
1F
100
AcDbEntity
  8
0
  6
Continuous
 62
     7
370
    25
100
AcDbLine
 10
160.3348560614
 20
214.9901409516
 30
0.0
 11
160.3348560614
 21
214.441879886
 31
0.0
  0
LINE
  5
1AD
330
1F
100
AcDbEntity
  8
0
  6
Continuous
 62
     7
370
    25
100
AcDbLine
 10
160.3348560614
 20
214.9901409516
 30
0.0
 11
160.6062548974
 21
214.7082648314
 31
0.0
  0
LINE
  5
1AE
330
1F
100
AcDbEntity
  8
0
  6
Continuous
 62
     7
370
    25
100
AcDbLine
 10
162.3348560614
 20
212.9773746576
 30
0.0
 11
162.3348560614
 21
196.4773746576
 31
0.0
  0
LINE
  5
1AF
330
1F
100
AcDbEntity
  8
0
  6
Continuous
 62
     7
370
    25
100
AcDbLine
 10
157.7848560614
 20
198.8382178007
 30
0.0
 11
157.5348560614
 21
199.5233876021
 31
0.0
  0
LINE
  5
1B0
330
1F
100
AcDbEntity
  8
0
  6
Continuous
 62
     7
370
    25
100
AcDbLine
 10
157.5348560614
 20
205.9348679328
 30
0.0
 11
157.7848560614
 21
206.6200377343
 31
0.0
  0
LINE
  5
1B1
330
1F
100
AcDbEntity
  8
0
  6
Continuous
 62
     7
370
    25
100
AcDbLine
 10
160.3348560614
 20
206.6200377343
 30
0.0
 11
157.7848560614
 21
206.6200377343
 31
0.0
  0
LINE
  5
1B2
330
1F
100
AcDbEntity
  8
0
  6
Continuous
 62
     7
370
    25
100
AcDbLine
 10
157.7848560614
 20
198.8382178007
 30
0.0
 11
160.3348560614
 21
198.8382178007
 31
0.0
  0
LINE
  5
1B3
330
1F
100
AcDbEntity
  8
0
  6
Continuous
 62
     7
370
    25
100
AcDbLine
 10
157.5348560614
 20
205.9348679328
 30
0.0
 11
157.5348560614
 21
199.5233876021
 31
0.0
  0
SPLINE
  5
1B4
330
1F
100
AcDbEntity
  8
0
  6
Continuous
 62
     7
370
    25
100
AcDbSpline
210
0.0
220
0.0
230
1.0
 70
     8
 71
     3
 72
    36
 73
    32
 74
     0
 42
0.00000001
 43
0.00000001
 40
0.0
 40
0.0
 40
0.0
 40
0.0
 40
0.0211307361570606
 40
0.0509764602296829
 40
0.093928823152368
 40
0.1380299806880765
 40
0.1686235196212287
 40
0.2034376446159066
 40
0.2431247966063717
 40
0.2674684735427093
 40
0.2942680578443128
 40
0.3086296501674064
 40
0.3348900470706738
 40
0.3717404687032794
 40
0.3994435401834013
 40
0.4336898537753665
 40
0.4707178262503465
 40
0.5037696263019646
 40
0.5380179359823382
 40
0.5922976716172775
 40
0.6407261934215932
 40
0.6764992460973668
 40
0.6996026626019524
 40
0.7217099679786204
 40
0.7464281663844609
 40
0.7692906582409366
 40
0.7993707558801286
 40
0.8510258505487931
 40
0.9342721280055682
 40
0.9896213349979143
 40
1.0
 40
1.0
 40
1.0
 40
1.0
 10
154.5643402470211
 20
214.1058728233369
 30
0.0
 10
154.5691684327151
 20
214.098976393717
 30
0.0
 10
154.5808161015035
 20
214.0823392274758
 30
0.0
 10
154.6032263477595
 20
213.9289431199716
 30
0.0
 10
154.6313621920277
 20
213.6283085809866
 30
0.0
 10
154.6597396037034
 20
213.1695530244257
 30
0.0
 10
154.6858413039644
 20
212.631797388433
 30
0.0
 10
154.7100070445137
 20
212.0258139708448
 30
0.0
 10
154.7321670632579
 20
211.3669792266972
 30
0.0
 10
154.7532158271654
 20
210.6996561675831
 30
0.0
 10
154.768667897541
 20
210.1852570104423
 30
0.0
 10
154.7848337703688
 20
209.6316304152101
 30
0.0
 10
154.803475370259
 20
208.9694429907921
 30
0.0
 10
154.8253815318734
 20
208.1519985826081
 30
0.0
 10
154.8490509401542
 20
207.2281964717461
 30
0.0
 10
154.8723614360987
 20
206.2765860191797
 30
0.0
 10
154.896396143245
 20
205.2542144696098
 30
0.0
 10
154.9193863857762
 20
204.2260948595073
 30
0.0
 10
154.9482240575617
 20
203.0347789928806
 30
0.0
 10
154.9811993715713
 20
201.7209253675478
 30
0.0
 10
155.0143509644996
 20
200.4648643422895
 30
0.0
 10
155.0398778944767
 20
199.5568388736305
 30
0.0
 10
155.0588773815984
 20
198.9131016428463
 30
0.0
 10
155.0747083178759
 20
198.3874305570603
 30
0.0
 10
155.0906666527428
 20
197.8974555636319
 30
0.0
 10
155.1081450149483
 20
197.392824719003
 30
0.0
 10
155.1331459245222
 20
196.7804520605899
 30
0.0
 10
155.1728649982214
 20
195.9786357934847
 30
0.0
 10
155.2190692228307
 20
195.4648067266704
 30
0.0
 10
155.2520600709116
 20
195.2615873826916
 30
0.0
 10
155.2675952810601
 20
195.3516496438048
 30
0.0
 10
155.2700483460533
 20
195.3658707954876
 30
0.0
  0
SPLINE
  5
1B5
330
1F
100
AcDbEntity
  8
0
  6
Continuous
 62
     7
370
    25
100
AcDbSpline
210
0.0
220
0.0
230
1.0
 70
     8
 71
     3
 72
     9
 73
     5
 74
     0
 42
0.00000001
 43
0.00000001
 40
0.0
 40
0.0
 40
0.0
 40
0.0
 40
0.6519386397286381
 40
0.9999999999999999
 40
0.9999999999999999
 40
0.9999999999999999
 40
0.9999999999999999
 10
154.866463932603
 20
195.4979986051497
 30
0.0
 10
154.8755472953312
 20
195.4323876648426
 30
0.0
 10
154.8894801444901
 20
195.3317479170061
 30
0.0
 10
154.9033350394464
 20
195.3415323256738
 30
0.0
 10
154.9081573930313
 20
195.3449379002641
 30
0.0
  0
SPLINE
  5
1B6
330
1F
100
AcDbEntity
  8
0
  6
Continuous
 62
     7
370
    25
100
AcDbSpline
210
0.0
220
0.0
230
1.0
 70
     8
 71
     3
 72
    19
 73
    15
 74
     0
 42
0.00000001
 43
0.00000001
 40
0.0
 40
0.0
 40
0.0
 40
0.0
 40
0.0116026194075639
 40
0.1135226836090646
 40
0.2145986252473742
 40
0.3150883659626523
 40
0.4172184863732291
 40
0.517097031259453
 40
0.618988176979881
 40
0.7201196020135379
 40
0.7891789081324532
 40
0.8593740887606794
 40
0.9300271492919934
 40
1.0
 40
1.0
 40
1.0
 40
1.0
 10
155.006194474288
 20
213.3125869086729
 30
0.0
 10
155.0088101875743
 20
213.3216562258835
 30
0.0
 10
155.0344029249885
 20
213.410392501037
 30
0.0
 10
155.0865398118976
 20
212.7761223198858
 30
0.0
 10
155.1565467091273
 20
211.4037343954103
 30
0.0
 10
155.2248084343516
 20
209.3001833665804
 30
0.0
 10
155.2987276294861
 20
206.7807153340528
 30
0.0
 10
155.3649901866857
 20
204.0465657749081
 30
0.0
 10
155.4378475470817
 20
201.3863150064251
 30
0.0
 10
155.5013011453715
 20
199.2901478793011
 30
0.0
 10
155.5543948700999
 20
197.8062057279068
 30
0.0
 10
155.6045710712031
 20
196.8467698480844
 30
0.0
 10
155.6546129721382
 20
196.1881172528666
 30
0.0
 10
155.6860707856201
 20
196.1810167286561
 30
0.0
 10
155.701723611383
 20
196.1774836392264
 30
0.0
  0
SPLINE
  5
1B7
330
1F
100
AcDbEntity
  8
0
  6
Continuous
 62
     7
370
    25
100
AcDbSpline
210
0.0
220
0.0
230
1.0
 70
     8
 71
     3
 72
    27
 73
    23
 74
     0
 42
0.00000001
 43
0.00000001
 40
0.0
 40
0.0
 40
0.0
 40
0.0
 40
0.0151436181910954
 40
0.0478952108099447
 40
0.1018265553387761
 40
0.1557578997567095
 40
0.2096892441726297
 40
0.2633179399052671
 40
0.3166010242089368
 40
0.3698841080331789
 40
0.423167191858044
 40
0.4764502756799134
 40
0.529252100205425
 40
0.5818869257002746
 40
0.6345217508141898
 40
0.6871565759276631
 40
0.7397806675130872
 40
0.7917672369352942
 40
0.8437538056994793
 40
0.8957403742085732
 40
0.950094227561414
 40
1.0
 40
1.0
 40
1.0
 40
1.0
 10
155.5848671246292
 20
214.0656612090308
 30
0.0
 10
155.5869819198102
 20
214.0660601311711
 30
0.0
 10
155.5936704508952
 20
214.0673218151205
 30
0.0
 10
155.6085257978036
 20
213.9436557266815
 30
0.0
 10
155.6295076564503
 20
213.6233374017595
 30
0.0
 10
155.6538579042607
 20
213.0000434502151
 30
0.0
 10
155.6777572433619
 20
212.1543402441336
 30
0.0
 10
155.7000590697885
 20
211.109784251783
 30
0.0
 10
155.7237802103396
 20
209.8961840190088
 30
0.0
 10
155.7480557952329
 20
208.5462836306128
 30
0.0
 10
155.7723735492933
 20
207.094687985439
 30
0.0
 10
155.7958409958609
 20
205.5860234318814
 30
0.0
 10
155.8182612001771
 20
204.06371312813
 30
0.0
 10
155.8422839257291
 20
202.5697836951405
 30
0.0
 10
155.8665875378672
 20
201.1407200414214
 30
0.0
 10
155.8908627578604
 20
199.814579621
 30
0.0
 10
155.9137338820894
 20
198.6321607921134
 30
0.0
 10
155.9366361019088
 20
197.6257547313166
 30
0.0
 10
155.9607943231938
 20
196.8195915310221
 30
0.0
 10
155.9855073769187
 20
196.2308208505696
 30
0.0
 10
156.0095978916674
 20
195.866843684393
 30
0.0
 10
156.0248308493459
 20
195.8479211184428
 30
0.0
 10
156.0321223825133
 20
195.8388634869474
 30
0.0
  0
SPLINE
  5
1B8
330
1F
100
AcDbEntity
  8
0
  6
Continuous
 62
     7
370
    25
100
AcDbSpline
210
0.0
220
0.0
230
1.0
 70
     8
 71
     3
 72
    19
 73
    15
 74
     0
 42
0.00000001
 43
0.00000001
 40
0.0
 40
0.0
 40
0.0
 40
0.0
 40
0.0264467986392514
 40
0.1282658573784943
 40
0.2292416316761753
 40
0.3296317838812302
 40
0.4316606914553915
 40
0.5250500305509749
 40
0.6198275834473943
 40
0.6403508893810321
 40
0.7411522291072394
 40
0.8417089934598787
 40
0.9436900906902833
 40
1.0
 40
1.0
 40
1.0
 40
1.0
 10
155.1724995004882
 20
213.2833960709181
 30
0.0
 10
155.1784520638277
 20
213.3074116512531
 30
0.0
 10
155.207321744834
 20
213.4238862024503
 30
0.0
 10
155.2628727579282
 20
212.7879107024611
 30
0.0
 10
155.3329529072678
 20
211.4005621522579
 30
0.0
 10
155.4011832406369
 20
209.3012243146049
 30
0.0
 10
155.4735912657834
 20
206.8330955518597
 30
0.0
 10
155.5370071298517
 20
204.2290874670532
 30
0.0
 10
155.5867800560292
 20
202.3819570909132
 30
0.0
 10
155.6380802411989
 20
200.5996496263433
 30
0.0
 10
155.6889691348872
 20
198.8990965692646
 30
0.0
 10
155.7577491725542
 20
197.1884364605764
 30
0.0
 10
155.8208561843097
 20
196.230011304141
 30
0.0
 10
155.8562849747336
 20
196.2081373100814
 30
0.0
 10
155.8688882932628
 20
196.2003559291384
 30
0.0
  0
LINE
  5
1B9
330
1F
100
AcDbEntity
  8
0
  6
Continuous
 62
     7
370
    25
100
AcDbLine
 10
156.0348560614
 20
213.6273746576
 30
0.0
 11
156.0348560614
 21
195.8273746576
 31
0.0
  0
LINE
  5
1BA
330
1F
100
AcDbEntity
  8
0
  6
Continuous
 62
     7
370
    25
100
AcDbLine
 10
157.7848560614
 20
209.1009840947
 30
0.0
 11
157.5348560614
 21
209.5712366243
 31
0.0
  0
LINE
  5
1BB
330
1F
100
AcDbEntity
  8
0
  6
Continuous
 62
     7
370
    25
100
AcDbLine
 10
157.7848560614
 20
209.1009840947
 30
0.0
 11
157.7848560614
 21
206.6200377343
 31
0.0
  0
LINE
  5
1BC
330
1F
100
AcDbEntity
  8
0
  6
Continuous
 62
     7
370
    25
100
AcDbLine
 10
157.5348560614
 20
205.9348679328
 30
0.0
 11
157.5348560614
 21
209.5712366243
 31
0.0
  0
LINE
  5
1BD
330
1F
100
AcDbEntity
  8
0
  6
Continuous
 62
     7
370
    25
100
AcDbLine
 10
157.7848560614
 20
209.1009840947
 30
0.0
 11
160.3348560614
 21
209.1009840947
 31
0.0
  0
LINE
  5
1BE
330
1F
100
AcDbEntity
  8
0
  6
Continuous
 62
     7
370
    25
100
AcDbLine
 10
157.5348560614
 20
213.9716273564
 30
0.0
 11
157.7848560614
 21
214.441879886
 31
0.0
  0
LINE
  5
1BF
330
1F
100
AcDbEntity
  8
0
  6
Continuous
 62
     7
370
    25
100
AcDbLine
 10
160.3348560614
 20
214.441879886
 30
0.0
 11
157.7848560614
 21
214.441879886
 31
0.0
  0
LINE
  5
1C0
330
1F
100
AcDbEntity
  8
0
  6
Continuous
 62
     7
370
    25
100
AcDbLine
 10
157.5348560614
 20
213.9716273564
 30
0.0
 11
157.5348560614
 21
209.5712366243
 31
0.0
  0
LINE
  5
1C1
330
1F
100
AcDbEntity
  8
0
  6
Continuous
 62
     7
370
    25
100
AcDbLine
 10
157.7848560614
 20
198.8382178007
 30
0.0
 11
157.7848560614
 21
196.9055325059
 31
0.0
  0
LINE
  5
1C2
330
1F
100
AcDbEntity
  8
0
  6
Continuous
 62
     7
370
    25
100
AcDbLine
 10
157.5348560614
 20
196.6906152341
 30
0.0
 11
157.7848560614
 21
196.9055325059
 31
0.0
  0
LINE
  5
1C3
330
1F
100
AcDbEntity
  8
0
  6
Continuous
 62
     7
370
    25
100
AcDbLine
 10
157.5348560614
 20
196.6906152341
 30
0.0
 11
157.5348560614
 21
199.5233876021
 31
0.0
  0
LINE
  5
1C4
330
1F
100
AcDbEntity
  8
0
  6
Continuous
 62
     7
370
    25
100
AcDbLine
 10
160.3348560614
 20
196.9055325059
 30
0.0
 11
157.7848560614
 21
196.9055325059
 31
0.0
  0
LINE
  5
1C5
330
1F
100
AcDbEntity
  8
0
  6
Continuous
 62
     7
370
    25
100
AcDbLine
 10
157.7848560614
 20
194.4646083635
 30
0.0
 11
157.5348560614
 21
194.6795256354
 31
0.0
  0
LINE
  5
1C6
330
1F
100
AcDbEntity
  8
0
  6
Continuous
 62
     7
370
    25
100
AcDbLine
 10
157.7848560614
 20
194.4646083635
 30
0.0
 11
160.3348560614
 21
194.4646083635
 31
0.0
  0
LINE
  5
1C7
330
1F
100
AcDbEntity
  8
0
  6
Continuous
 62
     7
370
    25
100
AcDbLine
 10
157.5348560614
 20
196.6906152341
 30
0.0
 11
157.5348560614
 21
194.6795256354
 31
0.0
  0
LINE
  5
1C8
330
1F
100
AcDbEntity
  8
0
  6
Continuous
 62
     7
370
    25
100
AcDbLine
 10
157.7848560614
 20
214.9901409516
 30
0.0
 11
157.5348560614
 21
214.7752236798
 31
0.0
  0
LINE
  5
1C9
330
1F
100
AcDbEntity
  8
0
  6
Continuous
 62
     7
370
    25
100
AcDbLine
 10
157.7848560614
 20
214.9901409516
 30
0.0
 11
157.7848560614
 21
214.441879886
 31
0.0
  0
LINE
  5
1CA
330
1F
100
AcDbEntity
  8
0
  6
Continuous
 62
     7
370
    25
100
AcDbLine
 10
157.5348560614
 20
213.9716273564
 30
0.0
 11
157.5348560614
 21
214.7752236798
 31
0.0
  0
LINE
  5
1CB
330
1F
100
AcDbEntity
  8
0
  6
Continuous
 62
     7
370
    25
100
AcDbLine
 10
157.7848560614
 20
214.9901409516
 30
0.0
 11
160.3348560614
 21
214.9901409516
 31
0.0
  0
LINE
  5
1CC
330
1F
100
AcDbEntity
  8
0
  6
Continuous
 62
     7
370
    25
100
AcDbLine
 10
138.7703991539
 20
222.0015792818
 30
0.0
 11
138.5844754268
 21
221.787852407
 31
0.0
  0
SPLINE
  5
1CD
330
1F
100
AcDbEntity
  8
0
  6
Continuous
 62
     7
370
    25
100
AcDbSpline
210
0.0
220
0.0
230
1.0
 70
     8
 71
     3
 72
     9
 73
     5
 74
     0
 42
0.00000001
 43
0.00000001
 40
0.0
 40
0.0
 40
0.0
 40
0.0
 40
0.5841917497409973
 40
1.0
 40
1.0
 40
1.0
 40
1.0
 10
139.1848560614437
 20
222.1696753938647
 30
0.0
 10
139.158688097623
 20
222.2152909492909
 30
0.0
 10
139.1138946478144
 20
222.2933741393504
 30
0.0
 10
138.8712802303005
 20
222.0872764156435
 30
0.0
 10
138.7703991538664
 20
222.0015792817666
 30
0.0
  0
LINE
  5
1CE
330
1F
100
AcDbEntity
  8
0
  6
Continuous
 62
     7
370
    25
100
AcDbLine
 10
139.1848560614
 20
222.1696753939
 30
0.0
 11
139.1848560614
 21
221.86391128
 31
0.0
  0
SPLINE
  5
1CF
330
1F
100
AcDbEntity
  8
0
  6
Continuous
 62
     7
370
    25
100
AcDbSpline
210
0.0
220
0.0
230
1.0
 70
     8
 71
     3
 72
     9
 73
     5
 74
     0
 42
0.00000001
 43
0.00000001
 40
0.0
 40
0.0
 40
0.0
 40
0.0
 40
0.5850553834536069
 40
1.0
 40
1.0
 40
1.0
 40
1.0
 10
138.7703991538664
 20
220.7304803218475
 30
0.0
 10
138.9069532878906
 20
221.0187429512738
 30
0.0
 10
139.1403570610826
 20
221.511452936651
 30
0.0
 10
139.1718063488079
 20
221.7605498548251
 30
0.0
 10
139.1848560614437
 20
221.8639112800198
 30
0.0
  0
SPLINE
  5
1D0
330
1F
100
AcDbEntity
  8
0
  6
Continuous
 62
     7
370
    25
100
AcDbSpline
210
0.0
220
0.0
230
1.0
 70
     8
 71
     3
 72
    11
 73
     7
 74
     0
 42
0.00000001
 43
0.00000001
 40
0.0
 40
0.0
 40
0.0
 40
0.0
 40
0.232871632211144
 40
0.4710265024313161
 40
0.731142121256026
 40
0.9999999999999999
 40
0.9999999999999999
 40
0.9999999999999999
 40
0.9999999999999999
 10
138.7703991538664
 20
212.8223598685426
 30
0.0
 10
138.5000024191936
 20
213.4221154368823
 30
0.0
 10
137.9530743670628
 20
214.6352334323476
 30
0.0
 10
137.6518500490791
 20
216.5996294682964
 30
0.0
 10
137.8595018144889
 20
218.6709965231943
 30
0.0
 10
138.4634396462691
 20
220.0364634382642
 30
0.0
 10
138.7703991538664
 20
220.7304803218475
 30
0.0
  0
SPLINE
  5
1D1
330
1F
100
AcDbEntity
  8
0
  6
Continuous
 62
     7
370
    25
100
AcDbSpline
210
0.0
220
0.0
230
1.0
 70
     8
 71
     3
 72
     9
 73
     5
 74
     0
 42
0.00000001
 43
0.00000001
 40
0.0
 40
0.0
 40
0.0
 40
0.0
 40
0.5841917497409229
 40
1.0
 40
1.0
 40
1.0
 40
1.0
 10
139.1848560614437
 20
210.8423575773824
 30
0.0
 10
139.158688097623
 20
211.2821879710216
 30
0.0
 10
139.1138946478144
 20
212.0350750048324
 30
0.0
 10
138.8712802303005
 20
212.5911424409179
 30
0.0
 10
138.7703991538664
 20
212.8223598685426
 30
0.0
  0
LINE
  5
1D2
330
1F
100
AcDbEntity
  8
0
  6
Continuous
 62
     7
370
    25
100
AcDbLine
 10
139.1848560614
 20
210.8423575774
 30
0.0
 11
139.1848560614
 21
209.4587386905
 31
0.0
  0
SPLINE
  5
1D3
330
1F
100
AcDbEntity
  8
0
  6
Continuous
 62
     7
370
    25
100
AcDbSpline
210
0.0
220
0.0
230
1.0
 70
     8
 71
     3
 72
     9
 73
     5
 74
     0
 42
0.00000001
 43
0.00000001
 40
0.0
 40
0.0
 40
0.0
 40
0.0
 40
0.5850553834536146
 40
1.0
 40
1.0
 40
1.0
 40
1.0
 10
138.7703991538664
 20
207.07048628884
 30
0.0
 10
138.9069532878906
 20
207.5314052475634
 30
0.0
 10
139.1403570610826
 20
208.3192263184551
 30
0.0
 10
139.1718063488079
 20
209.1245669365368
 30
0.0
 10
139.1848560614437
 20
209.4587386904959
 30
0.0
  0
SPLINE
  5
1D4
330
1F
100
AcDbEntity
  8
0
  6
Continuous
 62
     7
370
    25
100
AcDbSpline
210
0.0
220
0.0
230
1.0
 70
     8
 71
     3
 72
    11
 73
     7
 74
     0
 42
0.00000001
 43
0.00000001
 40
0.0
 40
0.0
 40
0.0
 40
0.0
 40
0.2328716322111453
 40
0.4710265024313182
 40
0.731142121256027
 40
0.9999999999999999
 40
0.9999999999999999
 40
0.9999999999999999
 40
0.9999999999999999
 10
138.7703991538664
 20
195.5481552443576
 30
0.0
 10
138.5000024191936
 20
196.4220142409404
 30
0.0
 10
137.9530743670628
 20
198.1895577706965
 30
0.0
 10
137.6518500490791
 20
201.051732362285
 30
0.0
 10
137.8595018144889
 20
204.0697664276607
 30
0.0
 10
138.4634396462691
 20
206.0592861774703
 30
0.0
 10
138.7703991538664
 20
207.07048628884
 30
0.0
  0
SPLINE
  5
1D5
330
1F
100
AcDbEntity
  8
0
  6
Continuous
 62
     7
370
    25
100
AcDbSpline
210
0.0
220
0.0
230
1.0
 70
     8
 71
     3
 72
     9
 73
     5
 74
     0
 42
0.00000001
 43
0.00000001
 40
0.0
 40
0.0
 40
0.0
 40
0.0
 40
0.5841917497409191
 40
1.0
 40
1.0
 40
1.0
 40
1.0
 10
139.1848560614437
 20
193.4000568410991
 30
0.0
 10
139.1586880976231
 20
193.7942716793121
 30
0.0
 10
139.1138946478144
 20
194.4690755230635
 30
0.0
 10
138.8712802303005
 20
195.2312406828559
 30
0.0
 10
138.7703991538664
 20
195.5481552443576
 30
0.0
  0
LINE
  5
1D6
330
1F
100
AcDbEntity
  8
0
  6
Continuous
 62
     7
370
    25
100
AcDbLine
 10
139.1848560614
 20
193.4000568411
 30
0.0
 11
139.1848560614
 21
192.3222020681
 31
0.0
  0
SPLINE
  5
1D7
330
1F
100
AcDbEntity
  8
0
  6
Continuous
 62
     7
370
    25
100
AcDbSpline
210
0.0
220
0.0
230
1.0
 70
     8
 71
     3
 72
     9
 73
     5
 74
     0
 42
0.00000001
 43
0.00000001
 40
0.0
 40
0.0
 40
0.0
 40
0.0
 40
0.585055383453619
 40
1.0
 40
1.0
 40
1.0
 40
1.0
 10
138.7703991538664
 20
191.067380624574
 30
0.0
 10
138.9069532878906
 20
191.2400369538711
 30
0.0
 10
139.1403570610826
 20
191.5351480393855
 30
0.0
 10
139.1718063488079
 20
192.0913917392931
 30
0.0
 10
139.1848560614437
 20
192.3222020680575
 30
0.0
  0
SPLINE
  5
1D8
330
1F
100
AcDbEntity
  8
0
  6
Continuous
 62
     7
370
    25
100
AcDbSpline
210
0.0
220
0.0
230
1.0
 70
     8
 71
     3
 72
    11
 73
     7
 74
     0
 42
0.00000001
 43
0.00000001
 40
0.0
 40
0.0
 40
0.0
 40
0.0
 40
0.2081371332967164
 40
0.4877843722013497
 40
0.7404826172454291
 40
0.9999999999999999
 40
0.9999999999999999
 40
0.9999999999999999
 40
0.9999999999999999
 10
138.5886280123273
 20
187.6668561405433
 30
0.0
 10
138.3672959835366
 20
187.8976973843429
 30
0.0
 10
137.8485884227966
 20
188.4386904757797
 30
0.0
 10
137.6531022033162
 20
189.2982499945207
 30
0.0
 10
137.9313404095074
 20
190.2128208883987
 30
0.0
 10
138.4882415600668
 20
190.7800103772126
 30
0.0
 10
138.7703991538664
 20
191.067380624574
 30
0.0
  0
SPLINE
  5
1D9
330
1F
100
AcDbEntity
  8
0
  6
Continuous
 62
     7
370
    25
100
AcDbSpline
210
0.0
220
0.0
230
1.0
 70
     8
 71
     3
 72
     9
 73
     5
 74
     0
 42
0.00000001
 43
0.00000001
 40
0.0
 40
0.0
 40
0.0
 40
0.0
 40
0.3607400128961895
 40
1.0
 40
1.0
 40
1.0
 40
1.0
 10
139.0974881550028
 20
187.2612230975062
 30
0.0
 10
139.0835202692722
 20
187.2478680193733
 30
0.0
 10
139.0448001793701
 20
187.2108466808597
 30
0.0
 10
138.8774069484839
 20
187.358671525267
 30
0.0
 10
138.7703991538664
 20
187.4531700333964
 30
0.0
  0
LINE
  5
1DA
330
1F
100
AcDbEntity
  8
0
  6
Continuous
 62
     7
370
    25
100
AcDbLine
 10
137.6848560614
 20
188.5273746576
 30
0.0
 11
137.6848560614
 21
220.9273746576
 31
0.0
  0
SPLINE
  5
1DB
330
1F
100
AcDbEntity
  8
0
  6
Continuous
 62
     7
370
    25
100
AcDbSpline
210
0.0
220
0.0
230
1.0
 70
     8
 71
     3
 72
     9
 73
     5
 74
     0
 42
0.00000001
 43
0.00000001
 40
0.0
 40
0.0
 40
0.0
 40
0.0
 40
0.8988656309358759
 40
1.0
 40
1.0
 40
1.0
 40
1.0
 10
146.0493129690216
 20
187.453170033397
 30
0.0
 10
145.9003994645369
 20
187.3232173481103
 30
0.0
 10
145.734731205167
 20
187.1786432529242
 30
0.0
 10
145.7005114680994
 20
187.221667511276
 30
0.0
 10
145.6970506765816
 20
187.2260187424988
 30
0.0
  0
SPLINE
  5
1DC
330
1F
100
AcDbEntity
  8
0
  6
Continuous
 62
     7
370
    25
100
AcDbSpline
210
0.0
220
0.0
230
1.0
 70
     8
 71
     3
 72
    11
 73
     7
 74
     0
 42
0.00000001
 43
0.00000001
 40
0.0
 40
0.0
 40
0.0
 40
0.0
 40
0.2530718616574864
 40
0.5121855397574784
 40
0.783613514079778
 40
1.0
 40
1.0
 40
1.0
 40
1.0
 10
146.049312969021
 20
191.0673806245741
 30
0.0
 10
146.3251999016251
 20
190.7872453705631
 30
0.0
 10
146.88356026837
 20
190.2202869369349
 30
0.0
 10
147.1653888328119
 20
189.3151474470891
 30
0.0
 10
146.9758045122628
 20
188.4482627640341
 30
0.0
 10
146.4586587039355
 20
187.9069511406572
 30
0.0
 10
146.2292613135491
 20
187.6668341914547
 30
0.0
  0
SPLINE
  5
1DD
330
1F
100
AcDbEntity
  8
0
  6
Continuous
 62
     7
370
    25
100
AcDbSpline
210
0.0
220
0.0
230
1.0
 70
     8
 71
     3
 72
     9
 73
     5
 74
     0
 42
0.00000001
 43
0.00000001
 40
0.0
 40
0.0
 40
0.0
 40
0.0
 40
0.5841917497409903
 40
1.0
 40
1.0
 40
1.0
 40
1.0
 10
145.6348560614437
 20
192.3222020680575
 30
0.0
 10
145.6610240252643
 20
192.0040652901137
 30
0.0
 10
145.705817475073
 20
191.4594893386646
 30
0.0
 10
145.9484318925869
 20
191.1825389013305
 30
0.0
 10
146.049312969021
 20
191.0673806245741
 30
0.0
  0
LINE
  5
1DE
330
1F
100
AcDbEntity
  8
0
  6
Continuous
 62
     7
370
    25
100
AcDbLine
 10
145.6348560614
 20
192.3222020681
 30
0.0
 11
145.6348560614
 21
193.4000568411
 31
0.0
  0
SPLINE
  5
1DF
330
1F
100
AcDbEntity
  8
0
  6
Continuous
 62
     7
370
    25
100
AcDbSpline
210
0.0
220
0.0
230
1.0
 70
     8
 71
     3
 72
     9
 73
     5
 74
     0
 42
0.00000001
 43
0.00000001
 40
0.0
 40
0.0
 40
0.0
 40
0.0
 40
0.5850553834536201
 40
1.0
 40
1.0
 40
1.0
 40
1.0
 10
146.0493129690211
 20
195.5481552443576
 30
0.0
 10
145.9127588349967
 20
195.1005712884277
 30
0.0
 10
145.6793550618048
 20
194.3355429362608
 30
0.0
 10
145.6479057740795
 20
193.6743961435015
 30
0.0
 10
145.6348560614437
 20
193.4000568410991
 30
0.0
  0
SPLINE
  5
1E0
330
1F
100
AcDbEntity
  8
0
  6
Continuous
 62
     7
370
    25
100
AcDbSpline
210
0.0
220
0.0
230
1.0
 70
     8
 71
     3
 72
    11
 73
     7
 74
     0
 42
0.00000001
 43
0.00000001
 40
0.0
 40
0.0
 40
0.0
 40
0.0
 40
0.2328716322111473
 40
0.471026502431323
 40
0.7311421212560295
 40
1.0
 40
1.0
 40
1.0
 40
1.0
 10
146.0493129690211
 20
207.07048628884
 30
0.0
 10
146.3197097036938
 20
206.1966272922572
 30
0.0
 10
146.8666377558247
 20
204.4290837625011
 30
0.0
 10
147.1678620738082
 20
201.5669091709126
 30
0.0
 10
146.9602103083985
 20
198.5488751055369
 30
0.0
 10
146.3562724766183
 20
196.5593553557273
 30
0.0
 10
146.0493129690211
 20
195.5481552443576
 30
0.0
  0
SPLINE
  5
1E1
330
1F
100
AcDbEntity
  8
0
  6
Continuous
 62
     7
370
    25
100
AcDbSpline
210
0.0
220
0.0
230
1.0
 70
     8
 71
     3
 72
     9
 73
     5
 74
     0
 42
0.00000001
 43
0.00000001
 40
0.0
 40
0.0
 40
0.0
 40
0.0
 40
0.5841917497409251
 40
1.0
 40
1.0
 40
1.0
 40
1.0
 10
145.6348560614437
 20
209.4587386904959
 30
0.0
 10
145.6610240252643
 20
208.9841387036512
 30
0.0
 10
145.705817475073
 20
208.1717342370439
 30
0.0
 10
145.9484318925869
 20
207.3939114294692
 30
0.0
 10
146.0493129690211
 20
207.07048628884
 30
0.0
  0
LINE
  5
1E2
330
1F
100
AcDbEntity
  8
0
  6
Continuous
 62
     7
370
    25
100
AcDbLine
 10
145.6348560614
 20
209.4587386905
 30
0.0
 11
145.6348560614
 21
210.8423575774
 31
0.0
  0
SPLINE
  5
1E3
330
1F
100
AcDbEntity
  8
0
  6
Continuous
 62
     7
370
    25
100
AcDbSpline
210
0.0
220
0.0
230
1.0
 70
     8
 71
     3
 72
     9
 73
     5
 74
     0
 42
0.00000001
 43
0.00000001
 40
0.0
 40
0.0
 40
0.0
 40
0.0
 40
0.5850553834536161
 40
1.0
 40
1.0
 40
1.0
 40
1.0
 10
146.049312969021
 20
212.8223598685426
 30
0.0
 10
145.9127588349967
 20
212.4870897723841
 30
0.0
 10
145.6793550618048
 20
211.9140327496807
 30
0.0
 10
145.6479057740795
 20
211.1566354920311
 30
0.0
 10
145.6348560614437
 20
210.8423575773824
 30
0.0
  0
SPLINE
  5
1E4
330
1F
100
AcDbEntity
  8
0
  6
Continuous
 62
     7
370
    25
100
AcDbSpline
210
0.0
220
0.0
230
1.0
 70
     8
 71
     3
 72
    11
 73
     7
 74
     0
 42
0.00000001
 43
0.00000001
 40
0.0
 40
0.0
 40
0.0
 40
0.0
 40
0.2328716322111487
 40
0.4710265024313253
 40
0.731142121256031
 40
1.0
 40
1.0
 40
1.0
 40
1.0
 10
146.0493129690211
 20
220.7304803218475
 30
0.0
 10
146.3197097036938
 20
220.1307247535078
 30
0.0
 10
146.8666377558246
 20
218.9176067580425
 30
0.0
 10
147.1678620738083
 20
216.9532107220937
 30
0.0
 10
146.9602103083985
 20
214.8818436671958
 30
0.0
 10
146.3562724766182
 20
213.5163767521259
 30
0.0
 10
146.049312969021
 20
212.8223598685426
 30
0.0
  0
SPLINE
  5
1E5
330
1F
100
AcDbEntity
  8
0
  6
Continuous
 62
     7
370
    25
100
AcDbSpline
210
0.0
220
0.0
230
1.0
 70
     8
 71
     3
 72
     9
 73
     5
 74
     0
 42
0.00000001
 43
0.00000001
 40
0.0
 40
0.0
 40
0.0
 40
0.0
 40
0.5841917497409219
 40
1.0
 40
1.0
 40
1.0
 40
1.0
 10
145.6348560614437
 20
221.8639112800198
 30
0.0
 10
145.6610240252643
 20
221.707448071119
 30
0.0
 10
145.705817475073
 20
221.4396195559607
 30
0.0
 10
145.948431892587
 20
220.9387471857203
 30
0.0
 10
146.0493129690211
 20
220.7304803218475
 30
0.0
  0
LINE
  5
1E6
330
1F
100
AcDbEntity
  8
0
  6
Continuous
 62
     7
370
    25
100
AcDbLine
 10
145.6348560614
 20
221.86391128
 30
0.0
 11
145.6348560614
 21
222.1696753939
 31
0.0
  0
SPLINE
  5
1E7
330
1F
100
AcDbEntity
  8
0
  6
Continuous
 62
     7
370
    25
100
AcDbSpline
210
0.0
220
0.0
230
1.0
 70
     8
 71
     3
 72
     9
 73
     5
 74
     0
 42
0.00000001
 43
0.00000001
 40
0.0
 40
0.0
 40
0.0
 40
0.0
 40
0.5850553834536187
 40
1.0
 40
1.0
 40
1.0
 40
1.0
 10
146.049312969021
 20
222.0015792817665
 30
0.0
 10
145.9127588349967
 20
222.1138931415379
 30
0.0
 10
145.6793550618048
 20
222.3058644710014
 30
0.0
 10
145.6479057740795
 20
222.2096140061111
 30
0.0
 10
145.6348560614437
 20
222.1696753938647
 30
0.0
  0
LINE
  5
1E8
330
1F
100
AcDbEntity
  8
0
  6
Continuous
 62
     7
370
    25
100
AcDbLine
 10
146.2338246952
 20
221.7878648253
 30
0.0
 11
146.049312969
 21
222.0015792818
 31
0.0
  0
LINE
  5
1E9
330
1F
100
AcDbEntity
  8
0
  6
Continuous
 62
     7
370
    25
100
AcDbLine
 10
147.1348560614
 20
189.3078664038
 30
0.0
 11
147.1348560614
 21
188.5273746576
 31
0.0
  0
LINE
  5
1EA
330
1F
100
AcDbEntity
  8
0
  6
Continuous
 62
     7
370
    25
100
AcDbLine
 10
147.1348560614
 20
220.9273746576
 30
0.0
 11
147.1348560614
 21
189.3078664038
 31
0.0
  0
LINE
  5
1EB
330
1F
100
AcDbEntity
  8
0
  6
Continuous
 62
     7
370
    25
100
AcDbLine
 10
138.7703991539
 20
195.5481552444
 30
0.0
 11
146.049312969
 21
195.5481552444
 31
0.0
  0
LINE
  5
1EC
330
1F
100
AcDbEntity
  8
0
  6
Continuous
 62
     7
370
    25
100
AcDbLine
 10
146.049312969
 20
207.0704862888
 30
0.0
 11
138.7703991539
 21
207.0704862888
 31
0.0
  0
LINE
  5
1ED
330
1F
100
AcDbEntity
  8
0
  6
Continuous
 62
     7
370
    25
100
AcDbLine
 10
154.8848560614
 20
194.1523746576
 30
0.0
 11
154.8848560614
 21
215.3023746576
 31
0.0
  0
LINE
  5
1EE
330
1F
100
AcDbEntity
  8
0
  6
Continuous
 62
     7
370
    25
100
AcDbLine
 10
139.1848560614
 20
209.4587386905
 30
0.0
 11
145.6348560614
 21
209.4587386905
 31
0.0
  0
LINE
  5
1EF
330
1F
100
AcDbEntity
  8
0
  6
Continuous
 62
     7
370
    25
100
AcDbLine
 10
145.6348560614
 20
210.8423575774
 30
0.0
 11
139.1848560614
 21
210.8423575774
 31
0.0
  0
LINE
  5
1F0
330
1F
100
AcDbEntity
  8
0
  6
Continuous
 62
     7
370
    25
100
AcDbLine
 10
138.7703991539
 20
212.8223598685
 30
0.0
 11
146.049312969
 21
212.8223598685
 31
0.0
  0
LINE
  5
1F1
330
1F
100
AcDbEntity
  8
0
  6
Continuous
 62
     7
370
    25
100
AcDbLine
 10
146.049312969
 20
220.7304803218
 30
0.0
 11
138.7703991539
 21
220.7304803218
 31
0.0
  0
LINE
  5
1F2
330
1F
100
AcDbEntity
  8
0
  6
Continuous
 62
     7
370
    25
100
AcDbLine
 10
145.6348560614
 20
193.4000568411
 30
0.0
 11
139.1848560614
 21
193.4000568411
 31
0.0
  0
LINE
  5
1F3
330
1F
100
AcDbEntity
  8
0
  6
Continuous
 62
     7
370
    25
100
AcDbLine
 10
139.1848560614
 20
192.3222020681
 30
0.0
 11
145.6348560614
 21
192.3222020681
 31
0.0
  0
LINE
  5
1F4
330
1F
100
AcDbEntity
  8
0
  6
Continuous
 62
     7
370
    25
100
AcDbLine
 10
146.049312969
 20
191.0673806246
 30
0.0
 11
138.7703991539
 21
191.0673806246
 31
0.0
  0
LINE
  5
1F5
330
1F
100
AcDbEntity
  8
0
  6
Continuous
 62
     7
370
    25
100
AcDbLine
 10
138.7703991539
 20
187.4531700334
 30
0.0
 11
146.049312969
 21
187.4531700334
 31
0.0
  0
LINE
  5
1F6
330
1F
100
AcDbEntity
  8
0
  6
Continuous
 62
     7
370
    25
100
AcDbLine
 10
139.1848560614
 20
221.86391128
 30
0.0
 11
145.6348560614
 21
221.86391128
 31
0.0
  0
LINE
  5
1F7
330
1F
100
AcDbEntity
  8
0
  6
Continuous
 62
     7
370
    25
100
AcDbLine
 10
145.6348560614
 20
222.1696753939
 30
0.0
 11
139.1848560614
 21
222.1696753939
 31
0.0
  0
ARC
  5
1F8
330
1F
100
AcDbEntity
  8
0
  6
Continuous
 62
     7
370
    25
100
AcDbCircle
 10
103.9348560614
 20
204.7273746576
 30
0.0
 40
14.99999999999998
100
AcDbArc
 50
47.0249083904
 51
78.0569252208
  0
ARC
  5
1F9
330
1F
100
AcDbEntity
  8
0
  6
Continuous
 62
     7
370
    25
100
AcDbCircle
 10
103.9348560614
 20
204.7273746576
 30
0.0
 40
15.00000000000001
100
AcDbArc
 50
345.0666781664
 51
19.4920529338
  0
LWPOLYLINE
  5
1FA
330
1F
100
AcDbEntity
  8
0
  6
Continuous
 62
     7
370
    25
100
AcDbPolyline
 90
        3
 70
   128
 43
0.0
 10
115.0492556114
 20
194.6541367152
 10
113.4784926963
 20
193.1550369603
 10
111.8348560614
 20
191.9762962718
  0
LWPOLYLINE
  5
1FB
330
1F
100
AcDbEntity
  8
0
  6
Continuous
 62
     7
370
    25
100
AcDbPolyline
 90
        3
 70
   128
 43
0.0
 10
96.0348560614
 20
191.9762962718
 10
94.3912194265
 20
193.1550369603
 10
93.4207394364
 20
194.0290873369
  0
ARC
  5
1FC
330
1F
100
AcDbEntity
  8
0
  6
Continuous
 62
     7
370
    25
100
AcDbCircle
 10
103.9348560614
 20
204.7273746576
 30
0.0
 40
14.99999999999999
100
AcDbArc
 50
166.6189230477
 51
197.7007951051
  0
ARC
  5
1FD
330
1F
100
AcDbEntity
  8
0
  6
Continuous
 62
     7
370
    25
100
AcDbCircle
 10
103.9348560614
 20
204.7273746576
 30
0.0
 40
15.00000000000001
100
AcDbArc
 50
106.4201516845
 51
139.0713802684
  0
ARC
  5
1FE
330
1F
100
AcDbEntity
  8
0
  6
Continuous
 62
     7
370
    25
100
AcDbCircle
 10
117.3430756554
 20
222.1228855236
 30
0.0
 40
6.213875553933408
100
AcDbArc
 50
239.3038676187
 51
299.7771370676
  0
SPLINE
  5
1FF
330
1F
100
AcDbEntity
  8
0
  6
Continuous
 62
     7
370
    25
100
AcDbSpline
210
0.0
220
0.0
230
1.0
 70
     8
 71
     3
 72
    46
 73
    42
 74
     0
 42
0.00000001
 43
0.00000001
 40
0.0
 40
0.0
 40
0.0
 40
0.0
 40
0.1249999999999999
 40
0.1249999999999999
 40
0.1562499999999999
 40
0.1562499999999999
 40
0.1874999999999999
 40
0.1874999999999999
 40
0.25
 40
0.25
 40
0.2812500000000001
 40
0.2812500000000001
 40
0.3125000000000002
 40
0.3125000000000002
 40
0.3750000000000003
 40
0.3750000000000003
 40
0.4062500000000004
 40
0.4062500000000004
 40
0.4375000000000005
 40
0.4375000000000005
 40
0.4687500000000006
 40
0.4687500000000006
 40
0.5000000000000007
 40
0.5000000000000007
 40
0.5312500000000008
 40
0.5312500000000008
 40
0.5625000000000008
 40
0.5625000000000008
 40
0.6250000000000011
 40
0.6250000000000011
 40
0.656250000000001
 40
0.656250000000001
 40
0.687500000000001
 40
0.687500000000001
 40
0.7500000000000008
 40
0.7500000000000008
 40
0.8125000000000007
 40
0.8125000000000007
 40
0.8750000000000004
 40
0.8750000000000004
 40
1.0
 40
1.0
 40
1.0
 40
1.0
 10
120.4290580941536
 20
216.7294671468285
 30
0.0
 10
121.6773715761368
 20
216.0295831724019
 30
0.0
 10
122.8780728119196
 20
215.2298300199955
 30
0.0
 10
124.2871759036556
 20
214.0515427743494
 30
0.0
 10
124.5643071862417
 20
213.8067451174186
 30
0.0
 10
125.1078119810092
 20
213.2963834023283
 30
0.0
 10
125.3744732997797
 20
213.0304008331989
 30
0.0
 10
126.1457729040577
 20
212.2075588601245
 30
0.0
 10
126.6253467946845
 20
211.6232879890361
 30
0.0
 10
127.2782055783005
 20
210.678825234977
 30
0.0
 10
127.4846685644966
 20
210.3525867043138
 30
0.0
 10
127.8714694174531
 20
209.6734455864245
 30
0.0
 10
128.0528418793131
 20
209.3180540608
 30
0.0
 10
128.5398923510795
 20
208.2271951200287
 30
0.0
 10
128.7905973098702
 20
207.467230150213
 30
0.0
 10
129.0300448812262
 20
206.2669886191207
 30
0.0
 10
129.0865381891548
 20
205.8565124150527
 30
0.0
 10
129.1469210759046
 20
205.0336338363087
 30
0.0
 10
129.1509615937243
 20
204.6188530525006
 30
0.0
 10
129.1078679484259
 20
203.8026496055457
 30
0.0
 10
129.0610238306558
 20
203.39866337136
 30
0.0
 10
128.9189637011129
 20
202.5985629095046
 30
0.0
 10
128.8231033364401
 20
202.200514657369
 30
0.0
 10
128.5876829071804
 20
201.4223938864959
 30
0.0
 10
128.447935958504
 20
201.0414371217543
 30
0.0
 10
128.1337611271971
 20
200.3056626792707
 30
0.0
 10
127.9600568528638
 20
199.9518681071564
 30
0.0
 10
127.3966228008019
 20
198.9264434768739
 30
0.0
 10
126.9649625474459
 20
198.2904395516934
 30
0.0
 10
126.2521577852626
 20
197.3922352940571
 30
0.0
 10
126.0029038096791
 20
197.1016676819687
 30
0.0
 10
125.4924230829259
 20
196.5458248363795
 30
0.0
 10
125.2303522079469
 20
196.2793918007528
 30
0.0
 10
124.4264576060705
 20
195.5100351337009
 30
0.0
 10
123.8670852781614
 20
195.0368248231545
 30
0.0
 10
122.7115449999798
 20
194.1539167023485
 30
0.0
 10
122.1152938973773
 20
193.7443479614651
 30
0.0
 10
120.8923968712003
 20
192.9793058152254
 30
0.0
 10
120.2705706547373
 20
192.6269611733148
 30
0.0
 10
118.388987009913
 20
191.6502641058298
 30
0.0
 10
117.1087927850706
 20
191.1030097708465
 30
0.0
 10
115.8199543318673
 20
190.6372291144954
 30
0.0
  0
LINE
  5
200
330
1F
100
AcDbEntity
  8
0
  6
Continuous
 62
     7
370
    25
100
AcDbLine
 10
79.1348560614
 20
272.7273746576
 30
0.0
 11
128.734855967
 21
272.7273746576
 31
0.0
  0
LWPOLYLINE
  5
201
330
1F
100
AcDbEntity
  8
0
  6
Continuous
 62
     7
370
    25
100
AcDbPolyline
 90
        9
 70
   128
 43
0.0
 10
114.1709861736
 20
216.7796563764
 10
113.610386779
 20
217.4331105487
 10
113.1772672128
 20
218.2128373503
 10
112.8794836585
 20
219.1046936271
 10
112.7224374935
 20
220.0925023529
 10
112.7089773157
 20
221.1583460581
 10
112.8393472739
 20
222.2828918279
 10
113.1111826394
 20
223.445741974
 10
113.5195526985
 20
224.6258040201
  0
ARC
  5
202
330
1F
100
AcDbEntity
  8
0
  6
Continuous
 62
     7
370
    25
100
AcDbCircle
 10
84.1910960124
 20
218.117779757
 30
0.0
 40
7.74801452918165
100
AcDbArc
 50
327.7818157888
 51
13.7464277327
  0
SPLINE
  5
203
330
1F
100
AcDbEntity
  8
0
  6
Continuous
 62
     7
370
    25
100
AcDbSpline
210
0.0
220
0.0
230
1.0
 70
     8
 71
     3
 72
    42
 73
    38
 74
     0
 42
0.00000001
 43
0.00000001
 40
0.0
 40
0.0
 40
0.0
 40
0.0
 40
0.0624999999999998
 40
0.0624999999999998
 40
0.1249999999999997
 40
0.1249999999999997
 40
0.1874999999999996
 40
0.1874999999999996
 40
0.2499999999999995
 40
0.2499999999999995
 40
0.3749999999999996
 40
0.3749999999999996
 40
0.4062499999999997
 40
0.4062499999999997
 40
0.4374999999999998
 40
0.4374999999999998
 40
0.4999999999999999
 40
0.4999999999999999
 40
0.5312499999999999
 40
0.5312499999999999
 40
0.5625
 40
0.5625
 40
0.59375
 40
0.59375
 40
0.625
 40
0.625
 40
0.6875
 40
0.6875
 40
0.71875
 40
0.71875
 40
0.75
 40
0.75
 40
0.8125
 40
0.8125
 40
0.875
 40
0.875
 40
1.0
 40
1.0
 40
1.0
 40
1.0
 10
91.71718328687223
 20
219.9589042725483
 30
0.0
 10
91.91100708214755
 20
220.3910776881192
 30
0.0
 10
92.12438743332719
 20
220.8441868186965
 30
0.0
 10
92.58497391921172
 20
221.7579681512872
 30
0.0
 10
92.83296728968904
 20
222.2206976648132
 30
0.0
 10
93.36793963174698
 20
223.146907262089
 30
0.0
 10
93.65489995678263
 20
223.6104997212043
 30
0.0
 10
94.27383783884432
 20
224.530960107468
 30
0.0
 10
94.60643663129584
 20
224.988740085604
 30
0.0
 10
95.68173559370051
 20
226.3362138057516
 30
0.0
 10
96.48643285525121
 20
227.1860644429559
 30
0.0
 10
97.65848771422684
 20
228.138376023095
 30
0.0
 10
97.90144039670398
 20
228.323200441098
 30
0.0
 10
98.40714440510675
 20
228.6795010100099
 30
0.0
 10
98.66926976195734
 20
228.8503678400886
 30
0.0
 10
99.47337557741747
 20
229.3298450123646
 30
0.0
 10
100.0372302456061
 20
229.6088850248941
 30
0.0
 10
100.9348790321636
 20
229.9504878396667
 30
0.0
 10
101.2427921144613
 20
230.0514539985304
 30
0.0
 10
101.8786763572518
 20
230.2234986189619
 30
0.0
 10
102.2049334174993
 20
230.2938603913471
 30
0.0
 10
102.8631068176395
 20
230.3980638791972
 30
0.0
 10
103.1983621608124
 20
230.4323143964356
 30
0.0
 10
103.8638260233508
 20
230.4625597550002
 30
0.0
 10
104.1953008148533
 20
230.4589400349781
 30
0.0
 10
105.1860327389827
 20
230.3930372972693
 30
0.0
 10
105.8472415513761
 20
230.2734187257608
 30
0.0
 10
106.7972422037393
 20
229.9972778454842
 30
0.0
 10
107.1063121139398
 20
229.8896469966565
 30
0.0
 10
107.7025109656817
 20
229.6504031077518
 30
0.0
 10
107.991086806331
 20
229.5183715449217
 30
0.0
 10
108.8317868465712
 20
229.0898928105921
 30
0.0
 10
109.3590670031736
 20
228.7612885795568
 30
0.0
 10
110.3595836545448
 20
228.0356606508857
 30
0.0
 10
110.8226384082472
 20
227.6459038380261
 30
0.0
 10
112.1164925166432
 20
226.4270744301197
 30
0.0
 10
112.8593132324403
 20
225.5446247049034
 30
0.0
 10
113.5195526984847
 20
224.6258040201211
 30
0.0
  0
SPLINE
  5
204
330
1F
100
AcDbEntity
  8
0
  6
Continuous
 62
     7
370
    25
100
AcDbSpline
210
0.0
220
0.0
230
1.0
 70
     8
 71
     3
 72
     8
 73
     4
 74
     0
 42
0.00000001
 43
0.00000001
 40
0.0
 40
0.0
 40
0.0
 40
0.0
 40
0.000098823642892
 40
0.000098823642892
 40
0.000098823642892
 40
0.000098823642892
 10
87.98742471220962
 20
263.009532421654
 30
0.0
 10
87.99013051408012
 20
262.9972915509529
 30
0.0
 10
87.9928142339591
 20
262.9852158908973
 30
0.0
 10
87.99548478461189
 20
262.9732875146499
 30
0.0
  0
SPLINE
  5
205
330
1F
100
AcDbEntity
  8
0
  6
Continuous
 62
     7
370
    25
100
AcDbSpline
210
0.0
220
0.0
230
1.0
 70
     8
 71
     3
 72
     8
 73
     4
 74
     0
 42
0.00000001
 43
0.00000001
 40
0.0
 40
0.0
 40
0.0
 40
0.0
 40
0.0002560048126404
 40
0.0002560048126404
 40
0.0002560048126404
 40
0.0002560048126404
 10
87.96605732624133
 20
263.1004948527012
 30
0.0
 10
87.97322110608296
 20
263.0715658677504
 30
0.0
 10
87.98041527316671
 20
263.0412426654727
 30
0.0
 10
87.9874247122103
 20
263.0095324216618
 30
0.0
  0
SPLINE
  5
206
330
1F
100
AcDbEntity
  8
0
  6
Continuous
 62
     7
370
    25
100
AcDbSpline
210
0.0
220
0.0
230
1.0
 70
     8
 71
     3
 72
     8
 73
     4
 74
     0
 42
0.00000001
 43
0.00000001
 40
0.0
 40
0.0
 40
0.0
 40
0.0
 40
0.0002560048126397
 40
0.0002560048126397
 40
0.0002560048126397
 40
0.0002560048126397
 10
119.8822874106778
 20
263.0095324216543
 30
0.0
 10
119.8892968497213
 20
263.0412426654652
 30
0.0
 10
119.8964910168037
 20
263.0715658677585
 30
0.0
 10
119.9036547966455
 20
263.1004948527091
 30
0.0
  0
SPLINE
  5
207
330
1F
100
AcDbEntity
  8
0
  6
Continuous
 62
     7
370
    25
100
AcDbSpline
210
0.0
220
0.0
230
1.0
 70
     8
 71
     3
 72
     8
 73
     4
 74
     0
 42
0.00000001
 43
0.00000001
 40
0.0000000000000011
 40
0.0000000000000011
 40
0.0000000000000011
 40
0.0000000000000011
 40
0.0000988236428765
 40
0.0000988236428765
 40
0.0000988236428765
 40
0.0000988236428765
 10
119.8742273382769
 20
262.9732875146531
 30
0.0
 10
119.8768978889293
 20
262.9852158908986
 30
0.0
 10
119.8795816088078
 20
262.997291550955
 30
0.0
 10
119.8822874106779
 20
263.0095324216543
 30
0.0
  0
LINE
  5
208
330
1F
100
AcDbEntity
  8
0
  6
Continuous
 62
     7
370
    25
100
AcDbLine
 10
119.8742273383
 20
262.9732875146
 30
0.0
 11
113.1096692759
 21
262.9732875146
 31
0.0
  0
SPLINE
  5
209
330
1F
100
AcDbEntity
  8
0
  6
Continuous
 62
     7
370
    25
100
AcDbSpline
210
0.0
220
0.0
230
1.0
 70
     8
 71
     3
 72
     8
 73
     4
 74
     0
 42
0.00000001
 43
0.00000001
 40
0.0
 40
0.0
 40
0.0
 40
0.0
 40
0.000098823642892
 40
0.000098823642892
 40
0.000098823642892
 40
0.000098823642892
 10
113.0343860675511
 20
263.009532421654
 30
0.0
 10
113.0594144571467
 20
262.9972915509529
 30
0.0
 10
113.0845134357318
 20
262.9852158908973
 30
0.0
 10
113.1096692758787
 20
262.9732875146499
 30
0.0
  0
SPLINE
  5
20A
330
1F
100
AcDbEntity
  8
0
  6
Continuous
 62
     7
370
    25
100
AcDbSpline
210
0.0
220
0.0
230
1.0
 70
     8
 71
     3
 72
     8
 73
     4
 74
     0
 42
0.00000001
 43
0.00000001
 40
0.0
 40
0.0
 40
0.0
 40
0.0
 40
0.0002560048126404
 40
0.0002560048126404
 40
0.0002560048126404
 40
0.0002560048126404
 10
112.8386580329433
 20
263.1004948527012
 30
0.0
 10
112.9043248559395
 20
263.0715658677504
 30
0.0
 10
112.9695494758064
 20
263.0412426654727
 30
0.0
 10
113.0343860675531
 20
263.0095324216618
 30
0.0
  0
SPLINE
  5
20B
330
1F
100
AcDbEntity
  8
0
  6
Continuous
 62
     7
370
    25
100
AcDbSpline
210
0.0
220
0.0
230
1.0
 70
     8
 71
     3
 72
    14
 73
    10
 74
     0
 42
0.00000001
 43
0.00000001
 40
0.0
 40
0.0
 40
0.0
 40
0.0
 40
0.25
 40
0.25
 40
0.5
 40
0.5
 40
0.75
 40
0.75
 40
1.0
 40
1.0
 40
1.0
 40
1.0
 10
110.9998528251465
 20
263.1004948527012
 30
0.0
 10
111.1555681468506
 20
263.1623464099127
 30
0.0
 10
111.3134676775895
 20
263.2045565496226
 30
0.0
 10
111.6292876156123
 20
263.2597086974043
 30
0.0
 10
111.7872665813322
 20
263.2727829412162
 30
0.0
 10
112.1021237501718
 20
263.2729467069782
 30
0.0
 10
112.2551945354714
 20
263.2600367167037
 30
0.0
 10
112.5529833247814
 20
263.2049602299947
 30
0.0
 10
112.6984401800234
 20
263.1622666877308
 30
0.0
 10
112.8386580329436
 20
263.1004948527025
 30
0.0
  0
SPLINE
  5
20C
330
1F
100
AcDbEntity
  8
0
  6
Continuous
 62
     7
370
    25
100
AcDbSpline
210
0.0
220
0.0
230
1.0
 70
     8
 71
     3
 72
     8
 73
     4
 74
     0
 42
0.00000001
 43
0.00000001
 40
0.0
 40
0.0
 40
0.0
 40
0.0
 40
0.0002560048126397
 40
0.0002560048126397
 40
0.0002560048126397
 40
0.0002560048126397
 10
110.782757404571
 20
263.0095324216543
 30
0.0
 10
110.854603435361
 20
263.0412426654652
 30
0.0
 10
110.9270222223058
 20
263.0715658677585
 30
0.0
 10
110.9998528251435
 20
263.1004948527091
 30
0.0
  0
SPLINE
  5
20D
330
1F
100
AcDbEntity
  8
0
  6
Continuous
 62
     7
370
    25
100
AcDbSpline
210
0.0
220
0.0
230
1.0
 70
     8
 71
     3
 72
     8
 73
     4
 74
     0
 42
0.00000001
 43
0.00000001
 40
0.0000000000000011
 40
0.0000000000000011
 40
0.0000000000000011
 40
0.0000000000000011
 40
0.0000988236428765
 40
0.0000988236428765
 40
0.0000988236428765
 40
0.0000988236428765
 10
110.6994141238551
 20
262.9732875146531
 30
0.0
 10
110.7272405146504
 20
262.9852158908986
 30
0.0
 10
110.7550232131092
 20
262.997291550955
 30
0.0
 10
110.782757404571
 20
263.0095324216543
 30
0.0
  0
LINE
  5
20E
330
1F
100
AcDbEntity
  8
0
  6
Continuous
 62
     7
370
    25
100
AcDbLine
 10
110.6994141239
 20
262.9732875146
 30
0.0
 11
97.170297999
 21
262.9732875146
 31
0.0
  0
SPLINE
  5
20F
330
1F
100
AcDbEntity
  8
0
  6
Continuous
 62
     7
370
    25
100
AcDbSpline
210
0.0
220
0.0
230
1.0
 70
     8
 71
     3
 72
     8
 73
     4
 74
     0
 42
0.00000001
 43
0.00000001
 40
0.0
 40
0.0
 40
0.0
 40
0.0
 40
0.0000988236428927
 40
0.0000988236428927
 40
0.0000988236428927
 40
0.0000988236428927
 10
97.0869547183164
 20
263.0095324216543
 30
0.0
 10
97.11468890978273
 20
262.997291550953
 30
0.0
 10
97.142471608247
 20
262.9852158908973
 30
0.0
 10
97.17029799904692
 20
262.9732875146499
 30
0.0
  0
SPLINE
  5
210
330
1F
100
AcDbEntity
  8
0
  6
Continuous
 62
     7
370
    25
100
AcDbSpline
210
0.0
220
0.0
230
1.0
 70
     8
 71
     3
 72
     8
 73
     4
 74
     0
 42
0.00000001
 43
0.00000001
 40
0.0
 40
0.0
 40
0.0
 40
0.0
 40
0.0002560048126397
 40
0.0002560048126397
 40
0.0002560048126397
 40
0.0002560048126397
 10
96.86985929774086
 20
263.1004948527012
 30
0.0
 10
96.9426899005785
 20
263.0715658677505
 30
0.0
 10
97.01510868752905
 20
263.0412426654729
 30
0.0
 10
97.08695471831915
 20
263.009532421662
 30
0.0
  0
SPLINE
  5
211
330
1F
100
AcDbEntity
  8
0
  6
Continuous
 62
     7
370
    25
100
AcDbSpline
210
0.0
220
0.0
230
1.0
 70
     8
 71
     3
 72
    14
 73
    10
 74
     0
 42
0.00000001
 43
0.00000001
 40
0.0
 40
0.0
 40
0.0
 40
0.0
 40
0.25
 40
0.25
 40
0.5
 40
0.5
 40
0.75
 40
0.75
 40
1.0
 40
1.0
 40
1.0
 40
1.0
 10
95.03105408994415
 20
263.1004948527012
 30
0.0
 10
95.17145290678359
 20
263.1623464099127
 30
0.0
 10
95.31530216928435
 20
263.2045565496226
 30
0.0
 10
95.61199803173615
 20
263.2597086974043
 30
0.0
 10
95.76473404909598
 20
263.2727829412162
 30
0.0
 10
96.07952860814441
 20
263.2729467069782
 30
0.0
 10
96.23778276035233
 20
263.2600367167037
 30
0.0
 10
96.55468617844478
 20
263.2049602299947
 30
0.0
 10
96.71434468182315
 20
263.1622666877309
 30
0.0
 10
96.86985929774123
 20
263.1004948527025
 30
0.0
  0
SPLINE
  5
212
330
1F
100
AcDbEntity
  8
0
  6
Continuous
 62
     7
370
    25
100
AcDbSpline
210
0.0
220
0.0
230
1.0
 70
     8
 71
     3
 72
     8
 73
     4
 74
     0
 42
0.00000001
 43
0.00000001
 40
0.0
 40
0.0
 40
0.0
 40
0.0
 40
0.0002560048126397
 40
0.0002560048126397
 40
0.0002560048126397
 40
0.0002560048126397
 10
94.83532605533685
 20
263.0095324216543
 30
0.0
 10
94.90016264708342
 20
263.0412426654652
 30
0.0
 10
94.96538726694578
 20
263.0715658677585
 30
0.0
 10
95.03105408994175
 20
263.1004948527091
 30
0.0
  0
SPLINE
  5
213
330
1F
100
AcDbEntity
  8
0
  6
Continuous
 62
     7
370
    25
100
AcDbSpline
210
0.0
220
0.0
230
1.0
 70
     8
 71
     3
 72
     8
 73
     4
 74
     0
 42
0.00000001
 43
0.00000001
 40
0.0000000000000011
 40
0.0000000000000011
 40
0.0000000000000011
 40
0.0000000000000011
 40
0.0000988236428765
 40
0.0000988236428765
 40
0.0000988236428765
 40
0.0000988236428765
 10
94.76004284702186
 20
262.9732875146531
 30
0.0
 10
94.78519868716482
 20
262.9852158908986
 30
0.0
 10
94.81029766574514
 20
262.997291550955
 30
0.0
 10
94.83532605533684
 20
263.0095324216543
 30
0.0
  0
LINE
  5
214
330
1F
100
AcDbEntity
  8
0
  6
Continuous
 62
     7
370
    25
100
AcDbLine
 10
94.760042847
 20
262.9732875146
 30
0.0
 11
87.9954847846
 21
262.9732875146
 31
0.0
  0
LINE
  5
215
330
1F
100
AcDbEntity
  8
0
  6
Continuous
 62
     7
370
    25
100
AcDbLine
 10
132.9348560614
 20
215.2186148244
 30
0.0
 11
132.9348560614
 21
189.334838061
 31
0.0
  0
LINE
  5
216
330
1F
100
AcDbEntity
  8
0
  6
Continuous
 62
     7
370
    25
100
AcDbLine
 10
132.9348560614
 20
220.1199112542
 30
0.0
 11
132.9348560614
 21
216.5314613195
 31
0.0
  0
ELLIPSE
  5
217
330
1F
100
AcDbEntity
  8
0
  6
Continuous
 62
     7
370
    25
100
AcDbEllipse
 10
141.1756124502
 20
204.8194079442
 30
0.0
 11
-5.596045292391636
 21
15.00796136777754
 31
0.0
210
0.0
220
0.0
230
1.0
 40
0.4514218124
 41
0.5258794326610009
 42
0.6494913437152741
  0
SPLINE
  5
218
330
1F
100
AcDbEntity
  8
0
  6
Continuous
 62
     7
370
    25
100
AcDbSpline
210
0.0
220
0.0
230
1.0
 70
     8
 71
     3
 72
     8
 73
     4
 74
     0
 42
0.00000001
 43
0.00000001
 40
0.0000002008695006
 40
0.0000002008695006
 40
0.0000002008695006
 40
0.0000002008695006
 40
0.0003147847660132
 40
0.0003147847660132
 40
0.0003147847660132
 40
0.0003147847660132
 10
132.9348560614437
 20
215.2186148244012
 30
0.0
 10
132.8304486788347
 20
215.2270553802931
 30
0.0
 10
132.7260376643106
 20
215.2354623060396
 30
0.0
 10
132.6216231492399
 20
215.2438364281332
 30
0.0
  0
SPLINE
  5
219
330
1F
100
AcDbEntity
  8
0
  6
Continuous
 62
     7
370
    25
100
AcDbSpline
210
0.0
220
0.0
230
1.0
 70
     8
 71
     3
 72
     9
 73
     5
 74
     0
 42
0.00000001
 43
0.00000001
 40
0.0
 40
0.0
 40
0.0
 40
0.0
 40
0.5171870180571313
 40
1.0
 40
1.0
 40
1.0
 40
1.0
 10
127.2939533764924
 20
220.2249124129664
 30
0.0
 10
127.3040817076251
 20
220.230269433459
 30
0.0
 10
127.3236652060097
 20
220.2406274283536
 30
0.0
 10
127.3156463808202
 20
220.2363822002051
 30
0.0
 10
127.3117747879188
 20
220.2343325489438
 30
0.0
  0
SPLINE
  5
21A
330
1F
100
AcDbEntity
  8
0
  6
Continuous
 62
     7
370
    25
100
AcDbSpline
210
0.0
220
0.0
230
1.0
 70
     8
 71
     3
 72
    16
 73
    12
 74
     0
 42
0.00000001
 43
0.00000001
 40
0.0
 40
0.0
 40
0.0
 40
0.0
 40
0.25
 40
0.25
 40
0.5
 40
0.5
 40
0.75
 40
0.75
 40
0.875
 40
0.875
 40
1.0
 40
1.0
 40
1.0
 40
1.0
 10
111.2106721668713
 20
260.4773746575819
 30
0.0
 10
110.5783162661666
 20
260.4773746575819
 30
0.0
 10
109.9572305817446
 20
260.5453698263647
 30
0.0
 10
108.7273055442582
 20
260.7552444041915
 30
0.0
 10
108.1186994788286
 20
260.8985312779827
 30
0.0
 10
106.9088893281538
 20
261.2297624553191
 30
0.0
 10
106.3095921815259
 20
261.4174778322384
 30
0.0
 10
105.4165461760988
 20
261.7136702832613
 30
0.0
 10
105.1196939137447
 20
261.8149303750687
 30
0.0
 10
104.5268034002923
 20
262.019931889592
 30
0.0
 10
104.2292263112566
 20
262.1242163359139
 30
0.0
 10
103.9348560614437
 20
262.2273746575819
 30
0.0
  0
SPLINE
  5
21B
330
1F
100
AcDbEntity
  8
0
  6
Continuous
 62
     7
370
    25
100
AcDbSpline
210
0.0
220
0.0
230
1.0
 70
     8
 71
     3
 72
    14
 73
    10
 74
     0
 42
0.00000001
 43
0.00000001
 40
0.0
 40
0.0
 40
0.0
 40
0.0
 40
0.25
 40
0.25
 40
0.5
 40
0.5
 40
0.75
 40
0.75
 40
1.0
 40
1.0
 40
1.0
 40
1.0
 10
111.109123965274
 20
262.0660110473468
 30
0.0
 10
110.5238200953671
 20
262.0039574151597
 30
0.0
 10
109.9359464299821
 20
261.9854329518864
 30
0.0
 10
108.751872696681
 20
261.9804902356847
 30
0.0
 10
108.1552138435403
 20
261.9959518394817
 30
0.0
 10
106.9553177541737
 20
262.0436162451086
 30
0.0
 10
106.3537552471191
 20
262.0760549854305
 30
0.0
 10
105.1465970480936
 20
262.148031194701
 30
0.0
 10
104.5388261843292
 20
262.1878467385336
 30
0.0
 10
103.9348560614437
 20
262.2273746575819
 30
0.0
  0
SPLINE
  5
21C
330
1F
100
AcDbEntity
  8
0
  6
Continuous
 62
     7
370
    25
100
AcDbSpline
210
0.0
220
0.0
230
1.0
 70
     8
 71
     3
 72
     8
 73
     4
 74
     0
 42
0.00000001
 43
0.00000001
 40
0.0
 40
0.0
 40
0.0
 40
0.0
 40
0.0001055072942668
 40
0.0001055072942668
 40
0.0001055072942668
 40
0.0001055072942668
 10
111.2106721668713
 20
262.0772153097629
 30
0.0
 10
111.1768339000414
 20
262.0733314867486
 30
0.0
 10
111.1429840614434
 20
262.0696008783069
 30
0.0
 10
111.109123965274
 20
262.0660110473464
 30
0.0
  0
LINE
  5
21D
330
1F
100
AcDbEntity
  8
0
  6
Continuous
 62
     7
370
    25
100
AcDbLine
 10
111.2106721669
 20
262.0772153098
 30
0.0
 11
111.2106721669
 21
260.4773746576
 31
0.0
  0
ARC
  5
21E
330
1F
100
AcDbEntity
  8
0
  6
Continuous
 62
     7
370
    25
100
AcDbCircle
 10
112.2889340288
 20
263.1449392467
 30
0.0
 40
1.598761347182743
100
AcDbArc
 50
186.1634674732
 51
222.4427022402
  0
SPLINE
  5
21F
330
1F
100
AcDbEntity
  8
0
  6
Continuous
 62
     7
370
    25
100
AcDbSpline
210
0.0
220
0.0
230
1.0
 70
     8
 71
     3
 72
    12
 73
     8
 74
     0
 42
0.00000001
 43
0.00000001
 40
0.0
 40
0.0
 40
0.0
 40
0.0
 40
0.2499999999999999
 40
0.2499999999999999
 40
0.4999999999999998
 40
0.4999999999999998
 40
1.0
 40
1.0
 40
1.0
 40
1.0
 10
110.6994141238546
 20
262.973287514653
 30
0.0
 10
110.1772559989256
 20
262.8613704029503
 30
0.0
 10
109.6386289613377
 20
262.7819902574051
 30
0.0
 10
108.5355827600293
 20
262.6402424202896
 30
0.0
 10
107.9757277406
 20
262.5805676233483
 30
0.0
 10
106.273265055554
 20
262.4146293030462
 30
0.0
 10
105.1026351557247
 20
262.3213543284097
 30
0.0
 10
103.9348560614437
 20
262.2273746575819
 30
0.0
  0
ARC
  5
220
330
1F
100
AcDbEntity
  8
0
  6
Continuous
 62
     7
370
    25
100
AcDbCircle
 10
95.5807780941
 20
263.1449392467
 30
0.0
 40
1.598761347195129
100
AcDbArc
 50
317.5572977601
 51
353.8365325269
  0
SPLINE
  5
221
330
1F
100
AcDbEntity
  8
0
  6
Continuous
 62
     7
370
    25
100
AcDbSpline
210
0.0
220
0.0
230
1.0
 70
     8
 71
     3
 72
    18
 73
    14
 74
     0
 42
0.00000001
 43
0.00000001
 40
0.0
 40
0.0
 40
0.0
 40
0.0
 40
0.2500000000000001
 40
0.2500000000000001
 40
0.5000000000000001
 40
0.5000000000000001
 40
0.7500000000000002
 40
0.7500000000000002
 40
0.8750000000000003
 40
0.8750000000000003
 40
0.9375000000000002
 40
0.9375000000000002
 40
1.0
 40
1.0
 40
1.0
 40
1.0
 10
97.17029799904692
 20
262.9732875146499
 30
0.0
 10
97.69472300055507
 20
262.8608845304369
 30
0.0
 10
98.23202479602831
 20
262.7819195042081
 30
0.0
 10
99.3267381321307
 20
262.6411422791285
 30
0.0
 10
99.88438256160232
 20
262.5815685638185
 30
0.0
 10
101.0189983653413
 20
262.47084904076
 30
0.0
 10
101.5983609728499
 20
262.4198164742845
 30
0.0
 10
102.4717980437765
 20
262.3461988405194
 30
0.0
 10
102.7635994847314
 20
262.322175260336
 30
0.0
 10
103.2022482492016
 20
262.2864676018315
 30
0.0
 10
103.3486224129586
 20
262.2746204184255
 30
0.0
 10
103.641681843073
 20
262.2509684057293
 30
0.0
 10
103.7897957828144
 20
262.2390487104234
 30
0.0
 10
103.9348560614437
 20
262.2273746575819
 30
0.0
  0
SPLINE
  5
222
330
1F
100
AcDbEntity
  8
0
  6
Continuous
 62
     7
370
    25
100
AcDbSpline
210
0.0
220
0.0
230
1.0
 70
     8
 71
     3
 72
    14
 73
    10
 74
     0
 42
0.00000001
 43
0.00000001
 40
0.0
 40
0.0
 40
0.0
 40
0.0
 40
0.2500000000000001
 40
0.2500000000000001
 40
0.5000000000000002
 40
0.5000000000000002
 40
0.7500000000000001
 40
0.7500000000000001
 40
1.0
 40
1.0
 40
1.0
 40
1.0
 10
96.76058815763109
 20
262.0660110473449
 30
0.0
 10
97.34589202755659
 20
262.0039574151568
 30
0.0
 10
97.93376569296032
 20
261.9854329518847
 30
0.0
 10
99.11783942629955
 20
261.9804902356859
 30
0.0
 10
99.71449827945983
 20
261.9959518394849
 30
0.0
 10
100.9143943688648
 20
262.0436162451159
 30
0.0
 10
101.5159568759388
 20
262.0760549854398
 30
0.0
 10
102.7231150750034
 20
262.1480311947142
 30
0.0
 10
103.3308859385377
 20
262.1878467385457
 30
0.0
 10
103.9348560614437
 20
262.2273746575819
 30
0.0
  0
LINE
  5
223
330
1F
100
AcDbEntity
  8
0
  6
Continuous
 62
     7
370
    25
100
AcDbLine
 10
96.659039956
 20
260.4773746576
 30
0.0
 11
96.659039956
 21
262.0772153098
 31
0.0
  0
SPLINE
  5
224
330
1F
100
AcDbEntity
  8
0
  6
Continuous
 62
     7
370
    25
100
AcDbSpline
210
0.0
220
0.0
230
1.0
 70
     8
 71
     3
 72
     8
 73
     4
 74
     0
 42
0.00000001
 43
0.00000001
 40
0.0
 40
0.0
 40
0.0
 40
0.0
 40
0.0001055072942852
 40
0.0001055072942852
 40
0.0001055072942852
 40
0.0001055072942852
 10
96.76058815763109
 20
262.0660110473449
 30
0.0
 10
96.72672806145583
 20
262.0696008783061
 30
0.0
 10
96.69287822285189
 20
262.0733314867479
 30
0.0
 10
96.65903995601607
 20
262.0772153097629
 30
0.0
  0
SPLINE
  5
225
330
1F
100
AcDbEntity
  8
0
  6
Continuous
 62
     7
370
    25
100
AcDbSpline
210
0.0
220
0.0
230
1.0
 70
     8
 71
     3
 72
    16
 73
    12
 74
     0
 42
0.00000001
 43
0.00000001
 40
0.0
 40
0.0
 40
0.0
 40
0.0
 40
0.2499999999999999
 40
0.2499999999999999
 40
0.4999999999999999
 40
0.4999999999999999
 40
0.75
 40
0.75
 40
0.875
 40
0.875
 40
1.0
 40
1.0
 40
1.0
 40
1.0
 10
96.65903995601607
 20
260.4773746575819
 30
0.0
 10
97.29139585672078
 20
260.4773746575819
 30
0.0
 10
97.91248154114278
 20
260.5453698263647
 30
0.0
 10
99.14240657862925
 20
260.7552444041915
 30
0.0
 10
99.75101264405878
 20
260.8985312779827
 30
0.0
 10
100.9608227947336
 20
261.2297624553191
 30
0.0
 10
101.5601199413615
 20
261.4174778322384
 30
0.0
 10
102.4531659467886
 20
261.7136702832613
 30
0.0
 10
102.7500182091427
 20
261.8149303750687
 30
0.0
 10
103.3429087225951
 20
262.019931889592
 30
0.0
 10
103.6404858116307
 20
262.1242163359141
 30
0.0
 10
103.9348560614437
 20
262.2273746575819
 30
0.0
  0
ARC
  5
226
330
1F
100
AcDbEntity
  8
0
  6
Continuous
 62
     7
370
    25
100
AcDbCircle
 10
127.8782589051
 20
230.2188857621
 30
0.0
 40
15.40957518232612
100
AcDbArc
 50
201.2821805457
 51
241.0914009813
  0
LINE
  5
227
330
1F
100
AcDbEntity
  8
0
  6
Continuous
 62
     7
370
    25
100
AcDbLine
 10
114.0384857723
 20
260.4773746576
 30
0.0
 11
111.4404095609
 21
260.4773746576
 31
0.0
  0
LINE
  5
228
330
1F
100
AcDbEntity
  8
0
  6
Continuous
 62
     7
370
    25
100
AcDbLine
 10
111.4404095609
 20
260.4773746576
 30
0.0
 11
111.4404095609
 21
262.1061579015
 31
0.0
  0
SPLINE
  5
229
330
1F
100
AcDbEntity
  8
0
  6
Continuous
 62
     7
370
    25
100
AcDbSpline
210
0.0
220
0.0
230
1.0
 70
     8
 71
     3
 72
    10
 73
     6
 74
     0
 42
0.00000001
 43
0.00000001
 40
0.0
 40
0.0
 40
0.0
 40
0.0
 40
0.5
 40
0.5
 40
1.0
 40
1.0
 40
1.0
 40
1.0
 10
113.0771739909187
 20
262.1061579014597
 30
0.0
 10
112.835155171747
 20
262.1485819271459
 30
0.0
 10
112.5803231410418
 20
262.1610030117595
 30
0.0
 10
112.0278800661926
 20
262.1610030117595
 30
0.0
 10
111.7374331203528
 20
262.1485819271462
 30
0.0
 10
111.4404095609086
 20
262.1061579014601
 30
0.0
  0
ARC
  5
22A
330
1F
100
AcDbEntity
  8
0
  6
Continuous
 62
     7
370
    25
100
AcDbCircle
 10
112.276387823
 20
260.5354560997
 30
0.0
 40
1.76305491595417
100
AcDbArc
 50
358.1121270215
 51
62.9862857032
  0
LINE
  5
22B
330
1F
100
AcDbEntity
  8
0
  6
Continuous
 62
     7
370
    25
100
AcDbLine
 10
111.4404095609
 20
260.4773746576
 30
0.0
 11
111.2106721669
 21
260.4773746576
 31
0.0
  0
SPLINE
  5
22C
330
1F
100
AcDbEntity
  8
0
  6
Continuous
 62
     7
370
    25
100
AcDbSpline
210
0.0
220
0.0
230
1.0
 70
     8
 71
     3
 72
     8
 73
     4
 74
     0
 42
0.00000001
 43
0.00000001
 40
0.0
 40
0.0
 40
0.0
 40
0.0
 40
0.0002416894103822
 40
0.0002416894103822
 40
0.0002416894103822
 40
0.0002416894103822
 10
111.4404095609088
 20
262.1061579014597
 30
0.0
 10
111.3638420312092
 20
262.0969947406116
 30
0.0
 10
111.2872514748836
 20
262.0873555278978
 30
0.0
 10
111.2106721668713
 20
262.0772153097631
 30
0.0
  0
LINE
  5
22D
330
1F
100
AcDbEntity
  8
0
  6
Continuous
 62
     7
370
    25
100
AcDbLine
 10
114.0384857723
 20
260.4773746576
 30
0.0
 11
114.0384857723
 21
249.7273746576
 31
0.0
  0
LINE
  5
22E
330
1F
100
AcDbEntity
  8
0
  6
Continuous
 62
     7
370
    25
100
AcDbLine
 10
111.4404095609
 20
249.7273746576
 30
0.0
 11
114.0384857723
 21
249.7273746576
 31
0.0
  0
LINE
  5
22F
330
1F
100
AcDbEntity
  8
0
  6
Continuous
 62
     7
370
    25
100
AcDbLine
 10
111.4404095609
 20
249.7273746576
 30
0.0
 11
111.4404095609
 21
260.4773746576
 31
0.0
  0
LINE
  5
230
330
1F
100
AcDbEntity
  8
0
  6
Continuous
 62
     7
370
    25
100
AcDbLine
 10
112.5229413156
 20
247.9773746576
 30
0.0
 11
111.4404095609
 21
247.9773746576
 31
0.0
  0
LINE
  5
231
330
1F
100
AcDbEntity
  8
0
  6
Continuous
 62
     7
370
    25
100
AcDbLine
 10
111.4404095609
 20
247.9773746576
 30
0.0
 11
111.4404095609
 21
249.7273746576
 31
0.0
  0
ARC
  5
232
330
1F
100
AcDbEntity
  8
0
  6
Continuous
 62
     7
370
    25
100
AcDbCircle
 10
112.3966459443
 20
249.6179996576
 30
0.0
 40
1.645478930724496
100
AcDbArc
 50
274.4019496523
 51
3.8112610495
  0
LINE
  5
233
330
1F
100
AcDbEntity
  8
0
  6
Continuous
 62
     7
370
    25
100
AcDbLine
 10
96.659039956
 20
260.4773746576
 30
0.0
 11
96.429302562
 21
260.4773746576
 31
0.0
  0
LINE
  5
234
330
1F
100
AcDbEntity
  8
0
  6
Continuous
 62
     7
370
    25
100
AcDbLine
 10
96.429302562
 20
260.4773746576
 30
0.0
 11
96.429302562
 21
262.1061579015
 31
0.0
  0
SPLINE
  5
235
330
1F
100
AcDbEntity
  8
0
  6
Continuous
 62
     7
370
    25
100
AcDbSpline
210
0.0
220
0.0
230
1.0
 70
     8
 71
     3
 72
     8
 73
     4
 74
     0
 42
0.00000001
 43
0.00000001
 40
0.0
 40
0.0
 40
0.0
 40
0.0
 40
0.0002416894103822
 40
0.0002416894103822
 40
0.0002416894103822
 40
0.0002416894103822
 10
96.65903995601607
 20
262.0772153097629
 30
0.0
 10
96.58246064800372
 20
262.0873555278976
 30
0.0
 10
96.50587009167828
 20
262.0969947406119
 30
0.0
 10
96.4293025619786
 20
262.1061579014599
 30
0.0
  0
LINE
  5
236
330
1F
100
AcDbEntity
  8
0
  6
Continuous
 62
     7
370
    25
100
AcDbLine
 10
96.429302562
 20
249.7273746576
 30
0.0
 11
96.429302562
 21
247.9773746576
 31
0.0
  0
LINE
  5
237
330
1F
100
AcDbEntity
  8
0
  6
Continuous
 62
     7
370
    25
100
AcDbLine
 10
96.429302562
 20
249.7273746576
 30
0.0
 11
111.4404095609
 21
249.7273746576
 31
0.0
  0
LINE
  5
238
330
1F
100
AcDbEntity
  8
0
  6
Continuous
 62
     7
370
    25
100
AcDbLine
 10
111.4404095609
 20
247.9773746576
 30
0.0
 11
108.5448884474
 21
247.9773746576
 31
0.0
  0
SPLINE
  5
239
330
1F
100
AcDbEntity
  8
0
  6
Continuous
 62
     7
370
    25
100
AcDbSpline
210
0.0
220
0.0
230
1.0
 70
     8
 71
     3
 72
    14
 73
    10
 74
     0
 42
0.00000001
 43
0.00000001
 40
0.0
 40
0.0
 40
0.0
 40
0.0
 40
0.25
 40
0.25
 40
0.5
 40
0.5
 40
0.75
 40
0.75
 40
1.0
 40
1.0
 40
1.0
 40
1.0
 10
99.3248236755189
 20
247.9773746575817
 30
0.0
 10
100.0844019086208
 20
247.9773746575817
 30
0.0
 10
100.848804777215
 20
247.9968292893139
 30
0.0
 10
102.3873762914912
 20
248.0281587753103
 30
0.0
 10
103.1626842725545
 20
248.0400840913589
 30
0.0
 10
104.7128151667421
 20
248.0400313337273
 30
0.0
 10
105.485871850003
 20
248.0280914543147
 30
0.0
 10
107.0216049726528
 20
247.9968103888742
 30
0.0
 10
107.7853065061978
 20
247.9773746575752
 30
0.0
 10
108.5448884473685
 20
247.9773746575752
 30
0.0
  0
LINE
  5
23A
330
1F
100
AcDbEntity
  8
0
  6
Continuous
 62
     7
370
    25
100
AcDbLine
 10
99.3248236755
 20
247.9773746576
 30
0.0
 11
96.429302562
 21
247.9773746576
 31
0.0
  0
LINE
  5
23B
330
1F
100
AcDbEntity
  8
0
  6
Continuous
 62
     7
370
    25
100
AcDbLine
 10
93.8312263506
 20
249.7273746576
 30
0.0
 11
96.429302562
 21
249.7273746576
 31
0.0
  0
LINE
  5
23C
330
1F
100
AcDbEntity
  8
0
  6
Continuous
 62
     7
370
    25
100
AcDbLine
 10
96.429302562
 20
247.9773746576
 30
0.0
 11
95.3467708072
 21
247.9773746576
 31
0.0
  0
ARC
  5
23D
330
1F
100
AcDbEntity
  8
0
  6
Continuous
 62
     7
370
    25
100
AcDbCircle
 10
95.4730661786
 20
249.6179996576
 30
0.0
 40
1.645478930724526
100
AcDbArc
 50
176.1887389505
 51
265.5980503477
  0
LINE
  5
23E
330
1F
100
AcDbEntity
  8
0
  6
Continuous
 62
     7
370
    25
100
AcDbLine
 10
96.429302562
 20
260.4773746576
 30
0.0
 11
96.429302562
 21
249.7273746576
 31
0.0
  0
LINE
  5
23F
330
1F
100
AcDbEntity
  8
0
  6
Continuous
 62
     7
370
    25
100
AcDbLine
 10
96.429302562
 20
260.4773746576
 30
0.0
 11
93.8312263506
 21
260.4773746576
 31
0.0
  0
ARC
  5
240
330
1F
100
AcDbEntity
  8
0
  6
Continuous
 62
     7
370
    25
100
AcDbCircle
 10
95.5933242999
 20
260.5354560997
 30
0.0
 40
1.763054915954396
100
AcDbArc
 50
117.0137142968
 51
181.8878729785
  0
SPLINE
  5
241
330
1F
100
AcDbEntity
  8
0
  6
Continuous
 62
     7
370
    25
100
AcDbSpline
210
0.0
220
0.0
230
1.0
 70
     8
 71
     3
 72
    10
 73
     6
 74
     0
 42
0.00000001
 43
0.00000001
 40
0.0
 40
0.0
 40
0.0
 40
0.0
 40
0.5
 40
0.5
 40
1.0
 40
1.0
 40
1.0
 40
1.0
 10
96.42930256197857
 20
262.1061579014597
 30
0.0
 10
96.1322790025344
 20
262.1485819271459
 30
0.0
 10
95.84183205669477
 20
262.1610030117595
 30
0.0
 10
95.2893889818456
 20
262.1610030117595
 30
0.0
 10
95.03455695114054
 20
262.1485819271462
 30
0.0
 10
94.7925381319689
 20
262.1061579014601
 30
0.0
  0
LINE
  5
242
330
1F
100
AcDbEntity
  8
0
  6
Continuous
 62
     7
370
    25
100
AcDbLine
 10
93.8312263506
 20
249.7273746576
 30
0.0
 11
93.8312263506
 21
260.4773746576
 31
0.0
  0
SPLINE
  5
243
330
1F
100
AcDbEntity
  8
0
  6
Continuous
 62
     7
370
    25
100
AcDbSpline
210
0.0
220
0.0
230
1.0
 70
     8
 71
     3
 72
    26
 73
    22
 74
     0
 42
0.00000001
 43
0.00000001
 40
0.0
 40
0.0
 40
0.0
 40
0.0
 40
0.0164500299912593
 40
0.0742462163199685
 40
0.1327423880177306
 40
0.1909816806447822
 40
0.2480461079420347
 40
0.3053606751456352
 40
0.3637113340690808
 40
0.4221552404295451
 40
0.4797405771634524
 40
0.5366131946726088
 40
0.5946927023357595
 40
0.6532143755230008
 40
0.7112188823310853
 40
0.7680468008763588
 40
0.8257330002977563
 40
0.8842045812241769
 40
0.9425070556221264
 40
0.999702199573512
 40
1.0
 40
1.0
 40
1.0
 40
1.0
 10
136.9596707345288
 20
190.5904778135329
 30
0.0
 10
136.955755223942
 20
190.5840744125093
 30
0.0
 10
136.9380828035158
 20
190.5551730489353
 30
0.0
 10
136.9049102895453
 20
190.9623671856532
 30
0.0
 10
136.8604921713152
 20
191.8207591015543
 30
0.0
 10
136.8163290290432
 20
193.1315644958869
 30
0.0
 10
136.7752739917923
 20
194.7958054191866
 30
0.0
 10
136.733464235595
 20
196.7797441985435
 30
0.0
 10
136.6891612398215
 20
199.0372654248678
 30
0.0
 10
136.6447598600807
 20
201.4852347436427
 30
0.0
 10
136.6021644153124
 20
204.0167123521825
 30
0.0
 10
136.5616900618255
 20
206.5650263633117
 30
0.0
 10
136.5178336998371
 20
209.0688657143243
 30
0.0
 10
136.4733756693012
 20
211.4469374895562
 30
0.0
 10
136.4296854892175
 20
213.5887292963576
 30
0.0
 10
136.3893489127024
 20
215.4378535683803
 30
0.0
 10
136.3464665952395
 20
216.9465516951894
 30
0.0
 10
136.3020639247789
 20
218.0845215728498
 30
0.0
 10
136.2577398144437
 20
218.7258259912659
 30
0.0
 10
136.2301350088013
 20
218.9892723902198
 30
0.0
 10
136.2162103135873
 20
218.9147002742819
 30
0.0
 10
136.2161381868208
 20
218.9143140076161
 30
0.0
  0
SPLINE
  5
244
330
1F
100
AcDbEntity
  8
0
  6
Continuous
 62
     7
370
    25
100
AcDbSpline
210
0.0
220
0.0
230
1.0
 70
     8
 71
     3
 72
    25
 73
    21
 74
     0
 42
0.00000001
 43
0.00000001
 40
0.0
 40
0.0
 40
0.0
 40
0.0
 40
0.0215049092506253
 40
0.0794355943098843
 40
0.1379821375230569
 40
0.1961855373167125
 40
0.2531797044599161
 40
0.3106572617872822
 40
0.3690895839235003
 40
0.4275286919152877
 40
0.4850259536933766
 40
0.5420061624387428
 40
0.6001979342915034
 40
0.6587463333151987
 40
0.7166921783326974
 40
0.7735258188750257
 40
0.8313538097776162
 40
0.8898836618392811
 40
0.9481579881033111
 40
1.0
 40
1.0
 40
1.0
 40
1.0
 10
135.4595478706966
 20
190.5971217586482
 30
0.0
 10
135.4544398835522
 20
190.5926414797156
 30
0.0
 10
135.4355718199945
 20
190.5760920669495
 30
0.0
 10
135.4009308508012
 20
191.0205277509727
 30
0.0
 10
135.3565002715632
 20
191.9224052247816
 30
0.0
 10
135.3124577608779
 20
193.266771510083
 30
0.0
 10
135.2717161107036
 20
194.9614728645069
 30
0.0
 10
135.229525341391
 20
196.9717521082218
 30
0.0
 10
135.1851691771442
 20
199.2509738252344
 30
0.0
 10
135.1408057323656
 20
201.7102088902631
 30
0.0
 10
135.0985581849862
 20
204.245717126739
 30
0.0
 10
135.0578574018937
 20
206.7925940995528
 30
0.0
 10
135.0138424446833
 20
209.2892486506329
 30
0.0
 10
134.9693892624054
 20
211.650190869257
 30
0.0
 10
134.9259202098445
 20
213.7677407917033
 30
0.0
 10
134.885665455176
 20
215.5869610546781
 30
0.0
 10
134.8424981584013
 20
217.0686366558069
 30
0.0
 10
134.7980543196314
 20
218.1482411380575
 30
0.0
 10
134.7552423492943
 20
218.8049989475397
 30
0.0
 10
134.7289549000623
 20
218.8673978148054
 30
0.0
 10
134.7165789504204
 20
218.8967747707881
 30
0.0
  0
SPLINE
  5
245
330
1F
100
AcDbEntity
  8
0
  6
Continuous
 62
     7
370
    25
100
AcDbSpline
210
0.0
220
0.0
230
1.0
 70
     8
 71
     3
 72
    19
 73
    15
 74
     0
 42
0.00000001
 43
0.00000001
 40
0.0
 40
0.0
 40
0.0
 40
0.0
 40
0.0405085019693283
 40
0.1278630930407118
 40
0.2160168571416339
 40
0.303524787173194
 40
0.38921052797386
 40
0.4759267774965965
 40
0.5639559566341936
 40
0.6518650954602514
 40
0.7382327756758378
 40
0.8241654387056871
 40
0.9118790647634547
 40
1.0
 40
1.0
 40
1.0
 40
1.0
 10
133.9596707966735
 20
190.5999656750641
 30
0.0
 10
133.9532829358617
 20
190.5993322136266
 30
0.0
 10
133.933119967556
 20
190.5973327237721
 30
0.0
 10
133.896948342126
 20
191.0826080638603
 30
0.0
 10
133.8525079763795
 20
192.0273366459493
 30
0.0
 10
133.8086199689553
 20
193.4049561718552
 30
0.0
 10
133.7681162912692
 20
195.1297781599276
 30
0.0
 10
133.7255732208633
 20
197.1660657611884
 30
0.0
 10
133.6811767880806
 20
199.4661972754049
 30
0.0
 10
133.6368653901892
 20
201.9354452252907
 30
0.0
 10
133.594990963962
 20
204.4753931869973
 30
0.0
 10
133.5540014075249
 20
207.0168879763208
 30
0.0
 10
133.5098116292712
 20
209.5190005687256
 30
0.0
 10
133.4802131869448
 20
211.0527660682141
 30
0.0
 10
133.4653796843606
 20
211.8214252513325
 30
0.0
  0
LINE
  5
246
330
1F
100
AcDbEntity
  8
0
  6
Continuous
 62
     7
370
    25
100
AcDbLine
 10
133.4653796844
 20
211.8214171766
 30
0.0
 11
133.9341298419
 21
212.2273661208
 31
0.0
  0
SPLINE
  5
247
330
1F
100
AcDbEntity
  8
0
  6
Continuous
 62
     7
370
    25
100
AcDbSpline
210
0.0
220
0.0
230
1.0
 70
     8
 71
     3
 72
    20
 73
    16
 74
     0
 42
0.00000001
 43
0.00000001
 40
0.0
 40
0.0
 40
0.0
 40
0.0
 40
0.0301300913983253
 40
0.1173732779173708
 40
0.2046214803347964
 40
0.2900758996214763
 40
0.3774520390278673
 40
0.4645422371435465
 40
0.5500454956368058
 40
0.6375284090081355
 40
0.6628523632347553
 40
0.7477699010572197
 40
0.8339655149681382
 40
0.9216104593488298
 40
1.0
 40
1.0
 40
1.0
 40
1.0
 10
137.4287451092378
 20
189.8538196205384
 30
0.0
 10
137.42152953984
 20
189.8337835929298
 30
0.0
 10
137.3934209283838
 20
189.7557322453328
 30
0.0
 10
137.3411903599997
 20
190.7407970277338
 30
0.0
 10
137.2749529386388
 20
192.7427863261701
 30
0.0
 10
137.2142174455453
 20
195.6815655875675
 30
0.0
 10
137.1475462630985
 20
199.2550354884128
 30
0.0
 10
137.0817789075617
 20
203.2336523684685
 30
0.0
 10
137.0209072576026
 20
207.3156086705293
 30
0.0
 10
136.9697530671523
 20
210.2941467957116
 30
0.0
 10
136.9197111202096
 20
213.0160898910472
 30
0.0
 10
136.8721033886842
 20
215.4770287083487
 30
0.0
 10
136.8094228477861
 20
217.9207802959346
 30
0.0
 10
136.7438513668239
 20
219.4691955225347
 30
0.0
 10
136.7038776571125
 20
219.6153878657159
 30
0.0
 10
136.6850049467728
 20
219.6844093742687
 30
0.0
  0
SPLINE
  5
248
330
1F
100
AcDbEntity
  8
0
  6
Continuous
 62
     7
370
    25
100
AcDbSpline
210
0.0
220
0.0
230
1.0
 70
     8
 71
     3
 72
    20
 73
    16
 74
     0
 42
0.00000001
 43
0.00000001
 40
0.0
 40
0.0
 40
0.0
 40
0.0
 40
0.030021476767391
 40
0.1172744335519343
 40
0.2045324067965824
 40
0.2899963960267467
 40
0.3773823205878785
 40
0.4644822718360577
 40
0.5499951057422486
 40
0.6374878162258143
 40
0.6628146064533428
 40
0.7477416540945454
 40
0.8339469209544935
 40
0.9216016805930901
 40
1.0
 40
1.0
 40
1.0
 40
1.0
 10
135.9286642073774
 20
189.8537537271632
 30
0.0
 10
135.9214753463654
 20
189.8338295923413
 30
0.0
 10
135.8933931301044
 20
189.7559989232053
 30
0.0
 10
135.8411900690628
 20
190.7408980836003
 30
0.0
 10
135.7749530147584
 20
192.7427598863256
 30
0.0
 10
135.714217424818
 20
195.6815727871023
 30
0.0
 10
135.6475462686882
 20
199.2550335468521
 30
0.0
 10
135.5817789060937
 20
203.2336528783559
 30
0.0
 10
135.5209072580166
 20
207.3156085267149
 30
0.0
 10
135.4697530671258
 20
210.2941468049246
 30
0.0
 10
135.4197111202235
 20
213.0160898861949
 30
0.0
 10
135.3721033886787
 20
215.4770287102257
 30
0.0
 10
135.3094228477876
 20
217.9207802954195
 30
0.0
 10
135.2438513668235
 20
219.4691955226485
 30
0.0
 10
135.2038776571123
 20
219.6153878657524
 30
0.0
 10
135.1850049467728
 20
219.6844093742687
 30
0.0
  0
SPLINE
  5
249
330
1F
100
AcDbEntity
  8
0
  6
Continuous
 62
     7
370
    25
100
AcDbSpline
210
0.0
220
0.0
230
1.0
 70
     8
 71
     3
 72
    17
 73
    13
 74
     0
 42
0.00000001
 43
0.00000001
 40
0.0
 40
0.0
 40
0.0
 40
0.0
 40
0.0455378147311934
 40
0.1769443538592604
 40
0.3083584479824283
 40
0.4370707284446962
 40
0.5686775225094549
 40
0.6998536290110301
 40
0.8286394715629744
 40
0.9604070896159594
 40
0.9985502766627924
 40
1.0
 40
1.0
 40
1.0
 40
1.0
 10
134.4288197355752
 20
189.8538804025926
 30
0.0
 10
134.4215795303693
 20
189.8337409895242
 30
0.0
 10
134.3934465723093
 20
189.7554861269768
 30
0.0
 10
134.3411906069404
 20
190.7407036852887
 30
0.0
 10
134.2749529436837
 20
192.7428117990635
 30
0.0
 10
134.2142171886528
 20
195.6815547952315
 30
0.0
 10
134.1475473128374
 20
199.2550531952584
 30
0.0
 10
134.081775019298
 20
203.2335931998995
 30
0.0
 10
134.0209216190649
 20
207.3158255412303
 30
0.0
 10
133.9697146069032
 20
210.2935663732453
 30
0.0
 10
133.9409827447212
 20
211.8606901158944
 30
0.0
 10
133.9343719027351
 20
212.214414253132
 30
0.0
 10
133.9341298419264
 20
212.2273661208202
 30
0.0
  0
SPLINE
  5
24A
330
1F
100
AcDbEntity
  8
0
  6
Continuous
 62
     7
370
    25
100
AcDbSpline
210
0.0
220
0.0
230
1.0
 70
     8
 71
     3
 72
    16
 73
    12
 74
     0
 42
0.00000001
 43
0.00000001
 40
0.0
 40
0.0
 40
0.0
 40
0.0
 40
0.25
 40
0.25
 40
0.375
 40
0.375
 40
0.5
 40
0.5
 40
0.75
 40
0.75
 40
1.0
 40
1.0
 40
1.0
 40
1.0
 10
108.2371662244873
 20
247.0004898670118
 30
0.0
 10
107.537417271712
 20
247.0004898670118
 30
0.0
 10
106.828801249445
 20
247.0305347772637
 30
0.0
 10
105.7516252584907
 20
247.0675437468713
 30
0.0
 10
105.3901882521179
 20
247.078881693969
 30
0.0
 10
104.662363019003
 20
247.0946449528234
 30
0.0
 10
104.2944546842951
 20
247.0990450917865
 30
0.0
 10
103.194941291024
 20
247.0988839620922
 30
0.0
 10
102.4708906372633
 20
247.0796788861096
 30
0.0
 10
101.039461761195
 20
247.030471197521
 30
0.0
 10
100.3320799417203
 20
247.0004898670118
 30
0.0
 10
99.63254589840007
 20
247.0004898670118
 30
0.0
  0
LWPOLYLINE
  5
24B
330
1F
100
AcDbEntity
  8
0
  6
Continuous
 62
     7
370
    25
100
AcDbPolyline
 90
        9
 70
   128
 43
0.0
 10
99.6325458984
 20
247.000489867
 10
99.6254374283
 20
247.1922626589
 10
99.6071130166
 20
247.376017949
 10
99.5782563495
 20
247.5448998015
 10
99.5399440735
 20
247.6926072105
 10
99.493605625
 20
247.8136291916
 10
99.4409698981
 20
247.9034503977
 10
99.3840007391
 20
247.9587195868
 10
99.3248236755
 20
247.9773746576
  0
LWPOLYLINE
  5
24C
330
1F
100
AcDbEntity
  8
0
  6
Continuous
 62
     7
370
    25
100
AcDbPolyline
 90
        9
 70
   128
 43
0.0
 10
108.5448884474
 20
247.9773746576
 10
108.4857113838
 20
247.9587195868
 10
108.4287422248
 20
247.9034503977
 10
108.3761064979
 20
247.8136291916
 10
108.3297680494
 20
247.6926072105
 10
108.2914557734
 20
247.5448998015
 10
108.2625991063
 20
247.376017949
 10
108.2442746946
 20
247.1922626589
 10
108.2371662245
 20
247.000489867
  0
SPLINE
  5
24D
330
1F
100
AcDbEntity
  8
0
  6
Continuous
 62
     7
370
    25
100
AcDbSpline
210
0.0
220
0.0
230
1.0
 70
     8
 71
     3
 72
    20
 73
    16
 74
     0
 42
0.00000001
 43
0.00000001
 40
0.0
 40
0.0
 40
0.0
 40
0.0
 40
0.0618604983634789
 40
0.1486736585079683
 40
0.2346251464162644
 40
0.3196413359554091
 40
0.4065076190857682
 40
0.492226838407726
 40
0.5774389464690521
 40
0.6643319671795412
 40
0.7497945655650844
 40
0.831875366163091
 40
0.9155956773229004
 40
0.9736782238205747
 40
1.0
 40
1.0
 40
1.0
 40
1.0
 10
137.6221540922229
 20
189.8325101547483
 30
0.0
 10
137.6072437354054
 20
189.8453849545028
 30
0.0
 10
137.5714086329353
 20
189.8763278604396
 30
0.0
 10
137.5101740207955
 20
191.1856728891169
 30
0.0
 10
137.4456325346479
 20
193.4709143395019
 30
0.0
 10
137.3840016221032
 20
196.6041596767895
 30
0.0
 10
137.31653208426
 20
200.315608529158
 30
0.0
 10
137.2527283347125
 20
204.3519026777653
 30
0.0
 10
137.1904940803277
 20
208.4138930911475
 30
0.0
 10
137.1229233178516
 20
212.208310580877
 30
0.0
 10
137.0607400555087
 20
215.4146147206963
 30
0.0
 10
136.9993589869518
 20
217.8537446048317
 30
0.0
 10
136.9410736961889
 20
219.190453032549
 30
0.0
 10
136.8988584308162
 20
219.7216777914705
 30
0.0
 10
136.8786390379708
 20
219.6805352488729
 30
0.0
 10
136.8723335512839
 20
219.667704806505
 30
0.0
  0
SPLINE
  5
24E
330
1F
100
AcDbEntity
  8
0
  6
Continuous
 62
     7
370
    25
100
AcDbSpline
210
0.0
220
0.0
230
1.0
 70
     8
 71
     3
 72
    20
 73
    16
 74
     0
 42
0.00000001
 43
0.00000001
 40
0.0
 40
0.0
 40
0.0
 40
0.0
 40
0.0618604983634799
 40
0.1486736585079692
 40
0.2346251464162652
 40
0.3196413359554098
 40
0.4065076190857688
 40
0.4922268384077265
 40
0.5774389464690527
 40
0.6643319671795417
 40
0.7497945655650846
 40
0.8318753661630912
 40
0.9155956773229005
 40
0.9736782238205747
 40
1.0
 40
1.0
 40
1.0
 40
1.0
 10
136.1221540922229
 20
189.8325101547483
 30
0.0
 10
136.1072437354054
 20
189.8453849545028
 30
0.0
 10
136.0714086329353
 20
189.8763278604396
 30
0.0
 10
136.0101740207956
 20
191.1856728891169
 30
0.0
 10
135.9456325346479
 20
193.4709143395019
 30
0.0
 10
135.8840016221032
 20
196.6041596767895
 30
0.0
 10
135.81653208426
 20
200.315608529158
 30
0.0
 10
135.7527283347126
 20
204.3519026777653
 30
0.0
 10
135.6904940803277
 20
208.4138930911475
 30
0.0
 10
135.6229233178516
 20
212.208310580877
 30
0.0
 10
135.5607400555087
 20
215.4146147206963
 30
0.0
 10
135.4993589869518
 20
217.8537446048317
 30
0.0
 10
135.4410736961889
 20
219.190453032549
 30
0.0
 10
135.3988584308162
 20
219.7216777914705
 30
0.0
 10
135.3786390379708
 20
219.6805352488729
 30
0.0
 10
135.3723335512839
 20
219.667704806505
 30
0.0
  0
SPLINE
  5
24F
330
1F
100
AcDbEntity
  8
0
  6
Continuous
 62
     7
370
    25
100
AcDbSpline
210
0.0
220
0.0
230
1.0
 70
     8
 71
     3
 72
    20
 73
    16
 74
     0
 42
0.00000001
 43
0.00000001
 40
0.0
 40
0.0
 40
0.0
 40
0.0
 40
0.0618604983634794
 40
0.1486736585079687
 40
0.2346251464162648
 40
0.3196413359554094
 40
0.4065076190857684
 40
0.4922268384077261
 40
0.5774389464690524
 40
0.6643319671795413
 40
0.7497945655650845
 40
0.831875366163091
 40
0.9155956773229004
 40
0.9736782238205746
 40
0.9999999999999999
 40
0.9999999999999999
 40
0.9999999999999999
 40
0.9999999999999999
 10
134.6221540922229
 20
189.8325101547483
 30
0.0
 10
134.6072437354054
 20
189.8453849545028
 30
0.0
 10
134.5714086329353
 20
189.8763278604396
 30
0.0
 10
134.5101740207956
 20
191.1856728891169
 30
0.0
 10
134.4456325346479
 20
193.4709143395019
 30
0.0
 10
134.3840016221033
 20
196.6041596767895
 30
0.0
 10
134.31653208426
 20
200.315608529158
 30
0.0
 10
134.2527283347126
 20
204.3519026777653
 30
0.0
 10
134.1904940803276
 20
208.4138930911475
 30
0.0
 10
134.1229233178517
 20
212.208310580877
 30
0.0
 10
134.0607400555087
 20
215.4146147206963
 30
0.0
 10
133.9993589869518
 20
217.8537446048317
 30
0.0
 10
133.9410736961889
 20
219.190453032549
 30
0.0
 10
133.8988584308162
 20
219.7216777914705
 30
0.0
 10
133.8786390379708
 20
219.6805352488729
 30
0.0
 10
133.8723335512839
 20
219.667704806505
 30
0.0
  0
SPLINE
  5
250
330
1F
100
AcDbEntity
  8
0
  6
Continuous
 62
     7
370
    25
100
AcDbSpline
210
0.0
220
0.0
230
1.0
 70
     8
 71
     3
 72
    11
 73
     7
 74
     0
 42
0.00000001
 43
0.00000001
 40
0.0
 40
0.0
 40
0.0
 40
0.0
 40
0.247407500106263
 40
0.5946117337590727
 40
0.9383697589346256
 40
0.9999999999999999
 40
0.9999999999999999
 40
0.9999999999999999
 40
0.9999999999999999
 10
133.1221540922229
 20
189.8325101547483
 30
0.0
 10
133.1072348092727
 20
189.8452341184798
 30
0.0
 10
133.071378254004
 20
189.875814509662
 30
0.0
 10
133.0103538859319
 20
191.1887122951699
 30
0.0
 10
132.9626294324572
 20
192.8465706131744
 30
0.0
 10
132.9385211828982
 20
193.9526226042033
 30
0.0
 10
132.9348560614437
 20
194.1207731317704
 30
0.0
  0
SPLINE
  5
251
330
1F
100
AcDbEntity
  8
0
  6
Continuous
 62
     7
370
    25
100
AcDbSpline
210
0.0
220
0.0
230
1.0
 70
     8
 71
     3
 72
    15
 73
    11
 74
     0
 42
0.00000001
 43
0.00000001
 40
0.0
 40
0.0
 40
0.0
 40
0.0
 40
0.1122127882887461
 40
0.2415298502973197
 40
0.3698929181626201
 40
0.4955841432174999
 40
0.6228012610914639
 40
0.751937987387301
 40
0.8808919670727087
 40
1.0
 40
1.0
 40
1.0
 40
1.0
 10
137.6848560614437
 20
206.6231377448979
 30
0.0
 10
137.6722569183406
 20
207.3613514905415
 30
0.0
 10
137.64513818086
 20
208.9503027873751
 30
0.0
 10
137.6023226766791
 20
211.2404737277792
 30
0.0
 10
137.558498731478
 20
213.4082926128281
 30
0.0
 10
137.5179878540637
 20
215.2837586557
 30
0.0
 10
137.475432617353
 20
216.8299696799542
 30
0.0
 10
137.4310511936648
 20
217.9848431065915
 30
0.0
 10
137.3875518016764
 20
218.7270051018451
 30
0.0
 10
137.3604542992307
 20
218.8421472223626
 30
0.0
 10
137.3474433179056
 20
218.8974332024184
 30
0.0
  0
SPLINE
  5
252
330
1F
100
AcDbEntity
  8
0
  6
Continuous
 62
     7
370
    25
100
AcDbSpline
210
0.0
220
0.0
230
1.0
 70
     8
 71
     3
 72
    25
 73
    21
 74
     0
 42
0.00000001
 43
0.00000001
 40
0.0
 40
0.0
 40
0.0
 40
0.0
 40
0.0258785794220185
 40
0.0836402335256055
 40
0.1421014568793743
 40
0.2003059567832758
 40
0.2573362945289642
 40
0.3146166164637189
 40
0.3729324131708079
 40
0.4313414038077528
 40
0.4888923399003877
 40
0.5457309779355809
 40
0.6037757845532516
 40
0.6622624947529284
 40
0.7202323497880485
 40
0.7770263182172988
 40
0.8346780507385975
 40
0.8931146977646036
 40
0.9513823416056054
 40
1.0
 40
1.0
 40
1.0
 40
1.0
 10
136.5914394026348
 20
190.594273348218
 30
0.0
 10
136.5852845798692
 20
190.5816916243235
 30
0.0
 10
136.5653920345702
 20
190.5410271694657
 30
0.0
 10
136.5299284265175
 20
190.9571156602192
 30
0.0
 10
136.4854874334482
 20
191.8221645628246
 30
0.0
 10
136.4413303910696
 20
193.1311931025814
 30
0.0
 10
136.4002737436692
 20
194.795899467764
 30
0.0
 10
136.3584644276895
 20
196.7797124389132
 30
0.0
 10
136.3141613166829
 20
199.0372673927618
 30
0.0
 10
136.269759968086
 20
201.4852266031751
 30
0.0
 10
136.227164507722
 20
204.016708622712
 30
0.0
 10
136.1866901589792
 20
206.5650141041172
 30
0.0
 10
136.1428338123579
 20
209.0688838190853
 30
0.0
 10
136.0983757416124
 20
211.4468428421908
 30
0.0
 10
136.0546857071085
 20
213.5890515582508
 30
0.0
 10
136.0143485757881
 20
215.4366487695282
 30
0.0
 10
135.9714683583656
 20
216.9511348160392
 30
0.0
 10
135.9270577627927
 20
218.067172576112
 30
0.0
 10
135.8849395772478
 20
218.7542983852849
 30
0.0
 10
135.8592535496095
 20
218.8417484075835
 30
0.0
 10
135.847570048781
 20
218.8815257691269
 30
0.0
  0
SPLINE
  5
253
330
1F
100
AcDbEntity
  8
0
  6
Continuous
 62
     7
370
    25
100
AcDbSpline
210
0.0
220
0.0
230
1.0
 70
     8
 71
     3
 72
    25
 73
    21
 74
     0
 42
0.00000001
 43
0.00000001
 40
0.0
 40
0.0
 40
0.0
 40
0.0
 40
0.0306626751979711
 40
0.0885487939957711
 40
0.1470502997080694
 40
0.2052089285364712
 40
0.262159255450872
 40
0.3195925941576394
 40
0.3779799656972617
 40
0.436374120504271
 40
0.4938271561463403
 40
0.5507635299877383
 40
0.608910535309507
 40
0.6674138961237572
 40
0.7253151690969654
 40
0.7821050906216438
 40
0.8398885938497942
 40
0.8983734209770983
 40
0.9566029216061819
 40
1.0
 40
1.0
 40
1.0
 40
1.0
 10
135.0911240636435
 20
190.5943363784425
 30
0.0
 10
135.0838451830334
 20
190.5854267264166
 30
0.0
 10
135.0628249656028
 20
190.5596971076952
 30
0.0
 10
135.0259485604662
 20
191.0160664350247
 30
0.0
 10
134.9814956838909
 20
191.9235953893909
 30
0.0
 10
134.9374591052144
 20
193.2664559437196
 30
0.0
 10
134.8967158894449
 20
194.9615512823421
 30
0.0
 10
134.8545255511214
 20
196.9717233946179
 30
0.0
 10
134.810169274249
 20
199.2509734868997
 30
0.0
 10
134.765805859806
 20
201.7102003138457
 30
0.0
 10
134.7235582923714
 20
204.2457107578805
 30
0.0
 10
134.6828575252013
 20
206.792586077577
 30
0.0
 10
134.6388425528285
 20
209.2892452720835
 30
0.0
 10
134.594389444431
 20
211.6501718247792
 30
0.0
 10
134.5509201152169
 20
213.7677818243751
 30
0.0
 10
134.5106663512394
 20
215.586784914194
 30
0.0
 10
134.4674952999624
 20
217.0692891530883
 30
0.0
 10
134.4230657062811
 20
218.145762602167
 30
0.0
 10
134.3823404942449
 20
218.7804432619463
 30
0.0
 10
134.3580400121948
 20
218.8427085285174
 30
0.0
 10
134.3476631016005
 20
218.8692973469207
 30
0.0
  0
SPLINE
  5
254
330
1F
100
AcDbEntity
  8
0
  6
Continuous
 62
     7
370
    25
100
AcDbSpline
210
0.0
220
0.0
230
1.0
 70
     8
 71
     3
 72
    19
 73
    15
 74
     0
 42
0.00000001
 43
0.00000001
 40
0.0
 40
0.0
 40
0.0
 40
0.0
 40
0.0532475561386642
 40
0.1394423464909378
 40
0.2264257037311102
 40
0.3127718059995497
 40
0.3973199112399582
 40
0.4828848336205094
 40
0.5697452583404884
 40
0.6564872410560131
 40
0.7417082352434675
 40
0.8264999749873017
 40
0.9130490345028692
 40
1.0
 40
1.0
 40
1.0
 40
1.0
 10
133.591077996851
 20
190.5909538528585
 30
0.0
 10
133.5825790910985
 20
190.5876097910076
 30
0.0
 10
133.5603225323628
 20
190.5788525096391
 30
0.0
 10
133.5219648406095
 20
191.0788125035877
 30
0.0
 10
133.4775037476439
 20
192.0283456377844
 30
0.0
 10
133.4336212416466
 20
193.4046871659505
 30
0.0
 10
133.393116111887
 20
195.1298432575523
 30
0.0
 10
133.3505734442331
 20
197.1660394178163
 30
0.0
 10
133.3061769066712
 20
199.4661948821151
 30
0.0
 10
133.2618655358364
 20
201.9354358365917
 30
0.0
 10
133.219991088757
 20
204.475385389203
 30
0.0
 10
133.1790015468125
 20
207.016879763755
 30
0.0
 10
133.1348117730007
 20
209.5189927227769
 30
0.0
 10
133.105213330325
 20
211.0527586225472
 30
0.0
 10
133.0903798271731
 20
211.8214180266127
 30
0.0
  0
ELLIPSE
  5
255
330
1F
100
AcDbEntity
  8
0
  6
Continuous
 62
     7
370
    25
100
AcDbEllipse
 10
125.2738728557
 20
204.7273746576
 30
0.0
 11
5.514779443589616
 21
14.79197504224379
 31
0.0
210
0.0
220
0.0
230
1.0
 40
0.4514183623
 41
5.402723445751579
 42
5.733243257345098
  0
LINE
  5
256
330
1F
100
AcDbEntity
  8
0
  6
Continuous
 62
     7
370
    25
100
AcDbLine
 10
133.4653702819
 20
216.0372515379
 30
0.0
 11
133.0903704247
 21
216.0372515379
 31
0.0
  0
ELLIPSE
  5
257
330
1F
100
AcDbEntity
  8
0
  6
Continuous
 62
     7
370
    25
100
AcDbEllipse
 10
141.2818830355
 20
204.7273746576
 30
0.0
 11
-5.514823779167045
 21
14.79197426083275
 31
0.0
210
0.0
220
0.0
230
1.0
 40
0.4514155752
 41
0.5499417359511699
 42
0.6106875643056973
  0
ARC
  5
258
330
1F
100
AcDbEntity
  8
0
  6
Continuous
 62
     7
370
    25
100
AcDbCircle
 10
95.5074992599
 20
263.1701099598
 30
0.0
 40
1.587597143788854
100
AcDbArc
 50
316.4967713478
 51
354.1948906197
  0
ARC
  5
259
330
1F
100
AcDbEntity
  8
0
  6
Continuous
 62
     7
370
    25
100
AcDbCircle
 10
112.362212863
 20
263.1701099598
 30
0.0
 40
1.587597143788854
100
AcDbArc
 50
185.8051093803
 51
223.5032286522
  0
ARC
  5
25A
330
1F
100
AcDbEntity
  8
0
  6
Continuous
 62
     7
370
    25
100
AcDbCircle
 10
95.3357763233
 20
263.1854283177
 30
0.0
 40
1.536432317410641
100
AcDbArc
 50
315.3759149485
 51
356.8310931139
  0
ARC
  5
25B
330
1F
100
AcDbEntity
  8
0
  6
Continuous
 62
     7
370
    25
100
AcDbCircle
 10
112.5339357996
 20
263.1854283177
 30
0.0
 40
1.536432317410538
100
AcDbArc
 50
183.1689068861
 51
224.6240850515
  0
ARC
  5
25C
330
1F
100
AcDbEntity
  8
0
  6
Continuous
 62
     7
370
    25
100
AcDbCircle
 10
113.8117258634
 20
262.8081334844
 30
0.0
 40
1.016039454124206
100
AcDbArc
 50
163.2769349669
 51
223.7009200217
  0
ARC
  5
25D
330
1F
100
AcDbEntity
  8
0
  6
Continuous
 62
     7
370
    25
100
AcDbCircle
 10
94.0579862595
 20
262.8081334844
 30
0.0
 40
1.016039454124054
100
AcDbArc
 50
316.2990799783
 51
16.7230650331
  0
SPLINE
  5
25E
330
1F
100
AcDbEntity
  8
0
  6
Continuous
 62
     7
370
    25
100
AcDbSpline
210
0.0
220
0.0
230
1.0
 70
     8
 71
     3
 72
    12
 73
     8
 74
     0
 42
0.00000001
 43
0.00000001
 40
0.0
 40
0.0
 40
0.0
 40
0.0
 40
0.5000000000000004
 40
0.5000000000000004
 40
0.7500000000000002
 40
0.7500000000000002
 40
1.0
 40
1.0
 40
1.0
 40
1.0
 10
91.7171832868724
 20
219.9589042725482
 30
0.0
 10
91.55451443302424
 20
219.5961977530794
 30
0.0
 10
91.4006169617492
 20
219.2650567436747
 30
0.0
 10
91.18183525782933
 20
218.8774391519158
 30
0.0
 10
91.11065061436844
 20
218.7672384031331
 30
0.0
 10
90.9792783029189
 20
218.6146318168601
 30
0.0
 10
90.9177211220333
 20
218.5709602266064
 30
0.0
 10
90.86358566015515
 20
218.570960226606
 30
0.0
  0
SPLINE
  5
25F
330
1F
100
AcDbEntity
  8
0
  6
Continuous
 62
     7
370
    25
100
AcDbSpline
210
0.0
220
0.0
230
1.0
 70
     8
 71
     3
 72
    16
 73
    12
 74
     0
 42
0.00000001
 43
0.00000001
 40
0.0
 40
0.0
 40
0.0
 40
0.0
 40
0.2500000000000001
 40
0.2500000000000001
 40
0.3750000000000002
 40
0.3750000000000002
 40
0.5000000000000001
 40
0.5000000000000001
 40
0.7500000000000001
 40
0.7500000000000001
 40
1.0
 40
1.0
 40
1.0
 40
1.0
 10
94.56890853381134
 20
247.0004898670118
 30
0.0
 10
94.02298624488326
 20
247.0004898670118
 30
0.0
 10
93.52198448241316
 20
247.0305347772637
 30
0.0
 10
92.83565163337423
 20
247.0675437468713
 30
0.0
 10
92.61779266162071
 20
247.078881693969
 30
0.0
 10
92.20420193797216
 20
247.0946449528234
 30
0.0
 10
92.00773181865247
 20
247.0990450917865
 30
0.0
 10
91.45844872996216
 20
247.0988839620922
 30
0.0
 10
91.14671689704093
 20
247.0796788861096
 30
0.0
 10
90.62769151170191
 20
247.030471197521
 30
0.0
 10
90.4203777908079
 20
247.0004898670118
 30
0.0
 10
90.26659837076771
 20
247.0004898670118
 30
0.0
  0
LINE
  5
260
330
1F
100
AcDbEntity
  8
0
  6
Continuous
 62
     7
370
    25
100
AcDbLine
 10
99.6325458984
 20
247.000489867
 30
0.0
 11
94.5689085338
 21
247.000489867
 31
0.0
  0
LINE
  5
261
330
1F
100
AcDbEntity
  8
0
  6
Continuous
 62
     7
370
    25
100
AcDbLine
 10
113.3008035891
 20
247.000489867
 30
0.0
 11
108.2371662245
 21
247.000489867
 31
0.0
  0
SPLINE
  5
262
330
1F
100
AcDbEntity
  8
0
  6
Continuous
 62
     7
370
    25
100
AcDbSpline
210
0.0
220
0.0
230
1.0
 70
     8
 71
     3
 72
    16
 73
    12
 74
     0
 42
0.00000001
 43
0.00000001
 40
0.0
 40
0.0
 40
0.0
 40
0.0
 40
0.2499999999999998
 40
0.2499999999999998
 40
0.3749999999999998
 40
0.3749999999999998
 40
0.4999999999999999
 40
0.4999999999999999
 40
0.7499999999999999
 40
0.7499999999999999
 40
1.0
 40
1.0
 40
1.0
 40
1.0
 10
117.6031137521197
 20
247.0004898670118
 30
0.0
 10
117.4492870882725
 20
247.0004898670118
 30
0.0
 10
117.2416728284756
 20
247.0305347772637
 30
0.0
 10
116.8508296865601
 20
247.0675437468713
 30
0.0
 10
116.7072516519409
 20
247.078881693969
 30
0.0
 10
116.3930171424746
 20
247.0946449528234
 30
0.0
 10
116.2215789270863
 20
247.0990450917865
 30
0.0
 10
115.6713486225056
 20
247.0988839620922
 30
0.0
 10
115.2590298016661
 20
247.0796788861096
 30
0.0
 10
114.3466263109368
 20
247.030471197521
 30
0.0
 10
113.8465582123561
 20
247.0004898670118
 30
0.0
 10
113.3008035890761
 20
247.0004898670118
 30
0.0
  0
LINE
  5
263
330
1F
100
AcDbEntity
  8
0
  6
Continuous
 62
     7
370
    25
100
AcDbLine
 10
114.1533544693
 20
260.4773746576
 30
0.0
 11
114.0384857723
 21
260.4773746576
 31
0.0
  0
SPLINE
  5
264
330
1F
100
AcDbEntity
  8
0
  6
Continuous
 62
     7
370
    25
100
AcDbSpline
210
0.0
220
0.0
230
1.0
 70
     8
 71
     3
 72
     8
 73
     4
 74
     0
 42
0.00000001
 43
0.00000001
 40
0.0000000000000002
 40
0.0000000000000002
 40
0.0000000000000002
 40
0.0000000000000002
 40
0.0002416894103824
 40
0.0002416894103824
 40
0.0002416894103824
 40
0.0002416894103824
 10
113.2520228550198
 20
262.0772153097629
 30
0.0
 10
113.1939240256655
 20
262.0873555278976
 30
0.0
 10
113.1356543313891
 20
262.0969947406118
 30
0.0
 10
113.0771739909187
 20
262.1061579014599
 30
0.0
  0
ARC
  5
265
330
1F
100
AcDbEntity
  8
0
  6
Continuous
 62
     7
370
    25
100
AcDbCircle
 10
112.3768833951
 20
260.5303517178
 30
0.0
 40
1.777260826753868
100
AcDbArc
 50
358.291859247
 51
60.5009498435
  0
SPLINE
  5
266
330
1F
100
AcDbEntity
  8
0
  6
Continuous
 62
     7
370
    25
100
AcDbSpline
210
0.0
220
0.0
230
1.0
 70
     8
 71
     3
 72
    16
 73
    12
 74
     0
 42
0.00000001
 43
0.00000001
 40
0.0
 40
0.0
 40
0.0
 40
0.0
 40
0.2500000000000001
 40
0.2500000000000001
 40
0.5000000000000001
 40
0.5000000000000001
 40
0.7500000000000002
 40
0.7500000000000002
 40
0.8750000000000001
 40
0.8750000000000001
 40
1.0
 40
1.0
 40
1.0
 40
1.0
 10
114.1533544692809
 20
260.4773746575819
 30
0.0
 10
114.4690414926784
 20
260.4773746575819
 30
0.0
 10
114.7795555001462
 20
260.545220150012
 30
0.0
 10
115.3949209754918
 20
260.7551768615006
 30
0.0
 10
115.7000038415672
 20
260.8988502381498
 30
0.0
 10
116.3052609003109
 20
261.2303624710876
 30
0.0
 10
116.6043987262672
 20
261.4178032512414
 30
0.0
 10
117.0507065760386
 20
261.7138666055106
 30
0.0
 10
117.1990685108889
 20
261.81508488689
 30
0.0
 10
117.4953926397495
 20
262.0200046871641
 30
0.0
 10
117.6440033022243
 20
262.1241644045861
 30
0.0
 10
117.7912625219947
 20
262.2273746575819
 30
0.0
  0
SPLINE
  5
267
330
1F
100
AcDbEntity
  8
0
  6
Continuous
 62
     7
370
    25
100
AcDbSpline
210
0.0
220
0.0
230
1.0
 70
     8
 71
     3
 72
    16
 73
    12
 74
     0
 42
0.00000001
 43
0.00000001
 40
0.0
 40
0.0
 40
0.0
 40
0.0
 40
0.2499999999999998
 40
0.2499999999999998
 40
0.4999999999999996
 40
0.4999999999999996
 40
0.7499999999999993
 40
0.7499999999999993
 40
0.8749999999999997
 40
0.8749999999999997
 40
1.0
 40
1.0
 40
1.0
 40
1.0
 10
121.4291705747085
 20
260.4773746575819
 30
0.0
 10
121.1129926243562
 20
260.4773746575819
 30
0.0
 10
120.8024497821452
 20
260.5453698263647
 30
0.0
 10
120.1874872634019
 20
260.7552444041915
 30
0.0
 10
119.8831842306872
 20
260.8985312779827
 30
0.0
 10
119.2782791553498
 20
261.2297624553191
 30
0.0
 10
118.9786305820358
 20
261.4174778322384
 30
0.0
 10
118.5321075793223
 20
261.7136702832613
 30
0.0
 10
118.3836814481452
 20
261.8149303750687
 30
0.0
 10
118.087236191419
 20
262.019931889592
 30
0.0
 10
117.9384476469019
 20
262.1242163359182
 30
0.0
 10
117.7912625219947
 20
262.2273746575819
 30
0.0
  0
LINE
  5
268
330
1F
100
AcDbEntity
  8
0
  6
Continuous
 62
     7
370
    25
100
AcDbLine
 10
121.5440392717
 20
260.4773746576
 30
0.0
 11
121.4291705747
 21
260.4773746576
 31
0.0
  0
LINE
  5
269
330
1F
100
AcDbEntity
  8
0
  6
Continuous
 62
     7
370
    25
100
AcDbLine
 10
121.5440392717
 20
249.7273746576
 30
0.0
 11
121.5440392717
 21
260.4773746576
 31
0.0
  0
LINE
  5
26A
330
1F
100
AcDbEntity
  8
0
  6
Continuous
 62
     7
370
    25
100
AcDbLine
 10
114.0384857723
 20
249.7273746576
 30
0.0
 11
121.5440392717
 21
249.7273746576
 31
0.0
  0
ARC
  5
26B
330
1F
100
AcDbEntity
  8
0
  6
Continuous
 62
     7
370
    25
100
AcDbCircle
 10
119.9021994437
 20
249.6179996576
 30
0.0
 40
1.645478930724526
100
AcDbArc
 50
274.4019496523
 51
3.8112610495
  0
LINE
  5
26C
330
1F
100
AcDbEntity
  8
0
  6
Continuous
 62
     7
370
    25
100
AcDbLine
 10
120.0284948151
 20
247.9773746576
 30
0.0
 11
118.5807342583
 21
247.9773746576
 31
0.0
  0
SPLINE
  5
26D
330
1F
100
AcDbEntity
  8
0
  6
Continuous
 62
     7
370
    25
100
AcDbSpline
210
0.0
220
0.0
230
1.0
 70
     8
 71
     3
 72
    14
 73
    10
 74
     0
 42
0.00000001
 43
0.00000001
 40
0.0
 40
0.0
 40
0.0
 40
0.0
 40
0.2499999999999999
 40
0.2499999999999999
 40
0.4999999999999998
 40
0.4999999999999998
 40
0.7499999999999999
 40
0.7499999999999999
 40
1.0
 40
1.0
 40
1.0
 40
1.0
 10
113.9707018724096
 20
247.9773746575817
 30
0.0
 10
114.4859156039062
 20
247.9773746575817
 30
0.0
 10
114.9680991696311
 20
247.9968292893139
 30
0.0
 10
115.8707678617055
 20
248.0281587753103
 30
0.0
 10
116.291705443192
 20
248.0400840913589
 30
0.0
 10
117.0666048063134
 20
248.0400313337273
 30
0.0
 10
117.4197711371619
 20
248.0280914543147
 30
0.0
 10
118.0543765736654
 20
247.9968103888742
 30
0.0
 10
118.3363685638033
 20
247.9773746575752
 30
0.0
 10
118.5807342583342
 20
247.9773746575752
 30
0.0
  0
LINE
  5
26E
330
1F
100
AcDbEntity
  8
0
  6
Continuous
 62
     7
370
    25
100
AcDbLine
 10
113.9707018724
 20
247.9773746576
 30
0.0
 11
112.5229413156
 21
247.9773746576
 31
0.0
  0
ARC
  5
26F
330
1F
100
AcDbEntity
  8
0
  6
Continuous
 62
     7
370
    25
100
AcDbCircle
 10
87.9675126792
 20
249.6179996576
 30
0.0
 40
1.645478930724533
100
AcDbArc
 50
176.1887389505
 51
265.5980503477
  0
LINE
  5
270
330
1F
100
AcDbEntity
  8
0
  6
Continuous
 62
     7
370
    25
100
AcDbLine
 10
86.3256728512
 20
249.7273746576
 30
0.0
 11
93.8312263506
 21
249.7273746576
 31
0.0
  0
LINE
  5
271
330
1F
100
AcDbEntity
  8
0
  6
Continuous
 62
     7
370
    25
100
AcDbLine
 10
95.3467708072
 20
247.9773746576
 30
0.0
 11
93.8990102505
 21
247.9773746576
 31
0.0
  0
SPLINE
  5
272
330
1F
100
AcDbEntity
  8
0
  6
Continuous
 62
     7
370
    25
100
AcDbSpline
210
0.0
220
0.0
230
1.0
 70
     8
 71
     3
 72
    14
 73
    10
 74
     0
 42
0.00000001
 43
0.00000001
 40
0.0
 40
0.0
 40
0.0
 40
0.0
 40
0.25
 40
0.25
 40
0.5
 40
0.5
 40
0.75
 40
0.75
 40
1.0
 40
1.0
 40
1.0
 40
1.0
 10
89.28897786455306
 20
247.9773746575817
 30
0.0
 10
89.53334236615831
 20
247.9773746575817
 30
0.0
 10
89.8155616690276
 20
247.9968292893139
 30
0.0
 10
90.45146449122943
 20
248.0281587753103
 30
0.0
 10
90.80583489080617
 20
248.0400840913589
 30
0.0
 10
91.58106642187245
 20
248.0400313337273
 30
0.0
 10
92.00095677428483
 20
248.0280914543147
 30
0.0
 10
92.90208446043111
 20
247.9968103888742
 30
0.0
 10
93.38379400383818
 20
247.9773746575752
 30
0.0
 10
93.8990102504779
 20
247.9773746575752
 30
0.0
  0
LINE
  5
273
330
1F
100
AcDbEntity
  8
0
  6
Continuous
 62
     7
370
    25
100
AcDbLine
 10
89.2889778646
 20
247.9773746576
 30
0.0
 11
87.8412173078
 21
247.9773746576
 31
0.0
  0
LINE
  5
274
330
1F
100
AcDbEntity
  8
0
  6
Continuous
 62
     7
370
    25
100
AcDbLine
 10
86.4405415482
 20
260.4773746576
 30
0.0
 11
86.3256728512
 21
260.4773746576
 31
0.0
  0
SPLINE
  5
275
330
1F
100
AcDbEntity
  8
0
  6
Continuous
 62
     7
370
    25
100
AcDbSpline
210
0.0
220
0.0
230
1.0
 70
     8
 71
     3
 72
    16
 73
    12
 74
     0
 42
0.00000001
 43
0.00000001
 40
0.0
 40
0.0
 40
0.0
 40
0.0
 40
0.2500000000000001
 40
0.2500000000000001
 40
0.5000000000000002
 40
0.5000000000000002
 40
0.75
 40
0.75
 40
0.875
 40
0.875
 40
1.0
 40
1.0
 40
1.0
 40
1.0
 10
86.44054154817887
 20
260.4773746575819
 30
0.0
 10
86.75622857157636
 20
260.4773746575819
 30
0.0
 10
87.06674257904412
 20
260.545220150012
 30
0.0
 10
87.68210805438976
 20
260.7551768615006
 30
0.0
 10
87.98719092046517
 20
260.8988502381498
 30
0.0
 10
88.59244797920886
 20
261.2303624710876
 30
0.0
 10
88.8915858051652
 20
261.4178032512414
 30
0.0
 10
89.33789365493654
 20
261.7138666055106
 30
0.0
 10
89.48625558978682
 20
261.81508488689
 30
0.0
 10
89.78257971864743
 20
262.0200046871641
 30
0.0
 10
89.93119038112322
 20
262.1241644045807
 30
0.0
 10
90.07844960089267
 20
262.2273746575819
 30
0.0
  0
SPLINE
  5
276
330
1F
100
AcDbEntity
  8
0
  6
Continuous
 62
     7
370
    25
100
AcDbSpline
210
0.0
220
0.0
230
1.0
 70
     8
 71
     3
 72
    16
 73
    12
 74
     0
 42
0.00000001
 43
0.00000001
 40
0.0
 40
0.0
 40
0.0
 40
0.0
 40
0.2499999999999999
 40
0.2499999999999999
 40
0.4999999999999998
 40
0.4999999999999998
 40
0.7499999999999997
 40
0.7499999999999997
 40
0.8749999999999998
 40
0.8749999999999998
 40
1.0
 40
1.0
 40
1.0
 40
1.0
 10
93.7163576536065
 20
260.4773746575819
 30
0.0
 10
93.40017970325414
 20
260.4773746575819
 30
0.0
 10
93.08963686104315
 20
260.5453698263647
 30
0.0
 10
92.47467434229992
 20
260.7552444041915
 30
0.0
 10
92.17037130958514
 20
260.8985312779827
 30
0.0
 10
91.56546623424774
 20
261.2297624553191
 30
0.0
 10
91.26581766093375
 20
261.4174778322384
 30
0.0
 10
90.81929465822023
 20
261.7136702832613
 30
0.0
 10
90.67086852704318
 20
261.8149303750687
 30
0.0
 10
90.37442327031697
 20
262.019931889592
 30
0.0
 10
90.22563472579921
 20
262.1242163359144
 30
0.0
 10
90.07844960089267
 20
262.2273746575819
 30
0.0
  0
LINE
  5
277
330
1F
100
AcDbEntity
  8
0
  6
Continuous
 62
     7
370
    25
100
AcDbLine
 10
93.8312263506
 20
260.4773746576
 30
0.0
 11
93.7163576536
 21
260.4773746576
 31
0.0
  0
LINE
  5
278
330
1F
100
AcDbEntity
  8
0
  6
Continuous
 62
     7
370
    25
100
AcDbLine
 10
86.3256728512
 20
260.4773746576
 30
0.0
 11
86.3256728512
 21
249.7273746576
 31
0.0
  0
ARC
  5
279
330
1F
100
AcDbEntity
  8
0
  6
Continuous
 62
     7
370
    25
100
AcDbCircle
 10
95.4928287278
 20
260.5303517178
 30
0.0
 40
1.777260826753811
100
AcDbArc
 50
119.4990501565
 51
181.708140753
  0
SPLINE
  5
27A
330
1F
100
AcDbEntity
  8
0
  6
Continuous
 62
     7
370
    25
100
AcDbSpline
210
0.0
220
0.0
230
1.0
 70
     8
 71
     3
 72
     8
 73
     4
 74
     0
 42
0.00000001
 43
0.00000001
 40
0.0
 40
0.0
 40
0.0
 40
0.0
 40
0.0002416894103822
 40
0.0002416894103822
 40
0.0002416894103822
 40
0.0002416894103822
 10
94.79253813196868
 20
262.1061579014597
 30
0.0
 10
94.73405779149832
 20
262.0969947406116
 30
0.0
 10
94.67578809722205
 20
262.0873555278978
 30
0.0
 10
94.61768926786782
 20
262.0772153097631
 30
0.0
  0
SPLINE
  5
27B
330
1F
100
AcDbEntity
  8
0
  6
Continuous
 62
     7
370
    25
100
AcDbSpline
210
0.0
220
0.0
230
1.0
 70
     8
 71
     3
 72
    14
 73
    10
 74
     0
 42
0.00000001
 43
0.00000001
 40
0.0
 40
0.0
 40
0.0
 40
0.0
 40
0.25
 40
0.25
 40
0.5
 40
0.5
 40
0.75
 40
0.75
 40
1.0
 40
1.0
 40
1.0
 40
1.0
 10
94.54409714130723
 20
262.0660110473468
 30
0.0
 10
94.11968097972186
 20
262.0039574151597
 30
0.0
 10
93.70098242505614
 20
261.9854329518864
 30
0.0
 10
92.89048915619662
 20
261.9804902356847
 30
0.0
 10
92.49773612087692
 20
261.9959518394817
 30
0.0
 10
91.74494936122004
 20
262.0436162451086
 30
0.0
 10
91.38584092427632
 20
262.0760549854305
 30
0.0
 10
90.70411925958584
 20
262.148031194701
 30
0.0
 10
90.38043466233559
 20
262.187846738539
 30
0.0
 10
90.07844960089267
 20
262.2273746575819
 30
0.0
  0
SPLINE
  5
27C
330
1F
100
AcDbEntity
  8
0
  6
Continuous
 62
     7
370
    25
100
AcDbSpline
210
0.0
220
0.0
230
1.0
 70
     8
 71
     3
 72
     8
 73
     4
 74
     0
 42
0.00000001
 43
0.00000001
 40
0.0
 40
0.0
 40
0.0
 40
0.0
 40
0.0001055072942668
 40
0.0001055072942668
 40
0.0001055072942668
 40
0.0001055072942668
 10
94.61768926786779
 20
262.0772153097629
 30
0.0
 10
94.59318298690927
 20
262.0733314867486
 30
0.0
 10
94.56864981007642
 20
262.0696008783069
 30
0.0
 10
94.54409714130732
 20
262.0660110473464
 30
0.0
  0
SPLINE
  5
27D
330
1F
100
AcDbEntity
  8
0
  6
Continuous
 62
     7
370
    25
100
AcDbSpline
210
0.0
220
0.0
230
1.0
 70
     8
 71
     3
 72
     8
 73
     4
 74
     0
 42
0.00000001
 43
0.00000001
 40
0.0
 40
0.0
 40
0.0
 40
0.0
 40
0.000105507294285
 40
0.000105507294285
 40
0.000105507294285
 40
0.000105507294285
 10
113.325614981593
 20
262.0660110473449
 30
0.0
 10
113.3010623128196
 20
262.0696008783061
 30
0.0
 10
113.2765291359825
 20
262.0733314867479
 30
0.0
 10
113.2520228550198
 20
262.0772153097629
 30
0.0
  0
SPLINE
  5
27E
330
1F
100
AcDbEntity
  8
0
  6
Continuous
 62
     7
370
    25
100
AcDbSpline
210
0.0
220
0.0
230
1.0
 70
     8
 71
     3
 72
    14
 73
    10
 74
     0
 42
0.00000001
 43
0.00000001
 40
0.0
 40
0.0
 40
0.0
 40
0.0
 40
0.25
 40
0.25
 40
0.5
 40
0.5
 40
0.75
 40
0.75
 40
1.0
 40
1.0
 40
1.0
 40
1.0
 10
113.325614981593
 20
262.0660110473449
 30
0.0
 10
113.7500311431772
 20
262.0039574151589
 30
0.0
 10
114.1687296978416
 20
261.9854329518861
 30
0.0
 10
114.9792229666988
 20
261.980490235685
 30
0.0
 10
115.3719760020173
 20
261.995951839482
 30
0.0
 10
116.1247627616719
 20
262.043616245109
 30
0.0
 10
116.4838711986146
 20
262.0760549854308
 30
0.0
 10
117.1655928633032
 20
262.1480311947012
 30
0.0
 10
117.4892774605527
 20
262.1878467385361
 30
0.0
 10
117.7912625219947
 20
262.2273746575819
 30
0.0
  0
ARC
  5
27F
330
1F
100
AcDbEntity
  8
0
  6
Continuous
 62
     7
370
    25
100
AcDbCircle
 10
114.1699042299
 20
247.1226381243
 30
0.0
 40
0.877642364844304
100
AcDbArc
 50
103.119007754
 51
188.0002668541
  0
ARC
  5
280
330
1F
100
AcDbEntity
  8
0
  6
Continuous
 62
     7
370
    25
100
AcDbCircle
 10
93.699807893
 20
247.1226381243
 30
0.0
 40
0.877642364844304
100
AcDbArc
 50
351.9997331459
 51
76.880992246
  0
LINE
  5
281
330
1F
100
AcDbEntity
  8
0
  6
Continuous
 62
     7
370
    25
100
AcDbLine
 10
133.0903798272
 20
211.8214165494
 30
0.0
 11
133.4653796844
 21
211.8214171766
 31
0.0
  0
ARC
  5
282
330
1F
100
AcDbEntity
  8
0
  6
Continuous
 62
     7
370
    25
100
AcDbCircle
 10
113.9959126469
 20
262.7424270288
 30
0.0
 40
0.9979371992160877
100
AcDbArc
 50
164.4750771131
 51
221.8041723328
  0
ARC
  5
283
330
1F
100
AcDbEntity
  8
0
  6
Continuous
 62
     7
370
    25
100
AcDbCircle
 10
93.873799476
 20
262.7424270288
 30
0.0
 40
0.9979371992168659
100
AcDbArc
 50
318.1958276672
 51
15.5249228869
  0
ARC
  5
284
330
1F
100
AcDbEntity
  8
0
  6
Continuous
 62
     7
370
    25
100
AcDbCircle
 10
114.0845531737
 20
262.7259873975
 30
0.0
 40
1.005761384292355
100
AcDbArc
 50
165.7659488811
 51
221.0103806761
  0
ARC
  5
285
330
1F
100
AcDbEntity
  8
0
  6
Continuous
 62
     7
370
    25
100
AcDbCircle
 10
93.7851589492
 20
262.7259873975
 30
0.0
 40
1.005761384288509
100
AcDbArc
 50
318.9896193238
 51
14.2340511189
  0
SPLINE
  5
286
330
1F
100
AcDbEntity
  8
0
  6
Continuous
 62
     7
370
    25
100
AcDbSpline
210
0.0
220
0.0
230
1.0
 70
     8
 71
     3
 72
    12
 73
     8
 74
     0
 42
0.00000001
 43
0.00000001
 40
0.0
 40
0.0
 40
0.0
 40
0.0
 40
0.25
 40
0.25
 40
0.5
 40
0.5
 40
1.0
 40
1.0
 40
1.0
 40
1.0
 10
94.76004284702147
 20
262.973287514653
 30
0.0
 10
94.28799721175785
 20
262.8613704029502
 30
0.0
 10
93.83086518965597
 20
262.7819902574051
 30
0.0
 10
92.95442457271169
 20
262.6402424202896
 30
0.0
 10
92.5386233817638
 20
262.5805676233483
 30
0.0
 10
91.35950560255294
 20
262.4146293030462
 30
0.0
 10
90.6623391480334
 20
262.3213543284048
 30
0.0
 10
90.07844960089267
 20
262.2273746575819
 30
0.0
  0
SPLINE
  5
287
330
1F
100
AcDbEntity
  8
0
  6
Continuous
 62
     7
370
    25
100
AcDbSpline
210
0.0
220
0.0
230
1.0
 70
     8
 71
     3
 72
    18
 73
    14
 74
     0
 42
0.00000001
 43
0.00000001
 40
0.0
 40
0.0
 40
0.0
 40
0.0
 40
0.2500000000000003
 40
0.2500000000000003
 40
0.5000000000000006
 40
0.5000000000000006
 40
0.7500000000000009
 40
0.7500000000000009
 40
0.875000000000001
 40
0.875000000000001
 40
0.9375000000000004
 40
0.9375000000000004
 40
1.0
 40
1.0
 40
1.0
 40
1.0
 10
113.1096692758787
 20
262.9732875146499
 30
0.0
 10
113.5837642312705
 20
262.8608845304547
 30
0.0
 10
114.0394821880303
 20
262.7819195042339
 30
0.0
 10
114.9095270156721
 20
262.6411422791693
 30
0.0
 10
115.3241128026863
 20
262.581568563865
 30
0.0
 10
116.1105884136505
 20
262.4708490408183
 30
0.0
 10
116.4838598601752
 20
262.4198164743484
 30
0.0
 10
117.0040134037451
 20
262.3461988405919
 30
0.0
 10
117.1707852168897
 20
262.3221752604117
 30
0.0
 10
117.4110066792145
 20
262.2864676019119
 30
0.0
 10
117.4894236268738
 20
262.2746204185077
 30
0.0
 10
117.6429306959446
 20
262.2509684058149
 30
0.0
 10
117.7187323826915
 20
262.2390487104178
 30
0.0
 10
117.7912625219947
 20
262.2273746575819
 30
0.0
  0
SPLINE
  5
288
330
1F
100
AcDbEntity
  8
0
  6
Continuous
 62
     7
370
    25
100
AcDbSpline
210
0.0
220
0.0
230
1.0
 70
     8
 71
     3
 72
    18
 73
    14
 74
     0
 42
0.00000001
 43
0.00000001
 40
0.0
 40
0.0
 40
0.0
 40
0.0
 40
0.2499999999999997
 40
0.2499999999999997
 40
0.4999999999999994
 40
0.4999999999999994
 40
0.7499999999999991
 40
0.7499999999999991
 40
0.8749999999999992
 40
0.8749999999999992
 40
0.9374999999999997
 40
0.9374999999999997
 40
1.0
 40
1.0
 40
1.0
 40
1.0
 10
87.99548478461189
 20
262.9732875146499
 30
0.0
 10
88.04581483064555
 20
262.8608845304547
 30
0.0
 10
88.12739866927232
 20
262.7819195042339
 30
0.0
 10
88.35206717755365
 20
262.6411422791693
 30
0.0
 10
88.49512581991851
 20
262.581568563865
 30
0.0
 10
88.84326601250201
 20
262.4708490408183
 30
0.0
 10
89.04935717338618
 20
262.4198164743484
 30
0.0
 10
89.40264070060147
 20
262.3461988405919
 30
0.0
 10
89.5276703283644
 20
262.3221752604117
 30
0.0
 10
89.72609763043847
 20
262.286467601912
 30
0.0
 10
89.7940548465125
 20
262.2746204185077
 30
0.0
 10
89.93360720750832
 20
262.2509684058149
 30
0.0
 10
90.00591946158961
 20
262.2390487104212
 30
0.0
 10
90.07844960089267
 20
262.2273746575819
 30
0.0
  0
SPLINE
  5
289
330
1F
100
AcDbEntity
  8
0
  6
Continuous
 62
     7
370
    25
100
AcDbSpline
210
0.0
220
0.0
230
1.0
 70
     8
 71
     3
 72
    12
 73
     8
 74
     0
 42
0.00000001
 43
0.00000001
 40
0.0
 40
0.0
 40
0.0
 40
0.0
 40
0.2499999999999999
 40
0.2499999999999999
 40
0.4999999999999999
 40
0.4999999999999999
 40
1.0
 40
1.0
 40
1.0
 40
1.0
 10
119.8742273382769
 20
262.973287514653
 30
0.0
 10
119.8241148486114
 20
262.8613704029503
 30
0.0
 10
119.7426198331254
 20
262.7819902574051
 30
0.0
 10
119.5160142487613
 20
262.6402424202896
 30
0.0
 10
119.3719604202799
 20
262.5805676233483
 30
0.0
 10
118.8486155144448
 20
262.4146293030462
 30
0.0
 10
118.3751520691352
 20
262.3213543284108
 30
0.0
 10
117.7912625219947
 20
262.2273746575819
 30
0.0
  0
LINE
  5
28A
330
1F
100
AcDbEntity
  8
0
  6
Continuous
 62
     7
370
    25
100
AcDbLine
 10
133.0903704247
 20
216.0372515379
 30
0.0
 11
133.0903798272
 21
211.8214165494
 31
0.0
  0
LINE
  5
28B
330
1F
100
AcDbEntity
  8
0
  6
Continuous
 62
     7
370
    25
100
AcDbLine
 10
132.9348560614
 20
215.4182146649
 30
0.0
 11
132.9348560614
 21
216.5314613195
 31
0.0
  0
LINE
  5
28C
330
1F
100
AcDbEntity
  8
0
  6
Continuous
 62
     7
370
    25
100
AcDbLine
 10
133.4653702819
 20
216.0372515379
 30
0.0
 11
133.4653796844
 21
211.8214171766
 31
0.0
  0
ARC
  5
28D
330
1F
100
AcDbEntity
  8
0
  6
Continuous
 62
     7
370
    25
100
AcDbCircle
 10
118.591571896
 20
246.9889080746
 30
0.0
 40
0.9885259936317585
100
AcDbArc
 50
90.628170975
 51
179.3286944278
  0
ARC
  5
28E
330
1F
100
AcDbEntity
  8
0
  6
Continuous
 62
     7
370
    25
100
AcDbCircle
 10
89.2781402269
 20
246.9889080746
 30
0.0
 40
0.9885259936317436
100
AcDbArc
 50
0.6713055722
 51
89.371829025
  0
SPLINE
  5
28F
330
1F
100
AcDbEntity
  8
0
  6
Continuous
 62
     7
370
    25
100
AcDbSpline
210
0.0
220
0.0
230
1.0
 70
     8
 71
     3
 72
     8
 73
     4
 74
     0
 42
0.00000001
 43
0.00000001
 40
0.0
 40
0.0
 40
0.0
 40
0.0
 40
1.0
 40
1.0
 40
1.0
 40
1.0
 10
115.8199543318673
 20
190.6372291144954
 30
0.0
 10
115.0118510802123
 20
190.4005646085856
 30
0.0
 10
114.1944332306132
 20
190.1745687981352
 30
0.0
 10
113.362286002915
 20
189.9557817214583
 30
0.0
  0
SPLINE
  5
290
330
1F
100
AcDbEntity
  8
0
  6
Continuous
 62
     7
370
    25
100
AcDbSpline
210
0.0
220
0.0
230
1.0
 70
     8
 71
     3
 72
    10
 73
     6
 74
     0
 42
0.00000001
 43
0.00000001
 40
0.0
 40
0.0
 40
0.0
 40
0.0
 40
0.5
 40
0.5
 40
1.0
 40
1.0
 40
1.0
 40
1.0
 10
89.52776319264613
 20
213.2981661046427
 30
0.0
 10
89.70581930176915
 20
213.253549164847
 30
0.0
 10
89.89625469730014
 20
213.2980435775078
 30
0.0
 10
90.30237481289983
 20
213.5396622657118
 30
0.0
 10
90.51671176639347
 20
213.7350186117494
 30
0.0
 10
90.74610227387086
 20
213.9869660288658
 30
0.0
  0
ARC
  5
291
330
1F
100
AcDbEntity
  8
0
  6
Continuous
 62
     7
370
    25
100
AcDbCircle
 10
80.7185571327
 20
218.3355190754
 30
0.0
 40
10.14776016461662
100
AcDbArc
 50
330.2378582576
 51
1.3294554288
  0
ARC
  5
292
330
1F
100
AcDbEntity
  8
0
  6
Continuous
 62
     7
370
    25
100
AcDbCircle
 10
120.8769354897
 20
262.9953890371
 30
0.0
 40
1.002951700818518
100
AcDbArc
 50
181.2626993566
 51
247.9173961432
  0
SPLINE
  5
293
330
1F
100
AcDbEntity
  8
0
  6
Continuous
 62
     7
370
    25
100
AcDbSpline
210
0.0
220
0.0
230
1.0
 70
     8
 71
     3
 72
    14
 73
    10
 74
     0
 42
0.00000001
 43
0.00000001
 40
0.0
 40
0.0
 40
0.0
 40
0.0
 40
0.2499999999999999
 40
0.2499999999999999
 40
0.4999999999999998
 40
0.4999999999999998
 40
0.7499999999999999
 40
0.7499999999999999
 40
1.0
 40
1.0
 40
1.0
 40
1.0
 10
120.4998828854105
 20
262.0660110473468
 30
0.0
 10
120.3389951770889
 20
262.0039574151597
 30
0.0
 10
120.1698200663696
 20
261.9854329518864
 30
0.0
 10
119.796239601928
 20
261.9804902356847
 30
0.0
 10
119.5923337841071
 20
261.9959518394817
 30
0.0
 10
119.1452244543974
 20
262.0436162451086
 30
0.0
 10
118.9027703842865
 20
262.0760549854305
 30
0.0
 10
118.3773338499514
 20
262.148031194701
 30
0.0
 10
118.0932475834373
 20
262.1878467385303
 30
0.0
 10
117.7912625219947
 20
262.2273746575819
 30
0.0
  0
SPLINE
  5
294
330
1F
100
AcDbEntity
  8
0
  6
Continuous
 62
     7
370
    25
100
AcDbSpline
210
0.0
220
0.0
230
1.0
 70
     8
 71
     3
 72
     8
 73
     4
 74
     0
 42
0.00000001
 43
0.00000001
 40
0.0
 40
0.0
 40
0.0
 40
0.0
 40
0.0001055072942668
 40
0.0001055072942668
 40
0.0001055072942668
 40
0.0001055072942668
 10
120.5278389604472
 20
262.0772153097629
 30
0.0
 10
120.5185069745758
 20
262.0733314867486
 30
0.0
 10
120.5091903128107
 20
262.0696008783069
 30
0.0
 10
120.4998828854104
 20
262.0660110473464
 30
0.0
  0
ARC
  5
295
330
1F
100
AcDbEntity
  8
0
  6
Continuous
 62
     7
370
    25
100
AcDbCircle
 10
119.6526995005
 20
260.5303517178
 30
0.0
 40
1.777260826753868
100
AcDbArc
 50
358.291859247
 51
60.5009498435
  0
ARC
  5
296
330
1F
100
AcDbEntity
  8
0
  6
Continuous
 62
     7
370
    25
100
AcDbCircle
 10
86.9927766332
 20
262.9953890371
 30
0.0
 40
1.002951700819028
100
AcDbArc
 50
292.082603857
 51
358.7373006436
  0
SPLINE
  5
297
330
1F
100
AcDbEntity
  8
0
  6
Continuous
 62
     7
370
    25
100
AcDbSpline
210
0.0
220
0.0
230
1.0
 70
     8
 71
     3
 72
    14
 73
    10
 74
     0
 42
0.00000001
 43
0.00000001
 40
0.0
 40
0.0
 40
0.0
 40
0.0
 40
0.2500000000000001
 40
0.2500000000000001
 40
0.5000000000000002
 40
0.5000000000000002
 40
0.7500000000000001
 40
0.7500000000000001
 40
1.0
 40
1.0
 40
1.0
 40
1.0
 10
87.36982923748181
 20
262.0660110473449
 30
0.0
 10
87.5307169458031
 20
262.0039574151589
 30
0.0
 10
87.69989205652223
 20
261.9854329518861
 30
0.0
 10
88.07347252096336
 20
261.980490235685
 30
0.0
 10
88.27737833878405
 20
261.995951839482
 30
0.0
 10
88.72448766849303
 20
262.043616245109
 30
0.0
 10
88.96694173860351
 20
262.0760549854308
 30
0.0
 10
89.49237827293742
 20
262.1480311947012
 30
0.0
 10
89.77646453945057
 20
262.1878467385382
 30
0.0
 10
90.07844960089267
 20
262.2273746575819
 30
0.0
  0
ARC
  5
298
330
1F
100
AcDbEntity
  8
0
  6
Continuous
 62
     7
370
    25
100
AcDbCircle
 10
88.2170126224
 20
260.5303517178
 30
0.0
 40
1.777260826753925
100
AcDbArc
 50
119.4990501565
 51
181.708140753
  0
SPLINE
  5
299
330
1F
100
AcDbEntity
  8
0
  6
Continuous
 62
     7
370
    25
100
AcDbSpline
210
0.0
220
0.0
230
1.0
 70
     8
 71
     3
 72
     8
 73
     4
 74
     0
 42
0.00000001
 43
0.00000001
 40
0.0
 40
0.0
 40
0.0
 40
0.0
 40
0.000105507294285
 40
0.000105507294285
 40
0.000105507294285
 40
0.000105507294285
 10
87.36982923748181
 20
262.0660110473449
 30
0.0
 10
87.36052181007996
 20
262.0696008783061
 30
0.0
 10
87.35120514831324
 20
262.0733314867479
 30
0.0
 10
87.34187316244021
 20
262.0772153097629
 30
0.0
  0
SPLINE
  5
29A
330
1F
100
AcDbEntity
  8
0
  6
Continuous
 62
     7
370
    25
100
AcDbSpline
210
0.0
220
0.0
230
1.0
 70
     8
 71
     3
 72
     8
 73
     4
 74
     0
 42
0.00000001
 43
0.00000001
 40
0.0
 40
0.0
 40
0.0
 40
0.0
 40
0.0002416894103822
 40
0.0002416894103822
 40
0.0002416894103822
 40
0.0002416894103822
 10
120.5827274903839
 20
262.1061579014597
 30
0.0
 10
120.5646403011545
 20
262.0969947406116
 30
0.0
 10
120.5463194391053
 20
262.0873555278978
 30
0.0
 10
120.5278389604472
 20
262.0772153097631
 30
0.0
  0
ARC
  5
29B
330
1F
100
AcDbEntity
  8
0
  6
Continuous
 62
     7
370
    25
100
AcDbCircle
 10
119.7819413225
 20
260.5354560997
 30
0.0
 40
1.763054915954382
100
AcDbArc
 50
358.1121270215
 51
62.9862857032
  0
ARC
  5
29C
330
1F
100
AcDbEntity
  8
0
  6
Continuous
 62
     7
370
    25
100
AcDbCircle
 10
88.0877708004
 20
260.5354560997
 30
0.0
 40
1.763054915954384
100
AcDbArc
 50
117.0137142968
 51
181.8878729785
  0
SPLINE
  5
29D
330
1F
100
AcDbEntity
  8
0
  6
Continuous
 62
     7
370
    25
100
AcDbSpline
210
0.0
220
0.0
230
1.0
 70
     8
 71
     3
 72
     8
 73
     4
 74
     0
 42
0.00000001
 43
0.00000001
 40
0.0000000000000002
 40
0.0000000000000002
 40
0.0000000000000002
 40
0.0000000000000002
 40
0.0002416894103823
 40
0.0002416894103823
 40
0.0002416894103823
 40
0.0002416894103823
 10
87.34187316244021
 20
262.0772153097629
 30
0.0
 10
87.32339268378206
 20
262.0873555278976
 30
0.0
 10
87.30507182173291
 20
262.0969947406118
 30
0.0
 10
87.28698463250359
 20
262.1061579014599
 30
0.0
  0
LINE
  5
29E
330
1F
100
AcDbEntity
  8
0
  6
Continuous
 62
     7
370
    25
100
AcDbLine
 10
120.1959630604
 20
247.9773746576
 30
0.0
 11
120.0284948151
 21
247.9773746576
 31
0.0
  0
LINE
  5
29F
330
1F
100
AcDbEntity
  8
0
  6
Continuous
 62
     7
370
    25
100
AcDbLine
 10
87.8412173078
 20
247.9773746576
 30
0.0
 11
87.6737490625
 21
247.9773746576
 31
0.0
  0
ARC
  5
2A0
330
1F
100
AcDbEntity
  8
0
  6
Continuous
 62
     7
370
    25
100
AcDbCircle
 10
86.98546292
 20
263.0136533237
 30
0.0
 40
1.001970266457816
100
AcDbArc
 50
290.8369281334
 51
359.7643533258
  0
ARC
  5
2A1
330
1F
100
AcDbEntity
  8
0
  6
Continuous
 62
     7
370
    25
100
AcDbCircle
 10
120.8842492029
 20
263.0136533237
 30
0.0
 40
1.001970266457975
100
AcDbArc
 50
180.2356466742
 51
249.1630718665
  0
ARC
  5
2A2
330
1F
100
AcDbEntity
  8
0
  6
Continuous
 62
     7
370
    25
100
AcDbCircle
 10
86.9657697991
 20
263.0545799318
 30
0.0
 40
1.001340759618085
100
AcDbArc
 50
288.7103891537
 51
2.6281302339
  0
ARC
  5
2A3
330
1F
100
AcDbEntity
  8
0
  6
Continuous
 62
     7
370
    25
100
AcDbCircle
 10
120.9039423238
 20
263.0545799318
 30
0.0
 40
1.001340759618085
100
AcDbArc
 50
177.3718697661
 51
251.2896108463
  0
ARC
  5
2A4
330
1F
100
AcDbEntity
  8
0
  6
Continuous
 62
     8
370
    25
100
AcDbCircle
 10
103.9804215604
 20
-8.0540005111
 30
0.0
 40
7.854536649335074
100
AcDbArc
 50
269.6676156034
 51
359.7077911514
  0
ARC
  5
2A5
330
1F
100
AcDbEntity
  8
0
  6
Continuous
 62
     8
370
    25
100
AcDbCircle
 10
103.8892905625
 20
-8.0540005111
 30
0.0
 40
7.854536649335045
100
AcDbArc
 50
180.2922088486
 51
270.3323843966
  0
ARC
  5
2A6
330
1F
100
AcDbEntity
  8
0
  6
Continuous
 62
     8
370
    25
100
AcDbCircle
 10
104.0304303057
 20
-8.5397520572
 30
0.0
 40
9.721901268304993
100
AcDbArc
 50
269.4367265329
 51
36.6048083592
  0
ARC
  5
2A7
330
1F
100
AcDbEntity
  8
0
  6
Continuous
 62
     8
370
    25
100
AcDbCircle
 10
103.8392818172
 20
-8.5397520572
 30
0.0
 40
9.72190126830501
100
AcDbArc
 50
143.3951916408
 51
270.5632734671
  0
LINE
  5
2A8
330
1F
100
AcDbEntity
  8
0
  6
Continuous
 62
     8
370
    25
100
AcDbLine
 10
114.1819836641
 20
-10.8172783625
 30
0.0
 11
114.4969344313
 21
-10.9109849194
 31
0.0
  0
ARC
  5
2A9
330
1F
100
AcDbEntity
  8
0
  6
Continuous
 62
     8
370
    25
100
AcDbCircle
 10
103.9348560614
 20
204.7273746576
 30
0.0
 40
9.374999999999973
100
AcDbArc
 50
119.4063269879
 51
212.5772063232
  0
ARC
  5
2AA
330
1F
100
AcDbEntity
  8
0
  6
Continuous
 62
     8
370
    25
100
AcDbCircle
 10
103.9348560614
 20
204.7273746576
 30
0.0
 40
9.374999999999986
100
AcDbArc
 50
327.4227936768
 51
119.4063269879
  0
ARC
  5
2AB
330
1F
100
AcDbEntity
  8
0
  6
Continuous
 62
     8
370
    25
100
AcDbCircle
 10
103.9348560614
 20
204.7273746576
 30
0.0
 40
11.05993649053892
100
AcDbArc
 50
182.3675813795
 51
224.4149728023
  0
ARC
  5
2AC
330
1F
100
AcDbEntity
  8
0
  6
Continuous
 62
     8
370
    25
100
AcDbCircle
 10
103.9348560614
 20
204.7273746576
 30
0.0
 40
11.05993649053892
100
AcDbArc
 50
315.5850271977
 51
182.3675813795
  0
ARC
  5
2AD
330
1F
100
AcDbEntity
  8
0
  6
Continuous
 62
     8
370
    25
100
AcDbCircle
 10
103.9348560614
 20
204.7273746576
 30
0.0
 40
11.30993649053892
100
AcDbArc
 50
314.3068486059
 51
182.3675813795
  0
ARC
  5
2AE
330
1F
100
AcDbEntity
  8
0
  6
Continuous
 62
     8
370
    25
100
AcDbCircle
 10
103.9348560614
 20
204.7273746576
 30
0.0
 40
11.30993649053892
100
AcDbArc
 50
182.3675813795
 51
225.6931513941
  0
SPLINE
  5
2AF
330
1F
100
AcDbEntity
  8
0
  6
Continuous
 62
     8
370
    25
100
AcDbSpline
210
0.0
220
0.0
230
1.0
 70
     8
 71
     3
 72
     9
 73
     5
 74
     0
 42
0.00000001
 43
0.00000001
 40
0.0
 40
0.0
 40
0.0
 40
0.0
 40
0.5050734883508545
 40
1.0
 40
1.0
 40
1.0
 40
1.0
 10
94.36128898469006
 20
193.8803753901177
 30
0.0
 10
94.63625979464871
 20
193.6915766920723
 30
0.0
 10
95.18067722359844
 20
193.3177722806355
 30
0.0
 10
95.75206239282856
 20
192.9858353216376
 30
0.0
 10
96.03485606144369
 20
192.8215509204333
 30
0.0
  0
SPLINE
  5
2B0
330
1F
100
AcDbEntity
  8
0
  6
Continuous
 62
     8
370
    25
100
AcDbSpline
210
0.0
220
0.0
230
1.0
 70
     8
 71
     3
 72
     9
 73
     5
 74
     0
 42
0.00000001
 43
0.00000001
 40
0.0
 40
0.0
 40
0.0
 40
0.0
 40
0.1103590486141797
 40
0.9999999999999999
 40
0.9999999999999999
 40
0.9999999999999999
 40
0.9999999999999999
 10
111.8348560614437
 20
192.8582671418027
 30
0.0
 10
111.9327829530054
 20
192.9195527901877
 30
0.0
 10
112.8201310480768
 20
193.4748824088698
 30
0.0
 10
113.6409419698607
 20
194.1272888839279
 30
0.0
 10
114.3711689792243
 20
194.7076964010889
 30
0.0
  0
LINE
  5
2B1
330
1F
100
AcDbEntity
  8
0
  6
Continuous
 62
     8
370
    25
100
AcDbLine
 10
187.7003046152
 20
203.5048366293
 30
0.0
 11
187.4790617913
 21
203.5048366293
 31
0.0
  0
LINE
  5
2B2
330
1F
100
AcDbEntity
  8
0
  6
Continuous
 62
     8
370
    25
100
AcDbLine
 10
187.5773927484
 20
206.1906076198
 30
0.0
 11
187.7003046152
 21
206.1906076198
 31
0.0
  0
LINE
  5
2B3
330
1F
100
AcDbEntity
  8
0
  6
Continuous
 62
     8
370
    25
100
AcDbLine
 10
187.7003046152
 20
203.8979768222
 30
0.0
 11
187.4793681415
 21
203.8979768222
 31
0.0
  0
LINE
  5
2B4
330
1F
100
AcDbEntity
  8
0
  6
Continuous
 62
     8
370
    25
100
AcDbLine
 10
186.7447880655
 20
198.8022570235
 30
0.0
 11
186.7447880655
 21
210.6525024287
 31
0.0
  0
LINE
  5
2B5
330
1F
100
AcDbEntity
  8
0
  6
Continuous
 62
     8
370
    25
100
AcDbLine
 10
180.2729000186
 20
196.778920724
 30
0.0
 11
180.2729000186
 21
195.7517166134
 31
0.0
  0
LINE
  5
2B6
330
1F
100
AcDbEntity
  8
0
  6
Continuous
 62
     8
370
    25
100
AcDbLine
 10
179.3394798047
 20
213.7193256122
 30
0.0
 11
179.3394798047
 21
213.0612288886
 31
0.0
  0
LINE
  5
2B7
330
1F
100
AcDbEntity
  8
0
  6
Continuous
 62
     8
370
    25
100
AcDbLine
 10
184.6435822647
 20
195.8280071557
 30
0.0
 11
184.6435822647
 21
213.6267421594
 31
0.0
  0
SPLINE
  5
2B8
330
1F
100
AcDbEntity
  8
0
  6
Continuous
 62
     8
370
    25
100
AcDbSpline
210
0.0
220
0.0
230
1.0
 70
     8
 71
     3
 72
    10
 73
     6
 74
     0
 42
0.00000001
 43
0.00000001
 40
0.0
 40
0.0
 40
0.0
 40
0.0
 40
0.3132561465059768
 40
0.9604832358190344
 40
1.0
 40
1.0
 40
1.0
 40
1.0
 10
180.2282936854099
 20
196.778153743538
 30
0.0
 10
180.0382206467719
 20
196.5687081387683
 30
0.0
 10
179.4554325060465
 20
195.926521243344
 30
0.0
 10
178.8183927464793
 20
195.4048578959752
 30
0.0
 10
178.4643065334755
 20
195.2239237930168
 30
0.0
 10
178.4439316275949
 20
195.2135124435121
 30
0.0
  0
ARC
  5
2B9
330
1F
100
AcDbEntity
  8
0
  6
Continuous
 62
     8
370
    25
100
AcDbCircle
 10
174.9238041215
 20
194.6816485288
 30
0.0
 40
1.92097743657208
100
AcDbArc
 50
268.5767174145
 51
339.0802227211
  0
SPLINE
  5
2BA
330
1F
100
AcDbEntity
  8
0
  6
Continuous
 62
     8
370
    25
100
AcDbSpline
210
0.0
220
0.0
230
1.0
 70
     8
 71
     3
 72
    11
 73
     7
 74
     0
 42
0.00000001
 43
0.00000001
 40
0.0
 40
0.0
 40
0.0
 40
0.0
 40
0.186985029706166
 40
0.8392317873888401
 40
0.8428766719154444
 40
1.0
 40
1.0
 40
1.0
 40
1.0
 10
178.1867974497136
 20
213.9832222658259
 30
0.0
 10
178.2521746690586
 20
213.9571377211536
 30
0.0
 10
178.5456026548798
 20
213.8400642897513
 30
0.0
 10
178.8749605295679
 20
213.5316174527241
 30
0.0
 10
179.1853339730702
 20
213.2011467571395
 30
0.0
 10
179.246837007627
 20
213.1306964607265
 30
0.0
 10
179.3069456654264
 20
213.0618433904762
 30
0.0
  0
ARC
  5
2BB
330
1F
100
AcDbEntity
  8
0
  6
Continuous
 62
     8
370
    25
100
AcDbCircle
 10
174.7923195547
 20
214.0467510644
 30
0.0
 40
2.003471689052227
100
AcDbArc
 50
30.9310852065
 51
89.2152018062
  0
LINE
  5
2BC
330
1F
100
AcDbEntity
  8
0
  6
Continuous
 62
     8
370
    25
100
AcDbLine
 10
174.8197608743
 20
192.4270471755
 30
0.0
 11
174.8197608743
 21
192.4816213131
 31
0.0
  0
LINE
  5
2BD
330
1F
100
AcDbEntity
  8
0
  6
Continuous
 62
     8
370
    25
100
AcDbLine
 10
170.7935822647
 20
192.6926628806
 30
0.0
 11
170.7935822647
 21
192.3567699664
 31
0.0
  0
ARC
  5
2BE
330
1F
100
AcDbEntity
  8
0
  6
Continuous
 62
     8
370
    25
100
AcDbCircle
 10
174.7885790271
 20
194.4799391343
 30
0.0
 40
1.998561087863658
100
AcDbArc
 50
270.8939735419
 51
343.020120111
  0
ARC
  5
2BF
330
1F
100
AcDbEntity
  8
0
  6
Continuous
 62
     8
370
    25
100
AcDbCircle
 10
174.792095719
 20
214.0840795087
 30
0.0
 40
2.002884930258555
100
AcDbArc
 50
30.0708801444
 51
89.2085680886
  0
LINE
  5
2C0
330
1F
100
AcDbEntity
  8
0
  6
Continuous
 62
     8
370
    25
100
AcDbLine
 10
174.8197608743
 20
216.0867733653
 30
0.0
 11
174.8197608743
 21
216.2227948689
 31
0.0
  0
LINE
  5
2C1
330
1F
100
AcDbEntity
  8
0
  6
Continuous
 62
     8
370
    25
100
AcDbLine
 10
170.7935822647
 20
216.293072078
 30
0.0
 11
170.7935822647
 21
216.1559800709
 31
0.0
  0
SPLINE
  5
2C2
330
1F
100
AcDbEntity
  8
0
  6
Continuous
 62
     8
370
    25
100
AcDbSpline
210
0.0
220
0.0
230
1.0
 70
     8
 71
     3
 72
    13
 73
     9
 74
     0
 42
0.00000001
 43
0.00000001
 40
0.0
 40
0.0
 40
0.0
 40
0.0
 40
0.0139752659920804
 40
0.2734201844525307
 40
0.532192796023629
 40
0.7044761283636434
 40
0.8762796937454836
 40
1.0
 40
1.0
 40
1.0
 40
1.0
 10
114.1709861735806
 20
216.7796563764453
 30
0.0
 10
114.1438761794284
 20
216.800058676034
 30
0.0
 10
113.6134805786727
 20
217.1992210619212
 30
0.0
 10
112.4626440173062
 20
217.9712694103895
 30
0.0
 10
110.6208017239673
 20
218.9017794354094
 30
0.0
 10
108.704677386799
 20
219.5678787164739
 30
0.0
 10
107.0436171650206
 20
220.0046789852888
 30
0.0
 10
105.858194238844
 20
220.086898500467
 30
0.0
 10
105.3619199898109
 20
220.121319488327
 30
0.0
  0
SPLINE
  5
2C3
330
1F
100
AcDbEntity
  8
0
  6
Continuous
 62
     8
370
    25
100
AcDbSpline
210
0.0
220
0.0
230
1.0
 70
     8
 71
     3
 72
    15
 73
    11
 74
     0
 42
0.00000001
 43
0.00000001
 40
0.0
 40
0.0
 40
0.0
 40
0.0
 40
0.0803957008704438
 40
0.1766826074584115
 40
0.2039242566746036
 40
0.3578392287668995
 40
0.5121620453356797
 40
0.7318246702636547
 40
0.9516810719380087
 40
0.9999999999999999
 40
0.9999999999999999
 40
0.9999999999999999
 40
0.9999999999999999
 10
101.3564035009904
 20
220.0235555391295
 30
0.0
 10
100.8773764218328
 20
219.9410925714721
 30
0.0
 10
99.82463663012267
 20
219.759866809563
 30
0.0
 10
98.74821769960568
 20
219.4255744062816
 30
0.0
 10
97.37781048322312
 20
218.9311073247227
 30
0.0
 10
95.89572736766351
 20
218.2435642408702
 30
0.0
 10
93.98753106876448
 20
217.0534817417219
 30
0.0
 10
92.29871922116898
 20
215.6649176071622
 30
0.0
 10
91.2743322293535
 20
214.5920415147964
 30
0.0
 10
90.8267467234628
 20
214.0793424248236
 30
0.0
 10
90.74610227387086
 20
213.9869660288658
 30
0.0
  0
SPLINE
  5
2C4
330
1F
100
AcDbEntity
  8
0
  6
Continuous
 62
     8
370
    25
100
AcDbSpline
210
0.0
220
0.0
230
1.0
 70
     8
 71
     3
 72
    11
 73
     7
 74
     0
 42
0.00000001
 43
0.00000001
 40
0.0
 40
0.0
 40
0.0
 40
0.0
 40
0.2384242343747394
 40
0.5631992810121924
 40
0.8749383079173562
 40
1.0
 40
1.0
 40
1.0
 40
1.0
 10
111.8348560614437
 20
190.8543932222362
 30
0.0
 10
112.2495949279491
 20
191.128789970363
 30
0.0
 10
113.2292798665891
 20
191.7769625508994
 30
0.0
 10
114.7164553610155
 20
193.1757679666067
 30
0.0
 10
115.980689292301
 20
194.5585152451632
 30
0.0
 10
116.6053095901689
 20
195.6333715125202
 30
0.0
 10
116.7841464555055
 20
195.9411167558266
 30
0.0
  0
SPLINE
  5
2C5
330
1F
100
AcDbEntity
  8
0
  6
Continuous
 62
     8
370
    25
100
AcDbSpline
210
0.0
220
0.0
230
1.0
 70
     8
 71
     3
 72
    14
 73
    10
 74
     0
 42
0.00000001
 43
0.00000001
 40
0.0
 40
0.0
 40
0.0
 40
0.0
 40
0.1358230132789145
 40
0.3695071446669331
 40
0.4594971502947753
 40
0.5971536438226027
 40
0.7350064780889415
 40
0.8086715444742593
 40
0.9999999999999999
 40
0.9999999999999999
 40
0.9999999999999999
 40
0.9999999999999999
 10
118.4664647577435
 20
199.4210994112881
 30
0.0
 10
118.6283161920976
 20
199.9148405555329
 30
0.0
 10
119.0686337783791
 20
201.258065654212
 30
0.0
 10
119.3401843714544
 20
203.2349699488346
 30
0.0
 10
119.3770925488575
 20
205.2366741212632
 30
0.0
 10
119.2585150283155
 20
206.8181337332765
 30
0.0
 10
118.9994970071447
 20
208.2493402428069
 30
0.0
 10
118.5963924647303
 20
209.8041565678976
 30
0.0
 10
118.2344674871095
 20
210.7033067676904
 30
0.0
 10
117.973153374655
 20
211.3525038415335
 30
0.0
  0
SPLINE
  5
2C6
330
1F
100
AcDbEntity
  8
0
  6
Continuous
 62
     8
370
    25
100
AcDbSpline
210
0.0
220
0.0
230
1.0
 70
     8
 71
     3
 72
     9
 73
     5
 74
     0
 42
0.00000001
 43
0.00000001
 40
0.0
 40
0.0
 40
0.0
 40
0.0
 40
0.2699319459935881
 40
1.0
 40
1.0
 40
1.0
 40
1.0
 10
116.1441341198263
 20
214.4767437969821
 30
0.0
 10
115.9779533605864
 20
214.7225689114366
 30
0.0
 10
115.3623138940229
 20
215.6332618401661
 30
0.0
 10
114.6737122418027
 20
216.295891575236
 30
0.0
 10
114.1709861735806
 20
216.7796563764453
 30
0.0
  0
ARC
  5
2C7
330
1F
100
AcDbEntity
  8
0
  6
Continuous
 62
     8
370
    25
100
AcDbCircle
 10
103.9348560614
 20
204.7273746576
 30
0.0
 40
16.11469077681542
100
AcDbArc
 50
144.927984031
 51
240.6439119643
  0
ARC
  5
2C8
330
1F
100
AcDbEntity
  8
0
  6
Continuous
 62
     8
370
    25
100
AcDbCircle
 10
113.7039284255
 20
184.9938169078
 30
0.0
 40
6.027077813606185
100
AcDbArc
 50
69.4462127364
 51
108.0660123474
  0
LINE
  5
2C9
330
1F
100
AcDbEntity
  8
0
  6
Continuous
 62
     8
370
    25
100
AcDbLine
 10
129.2348560614
 20
272.2273746576
 30
0.0
 11
78.6348560614
 21
272.2273746576
 31
0.0
  0
LINE
  5
2CA
330
1F
100
AcDbEntity
  8
0
  6
Continuous
 62
     8
370
    25
100
AcDbLine
 10
128.9526365255
 20
268.5908168176
 30
0.0
 11
78.9170755974
 21
268.5908168176
 31
0.0
  0
LINE
  5
2CB
330
1F
100
AcDbEntity
  8
0
  6
Continuous
 62
     8
370
    25
100
AcDbLine
 10
78.6348560614
 20
269.0408964433
 30
0.0
 11
129.2348560614
 21
269.0408964433
 31
0.0
  0
LINE
  5
2CC
330
1F
100
AcDbEntity
  8
0
  6
Continuous
 62
     8
370
    25
100
AcDbLine
 10
86.8059779177
 20
264.7736060175
 30
0.0
 11
121.0637342052
 21
264.7736060175
 31
0.0
  0
SPLINE
  5
2CD
330
1F
100
AcDbEntity
  8
0
  6
Continuous
 62
     8
370
    25
100
AcDbSpline
210
0.0
220
0.0
230
1.0
 70
     8
 71
     3
 72
    10
 73
     6
 74
     0
 42
0.00000001
 43
0.00000001
 40
0.0
 40
0.0
 40
0.0
 40
0.0
 40
0.0003239112623432
 40
0.8869607452628511
 40
1.0
 40
1.0
 40
1.0
 40
1.0
 10
87.91230953192498
 20
263.2728092515293
 30
0.0
 10
87.9123037127348
 20
263.2728279068593
 30
0.0
 10
87.89636912245396
 20
263.3239114824611
 30
0.0
 10
87.93327221093759
 20
263.2279704248022
 30
0.0
 10
87.96272673048553
 20
263.1134449245699
 30
0.0
 10
87.96605732624133
 20
263.1004948527012
 30
0.0
  0
LINE
  5
2CE
330
1F
100
AcDbEntity
  8
0
  6
Continuous
 62
     8
370
    25
100
AcDbLine
 10
119.9036547966
 20
263.1004948527
 30
0.0
 11
119.9574032222
 21
263.2728112754
 31
0.0
  0
SPLINE
  5
2CF
330
1F
100
AcDbEntity
  8
0
  6
Continuous
 62
     8
370
    25
100
AcDbSpline
210
0.0
220
0.0
230
1.0
 70
     8
 71
     3
 72
    13
 73
     9
 74
     0
 42
0.00000001
 43
0.00000001
 40
0.0
 40
0.0
 40
0.0
 40
0.0
 40
0.0624921984852712
 40
0.280165255553228
 40
0.3469311675061709
 40
0.5028718320925426
 40
0.6630421850501997
 40
1.0
 40
1.0
 40
1.0
 40
1.0
 10
127.3117747879188
 20
220.2343325489438
 30
0.0
 10
127.3058210852253
 20
220.2311782959297
 30
0.0
 10
127.2791294232729
 20
220.217037137142
 30
0.0
 10
126.8427702353914
 20
219.9858167513557
 30
0.0
 10
126.0136722786511
 20
219.5499880539529
 30
0.0
 10
125.1058201174065
 20
219.0763080606388
 30
0.0
 10
123.2700099322643
 20
218.1274236303505
 30
0.0
 10
121.5767586231424
 20
217.2942199082511
 30
0.0
 10
120.4290580941536
 20
216.7294671468285
 30
0.0
  0
LINE
  5
2D0
330
1F
100
AcDbEntity
  8
0
  6
Continuous
 62
     8
370
    25
100
AcDbLine
 10
115.8199543319
 20
190.6372291145
 30
0.0
 11
115.8199543319
 21
188.9763319764
 31
0.0
  0
LINE
  5
2D1
330
1F
100
AcDbEntity
  8
0
  6
Continuous
 62
     8
370
    25
100
AcDbLine
 10
132.9348560614
 20
211.9561034215
 30
0.0
 11
133.0903798272
 21
211.8214165494
 31
0.0
  0
LINE
  5
2D2
330
1F
100
AcDbEntity
  8
0
  6
Continuous
 62
     8
370
    25
100
AcDbLine
 10
90.6147731581
 20
218.5709602266
 30
0.0
 11
90.8635856602
 21
218.5709602266
 31
0.0
  0
SPLINE
  5
2D3
330
1F
100
AcDbEntity
  8
0
  6
Continuous
 62
     8
370
    25
100
AcDbSpline
210
0.0
220
0.0
230
1.0
 70
     8
 71
     3
 72
    13
 73
     9
 74
     0
 42
0.00000001
 43
0.00000001
 40
0.0
 40
0.0
 40
0.0
 40
0.0
 40
0.3303824594534193
 40
0.4871650594317135
 40
0.6474432086157422
 40
0.862099484333404
 40
0.9364418460707512
 40
0.9999999999999999
 40
0.9999999999999999
 40
0.9999999999999999
 40
0.9999999999999999
 10
113.5195526984847
 20
224.6258040201211
 30
0.0
 10
114.1889213465513
 20
225.56910176346
 30
0.0
 10
115.1759380839308
 20
226.9600403198099
 30
0.0
 10
116.2348396592589
 20
228.5244341667519
 30
0.0
 10
116.9709605003212
 20
229.6219945721798
 30
0.0
 10
117.3598507987033
 20
230.2092656670332
 30
0.0
 10
117.5310815686113
 20
230.4681716540928
 30
0.0
 10
117.4953942039906
 20
230.4142197298214
 30
0.0
 10
117.4789459477754
 20
230.3893533637236
 30
0.0
  0
LINE
  5
2D4
330
1F
100
AcDbEntity
  8
0
  6
Continuous
 62
     8
370
    25
100
AcDbLine
 10
90.2665983708
 20
247.000489867
 30
0.0
 11
89.957442993
 21
247.000489867
 31
0.0
  0
LINE
  5
2D5
330
1F
100
AcDbEntity
  8
0
  6
Continuous
 62
     8
370
    25
100
AcDbLine
 10
117.9122691299
 20
247.000489867
 30
0.0
 11
117.6031137521
 21
247.000489867
 31
0.0
  0
ARC
  5
2D6
330
1F
100
AcDbEntity
  8
0
  6
Continuous
 62
     8
370
    25
100
AcDbCircle
 10
111.820975248
 20
184.3014168415
 30
0.0
 40
5.860672405005969
100
AcDbArc
 50
74.7523207299
 51
89.864296668
  0
LINE
  5
2D7
330
1F
100
AcDbEntity
  8
0
  6
Continuous
 62
     8
370
    25
100
AcDbLine
 10
111.8348560614
 20
189.5443351102
 30
0.0
 11
113.3622860029
 21
189.9557817215
 31
0.0
  0
ARC
  5
2D8
330
1F
100
AcDbEntity
  8
0
  6
Continuous
 62
     8
370
    25
100
AcDbCircle
 10
103.9348560614
 20
204.7273746576
 30
0.0
 40
16.76373439777595
100
AcDbArc
 50
149.2515511975
 51
241.8841832281
  0
LINE
  5
2D9
330
1F
100
AcDbEntity
  8
0
  6
Continuous
 62
     8
370
    25
100
AcDbLine
 10
89.5277631926
 20
213.2981661046
 30
0.0
 11
89.253523221
 21
213.2981661046
 31
0.0
  0
LINE
  5
2DA
330
1F
100
AcDbEntity
  8
0
  6
Continuous
 62
     8
370
    25
100
AcDbLine
 10
121.9459630604
 20
260.4773746576
 30
0.0
 11
121.5440392717
 21
260.4773746576
 31
0.0
  0
LINE
  5
2DB
330
1F
100
AcDbEntity
  8
0
  6
Continuous
 62
     8
370
    25
100
AcDbLine
 10
121.5440392717
 20
249.7273746576
 30
0.0
 11
121.9459630604
 21
249.7273746576
 31
0.0
  0
LINE
  5
2DC
330
1F
100
AcDbEntity
  8
0
  6
Continuous
 62
     8
370
    25
100
AcDbLine
 10
86.3256728512
 20
260.4773746576
 30
0.0
 11
85.9237490625
 21
260.4773746576
 31
0.0
  0
LINE
  5
2DD
330
1F
100
AcDbEntity
  8
0
  6
Continuous
 62
     8
370
    25
100
AcDbLine
 10
85.9237490625
 20
249.7273746576
 30
0.0
 11
86.3256728512
 21
249.7273746576
 31
0.0
  0
LINE
  5
2DE
330
1F
100
AcDbEntity
  8
0
  6
Continuous
 62
     8
370
    25
100
AcDbLine
 10
87.2869846325
 20
262.1061579015
 30
0.0
 11
87.1965819168
 21
262.1608717148
 31
0.0
  0
SPLINE
  5
2DF
330
1F
100
AcDbEntity
  8
0
  6
Continuous
 62
     8
370
    25
100
AcDbSpline
210
0.0
220
0.0
230
1.0
 70
    24
 71
     3
 72
     9
 73
     5
 74
     0
 42
0.00000001
 43
0.00000001
 40
0.0
 40
0.0
 40
0.0
 40
0.0
 40
0.0011254209461464
 40
1.0
 40
1.0
 40
1.0
 40
1.0
 10
120.6732450456267
 20
262.16094121838
 30
0.0
 10
120.6732791173166
 20
262.1609618393544
 30
0.0
 10
120.7035537358951
 20
262.1792847383728
 30
0.0
 10
120.6431065989024
 20
262.1427007337136
 30
0.0
 10
120.5827274903839
 20
262.1061579014597
 30
0.0
  0
ENDSEC
  0
SECTION
  2
OBJECTS
  0
DICTIONARY
  5
C
330
0
100
AcDbDictionary
281
     1
  3
ACAD_GROUP
350
D
  3
ACAD_LAYOUT
350
1A
  3
ACAD_MLINESTYLE
350
17
  3
ACAD_PLOTSETTINGS
350
19
  3
ACAD_PLOTSTYLENAME
350
E
  3
ACAD_SCALELIST
350
47
  3
DWGPROPS
350
2E0
  0
DICTIONARY
  5
D
102
{ACAD_REACTORS
330
C
102
}
330
C
100
AcDbDictionary
281
     1
  0
DICTIONARY
  5
1A
102
{ACAD_REACTORS
330
C
102
}
330
C
100
AcDbDictionary
281
     1
  3
Layout1
350
1E
  3
Layout2
350
26
  3
Model
350
22
  0
DICTIONARY
  5
17
102
{ACAD_REACTORS
330
C
102
}
330
C
100
AcDbDictionary
281
     1
  3
Standard
350
18
  0
DICTIONARY
  5
19
102
{ACAD_REACTORS
330
C
102
}
330
C
100
AcDbDictionary
281
     1
  0
ACDBDICTIONARYWDFLT
  5
E
102
{ACAD_REACTORS
330
C
102
}
330
C
100
AcDbDictionary
281
     1
  3
Normal
350
F
100
AcDbDictionaryWithDefault
340
F
  0
DICTIONARY
  5
47
102
{ACAD_REACTORS
330
C
102
}
330
C
100
AcDbDictionary
281
     1
  3
A0
350
48
  3
A1
350
49
  3
A2
350
4A
  3
A3
350
4B
  3
A4
350
4C
  3
A5
350
4D
  3
A6
350
4E
  3
A7
350
4F
  3
A8
350
50
  3
A9
350
51
  3
B0
350
52
  3
B1
350
53
  3
B2
350
54
  3
B3
350
55
  3
B4
350
56
  3
B5
350
57
  3
B6
350
58
  3
B7
350
59
  3
B8
350
5A
  3
B9
350
5B
  3
C0
350
5C
  3
C1
350
5D
  3
C2
350
5E
  3
C3
350
5F
  3
C4
350
60
  3
C5
350
61
  3
C6
350
62
  3
C7
350
63
  3
C8
350
64
  3
C9
350
65
  3
D0
350
66
  3
D1
350
67
  3
D2
350
68
  0
XRECORD
  5
2E0
102
{ACAD_REACTORS
330
C
102
}
330
C
100
AcDbXrecord
280
     1
  1
DWGPROPS COOKIE
  2

  3

  4

  6

  7

  8
vishesh
  9

300
=
301
=
302
=
303
=
304
=
305
=
306
=
307
=
308
=
309
=
 40
0.0
 41
2460383.498812037
 42
2460383.4988125
  1

 90
        0
  0
LAYOUT
  5
1E
102
{ACAD_REACTORS
330
1A
102
}
330
1A
100
AcDbPlotSettings
  1

  2
none_device
  4

  6

 40
0.0
 41
0.0
 42
0.0
 43
0.0
 44
0.0
 45
0.0
 46
0.0
 47
0.0
 48
0.0
 49
0.0
140
0.0
141
0.0
142
1.0
143
1.0
 70
   688
 72
     1
 73
     0
 74
     5
  7

 75
    16
147
1.0
148
0.0
149
0.0
100
AcDbLayout
  1
Layout1
 70
     1
 71
     1
 10
0.0
 20
0.0
 11
420.0
 21
297.0
 12
0.0
 22
0.0
 32
0.0
 14
1.0000000000E+20
 24
1.0000000000E+20
 34
1.0000000000E+20
 15
-1.0000000000E+20
 25
-1.0000000000E+20
 35
-1.0000000000E+20
146
0.0
 13
0.0
 23
0.0
 33
0.0
 16
1.0
 26
0.0
 36
0.0
 17
0.0
 27
1.0
 37
0.0
 76
     0
330
1B
  0
LAYOUT
  5
26
102
{ACAD_REACTORS
330
1A
102
}
330
1A
100
AcDbPlotSettings
  1

  2
none_device
  4

  6

 40
0.0
 41
0.0
 42
0.0
 43
0.0
 44
0.0
 45
0.0
 46
0.0
 47
0.0
 48
0.0
 49
0.0
140
0.0
141
0.0
142
1.0
143
1.0
 70
   688
 72
     1
 73
     0
 74
     5
  7

 75
    16
147
1.0
148
0.0
149
0.0
100
AcDbLayout
  1
Layout2
 70
     1
 71
     2
 10
0.0
 20
0.0
 11
0.0
 21
0.0
 12
0.0
 22
0.0
 32
0.0
 14
0.0
 24
0.0
 34
0.0
 15
0.0
 25
0.0
 35
0.0
146
0.0
 13
0.0
 23
0.0
 33
0.0
 16
1.0
 26
0.0
 36
0.0
 17
0.0
 27
1.0
 37
0.0
 76
     0
330
23
  0
LAYOUT
  5
22
102
{ACAD_REACTORS
330
1A
102
}
330
1A
100
AcDbPlotSettings
  1

  2
none_device
  4
Letter_(8.50_x_11.00_Inches)
  6

 40
6.35
 41
6.35
 42
6.35000508
 43
6.35000508
 44
215.9
 45
279.4
 46
0.0
 47
0.0
 48
0.0
 49
0.0
140
0.0
141
0.0
142
1.0
143
1.0
 70
  1712
 72
     1
 73
     0
 74
     0
  7

 75
     0
147
1.0
148
0.0
149
0.0
100
AcDbLayout
  1
Model
 70
     1
 71
     0
 10
0.0
 20
0.0
 11
279.4
 21
215.9
 12
0.0
 22
0.0
 32
0.0
 14
0.0
 24
0.0
 34
0.0
 15
279.4
 25
215.9
 35
0.0
146
0.0
 13
0.0
 23
0.0
 33
0.0
 16
1.0
 26
0.0
 36
0.0
 17
0.0
 27
1.0
 37
0.0
 76
     0
330
1F
331
29
  0
MLINESTYLE
  5
18
102
{ACAD_REACTORS
330
17
102
}
330
17
100
AcDbMlineStyle
  2
Standard
 70
     0
  3

 62
   256
 51
90.0
 52
90.0
 71
     2
 49
0.5
 62
   256
  6
BYLAYER
 49
-0.5
 62
   256
  6
BYLAYER
  0
ACDBPLACEHOLDER
  5
F
102
{ACAD_REACTORS
330
E
102
}
330
E
  0
SCALE
  5
48
102
{ACAD_REACTORS
330
47
102
}
330
47
100
AcDbScale
 70
     0
300
1:1
140
1.0
141
1.0
290
     1
  0
SCALE
  5
49
102
{ACAD_REACTORS
330
47
102
}
330
47
100
AcDbScale
 70
     0
300
1:2
140
1.0
141
2.0
290
     0
  0
SCALE
  5
4A
102
{ACAD_REACTORS
330
47
102
}
330
47
100
AcDbScale
 70
     0
300
1:4
140
1.0
141
4.0
290
     0
  0
SCALE
  5
4B
102
{ACAD_REACTORS
330
47
102
}
330
47
100
AcDbScale
 70
     0
300
1:5
140
1.0
141
5.0
290
     0
  0
SCALE
  5
4C
102
{ACAD_REACTORS
330
47
102
}
330
47
100
AcDbScale
 70
     0
300
1:8
140
1.0
141
8.0
290
     0
  0
SCALE
  5
4D
102
{ACAD_REACTORS
330
47
102
}
330
47
100
AcDbScale
 70
     0
300
1:10
140
1.0
141
10.0
290
     0
  0
SCALE
  5
4E
102
{ACAD_REACTORS
330
47
102
}
330
47
100
AcDbScale
 70
     0
300
1:16
140
1.0
141
16.0
290
     0
  0
SCALE
  5
4F
102
{ACAD_REACTORS
330
47
102
}
330
47
100
AcDbScale
 70
     0
300
1:20
140
1.0
141
20.0
290
     0
  0
SCALE
  5
50
102
{ACAD_REACTORS
330
47
102
}
330
47
100
AcDbScale
 70
     0
300
1:30
140
1.0
141
30.0
290
     0
  0
SCALE
  5
51
102
{ACAD_REACTORS
330
47
102
}
330
47
100
AcDbScale
 70
     0
300
1:40
140
1.0
141
40.0
290
     0
  0
SCALE
  5
52
102
{ACAD_REACTORS
330
47
102
}
330
47
100
AcDbScale
 70
     0
300
1:50
140
1.0
141
50.0
290
     0
  0
SCALE
  5
53
102
{ACAD_REACTORS
330
47
102
}
330
47
100
AcDbScale
 70
     0
300
1:100
140
1.0
141
100.0
290
     0
  0
SCALE
  5
54
102
{ACAD_REACTORS
330
47
102
}
330
47
100
AcDbScale
 70
     0
300
2:1
140
2.0
141
1.0
290
     0
  0
SCALE
  5
55
102
{ACAD_REACTORS
330
47
102
}
330
47
100
AcDbScale
 70
     0
300
4:1
140
4.0
141
1.0
290
     0
  0
SCALE
  5
56
102
{ACAD_REACTORS
330
47
102
}
330
47
100
AcDbScale
 70
     0
300
8:1
140
8.0
141
1.0
290
     0
  0
SCALE
  5
57
102
{ACAD_REACTORS
330
47
102
}
330
47
100
AcDbScale
 70
     0
300
10:1
140
10.0
141
1.0
290
     0
  0
SCALE
  5
58
102
{ACAD_REACTORS
330
47
102
}
330
47
100
AcDbScale
 70
     0
300
100:1
140
100.0
141
1.0
290
     0
  0
SCALE
  5
59
102
{ACAD_REACTORS
330
47
102
}
330
47
100
AcDbScale
 70
     0
300
1/128" = 1'-0"
140
0.0078125
141
12.0
290
     0
  0
SCALE
  5
5A
102
{ACAD_REACTORS
330
47
102
}
330
47
100
AcDbScale
 70
     0
300
1/64" = 1'-0"
140
0.015625
141
12.0
290
     0
  0
SCALE
  5
5B
102
{ACAD_REACTORS
330
47
102
}
330
47
100
AcDbScale
 70
     0
300
1/32" = 1'-0"
140
0.03125
141
12.0
290
     0
  0
SCALE
  5
5C
102
{ACAD_REACTORS
330
47
102
}
330
47
100
AcDbScale
 70
     0
300
1/16" = 1'-0"
140
0.0625
141
12.0
290
     0
  0
SCALE
  5
5D
102
{ACAD_REACTORS
330
47
102
}
330
47
100
AcDbScale
 70
     0
300
3/32" = 1'-0"
140
0.09375
141
12.0
290
     0
  0
SCALE
  5
5E
102
{ACAD_REACTORS
330
47
102
}
330
47
100
AcDbScale
 70
     0
300
1/8" = 1'-0"
140
0.125
141
12.0
290
     0
  0
SCALE
  5
5F
102
{ACAD_REACTORS
330
47
102
}
330
47
100
AcDbScale
 70
     0
300
3/16" = 1'-0"
140
0.1875
141
12.0
290
     0
  0
SCALE
  5
60
102
{ACAD_REACTORS
330
47
102
}
330
47
100
AcDbScale
 70
     0
300
1/4" = 1'-0"
140
0.25
141
12.0
290
     0
  0
SCALE
  5
61
102
{ACAD_REACTORS
330
47
102
}
330
47
100
AcDbScale
 70
     0
300
3/8" = 1'-0"
140
0.375
141
12.0
290
     0
  0
SCALE
  5
62
102
{ACAD_REACTORS
330
47
102
}
330
47
100
AcDbScale
 70
     0
300
1/2" = 1'-0"
140
0.5
141
12.0
290
     0
  0
SCALE
  5
63
102
{ACAD_REACTORS
330
47
102
}
330
47
100
AcDbScale
 70
     0
300
3/4" = 1'-0"
140
0.75
141
12.0
290
     0
  0
SCALE
  5
64
102
{ACAD_REACTORS
330
47
102
}
330
47
100
AcDbScale
 70
     0
300
1" = 1'-0"
140
1.0
141
12.0
290
     0
  0
SCALE
  5
65
102
{ACAD_REACTORS
330
47
102
}
330
47
100
AcDbScale
 70
     0
300
1-1/2" = 1'-0"
140
1.5
141
12.0
290
     0
  0
SCALE
  5
66
102
{ACAD_REACTORS
330
47
102
}
330
47
100
AcDbScale
 70
     0
300
3" = 1'-0"
140
3.0
141
12.0
290
     0
  0
SCALE
  5
67
102
{ACAD_REACTORS
330
47
102
}
330
47
100
AcDbScale
 70
     0
300
6" = 1'-0"
140
6.0
141
12.0
290
     0
  0
SCALE
  5
68
102
{ACAD_REACTORS
330
47
102
}
330
47
100
AcDbScale
 70
     0
300
1'-0" = 1'-0"
140
12.0
141
12.0
290
     0
  0
ENDSEC
  0
EOF
