  0
SECTION
  2
HEADER
  9
$ACADVER
  1
AC1015
  9
$ACADMAINTVER
 70
     6
  9
$DWGCODEPAGE
  3
ANSI_1252
  9
$INSBASE
 10
0.0
 20
0.0
 30
0.0
  9
$EXTMIN
 10
0.0
 20
0.0
 30
0.0
  9
$EXTMAX
 10
279.4
 20
215.9
 30
0.0
  9
$LIMMIN
 10
0.0
 20
0.0
  9
$LIMMAX
 10
279.4
 20
215.9
  9
$ORTHOMODE
 70
     0
  9
$REGENMODE
 70
     1
  9
$FILLMODE
 70
     1
  9
$QTEXTMODE
 70
     0
  9
$MIRRTEXT
 70
     1
  9
$LTSCALE
 40
1.0
  9
$ATTMODE
 70
     1
  9
$TEXTSIZE
 40
3.5277777778
  9
$TRACEWID
 40
1.0
  9
$TEXTSTYLE
  7
Standard
  9
$CLAYER
  8
0
  9
$CELTYPE
  6
ByLayer
  9
$CECOLOR
 62
   256
  9
$CELTSCALE
 40
1.0
  9
$DISPSILH
 70
     0
  9
$DIMSCALE
 40
1.0
  9
$DIMASZ
 40
3.556
  9
$DIMEXO
 40
1.0
  9
$DIMDLI
 40
3.75
  9
$DIMRND
 40
0.0
  9
$DIMDLE
 40
0.0
  9
$DIMEXE
 40
1.0
  9
$DIMTP
 40
0.0
  9
$DIMTM
 40
0.0
  9
$DIMTXT
 40
3.5277777778
  9
$DIMCEN
 40
2.5
  9
$DIMTSZ
 40
0.0
  9
$DIMTOL
 70
     0
  9
$DIMLIM
 70
     0
  9
$DIMTIH
 70
     1
  9
$DIMTOH
 70
     1
  9
$DIMSE1
 70
     0
  9
$DIMSE2
 70
     0
  9
$DIMTAD
 70
     1
  9
$DIMZIN
 70
     0
  9
$DIMBLK
  1

  9
$DIMASO
 70
     1
  9
$DIMSHO
 70
     1
  9
$DIMPOST
  1

  9
$DIMAPOST
  1

  9
$DIMALT
 70
     0
  9
$DIMALTD
 70
     3
  9
$DIMALTF
 40
0.0393700787
  9
$DIMLFAC
 40
2.0
  9
$DIMTOFL
 70
     1
  9
$DIMTVP
 40
0.0
  9
$DIMTIX
 70
     0
  9
$DIMSOXD
 70
     0
  9
$DIMSAH
 70
     0
  9
$DIMBLK1
  1

  9
$DIMBLK2
  1

  9
$DIMSTYLE
  2
ISO-25
  9
$DIMCLRD
 70
     0
  9
$DIMCLRE
 70
     0
  9
$DIMCLRT
 70
     0
  9
$DIMTFAC
 40
1.0
  9
$DIMGAP
 40
1.524
  9
$DIMJUST
 70
     0
  9
$DIMSD1
 70
     0
  9
$DIMSD2
 70
     0
  9
$DIMTOLJ
 70
     0
  9
$DIMTZIN
 70
     0
  9
$DIMALTZ
 70
     0
  9
$DIMALTTZ
 70
     0
  9
$DIMUPT
 70
     0
  9
$DIMDEC
 70
     2
  9
$DIMTDEC
 70
     2
  9
$DIMALTU
 70
     2
  9
$DIMALTTD
 70
     3
  9
$DIMTXSTY
  7
Standard
  9
$DIMAUNIT
 70
     0
  9
$DIMADEC
 70
     2
  9
$DIMALTRND
 40
0.0
  9
$DIMAZIN
 70
     0
  9
$DIMDSEP
 70
    44
  9
$DIMATFIT
 70
     3
  9
$DIMFRAC
 70
     0
  9
$DIMLDRBLK
  1

  9
$DIMLUNIT
 70
     2
  9
$DIMLWD
 70
    -2
  9
$DIMLWE
 70
    -2
  9
$DIMTMOVE
 70
     0
  9
$LUNITS
 70
     2
  9
$LUPREC
 70
     2
  9
$SKETCHINC
 40
1.0
  9
$FILLETRAD
 40
10.0
  9
$AUNITS
 70
     0
  9
$AUPREC
 70
     2
  9
$MENU
  1
.
  9
$ELEVATION
 40
0.0
  9
$PELEVATION
 40
0.0
  9
$THICKNESS
 40
0.0
  9
$LIMCHECK
 70
     0
  9
$CHAMFERA
 40
0.0
  9
$CHAMFERB
 40
0.0
  9
$CHAMFERC
 40
0.0
  9
$CHAMFERD
 40
0.0
  9
$SKPOLY
 70
     0
  9
$TDCREATE
 40
2460384.393459792
  9
$TDUCREATE
 40
2460384.164293125
  9
$TDUPDATE
 40
2460384.393460231
  9
$TDUUPDATE
 40
2460384.164293565
  9
$TDINDWG
 40
0.0000000116
  9
$TDUSRTIMER
 40
0.0000000116
  9
$USRTIMER
 70
     1
  9
$ANGBASE
 50
0.0
  9
$ANGDIR
 70
     0
  9
$PDMODE
 70
     0
  9
$PDSIZE
 40
-1.0
  9
$PLINEWID
 40
0.0
  9
$SPLFRAME
 70
     0
  9
$SPLINETYPE
 70
     6
  9
$SPLINESEGS
 70
     8
  9
$HANDSEED
  5
219
  9
$SURFTAB1
 70
     6
  9
$SURFTAB2
 70
     6
  9
$SURFTYPE
 70
     6
  9
$SURFU
 70
     6
  9
$SURFV
 70
     6
  9
$UCSBASE
  2

  9
$UCSNAME
  2

  9
$UCSORG
 10
0.0
 20
0.0
 30
0.0
  9
$UCSXDIR
 10
1.0
 20
0.0
 30
0.0
  9
$UCSYDIR
 10
0.0
 20
1.0
 30
0.0
  9
$UCSORTHOREF
  2

  9
$UCSORTHOVIEW
 70
     0
  9
$UCSORGTOP
 10
0.0
 20
0.0
 30
0.0
  9
$UCSORGBOTTOM
 10
0.0
 20
0.0
 30
0.0
  9
$UCSORGLEFT
 10
0.0
 20
0.0
 30
0.0
  9
$UCSORGRIGHT
 10
0.0
 20
0.0
 30
0.0
  9
$UCSORGFRONT
 10
0.0
 20
0.0
 30
0.0
  9
$UCSORGBACK
 10
0.0
 20
0.0
 30
0.0
  9
$PUCSBASE
  2

  9
$PUCSNAME
  2

  9
$PUCSORG
 10
0.0
 20
0.0
 30
0.0
  9
$PUCSXDIR
 10
1.0
 20
0.0
 30
0.0
  9
$PUCSYDIR
 10
0.0
 20
1.0
 30
0.0
  9
$PUCSORTHOREF
  2

  9
$PUCSORTHOVIEW
 70
     0
  9
$PUCSORGTOP
 10
0.0
 20
0.0
 30
0.0
  9
$PUCSORGBOTTOM
 10
0.0
 20
0.0
 30
0.0
  9
$PUCSORGLEFT
 10
0.0
 20
0.0
 30
0.0
  9
$PUCSORGRIGHT
 10
0.0
 20
0.0
 30
0.0
  9
$PUCSORGFRONT
 10
0.0
 20
0.0
 30
0.0
  9
$PUCSORGBACK
 10
0.0
 20
0.0
 30
0.0
  9
$USERI1
 70
     0
  9
$USERI2
 70
     0
  9
$USERI3
 70
     0
  9
$USERI4
 70
     0
  9
$USERI5
 70
     0
  9
$USERR1
 40
0.0
  9
$USERR2
 40
0.0
  9
$USERR3
 40
0.0
  9
$USERR4
 40
0.0
  9
$USERR5
 40
0.0
  9
$WORLDVIEW
 70
     1
  9
$SHADEDGE
 70
     3
  9
$SHADEDIF
 70
    70
  9
$TILEMODE
 70
     1
  9
$MAXACTVP
 70
    64
  9
$PINSBASE
 10
0.0
 20
0.0
 30
0.0
  9
$PLIMCHECK
 70
     0
  9
$PEXTMIN
 10
1.0000000000E+20
 20
1.0000000000E+20
 30
1.0000000000E+20
  9
$PEXTMAX
 10
-1.0000000000E+20
 20
-1.0000000000E+20
 30
-1.0000000000E+20
  9
$PLIMMIN
 10
0.0
 20
0.0
  9
$PLIMMAX
 10
420.0
 20
297.0
  9
$UNITMODE
 70
     0
  9
$VISRETAIN
 70
     1
  9
$PLINEGEN
 70
     0
  9
$PSLTSCALE
 70
     1
  9
$TREEDEPTH
 70
  3020
  9
$CMLSTYLE
  2
Standard
  9
$CMLJUST
 70
     0
  9
$CMLSCALE
 40
20.0
  9
$PROXYGRAPHICS
 70
     1
  9
$MEASUREMENT
 70
     1
  9
$CELWEIGHT
370
    -1
  9
$ENDCAPS
280
     0
  9
$JOINSTYLE
280
     0
  9
$LWDISPLAY
290
     1
  9
$INSUNITS
 70
     4
  9
$HYPERLINKBASE
  1

  9
$STYLESHEET
  1

  9
$XEDIT
290
     1
  9
$CEPSNTYPE
380
     0
  9
$PSTYLEMODE
290
     1
  9
$FINGERPRINTGUID
  2
{48b99c99-d095-411e-9bdc-6f85a49b19fd}
  9
$VERSIONGUID
  2
{FAEB1C32-E019-11D5-929B-00C0DF256EC4}
  9
$EXTNAMES
290
     1
  9
$PSVPSCALE
 40
0.0
  9
$OLESTARTUP
290
     0
  0
ENDSEC
  0
SECTION
  2
CLASSES
  0
CLASS
  1
ACDBDICTIONARYWDFLT
  2
AcDbDictionaryWithDefault
  3
ObjectDBX Classes
 90
        0
280
     0
281
     0
  0
CLASS
  1
VISUALSTYLE
  2
AcDbVisualStyle
  3
ObjectDBX Classes
 90
     4095
280
     0
281
     0
  0
CLASS
  1
MATERIAL
  2
AcDbMaterial
  3
ObjectDBX Classes
 90
     1153
280
     0
281
     0
  0
CLASS
  1
SCALE
  2
AcDbScale
  3
ObjectDBX Classes
 90
     1153
280
     0
281
     0
  0
CLASS
  1
TABLESTYLE
  2
AcDbTableStyle
  3
ObjectDBX Classes
 90
     4095
280
     0
281
     0
  0
CLASS
  1
MLEADERSTYLE
  2
AcDbMLeaderStyle
  3
ACDB_MLEADERSTYLE_CLASS
 90
     4095
280
     0
281
     0
  0
CLASS
  1
SUN
  2
AcDbSun
  3
SCENEOE
 90
     1153
280
     0
281
     0
  0
CLASS
  1
ACDBPLACEHOLDER
  2
AcDbPlaceHolder
  3
ObjectDBX Classes
 90
        0
280
     0
281
     0
  0
CLASS
  1
LAYOUT
  2
AcDbLayout
  3
ObjectDBX Classes
 90
        0
280
     0
281
     0
  0
ENDSEC
  0
SECTION
  2
TABLES
  0
TABLE
  2
VPORT
  5
8
330
0
100
AcDbSymbolTable
 70
     1
  0
VPORT
  5
29
330
8
100
AcDbSymbolTableRecord
100
AcDbViewportTableRecord
  2
*Active
 70
     0
 10
0.0
 20
0.0
 11
1.0
 21
1.0
 12
139.7
 22
107.95
 13
0.0
 23
0.0
 14
10.0
 24
10.0
 15
10.0
 25
10.0
 16
0.0
 26
0.0
 36
1.0
 17
0.0
 27
0.0
 37
0.0
 40
215.9
 41
1.2941176471
 42
50.0
 43
0.0
 44
0.0
 50
0.0
 51
0.0
 71
     0
 72
  2000
 73
     1
 74
     3
 75
     0
 76
     0
 77
     0
 78
     0
281
     0
 65
     1
110
0.0
120
0.0
130
0.0
111
1.0
121
0.0
131
0.0
112
0.0
122
1.0
132
0.0
 79
     0
146
0.0
  0
ENDTAB
  0
TABLE
  2
LTYPE
  5
5
330
0
100
AcDbSymbolTable
 70
     6
  0
LTYPE
  5
14
330
5
100
AcDbSymbolTableRecord
100
AcDbLinetypeTableRecord
  2
ByBlock
 70
     0
  3

 72
    65
 73
     0
 40
0.0
  0
LTYPE
  5
15
330
5
100
AcDbSymbolTableRecord
100
AcDbLinetypeTableRecord
  2
ByLayer
 70
     0
  3

 72
    65
 73
     0
 40
0.0
  0
LTYPE
  5
16
330
5
100
AcDbSymbolTableRecord
100
AcDbLinetypeTableRecord
  2
Continuous
 70
     0
  3
Solid line
 72
    65
 73
     0
 40
0.0
  0
LTYPE
  5
6E
330
5
100
AcDbSymbolTableRecord
100
AcDbLinetypeTableRecord
  2
HIDDEN
 70
     0
  3
Hidden __ __ __ __ __ __ __ __ __ __ __ __ __ __
 72
    65
 73
     2
 40
1.905
 49
1.27
 74
     0
 49
-0.635
 74
     0
  0
LTYPE
  5
6F
330
5
100
AcDbSymbolTableRecord
100
AcDbLinetypeTableRecord
  2
PHANTOM
 70
     0
  3
Phantom ______  __  __  ______  __  __  ______
 72
    65
 73
     6
 40
12.7
 49
6.35
 74
     0
 49
-1.27
 74
     0
 49
1.27
 74
     0
 49
-1.27
 74
     0
 49
1.27
 74
     0
 49
-1.27
 74
     0
  0
LTYPE
  5
70
330
5
100
AcDbSymbolTableRecord
100
AcDbLinetypeTableRecord
  2
CENTER
 70
     0
  3
Center ____ _ ____ _ ____ _ ____ _ ____ _ ____
 72
    65
 73
     4
 40
10.16
 49
6.35
 74
     0
 49
-1.27
 74
     0
 49
1.27
 74
     0
 49
-1.27
 74
     0
  0
LTYPE
  5
71
330
5
100
AcDbSymbolTableRecord
100
AcDbLinetypeTableRecord
  2
CENTERX2
 70
     0
  3
Center (2x) ________  __  ________  __  _____
 72
    65
 73
     4
 40
20.32
 49
12.7
 74
     0
 49
-2.54
 74
     0
 49
2.54
 74
     0
 49
-2.54
 74
     0
  0
LTYPE
  5
72
330
5
100
AcDbSymbolTableRecord
100
AcDbLinetypeTableRecord
  2
DOT2
 70
     0
  3
Dot (.5x) ........................................
 72
    65
 73
     2
 40
0.635
 49
0.0
 74
     0
 49
-0.635
 74
     0
  0
ENDTAB
  0
TABLE
  2
LAYER
  5
2
330
0
100
AcDbSymbolTable
 70
     4
  0
LAYER
  5
10
330
2
100
AcDbSymbolTableRecord
100
AcDbLayerTableRecord
  2
0
 70
     0
 62
     7
  6
Continuous
370
    -3
390
F
  0
LAYER
  5
73
330
2
100
AcDbSymbolTableRecord
100
AcDbLayerTableRecord
  2
FORMAT
 70
     0
 62
     7
  6
Continuous
370
    -3
390
F
  0
LAYER
  5
74
330
2
100
AcDbSymbolTableRecord
100
AcDbLayerTableRecord
  2
OUT_LINE
 70
     0
 62
     7
  6
Continuous
370
    50
390
F
  0
LAYER
  5
75
330
2
100
AcDbSymbolTableRecord
100
AcDbLayerTableRecord
  2
WATERMARK
 70
     0
 62
   254
  6
Continuous
370
    -3
390
F
  0
ENDTAB
  0
TABLE
  2
STYLE
  5
3
330
0
100
AcDbSymbolTable
 70
     1
  0
STYLE
  5
11
330
3
100
AcDbSymbolTableRecord
100
AcDbTextStyleTableRecord
  2
Standard
 70
     0
 40
0.0
 41
1.0
 50
0.0
 71
     0
 42
3.5277777778
  3
txt
  4

  0
ENDTAB
  0
TABLE
  2
VIEW
  5
6
330
0
100
AcDbSymbolTable
 70
     0
  0
ENDTAB
  0
TABLE
  2
UCS
  5
7
330
0
100
AcDbSymbolTable
 70
     0
  0
ENDTAB
  0
TABLE
  2
APPID
  5
9
330
0
100
AcDbSymbolTable
 70
     1
  0
APPID
  5
12
330
9
100
AcDbSymbolTableRecord
100
AcDbRegAppTableRecord
  2
ACAD
 70
     0
  0
ENDTAB
  0
TABLE
  2
DIMSTYLE
  5
A
330
0
100
AcDbSymbolTable
 70
     1
100
AcDbDimStyleTable
  0
DIMSTYLE
105
27
330
A
100
AcDbSymbolTableRecord
100
AcDbDimStyleTableRecord
  2
ISO-25
 70
     0
 41
2.5
 42
0.625
 43
3.75
 44
1.25
 73
     0
 74
     0
 77
     1
 78
     8
140
2.5
141
2.5
143
0.0393700787
147
0.625
171
     3
172
     1
178
     0
271
     2
272
     2
274
     3
278
    44
283
     0
284
     8
340
11
  0
ENDTAB
  0
TABLE
  2
BLOCK_RECORD
  5
1
330
0
100
AcDbSymbolTable
 70
     7
  0
BLOCK_RECORD
  5
1F
330
1
100
AcDbSymbolTableRecord
100
AcDbBlockTableRecord
  2
*Model_Space
340
22
  0
BLOCK_RECORD
  5
1B
330
1
100
AcDbSymbolTableRecord
100
AcDbBlockTableRecord
  2
*Paper_Space
340
1E
  0
BLOCK_RECORD
  5
23
330
1
100
AcDbSymbolTableRecord
100
AcDbBlockTableRecord
  2
*Paper_Space0
340
26
  0
BLOCK_RECORD
  5
76
330
1
100
AcDbSymbolTableRecord
100
AcDbBlockTableRecord
  2
Block6
340
0
  0
BLOCK_RECORD
  5
7B
330
1
100
AcDbSymbolTableRecord
100
AcDbBlockTableRecord
  2
Block4
340
0
  0
BLOCK_RECORD
  5
7F
330
1
100
AcDbSymbolTableRecord
100
AcDbBlockTableRecord
  2
Block5
340
0
  0
BLOCK_RECORD
  5
8D
330
1
100
AcDbSymbolTableRecord
100
AcDbBlockTableRecord
  2
Block2
340
0
  0
BLOCK_RECORD
  5
98
330
1
100
AcDbSymbolTableRecord
100
AcDbBlockTableRecord
  2
Block3
340
0
  0
BLOCK_RECORD
  5
A5
330
1
100
AcDbSymbolTableRecord
100
AcDbBlockTableRecord
  2
Block7
340
0
  0
ENDTAB
  0
ENDSEC
  0
SECTION
  2
BLOCKS
  0
BLOCK
  5
20
330
1F
100
AcDbEntity
  8
0
100
AcDbBlockBegin
  2
*Model_Space
 70
     0
 10
0.0
 20
0.0
 30
0.0
  3
*Model_Space
  1

  0
ENDBLK
  5
21
330
1F
100
AcDbEntity
  8
0
100
AcDbBlockEnd
  0
BLOCK
  5
1C
330
1B
100
AcDbEntity
 67
     1
  8
0
100
AcDbBlockBegin
  2
*Paper_Space
 70
     0
 10
0.0
 20
0.0
 30
0.0
  3
*Paper_Space
  1

  0
ENDBLK
  5
1D
330
1B
100
AcDbEntity
 67
     1
  8
0
100
AcDbBlockEnd
  0
BLOCK
  5
24
330
23
100
AcDbEntity
  8
0
100
AcDbBlockBegin
  2
*Paper_Space0
 70
     0
 10
0.0
 20
0.0
 30
0.0
  3
*Paper_Space0
  1

  0
ENDBLK
  5
25
330
23
100
AcDbEntity
  8
0
100
AcDbBlockEnd
  0
BLOCK
  5
77
330
76
100
AcDbEntity
  8
0
100
AcDbBlockBegin
  2
Block6
 70
     0
 10
0.0
 20
0.0
 30
0.0
  3
Block6
  1

  0
LINE
  5
79
330
76
100
AcDbEntity
  8
FORMAT
100
AcDbLine
 10
253.5616893058
 20
55.3714964458
 30
0.0
 11
250.6928867464
 21
53.8486167051
 31
0.0
  0
LINE
  5
7A
330
76
100
AcDbEntity
  8
FORMAT
100
AcDbLine
 10
250.6928867464
 20
53.8486167051
 30
0.0
 11
253.5616893058
 21
53.8486167051
 31
0.0
  0
ENDBLK
  5
78
330
76
100
AcDbEntity
  8
0
100
AcDbBlockEnd
  0
BLOCK
  5
7C
330
7B
100
AcDbEntity
  8
0
100
AcDbBlockBegin
  2
Block4
 70
     0
 10
0.0
 20
0.0
 30
0.0
  3
Block4
  1

  0
LINE
  5
7E
330
7B
100
AcDbEntity
  8
FORMAT
100
AcDbLine
 10
250.0093082872
 20
64.7263291389
 30
0.0
 11
290.0093082872
 21
64.7263291389
 31
0.0
  0
ENDBLK
  5
7D
330
7B
100
AcDbEntity
  8
0
100
AcDbBlockEnd
  0
BLOCK
  5
80
330
7F
100
AcDbEntity
  8
0
100
AcDbBlockBegin
  2
Block5
 70
     0
 10
0.0
 20
0.0
 30
0.0
  3
Block5
  1

  0
LINE
  5
82
330
7F
100
AcDbEntity
  8
FORMAT
100
AcDbLine
 10
251.0883122991
 20
64.4632252413
 30
0.0
 11
250.3611798328
 21
64.9733337839
 31
0.0
  0
LINE
  5
83
330
7F
100
AcDbEntity
  8
FORMAT
100
AcDbLine
 10
250.3611798328
 20
64.9733337839
 30
0.0
 11
251.0883122991
 21
65.4834423266
 31
0.0
  0
LINE
  5
84
330
7F
100
AcDbEntity
  8
FORMAT
100
AcDbLine
 10
250.3611798328
 20
65.6106440044
 30
0.0
 11
250.3611798328
 21
64.3360235634
 31
0.0
  0
LINE
  5
85
330
7F
100
AcDbEntity
  8
FORMAT
100
AcDbLine
 10
251.0883122991
 20
65.4834423266
 30
0.0
 11
251.0883122991
 21
64.4632252413
 31
0.0
  0
LINE
  5
86
330
7F
100
AcDbEntity
  8
FORMAT
  6
Continuous
 62
     7
370
    18
100
AcDbLine
 10
254.0738326611
 20
65.4834423266
 30
0.0
 11
254.0738326611
 21
64.4632252413
 31
0.0
  0
LINE
  5
87
330
7F
100
AcDbEntity
  8
FORMAT
100
AcDbLine
 10
251.0883122991
 20
64.9733337839
 30
0.0
 11
254.0738326611
 21
64.9733337839
 31
0.0
  0
LINE
  5
88
330
7F
100
AcDbEntity
  8
FORMAT
100
AcDbLine
 10
254.0738326611
 20
64.9733337839
 30
0.0
 11
254.0738326611
 21
64.4632252413
 31
0.0
  0
LINE
  5
89
330
7F
100
AcDbEntity
  8
FORMAT
  6
Continuous
 62
     7
370
    18
100
AcDbLine
 10
254.0738326611
 20
64.4632252413
 30
0.0
 11
254.8009651274
 21
64.9733337839
 31
0.0
  0
LINE
  5
8A
330
7F
100
AcDbEntity
  8
FORMAT
  6
Continuous
 62
     7
370
    18
100
AcDbLine
 10
254.8009651274
 20
64.9733337839
 30
0.0
 11
254.0738326611
 21
65.4834423266
 31
0.0
  0
LINE
  5
8B
330
7F
100
AcDbEntity
  8
FORMAT
100
AcDbLine
 10
254.0738326611
 20
65.4834423266
 30
0.0
 11
254.0738326611
 21
64.9733337839
 31
0.0
  0
LINE
  5
8C
330
7F
100
AcDbEntity
  8
FORMAT
100
AcDbLine
 10
254.8009651274
 20
65.6106440044
 30
0.0
 11
254.8009651274
 21
64.3360235634
 31
0.0
  0
ENDBLK
  5
81
330
7F
100
AcDbEntity
  8
0
100
AcDbBlockEnd
  0
BLOCK
  5
8E
330
8D
100
AcDbEntity
  8
0
100
AcDbBlockBegin
  2
Block2
 70
     0
 10
0.0
 20
0.0
 30
0.0
  3
Block2
  1

  0
CIRCLE
  5
90
330
8D
100
AcDbEntity
  8
FORMAT
100
AcDbCircle
 10
48.741006851
 20
68.2700462855
 30
0.0
 40
7.000000000000013
  0
CIRCLE
  5
91
330
8D
100
AcDbEntity
  8
FORMAT
100
AcDbCircle
 10
48.741006851
 20
68.2700462855
 30
0.0
 40
3.32888862482043
  0
LINE
  5
92
330
8D
100
AcDbEntity
  8
FORMAT
100
AcDbLine
 10
60.4734604481
 20
71.6747664277
 30
0.0
 11
76.4734604481
 21
75.1747664277
 31
0.0
  0
LINE
  5
93
330
8D
100
AcDbEntity
  8
FORMAT
100
AcDbLine
 10
76.4734604481
 20
75.1747664277
 30
0.0
 11
76.4734604481
 21
61.3653261433
 31
0.0
  0
LINE
  5
94
330
8D
100
AcDbEntity
  8
FORMAT
100
AcDbLine
 10
76.4734604481
 20
61.3653261433
 30
0.0
 11
60.4734604481
 21
64.8653261433
 31
0.0
  0
LINE
  5
95
330
8D
100
AcDbEntity
  8
FORMAT
100
AcDbLine
 10
60.4734604481
 20
64.8653261433
 30
0.0
 11
60.4734604481
 21
71.6747664277
 31
0.0
  0
LINE
  5
96
330
8D
100
AcDbEntity
  8
FORMAT
  6
CENTERX2
100
AcDbLine
 10
76.4734604481
 20
68.2700462855
 30
0.0
 11
39.8388877958
 21
68.2700462855
 31
0.0
  0
LINE
  5
97
330
8D
100
AcDbEntity
  8
FORMAT
100
AcDbLine
 10
48.741006851
 20
76.8424572275
 30
0.0
 11
48.741006851
 21
59.6976353435
 31
0.0
  0
ENDBLK
  5
8F
330
8D
100
AcDbEntity
  8
0
100
AcDbBlockEnd
  0
BLOCK
  5
99
330
98
100
AcDbEntity
  8
0
100
AcDbBlockBegin
  2
Block3
 70
     0
 10
0.0
 20
0.0
 30
0.0
  3
Block3
  1

  0
ARC
  5
9B
330
98
100
AcDbEntity
  8
FORMAT
100
AcDbCircle
 10
253.5616893058
 20
61.9516976285
 30
0.0
 40
0.5251511718353873
100
AcDbArc
 50
349.3356822367
 51
90.0
  0
LINE
  5
9C
330
98
100
AcDbEntity
  8
FORMAT
100
AcDbLine
 10
250.6928867464
 20
62.4768488003
 30
0.0
 11
250.6928867464
 21
61.2321831396
 31
0.0
  0
LINE
  5
9D
330
98
100
AcDbEntity
  8
FORMAT
100
AcDbLine
 10
250.6928867464
 20
61.2321831396
 30
0.0
 11
251.7250485138
 21
61.2321831396
 31
0.0
  0
LINE
  5
9E
330
98
100
AcDbEntity
  8
FORMAT
100
AcDbLine
 10
251.7250485138
 20
61.2321831396
 30
0.0
 11
251.7250485138
 21
61.85451597
 31
0.0
  0
LINE
  5
9F
330
98
100
AcDbEntity
  8
FORMAT
100
AcDbLine
 10
251.7250485138
 20
61.85451597
 30
0.0
 11
251.2089676301
 21
62.4768488003
 31
0.0
  0
LINE
  5
A0
330
98
100
AcDbEntity
  8
FORMAT
100
AcDbLine
 10
251.2089676301
 20
62.4768488003
 30
0.0
 11
250.6928867464
 21
62.4768488003
 31
0.0
  0
LINE
  5
A1
330
98
100
AcDbEntity
  8
0
  6
Continuous
 62
     7
370
    18
100
AcDbLine
 10
253.0456084221
 20
61.2321831396
 30
0.0
 11
254.0777701895
 21
61.2321831396
 31
0.0
  0
LINE
  5
A2
330
98
100
AcDbEntity
  8
0
  6
Continuous
 62
     7
370
    18
100
AcDbLine
 10
254.0777701895
 20
61.2321831396
 30
0.0
 11
254.0777701895
 21
61.85451597
 31
0.0
  0
LINE
  5
A3
330
98
100
AcDbEntity
  8
0
  6
Continuous
 62
     7
370
    18
100
AcDbLine
 10
253.0456084221
 20
62.4768488003
 30
0.0
 11
253.0456084221
 21
61.2321831396
 31
0.0
  0
LINE
  5
A4
330
98
100
AcDbEntity
  8
0
  6
Continuous
 62
     7
370
    18
100
AcDbLine
 10
253.5616893058
 20
62.4768488003
 30
0.0
 11
253.0456084221
 21
62.4768488003
 31
0.0
  0
ENDBLK
  5
9A
330
98
100
AcDbEntity
  8
0
100
AcDbBlockEnd
  0
BLOCK
  5
A6
330
A5
100
AcDbEntity
  8
0
100
AcDbBlockBegin
  2
Block7
 70
     0
 10
0.0
 20
0.0
 30
0.0
  3
Block7
  1

  0
LINE
  5
A8
330
A5
100
AcDbEntity
  8
FORMAT
100
AcDbLine
 10
221.8284763776
 20
80.2705155621
 30
0.0
 11
222.3963943455
 21
79.286852787
 31
0.0
  0
LINE
  5
A9
330
A5
100
AcDbEntity
  8
FORMAT
100
AcDbLine
 10
222.3963943455
 20
79.286852787
 30
0.0
 11
222.9643123135
 21
80.2705155621
 31
0.0
  0
LINE
  5
AA
330
A5
100
AcDbEntity
  8
FORMAT
100
AcDbLine
 10
221.8284763776
 20
80.2705155621
 30
0.0
 11
222.9643123135
 21
80.2705155621
 31
0.0
  0
LINE
  5
AB
330
A5
100
AcDbEntity
  8
FORMAT
100
AcDbLine
 10
222.9643123135
 20
80.2705155621
 30
0.0
 11
223.3725273771
 21
80.9775647926
 31
0.0
  0
LINE
  5
AC
330
A5
100
AcDbEntity
  8
FORMAT
100
AcDbLine
 10
223.3725273771
 20
80.9775647926
 30
0.0
 11
224.1023154201
 21
80.9775647926
 31
0.0
  0
ENDBLK
  5
A7
330
A5
100
AcDbEntity
  8
0
100
AcDbBlockEnd
  0
ENDSEC
  0
SECTION
  2
ENTITIES
  0
SPLINE
  5
AD
330
1F
100
AcDbEntity
  8
0
  6
Continuous
 62
     7
370
    25
100
AcDbSpline
210
0.0
220
0.0
230
1.0
 70
     8
 71
     3
 72
     9
 73
     5
 74
     0
 42
0.00000001
 43
0.00000001
 40
0.0
 40
0.0
 40
0.0
 40
0.0
 40
0.6482855908681137
 40
1.0
 40
1.0
 40
1.0
 40
1.0
 10
134.1404065364843
 20
-52.95505108069408
 30
0.0
 10
134.1451671962056
 20
-52.86148860563659
 30
0.0
 10
134.1525106568475
 20
-52.71716567701463
 30
0.0
 10
134.1557696811698
 20
-52.59654073974619
 30
0.0
 10
134.1569159269837
 20
-52.5541152112083
 30
0.0
  0
SPLINE
  5
AE
330
1F
100
AcDbEntity
  8
0
  6
Continuous
 62
     7
370
    25
100
AcDbSpline
210
0.0
220
0.0
230
1.0
 70
     8
 71
     3
 72
     9
 73
     5
 74
     0
 42
0.00000001
 43
0.00000001
 40
0.0
 40
0.0
 40
0.0
 40
0.0
 40
0.3881393069748219
 40
0.9999999999999999
 40
0.9999999999999999
 40
0.9999999999999999
 40
0.9999999999999999
 10
110.7088437118694
 20
-52.02691124866642
 30
0.0
 10
110.7080135073769
 20
-52.07820280320098
 30
0.0
 10
110.7058745730368
 20
-52.21035008540844
 30
0.0
 10
110.707423812991
 20
-52.37161468777919
 30
0.0
 10
110.708371732023
 20
-52.47028615914616
 30
0.0
  0
LINE
  5
AF
330
1F
100
AcDbEntity
  8
0
  6
Continuous
 62
     7
370
    25
100
AcDbLine
 10
205.8758743649
 20
156.9698485304
 30
0.0
 11
205.4442205569
 21
156.5900720509
 31
0.0
  0
ARC
  5
B0
330
1F
100
AcDbEntity
  8
0
  6
Continuous
 62
     7
370
    25
100
AcDbCircle
 10
197.3869859692
 20
152.5944577567
 30
0.0
 40
10.63000000000003
100
AcDbArc
 50
339.5062991307
 51
345.842348556
  0
ARC
  5
B1
330
1F
100
AcDbEntity
  8
0
  6
Continuous
 62
     7
370
    25
100
AcDbCircle
 10
197.3869859692
 20
152.5944577567
 30
0.0
 40
10.63000000000003
100
AcDbArc
 50
14.157651444
 51
20.4937008693
  0
LINE
  5
B2
330
1F
100
AcDbEntity
  8
0
  6
Continuous
 62
     7
370
    25
100
AcDbLine
 10
200.5822645141
 20
143.6187997125
 30
0.0
 11
204.9529467602
 21
143.6950902549
 31
0.0
  0
LINE
  5
B3
330
1F
100
AcDbEntity
  8
0
  6
Continuous
 62
     7
370
    25
100
AcDbLine
 10
204.9529467602
 20
161.4938252585
 30
0.0
 11
199.6488443002
 21
161.5864087114
 31
0.0
  0
ARC
  5
B4
330
1F
100
AcDbEntity
  8
0
  6
Continuous
 62
     7
370
    25
100
AcDbCircle
 10
204.9442205569
 20
144.1950141024
 30
0.0
 40
0.5000000000000048
100
AcDbArc
 50
271.0
 51
0.0
  0
ARC
  5
B5
330
1F
100
AcDbEntity
  8
0
  6
Continuous
 62
     7
370
    25
100
AcDbCircle
 10
204.9442205569
 20
160.993901411
 30
0.0
 40
0.5
100
AcDbArc
 50
0.0
 51
89.0
  0
SPLINE
  5
B6
330
1F
100
AcDbEntity
  8
0
  6
Continuous
 62
     7
370
    25
100
AcDbSpline
210
0.0
220
0.0
230
1.0
 70
     8
 71
     3
 72
    13
 73
     9
 74
     0
 42
0.00000001
 43
0.00000001
 40
0.0
 40
0.0
 40
0.0
 40
0.0
 40
0.0027524961312123
 40
0.3177238697195506
 40
0.5786042257554539
 40
0.796983881933054
 40
0.9809435633983233
 40
0.9999999999999999
 40
0.9999999999999999
 40
0.9999999999999999
 40
0.9999999999999999
 10
198.3902200447051
 20
161.9365284074881
 30
0.0
 10
198.3878029976732
 20
161.9379517980961
 30
0.0
 10
198.1088004125079
 20
162.102255452135
 30
0.0
 10
197.6964842394048
 20
162.3689817707916
 30
0.0
 10
197.2110596557032
 20
162.7145008249125
 30
0.0
 10
196.9668187585585
 20
162.9151887133922
 30
0.0
 10
196.8777814282518
 20
163.0240637901993
 30
0.0
 10
196.895446189673
 20
162.9975280429411
 30
0.0
 10
196.8971043211027
 20
162.9950372220639
 30
0.0
  0
ARC
  5
B7
330
1F
100
AcDbEntity
  8
0
  6
Continuous
 62
     7
370
    25
100
AcDbCircle
 10
199.6942205569
 20
164.1860127188
 30
0.0
 40
2.60000000000002
100
AcDbArc
 50
239.4420525213
 51
269.0
  0
SPLINE
  5
B8
330
1F
100
AcDbEntity
  8
0
  6
Continuous
 62
     7
370
    25
100
AcDbSpline
210
0.0
220
0.0
230
1.0
 70
     8
 71
     3
 72
    13
 73
     9
 74
     0
 42
0.00000001
 43
0.00000001
 40
0.0
 40
0.0
 40
0.0
 40
0.0
 40
0.0844854093105351
 40
0.2361150087522356
 40
0.4185695708536208
 40
0.6348557975867503
 40
0.8837740290405869
 40
1.0
 40
1.0
 40
1.0
 40
1.0
 10
196.8683247082736
 20
141.8564737995
 30
0.0
 10
196.8683114309038
 20
141.8566128463528
 30
0.0
 10
196.8682743240672
 20
141.8570014465755
 30
0.0
 10
197.0141998292931
 20
141.9940245107569
 30
0.0
 10
197.3180235941885
 20
142.2219615979485
 30
0.0
 10
197.8352327129171
 20
142.5567019886784
 30
0.0
 10
198.3958157733245
 20
142.8852365168636
 30
0.0
 10
198.8149362780345
 20
143.1110347501107
 30
0.0
 10
198.9483429904702
 20
143.1829066810536
 30
0.0
  0
ARC
  5
B9
330
1F
100
AcDbEntity
  8
0
  6
Continuous
 62
     7
370
    25
100
AcDbCircle
 10
200.6442205569
 20
140.0693403947
 30
0.0
 40
3.549999999999988
100
AcDbArc
 50
91.0
 51
118.1920130769
  0
ARC
  5
BA
330
1F
100
AcDbEntity
  8
0
  6
Continuous
 62
     7
370
    25
100
AcDbCircle
 10
191.0942205569
 20
164.0663473714
 30
0.0
 40
0.5000000000000063
100
AcDbArc
 50
89.0
 51
180.0
  0
ARC
  5
BB
330
1F
100
AcDbEntity
  8
0
  6
Continuous
 62
     7
370
    25
100
AcDbCircle
 10
191.0942205569
 20
141.122568142
 30
0.0
 40
0.5
100
AcDbArc
 50
180.0
 51
271.0
  0
LINE
  5
BC
330
1F
100
AcDbEntity
  8
0
  6
Continuous
 62
     7
370
    25
100
AcDbLine
 10
191.1029467602
 20
140.6226442944
 30
0.0
 11
195.1291253698
 21
140.6929215034
 31
0.0
  0
LINE
  5
BD
330
1F
100
AcDbEntity
  8
0
  6
Continuous
 62
     7
370
    25
100
AcDbLine
 10
195.1291253698
 20
164.49599401
 30
0.0
 11
191.1029467602
 21
164.566271219
 31
0.0
  0
ARC
  5
BE
330
1F
100
AcDbEntity
  8
0
  6
Continuous
 62
     7
370
    25
100
AcDbCircle
 10
195.0942205569
 20
162.4962986196
 30
0.0
 40
2.000000000000014
100
AcDbArc
 50
15.8193800096
 51
89.0
  0
SPLINE
  5
BF
330
1F
100
AcDbEntity
  8
0
  6
Continuous
 62
     7
370
    25
100
AcDbSpline
210
0.0
220
0.0
230
1.0
 70
     8
 71
     3
 72
     9
 73
     5
 74
     0
 42
0.00000001
 43
0.00000001
 40
0.0
 40
0.0
 40
0.0
 40
0.0
 40
0.3636728313034017
 40
1.0
 40
1.0
 40
1.0
 40
1.0
 10
205.4442205569421
 20
147.8748184068215
 30
0.0
 10
205.4503230784482
 20
147.8975228737122
 30
0.0
 10
205.4671033297645
 20
147.9599538966987
 30
0.0
 10
205.4943604787648
 20
148.0386110385326
 30
0.0
 10
205.5117049432149
 20
148.0886627148936
 30
0.0
  0
SPLINE
  5
C0
330
1F
100
AcDbEntity
  8
0
  6
Continuous
 62
     7
370
    25
100
AcDbSpline
210
0.0
220
0.0
230
1.0
 70
     8
 71
     3
 72
     9
 73
     5
 74
     0
 42
0.00000001
 43
0.00000001
 40
0.0
 40
0.0
 40
0.0
 40
0.0
 40
0.1580914975462187
 40
1.0
 40
1.0
 40
1.0
 40
1.0
 10
205.611693097475
 20
156.7374172861414
 30
0.0
 10
205.6014059777506
 20
156.7705948476515
 30
0.0
 10
205.536335307385
 20
156.9804578828246
 30
0.0
 10
205.4863248153762
 20
157.1652070557811
 30
0.0
 10
205.4442205569421
 20
157.3207489553145
 30
0.0
  0
ARC
  5
C1
330
1F
100
AcDbEntity
  8
0
  6
Continuous
 62
     7
370
    25
100
AcDbCircle
 10
195.0942205569
 20
142.6926168937
 30
0.0
 40
2.000000000000026
100
AcDbArc
 50
271.0
 51
335.4718521685
  0
LINE
  5
C2
330
1F
100
AcDbEntity
  8
0
  6
Continuous
 62
     7
370
    25
100
AcDbLine
 10
205.4442205569
 20
145.4444577567
 30
0.0
 11
207.0492255465
 21
146.6693299855
 31
0.0
  0
LINE
  5
C3
330
1F
100
AcDbEntity
  8
0
  6
Continuous
 62
     7
370
    25
100
AcDbLine
 10
207.0492255465
 20
158.5195855279
 30
0.0
 11
205.4442205569
 21
159.7444577567
 31
0.0
  0
ARC
  5
C4
330
1F
100
AcDbEntity
  8
0
  6
Continuous
 62
     7
370
    25
100
AcDbCircle
 10
206.5942205569
 20
147.2655434201
 30
0.0
 40
0.7500000000000014
100
AcDbArc
 50
307.3493490446
 51
0.0
  0
ARC
  5
C5
330
1F
100
AcDbEntity
  8
0
  6
Continuous
 62
     7
370
    25
100
AcDbCircle
 10
206.5942205569
 20
157.9233720933
 30
0.0
 40
0.7500000000000014
100
AcDbArc
 50
0.0
 51
52.6506509554
  0
LINE
  5
C6
330
1F
100
AcDbEntity
  8
0
  6
Continuous
 62
     7
370
    25
100
AcDbLine
 10
181.4747083618
 20
143.0944577567
 30
0.0
 11
182.6942205569
 21
144.3444577567
 31
0.0
  0
LINE
  5
C7
330
1F
100
AcDbEntity
  8
0
  6
Continuous
 62
     7
370
    25
100
AcDbLine
 10
182.6942205569
 20
160.8444577567
 30
0.0
 11
181.4747083618
 21
162.0944577567
 31
0.0
  0
LINE
  5
C8
330
1F
100
AcDbEntity
  8
0
  6
Continuous
 62
     7
370
    25
100
AcDbLine
 10
175.8992804828
 20
161.9944577567
 30
0.0
 11
175.4330752007
 21
161.9944577567
 31
0.0
  0
SPLINE
  5
C9
330
1F
100
AcDbEntity
  8
0
  6
Continuous
 62
     7
370
    25
100
AcDbSpline
210
0.0
220
0.0
230
1.0
 70
     8
 71
     3
 72
     9
 73
     5
 74
     0
 42
0.00000001
 43
0.00000001
 40
0.0
 40
0.0
 40
0.0
 40
0.0
 40
0.2308149029361558
 40
1.0
 40
1.0
 40
1.0
 40
1.0
 10
175.2442205569421
 20
143.4707725721098
 30
0.0
 10
175.2662594973735
 20
143.5089180053217
 30
0.0
 10
175.3617426752406
 20
143.6741821746917
 30
0.0
 10
175.4572496718453
 20
143.8394255019533
 30
0.0
 10
175.5307122302989
 20
143.9665282066722
 30
0.0
  0
SPLINE
  5
CA
330
1F
100
AcDbEntity
  8
0
  6
Continuous
 62
     7
370
    25
100
AcDbSpline
210
0.0
220
0.0
230
1.0
 70
     8
 71
     3
 72
     9
 73
     5
 74
     0
 42
0.00000001
 43
0.00000001
 40
0.0
 40
0.0
 40
0.0
 40
0.0
 40
0.4982449658294387
 40
1.0
 40
1.0
 40
1.0
 40
1.0
 10
176.2362666694542
 20
161.2223892560112
 30
0.0
 10
176.1628868261552
 20
161.3493361451149
 30
0.0
 10
176.0156101884938
 20
161.6041242469724
 30
0.0
 10
175.8683929903646
 20
161.8589733159276
 30
0.0
 10
175.7945260200867
 20
161.9868451192295
 30
0.0
  0
SPLINE
  5
CB
330
1F
100
AcDbEntity
  8
0
  6
Continuous
 62
     7
370
    25
100
AcDbSpline
210
0.0
220
0.0
230
1.0
 70
     8
 71
     3
 72
     9
 73
     5
 74
     0
 42
0.00000001
 43
0.00000001
 40
0.0
 40
0.0
 40
0.0
 40
0.0
 40
0.6441820525844191
 40
0.9999999999999999
 40
0.9999999999999999
 40
0.9999999999999999
 40
0.9999999999999999
 10
175.6882728292304
 20
143.9665484990525
 30
0.0
 10
175.7620654595013
 20
143.838861319494
 30
0.0
 10
175.8766179062434
 20
143.6406453352917
 30
0.0
 10
175.9911548766673
 20
143.4424137454531
 30
0.0
 10
176.0319091863868
 20
143.3718793880439
 30
0.0
  0
LINE
  5
CC
330
1F
100
AcDbEntity
  8
0
  6
Continuous
 62
     7
370
    25
100
AcDbLine
 10
175.4244679247
 20
161.9868403464
 30
0.0
 11
175.2442205569
 21
161.6748902115
 31
0.0
  0
LINE
  5
CD
330
1F
100
AcDbEntity
  8
0
  6
Continuous
 62
     7
370
    25
100
AcDbLine
 10
176.0650734526
 20
143.3653106524
 30
0.0
 11
176.3942205569
 21
143.6944577567
 31
0.0
  0
SPLINE
  5
CE
330
1F
100
AcDbEntity
  8
0
  6
Continuous
 62
     7
370
    25
100
AcDbSpline
210
0.0
220
0.0
230
1.0
 70
     8
 71
     3
 72
     9
 73
     5
 74
     0
 42
0.00000001
 43
0.00000001
 40
0.0
 40
0.0
 40
0.0
 40
0.0
 40
0.5156973194565428
 40
1.0
 40
1.0
 40
1.0
 40
1.0
 10
175.5211535677211
 20
143.9582462057863
 30
0.0
 10
175.5507173422881
 20
143.9582505120217
 30
0.0
 10
175.608045106951
 20
143.9582588623375
 30
0.0
 10
175.6653280933155
 20
143.9582506276622
 30
0.0
 10
175.6930703971613
 20
143.9582466395869
 30
0.0
  0
SPLINE
  5
CF
330
1F
100
AcDbEntity
  8
0
  6
Continuous
 62
     7
370
    25
100
AcDbSpline
210
0.0
220
0.0
230
1.0
 70
     8
 71
     3
 72
     9
 73
     5
 74
     0
 42
0.00000001
 43
0.00000001
 40
0.0
 40
0.0
 40
0.0
 40
0.0
 40
0.5100779247870971
 40
1.0
 40
1.0
 40
1.0
 40
1.0
 10
176.4030988235889
 20
161.2306693307681
 30
0.0
 10
176.3739555941958
 20
161.2306544307841
 30
0.0
 10
176.3168207369968
 20
161.2306252195924
 30
0.0
 10
176.2595433686295
 20
161.2306537571099
 30
0.0
 10
176.2314819214563
 20
161.2306677382697
 30
0.0
  0
LINE
  5
D0
330
1F
100
AcDbEntity
  8
0
  6
Continuous
 62
     7
370
    25
100
AcDbLine
 10
176.3942205569
 20
144.4694577567
 30
0.0
 11
177.8942205569
 21
144.4694577567
 31
0.0
  0
LINE
  5
D1
330
1F
100
AcDbEntity
  8
0
  6
Continuous
 62
     7
370
    25
100
AcDbLine
 10
177.8942205569
 20
160.7194577567
 30
0.0
 11
176.3942205569
 21
160.7194577567
 31
0.0
  0
ARC
  5
D2
330
1F
100
AcDbEntity
  8
0
  6
Continuous
 62
     7
370
    25
100
AcDbCircle
 10
167.4942205569
 20
146.8534693846
 30
0.0
 40
9.134011627907
100
AcDbArc
 50
270.0
 51
328.0464183091
  0
ARC
  5
D3
330
1F
100
AcDbEntity
  8
0
  6
Continuous
 62
     7
370
    25
100
AcDbCircle
 10
167.4942205569
 20
158.3354461288
 30
0.0
 40
9.134011627906968
100
AcDbArc
 50
31.9535816909
 51
90.0
  0
LINE
  5
D4
330
1F
100
AcDbEntity
  8
0
  6
Continuous
 62
     7
370
    25
100
AcDbLine
 10
158.8495974968
 20
167.277422191
 30
0.0
 11
158.7439313684
 21
167.0944577567
 31
0.0
  0
SPLINE
  5
D5
330
1F
100
AcDbEntity
  8
0
  6
Continuous
 62
     7
370
    25
100
AcDbSpline
210
0.0
220
0.0
230
1.0
 70
     8
 71
     3
 72
     9
 73
     5
 74
     0
 42
0.00000001
 43
0.00000001
 40
0.0
 40
0.0
 40
0.0
 40
0.0
 40
0.4999972376865703
 40
1.0
 40
1.0
 40
1.0
 40
1.0
 10
159.0844491341551
 20
138.6043575025423
 30
0.0
 10
159.1511652629965
 20
138.4888384223659
 30
0.0
 10
159.2845982578469
 20
138.2577989856063
 30
0.0
 10
159.418029058258
 20
138.0267583544666
 30
0.0
 10
159.4847448270413
 20
137.9112374006901
 30
0.0
  0
LINE
  5
D6
330
1F
100
AcDbEntity
  8
0
  6
Continuous
 62
     7
370
    25
100
AcDbLine
 10
159.0130991518
 20
167.2818499925
 30
0.0
 11
158.8543491518
 21
167.2818499925
 31
0.0
  0
LINE
  5
D7
330
1F
100
AcDbEntity
  8
0
  6
Continuous
 62
     7
370
    25
100
AcDbLine
 10
190.5942205569
 20
158.2444577567
 30
0.0
 11
182.6942205569
 21
158.2444577567
 31
0.0
  0
LINE
  5
D8
330
1F
100
AcDbEntity
  8
0
  6
Continuous
 62
     7
370
    25
100
AcDbLine
 10
182.6942205569
 20
146.9444577567
 30
0.0
 11
190.5942205569
 21
146.9444577567
 31
0.0
  0
LINE
  5
D9
330
1F
100
AcDbEntity
  8
0
  6
Continuous
 62
     7
370
    25
100
AcDbLine
 10
140.8411717059
 20
136.3944577567
 30
0.0
 11
158.0442205569
 21
136.3944577567
 31
0.0
  0
LINE
  5
DA
330
1F
100
AcDbEntity
  8
0
  6
Continuous
 62
     7
370
    25
100
AcDbLine
 10
158.0442205569
 20
168.7944577567
 30
0.0
 11
140.8346623445
 21
168.7944577567
 31
0.0
  0
SPLINE
  5
DB
330
1F
100
AcDbEntity
  8
0
  6
Continuous
 62
     7
370
    25
100
AcDbSpline
210
0.0
220
0.0
230
1.0
 70
     8
 71
     3
 72
     9
 73
     5
 74
     0
 42
0.00000001
 43
0.00000001
 40
0.0
 40
0.0
 40
0.0
 40
0.0
 40
0.5015109964661149
 40
1.0
 40
1.0
 40
1.0
 40
1.0
 10
158.6504304869148
 20
138.0998553887594
 30
0.0
 10
158.72825926528
 20
138.2346794081024
 30
0.0
 10
158.8834478432247
 20
138.5035150274468
 30
0.0
 10
159.0388050910788
 20
138.7723488274256
 30
0.0
 10
159.1162489707533
 20
138.9063595204932
 30
0.0
  0
LINE
  5
DC
330
1F
100
AcDbEntity
  8
0
  6
Continuous
 62
     7
370
    25
100
AcDbLine
 10
167.3695508648
 20
166.2768412863
 30
0.0
 11
167.2578808307
 21
166.4701807106
 31
0.0
  0
SPLINE
  5
DD
330
1F
100
AcDbEntity
  8
0
  6
Continuous
 62
     7
370
    25
100
AcDbSpline
210
0.0
220
0.0
230
1.0
 70
     8
 71
     3
 72
     9
 73
     5
 74
     0
 42
0.00000001
 43
0.00000001
 40
0.0
 40
0.0
 40
0.0
 40
0.0
 40
0.4576940011969439
 40
1.0
 40
1.0
 40
1.0
 40
1.0
 10
166.1898149028075
 20
138.1680449912367
 30
0.0
 10
166.2548729452909
 20
138.2806861278254
 30
0.0
 10
166.3970160415809
 20
138.5267919021946
 30
0.0
 10
166.5391627749147
 20
138.7728954958659
 30
0.0
 10
166.6162498011118
 20
138.9063589510407
 30
0.0
  0
SPLINE
  5
DE
330
1F
100
AcDbEntity
  8
0
  6
Continuous
 62
     7
370
    25
100
AcDbSpline
210
0.0
220
0.0
230
1.0
 70
     8
 71
     3
 72
     9
 73
     5
 74
     0
 42
0.00000001
 43
0.00000001
 40
0.0
 40
0.0
 40
0.0
 40
0.0
 40
0.5034644913918217
 40
1.0
 40
1.0
 40
1.0
 40
1.0
 10
166.7005881068217
 20
167.0891932711259
 30
0.0
 10
166.6224016856356
 20
166.9538217110999
 30
0.0
 10
166.4671048920725
 20
166.6849416563185
 30
0.0
 10
166.3118040817536
 20
166.4160636929285
 30
0.0
 10
166.2346917149147
 20
166.2825562366231
 30
0.0
  0
LINE
  5
DF
330
1F
100
AcDbEntity
  8
0
  6
Continuous
 62
     7
370
    25
100
AcDbLine
 10
166.9814665374
 20
138.9119431541
 30
0.0
 11
167.1398558409
 21
138.6377164443
 31
0.0
  0
LINE
  5
E0
330
1F
100
AcDbEntity
  8
0
  6
Continuous
 62
     7
370
    25
100
AcDbLine
 10
158.0442205569
 20
138.0944577567
 30
0.0
 11
158.6443543139
 21
138.0944577567
 31
0.0
  0
LINE
  5
E1
330
1F
100
AcDbEntity
  8
0
  6
Continuous
 62
     7
370
    25
100
AcDbLine
 10
159.3942240118
 20
167.0944577567
 30
0.0
 11
158.0442205569
 21
167.0944577567
 31
0.0
  0
LINE
  5
E2
330
1F
100
AcDbEntity
  8
0
  6
Continuous
 62
     7
370
    25
100
AcDbLine
 10
166.6128370183
 20
138.906358951
 30
0.0
 11
166.9846918907
 21
138.906358951
 31
0.0
  0
LINE
  5
E3
330
1F
100
AcDbEntity
  8
0
  6
Continuous
 62
     7
370
    25
100
AcDbLine
 10
159.112821908
 20
138.9063595205
 30
0.0
 11
159.2842658163
 21
138.9063595205
 31
0.0
  0
ARC
  5
E4
330
1F
100
AcDbEntity
  8
0
  6
Continuous
 62
     7
370
    25
100
AcDbCircle
 10
126.8442205569
 20
152.5944577567
 30
0.0
 40
14.22500000000001
100
AcDbArc
 50
20.7761135969
 51
156.3887665312
  0
LINE
  5
E5
330
1F
100
AcDbEntity
  8
0
  6
Continuous
 62
     7
370
    25
100
AcDbLine
 10
134.5841121171
 20
164.5294778085
 30
0.0
 11
134.7160955937
 21
164.7329981585
 31
0.0
  0
SPLINE
  5
E6
330
1F
100
AcDbEntity
  8
0
  6
Continuous
 62
     7
370
    25
100
AcDbSpline
210
0.0
220
0.0
230
1.0
 70
     8
 71
     3
 72
    11
 73
     7
 74
     0
 42
0.00000001
 43
0.00000001
 40
0.0
 40
0.0
 40
0.0
 40
0.0
 40
0.1446702591042532
 40
0.390752020932364
 40
0.5962314811354595
 40
1.0
 40
1.0
 40
1.0
 40
1.0
 10
139.4438487858834
 20
159.7050096462415
 30
0.0
 10
139.2446668750967
 20
159.9724599439226
 30
0.0
 10
138.7066797680372
 20
160.694838855559
 30
0.0
 10
137.8168505935643
 20
161.744420035907
 30
0.0
 10
136.4736971218757
 20
163.1907444728669
 30
0.0
 10
135.4166411102227
 20
164.1182860707768
 30
0.0
 10
134.7160955937072
 20
164.732998158532
 30
0.0
  0
LINE
  5
E7
330
1F
100
AcDbEntity
  8
0
  6
Continuous
 62
     7
370
    25
100
AcDbLine
 10
139.2325976253
 20
159.5857908636
 30
0.0
 11
139.4438487859
 21
159.7050096462
 31
0.0
  0
SPLINE
  5
E8
330
1F
100
AcDbEntity
  8
0
  6
Continuous
 62
     7
370
    25
100
AcDbSpline
210
0.0
220
0.0
230
1.0
 70
     8
 71
     3
 72
    11
 73
     7
 74
     0
 42
0.00000001
 43
0.00000001
 40
0.0
 40
0.0
 40
0.0
 40
0.0
 40
0.1446702591042556
 40
0.3907520209323691
 40
0.5962314811354859
 40
0.9999999999999999
 40
0.9999999999999999
 40
0.9999999999999999
 40
0.9999999999999999
 10
114.3864878711972
 20
159.9507799364252
 30
0.0
 10
114.2544600745489
 20
159.6445581928691
 30
0.0
 10
113.8978551394434
 20
158.8174582354288
 30
0.0
 10
113.4338057611644
 20
157.5220529751327
 30
0.0
 10
112.8528287924872
 20
155.6356857289892
 30
0.0
 10
112.578082211457
 20
154.2564775707198
 30
0.0
 10
112.3959986857053
 20
153.3424313130325
 30
0.0
  0
LINE
  5
E9
330
1F
100
AcDbEntity
  8
0
  6
Continuous
 62
     7
370
    25
100
AcDbLine
 10
114.5953599458
 20
159.8274404561
 30
0.0
 11
114.3864878712
 21
159.9507799364
 31
0.0
  0
LINE
  5
EA
330
1F
100
AcDbEntity
  8
0
  6
Continuous
 62
     7
370
    25
100
AcDbLine
 10
120.3781357775
 20
165.2649104962
 30
0.0
 11
120.2678737225
 21
165.4809717149
 31
0.0
  0
SPLINE
  5
EB
330
1F
100
AcDbEntity
  8
0
  6
Continuous
 62
     7
370
    25
100
AcDbSpline
210
0.0
220
0.0
230
1.0
 70
     8
 71
     3
 72
    11
 73
     7
 74
     0
 42
0.00000001
 43
0.00000001
 40
0.0
 40
0.0
 40
0.0
 40
0.0
 40
0.1446702591042547
 40
0.3907520209323575
 40
0.5962314811354751
 40
1.0
 40
1.0
 40
1.0
 40
1.0
 10
126.9861161001384
 20
167.0613318259712
 30
0.0
 10
126.6549063927035
 20
167.0225603800962
 30
0.0
 10
125.7603143505385
 20
166.9178393342923
 30
0.0
 10
124.4064357977866
 20
166.6720152543443
 30
0.0
 10
122.4823053574209
 20
166.2319724451606
 30
0.0
 10
121.1505027647376
 20
165.7803058848011
 30
0.0
 10
120.2678737224705
 20
165.480971714869
 30
0.0
  0
LINE
  5
EC
330
1F
100
AcDbEntity
  8
0
  6
Continuous
 62
     7
370
    25
100
AcDbLine
 10
126.9837370142
 20
166.818773563
 30
0.0
 11
126.9861161001
 21
167.061331826
 31
0.0
  0
SPLINE
  5
ED
330
1F
100
AcDbEntity
  8
0
  6
Continuous
 62
     7
370
    25
100
AcDbSpline
210
0.0
220
0.0
230
1.0
 70
     8
 71
     3
 72
     9
 73
     5
 74
     0
 42
0.00000001
 43
0.00000001
 40
0.0
 40
0.0
 40
0.0
 40
0.0
 40
0.5862283062032871
 40
1.0
 40
1.0
 40
1.0
 40
1.0
 10
120.2678737224705
 20
165.480971714869
 30
0.0
 10
119.9564369258566
 20
165.3637184102845
 30
0.0
 10
119.4251817931407
 20
165.1637053721154
 30
0.0
 10
118.9009431109367
 20
164.9429257058862
 30
0.0
 10
118.6840279834474
 20
164.8515733294346
 30
0.0
  0
SPLINE
  5
EE
330
1F
100
AcDbEntity
  8
0
  6
Continuous
 62
     7
370
    25
100
AcDbSpline
210
0.0
220
0.0
230
1.0
 70
     8
 71
     3
 72
     9
 73
     5
 74
     0
 42
0.00000001
 43
0.00000001
 40
0.0
 40
0.0
 40
0.0
 40
0.0
 40
0.5863847898283616
 40
1.0
 40
1.0
 40
1.0
 40
1.0
 10
115.1120893896254
 20
161.4929252243485
 30
0.0
 10
114.9645844397773
 20
161.1937518719046
 30
0.0
 10
114.7130346854063
 20
160.6835521572574
 30
0.0
 10
114.4820334823495
 20
160.1651846301117
 30
0.0
 10
114.3864878711972
 20
159.9507799364252
 30
0.0
  0
ARC
  5
EF
330
1F
100
AcDbEntity
  8
0
  6
Continuous
 62
     7
370
    25
100
AcDbCircle
 10
126.8442205569
 20
152.5944577567
 30
0.0
 40
14.72500000000002
100
AcDbArc
 50
123.6537492728
 51
142.8207803982
  0
SPLINE
  5
F0
330
1F
100
AcDbEntity
  8
0
  6
Continuous
 62
     7
370
    25
100
AcDbSpline
210
0.0
220
0.0
230
1.0
 70
     8
 71
     3
 72
     9
 73
     5
 74
     0
 42
0.00000001
 43
0.00000001
 40
0.0
 40
0.0
 40
0.0
 40
0.0
 40
0.586384789828363
 40
1.0
 40
1.0
 40
1.0
 40
1.0
 10
140.4165850223372
 20
158.3055476542964
 30
0.0
 10
140.2312457739096
 20
158.5828773642708
 30
0.0
 10
139.915174737207
 20
159.0558256991953
 30
0.0
 10
139.5817558917304
 20
159.5150623729202
 30
0.0
 10
139.4438487858834
 20
159.7050096462415
 30
0.0
  0
ARC
  5
F1
330
1F
100
AcDbEntity
  8
0
  6
Continuous
 62
     7
370
    25
100
AcDbCircle
 10
126.8442205569
 20
152.5944577567
 30
0.0
 40
14.725
100
AcDbArc
 50
3.6537492728
 51
22.8207803982
  0
SPLINE
  5
F2
330
1F
100
AcDbEntity
  8
0
  6
Continuous
 62
     7
370
    25
100
AcDbSpline
210
0.0
220
0.0
230
1.0
 70
     8
 71
     3
 72
     9
 73
     5
 74
     0
 42
0.00000001
 43
0.00000001
 40
0.0
 40
0.0
 40
0.0
 40
0.0
 40
0.5862283062032901
 40
0.9999999999999999
 40
0.9999999999999999
 40
0.9999999999999999
 40
0.9999999999999999
 10
141.2924424281788
 20
151.8464842003585
 30
0.0
 10
141.346616486038
 20
152.1748230301916
 30
0.0
 10
141.4390276802534
 20
152.7349099900991
 30
0.0
 10
141.5099462217618
 20
153.2993038396488
 30
0.0
 10
141.5392903068033
 20
153.5328340387454
 30
0.0
  0
SPLINE
  5
F3
330
1F
100
AcDbEntity
  8
0
  6
Continuous
 62
     7
370
    25
100
AcDbSpline
210
0.0
220
0.0
230
1.0
 70
     8
 71
     3
 72
     9
 73
     5
 74
     0
 42
0.00000001
 43
0.00000001
 40
0.0
 40
0.0
 40
0.0
 40
0.0
 40
0.5862283062032926
 40
1.0
 40
1.0
 40
1.0
 40
1.0
 10
134.7160955937072
 20
164.732998158532
 30
0.0
 10
134.4588328549525
 20
164.9440836837807
 30
0.0
 10
134.019988916452
 20
165.304157605519
 30
0.0
 10
133.5666687757564
 20
165.6477717888394
 30
0.0
 10
133.3790977333086
 20
165.7899496114845
 30
0.0
  0
SPLINE
  5
F4
330
1F
100
AcDbEntity
  8
0
  6
Continuous
 62
     7
370
    25
100
AcDbSpline
210
0.0
220
0.0
230
1.0
 70
     8
 71
     3
 72
     9
 73
     5
 74
     0
 42
0.00000001
 43
0.00000001
 40
0.0
 40
0.0
 40
0.0
 40
0.0
 40
0.5863847898283571
 40
1.0
 40
1.0
 40
1.0
 40
1.0
 10
128.6844538550206
 20
167.2040151219494
 30
0.0
 10
128.3516096567448
 20
167.1821714794799
 30
0.0
 10
127.7839888656712
 20
167.1449200997572
 30
0.0
 10
127.2195688171377
 20
167.0857892463364
 30
0.0
 10
126.9861161001384
 20
167.0613318259712
 30
0.0
  0
ARC
  5
F5
330
1F
100
AcDbEntity
  8
0
  6
Continuous
 62
     7
370
    25
100
AcDbCircle
 10
126.8442205569
 20
152.5944577567
 30
0.0
 40
14.72500000000002
100
AcDbArc
 50
63.6537492728
 51
82.8207803982
  0
SPLINE
  5
F6
330
1F
100
AcDbEntity
  8
0
  6
Continuous
 62
     7
370
    25
100
AcDbSpline
210
0.0
220
0.0
230
1.0
 70
    24
 71
     3
 72
    12
 73
     8
 74
     0
 42
0.00000001
 43
0.00000001
 40
0.0
 40
0.0
 40
0.0
 40
0.0
 40
0.3013828945620925
 40
0.4108442493795683
 40
0.6247185195336459
 40
0.6986171054378637
 40
1.0
 40
1.0
 40
1.0
 40
1.0
 10
134.9402882668201
 20
164.8595204341468
 30
0.0
 10
135.4055101436884
 20
164.3647547055907
 30
0.0
 10
136.0396991976978
 20
163.6902915624096
 30
0.0
 10
137.0086618014915
 20
162.6597951209337
 30
0.0
 10
137.6259437392705
 20
162.0033127780878
 30
0.0
 10
138.5394264983223
 20
161.0318194213092
 30
0.0
 10
139.1187066152368
 20
160.4157521997664
 30
0.0
 10
139.5839177367156
 20
159.9209979096194
 30
0.0
  0
ARC
  5
F7
330
1F
100
AcDbEntity
  8
0
  6
Continuous
 62
     7
370
    25
100
AcDbCircle
 10
139.2057299359
 20
160.0128420113
 30
0.0
 40
0.3891803587967896
100
AcDbArc
 50
307.7231760254
 51
346.3497964746
  0
ARC
  5
F8
330
1F
100
AcDbEntity
  8
0
  6
Continuous
 62
     7
370
    25
100
AcDbCircle
 10
135.0087029421
 20
164.4764006306
 30
0.0
 40
0.3891803587983756
100
AcDbArc
 50
100.1247331965
 51
138.7513536455
  0
ARC
  5
F9
330
1F
100
AcDbEntity
  8
0
  6
Continuous
 62
     7
370
    25
100
AcDbCircle
 10
141.2165261246
 20
151.4647800393
 30
0.0
 40
0.3891803588377123
100
AcDbArc
 50
40.1247331985
 51
78.7513536434
  0
LINE
  5
FA
330
1F
100
AcDbEntity
  8
0
  6
Continuous
 62
     7
370
    25
100
AcDbLine
 10
141.5141102696
 20
151.7155887879
 30
0.0
 11
141.3295586057
 21
151.1028842613
 31
0.0
  0
SPLINE
  5
FB
330
1F
100
AcDbEntity
  8
0
  6
Continuous
 62
     7
370
    25
100
AcDbSpline
210
0.0
220
0.0
230
1.0
 70
    24
 71
     3
 72
    12
 73
     8
 74
     0
 42
0.00000001
 43
0.00000001
 40
0.0
 40
0.0
 40
0.0
 40
0.0
 40
0.3013828945620992
 40
0.4108442493795573
 40
0.6247185195336494
 40
0.6986171054378604
 40
1.0
 40
1.0
 40
1.0
 40
1.0
 10
120.2703985541999
 20
165.7383894029344
 30
0.0
 10
120.9314891824856
 20
165.8939005024206
 30
0.0
 10
121.8326859254013
 20
166.1058927624042
 30
0.0
 10
123.2096033241258
 20
166.4297907718688
 30
0.0
 10
124.0867746790557
 20
166.6361314398597
 30
0.0
 10
125.3848539851597
 20
166.9414840367284
 30
0.0
 10
126.2080239079119
 20
167.1351217231121
 30
0.0
 10
126.86909925255
 20
167.2906292273623
 30
0.0
  0
ARC
  5
FC
330
1F
100
AcDbEntity
  8
0
  6
Continuous
 62
     7
370
    25
100
AcDbCircle
 10
126.6004660269
 20
167.0090310353
 30
0.0
 40
0.3891803587967516
100
AcDbArc
 50
7.7231760254
 51
46.3497964746
  0
ARC
  5
FD
330
1F
100
AcDbEntity
  8
0
  6
Continuous
 62
     7
370
    25
100
AcDbCircle
 10
120.6363973744
 20
165.6060783479
 30
0.0
 40
0.3891803587983693
100
AcDbArc
 50
160.1247331965
 51
198.7513536454
  0
SPLINE
  5
FE
330
1F
100
AcDbEntity
  8
0
  6
Continuous
 62
     7
370
    25
100
AcDbSpline
210
0.0
220
0.0
230
1.0
 70
    24
 71
     3
 72
    12
 73
     8
 74
     0
 42
0.00000001
 43
0.00000001
 40
0.0
 40
0.0
 40
0.0
 40
0.0
 40
0.3013828945621526
 40
0.4108442493795542
 40
0.6247185195336459
 40
0.6986171054378584
 40
0.9999999999999999
 40
0.9999999999999999
 40
0.9999999999999999
 40
0.9999999999999999
 10
112.1743308443219
 20
153.4733267254832
 30
0.0
 10
112.3701995957393
 20
154.1236035535257
 30
0.0
 10
112.6372072846457
 20
155.0100589566903
 30
0.0
 10
113.0451620795764
 20
156.3644534076307
 30
0.0
 10
113.3050514967273
 20
157.2272764184673
 30
0.0
 10
113.6896480437795
 20
158.5041223721146
 30
0.0
 10
113.9335378496173
 20
159.3138272800412
 30
0.0
 10
114.1294020727765
 20
159.9640890744384
 30
0.0
  0
ARC
  5
FF
330
1F
100
AcDbEntity
  8
0
  6
Continuous
 62
     7
370
    25
100
AcDbCircle
 10
114.2389566479
 20
159.5906467807
 30
0.0
 40
0.3891803587957567
100
AcDbArc
 50
67.7231760254
 51
106.3497964747
  0
ARC
  5
100
330
1F
100
AcDbEntity
  8
0
  6
Continuous
 62
     7
370
    25
100
AcDbCircle
 10
112.4719149893
 20
153.724135474
 30
0.0
 40
0.389180358798522
100
AcDbArc
 50
220.1247331965
 51
258.7513536454
  0
LINE
  5
101
330
1F
100
AcDbEntity
  8
0
  6
Continuous
 62
     7
370
    25
100
AcDbLine
 10
139.5839177367
 20
159.9209979096
 30
0.0
 11
140.7808466463
 21
158.6480581933
 31
0.0
  0
LINE
  5
102
330
1F
100
AcDbEntity
  8
0
  6
Continuous
 62
     7
370
    25
100
AcDbLine
 10
140.7808466463
 20
158.6480581933
 30
0.0
 11
140.4165850223
 21
158.3055476543
 31
0.0
  0
LINE
  5
103
330
1F
100
AcDbEntity
  8
0
  6
Continuous
 62
     7
370
    25
100
AcDbLine
 10
126.8690992525
 20
167.2906292274
 30
0.0
 11
128.5699618392
 21
167.6907302114
 31
0.0
  0
LINE
  5
104
330
1F
100
AcDbEntity
  8
0
  6
Continuous
 62
     7
370
    25
100
AcDbLine
 10
128.5699618392
 20
167.6907302114
 30
0.0
 11
128.684453855
 21
167.2040151219
 31
0.0
  0
LINE
  5
105
330
1F
100
AcDbEntity
  8
0
  6
Continuous
 62
     7
370
    25
100
AcDbLine
 10
114.1294020728
 20
159.9640890744
 30
0.0
 11
114.6333357498
 21
161.6371297748
 31
0.0
  0
LINE
  5
106
330
1F
100
AcDbEntity
  8
0
  6
Continuous
 62
     7
370
    25
100
AcDbLine
 10
114.6333357498
 20
161.6371297748
 30
0.0
 11
115.1120893896
 21
161.4929252243
 31
0.0
  0
LINE
  5
107
330
1F
100
AcDbEntity
  8
0
  6
Continuous
 62
     7
370
    25
100
AcDbLine
 10
141.5392903068
 20
153.5328340387
 30
0.0
 11
142.0180439466
 21
153.3886294883
 31
0.0
  0
LINE
  5
108
330
1F
100
AcDbEntity
  8
0
  6
Continuous
 62
     7
370
    25
100
AcDbLine
 10
142.0180439466
 20
153.3886294883
 30
0.0
 11
141.5141102696
 21
151.7155887879
 31
0.0
  0
LINE
  5
109
330
1F
100
AcDbEntity
  8
0
  6
Continuous
 62
     7
370
    25
100
AcDbLine
 10
111.6703971673
 20
151.8002860251
 30
0.0
 11
112.1743308443
 21
153.4733267255
 31
0.0
  0
LINE
  5
10A
330
1F
100
AcDbEntity
  8
0
  6
Continuous
 62
     7
370
    25
100
AcDbLine
 10
112.1491508071
 20
151.6560814746
 30
0.0
 11
111.6703971673
 21
151.8002860251
 31
0.0
  0
LINE
  5
10B
330
1F
100
AcDbEntity
  8
0
  6
Continuous
 62
     7
370
    25
100
AcDbLine
 10
118.5695359676
 20
165.3382884189
 30
0.0
 11
120.2703985542
 21
165.7383894029
 31
0.0
  0
LINE
  5
10C
330
1F
100
AcDbEntity
  8
0
  6
Continuous
 62
     7
370
    25
100
AcDbLine
 10
118.6840279834
 20
164.8515733294
 30
0.0
 11
118.5695359676
 21
165.3382884189
 31
0.0
  0
LINE
  5
10D
330
1F
100
AcDbEntity
  8
0
  6
Continuous
 62
     7
370
    25
100
AcDbLine
 10
133.7433593573
 20
166.1324601505
 30
0.0
 11
134.9402882668
 21
164.8595204341
 31
0.0
  0
LINE
  5
10E
330
1F
100
AcDbEntity
  8
0
  6
Continuous
 62
     7
370
    25
100
AcDbLine
 10
133.7433593573
 20
166.1324601505
 30
0.0
 11
133.3790977333
 21
165.7899496115
 31
0.0
  0
LINE
  5
10F
330
1F
100
AcDbEntity
  8
0
  6
Continuous
 62
     7
370
    25
100
AcDbLine
 10
114.6333357498
 20
161.6371297748
 30
0.0
 11
115.1873482961
 21
163.4764304223
 31
0.0
  0
LINE
  5
110
330
1F
100
AcDbEntity
  8
0
  6
Continuous
 62
     7
370
    25
100
AcDbLine
 10
115.1873482961
 20
163.4764304223
 30
0.0
 11
115.6661019359
 21
163.3322258718
 31
0.0
  0
LINE
  5
111
330
1F
100
AcDbEntity
  8
0
  6
Continuous
 62
     7
370
    25
100
AcDbLine
 10
115.6661019359
 20
163.3322258718
 30
0.0
 11
115.1120893896
 21
161.4929252243
 31
0.0
  0
LINE
  5
112
330
1F
100
AcDbEntity
  8
0
  6
Continuous
 62
     7
370
    25
100
AcDbLine
 10
112.1491508071
 20
151.6560814746
 30
0.0
 11
111.5951382608
 21
149.8167808272
 31
0.0
  0
ARC
  5
113
330
1F
100
AcDbEntity
  8
0
  6
Continuous
 62
     7
370
    25
100
AcDbCircle
 10
126.8442205569
 20
152.5944577567
 30
0.0
 40
15.50000000000001
100
AcDbArc
 50
190.3234545941
 51
196.1510750769
  0
ARC
  5
114
330
1F
100
AcDbEntity
  8
0
  6
Continuous
 62
     7
370
    25
100
AcDbCircle
 10
126.8442205569
 20
152.5944577567
 30
0.0
 40
16.0
100
AcDbArc
 50
130.3234545941
 51
136.1510750769
  0
LINE
  5
115
330
1F
100
AcDbEntity
  8
0
  6
Continuous
 62
     7
370
    25
100
AcDbLine
 10
116.4905896588
 20
164.7929136928
 30
0.0
 11
116.8141406244
 21
164.4117119448
 31
0.0
  0
ARC
  5
116
330
1F
100
AcDbEntity
  8
0
  6
Continuous
 62
     7
370
    25
100
AcDbCircle
 10
126.8442205569
 20
152.5944577567
 30
0.0
 40
15.5
100
AcDbArc
 50
130.3234545941
 51
136.1510750769
  0
LINE
  5
117
330
1F
100
AcDbEntity
  8
0
  6
Continuous
 62
     7
370
    25
100
AcDbLine
 10
115.3055174643
 20
163.6786054885
 30
0.0
 11
115.6661019359
 21
163.3322258718
 31
0.0
  0
LINE
  5
118
330
1F
100
AcDbEntity
  8
0
  6
Continuous
 62
     7
370
    25
100
AcDbLine
 10
141.5392903068
 20
153.5328340387
 30
0.0
 11
142.0933028531
 21
155.3721346862
 31
0.0
  0
LINE
  5
119
330
1F
100
AcDbEntity
  8
0
  6
Continuous
 62
     7
370
    25
100
AcDbLine
 10
142.0933028531
 20
155.3721346862
 30
0.0
 11
142.5720564929
 21
155.2279301358
 31
0.0
  0
LINE
  5
11A
330
1F
100
AcDbEntity
  8
0
  6
Continuous
 62
     7
370
    25
100
AcDbLine
 10
142.5720564929
 20
155.2279301358
 30
0.0
 11
142.0180439466
 21
153.3886294883
 31
0.0
  0
LINE
  5
11B
330
1F
100
AcDbEntity
  8
0
  6
Continuous
 62
     7
370
    25
100
AcDbLine
 10
141.7324598351
 20
156.9061083914
 30
0.0
 11
140.4165850223
 21
158.3055476543
 31
0.0
  0
ARC
  5
11C
330
1F
100
AcDbEntity
  8
0
  6
Continuous
 62
     7
370
    25
100
AcDbCircle
 10
126.8442205569
 20
152.5944577567
 30
0.0
 40
15.50000000000002
100
AcDbArc
 50
10.3234545941
 51
16.1510750769
  0
ARC
  5
11D
330
1F
100
AcDbEntity
  8
0
  6
Continuous
 62
     7
370
    25
100
AcDbCircle
 10
111.5951382608
 20
149.8167808272
 30
0.0
 40
0.5000000000000037
100
AcDbArc
 50
163.2372648355
 51
190.3234545941
  0
LINE
  5
11E
330
1F
100
AcDbEntity
  8
0
  6
Continuous
 62
     7
370
    25
100
AcDbLine
 10
111.5951382608
 20
149.8167808272
 30
0.0
 11
111.116384621
 21
149.9609853776
 31
0.0
  0
LINE
  5
11F
330
1F
100
AcDbEntity
  8
0
  6
Continuous
 62
     7
370
    25
100
AcDbLine
 10
111.1032323803
 20
149.7271783456
 30
0.0
 11
111.5951382608
 21
149.8167808272
 31
0.0
  0
ARC
  5
120
330
1F
100
AcDbEntity
  8
0
  6
Continuous
 62
     7
370
    25
100
AcDbCircle
 10
115.6661019359
 20
163.3322258718
 30
0.0
 40
0.5000000000000091
100
AcDbArc
 50
136.1510750769
 51
163.2372648355
  0
LINE
  5
121
330
1F
100
AcDbEntity
  8
0
  6
Continuous
 62
     7
370
    25
100
AcDbLine
 10
128.5699618392
 20
167.6907302114
 30
0.0
 11
130.4398491982
 21
168.130591596
 31
0.0
  0
LINE
  5
122
330
1F
100
AcDbEntity
  8
0
  6
Continuous
 62
     7
370
    25
100
AcDbLine
 10
130.4398491982
 20
168.130591596
 30
0.0
 11
130.5543412141
 21
167.6438765066
 31
0.0
  0
LINE
  5
123
330
1F
100
AcDbEntity
  8
0
  6
Continuous
 62
     7
370
    25
100
AcDbLine
 10
130.5543412141
 20
167.6438765066
 30
0.0
 11
128.684453855
 21
167.2040151219
 31
0.0
  0
LINE
  5
124
330
1F
100
AcDbEntity
  8
0
  6
Continuous
 62
     7
370
    25
100
AcDbLine
 10
133.3790977333
 20
165.7899496115
 30
0.0
 11
132.0632229205
 21
167.1893888743
 31
0.0
  0
ARC
  5
125
330
1F
100
AcDbEntity
  8
0
  6
Continuous
 62
     7
370
    25
100
AcDbCircle
 10
126.8442205569
 20
152.5944577567
 30
0.0
 40
15.50000000000002
100
AcDbArc
 50
70.3234545941
 51
76.1510750769
  0
LINE
  5
126
330
1F
100
AcDbEntity
  8
0
  6
Continuous
 62
     7
370
    25
100
AcDbLine
 10
130.6740225256
 20
168.1293416275
 30
0.0
 11
130.5543412141
 21
167.6438765066
 31
0.0
  0
ARC
  5
127
330
1F
100
AcDbEntity
  8
0
  6
Continuous
 62
     7
370
    25
100
AcDbCircle
 10
130.5543412141
 20
167.6438765066
 30
0.0
 40
0.5000000000000184
100
AcDbArc
 50
76.1510750769
 51
103.2372648355
  0
LINE
  5
128
330
1F
100
AcDbEntity
  8
0
  6
Continuous
 62
     7
370
    25
100
AcDbLine
 10
112.4823713506
 20
146.9930841731
 30
0.0
 11
111.5917196548
 21
147.940296583
 31
0.0
  0
LINE
  5
129
330
1F
100
AcDbEntity
  8
0
  6
Continuous
 62
     7
370
    25
100
AcDbLine
 10
111.5917196548
 20
147.940296583
 30
0.0
 11
111.9559812788
 21
148.2828071219
 31
0.0
  0
LINE
  5
12A
330
1F
100
AcDbEntity
  8
0
  6
Continuous
 62
     7
370
    25
100
AcDbLine
 10
142.2127256183
 20
157.0451938958
 30
0.0
 11
141.7324598351
 21
156.9061083914
 31
0.0
  0
ARC
  5
12B
330
1F
100
AcDbEntity
  8
0
  6
Continuous
 62
     7
370
    25
100
AcDbCircle
 10
126.8442205569
 20
152.5944577567
 30
0.0
 40
16.00000000000001
100
AcDbArc
 50
10.3234545941
 51
16.1510750769
  0
LINE
  5
12C
330
1F
100
AcDbEntity
  8
0
  6
Continuous
 62
     7
370
    25
100
AcDbLine
 10
142.0933028531
 20
155.3721346862
 30
0.0
 11
142.5852087336
 21
155.4617371678
 31
0.0
  0
LINE
  5
12D
330
1F
100
AcDbEntity
  8
0
  6
Continuous
 62
     7
370
    25
100
AcDbLine
 10
111.116384621
 20
149.9609853776
 30
0.0
 11
111.6703971673
 21
151.8002860251
 31
0.0
  0
LINE
  5
12E
330
1F
100
AcDbEntity
  8
0
  6
Continuous
 62
     7
370
    25
100
AcDbLine
 10
118.6840279834
 20
164.8515733294
 30
0.0
 11
116.8141406244
 21
164.4117119448
 31
0.0
  0
ARC
  5
12F
330
1F
100
AcDbEntity
  8
0
  6
Continuous
 62
     7
370
    25
100
AcDbCircle
 10
116.8141406244
 20
164.4117119448
 30
0.0
 40
0.5000000000000296
100
AcDbArc
 50
103.2372648355
 51
130.3234545941
  0
LINE
  5
130
330
1F
100
AcDbEntity
  8
0
  6
Continuous
 62
     7
370
    25
100
AcDbLine
 10
116.8141406244
 20
164.4117119448
 30
0.0
 11
116.6996486085
 21
164.8984270343
 31
0.0
  0
ARC
  5
131
330
1F
100
AcDbEntity
  8
0
  6
Continuous
 62
     7
370
    25
100
AcDbCircle
 10
126.8442205569
 20
152.5944577567
 30
0.0
 40
16.00000000000001
100
AcDbArc
 50
70.3234545941
 51
76.1510750769
  0
LINE
  5
132
330
1F
100
AcDbEntity
  8
0
  6
Continuous
 62
     7
370
    25
100
AcDbLine
 10
132.2315778355
 20
167.6601931039
 30
0.0
 11
132.0632229205
 21
167.1893888743
 31
0.0
  0
LINE
  5
133
330
1F
100
AcDbEntity
  8
0
  6
Continuous
 62
     7
370
    25
100
AcDbLine
 10
132.4274845445
 20
167.5318994133
 30
0.0
 11
132.0632229205
 21
167.1893888743
 31
0.0
  0
ARC
  5
134
330
1F
100
AcDbEntity
  8
0
  6
Continuous
 62
     7
370
    25
100
AcDbCircle
 10
132.0632229205
 20
167.1893888743
 30
0.0
 40
0.4999999999999672
100
AcDbArc
 50
43.2372648355
 51
70.3234545941
  0
LINE
  5
135
330
1F
100
AcDbEntity
  8
0
  6
Continuous
 62
     7
370
    25
100
AcDbLine
 10
142.0967214591
 20
157.2486189304
 30
0.0
 11
141.7324598351
 21
156.9061083914
 31
0.0
  0
ARC
  5
136
330
1F
100
AcDbEntity
  8
0
  6
Continuous
 62
     7
370
    25
100
AcDbCircle
 10
141.7324598351
 20
156.9061083914
 30
0.0
 40
0.4999999999999875
100
AcDbArc
 50
16.1510750769
 51
43.2372648355
  0
LINE
  5
137
330
1F
100
AcDbEntity
  8
0
  6
Continuous
 62
     7
370
    25
100
AcDbLine
 10
116.6996486085
 20
164.8984270343
 30
0.0
 11
118.5695359676
 21
165.3382884189
 31
0.0
  0
LINE
  5
138
330
1F
100
AcDbEntity
  8
0
  6
Continuous
 62
     7
370
    25
100
AcDbLine
 10
132.4274845445
 20
167.5318994133
 30
0.0
 11
133.7433593573
 21
166.1324601505
 31
0.0
  0
ARC
  5
139
330
1F
100
AcDbEntity
  8
0
  6
Continuous
 62
     7
370
    25
100
AcDbCircle
 10
111.9559812788
 20
148.2828071219
 30
0.0
 40
0.5000000000000269
100
AcDbArc
 50
196.1510750769
 51
223.2372648355
  0
LINE
  5
13A
330
1F
100
AcDbEntity
  8
0
  6
Continuous
 62
     7
370
    25
100
AcDbLine
 10
111.9559812788
 20
148.2828071219
 30
0.0
 11
111.4757154956
 21
148.1437216176
 31
0.0
  0
ARC
  5
13B
330
1F
100
AcDbEntity
  8
0
  6
Continuous
 62
     7
370
    25
100
AcDbCircle
 10
142.0933028531
 20
155.3721346862
 30
0.0
 40
0.4999999999999818
100
AcDbArc
 50
343.2372648355
 51
10.3234545941
  0
LINE
  5
13C
330
1F
100
AcDbEntity
  8
0
  6
Continuous
 62
     7
370
    25
100
AcDbLine
 10
140.7808466463
 20
158.6480581933
 30
0.0
 11
142.0967214591
 21
157.2486189304
 31
0.0
  0
ARC
  5
13D
330
1F
100
AcDbEntity
  8
0
  6
Continuous
 62
     7
370
    25
100
AcDbCircle
 10
126.8442205569
 20
152.5944577567
 30
0.0
 40
16.00000000000001
100
AcDbArc
 50
190.3234545941
 51
196.1510750769
  0
SPLINE
  5
13E
330
1F
100
AcDbEntity
  8
0
  6
Continuous
 62
     7
370
    25
100
AcDbSpline
210
0.0
220
0.0
230
1.0
 70
     8
 71
     3
 72
    16
 73
    12
 74
     0
 42
0.00000001
 43
0.00000001
 40
0.0
 40
0.0
 40
0.0
 40
0.0
 40
0.0962609359999919
 40
0.1959421162028152
 40
0.2938006509495218
 40
0.3945959697367964
 40
0.4987223162605978
 40
0.6057407305130916
 40
0.7149663963104298
 40
0.8273380647830927
 40
1.0
 40
1.0
 40
1.0
 40
1.0
 10
139.3322389844407
 20
150.3601943119654
 30
0.0
 10
139.3557586185762
 20
151.0069790807574
 30
0.0
 10
139.4036335622067
 20
152.3235295070368
 30
0.0
 10
139.0350363032749
 20
154.26785115335
 30
0.0
 10
138.355209284455
 20
156.1368295763476
 30
0.0
 10
137.3548084128291
 20
157.8813684999126
 30
0.0
 10
136.0444377332147
 20
159.4769151453577
 30
0.0
 10
134.4436118202705
 20
160.8729339069154
 30
0.0
 10
132.5808352486795
 20
162.0124702970533
 30
0.0
 10
130.140070071997
 20
163.0372950237444
 30
0.0
 10
128.2327153398451
 20
163.2769252962525
 30
0.0
 10
127.0773162748382
 20
163.422083712847
 30
0.0
  0
SPLINE
  5
13F
330
1F
100
AcDbEntity
  8
0
  6
Continuous
 62
     7
370
    25
100
AcDbSpline
210
0.0
220
0.0
230
1.0
 70
    24
 71
     3
 72
    13
 73
     9
 74
     0
 42
0.00000001
 43
0.00000001
 40
0.0
 40
0.0
 40
0.0
 40
0.0
 40
0.0088769305891355
 40
0.1568018335478664
 40
0.367679966084105
 40
0.5784774725819178
 40
0.7892380841704597
 40
1.0
 40
1.0
 40
1.0
 40
1.0
 10
127.0773162748382
 20
163.422083712847
 30
0.0
 10
127.0776205268707
 20
163.4362166502381
 30
0.0
 10
127.0829948255749
 20
163.6858604290277
 30
0.0
 10
127.0956366473559
 20
164.2730909428709
 30
0.0
 10
127.1139954889461
 20
165.1258851135688
 30
0.0
 10
127.1302172239301
 20
165.8794076597877
 30
0.0
 10
127.1411326712941
 20
166.386445636455
 30
0.0
 10
127.14240006285
 20
166.4453177677704
 30
0.0
 10
127.1430337605887
 20
166.4747539245068
 30
0.0
  0
SPLINE
  5
140
330
1F
100
AcDbEntity
  8
0
  6
Continuous
 62
     7
370
    25
100
AcDbSpline
210
0.0
220
0.0
230
1.0
 70
     8
 71
     3
 72
    17
 73
    13
 74
     0
 42
0.00000001
 43
0.00000001
 40
0.0
 40
0.0
 40
0.0
 40
0.0
 40
0.084498659021284
 40
0.1707523992472066
 40
0.2766477565163949
 40
0.3858653819358107
 40
0.4890481164110219
 40
0.5951098677618353
 40
0.6947410048160341
 40
0.7970236474831212
 40
0.8970660656490502
 40
1.0
 40
1.0
 40
1.0
 40
1.0
 10
127.1430337605887
 20
166.4747539245068
 30
0.0
 10
127.8227250481977
 20
166.4133387588443
 30
0.0
 10
129.1962251658437
 20
166.2892328025071
 30
0.0
 10
131.3566063850327
 20
165.7040458295857
 30
0.0
 10
133.5850699623237
 20
164.7350787954232
 30
0.0
 10
135.7185637479027
 20
163.3188535427791
 30
0.0
 10
137.5776722519519
 20
161.5685738155857
 30
0.0
 10
139.0735567683835
 20
159.5942753189084
 30
0.0
 10
140.2278520116015
 20
157.4061175872806
 30
0.0
 10
140.9964848712322
 20
155.0996828513463
 30
0.0
 10
141.4177128650135
 20
152.6625163156602
 30
0.0
 10
141.3585501423682
 20
151.0229035644199
 30
0.0
 10
141.3285473773502
 20
150.1914185702105
 30
0.0
  0
LWPOLYLINE
  5
141
330
1F
100
AcDbEntity
  8
0
  6
Continuous
 62
     7
370
    25
100
AcDbPolyline
 90
        9
 70
   128
 43
0.0
 10
139.3322389844
 20
150.360194312
 10
139.7532300749
 20
150.3246903158
 10
140.1407120366
 20
150.2919956382
 10
140.4855028909
 20
150.2628850298
 10
140.7794322901
 20
150.2380483108
 10
141.015535127
 20
150.2180740255
 10
141.1882165829
 20
150.2034354952
 10
141.2933847063
 20
150.1944796022
 10
141.3285473774
 20
150.1914185702
  0
SPLINE
  5
142
330
1F
100
AcDbEntity
  8
0
  6
Continuous
 62
     7
370
    25
100
AcDbSpline
210
0.0
220
0.0
230
1.0
 70
     8
 71
     3
 72
    16
 73
    12
 74
     0
 42
0.00000001
 43
0.00000001
 40
0.0
 40
0.0
 40
0.0
 40
0.0
 40
0.172662241366496
 40
0.2818848601443018
 40
0.3942600249464304
 40
0.4984159758268112
 40
0.6054047847486057
 40
0.7033215749073312
 40
0.8040581654821954
 40
0.9003567674661672
 40
0.9999999999999999
 40
0.9999999999999999
 40
0.9999999999999999
 40
0.9999999999999999
 10
127.0773162748382
 20
163.422083712847
 30
0.0
 10
125.9166963730823
 20
163.3268987385911
 30
0.0
 10
124.0218919497301
 20
163.1715016874255
 30
0.0
 10
121.5378272511891
 20
162.2593867172046
 30
0.0
 10
119.6410109441182
 20
161.2144585862128
 30
0.0
 10
117.9628582941116
 20
159.8797293339763
 30
0.0
 10
116.5937317576355
 20
158.3589231352003
 30
0.0
 10
115.5054712189084
 20
156.6463042378223
 30
0.0
 10
114.7497857135692
 20
154.8304926914386
 30
0.0
 10
114.2881056192916
 20
152.8874634584003
 30
0.0
 10
114.2771764512845
 20
151.5697825910304
 30
0.0
 10
114.2716185895251
 20
150.8996960758366
 30
0.0
  0
LWPOLYLINE
  5
143
330
1F
100
AcDbEntity
  8
0
  6
Continuous
 62
     7
370
    25
100
AcDbPolyline
 90
        9
 70
   128
 43
0.0
 10
112.2698963163
 20
150.8169894163
 10
112.3051581442
 20
150.8185343589
 10
112.4106142565
 20
150.8229559608
 10
112.5837657092
 20
150.8301494454
 10
112.8205094134
 20
150.8399443521
 10
113.1152353641
 20
150.8521085755
 10
113.4609595785
 20
150.8663538658
 10
113.8494895916
 20
150.8823426589
 10
114.2716185895
 20
150.8996960758
  0
SPLINE
  5
144
330
1F
100
AcDbEntity
  8
0
  6
Continuous
 62
     7
370
    25
100
AcDbSpline
210
0.0
220
0.0
230
1.0
 70
     8
 71
     3
 72
    17
 73
    13
 74
     0
 42
0.00000001
 43
0.00000001
 40
0.0
 40
0.0
 40
0.0
 40
0.0
 40
0.1000301760603105
 40
0.2029765358723072
 40
0.302592043542872
 40
0.4048905291350462
 40
0.508076689493847
 40
0.6141349813330066
 40
0.7200529301392606
 40
0.8292476404276979
 40
0.9137512522894782
 40
1.0
 40
1.0
 40
1.0
 40
1.0
 10
112.2698963163142
 20
150.8169894162665
 30
0.0
 10
112.2745704567505
 20
151.6253940190731
 30
0.0
 10
112.2840550030273
 20
153.2657706766327
 30
0.0
 10
112.800027550257
 20
155.6635746414114
 30
0.0
 10
113.6705717143412
 20
157.9578509118135
 30
0.0
 10
114.902295207861
 20
160.0777549176361
 30
0.0
 10
116.4904355256229
 20
162.005307211783
 30
0.0
 10
118.3999791707161
 20
163.6616392754203
 30
0.0
 10
120.6076556657531
 20
165.0018542356101
 30
0.0
 10
122.8610971212185
 20
165.8751892650471
 30
0.0
 10
125.0695268722647
 20
166.3755855508184
 30
0.0
 10
126.4471714961111
 20
166.4414733362108
 30
0.0
 10
127.1430337605887
 20
166.4747539245068
 30
0.0
  0
SPLINE
  5
145
330
1F
100
AcDbEntity
  8
0
  6
Continuous
 62
     7
370
    25
100
AcDbSpline
210
0.0
220
0.0
230
1.0
 70
     8
 71
     3
 72
    16
 73
    12
 74
     0
 42
0.00000001
 43
0.00000001
 40
0.0
 40
0.0
 40
0.0
 40
0.0
 40
0.0986403448482999
 40
0.1973451184529484
 40
0.2984849550463985
 40
0.3997162815975183
 40
0.5112170933634054
 40
0.6227668911731813
 40
0.7429953860048758
 40
0.8632240990171001
 40
0.9999999999999999
 40
0.9999999999999999
 40
0.9999999999999999
 40
0.9999999999999999
 10
112.5621170959425
 20
-52.16556836041493
 30
0.0
 10
112.5754177796758
 20
-52.63986053113111
 30
0.0
 10
112.6020278347286
 20
-53.58875466522238
 30
0.0
 10
112.9651048804366
 20
-54.98020914141328
 30
0.0
 10
113.553380283721
 20
-56.28547185459594
 30
0.0
 10
114.3805499922265
 20
-57.5163876915606
 30
0.0
 10
115.4325762338365
 20
-58.62210262856878
 30
0.0
 10
116.7214897947999
 20
-59.60003096629267
 30
0.0
 10
118.1992756783181
 20
-60.37359344202324
 30
0.0
 10
119.9049460687327
 20
-60.96802651618725
 30
0.0
 10
121.1309709167618
 20
-61.11805324722856
 30
0.0
 10
121.7834520166528
 20
-61.19789633249735
 30
0.0
  0
LINE
  5
146
330
1F
100
AcDbEntity
  8
0
  6
Continuous
 62
     7
370
    25
100
AcDbLine
 10
113.2692273793
 20
-40.5810026561
 30
0.0
 11
112.5621170959
 21
-52.1655683604
 31
0.0
  0
SPLINE
  5
147
330
1F
100
AcDbEntity
  8
0
  6
Continuous
 62
     7
370
    25
100
AcDbSpline
210
0.0
220
0.0
230
1.0
 70
     8
 71
     3
 72
    17
 73
    13
 74
     0
 42
0.00000001
 43
0.00000001
 40
0.0
 40
0.0
 40
0.0
 40
0.0
 40
0.1240509471120261
 40
0.2481614352877118
 40
0.3419043525855877
 40
0.4356472693735383
 40
0.5294882255574205
 40
0.6233290621174095
 40
0.717435962999523
 40
0.8115424928857023
 40
0.9057719634105866
 40
1.0
 40
1.0
 40
1.0
 40
1.0
 10
114.6151731318736
 20
145.1874282499235
 30
0.0
 10
115.1545842960114
 20
137.513498447352
 30
0.0
 10
116.2336655269008
 20
122.1619555656722
 30
0.0
 10
117.1795183517302
 20
100.9777497025389
 30
0.0
 10
117.7236669519812
 20
81.66218625762876
 30
0.0
 10
117.9380003411758
 20
64.21768833957434
 30
0.0
 10
117.8797084690053
 20
46.76679935375422
 30
0.0
 10
117.542353703438
 20
29.29756413969502
 30
0.0
 10
116.9240674981305
 20
11.82070210668683
 30
0.0
 10
116.0120437473366
 20
-5.664675119328624
 30
0.0
 10
114.8295030052737
 20
-23.13947287768327
 30
0.0
 10
113.7893166164593
 20
-34.76718888760121
 30
0.0
 10
113.2692273793372
 20
-40.5810026560776
 30
0.0
  0
LINE
  5
148
330
1F
100
AcDbEntity
  8
0
  6
Continuous
 62
     7
370
    25
100
AcDbLine
 10
114.2716185895
 20
150.8996960758
 30
0.0
 11
114.6151731319
 21
145.1874282499
 31
0.0
  0
LINE
  5
149
330
1F
100
AcDbEntity
  8
0
  6
Continuous
 62
     7
370
    25
100
AcDbLine
 10
138.7431707534
 20
144.6680038674
 30
0.0
 11
139.3322389844
 21
150.360194312
 31
0.0
  0
SPLINE
  5
14A
330
1F
100
AcDbEntity
  8
0
  6
Continuous
 62
     7
370
    25
100
AcDbSpline
210
0.0
220
0.0
230
1.0
 70
     8
 71
     3
 72
    17
 73
    13
 74
     0
 42
0.00000001
 43
0.00000001
 40
0.0
 40
0.0
 40
0.0
 40
0.0
 40
0.1175912744314824
 40
0.2352544953891716
 40
0.3306092539664667
 40
0.4259643023163858
 40
0.521427984646408
 40
0.6168917583122017
 40
0.7126161308224634
 40
0.8083404621932818
 40
0.9041703404535814
 40
1.0
 40
1.0
 40
1.0
 40
1.0
 10
132.0931776102017
 20
-40.98624219893775
 30
0.0
 10
131.7659225189891
 20
-33.70880804019542
 30
0.0
 10
131.1112121102536
 20
-19.14948712952354
 30
0.0
 10
130.7430011050324
 20
1.343106785326523
 30
0.0
 10
130.7278934230669
 20
20.46092864974837
 30
0.0
 10
131.0133534226422
 20
38.20265807102177
 30
0.0
 10
131.5859979033555
 20
55.94514955258445
 30
0.0
 10
132.4460319099663
 20
73.69995405645817
 30
0.0
 10
133.5882421831804
 20
91.4558514539473
 30
0.0
 10
135.0176193688292
 20
109.2140419011112
 30
0.0
 10
136.7059820317395
 20
126.956891625931
 30
0.0
 10
138.0641083628227
 20
138.7643042782555
 30
0.0
 10
138.7431707534456
 20
144.6680038673539
 30
0.0
  0
LINE
  5
14B
330
1F
100
AcDbEntity
  8
0
  6
Continuous
 62
     7
370
    25
100
AcDbLine
 10
132.301081795
 20
-52.5905062153
 30
0.0
 11
132.0931776102
 21
-40.9862421989
 31
0.0
  0
SPLINE
  5
14C
330
1F
100
AcDbEntity
  8
0
  6
Continuous
 62
     7
370
    25
100
AcDbSpline
210
0.0
220
0.0
230
1.0
 70
     8
 71
     3
 72
    16
 73
    12
 74
     0
 42
0.00000001
 43
0.00000001
 40
0.0
 40
0.0
 40
0.0
 40
0.0
 40
0.1367759009829185
 40
0.2570046139951413
 40
0.377233108826836
 40
0.488782906636604
 40
0.6002837184024828
 40
0.7015150449536055
 40
0.8026548815470556
 40
0.9013596551517002
 40
1.0
 40
1.0
 40
1.0
 40
1.0
 10
122.6995767490928
 20
-61.21761854612522
 30
0.0
 10
123.3548894560696
 20
-61.16592947518111
 30
0.0
 10
124.5862349496279
 20
-61.06880469201191
 30
0.0
 10
126.3159069886899
 20
-60.54832722114053
 30
0.0
 10
127.8256146247961
 20
-59.83907911584406
 30
0.0
 10
129.1554199698222
 20
-58.91752621682063
 30
0.0
 10
130.2540568620009
 20
-57.85811047495944
 30
0.0
 10
131.1334336638073
 20
-56.66393294845688
 30
0.0
 10
131.7773370653972
 20
-55.38519641970836
 30
0.0
 10
132.1999600796521
 20
-54.01065639182494
 30
0.0
 10
132.2673818937703
 20
-53.06378656353607
 30
0.0
 10
132.3010817949741
 20
-52.59050621527587
 30
0.0
  0
LINE
  5
14D
330
1F
100
AcDbEntity
  8
0
  6
Continuous
 62
     7
370
    25
100
AcDbLine
 10
122.6995767491
 20
-61.2176185461
 30
0.0
 11
121.7834520167
 21
-61.1978963325
 31
0.0
  0
ARC
  5
14E
330
1F
100
AcDbEntity
  8
0
  6
Continuous
 62
     7
370
    25
100
AcDbCircle
 10
134.1125347496
 20
100.2977187125
 30
0.0
 40
44.61126533205222
100
AcDbArc
 50
81.4343713085
 51
84.041983386
  0
SPLINE
  5
14F
330
1F
100
AcDbEntity
  8
0
  6
Continuous
 62
     7
370
    25
100
AcDbSpline
210
0.0
220
0.0
230
1.0
 70
     8
 71
     3
 72
    17
 73
    13
 74
     0
 42
0.00000001
 43
0.00000001
 40
0.0
 40
0.0
 40
0.0
 40
0.0
 40
0.0957332006181085
 40
0.1914666626186343
 40
0.2872937780871115
 40
0.3831209994834881
 40
0.4785058697472736
 40
0.5738907506760397
 40
0.6693616536447674
 40
0.7648324358912428
 40
0.8823919961686068
 40
1.0
 40
1.0
 40
1.0
 40
1.0
 10
140.7570333714557
 20
144.411385898387
 30
0.0
 10
140.1138372579564
 20
138.5257672803014
 30
0.0
 10
138.8274432748258
 20
126.754513974499
 30
0.0
 10
137.2248369411693
 20
109.0578759962807
 30
0.0
 10
135.8624250813261
 20
91.33615189765852
 30
0.0
 10
134.7659512365717
 20
73.61796656088299
 30
0.0
 10
133.928373762464
 20
55.91382577087906
 30
0.0
 10
133.350384572254
 20
38.22226605683711
 30
0.0
 10
133.0288579716627
 20
20.51975551976924
 30
0.0
 10
132.9666174878714
 20
1.445449038265503
 30
0.0
 10
133.2064080331707
 20
-18.99556339980819
 30
0.0
 10
133.708329032915
 20
-33.51837375714494
 30
0.0
 10
133.9593412296212
 20
-40.78127475550859
 30
0.0
  0
ARC
  5
150
330
1F
100
AcDbEntity
  8
0
  6
Continuous
 62
     7
370
    25
100
AcDbCircle
 10
132.1135800567
 20
-32.5741020981
 30
0.0
 40
8.412164842418207
100
AcDbArc
 50
269.8610375279
 51
282.6747175185
  0
SPLINE
  5
151
330
1F
100
AcDbEntity
  8
0
  6
Continuous
 62
     7
370
    25
100
AcDbSpline
210
0.0
220
0.0
230
1.0
 70
     8
 71
     3
 72
    17
 73
    13
 74
     0
 42
0.00000001
 43
0.00000001
 40
0.0
 40
0.0
 40
0.0
 40
0.0
 40
0.0941011890930001
 40
0.1882033052366397
 40
0.2824021014499762
 40
0.3766010772541449
 40
0.47037202368152
 40
0.564142982866879
 40
0.6579955000176901
 40
0.7518479480208068
 40
0.8758982641338979
 40
1.0
 40
1.0
 40
1.0
 40
1.0
 10
111.4136136392399
 20
-40.29591327557928
 30
0.0
 10
111.8703058997479
 20
-34.49948721791761
 30
0.0
 10
112.7836949199296
 20
-22.90657799831615
 30
0.0
 10
113.8374584915823
 20
-5.480376342485924
 30
0.0
 10
114.6586539176721
 20
11.96609497513758
 30
0.0
 10
115.2232327345544
 20
29.40455838538562
 30
0.0
 10
115.5381797815556
 20
46.8239079355343
 30
0.0
 10
115.6027212544624
 20
64.22552105424886
 30
0.0
 10
115.4192498236543
 20
81.63217799769167
 30
0.0
 10
114.9335594161065
 20
100.9066494398895
 30
0.0
 10
114.0774382717713
 20
122.0430635552588
 30
0.0
 10
113.0873028374757
 20
137.3584408193922
 30
0.0
 10
112.5921325370145
 20
145.0177162062528
 30
0.0
  0
ARC
  5
152
330
1F
100
AcDbEntity
  8
0
  6
Continuous
 62
     7
370
    25
100
AcDbCircle
 10
117.3320085449
 20
100.6589676897
 30
0.0
 40
44.61126533201047
100
AcDbArc
 50
93.4914854829
 51
96.0990975604
  0
ARC
  5
153
330
1F
100
AcDbEntity
  8
0
  6
Continuous
 62
     7
370
    25
100
AcDbCircle
 10
113.6108669633
 20
-32.1757781064
 30
0.0
 40
8.412164842423529
100
AcDbArc
 50
254.8587513504
 51
267.672431341
  0
LINE
  5
154
330
1F
100
AcDbEntity
  8
0
  6
Continuous
 62
     7
370
    25
100
AcDbLine
 10
112.592132537
 20
145.0177162063
 30
0.0
 11
112.2698963163
 21
150.8169894163
 31
0.0
  0
LINE
  5
155
330
1F
100
AcDbEntity
  8
0
  6
Continuous
 62
     7
370
    25
100
AcDbLine
 10
141.3285473774
 20
150.1914185702
 30
0.0
 11
140.7570333715
 21
144.4113858984
 31
0.0
  0
LINE
  5
156
330
1F
100
AcDbEntity
  8
0
  6
Continuous
 62
     7
370
    25
100
AcDbLine
 10
111.4151420594
 20
-40.2249159978
 30
0.0
 11
111.4136136392
 21
-40.2959132756
 31
0.0
  0
LINE
  5
157
330
1F
100
AcDbEntity
  8
0
  6
Continuous
 62
     7
370
    25
100
AcDbLine
 10
133.9593412296
 20
-40.7812747555
 30
0.0
 11
133.9608696497
 21
-40.7102774777
 31
0.0
  0
ARC
  5
158
330
1F
100
AcDbEntity
  8
0
  6
Continuous
 62
     7
370
    25
100
AcDbCircle
 10
112.591713543
 20
-37.0348909332
 30
0.0
 40
15.13070637335064
100
AcDbArc
 50
263.1461188406
 51
269.8879264099
  0
ARC
  5
159
330
1F
100
AcDbEntity
  8
0
  6
Continuous
 62
     7
370
    25
100
AcDbCircle
 10
158.2778105171
 20
-64.8691714772
 30
0.0
 40
36.67855590872314
100
AcDbArc
 50
174.2554608825
 51
178.8544687397
  0
SPLINE
  5
15A
330
1F
100
AcDbEntity
  8
0
  6
Continuous
 62
     7
370
    25
100
AcDbSpline
210
0.0
220
0.0
230
1.0
 70
     8
 71
     3
 72
    16
 73
    12
 74
     0
 42
0.00000001
 43
0.00000001
 40
0.0
 40
0.0
 40
0.0
 40
0.0
 40
0.1289418392257835
 40
0.2439400911840276
 40
0.3589702137075976
 40
0.4693438180688111
 40
0.5797228950311687
 40
0.6843248890190623
 40
0.7889067987468501
 40
0.894461641609202
 40
1.0
 40
1.0
 40
1.0
 40
1.0
 10
121.606585155553
 20
-64.13589524688194
 30
0.0
 10
120.8402263321095
 20
-64.03078130689045
 30
0.0
 10
119.3903816393939
 20
-63.83192029901134
 30
0.0
 10
117.3882193589236
 20
-63.03495390360915
 30
0.0
 10
115.6476821183388
 20
-61.99542949662974
 30
0.0
 10
114.1401645354367
 20
-60.68559790242485
 30
0.0
 10
112.9041388424149
 20
-59.19832518210459
 30
0.0
 10
111.9405512300982
 20
-57.55558358969363
 30
0.0
 10
111.2535686526035
 20
-55.80551772780161
 30
0.0
 10
110.8312218596717
 20
-53.95436571173843
 30
0.0
 10
110.8011063570586
 20
-52.68973502874837
 30
0.0
 10
110.7860497816263
 20
-52.05746906536783
 30
0.0
  0
ARC
  5
15B
330
1F
100
AcDbEntity
  8
0
  6
Continuous
 62
     7
370
    25
100
AcDbCircle
 10
132.9226734845
 20
-37.4725731842
 30
0.0
 40
15.13070637346297
100
AcDbArc
 50
267.645542459
 51
274.3873500283
  0
SPLINE
  5
15C
330
1F
100
AcDbEntity
  8
0
  6
Continuous
 62
     7
370
    25
100
AcDbSpline
210
0.0
220
0.0
230
1.0
 70
     8
 71
     3
 72
    16
 73
    12
 74
     0
 42
0.00000001
 43
0.00000001
 40
0.0
 40
0.0
 40
0.0
 40
0.0
 40
0.1040419239026749
 40
0.2110962820894871
 40
0.3143508318419101
 40
0.4202791470204353
 40
0.5291618722915323
 40
0.6410309509559923
 40
0.7542368876038541
 40
0.8710636636122803
 40
1.0
 40
1.0
 40
1.0
 40
1.0
 10
134.0801557770539
 20
-52.55894153788808
 30
0.0
 10
134.0394831440853
 20
-53.18112051155867
 30
0.0
 10
133.9569602410052
 20
-54.44349305533223
 30
0.0
 10
133.4566631760113
 20
-56.26722379853939
 30
0.0
 10
132.6954166619859
 20
-57.99602696961036
 30
0.0
 10
131.6661149444998
 20
-59.58817391860995
 30
0.0
 10
130.365786126161
 20
-61.02991804708406
 30
0.0
 10
128.8109698965609
 20
-62.26659369329126
 30
0.0
 10
127.0230773885623
 20
-63.23994924226533
 30
0.0
 10
124.9876860455693
 20
-63.95039712799453
 30
0.0
 10
123.5198967132268
 20
-64.08820699456265
 30
0.0
 10
122.7498406325723
 20
-64.160507101524
 30
0.0
  0
ARC
  5
15D
330
1F
100
AcDbEntity
  8
0
  6
Continuous
 62
     7
370
    25
100
AcDbCircle
 10
86.0810328973
 20
-63.3149286749
 30
0.0
 40
36.67855590942526
100
AcDbArc
 50
358.6790001293
 51
3.2780079864
  0
LINE
  5
15E
330
1F
100
AcDbEntity
  8
0
  6
Continuous
 62
     7
370
    25
100
AcDbLine
 10
121.6065851556
 20
-64.1358952469
 30
0.0
 11
122.7498406326
 21
-64.1605071015
 31
0.0
  0
LINE
  5
15F
330
1F
100
AcDbEntity
  8
0
  6
Continuous
 62
     7
370
    25
100
AcDbLine
 10
110.7860497816
 20
-52.0574690654
 30
0.0
 11
111.4136136392
 21
-40.2959132756
 31
0.0
  0
LINE
  5
160
330
1F
100
AcDbEntity
  8
0
  6
Continuous
 62
     7
370
    25
100
AcDbLine
 10
133.9593412296
 20
-40.7812747555
 30
0.0
 11
134.0801557771
 21
-52.5589415379
 31
0.0
  0
SPLINE
  5
161
330
1F
100
AcDbEntity
  8
0
  6
Continuous
 62
     7
370
    25
100
AcDbSpline
210
0.0
220
0.0
230
1.0
 70
     8
 71
     3
 72
     9
 73
     5
 74
     0
 42
0.00000001
 43
0.00000001
 40
0.0
 40
0.0
 40
0.0
 40
0.0
 40
0.5173759112325191
 40
1.0
 40
1.0
 40
1.0
 40
1.0
 10
134.0801557770539
 20
-52.55894153788808
 30
0.0
 10
134.0838016407302
 20
-52.37906735864918
 30
0.0
 10
134.0908484776569
 20
-52.03140103840935
 30
0.0
 10
134.1019604572354
 20
-51.20907242812649
 30
0.0
 10
134.1073233662539
 20
-50.81219683192133
 30
0.0
  0
SPLINE
  5
162
330
1F
100
AcDbEntity
  8
0
  6
Continuous
 62
     7
370
    25
100
AcDbSpline
210
0.0
220
0.0
230
1.0
 70
     8
 71
     3
 72
     9
 73
     5
 74
     0
 42
0.00000001
 43
0.00000001
 40
0.0
 40
0.0
 40
0.0
 40
0.0
 40
0.5697240273229179
 40
0.9999999999999999
 40
0.9999999999999999
 40
0.9999999999999999
 40
0.9999999999999999
 10
134.1073233662539
 20
-50.8121968319213
 30
0.0
 10
134.1073453519856
 20
-50.81039940118702
 30
0.0
 10
134.1073839421285
 20
-50.80724448644224
 30
0.0
 10
134.1074145932105
 20
-50.80403492374398
 30
0.0
 10
134.1074277816346
 20
-50.80265392603216
 30
0.0
  0
SPLINE
  5
163
330
1F
100
AcDbEntity
  8
0
  6
Continuous
 62
     7
370
    25
100
AcDbSpline
210
0.0
220
0.0
230
1.0
 70
     8
 71
     3
 72
     9
 73
     5
 74
     0
 42
0.00000001
 43
0.00000001
 40
0.0
 40
0.0
 40
0.0
 40
0.0
 40
0.4302759715687247
 40
1.0
 40
1.0
 40
1.0
 40
1.0
 10
110.8343862755285
 20
-50.30163492711025
 30
0.0
 10
110.8343400194012
 20
-50.30301521293877
 30
0.0
 10
110.8342325160071
 20
-50.30622312116452
 30
0.0
 10
110.8341352961367
 20
-50.30937677372767
 30
0.0
 10
110.8340799076406
 20
-50.31117348537022
 30
0.0
  0
SPLINE
  5
164
330
1F
100
AcDbEntity
  8
0
  6
Continuous
 62
     7
370
    25
100
AcDbSpline
210
0.0
220
0.0
230
1.0
 70
     8
 71
     3
 72
     9
 73
     5
 74
     0
 42
0.00000001
 43
0.00000001
 40
0.0
 40
0.0
 40
0.0
 40
0.0
 40
0.4826240887677677
 40
0.9999999999999999
 40
0.9999999999999999
 40
0.9999999999999999
 40
0.9999999999999999
 10
110.8340799076406
 20
-50.31117348537022
 30
0.0
 10
110.8223579916999
 20
-50.70791218570457
 30
0.0
 10
110.7980701117256
 20
-51.52995714692342
 30
0.0
 10
110.790148323848
 20
-51.87760463133352
 30
0.0
 10
110.7860497816263
 20
-52.05746906536783
 30
0.0
  0
LINE
  5
165
330
1F
100
AcDbEntity
  8
0
  6
Continuous
 62
     7
370
    25
100
AcDbLine
 10
110.834079889
 20
-50.3111743496
 30
0.0
 11
110.8340799076
 21
-50.3111734854
 31
0.0
  0
SPLINE
  5
166
330
1F
100
AcDbEntity
  8
0
  6
Continuous
 62
     7
370
    25
100
AcDbSpline
210
0.0
220
0.0
230
1.0
 70
     8
 71
     3
 72
    12
 73
     8
 74
     0
 42
0.00000001
 43
0.00000001
 40
0.0
 40
0.0
 40
0.0
 40
0.0
 40
0.2462814734948117
 40
0.4982835695466287
 40
0.7478612441217937
 40
0.998163120691827
 40
1.0
 40
1.0
 40
1.0
 40
1.0
 10
111.4151420593661
 20
-40.2249159978101
 30
0.0
 10
111.3435351507243
 20
-41.13150624586069
 30
0.0
 10
111.1986580491871
 20
-42.96574500732552
 30
0.0
 10
111.0416800799791
 20
-45.51185829780567
 30
0.0
 10
110.9192828557452
 20
-47.94434164669466
 30
0.0
 10
110.8596228287814
 20
-49.51553548581435
 30
0.0
 10
110.8342646284008
 20
-50.30541988984276
 30
0.0
 10
110.8340798890361
 20
-50.3111743495749
 30
0.0
  0
SPLINE
  5
167
330
1F
100
AcDbEntity
  8
0
  6
Continuous
 62
     7
370
    25
100
AcDbSpline
210
0.0
220
0.0
230
1.0
 70
     8
 71
     3
 72
    12
 73
     8
 74
     0
 42
0.00000001
 43
0.00000001
 40
0.0
 40
0.0
 40
0.0
 40
0.0
 40
0.0018368910680114
 40
0.2515916397908289
 40
0.5017194507754613
 40
0.7486305910858637
 40
1.0
 40
1.0
 40
1.0
 40
1.0
 10
134.1073233476494
 20
-50.81219769612595
 30
0.0
 10
134.1073864271739
 20
-50.80644061709582
 30
0.0
 10
134.1160261779272
 20
-50.01791647496199
 30
0.0
 10
134.1240601330344
 20
-48.44563558810209
 30
0.0
 10
134.1066060192686
 20
-46.02668808241646
 30
0.0
 10
134.0596424951391
 20
-43.47596863694115
 30
0.0
 10
133.9939897366538
 20
-41.6376571759305
 30
0.0
 10
133.9608696497474
 20
-40.7102774777394
 30
0.0
  0
LINE
  5
168
330
1F
100
AcDbEntity
  8
0
  6
Continuous
 62
     7
370
    25
100
AcDbLine
 10
134.1073233663
 20
-50.8121968319
 30
0.0
 11
134.1073233476
 21
-50.8121976961
 31
0.0
  0
LINE
  5
169
330
1F
100
AcDbEntity
  8
0
  6
Continuous
 62
     7
370
    25
100
AcDbLine
 10
207.676636109
 20
155.1944577567
 30
0.0
 11
207.6941145703
 21
155.1944577567
 31
0.0
  0
ARC
  5
16A
330
1F
100
AcDbEntity
  8
0
  6
Continuous
 62
     7
370
    25
100
AcDbCircle
 10
197.3869859692
 20
152.5944577567
 30
0.0
 40
10.61305328357492
100
AcDbArc
 50
7.3079276166
 51
14.1807309007
  0
SPLINE
  5
16B
330
1F
100
AcDbEntity
  8
0
  6
Continuous
 62
     7
370
    25
100
AcDbSpline
210
0.0
220
0.0
230
1.0
 70
     8
 71
     3
 72
    12
 73
     8
 74
     0
 42
0.00000001
 43
0.00000001
 40
0.0
 40
0.0
 40
0.0
 40
0.0
 40
0.2133534395476153
 40
0.4267919313634476
 40
0.6383539739091488
 40
0.8490950351927585
 40
1.0
 40
1.0
 40
1.0
 40
1.0
 10
207.9138278507417
 20
153.1944577566954
 30
0.0
 10
207.9234869944691
 20
153.2025593168114
 30
0.0
 10
207.9428091324926
 20
153.2187656666894
 30
0.0
 10
207.9551222025007
 20
153.3461667917053
 30
0.0
 10
207.9527847622039
 20
153.533560807611
 30
0.0
 10
207.9376672431901
 20
153.7445368329024
 30
0.0
 10
207.9208466308091
 20
153.8855971545213
 30
0.0
 10
207.9138278507417
 20
153.9444577566954
 30
0.0
  0
LINE
  5
16C
330
1F
100
AcDbEntity
  8
0
  6
Continuous
 62
     7
370
    25
100
AcDbLine
 10
207.676636109
 20
153.1944577567
 30
0.0
 11
207.9138278507
 21
153.1944577567
 31
0.0
  0
ARC
  5
16D
330
1F
100
AcDbEntity
  8
0
  6
Continuous
 62
     7
370
    25
100
AcDbCircle
 10
197.3869859692
 20
152.5944577567
 30
0.0
 40
10.30712860111875
100
AcDbArc
 50
356.6628035549
 51
3.3371964451
  0
LINE
  5
16E
330
1F
100
AcDbEntity
  8
0
  6
Continuous
 62
     7
370
    25
100
AcDbLine
 10
207.9138278507
 20
151.9944577567
 30
0.0
 11
207.676636109
 21
151.9944577567
 31
0.0
  0
SPLINE
  5
16F
330
1F
100
AcDbEntity
  8
0
  6
Continuous
 62
     7
370
    25
100
AcDbSpline
210
0.0
220
0.0
230
1.0
 70
     8
 71
     3
 72
    12
 73
     8
 74
     0
 42
0.00000001
 43
0.00000001
 40
0.0
 40
0.0
 40
0.0
 40
0.0
 40
0.2133534395476116
 40
0.4267919313634445
 40
0.6383539739091463
 40
0.8490950351927521
 40
1.0
 40
1.0
 40
1.0
 40
1.0
 10
207.9138278507417
 20
151.2444577566954
 30
0.0
 10
207.9234869944691
 20
151.3279515448526
 30
0.0
 10
207.9428091324925
 20
151.4949724055427
 30
0.0
 10
207.9551222025007
 20
151.7188091671403
 30
0.0
 10
207.9527847622039
 20
151.8878948880175
 30
0.0
 10
207.9376672431901
 20
151.9805564742275
 30
0.0
 10
207.9208466308092
 20
151.9903649491917
 30
0.0
 10
207.9138278507417
 20
151.9944577566954
 30
0.0
  0
ARC
  5
170
330
1F
100
AcDbEntity
  8
0
  6
Continuous
 62
     7
370
    25
100
AcDbCircle
 10
197.3869859692
 20
152.5944577567
 30
0.0
 40
10.61305328357492
100
AcDbArc
 50
345.8192690993
 51
352.6920723834
  0
LINE
  5
171
330
1F
100
AcDbEntity
  8
0
  6
Continuous
 62
     7
370
    25
100
AcDbLine
 10
207.6941145703
 20
149.9944577567
 30
0.0
 11
207.676636109
 21
149.9944577567
 31
0.0
  0
LINE
  5
172
330
1F
100
AcDbEntity
  8
0
  6
Continuous
 62
     7
370
    25
100
AcDbLine
 10
191.1029467602
 20
160.8451177653
 30
0.0
 11
191.1029467602
 21
144.3437980334
 31
0.0
  0
SPLINE
  5
173
330
1F
100
AcDbEntity
  8
0
  6
Continuous
 62
     7
370
    25
100
AcDbSpline
210
0.0
220
0.0
230
1.0
 70
     8
 71
     3
 72
    11
 73
     7
 74
     0
 42
0.00000001
 43
0.00000001
 40
0.0
 40
0.0
 40
0.0
 40
0.0
 40
0.2499999999999913
 40
0.4999999999999988
 40
0.7499999999999947
 40
1.0
 40
1.0
 40
1.0
 40
1.0
 10
191.1029467601607
 20
144.3437964941555
 30
0.0
 10
191.0365757074233
 20
144.3496889715584
 30
0.0
 10
190.9038336019486
 20
144.3614739263643
 30
0.0
 10
190.7353698611679
 20
144.4653956087962
 30
0.0
 10
190.6172825021328
 20
144.6155760132522
 30
0.0
 10
190.6019078720057
 20
144.7351350722842
 30
0.0
 10
190.5942205569421
 20
144.7949146018002
 30
0.0
  0
LINE
  5
174
330
1F
100
AcDbEntity
  8
0
  6
Continuous
 62
     7
370
    25
100
AcDbLine
 10
190.5942205569
 20
144.794969452
 30
0.0
 11
190.5942205569
 21
160.3938925222
 31
0.0
  0
SPLINE
  5
175
330
1F
100
AcDbEntity
  8
0
  6
Continuous
 62
     7
370
    25
100
AcDbSpline
210
0.0
220
0.0
230
1.0
 70
     8
 71
     3
 72
    11
 73
     7
 74
     0
 42
0.00000001
 43
0.00000001
 40
0.0
 40
0.0
 40
0.0
 40
0.0
 40
0.2499999999999901
 40
0.5000000000000007
 40
0.7500000000000012
 40
1.0
 40
1.0
 40
1.0
 40
1.0
 10
191.1029467601607
 20
160.8451174799905
 30
0.0
 10
191.0365757074233
 20
160.839223606918
 30
0.0
 10
190.9038336019486
 20
160.827435860773
 30
0.0
 10
190.7353698611679
 20
160.7234895638508
 30
0.0
 10
190.6172825021328
 20
160.5732735882413
 30
0.0
 10
190.6019078720057
 20
160.4536862109101
 30
0.0
 10
190.5942205569421
 20
160.3938925222444
 30
0.0
  0
LWPOLYLINE
  5
176
330
1F
100
AcDbEntity
  8
0
  6
Continuous
 62
     7
370
    25
100
AcDbPolyline
 90
        3
 70
   128
 43
0.0
 10
191.1029467602
 20
144.3437980334
 10
197.0944205569
 20
144.4100504447
 10
200.5822645141
 20
144.448866411
  0
LWPOLYLINE
  5
177
330
1F
100
AcDbEntity
  8
0
  6
Continuous
 62
     7
370
    25
100
AcDbPolyline
 90
        3
 70
   128
 43
0.0
 10
199.6488443002
 20
160.7504551731
 10
197.0944205569
 20
160.7788650687
 10
191.1029467432
 20
160.8451174802
  0
LINE
  5
178
330
1F
100
AcDbEntity
  8
0
  6
Continuous
 62
     7
370
    25
100
AcDbLine
 10
205.4442205569
 20
160.993901411
 30
0.0
 11
205.4442205569
 21
144.1950141024
 31
0.0
  0
LINE
  5
179
330
1F
100
AcDbEntity
  8
0
  6
Continuous
 62
     7
370
    25
100
AcDbLine
 10
191.1029467602
 20
144.34379678
 30
0.0
 11
191.1029467602
 21
140.8483238435
 31
0.0
  0
ARC
  5
17A
330
1F
100
AcDbEntity
  8
0
  6
Continuous
 62
     7
370
    25
100
AcDbCircle
 10
191.0882818516
 20
141.3422102002
 30
0.0
 40
0.4941040304928668
100
AcDbArc
 50
180.7535768612
 51
271.7007770082
  0
LINE
  5
17B
330
1F
100
AcDbEntity
  8
0
  6
Continuous
 62
     7
370
    25
100
AcDbLine
 10
190.5942205569
 20
141.335711735
 30
0.0
 11
190.5942205569
 21
144.7949681977
 31
0.0
  0
LINE
  5
17C
330
1F
100
AcDbEntity
  8
0
  6
Continuous
 62
     7
370
    25
100
AcDbLine
 10
191.1029467602
 20
164.3405916699
 30
0.0
 11
191.1029467602
 21
160.8451190192
 31
0.0
  0
ARC
  5
17D
330
1F
100
AcDbEntity
  8
0
  6
Continuous
 62
     7
370
    25
100
AcDbCircle
 10
191.0882818516
 20
163.8467053132
 30
0.0
 40
0.4941040304928384
100
AcDbArc
 50
88.2992229917
 51
179.2464231388
  0
LINE
  5
17E
330
1F
100
AcDbEntity
  8
0
  6
Continuous
 62
     7
370
    25
100
AcDbLine
 10
190.5942205569
 20
160.3939473157
 30
0.0
 11
190.5942205569
 21
163.8532037784
 31
0.0
  0
LINE
  5
17F
330
1F
100
AcDbEntity
  8
0
  6
Continuous
 62
     7
370
    25
100
AcDbLine
 10
195.1291253698
 20
164.2251859715
 30
0.0
 11
195.1291253698
 21
164.2720767133
 31
0.0
  0
SPLINE
  5
180
330
1F
100
AcDbEntity
  8
0
  6
Continuous
 62
     7
370
    25
100
AcDbSpline
210
0.0
220
0.0
230
1.0
 70
     8
 71
     3
 72
    13
 73
     9
 74
     0
 42
0.00000001
 43
0.00000001
 40
0.0
 40
0.0
 40
0.0
 40
0.0
 40
0.0460329529079877
 40
0.249242584819372
 40
0.4775225570272876
 40
0.7051721168687834
 40
0.8526808263814666
 40
1.0
 40
1.0
 40
1.0
 40
1.0
 10
199.5781343569591
 20
160.7517295167979
 30
0.0
 10
199.4761438226506
 20
160.8142384852345
 30
0.0
 10
198.9239223640581
 20
161.1526894401119
 30
0.0
 10
197.8828034395964
 20
161.7706668641408
 30
0.0
 10
196.5976029962158
 20
162.581139190854
 30
0.0
 10
195.705032096093
 20
163.2737639921186
 30
0.0
 10
195.2164896387014
 20
163.8239977938167
 30
0.0
 10
195.1582343092507
 20
164.0915139049226
 30
0.0
 10
195.1291253698166
 20
164.225185971483
 30
0.0
  0
LWPOLYLINE
  5
181
330
1F
100
AcDbEntity
  8
0
  6
Continuous
 62
     7
370
    25
100
AcDbPolyline
 90
        3
 70
   128
 43
0.0
 10
199.578134357
 20
160.7517295168
 10
197.0942205569
 20
160.7791209892
 10
191.1029467602
 20
160.8451190192
  0
LINE
  5
182
330
1F
100
AcDbEntity
  8
0
  6
Continuous
 62
     7
370
    25
100
AcDbLine
 10
195.1291253698
 20
164.2720767133
 30
0.0
 11
191.1029467602
 21
164.3405916699
 31
0.0
  0
LINE
  5
183
330
1F
100
AcDbEntity
  8
0
  6
Continuous
 62
     7
370
    25
100
AcDbLine
 10
199.6163101609
 20
160.751042214
 30
0.0
 11
199.578134357
 21
160.7517295168
 31
0.0
  0
LINE
  5
184
330
1F
100
AcDbEntity
  8
0
  6
Continuous
 62
     7
370
    25
100
AcDbLine
 10
199.6163101609
 20
160.751042214
 30
0.0
 11
199.6488443002
 21
160.7504551731
 31
0.0
  0
LINE
  5
185
330
1F
100
AcDbEntity
  8
0
  6
Continuous
 62
     7
370
    25
100
AcDbLine
 10
200.5822645141
 20
144.448866411
 30
0.0
 11
200.5376581809
 21
144.4480597939
 31
0.0
  0
LINE
  5
186
330
1F
100
AcDbEntity
  8
0
  6
Continuous
 62
     7
370
    25
100
AcDbLine
 10
200.4965482246
 20
144.4473182278
 30
0.0
 11
200.5376581809
 21
144.4480597939
 31
0.0
  0
LWPOLYLINE
  5
187
330
1F
100
AcDbEntity
  8
0
  6
Continuous
 62
     7
370
    25
100
AcDbPolyline
 90
        3
 70
   128
 43
0.0
 10
200.4965482246
 20
144.4473182278
 10
197.0942205569
 20
144.4097945242
 10
191.1029467771
 20
144.3437964943
  0
SPLINE
  5
188
330
1F
100
AcDbEntity
  8
0
  6
Continuous
 62
     7
370
    25
100
AcDbSpline
210
0.0
220
0.0
230
1.0
 70
     8
 71
     3
 72
    12
 73
     8
 74
     0
 42
0.00000001
 43
0.00000001
 40
0.0
 40
0.0
 40
0.0
 40
0.0
 40
0.1662426524176545
 40
0.3368059756191297
 40
0.6054181071254586
 40
0.8801435087136193
 40
1.0
 40
1.0
 40
1.0
 40
1.0
 10
195.1854545868859
 20
140.9177973750245
 30
0.0
 10
195.2849112941611
 20
141.0732825505075
 30
0.0
 10
195.4864096030401
 20
141.3882939838627
 30
0.0
 10
196.3086573590626
 20
142.0512590888612
 30
0.0
 10
197.6704865260491
 20
142.9034540056666
 30
0.0
 10
199.2315927147081
 20
143.7460826842787
 30
0.0
 10
200.2018324068696
 20
144.2839407769739
 30
0.0
 10
200.4965482245725
 20
144.4473182278012
 30
0.0
  0
LINE
  5
189
330
1F
100
AcDbEntity
  8
0
  6
Continuous
 62
     7
370
    25
100
AcDbLine
 10
195.1854545869
 20
140.917797375
 30
0.0
 11
191.1029467602
 21
140.8483238435
 31
0.0
  0
LINE
  5
18A
330
1F
100
AcDbEntity
  8
0
  6
Continuous
 62
     7
370
    25
100
AcDbLine
 10
190.5942205569
 20
163.8532037784
 30
0.0
 11
190.5942205569
 21
164.0663473714
 31
0.0
  0
LINE
  5
18B
330
1F
100
AcDbEntity
  8
0
  6
Continuous
 62
     7
370
    25
100
AcDbLine
 10
190.5942205569
 20
141.122568142
 30
0.0
 11
190.5942205569
 21
141.335711735
 31
0.0
  0
LINE
  5
18C
330
1F
100
AcDbEntity
  8
0
  6
Continuous
 62
     7
370
    25
100
AcDbLine
 10
195.1291253698
 20
140.7095103098
 30
0.0
 11
195.1854545869
 21
140.917797375
 31
0.0
  0
LINE
  5
18D
330
1F
100
AcDbEntity
  8
0
  6
Continuous
 62
     7
370
    25
100
AcDbLine
 10
207.3442205569
 20
157.9233714514
 30
0.0
 11
207.3442205569
 21
147.2655434201
 31
0.0
  0
LINE
  5
18E
330
1F
100
AcDbEntity
  8
0
  6
Continuous
 62
     7
370
    25
100
AcDbLine
 10
178.1442205569
 20
153.8977201688
 30
0.0
 11
177.8942205569
 21
154.5046734339
 31
0.0
  0
LINE
  5
18F
330
1F
100
AcDbEntity
  8
0
  6
Continuous
 62
     7
370
    25
100
AcDbLine
 10
177.8942205569
 20
160.1842420795
 30
0.0
 11
177.8942205569
 21
154.5046734339
 31
0.0
  0
LINE
  5
190
330
1F
100
AcDbEntity
  8
0
  6
Continuous
 62
     7
370
    25
100
AcDbLine
 10
177.8942205569
 20
160.1842420795
 30
0.0
 11
178.1442205569
 21
160.7911953446
 31
0.0
  0
LINE
  5
191
330
1F
100
AcDbEntity
  8
0
  6
Continuous
 62
     7
370
    25
100
AcDbLine
 10
180.6942205569
 20
160.7911953446
 30
0.0
 11
178.1442205569
 21
160.7911953446
 31
0.0
  0
SPLINE
  5
192
330
1F
100
AcDbEntity
  8
0
  6
Continuous
 62
     7
370
    25
100
AcDbSpline
210
0.0
220
0.0
230
1.0
 70
     8
 71
     3
 72
    11
 73
     7
 74
     0
 42
0.00000001
 43
0.00000001
 40
0.0
 40
0.0
 40
0.0
 40
0.0
 40
0.2431641197380915
 40
0.4936284730588937
 40
0.7421706076863286
 40
1.0
 40
1.0
 40
1.0
 40
1.0
 10
180.6942205569421
 20
153.8977201687726
 30
0.0
 10
180.9043608801508
 20
154.4411667010435
 30
0.0
 10
181.3309503251125
 20
155.5443750288302
 30
0.0
 10
181.5413347552554
 20
157.2944200585568
 30
0.0
 10
181.3506480615885
 20
159.0813892224997
 30
0.0
 10
180.9156888911938
 20
160.214333602722
 30
0.0
 10
180.6942205569421
 20
160.7911953446182
 30
0.0
  0
LINE
  5
193
330
1F
100
AcDbEntity
  8
0
  6
Continuous
 62
     7
370
    25
100
AcDbLine
 10
178.1442205569
 20
153.8977201688
 30
0.0
 11
180.6942205569
 21
153.8977201688
 31
0.0
  0
LINE
  5
194
330
1F
100
AcDbEntity
  8
0
  6
Continuous
 62
     7
370
    25
100
AcDbLine
 10
178.1442205569
 20
144.3977201688
 30
0.0
 11
177.8942205569
 21
145.0046734339
 31
0.0
  0
LINE
  5
195
330
1F
100
AcDbEntity
  8
0
  6
Continuous
 62
     7
370
    25
100
AcDbLine
 10
177.8942205569
 20
150.6842420795
 30
0.0
 11
177.8942205569
 21
145.0046734339
 31
0.0
  0
LINE
  5
196
330
1F
100
AcDbEntity
  8
0
  6
Continuous
 62
     7
370
    25
100
AcDbLine
 10
177.8942205569
 20
150.6842420795
 30
0.0
 11
178.1442205569
 21
151.2911953446
 31
0.0
  0
LINE
  5
197
330
1F
100
AcDbEntity
  8
0
  6
Continuous
 62
     7
370
    25
100
AcDbLine
 10
180.6942205569
 20
151.2911953446
 30
0.0
 11
178.1442205569
 21
151.2911953446
 31
0.0
  0
SPLINE
  5
198
330
1F
100
AcDbEntity
  8
0
  6
Continuous
 62
     7
370
    25
100
AcDbSpline
210
0.0
220
0.0
230
1.0
 70
     8
 71
     3
 72
    11
 73
     7
 74
     0
 42
0.00000001
 43
0.00000001
 40
0.0
 40
0.0
 40
0.0
 40
0.0
 40
0.2431641197380915
 40
0.4936284730588929
 40
0.7421706076863281
 40
1.0
 40
1.0
 40
1.0
 40
1.0
 10
180.6942205569421
 20
144.3977201687726
 30
0.0
 10
180.9043608801508
 20
144.9411667010434
 30
0.0
 10
181.3309503251125
 20
146.0443750288302
 30
0.0
 10
181.5413347552554
 20
147.7944200585568
 30
0.0
 10
181.3506480615885
 20
149.5813892224997
 30
0.0
 10
180.9156888911938
 20
150.714333602722
 30
0.0
 10
180.6942205569421
 20
151.2911953446183
 30
0.0
  0
LINE
  5
199
330
1F
100
AcDbEntity
  8
0
  6
Continuous
 62
     7
370
    25
100
AcDbLine
 10
178.1442205569
 20
144.3977201688
 30
0.0
 11
180.6942205569
 21
144.3977201688
 31
0.0
  0
LINE
  5
19A
330
1F
100
AcDbEntity
  8
0
  6
Continuous
 62
     7
370
    25
100
AcDbLine
 10
180.6942205569
 20
162.0944577567
 30
0.0
 11
180.6942205569
 21
160.7911953446
 31
0.0
  0
SPLINE
  5
19B
330
1F
100
AcDbEntity
  8
0
  6
Continuous
 62
     7
370
    25
100
AcDbSpline
210
0.0
220
0.0
230
1.0
 70
    24
 71
     3
 72
    11
 73
     7
 74
     0
 42
0.00000001
 43
0.00000001
 40
0.0
 40
0.0
 40
0.0
 40
0.0
 40
0.0591367534471077
 40
0.5151302191798763
 40
0.9835191691436697
 40
1.0
 40
1.0
 40
1.0
 40
1.0
 10
180.6942205569421
 20
162.0944577566954
 30
0.0
 10
180.7222001370824
 20
162.0944577566954
 30
0.0
 10
180.9659255093774
 20
162.0944577566954
 30
0.0
 10
181.3064538439034
 20
162.0944577566954
 30
0.0
 10
181.5315281841099
 20
162.0944577566954
 30
0.0
 10
181.4705048670564
 20
162.0944577566954
 30
0.0
 10
181.4684306710425
 20
162.0944577566954
 30
0.0
  0
SPLINE
  5
19C
330
1F
100
AcDbEntity
  8
0
  6
Continuous
 62
     7
370
    25
100
AcDbSpline
210
0.0
220
0.0
230
1.0
 70
    24
 71
     3
 72
    11
 73
     7
 74
     0
 42
0.00000001
 43
0.00000001
 40
0.0
 40
0.0
 40
0.0
 40
0.0
 40
0.0164467984804671
 40
0.4715340758343123
 40
0.9408619966995234
 40
1.0
 40
1.0
 40
1.0
 40
1.0
 10
181.4682430436568
 20
143.0944577566954
 30
0.0
 10
181.4703818092981
 20
143.0944577566954
 30
0.0
 10
181.531700787658
 20
143.0944577566954
 30
0.0
 10
181.3086544597722
 20
143.0944577566954
 30
0.0
 10
180.9722506450615
 20
143.0944577566954
 30
0.0
 10
180.7222022355869
 20
143.0944577566954
 30
0.0
 10
180.6942205569421
 20
143.0944577566954
 30
0.0
  0
LINE
  5
19D
330
1F
100
AcDbEntity
  8
0
  6
Continuous
 62
     7
370
    25
100
AcDbLine
 10
180.6942205569
 20
144.3977201688
 30
0.0
 11
180.6942205569
 21
143.0944577567
 31
0.0
  0
LINE
  5
19E
330
1F
100
AcDbEntity
  8
0
  6
Continuous
 62
     7
370
    25
100
AcDbLine
 10
180.6942205569
 20
153.8977201688
 30
0.0
 11
180.6942205569
 21
151.2911953446
 31
0.0
  0
LINE
  5
19F
330
1F
100
AcDbEntity
  8
0
  6
Continuous
 62
     7
370
    25
100
AcDbLine
 10
182.6942205569
 20
160.8444577567
 30
0.0
 11
182.6942205569
 21
144.3444577567
 31
0.0
  0
LINE
  5
1A0
330
1F
100
AcDbEntity
  8
0
  6
Continuous
 62
     7
370
    25
100
AcDbLine
 10
178.1442205569
 20
153.8977201688
 30
0.0
 11
178.1442205569
 21
151.2911953446
 31
0.0
  0
LINE
  5
1A1
330
1F
100
AcDbEntity
  8
0
  6
Continuous
 62
     7
370
    25
100
AcDbLine
 10
177.8942205569
 20
150.6842420795
 30
0.0
 11
177.8942205569
 21
154.5046734339
 31
0.0
  0
SPLINE
  5
1A2
330
1F
100
AcDbEntity
  8
0
  6
Continuous
 62
     7
370
    25
100
AcDbSpline
210
0.0
220
0.0
230
1.0
 70
     8
 71
     3
 72
    11
 73
     7
 74
     0
 42
0.00000001
 43
0.00000001
 40
0.0
 40
0.0
 40
0.0
 40
0.0
 40
0.0823376510038091
 40
0.3188851439110015
 40
0.6247963511836877
 40
1.0
 40
1.0
 40
1.0
 40
1.0
 10
175.7946807825313
 20
161.9804823307123
 30
0.0
 10
175.7973088835574
 20
161.9770713154863
 30
0.0
 10
175.80748724502
 20
161.9638608088957
 30
0.0
 10
175.8281705091395
 20
161.8411183875778
 30
0.0
 10
175.8586827122629
 20
161.5446728660045
 30
0.0
 10
175.8815975375281
 20
161.149210312395
 30
0.0
 10
175.8942205569421
 20
160.9313630701009
 30
0.0
  0
LINE
  5
1A3
330
1F
100
AcDbEntity
  8
0
  6
Continuous
 62
     7
370
    25
100
AcDbLine
 10
175.8942205569
 20
148.2521071903
 30
0.0
 11
175.8942205569
 21
160.93136307
 31
0.0
  0
SPLINE
  5
1A4
330
1F
100
AcDbEntity
  8
0
  6
Continuous
 62
     7
370
    25
100
AcDbSpline
210
0.0
220
0.0
230
1.0
 70
     8
 71
     3
 72
    30
 73
    26
 74
     0
 42
0.00000001
 43
0.00000001
 40
0.0
 40
0.0
 40
0.0
 40
0.0
 40
0.0182355448544065
 40
0.0763245661743252
 40
0.1063427875899049
 40
0.1451052306444134
 40
0.1926087823348561
 40
0.2376127113006339
 40
0.2719933646366511
 40
0.2957466639727327
 40
0.3088697938344322
 40
0.3375269424463682
 40
0.3661842311463162
 40
0.3948416612334269
 40
0.4234992340068308
 40
0.5378839981506605
 40
0.5908692721160762
 40
0.6380628073955174
 40
0.6794629392041788
 40
0.7306843854292003
 40
0.7688710157324232
 40
0.8038595024706399
 40
0.8540525738533307
 40
0.9194380368698538
 40
1.0
 40
1.0
 40
1.0
 40
1.0
 10
175.4330752007496
 20
161.9815292991146
 30
0.0
 10
175.4357563529412
 20
161.9850707827184
 30
0.0
 10
175.4469782703287
 20
161.9998936027566
 30
0.0
 10
175.4630035961413
 20
161.9162944633268
 30
0.0
 10
175.4826146276927
 20
161.7678401087924
 30
0.0
 10
175.500776886014
 20
161.576300430821
 30
0.0
 10
175.5214249005378
 20
161.2900607030346
 30
0.0
 10
175.541407821381
 20
160.9415664107841
 30
0.0
 10
175.5575467973951
 20
160.6107709057803
 30
0.0
 10
175.5686586566075
 20
160.35908677293
 30
0.0
 10
175.5786091362338
 20
160.1145749319485
 30
0.0
 10
175.5887742301379
 20
159.8360769214076
 30
0.0
 10
175.6015670710092
 20
159.4712235213759
 30
0.0
 10
175.6144089977257
 20
159.0825613269219
 30
0.0
 10
175.6403026080999
 20
158.2621993372961
 30
0.0
 10
175.6707924950784
 20
157.20038685977
 30
0.0
 10
175.7045029498986
 20
155.9365673405414
 30
0.0
 10
175.7265662290291
 20
155.0692995587404
 30
0.0
 10
175.7481884689257
 20
154.1920059291435
 30
0.0
 10
175.7682893512433
 20
153.3567592679139
 30
0.0
 10
175.7867022261812
 20
152.55753799797
 30
0.0
 10
175.8050510804575
 20
151.7651188262208
 30
0.0
 10
175.8282442970069
 20
150.8054004784009
 30
0.0
 10
175.8586885642471
 20
149.5755328248457
 30
0.0
 10
175.8815829921392
 20
148.7228062969344
 30
0.0
 10
175.894220556942
 20
148.2521071903078
 30
0.0
  0
SPLINE
  5
1A5
330
1F
100
AcDbEntity
  8
0
  6
Continuous
 62
     7
370
    25
100
AcDbSpline
210
0.0
220
0.0
230
1.0
 70
     8
 71
     3
 72
    12
 73
     8
 74
     0
 42
0.00000001
 43
0.00000001
 40
0.0
 40
0.0
 40
0.0
 40
0.0
 40
0.2176683106405472
 40
0.4685852168999713
 40
0.7246585792764159
 40
0.9786110903297413
 40
1.0
 40
1.0
 40
1.0
 40
1.0
 10
175.2442205569421
 20
149.748329322117
 30
0.0
 10
175.265003480672
 20
149.0316506396215
 30
0.0
 10
175.3097438969279
 20
147.4888213922384
 30
0.0
 10
175.3727404809784
 20
145.6107066692755
 30
0.0
 10
175.445844096683
 20
144.3715909152526
 30
0.0
 10
175.4945551759557
 20
143.8434626565535
 30
0.0
 10
175.5196461821693
 20
143.9798729654059
 30
0.0
 10
175.521595286899
 20
143.9904695104752
 30
0.0
  0
SPLINE
  5
1A6
330
1F
100
AcDbEntity
  8
0
  6
Continuous
 62
     7
370
    25
100
AcDbSpline
210
0.0
220
0.0
230
1.0
 70
     8
 71
     3
 72
    10
 73
     6
 74
     0
 42
0.00000001
 43
0.00000001
 40
0.0
 40
0.0
 40
0.0
 40
0.0
 40
0.3607127720872053
 40
0.8121348092481824
 40
1.0
 40
1.0
 40
1.0
 40
1.0
 10
176.2366276601055
 20
161.1588405066505
 30
0.0
 10
176.2551462305114
 20
161.0990532315605
 30
0.0
 10
176.2968402785405
 20
160.9644438386916
 30
0.0
 10
176.3520187848003
 20
160.0226067218399
 30
0.0
 10
176.3846355714006
 20
159.1955258314487
 30
0.0
 10
176.3942205569421
 20
158.9524743477708
 30
0.0
  0
SPLINE
  5
1A7
330
1F
100
AcDbEntity
  8
0
  6
Continuous
 62
     7
370
    25
100
AcDbSpline
210
0.0
220
0.0
230
1.0
 70
    24
 71
     3
 72
    11
 73
     7
 74
     0
 42
0.00000001
 43
0.00000001
 40
0.0
 40
0.0
 40
0.0
 40
0.0
 40
0.3181620477431253
 40
0.564711443146115
 40
0.8184108192672209
 40
1.0
 40
1.0
 40
1.0
 40
1.0
 10
176.3942205569421
 20
158.9524743477708
 30
0.0
 10
176.3942205569421
 20
158.516821729681
 30
0.0
 10
176.3942205569421
 20
157.7435741961774
 30
0.0
 10
176.3942205569421
 20
156.3644805696944
 30
0.0
 10
176.3942205569421
 20
155.1243975867424
 30
0.0
 10
176.3942205569421
 20
154.2863074589981
 30
0.0
 10
176.3942205569421
 20
153.9366816825309
 30
0.0
  0
SPLINE
  5
1A8
330
1F
100
AcDbEntity
  8
0
  6
Continuous
 62
     7
370
    25
100
AcDbSpline
210
0.0
220
0.0
230
1.0
 70
     8
 71
     3
 72
    13
 73
     9
 74
     0
 42
0.00000001
 43
0.00000001
 40
0.0
 40
0.0
 40
0.0
 40
0.0
 40
0.2187316754180421
 40
0.3931473777464117
 40
0.5714254113794042
 40
0.7494200729435004
 40
0.8738925945231126
 40
1.0
 40
1.0
 40
1.0
 40
1.0
 10
176.3942205569421
 20
153.9366816825309
 30
0.0
 10
176.3564927500355
 20
154.5587884925011
 30
0.0
 10
176.2886809512868
 20
155.676960611608
 30
0.0
 10
176.1898675226739
 20
157.2001797783354
 30
0.0
 10
176.1008559864227
 20
158.5026108328554
 30
0.0
 10
176.0261430594855
 20
159.5381930933832
 30
0.0
 10
175.95647498058
 20
160.3469119520922
 30
0.0
 10
175.9150620962521
 20
160.7357004932325
 30
0.0
 10
175.8942205569587
 20
160.9313630699532
 30
0.0
  0
SPLINE
  5
1A9
330
1F
100
AcDbEntity
  8
0
  6
Continuous
 62
     7
370
    25
100
AcDbSpline
210
0.0
220
0.0
230
1.0
 70
     8
 71
     3
 72
    15
 73
    11
 74
     0
 42
0.00000001
 43
0.00000001
 40
0.0
 40
0.0
 40
0.0
 40
0.0
 40
0.1853848730991207
 40
0.2777270836008036
 40
0.3700718582436233
 40
0.462416855210521
 40
0.6144793794637545
 40
0.7665419034043038
 40
0.9186044273391785
 40
1.0
 40
1.0
 40
1.0
 40
1.0
 10
175.8942205569421
 20
148.2521071903075
 30
0.0
 10
175.9039380619178
 20
147.7153761358577
 30
0.0
 10
175.9184959612312
 20
146.9112935376479
 30
0.0
 10
175.9368282034955
 20
145.9941296068825
 30
0.0
 10
175.9505036347977
 20
145.3701543345745
 30
0.0
 10
175.9678729061501
 20
144.7038876714657
 30
0.0
 10
175.9888771732146
 20
144.0661863255579
 30
0.0
 10
176.0132230770717
 20
143.5826027374937
 30
0.0
 10
176.0334509711658
 20
143.3454309239075
 30
0.0
 10
176.0451234681634
 20
143.3719463506413
 30
0.0
 10
176.0491931046051
 20
143.38119100043
 30
0.0
  0
SPLINE
  5
1AA
330
1F
100
AcDbEntity
  8
0
  6
Continuous
 62
     7
370
    25
100
AcDbSpline
210
0.0
220
0.0
230
1.0
 70
     8
 71
     3
 72
    14
 73
    10
 74
     0
 42
0.00000001
 43
0.00000001
 40
0.0
 40
0.0
 40
0.0
 40
0.0
 40
0.0578426664196316
 40
0.2161447691462027
 40
0.3737011647949959
 40
0.5337215706955192
 40
0.6902194341833195
 40
0.8499333986327962
 40
1.0
 40
1.0
 40
1.0
 40
1.0
 10
175.2442205569421
 20
156.2892775609502
 30
0.0
 10
175.2529399227195
 20
156.005055612239
 30
0.0
 10
175.2855221914792
 20
154.9429834206703
 30
0.0
 10
175.3406862721121
 20
152.7647762876668
 30
0.0
 10
175.4090138203167
 20
150.0707382052486
 30
0.0
 10
175.4829189825643
 20
147.600291823805
 30
0.0
 10
175.549071494844
 20
145.6320213554666
 30
0.0
 10
175.6210112595987
 20
144.2971887614084
 30
0.0
 10
175.6664373020018
 20
144.0881139844598
 30
0.0
 10
175.6884429813414
 20
143.9868321589665
 30
0.0
  0
LINE
  5
1AB
330
1F
100
AcDbEntity
  8
0
  6
Continuous
 62
     7
370
    25
100
AcDbLine
 10
176.3942205569
 20
153.9366816825
 30
0.0
 11
176.3942205569
 21
143.6944577567
 31
0.0
  0
SPLINE
  5
1AC
330
1F
100
AcDbEntity
  8
0
  6
Continuous
 62
     7
370
    25
100
AcDbSpline
210
0.0
220
0.0
230
1.0
 70
    24
 71
     3
 72
    10
 73
     6
 74
     0
 42
0.00000001
 43
0.00000001
 40
0.0
 40
0.0
 40
0.0
 40
0.0
 40
0.2200266609304047
 40
0.6670013252276435
 40
1.0
 40
1.0
 40
1.0
 40
1.0
 10
176.3942205569421
 20
161.230088084893
 30
0.0
 10
176.3942205569421
 20
161.2066275443183
 30
0.0
 10
176.3942205569421
 20
161.1355079282331
 30
0.0
 10
176.3942205569421
 20
160.4305009790416
 30
0.0
 10
176.3942205569421
 20
159.394696527098
 30
0.0
 10
176.3942205569421
 20
158.9524743477708
 30
0.0
  0
LINE
  5
1AD
330
1F
100
AcDbEntity
  8
0
  6
Continuous
 62
     7
370
    25
100
AcDbLine
 10
178.1442205569
 20
162.0944577567
 30
0.0
 11
177.8942205569
 21
162.0944577567
 31
0.0
  0
LINE
  5
1AE
330
1F
100
AcDbEntity
  8
0
  6
Continuous
 62
     7
370
    25
100
AcDbLine
 10
178.1442205569
 20
162.0944577567
 30
0.0
 11
178.1442205569
 21
160.7911953446
 31
0.0
  0
LINE
  5
1AF
330
1F
100
AcDbEntity
  8
0
  6
Continuous
 62
     7
370
    25
100
AcDbLine
 10
177.8942205569
 20
160.1842420795
 30
0.0
 11
177.8942205569
 21
162.0944577567
 31
0.0
  0
LINE
  5
1B0
330
1F
100
AcDbEntity
  8
0
  6
Continuous
 62
     7
370
    25
100
AcDbLine
 10
178.1442205569
 20
144.3977201688
 30
0.0
 11
178.1442205569
 21
143.0944577567
 31
0.0
  0
LINE
  5
1B1
330
1F
100
AcDbEntity
  8
0
  6
Continuous
 62
     7
370
    25
100
AcDbLine
 10
177.8942205569
 20
143.0944577567
 30
0.0
 11
178.1442205569
 21
143.0944577567
 31
0.0
  0
LINE
  5
1B2
330
1F
100
AcDbEntity
  8
0
  6
Continuous
 62
     7
370
    25
100
AcDbLine
 10
177.8942205569
 20
143.0944577567
 30
0.0
 11
177.8942205569
 21
145.0046734339
 31
0.0
  0
LINE
  5
1B3
330
1F
100
AcDbEntity
  8
0
  6
Continuous
 62
     7
370
    25
100
AcDbLine
 10
178.1442205569
 20
162.0944577567
 30
0.0
 11
180.6942205569
 21
162.0944577567
 31
0.0
  0
LINE
  5
1B4
330
1F
100
AcDbEntity
  8
0
  6
Continuous
 62
     7
370
    25
100
AcDbLine
 10
180.6942205569
 20
143.0944577567
 30
0.0
 11
178.1442205569
 21
143.0944577567
 31
0.0
  0
SPLINE
  5
1B5
330
1F
100
AcDbEntity
  8
0
  6
Continuous
 62
     7
370
    25
100
AcDbSpline
210
0.0
220
0.0
230
1.0
 70
     8
 71
     3
 72
     9
 73
     5
 74
     0
 42
0.00000001
 43
0.00000001
 40
0.0
 40
0.0
 40
0.0
 40
0.0
 40
0.4195922383501365
 40
0.9999999999999999
 40
0.9999999999999999
 40
0.9999999999999999
 40
0.9999999999999999
 10
166.2427442213624
 20
166.3575628026061
 30
0.0
 10
166.1760703548682
 20
166.5527360518729
 30
0.0
 10
166.0171687823407
 20
167.0178858602543
 30
0.0
 10
166.0026483364435
 20
167.3525329642937
 30
0.0
 10
165.9942205569421
 20
167.5467647408919
 30
0.0
  0
LINE
  5
1B6
330
1F
100
AcDbEntity
  8
0
  6
Continuous
 62
     7
370
    25
100
AcDbLine
 10
165.9942205569
 20
137.6421507725
 30
0.0
 11
166.0655988858
 21
138.0944577567
 31
0.0
  0
LINE
  5
1B7
330
1F
100
AcDbEntity
  8
0
  6
Continuous
 62
     7
370
    25
100
AcDbLine
 10
165.9942205569
 20
137.6421507725
 30
0.0
 11
165.9942205569
 21
136.9153238984
 31
0.0
  0
SPLINE
  5
1B8
330
1F
100
AcDbEntity
  8
0
  6
Continuous
 62
     7
370
    25
100
AcDbSpline
210
0.0
220
0.0
230
1.0
 70
     8
 71
     3
 72
     9
 73
     5
 74
     0
 42
0.00000001
 43
0.00000001
 40
0.0
 40
0.0
 40
0.0
 40
0.0
 40
0.5850553834536188
 40
1.0
 40
1.0
 40
1.0
 40
1.0
 10
166.4086774645194
 20
136.3444577566954
 30
0.0
 10
166.2721233304951
 20
136.3761561737341
 30
0.0
 10
166.0387195573032
 20
136.4303363726266
 30
0.0
 10
166.0072702695779
 20
136.7730971564267
 30
0.0
 10
165.9942205569421
 20
136.9153238984277
 30
0.0
  0
SPLINE
  5
1B9
330
1F
100
AcDbEntity
  8
0
  6
Continuous
 62
     7
370
    25
100
AcDbSpline
210
0.0
220
0.0
230
1.0
 70
    27
 71
     3
 72
    11
 73
     7
 74
     0
 42
0.00000001
 43
0.00000001
 40
0.0
 40
0.0
 40
0.0
 40
0.0
 40
0.2328716322111479
 40
0.4710265024313248
 40
0.7311421212560302
 40
0.9999999999999999
 40
0.9999999999999999
 40
0.9999999999999999
 40
0.9999999999999999
 10
166.4086774645194
 20
136.3444577566954
 30
0.0
 10
166.6790741991922
 20
136.3444577566954
 30
0.0
 10
167.226002251323
 20
136.3444577566954
 30
0.0
 10
167.5272265693066
 20
136.3444577566954
 30
0.0
 10
167.3195748038969
 20
136.3444577566954
 30
0.0
 10
166.7156369721167
 20
136.3444577566954
 30
0.0
 10
166.4086774645194
 20
136.3444577566954
 30
0.0
  0
SPLINE
  5
1BA
330
1F
100
AcDbEntity
  8
0
  6
Continuous
 62
     7
370
    25
100
AcDbSpline
210
0.0
220
0.0
230
1.0
 70
     8
 71
     3
 72
     9
 73
     5
 74
     0
 42
0.00000001
 43
0.00000001
 40
0.0
 40
0.0
 40
0.0
 40
0.0
 40
0.5841917497409234
 40
1.0
 40
1.0
 40
1.0
 40
1.0
 10
165.9942205569421
 20
136.9153238984277
 30
0.0
 10
166.0203885207627
 20
136.7242416763612
 30
0.0
 10
166.0651819705714
 20
136.3971534863084
 30
0.0
 10
166.3077963880853
 20
136.3599339478551
 30
0.0
 10
166.4086774645194
 20
136.3444577566954
 30
0.0
  0
LINE
  5
1BB
330
1F
100
AcDbEntity
  8
0
  6
Continuous
 62
     7
370
    25
100
AcDbLine
 10
165.9942205569
 20
136.9153238984
 30
0.0
 11
165.9942205569
 21
137.6421507725
 31
0.0
  0
SPLINE
  5
1BC
330
1F
100
AcDbEntity
  8
0
  6
Continuous
 62
     7
370
    25
100
AcDbSpline
210
0.0
220
0.0
230
1.0
 70
     8
 71
     3
 72
     9
 73
     5
 74
     0
 42
0.00000001
 43
0.00000001
 40
0.0
 40
0.0
 40
0.0
 40
0.0
 40
0.5850553834536188
 40
1.0
 40
1.0
 40
1.0
 40
1.0
 10
166.4086774645194
 20
139.3659663047578
 30
0.0
 10
166.2721233304951
 20
138.979419779194
 30
0.0
 10
166.0387195573032
 20
138.3187190378694
 30
0.0
 10
166.0072702695779
 20
137.8405602057436
 30
0.0
 10
165.9942205569421
 20
137.642150772499
 30
0.0
  0
SPLINE
  5
1BD
330
1F
100
AcDbEntity
  8
0
  6
Continuous
 62
     7
370
    25
100
AcDbSpline
210
0.0
220
0.0
230
1.0
 70
     8
 71
     3
 72
    11
 73
     7
 74
     0
 42
0.00000001
 43
0.00000001
 40
0.0
 40
0.0
 40
0.0
 40
0.0
 40
0.2556279644380972
 40
0.5185037642963866
 40
0.7560467972580102
 40
0.9999999999999999
 40
0.9999999999999999
 40
0.9999999999999999
 40
0.9999999999999999
 10
166.4086774645194
 20
149.572949208633
 30
0.0
 10
166.7023034246214
 20
148.7220046356656
 30
0.0
 10
167.297880539757
 20
146.9959886058425
 30
0.0
 10
167.5297695013836
 20
144.3629060776452
 30
0.0
 10
167.2467990429228
 20
141.7791786574745
 30
0.0
 10
166.6905199093585
 20
140.1774782463801
 30
0.0
 10
166.4086774645194
 20
139.3659663047578
 30
0.0
  0
SPLINE
  5
1BE
330
1F
100
AcDbEntity
  8
0
  6
Continuous
 62
     7
370
    25
100
AcDbSpline
210
0.0
220
0.0
230
1.0
 70
     8
 71
     3
 72
     9
 73
     5
 74
     0
 42
0.00000001
 43
0.00000001
 40
0.0
 40
0.0
 40
0.0
 40
0.0
 40
0.5841917497409257
 40
1.0
 40
1.0
 40
1.0
 40
1.0
 10
165.9942205569421
 20
151.8676308826242
 30
0.0
 10
166.0203885207627
 20
151.3872727570579
 30
0.0
 10
166.0651819705714
 20
150.5650117001716
 30
0.0
 10
166.3077963880853
 20
149.8643077091071
 30
0.0
 10
166.4086774645194
 20
149.572949208633
 30
0.0
  0
LINE
  5
1BF
330
1F
100
AcDbEntity
  8
0
  6
Continuous
 62
     7
370
    25
100
AcDbLine
 10
165.9942205569
 20
151.8676308826
 30
0.0
 11
165.9942205569
 21
153.3212846308
 31
0.0
  0
SPLINE
  5
1C0
330
1F
100
AcDbEntity
  8
0
  6
Continuous
 62
     7
370
    25
100
AcDbSpline
210
0.0
220
0.0
230
1.0
 70
     8
 71
     3
 72
     9
 73
     5
 74
     0
 42
0.00000001
 43
0.00000001
 40
0.0
 40
0.0
 40
0.0
 40
0.0
 40
0.5850553834536182
 40
0.9999999999999999
 40
0.9999999999999999
 40
0.9999999999999999
 40
0.9999999999999999
 10
166.4086774645194
 20
155.6159663047578
 30
0.0
 10
166.2721233304951
 20
155.1977213621554
 30
0.0
 10
166.0387195573032
 20
154.4828404219382
 30
0.0
 10
166.0072702695779
 20
153.6619208060124
 30
0.0
 10
165.9942205569421
 20
153.3212846307667
 30
0.0
  0
SPLINE
  5
1C1
330
1F
100
AcDbEntity
  8
0
  6
Continuous
 62
     7
370
    25
100
AcDbSpline
210
0.0
220
0.0
230
1.0
 70
     8
 71
     3
 72
    11
 73
     7
 74
     0
 42
0.00000001
 43
0.00000001
 40
0.0
 40
0.0
 40
0.0
 40
0.0
 40
0.2328716322111471
 40
0.471026502431323
 40
0.7311421212560291
 40
1.0
 40
1.0
 40
1.0
 40
1.0
 10
166.4086774645194
 20
165.822949208633
 30
0.0
 10
166.6790741991922
 20
165.0488468326395
 30
0.0
 10
167.226002251323
 20
163.4830797564787
 30
0.0
 10
167.5272265693066
 20
160.947640789184
 30
0.0
 10
167.3195748038969
 20
158.2741347087148
 30
0.0
 10
166.7156369721167
 20
156.5117314246195
 30
0.0
 10
166.4086774645194
 20
155.6159663047578
 30
0.0
  0
SPLINE
  5
1C2
330
1F
100
AcDbEntity
  8
0
  6
Continuous
 62
     7
370
    25
100
AcDbSpline
210
0.0
220
0.0
230
1.0
 70
     8
 71
     3
 72
     9
 73
     5
 74
     0
 42
0.00000001
 43
0.00000001
 40
0.0
 40
0.0
 40
0.0
 40
0.0
 40
0.5841917497409239
 40
1.0
 40
1.0
 40
1.0
 40
1.0
 10
165.9942205569421
 20
167.5467647408919
 30
0.0
 10
166.0203885207627
 20
167.2574888373922
 30
0.0
 10
166.0651819705714
 20
166.7623159705586
 30
0.0
 10
166.3077963880853
 20
166.0988315179474
 30
0.0
 10
166.4086774645194
 20
165.822949208633
 30
0.0
  0
LINE
  5
1C3
330
1F
100
AcDbEntity
  8
0
  6
Continuous
 62
     7
370
    25
100
AcDbLine
 10
165.9942205569
 20
167.5467647409
 30
0.0
 11
165.9942205569
 21
168.273591615
 31
0.0
  0
SPLINE
  5
1C4
330
1F
100
AcDbEntity
  8
0
  6
Continuous
 62
     7
370
    25
100
AcDbSpline
210
0.0
220
0.0
230
1.0
 70
     8
 71
     3
 72
     9
 73
     5
 74
     0
 42
0.00000001
 43
0.00000001
 40
0.0
 40
0.0
 40
0.0
 40
0.0
 40
0.5850553834536166
 40
1.0
 40
1.0
 40
1.0
 40
1.0
 10
166.4086774645194
 20
168.8444577566954
 30
0.0
 10
166.2721233304951
 20
168.8127593396568
 30
0.0
 10
166.0387195573032
 20
168.7585791407643
 30
0.0
 10
166.0072702695779
 20
168.4158183569642
 30
0.0
 10
165.9942205569421
 20
168.2735916149631
 30
0.0
  0
SPLINE
  5
1C5
330
1F
100
AcDbEntity
  8
0
  6
Continuous
 62
     7
370
    25
100
AcDbSpline
210
0.0
220
0.0
230
1.0
 70
    27
 71
     3
 72
    11
 73
     7
 74
     0
 42
0.00000001
 43
0.00000001
 40
0.0
 40
0.0
 40
0.0
 40
0.0
 40
0.2328716322111485
 40
0.471026502431326
 40
0.7311421212560308
 40
1.0
 40
1.0
 40
1.0
 40
1.0
 10
166.4086774645194
 20
168.8444577566954
 30
0.0
 10
166.6790741991922
 20
168.8444577566954
 30
0.0
 10
167.226002251323
 20
168.8444577566954
 30
0.0
 10
167.5272265693066
 20
168.8444577566954
 30
0.0
 10
167.3195748038969
 20
168.8444577566954
 30
0.0
 10
166.7156369721167
 20
168.8444577566954
 30
0.0
 10
166.4086774645194
 20
168.8444577566954
 30
0.0
  0
SPLINE
  5
1C6
330
1F
100
AcDbEntity
  8
0
  6
Continuous
 62
     7
370
    25
100
AcDbSpline
210
0.0
220
0.0
230
1.0
 70
     8
 71
     3
 72
     9
 73
     5
 74
     0
 42
0.00000001
 43
0.00000001
 40
0.0
 40
0.0
 40
0.0
 40
0.0
 40
0.5841917497409264
 40
1.0
 40
1.0
 40
1.0
 40
1.0
 10
165.9942205569421
 20
168.2735916149631
 30
0.0
 10
166.0203885207627
 20
168.4646738370297
 30
0.0
 10
166.0651819705714
 20
168.7917620270825
 30
0.0
 10
166.3077963880853
 20
168.8289815655357
 30
0.0
 10
166.4086774645194
 20
168.8444577566954
 30
0.0
  0
LINE
  5
1C7
330
1F
100
AcDbEntity
  8
0
  6
Continuous
 62
     7
370
    25
100
AcDbLine
 10
165.9942205569
 20
168.273591615
 30
0.0
 11
165.9942205569
 21
167.5467647409
 31
0.0
  0
LINE
  5
1C8
330
1F
100
AcDbEntity
  8
0
  6
Continuous
 62
     7
370
    25
100
AcDbLine
 10
167.4942205569
 20
136.4086679091
 30
0.0
 11
167.4942205569
 21
168.7802476043
 31
0.0
  0
SPLINE
  5
1C9
330
1F
100
AcDbEntity
  8
0
  6
Continuous
 62
     7
370
    25
100
AcDbSpline
210
0.0
220
0.0
230
1.0
 70
     8
 71
     3
 72
     9
 73
     5
 74
     0
 42
0.00000001
 43
0.00000001
 40
0.0
 40
0.0
 40
0.0
 40
0.0
 40
0.4167058089676245
 40
1.0
 40
1.0
 40
1.0
 40
1.0
 10
159.197366414777
 20
138.9063595204932
 30
0.0
 10
159.1936270352075
 20
138.8090645836805
 30
0.0
 10
159.1846533672408
 20
138.5755786693522
 30
0.0
 10
159.1756642391896
 20
138.5133155577088
 30
0.0
 10
159.1704209330148
 20
138.4769978463717
 30
0.0
  0
LINE
  5
1CA
330
1F
100
AcDbEntity
  8
0
  6
Continuous
 62
     7
370
    25
100
AcDbLine
 10
159.1665542323
 20
138.4955565799
 30
0.0
 11
159.1633380027
 21
138.5109932924
 31
0.0
  0
LINE
  5
1CB
330
1F
100
AcDbEntity
  8
0
  6
Continuous
 62
     7
370
    25
100
AcDbLine
 10
158.7639968603
 20
167.0805633523
 30
0.0
 11
158.7607609614
 21
167.0762394559
 31
0.0
  0
LINE
  5
1CC
330
1F
100
AcDbEntity
  8
0
  6
Continuous
 62
     7
370
    25
100
AcDbLine
 10
159.1297636494
 20
155.6159663048
 30
0.0
 11
166.4086774645
 21
155.6159663048
 31
0.0
  0
LINE
  5
1CD
330
1F
100
AcDbEntity
  8
0
  6
Continuous
 62
     7
370
    25
100
AcDbLine
 10
166.4086774645
 20
165.8229492086
 30
0.0
 11
159.1297636494
 21
165.8229492086
 31
0.0
  0
SPLINE
  5
1CE
330
1F
100
AcDbEntity
  8
0
  6
Continuous
 62
     7
370
    25
100
AcDbSpline
210
0.0
220
0.0
230
1.0
 70
     8
 71
     3
 72
    11
 73
     7
 74
     0
 42
0.00000001
 43
0.00000001
 40
0.0
 40
0.0
 40
0.0
 40
0.0
 40
0.2328716322111453
 40
0.4710265024313188
 40
0.731142121256027
 40
1.0
 40
1.0
 40
1.0
 40
1.0
 10
159.1297636493647
 20
155.6159663047578
 30
0.0
 10
158.8593669146919
 20
156.3900686807514
 30
0.0
 10
158.3124388625611
 20
157.9558357569121
 30
0.0
 10
158.0112145445775
 20
160.4912747242068
 30
0.0
 10
158.2188663099872
 20
163.1647808046761
 30
0.0
 10
158.8228041417675
 20
164.9271840887713
 30
0.0
 10
159.1297636493647
 20
165.822949208633
 30
0.0
  0
LINE
  5
1CF
330
1F
100
AcDbEntity
  8
0
  6
Continuous
 62
     7
370
    25
100
AcDbLine
 10
175.2442205569
 20
147.3069577567
 30
0.0
 11
175.2442205569
 21
163.1694577567
 31
0.0
  0
LINE
  5
1D0
330
1F
100
AcDbEntity
  8
0
  6
Continuous
 62
     7
370
    25
100
AcDbLine
 10
175.2442205569
 20
142.0194577567
 30
0.0
 11
175.2442205569
 21
147.3069577567
 31
0.0
  0
SPLINE
  5
1D1
330
1F
100
AcDbEntity
  8
0
  6
Continuous
 62
     7
370
    25
100
AcDbSpline
210
0.0
220
0.0
230
1.0
 70
     8
 71
     3
 72
     9
 73
     5
 74
     0
 42
0.00000001
 43
0.00000001
 40
0.0
 40
0.0
 40
0.0
 40
0.0
 40
0.2661560230836397
 40
1.0
 40
1.0
 40
1.0
 40
1.0
 10
158.983688088394
 20
167.0739021098924
 30
0.0
 10
158.9862080067712
 20
167.1198774020848
 30
0.0
 10
158.995675830749
 20
167.2926155263617
 30
0.0
 10
159.0058130689722
 20
167.2356469645237
 30
0.0
 10
159.0132522201849
 20
167.1938409285452
 30
0.0
  0
LINE
  5
1D2
330
1F
100
AcDbEntity
  8
0
  6
Continuous
 62
     7
370
    25
100
AcDbLine
 10
165.9942205569
 20
153.3212846308
 30
0.0
 11
159.5442205569
 21
153.3212846308
 31
0.0
  0
SPLINE
  5
1D3
330
1F
100
AcDbEntity
  8
0
  6
Continuous
 62
     7
370
    25
100
AcDbSpline
210
0.0
220
0.0
230
1.0
 70
     8
 71
     3
 72
     9
 73
     5
 74
     0
 42
0.00000001
 43
0.00000001
 40
0.0
 40
0.0
 40
0.0
 40
0.0
 40
0.5841917497409203
 40
1.0
 40
1.0
 40
1.0
 40
1.0
 10
159.5442205569421
 20
153.3212846307667
 30
0.0
 10
159.5180525931214
 20
153.8016427563329
 30
0.0
 10
159.4732591433128
 20
154.6239038132193
 30
0.0
 10
159.2306447257988
 20
155.3246078042837
 30
0.0
 10
159.1297636493647
 20
155.6159663047578
 30
0.0
  0
LINE
  5
1D4
330
1F
100
AcDbEntity
  8
0
  6
Continuous
 62
     7
370
    25
100
AcDbLine
 10
159.5442205569
 20
151.8676308826
 30
0.0
 11
165.9942205569
 21
151.8676308826
 31
0.0
  0
LINE
  5
1D5
330
1F
100
AcDbEntity
  8
0
  6
Continuous
 62
     7
370
    25
100
AcDbLine
 10
159.5442205569
 20
153.3212846308
 30
0.0
 11
159.5442205569
 21
151.8676308826
 31
0.0
  0
LINE
  5
1D6
330
1F
100
AcDbEntity
  8
0
  6
Continuous
 62
     7
370
    25
100
AcDbLine
 10
166.4086774645
 20
149.5729492086
 30
0.0
 11
159.1297636494
 21
149.5729492086
 31
0.0
  0
SPLINE
  5
1D7
330
1F
100
AcDbEntity
  8
0
  6
Continuous
 62
     7
370
    25
100
AcDbSpline
210
0.0
220
0.0
230
1.0
 70
     8
 71
     3
 72
     9
 73
     5
 74
     0
 42
0.00000001
 43
0.00000001
 40
0.0
 40
0.0
 40
0.0
 40
0.0
 40
0.5850553834536154
 40
1.0
 40
1.0
 40
1.0
 40
1.0
 10
159.1297636493647
 20
149.572949208633
 30
0.0
 10
159.266317783389
 20
149.9911941512355
 30
0.0
 10
159.499721556581
 20
150.7060750914527
 30
0.0
 10
159.5311708443063
 20
151.5269947073785
 30
0.0
 10
159.5442205569421
 20
151.8676308826242
 30
0.0
  0
LINE
  5
1D8
330
1F
100
AcDbEntity
  8
0
  6
Continuous
 62
     7
370
    25
100
AcDbLine
 10
159.1297636494
 20
139.3659663048
 30
0.0
 11
166.4086774645
 21
139.3659663048
 31
0.0
  0
SPLINE
  5
1D9
330
1F
100
AcDbEntity
  8
0
  6
Continuous
 62
     7
370
    25
100
AcDbSpline
210
0.0
220
0.0
230
1.0
 70
     8
 71
     3
 72
    11
 73
     7
 74
     0
 42
0.00000001
 43
0.00000001
 40
0.0
 40
0.0
 40
0.0
 40
0.0
 40
0.2379053903768115
 40
0.4814905141302429
 40
0.7366519444347656
 40
1.0
 40
1.0
 40
1.0
 40
1.0
 10
159.1297636493648
 20
139.3659663047576
 30
0.0
 10
158.8541782143918
 20
140.1570495260684
 30
0.0
 10
158.2964280408383
 20
141.7581022233002
 30
0.0
 10
158.009864816182
 20
144.3151740240842
 30
0.0
 10
158.23474522238
 20
146.968906889948
 30
0.0
 10
158.8283003392982
 20
148.69584635435
 30
0.0
 10
159.1297636493647
 20
149.572949208633
 30
0.0
  0
LINE
  5
1DA
330
1F
100
AcDbEntity
  8
0
  6
Continuous
 62
     7
370
    25
100
AcDbLine
 10
159.5442205569
 20
167.5467647409
 30
0.0
 11
165.9942205569
 21
167.5467647409
 31
0.0
  0
SPLINE
  5
1DB
330
1F
100
AcDbEntity
  8
0
  6
Continuous
 62
     7
370
    25
100
AcDbSpline
210
0.0
220
0.0
230
1.0
 70
     8
 71
     3
 72
     9
 73
     5
 74
     0
 42
0.00000001
 43
0.00000001
 40
0.0
 40
0.0
 40
0.0
 40
0.0
 40
0.5850553834536188
 40
1.0
 40
1.0
 40
1.0
 40
1.0
 10
159.1297636493647
 20
165.822949208633
 30
0.0
 10
159.266317783389
 20
166.2094957341968
 30
0.0
 10
159.499721556581
 20
166.8701964755215
 30
0.0
 10
159.5311708443062
 20
167.3483553076472
 30
0.0
 10
159.5442205569421
 20
167.5467647408919
 30
0.0
  0
LINE
  5
1DC
330
1F
100
AcDbEntity
  8
0
  6
Continuous
 62
     7
370
    25
100
AcDbLine
 10
165.9942205569
 20
137.6421507725
 30
0.0
 11
159.5442205569
 21
137.6421507725
 31
0.0
  0
SPLINE
  5
1DD
330
1F
100
AcDbEntity
  8
0
  6
Continuous
 62
     7
370
    25
100
AcDbSpline
210
0.0
220
0.0
230
1.0
 70
     8
 71
     3
 72
     9
 73
     5
 74
     0
 42
0.00000001
 43
0.00000001
 40
0.0
 40
0.0
 40
0.0
 40
0.0
 40
0.5841917497409932
 40
1.0
 40
1.0
 40
1.0
 40
1.0
 10
159.5442205569421
 20
137.642150772499
 30
0.0
 10
159.5180525931214
 20
137.9314266759987
 30
0.0
 10
159.4732591433128
 20
138.4265995428322
 30
0.0
 10
159.2306447257989
 20
139.0900839954433
 30
0.0
 10
159.1297636493648
 20
139.3659663047576
 30
0.0
  0
LINE
  5
1DE
330
1F
100
AcDbEntity
  8
0
  6
Continuous
 62
     7
370
    25
100
AcDbLine
 10
165.9942205569
 20
168.273591615
 30
0.0
 11
159.5442205569
 21
168.273591615
 31
0.0
  0
LINE
  5
1DF
330
1F
100
AcDbEntity
  8
0
  6
Continuous
 62
     7
370
    25
100
AcDbLine
 10
159.5442205569
 20
168.273591615
 30
0.0
 11
159.5442205569
 21
167.5467647409
 31
0.0
  0
LINE
  5
1E0
330
1F
100
AcDbEntity
  8
0
  6
Continuous
 62
     7
370
    25
100
AcDbLine
 10
159.5442205569
 20
136.9153238984
 30
0.0
 11
165.9942205569
 21
136.9153238984
 31
0.0
  0
LINE
  5
1E1
330
1F
100
AcDbEntity
  8
0
  6
Continuous
 62
     7
370
    25
100
AcDbLine
 10
159.5442205569
 20
137.6421507725
 30
0.0
 11
159.5442205569
 21
136.9153238984
 31
0.0
  0
LINE
  5
1E2
330
1F
100
AcDbEntity
  8
0
  6
Continuous
 62
     7
370
    25
100
AcDbLine
 10
159.1297636494
 20
168.8444577567
 30
0.0
 11
166.4086774645
 21
168.8444577567
 31
0.0
  0
SPLINE
  5
1E3
330
1F
100
AcDbEntity
  8
0
  6
Continuous
 62
     7
370
    25
100
AcDbSpline
210
0.0
220
0.0
230
1.0
 70
     8
 71
     3
 72
     9
 73
     5
 74
     0
 42
0.00000001
 43
0.00000001
 40
0.0
 40
0.0
 40
0.0
 40
0.0
 40
0.5841917497409259
 40
1.0
 40
1.0
 40
1.0
 40
1.0
 10
159.5442205569421
 20
168.2735916149631
 30
0.0
 10
159.5180525931214
 20
168.4646738370297
 30
0.0
 10
159.4732591433128
 20
168.7917620270825
 30
0.0
 10
159.2306447257988
 20
168.8289815655357
 30
0.0
 10
159.1297636493647
 20
168.8444577566954
 30
0.0
  0
LINE
  5
1E4
330
1F
100
AcDbEntity
  8
0
  6
Continuous
 62
     7
370
    25
100
AcDbLine
 10
166.4086774645
 20
136.3444577567
 30
0.0
 11
159.1297636494
 21
136.3444577567
 31
0.0
  0
SPLINE
  5
1E5
330
1F
100
AcDbEntity
  8
0
  6
Continuous
 62
     7
370
    25
100
AcDbSpline
210
0.0
220
0.0
230
1.0
 70
     8
 71
     3
 72
     9
 73
     5
 74
     0
 42
0.00000001
 43
0.00000001
 40
0.0
 40
0.0
 40
0.0
 40
0.0
 40
0.5850553834536137
 40
1.0
 40
1.0
 40
1.0
 40
1.0
 10
159.1297636493647
 20
136.3444577566954
 30
0.0
 10
159.266317783389
 20
136.3761561737341
 30
0.0
 10
159.499721556581
 20
136.4303363726266
 30
0.0
 10
159.5311708443062
 20
136.7730971564267
 30
0.0
 10
159.5442205569421
 20
136.9153238984277
 30
0.0
  0
LINE
  5
1E6
330
1F
100
AcDbEntity
  8
0
  6
Continuous
 62
     7
370
    25
100
AcDbLine
 10
140.857068371
 20
168.7931271411
 30
0.0
 11
140.8346623445
 21
168.7834104055
 31
0.0
  0
LINE
  5
1E7
330
1F
100
AcDbEntity
  8
0
  6
Continuous
 62
     7
370
    25
100
AcDbLine
 10
140.8411717059
 20
136.3982102811
 30
0.0
 11
140.857068371
 21
136.3957883723
 31
0.0
  0
LINE
  5
1E8
330
1F
100
AcDbEntity
  8
0
  6
Continuous
 62
     7
370
    25
100
AcDbLine
 10
158.0442205569
 20
136.3944577567
 30
0.0
 11
158.0442205569
 21
168.7944577567
 31
0.0
  0
ARC
  5
1E9
330
1F
100
AcDbEntity
  8
0
  6
Continuous
 62
     7
370
    25
100
AcDbCircle
 10
140.9939285829
 20
183.6597106262
 30
0.0
 40
17.29003179958463
100
AcDbArc
 50
243.6488590876
 51
260.280235246
  0
SPLINE
  5
1EA
330
1F
100
AcDbEntity
  8
0
  6
Continuous
 62
     7
370
    25
100
AcDbSpline
210
0.0
220
0.0
230
1.0
 70
     8
 71
     3
 72
    11
 73
     7
 74
     0
 42
0.00000001
 43
0.00000001
 40
0.0
 40
0.0
 40
0.0
 40
0.0
 40
0.1122272272845325
 40
0.4549366928136498
 40
0.8008537014399209
 40
1.0
 40
1.0
 40
1.0
 40
1.0
 10
158.644354313933
 20
138.1811574859063
 30
0.0
 10
158.6384045097602
 20
138.1570332719253
 30
0.0
 10
158.6142857259433
 20
138.0592406917222
 30
0.0
 10
158.5699881582367
 20
138.7281298168207
 30
0.0
 10
158.5192527652707
 20
139.8638451080033
 30
0.0
 10
158.4900549976614
 20
141.0456061790357
 30
0.0
 10
158.4793871958319
 20
141.4773786722041
 30
0.0
  0
SPLINE
  5
1EB
330
1F
100
AcDbEntity
  8
0
  6
Continuous
 62
     7
370
    25
100
AcDbSpline
210
0.0
220
0.0
230
1.0
 70
     8
 71
     3
 72
    12
 73
     8
 74
     0
 42
0.00000001
 43
0.00000001
 40
0.0
 40
0.0
 40
0.0
 40
0.0
 40
0.0905984773349927
 40
0.3401453438333809
 40
0.585624171338092
 40
0.8367447224389002
 40
1.0
 40
1.0
 40
1.0
 40
1.0
 10
158.364352260221
 20
147.0063227117079
 30
0.0
 10
158.3573675644172
 20
147.3775592096495
 30
0.0
 10
158.3311440358804
 20
148.7713394358775
 30
0.0
 10
158.2864999859287
 20
151.4708000140899
 30
0.0
 10
158.2334850111909
 20
154.8726517921746
 30
0.0
 10
158.1819597611467
 20
157.8454320801678
 30
0.0
 10
158.1503444506891
 20
159.4604812960457
 30
0.0
 10
158.137888689694
 20
160.0967763928529
 30
0.0
  0
SPLINE
  5
1EC
330
1F
100
AcDbEntity
  8
0
  6
Continuous
 62
     7
370
    25
100
AcDbSpline
210
0.0
220
0.0
230
1.0
 70
     8
 71
     3
 72
    10
 73
     6
 74
     0
 42
0.00000001
 43
0.00000001
 40
0.0
 40
0.0
 40
0.0
 40
0.0
 40
0.0933023780258963
 40
0.7682512449043578
 40
1.0
 40
1.0
 40
1.0
 40
1.0
 10
158.1255088912166
 20
160.7401577543774
 30
0.0
 10
158.122902404873
 20
160.8761920551133
 30
0.0
 10
158.1014406112869
 20
161.9962977062364
 30
0.0
 10
158.0760375347489
 20
163.1705534537367
 30
0.0
 10
158.0514455454322
 20
164.0901628494832
 30
0.0
 10
158.0451599185911
 20
164.3252118089968
 30
0.0
  0
LINE
  5
1ED
330
1F
100
AcDbEntity
  8
0
  6
Continuous
 62
     7
370
    25
100
AcDbLine
 10
158.0447490361
 20
164.325129499
 30
0.0
 11
158.5139100232
 21
163.6683714445
 31
0.0
  0
SPLINE
  5
1EE
330
1F
100
AcDbEntity
  8
0
  6
Continuous
 62
     7
370
    25
100
AcDbSpline
210
0.0
220
0.0
230
1.0
 70
     8
 71
     3
 72
    27
 73
    23
 74
     0
 42
0.00000001
 43
0.00000001
 40
0.0
 40
0.0
 40
0.0
 40
0.0
 40
0.0515273311150716
 40
0.1040948847478265
 40
0.1569925266047932
 40
0.2095573598678103
 40
0.2611509972560888
 40
0.312750177598725
 40
0.3653178909121096
 40
0.4182155324148153
 40
0.4707802053150036
 40
0.5223735357650857
 40
0.5739730241397739
 40
0.6265408970958815
 40
0.6794385382049639
 40
0.7320030507044293
 40
0.7835960743652486
 40
0.8351958707381983
 40
0.8877639032991218
 40
0.9406615439752181
 40
0.9932258960360691
 40
1.0
 40
1.0
 40
1.0
 40
1.0
 10
166.612853162042
 20
138.9065859881606
 30
0.0
 10
166.6009465600722
 20
138.9385751824785
 30
0.0
 10
166.57689298825
 20
139.0031993619895
 30
0.0
 10
166.5385674983731
 20
139.524344978702
 30
0.0
 10
166.4997134881619
 20
140.3521061780814
 30
0.0
 10
166.4613757872661
 20
141.4861513973904
 30
0.0
 10
166.4253960353768
 20
142.8798390919821
 30
0.0
 10
166.3894004270615
 20
144.5087987143069
 30
0.0
 10
166.3510583244475
 20
146.3505239192073
 30
0.0
 10
166.3122040168262
 20
148.360199990128
 30
0.0
 10
166.2738666447833
 20
150.4628161517423
 30
0.0
 10
166.2378877514201
 20
152.5996523699682
 30
0.0
 10
166.2018912594997
 20
154.7364122083328
 30
0.0
 10
166.1635489444094
 20
156.8387619774379
 30
0.0
 10
166.1246944976286
 20
158.8478245084612
 30
0.0
 10
166.0863578932624
 20
160.6884639013788
 30
0.0
 10
166.0503779825972
 20
162.3167300312733
 30
0.0
 10
166.0143876961037
 20
163.707758869854
 30
0.0
 10
165.9760181496975
 20
164.8460305720209
 30
0.0
 10
165.9372651940042
 20
165.6512867267193
 30
0.0
 10
165.9096011824619
 20
166.0779736658543
 30
0.0
 10
165.8957965049362
 20
166.1341792002004
 30
0.0
 10
165.8942205569421
 20
166.140595648462
 30
0.0
  0
SPLINE
  5
1EF
330
1F
100
AcDbEntity
  8
0
  6
Continuous
 62
     7
370
    25
100
AcDbSpline
210
0.0
220
0.0
230
1.0
 70
     8
 71
     3
 72
    50
 73
    46
 74
     0
 42
0.00000001
 43
0.00000001
 40
0.0
 40
0.0
 40
0.0
 40
0.0
 40
0.0284475187430945
 40
0.0522203319930536
 40
0.0761400917270586
 40
0.099907043807384
 40
0.1232327519742958
 40
0.1465698242851818
 40
0.1703427091924241
 40
0.1942624681966602
 40
0.2180293472143891
 40
0.2413549187423394
 40
0.2646921298529429
 40
0.2884650864003172
 40
0.3123848446569858
 40
0.3361516505949936
 40
0.3594770855513481
 40
0.3828144354463704
 40
0.4065874636167252
 40
0.4305072211080275
 40
0.4542739539491897
 40
0.4775992524013126
 40
0.5009367410654557
 40
0.524709840841639
 40
0.5486295975497764
 40
0.5723962572769681
 40
0.5957214192922247
 40
0.6190590467101896
 40
0.6428322180750499
 40
0.6667519739822224
 40
0.6905185605783206
 40
0.7138435862240774
 40
0.7371813523805644
 40
0.7609545953169489
 40
0.7848743504053571
 40
0.8086408638532381
 40
0.8319657531968614
 40
0.8553036580765708
 40
0.8790769725673265
 40
0.9029967268191721
 40
0.9267631671017127
 40
0.9500879202105702
 40
0.9734259637982005
 40
0.997199349826175
 40
1.0
 40
1.0
 40
1.0
 40
1.0
 10
159.1128282784174
 20
138.9075441353701
 30
0.0
 10
159.7466267416905
 20
138.9287504356111
 30
0.0
 10
160.9100732435701
 20
138.9676782608789
 30
0.0
 10
160.4558679856428
 20
139.5296122720679
 30
0.0
 10
160.5214048386308
 20
140.3597989783263
 30
0.0
 10
160.4553276528189
 20
141.4960083516688
 30
0.0
 10
160.4266606285864
 20
142.891604916534
 30
0.0
 10
160.3886887957791
 20
144.5222997618926
 30
0.0
 10
160.3508710064876
 20
146.3655882518635
 30
0.0
 10
160.311872576053
 20
148.3762887595633
 30
0.0
 10
160.2735816199038
 20
150.479316270334
 30
0.0
 10
160.2376204963223
 20
152.6162778655785
 30
0.0
 10
160.201598638236
 20
154.7529071927813
 30
0.0
 10
160.1632476393799
 20
156.8548491172324
 30
0.0
 10
160.1243935832617
 20
158.8628437758248
 30
0.0
 10
160.086064508142
 20
160.7020487277613
 30
0.0
 10
160.050114322301
 20
162.3280905247264
 30
0.0
 10
160.0140888951506
 20
163.7190301246908
 30
0.0
 10
159.975738386117
 20
164.848193389031
 30
0.0
 10
159.9368841332376
 20
165.6771238685526
 30
0.0
 10
159.8985553668219
 20
166.175028046465
 30
0.0
 10
159.8626060295083
 20
166.3375528265406
 30
0.0
 10
159.826579731448
 20
166.167932395776
 30
0.0
 10
159.7882289752113
 20
165.6627995001708
 30
0.0
 10
159.7493747252969
 20
164.8270444018983
 30
0.0
 10
159.7110462146725
 20
163.6919641648145
 30
0.0
 10
159.6750977393996
 20
162.2957616532572
 30
0.0
 10
159.6390705668434
 20
160.6649482475758
 30
0.0
 10
159.6007195644812
 20
158.821437762055
 30
0.0
 10
159.5618653173179
 20
156.8106167989397
 30
0.0
 10
159.5235370627161
 20
154.7075360843285
 30
0.0
 10
159.4875894490472
 20
152.5705595341433
 30
0.0
 10
159.4515614021296
 20
150.4339462641108
 30
0.0
 10
159.4132101537405
 20
148.3320567196256
 30
0.0
 10
159.37435590924
 20
146.3241920224334
 30
0.0
 10
159.3360279113735
 20
144.4851806360236
 30
0.0
 10
159.3000811568603
 20
142.859365183575
 30
0.0
 10
159.2640522433127
 20
141.4686306493648
 30
0.0
 10
159.2257007200448
 20
140.339868107173
 30
0.0
 10
159.1868465869943
 20
139.5107545655689
 30
0.0
 10
159.1485184448108
 20
139.0150004409049
 30
0.0
 10
159.1125740176896
 20
138.8461305129301
 30
0.0
 10
159.0765387409173
 20
139.0410285896885
 30
0.0
 10
159.0496044698118
 20
139.3294225427472
 30
0.0
 10
159.0351873880146
 20
139.6447077478453
 30
0.0
 10
159.0336679649833
 20
139.677935803898
 30
0.0
  0
SPLINE
  5
1F0
330
1F
100
AcDbEntity
  8
0
  6
Continuous
 62
     7
370
    25
100
AcDbSpline
210
0.0
220
0.0
230
1.0
 70
     8
 71
     3
 72
    12
 73
     8
 74
     0
 42
0.00000001
 43
0.00000001
 40
0.0
 40
0.0
 40
0.0
 40
0.0
 40
0.2342640849254553
 40
0.4754567751216083
 40
0.7167925825372544
 40
0.962628769256193
 40
1.0
 40
1.0
 40
1.0
 40
1.0
 10
158.8100060063439
 20
148.500717398639
 30
0.0
 10
158.7977619225293
 20
149.1645615233101
 30
0.0
 10
158.7729116233182
 20
150.5118836567903
 30
0.0
 10
158.7375630405005
 20
152.6236775734979
 30
0.0
 10
158.7015193232438
 20
154.749366046165
 30
0.0
 10
158.6741455072026
 20
156.2758314916238
 30
0.0
 10
158.6592863775692
 20
157.0394109622018
 30
0.0
 10
158.6573256098494
 20
157.1401706980938
 30
0.0
  0
SPLINE
  5
1F1
330
1F
100
AcDbEntity
  8
0
  6
Continuous
 62
     7
370
    25
100
AcDbSpline
210
0.0
220
0.0
230
1.0
 70
     8
 71
     3
 72
    27
 73
    23
 74
     0
 42
0.00000001
 43
0.00000001
 40
0.0
 40
0.0
 40
0.0
 40
0.0
 40
0.0408580882050401
 40
0.0916353127249895
 40
0.1427313829007321
 40
0.1935059786257647
 40
0.2433424546395173
 40
0.2931842870141106
 40
0.3439616658392837
 40
0.3950577356725511
 40
0.4458321764328552
 40
0.4956683558413271
 40
0.5455104858786677
 40
0.5962880189724186
 40
0.6473840884251569
 40
0.6981583741841
 40
0.7479942571312697
 40
0.7978366847986909
 40
0.8486143721243733
 40
0.8997104411585305
 40
0.9504845718794805
 40
1.0
 40
1.0
 40
1.0
 40
1.0
 10
166.9813960323656
 20
138.9361024286815
 30
0.0
 10
166.9716134685252
 20
138.9641114006457
 30
0.0
 10
166.9496734234534
 20
139.0269290952027
 30
0.0
 10
166.9135576434394
 20
139.5263769137108
 30
0.0
 10
166.8747160771505
 20
140.3515647601787
 30
0.0
 10
166.8363750680211
 20
141.486294428197
 30
0.0
 10
166.800396187239
 20
142.8798027330824
 30
0.0
 10
166.7644003427217
 20
144.5088106162535
 30
0.0
 10
166.7260583018756
 20
146.3505229135637
 30
0.0
 10
166.68720397612
 20
148.3602027431821
 30
0.0
 10
166.6488666095744
 20
150.4628179056594
 30
0.0
 10
166.6128877152498
 20
152.5996549693351
 30
0.0
 10
166.5768912290788
 20
154.736412754366
 30
0.0
 10
166.5385488748963
 20
156.8387701985491
 30
0.0
 10
166.4996945672337
 20
158.8478037776114
 30
0.0
 10
166.4613574470373
 20
160.6885494670303
 30
0.0
 10
166.4253794289054
 20
162.3164256456761
 30
0.0
 10
166.3893820691418
 20
163.7089123902974
 30
0.0
 10
166.3510394426407
 20
164.8416302041115
 30
0.0
 10
166.3121852264263
 20
165.6677744956295
 30
0.0
 10
166.2739289282802
 20
166.1866566277379
 30
0.0
 10
166.2499435340791
 20
166.2501563525116
 30
0.0
 10
166.2381013535349
 20
166.2815077323963
 30
0.0
  0
SPLINE
  5
1F2
330
1F
100
AcDbEntity
  8
0
  6
Continuous
 62
     7
370
    25
100
AcDbSpline
210
0.0
220
0.0
230
1.0
 70
     8
 71
     3
 72
    11
 73
     7
 74
     0
 42
0.00000001
 43
0.00000001
 40
0.0
 40
0.0
 40
0.0
 40
0.0
 40
0.1812337128188507
 40
0.5031996713001466
 40
0.8253567532435053
 40
1.0
 40
1.0
 40
1.0
 40
1.0
 10
159.1697047984118
 20
149.3435330421488
 30
0.0
 10
159.1626267466602
 20
149.7290483961411
 30
0.0
 10
159.1429743692991
 20
150.7994408545464
 30
0.0
 10
159.1125556071083
 20
152.6203413351315
 30
0.0
 10
159.0823119448245
 20
154.4267187346657
 30
0.0
 10
159.0629051205637
 20
155.4825249450446
 30
0.0
 10
159.0560829213776
 20
155.8536789356404
 30
0.0
  0
ELLIPSE
  5
1F3
330
1F
100
AcDbEntity
  8
0
  6
Continuous
 62
     7
370
    25
100
AcDbEllipse
 10
166.4246592488
 20
152.5944577567
 30
0.0
 11
-7.401257687792907
 21
14.35777723298276
 31
0.0
210
0.0
220
0.0
230
1.0
 40
0.2737224856
 41
0.1519163654195837
 42
0.4881424368787657
  0
ELLIPSE
  5
1F4
330
1F
100
AcDbEntity
  8
0
  6
Continuous
 62
     7
370
    25
100
AcDbEllipse
 10
150.9860838006
 20
152.5944577567
 30
0.0
 11
7.392868934794849
 21
14.35826292490984
 31
0.0
210
0.0
220
0.0
230
1.0
 40
0.2735670702
 41
6.028168091394788
 42
6.131028995319406
  0
LINE
  5
1F5
330
1F
100
AcDbEntity
  8
0
  6
Continuous
 62
     7
370
    25
100
AcDbLine
 10
158.5138981433
 20
166.4802913006
 30
0.0
 11
158.8888981549
 21
166.4802913005
 31
0.0
  0
LINE
  5
1F6
330
1F
100
AcDbEntity
  8
0
  6
Continuous
 62
     7
370
    25
100
AcDbLine
 10
158.5138981433
 20
166.4802913006
 30
0.0
 11
158.5139100232
 21
163.6683714445
 31
0.0
  0
LINE
  5
1F7
330
1F
100
AcDbEntity
  8
0
  6
Continuous
 62
     7
370
    25
100
AcDbLine
 10
158.8888981549
 20
166.4802913004
 30
0.0
 11
158.888904369
 21
165.0094484762
 31
0.0
  0
SPLINE
  5
1F8
330
1F
100
AcDbEntity
  8
0
  6
Continuous
 62
     7
370
    25
100
AcDbSpline
210
0.0
220
0.0
230
1.0
 70
     8
 71
     3
 72
    16
 73
    12
 74
     0
 42
0.00000001
 43
0.00000001
 40
0.0
 40
0.0
 40
0.0
 40
0.0
 40
0.2500000000000024
 40
0.2500000000000024
 40
0.5000000000000049
 40
0.5000000000000049
 40
0.6250000000000037
 40
0.6250000000000037
 40
0.7500000000000024
 40
0.7500000000000024
 40
1.0
 40
1.0
 40
1.0
 40
1.0
 10
133.3193814603659
 20
168.166275690876
 30
0.0
 10
133.5499041363488
 20
168.4800036040848
 30
0.0
 10
133.7405545279244
 20
168.7610690841763
 30
0.0
 10
134.0663849351457
 20
169.2503378608673
 30
0.0
 10
134.2012260111804
 20
169.4586851367253
 30
0.0
 10
134.3691818197244
 20
169.7109843211699
 30
0.0
 10
134.4194579526684
 20
169.7851360492072
 30
0.0
 10
134.5077928852072
 20
169.9104836553144
 30
0.0
 10
134.5460534016615
 20
169.961997404221
 30
0.0
 10
134.6443703866552
 20
170.0830029520187
 30
0.0
 10
134.6881378474538
 20
170.1191145068026
 30
0.0
 10
134.7110824876432
 20
170.1088085400755
 30
0.0
  0
ARC
  5
1F9
330
1F
100
AcDbEntity
  8
0
  6
Continuous
 62
     7
370
    25
100
AcDbCircle
 10
140.8514295473
 20
183.7796002305
 30
0.0
 40
14.98647415023403
100
AcDbArc
 50
245.8123806786
 51
270.02155816
  0
LWPOLYLINE
  5
1FA
330
1F
100
AcDbEntity
  8
0
  6
Continuous
 62
     7
370
    25
100
AcDbPolyline
 90
        3
 70
   128
 43
0.0
 10
140.857068371
 20
136.3957883723
 10
140.0658641277
 20
136.3751810907
 10
139.8829668007
 20
136.3644588649
  0
ARC
  5
1FB
330
1F
100
AcDbEntity
  8
0
  6
Continuous
 62
     7
370
    25
100
AcDbCircle
 10
126.8442205569
 20
152.5944577567
 30
0.0
 40
19.20000000000002
100
AcDbArc
 50
65.8119747904
 51
223.1368682381
  0
LINE
  5
1FC
330
1F
100
AcDbEntity
  8
0
  6
Continuous
 62
     7
370
    25
100
AcDbLine
 10
134.7110824876
 20
170.1088085401
 30
0.0
 11
134.7111032219
 21
170.1087992269
 31
0.0
  0
ARC
  5
1FD
330
1F
100
AcDbEntity
  8
0
  6
Continuous
 62
     7
370
    25
100
AcDbCircle
 10
126.8442205569
 20
152.5944577567
 30
0.0
 40
25.375
100
AcDbArc
 50
39.6743748818
 51
238.0054780059
  0
ARC
  5
1FE
330
1F
100
AcDbEntity
  8
0
  6
Continuous
 62
     7
370
    25
100
AcDbCircle
 10
126.8442205569
 20
152.5944577567
 30
0.0
 40
25.37500000000004
100
AcDbArc
 50
299.4783986162
 51
320.3256251182
  0
SPLINE
  5
1FF
330
1F
100
AcDbEntity
  8
0
  6
Continuous
 62
     8
370
    25
100
AcDbSpline
210
0.0
220
0.0
230
1.0
 70
     8
 71
     3
 72
     9
 73
     5
 74
     0
 42
0.00000001
 43
0.00000001
 40
0.0
 40
0.0
 40
0.0
 40
0.0
 40
0.5235409429433177
 40
1.0
 40
1.0
 40
1.0
 40
1.0
 10
112.3611809898968
 20
153.1210284518136
 30
0.0
 10
112.3193695940973
 20
152.8663389287021
 30
0.0
 10
112.2395068892541
 20
152.3798640377802
 30
0.0
 10
112.1783090648096
 20
151.8896489114783
 30
0.0
 10
112.1491508070808
 20
151.6560814746455
 30
0.0
  0
LWPOLYLINE
  5
200
330
1F
100
AcDbEntity
  8
0
  6
Continuous
 62
     8
370
    25
100
AcDbPolyline
 90
        3
 70
   128
 43
0.0
 10
112.2772251949
 20
150.4431160541
 10
112.2012243414
 20
151.0425921594
 10
112.1491508071
 20
151.6560814746
  0
LINE
  5
201
330
1F
100
AcDbEntity
  8
0
  6
Continuous
 62
     8
370
    25
100
AcDbLine
 10
111.9559812788
 20
148.2828071219
 30
0.0
 11
112.4392670679
 21
147.7688303348
 31
0.0
  0
LINE
  5
202
330
1F
100
AcDbEntity
  8
0
  6
Continuous
 62
     8
370
    25
100
AcDbLine
 10
200.5822645141
 20
144.448866411
 30
0.0
 11
200.5822645141
 21
143.6187997125
 31
0.0
  0
LINE
  5
203
330
1F
100
AcDbEntity
  8
0
  6
Continuous
 62
     8
370
    25
100
AcDbLine
 10
199.6488443002
 20
161.5864087114
 30
0.0
 11
199.6488443002
 21
160.7504551731
 31
0.0
  0
LINE
  5
204
330
1F
100
AcDbEntity
  8
0
  6
Continuous
 62
     8
370
    25
100
AcDbLine
 10
204.9529467602
 20
143.6950902549
 30
0.0
 11
204.9529467602
 21
161.4938252585
 31
0.0
  0
ARC
  5
205
330
1F
100
AcDbEntity
  8
0
  6
Continuous
 62
     8
370
    25
100
AcDbCircle
 10
195.1090186706
 20
162.2279542776
 30
0.0
 40
1.997332901290906
100
AcDbArc
 50
21.1747737726
 51
89.4232065849
  0
SPLINE
  5
206
330
1F
100
AcDbEntity
  8
0
  6
Continuous
 62
     8
370
    25
100
AcDbSpline
210
0.0
220
0.0
230
1.0
 70
     8
 71
     3
 72
    11
 73
     7
 74
     0
 42
0.00000001
 43
0.00000001
 40
0.0
 40
0.0
 40
0.0
 40
0.0
 40
0.269229887666506
 40
0.8554951518948687
 40
0.8587713187211473
 40
1.0
 40
1.0
 40
1.0
 40
1.0
 10
198.3754720651305
 20
161.910996678866
 30
0.0
 10
198.480495556312
 20
161.8537406761615
 30
0.0
 10
198.8142144027577
 20
161.6718060731531
 30
0.0
 10
199.1843208421207
 20
161.2814145998312
 30
0.0
 10
199.4946994429256
 20
160.9072219103475
 30
0.0
 10
199.556201984718
 20
160.8282366987081
 30
0.0
 10
199.6163101609248
 20
160.7510422140479
 30
0.0
  0
SPLINE
  5
207
330
1F
100
AcDbEntity
  8
0
  6
Continuous
 62
     8
370
    25
100
AcDbSpline
210
0.0
220
0.0
230
1.0
 70
     8
 71
     3
 72
     9
 73
     5
 74
     0
 42
0.00000001
 43
0.00000001
 40
0.0
 40
0.0
 40
0.0
 40
0.0
 40
0.3521634778120121
 40
1.0
 40
1.0
 40
1.0
 40
1.0
 10
200.5376581809082
 20
144.4480597938751
 30
0.0
 10
200.3455630833357
 20
144.2547733619219
 30
0.0
 10
199.800091705196
 20
143.7059190822161
 30
0.0
 10
199.2785937329026
 20
143.4010260422711
 30
0.0
 10
198.9407483002041
 20
143.2035051956338
 30
0.0
  0
ARC
  5
208
330
1F
100
AcDbEntity
  8
0
  6
Continuous
 62
     8
370
    25
100
AcDbCircle
 10
195.2146508613
 20
142.853597048
 30
0.0
 40
1.936019833622793
100
AcDbArc
 50
269.1359144738
 51
335.0551082052
  0
ARC
  5
209
330
1F
100
AcDbEntity
  8
0
  6
Continuous
 62
     8
370
    25
100
AcDbCircle
 10
195.1086343637
 20
162.2752974111
 30
0.0
 40
1.996884439084559
100
AcDbArc
 50
20.5052135399
 51
89.4120497169
  0
LINE
  5
20A
330
1F
100
AcDbEntity
  8
0
  6
Continuous
 62
     8
370
    25
100
AcDbLine
 10
191.1029467602
 20
164.566271219
 30
0.0
 11
191.1029467602
 21
164.3405916699
 31
0.0
  0
LINE
  5
20B
330
1F
100
AcDbEntity
  8
0
  6
Continuous
 62
     8
370
    25
100
AcDbLine
 10
191.1029467602
 20
140.8483238435
 30
0.0
 11
191.1029467602
 21
140.6226442944
 31
0.0
  0
LINE
  5
20C
330
1F
100
AcDbEntity
  8
0
  6
Continuous
 62
     8
370
    25
100
AcDbLine
 10
195.1291253698
 20
140.6929215034
 30
0.0
 11
195.1291253698
 21
140.7095103098
 31
0.0
  0
LINE
  5
20D
330
1F
100
AcDbEntity
  8
0
  6
Continuous
 62
     8
370
    25
100
AcDbLine
 10
195.1291253698
 20
164.2720767133
 30
0.0
 11
195.1291253698
 21
164.49599401
 31
0.0
  0
ARC
  5
20E
330
1F
100
AcDbEntity
  8
0
  6
Continuous
 62
     8
370
    25
100
AcDbCircle
 10
195.0951627292
 20
142.709379078
 30
0.0
 40
2.000157131616556
100
AcDbArc
 50
270.9729283059
 51
333.2041243229
  0
LINE
  5
20F
330
1F
100
AcDbEntity
  8
0
  6
Continuous
 62
     8
370
    25
100
AcDbLine
 10
207.0492255465
 20
146.6693299855
 30
0.0
 11
207.0492255465
 21
158.5195855279
 31
0.0
  0
SPLINE
  5
210
330
1F
100
AcDbEntity
  8
0
  6
Continuous
 62
     8
370
    25
100
AcDbSpline
210
0.0
220
0.0
230
1.0
 70
     8
 71
     3
 72
    26
 73
    22
 74
     0
 42
0.00000001
 43
0.00000001
 40
0.0
 40
0.0
 40
0.0
 40
0.0
 40
0.073092637528769
 40
0.1466232276982851
 40
0.2317408539639399
 40
0.3183300489497436
 40
0.3662130706942169
 40
0.4151116934855997
 40
0.4716203320908781
 40
0.4960480303656634
 40
0.5230022073859465
 40
0.5509462246161365
 40
0.5822639917308088
 40
0.6196720128176443
 40
0.6583861193991327
 40
0.6770845612866128
 40
0.7440827157767687
 40
0.8128062032299979
 40
0.8710323137150227
 40
0.9292783619918948
 40
1.0
 40
1.0
 40
1.0
 40
1.0
 10
138.0748629256114
 20
166.617872247687
 30
0.0
 10
139.1701970041688
 20
166.3576519491911
 30
0.0
 10
141.367428126699
 20
165.8356521778315
 30
0.0
 10
144.7068696372956
 20
164.6833743569834
 30
0.0
 10
148.105901861362
 20
163.1312446333434
 30
0.0
 10
150.9476366055866
 20
161.3059402100184
 30
0.0
 10
153.069822477914
 20
159.4015612779306
 30
0.0
 10
154.612753421823
 20
157.5353946683814
 30
0.0
 10
155.5809728677916
 20
155.6485583650657
 30
0.0
 10
156.0139293520553
 20
153.932417256491
 30
0.0
 10
156.133529273661
 20
152.6257803949006
 30
0.0
 10
156.0162297968662
 20
151.2038307803831
 30
0.0
 10
155.602764499726
 20
149.669546065345
 30
0.0
 10
154.8449982685238
 20
148.1015036612407
 30
0.0
 10
153.9692580846866
 20
146.8724476241371
 30
0.0
 10
152.6812997122419
 20
145.4049206623578
 30
0.0
 10
150.8637146007076
 20
143.8294083990814
 30
0.0
 10
148.3505753754258
 20
142.2390432242335
 30
0.0
 10
145.8146160081269
 20
141.0009724797629
 30
0.0
 10
143.1755052284475
 20
139.9262766146567
 30
0.0
 10
141.2541251835823
 20
139.4371183469974
 30
0.0
 10
140.2005035522792
 20
139.1688800391655
 30
0.0
  0
ARC
  5
211
330
1F
100
AcDbEntity
  8
0
  6
Continuous
 62
     8
370
    25
100
AcDbCircle
 10
133.9196122965
 20
172.9878599983
 30
0.0
 40
7.605448818651898
100
AcDbArc
 50
272.8885497822
 51
303.1170891963
  0
SPLINE
  5
212
330
1F
100
AcDbEntity
  8
0
  6
Continuous
 62
     8
370
    25
100
AcDbSpline
210
0.0
220
0.0
230
1.0
 70
     8
 71
     3
 72
    12
 73
     8
 74
     0
 42
0.00000001
 43
0.00000001
 40
0.0
 40
0.0
 40
0.0
 40
0.0
 40
0.1924082105681739
 40
0.4135492548068708
 40
0.6381901448204661
 40
0.8686791278218468
 40
1.0
 40
1.0
 40
1.0
 40
1.0
 10
140.8346623445142
 20
168.7834104055191
 30
0.0
 10
140.7845553608999
 20
168.769876766208
 30
0.0
 10
140.676858783539
 20
168.7407884729622
 30
0.0
 10
140.2528102265264
 20
168.4087882823585
 30
0.0
 10
139.6028709068474
 20
167.8620688733116
 30
0.0
 10
138.8537075492514
 20
167.2299952332694
 30
0.0
 10
138.2822695007719
 20
166.7808807967135
 30
0.0
 10
138.0748629256114
 20
166.617872247687
 30
0.0
  0
SPLINE
  5
213
330
1F
100
AcDbEntity
  8
0
  6
Continuous
 62
     8
370
    25
100
AcDbSpline
210
0.0
220
0.0
230
1.0
 70
     8
 71
     3
 72
    10
 73
     6
 74
     0
 42
0.00000001
 43
0.00000001
 40
0.0
 40
0.0
 40
0.0
 40
0.0
 40
0.3998319827754719
 40
0.8710574642483419
 40
1.0
 40
1.0
 40
1.0
 40
1.0
 10
139.9722312970823
 20
137.0185574614129
 30
0.0
 10
140.1483010575398
 20
136.872694744186
 30
0.0
 10
140.5318793746378
 20
136.5549242454026
 30
0.0
 10
140.7631419371668
 20
136.4035672625969
 30
0.0
 10
140.8273722125423
 20
136.3991576583763
 30
0.0
 10
140.8411717059195
 20
136.398210281086
 30
0.0
  0
ARC
  5
214
330
1F
100
AcDbEntity
  8
0
  6
Continuous
 62
     8
370
    25
100
AcDbCircle
 10
126.8442205569
 20
152.5944577567
 30
0.0
 40
16.86443661971832
100
AcDbArc
 50
67.4212070912
 51
212.4230490969
  0
LINE
  5
215
330
1F
100
AcDbEntity
  8
0
  6
Continuous
 62
     8
370
    25
100
AcDbLine
 10
132.8629947503
 20
167.0687321915
 30
0.0
 11
133.3193814604
 21
168.1662756909
 31
0.0
  0
ARC
  5
216
330
1F
100
AcDbEntity
  8
0
  6
Continuous
 62
     8
370
    25
100
AcDbCircle
 10
126.8442205569
 20
152.5944577567
 30
0.0
 40
24.76305823079825
100
AcDbArc
 50
300.5338044883
 51
319.140960131
  0
ARC
  5
217
330
1F
100
AcDbEntity
  8
0
  6
Continuous
 62
     8
370
    25
100
AcDbCircle
 10
126.8442205569
 20
152.5944577567
 30
0.0
 40
24.76305823079826
100
AcDbArc
 50
40.859039869
 51
236.8890734318
  0
ENDSEC
  0
SECTION
  2
OBJECTS
  0
DICTIONARY
  5
C
330
0
100
AcDbDictionary
281
     1
  3
ACAD_GROUP
350
D
  3
ACAD_LAYOUT
350
1A
  3
ACAD_MLINESTYLE
350
17
  3
ACAD_PLOTSETTINGS
350
19
  3
ACAD_PLOTSTYLENAME
350
E
  3
ACAD_SCALELIST
350
47
  3
DWGPROPS
350
218
  0
DICTIONARY
  5
D
102
{ACAD_REACTORS
330
C
102
}
330
C
100
AcDbDictionary
281
     1
  0
DICTIONARY
  5
1A
102
{ACAD_REACTORS
330
C
102
}
330
C
100
AcDbDictionary
281
     1
  3
Layout1
350
1E
  3
Layout2
350
26
  3
Model
350
22
  0
DICTIONARY
  5
17
102
{ACAD_REACTORS
330
C
102
}
330
C
100
AcDbDictionary
281
     1
  3
Standard
350
18
  0
DICTIONARY
  5
19
102
{ACAD_REACTORS
330
C
102
}
330
C
100
AcDbDictionary
281
     1
  0
ACDBDICTIONARYWDFLT
  5
E
102
{ACAD_REACTORS
330
C
102
}
330
C
100
AcDbDictionary
281
     1
  3
Normal
350
F
100
AcDbDictionaryWithDefault
340
F
  0
DICTIONARY
  5
47
102
{ACAD_REACTORS
330
C
102
}
330
C
100
AcDbDictionary
281
     1
  3
A0
350
48
  3
A1
350
49
  3
A2
350
4A
  3
A3
350
4B
  3
A4
350
4C
  3
A5
350
4D
  3
A6
350
4E
  3
A7
350
4F
  3
A8
350
50
  3
A9
350
51
  3
B0
350
52
  3
B1
350
53
  3
B2
350
54
  3
B3
350
55
  3
B4
350
56
  3
B5
350
57
  3
B6
350
58
  3
B7
350
59
  3
B8
350
5A
  3
B9
350
5B
  3
C0
350
5C
  3
C1
350
5D
  3
C2
350
5E
  3
C3
350
5F
  3
C4
350
60
  3
C5
350
61
  3
C6
350
62
  3
C7
350
63
  3
C8
350
64
  3
C9
350
65
  3
D0
350
66
  3
D1
350
67
  3
D2
350
68
  0
XRECORD
  5
218
102
{ACAD_REACTORS
330
C
102
}
330
C
100
AcDbXrecord
280
     1
  1
DWGPROPS COOKIE
  2

  3

  4

  6

  7

  8
DS-1
  9

300
=
301
=
302
=
303
=
304
=
305
=
306
=
307
=
308
=
309
=
 40
0.0
 41
2460384.164293125
 42
2460384.164293565
  1

 90
        0
  0
LAYOUT
  5
1E
102
{ACAD_REACTORS
330
1A
102
}
330
1A
100
AcDbPlotSettings
  1

  2
none_device
  4

  6

 40
0.0
 41
0.0
 42
0.0
 43
0.0
 44
0.0
 45
0.0
 46
0.0
 47
0.0
 48
0.0
 49
0.0
140
0.0
141
0.0
142
1.0
143
1.0
 70
   688
 72
     1
 73
     0
 74
     5
  7

 75
    16
147
1.0
148
0.0
149
0.0
100
AcDbLayout
  1
Layout1
 70
     1
 71
     1
 10
0.0
 20
0.0
 11
420.0
 21
297.0
 12
0.0
 22
0.0
 32
0.0
 14
1.0000000000E+20
 24
1.0000000000E+20
 34
1.0000000000E+20
 15
-1.0000000000E+20
 25
-1.0000000000E+20
 35
-1.0000000000E+20
146
0.0
 13
0.0
 23
0.0
 33
0.0
 16
1.0
 26
0.0
 36
0.0
 17
0.0
 27
1.0
 37
0.0
 76
     0
330
1B
  0
LAYOUT
  5
26
102
{ACAD_REACTORS
330
1A
102
}
330
1A
100
AcDbPlotSettings
  1

  2
none_device
  4

  6

 40
0.0
 41
0.0
 42
0.0
 43
0.0
 44
0.0
 45
0.0
 46
0.0
 47
0.0
 48
0.0
 49
0.0
140
0.0
141
0.0
142
1.0
143
1.0
 70
   688
 72
     1
 73
     0
 74
     5
  7

 75
    16
147
1.0
148
0.0
149
0.0
100
AcDbLayout
  1
Layout2
 70
     1
 71
     2
 10
0.0
 20
0.0
 11
0.0
 21
0.0
 12
0.0
 22
0.0
 32
0.0
 14
0.0
 24
0.0
 34
0.0
 15
0.0
 25
0.0
 35
0.0
146
0.0
 13
0.0
 23
0.0
 33
0.0
 16
1.0
 26
0.0
 36
0.0
 17
0.0
 27
1.0
 37
0.0
 76
     0
330
23
  0
LAYOUT
  5
22
102
{ACAD_REACTORS
330
1A
102
}
330
1A
100
AcDbPlotSettings
  1

  2
none_device
  4
Letter_(8.50_x_11.00_Inches)
  6

 40
6.35
 41
6.35
 42
6.35000508
 43
6.35000508
 44
215.9
 45
279.4
 46
0.0
 47
0.0
 48
0.0
 49
0.0
140
0.0
141
0.0
142
1.0
143
1.0
 70
  1712
 72
     1
 73
     0
 74
     0
  7

 75
     0
147
1.0
148
0.0
149
0.0
100
AcDbLayout
  1
Model
 70
     1
 71
     0
 10
0.0
 20
0.0
 11
279.4
 21
215.9
 12
0.0
 22
0.0
 32
0.0
 14
0.0
 24
0.0
 34
0.0
 15
279.4
 25
215.9
 35
0.0
146
0.0
 13
0.0
 23
0.0
 33
0.0
 16
1.0
 26
0.0
 36
0.0
 17
0.0
 27
1.0
 37
0.0
 76
     0
330
1F
331
29
  0
MLINESTYLE
  5
18
102
{ACAD_REACTORS
330
17
102
}
330
17
100
AcDbMlineStyle
  2
Standard
 70
     0
  3

 62
   256
 51
90.0
 52
90.0
 71
     2
 49
0.5
 62
   256
  6
BYLAYER
 49
-0.5
 62
   256
  6
BYLAYER
  0
ACDBPLACEHOLDER
  5
F
102
{ACAD_REACTORS
330
E
102
}
330
E
  0
SCALE
  5
48
102
{ACAD_REACTORS
330
47
102
}
330
47
100
AcDbScale
 70
     0
300
1:1
140
1.0
141
1.0
290
     1
  0
SCALE
  5
49
102
{ACAD_REACTORS
330
47
102
}
330
47
100
AcDbScale
 70
     0
300
1:2
140
1.0
141
2.0
290
     0
  0
SCALE
  5
4A
102
{ACAD_REACTORS
330
47
102
}
330
47
100
AcDbScale
 70
     0
300
1:4
140
1.0
141
4.0
290
     0
  0
SCALE
  5
4B
102
{ACAD_REACTORS
330
47
102
}
330
47
100
AcDbScale
 70
     0
300
1:5
140
1.0
141
5.0
290
     0
  0
SCALE
  5
4C
102
{ACAD_REACTORS
330
47
102
}
330
47
100
AcDbScale
 70
     0
300
1:8
140
1.0
141
8.0
290
     0
  0
SCALE
  5
4D
102
{ACAD_REACTORS
330
47
102
}
330
47
100
AcDbScale
 70
     0
300
1:10
140
1.0
141
10.0
290
     0
  0
SCALE
  5
4E
102
{ACAD_REACTORS
330
47
102
}
330
47
100
AcDbScale
 70
     0
300
1:16
140
1.0
141
16.0
290
     0
  0
SCALE
  5
4F
102
{ACAD_REACTORS
330
47
102
}
330
47
100
AcDbScale
 70
     0
300
1:20
140
1.0
141
20.0
290
     0
  0
SCALE
  5
50
102
{ACAD_REACTORS
330
47
102
}
330
47
100
AcDbScale
 70
     0
300
1:30
140
1.0
141
30.0
290
     0
  0
SCALE
  5
51
102
{ACAD_REACTORS
330
47
102
}
330
47
100
AcDbScale
 70
     0
300
1:40
140
1.0
141
40.0
290
     0
  0
SCALE
  5
52
102
{ACAD_REACTORS
330
47
102
}
330
47
100
AcDbScale
 70
     0
300
1:50
140
1.0
141
50.0
290
     0
  0
SCALE
  5
53
102
{ACAD_REACTORS
330
47
102
}
330
47
100
AcDbScale
 70
     0
300
1:100
140
1.0
141
100.0
290
     0
  0
SCALE
  5
54
102
{ACAD_REACTORS
330
47
102
}
330
47
100
AcDbScale
 70
     0
300
2:1
140
2.0
141
1.0
290
     0
  0
SCALE
  5
55
102
{ACAD_REACTORS
330
47
102
}
330
47
100
AcDbScale
 70
     0
300
4:1
140
4.0
141
1.0
290
     0
  0
SCALE
  5
56
102
{ACAD_REACTORS
330
47
102
}
330
47
100
AcDbScale
 70
     0
300
8:1
140
8.0
141
1.0
290
     0
  0
SCALE
  5
57
102
{ACAD_REACTORS
330
47
102
}
330
47
100
AcDbScale
 70
     0
300
10:1
140
10.0
141
1.0
290
     0
  0
SCALE
  5
58
102
{ACAD_REACTORS
330
47
102
}
330
47
100
AcDbScale
 70
     0
300
100:1
140
100.0
141
1.0
290
     0
  0
SCALE
  5
59
102
{ACAD_REACTORS
330
47
102
}
330
47
100
AcDbScale
 70
     0
300
1/128" = 1'-0"
140
0.0078125
141
12.0
290
     0
  0
SCALE
  5
5A
102
{ACAD_REACTORS
330
47
102
}
330
47
100
AcDbScale
 70
     0
300
1/64" = 1'-0"
140
0.015625
141
12.0
290
     0
  0
SCALE
  5
5B
102
{ACAD_REACTORS
330
47
102
}
330
47
100
AcDbScale
 70
     0
300
1/32" = 1'-0"
140
0.03125
141
12.0
290
     0
  0
SCALE
  5
5C
102
{ACAD_REACTORS
330
47
102
}
330
47
100
AcDbScale
 70
     0
300
1/16" = 1'-0"
140
0.0625
141
12.0
290
     0
  0
SCALE
  5
5D
102
{ACAD_REACTORS
330
47
102
}
330
47
100
AcDbScale
 70
     0
300
3/32" = 1'-0"
140
0.09375
141
12.0
290
     0
  0
SCALE
  5
5E
102
{ACAD_REACTORS
330
47
102
}
330
47
100
AcDbScale
 70
     0
300
1/8" = 1'-0"
140
0.125
141
12.0
290
     0
  0
SCALE
  5
5F
102
{ACAD_REACTORS
330
47
102
}
330
47
100
AcDbScale
 70
     0
300
3/16" = 1'-0"
140
0.1875
141
12.0
290
     0
  0
SCALE
  5
60
102
{ACAD_REACTORS
330
47
102
}
330
47
100
AcDbScale
 70
     0
300
1/4" = 1'-0"
140
0.25
141
12.0
290
     0
  0
SCALE
  5
61
102
{ACAD_REACTORS
330
47
102
}
330
47
100
AcDbScale
 70
     0
300
3/8" = 1'-0"
140
0.375
141
12.0
290
     0
  0
SCALE
  5
62
102
{ACAD_REACTORS
330
47
102
}
330
47
100
AcDbScale
 70
     0
300
1/2" = 1'-0"
140
0.5
141
12.0
290
     0
  0
SCALE
  5
63
102
{ACAD_REACTORS
330
47
102
}
330
47
100
AcDbScale
 70
     0
300
3/4" = 1'-0"
140
0.75
141
12.0
290
     0
  0
SCALE
  5
64
102
{ACAD_REACTORS
330
47
102
}
330
47
100
AcDbScale
 70
     0
300
1" = 1'-0"
140
1.0
141
12.0
290
     0
  0
SCALE
  5
65
102
{ACAD_REACTORS
330
47
102
}
330
47
100
AcDbScale
 70
     0
300
1-1/2" = 1'-0"
140
1.5
141
12.0
290
     0
  0
SCALE
  5
66
102
{ACAD_REACTORS
330
47
102
}
330
47
100
AcDbScale
 70
     0
300
3" = 1'-0"
140
3.0
141
12.0
290
     0
  0
SCALE
  5
67
102
{ACAD_REACTORS
330
47
102
}
330
47
100
AcDbScale
 70
     0
300
6" = 1'-0"
140
6.0
141
12.0
290
     0
  0
SCALE
  5
68
102
{ACAD_REACTORS
330
47
102
}
330
47
100
AcDbScale
 70
     0
300
1'-0" = 1'-0"
140
12.0
141
12.0
290
     0
  0
ENDSEC
  0
EOF
