  0
SECTION
  2
HEADER
  9
$ACADVER
  1
AC1015
  9
$ACADMAINTVER
 70
     6
  9
$DWGCODEPAGE
  3
ANSI_1252
  9
$INSBASE
 10
0.0
 20
0.0
 30
0.0
  9
$EXTMIN
 10
0.0
 20
0.0
 30
0.0
  9
$EXTMAX
 10
279.4
 20
215.9
 30
0.0
  9
$LIMMIN
 10
0.0
 20
0.0
  9
$LIMMAX
 10
279.4
 20
215.9
  9
$ORTHOMODE
 70
     0
  9
$REGENMODE
 70
     1
  9
$FILLMODE
 70
     1
  9
$QTEXTMODE
 70
     0
  9
$MIRRTEXT
 70
     1
  9
$LTSCALE
 40
1.0
  9
$ATTMODE
 70
     1
  9
$TEXTSIZE
 40
3.5
  9
$TRACEWID
 40
1.0
  9
$TEXTSTYLE
  7
Standard
  9
$CLAYER
  8
0
  9
$CELTYPE
  6
ByLayer
  9
$CECOLOR
 62
   256
  9
$CELTSCALE
 40
1.0
  9
$DISPSILH
 70
     0
  9
$DIMSCALE
 40
1.0
  9
$DIMASZ
 40
3.556
  9
$DIMEXO
 40
1.0
  9
$DIMDLI
 40
3.75
  9
$DIMRND
 40
0.0
  9
$DIMDLE
 40
0.0
  9
$DIMEXE
 40
1.0
  9
$DIMTP
 40
0.0
  9
$DIMTM
 40
0.0
  9
$DIMTXT
 40
3.5
  9
$DIMCEN
 40
2.5
  9
$DIMTSZ
 40
0.0
  9
$DIMTOL
 70
     0
  9
$DIMLIM
 70
     0
  9
$DIMTIH
 70
     1
  9
$DIMTOH
 70
     1
  9
$DIMSE1
 70
     0
  9
$DIMSE2
 70
     0
  9
$DIMTAD
 70
     1
  9
$DIMZIN
 70
     1
  9
$DIMBLK
  1

  9
$DIMASO
 70
     1
  9
$DIMSHO
 70
     1
  9
$DIMPOST
  1

  9
$DIMAPOST
  1

  9
$DIMALT
 70
     0
  9
$DIMALTD
 70
     3
  9
$DIMALTF
 40
0.0393700787
  9
$DIMLFAC
 40
5.0
  9
$DIMTOFL
 70
     1
  9
$DIMTVP
 40
0.0
  9
$DIMTIX
 70
     0
  9
$DIMSOXD
 70
     0
  9
$DIMSAH
 70
     0
  9
$DIMBLK1
  1

  9
$DIMBLK2
  1

  9
$DIMSTYLE
  2
ISO-25
  9
$DIMCLRD
 70
     0
  9
$DIMCLRE
 70
     0
  9
$DIMCLRT
 70
     0
  9
$DIMTFAC
 40
1.0
  9
$DIMGAP
 40
1.524
  9
$DIMJUST
 70
     0
  9
$DIMSD1
 70
     0
  9
$DIMSD2
 70
     0
  9
$DIMTOLJ
 70
     0
  9
$DIMTZIN
 70
     1
  9
$DIMALTZ
 70
     0
  9
$DIMALTTZ
 70
     0
  9
$DIMUPT
 70
     0
  9
$DIMDEC
 70
     2
  9
$DIMTDEC
 70
     2
  9
$DIMALTU
 70
     2
  9
$DIMALTTD
 70
     3
  9
$DIMTXSTY
  7
Standard
  9
$DIMAUNIT
 70
     0
  9
$DIMADEC
 70
     2
  9
$DIMALTRND
 40
0.0
  9
$DIMAZIN
 70
     0
  9
$DIMDSEP
 70
    44
  9
$DIMATFIT
 70
     3
  9
$DIMFRAC
 70
     0
  9
$DIMLDRBLK
  1

  9
$DIMLUNIT
 70
     2
  9
$DIMLWD
 70
    -2
  9
$DIMLWE
 70
    -2
  9
$DIMTMOVE
 70
     0
  9
$LUNITS
 70
     2
  9
$LUPREC
 70
     2
  9
$SKETCHINC
 40
1.0
  9
$FILLETRAD
 40
10.0
  9
$AUNITS
 70
     0
  9
$AUPREC
 70
     2
  9
$MENU
  1
.
  9
$ELEVATION
 40
0.0
  9
$PELEVATION
 40
0.0
  9
$THICKNESS
 40
0.0
  9
$LIMCHECK
 70
     0
  9
$CHAMFERA
 40
0.0
  9
$CHAMFERB
 40
0.0
  9
$CHAMFERC
 40
0.0
  9
$CHAMFERD
 40
0.0
  9
$SKPOLY
 70
     0
  9
$TDCREATE
 40
2460383.729301817
  9
$TDUCREATE
 40
2460383.50013515
  9
$TDUPDATE
 40
2460383.729302187
  9
$TDUUPDATE
 40
2460383.500135521
  9
$TDINDWG
 40
0.0000000116
  9
$TDUSRTIMER
 40
0.0000000116
  9
$USRTIMER
 70
     1
  9
$ANGBASE
 50
0.0
  9
$ANGDIR
 70
     0
  9
$PDMODE
 70
     0
  9
$PDSIZE
 40
-1.0
  9
$PLINEWID
 40
0.0
  9
$SPLFRAME
 70
     0
  9
$SPLINETYPE
 70
     6
  9
$SPLINESEGS
 70
     8
  9
$HANDSEED
  5
2B0
  9
$SURFTAB1
 70
     6
  9
$SURFTAB2
 70
     6
  9
$SURFTYPE
 70
     6
  9
$SURFU
 70
     6
  9
$SURFV
 70
     6
  9
$UCSBASE
  2

  9
$UCSNAME
  2

  9
$UCSORG
 10
0.0
 20
0.0
 30
0.0
  9
$UCSXDIR
 10
1.0
 20
0.0
 30
0.0
  9
$UCSYDIR
 10
0.0
 20
1.0
 30
0.0
  9
$UCSORTHOREF
  2

  9
$UCSORTHOVIEW
 70
     0
  9
$UCSORGTOP
 10
0.0
 20
0.0
 30
0.0
  9
$UCSORGBOTTOM
 10
0.0
 20
0.0
 30
0.0
  9
$UCSORGLEFT
 10
0.0
 20
0.0
 30
0.0
  9
$UCSORGRIGHT
 10
0.0
 20
0.0
 30
0.0
  9
$UCSORGFRONT
 10
0.0
 20
0.0
 30
0.0
  9
$UCSORGBACK
 10
0.0
 20
0.0
 30
0.0
  9
$PUCSBASE
  2

  9
$PUCSNAME
  2

  9
$PUCSORG
 10
0.0
 20
0.0
 30
0.0
  9
$PUCSXDIR
 10
1.0
 20
0.0
 30
0.0
  9
$PUCSYDIR
 10
0.0
 20
1.0
 30
0.0
  9
$PUCSORTHOREF
  2

  9
$PUCSORTHOVIEW
 70
     0
  9
$PUCSORGTOP
 10
0.0
 20
0.0
 30
0.0
  9
$PUCSORGBOTTOM
 10
0.0
 20
0.0
 30
0.0
  9
$PUCSORGLEFT
 10
0.0
 20
0.0
 30
0.0
  9
$PUCSORGRIGHT
 10
0.0
 20
0.0
 30
0.0
  9
$PUCSORGFRONT
 10
0.0
 20
0.0
 30
0.0
  9
$PUCSORGBACK
 10
0.0
 20
0.0
 30
0.0
  9
$USERI1
 70
     0
  9
$USERI2
 70
     0
  9
$USERI3
 70
     0
  9
$USERI4
 70
     0
  9
$USERI5
 70
     0
  9
$USERR1
 40
0.0
  9
$USERR2
 40
0.0
  9
$USERR3
 40
0.0
  9
$USERR4
 40
0.0
  9
$USERR5
 40
0.0
  9
$WORLDVIEW
 70
     1
  9
$SHADEDGE
 70
     3
  9
$SHADEDIF
 70
    70
  9
$TILEMODE
 70
     1
  9
$MAXACTVP
 70
    64
  9
$PINSBASE
 10
0.0
 20
0.0
 30
0.0
  9
$PLIMCHECK
 70
     0
  9
$PEXTMIN
 10
1.0000000000E+20
 20
1.0000000000E+20
 30
1.0000000000E+20
  9
$PEXTMAX
 10
-1.0000000000E+20
 20
-1.0000000000E+20
 30
-1.0000000000E+20
  9
$PLIMMIN
 10
0.0
 20
0.0
  9
$PLIMMAX
 10
420.0
 20
297.0
  9
$UNITMODE
 70
     0
  9
$VISRETAIN
 70
     1
  9
$PLINEGEN
 70
     0
  9
$PSLTSCALE
 70
     1
  9
$TREEDEPTH
 70
  3020
  9
$CMLSTYLE
  2
Standard
  9
$CMLJUST
 70
     0
  9
$CMLSCALE
 40
20.0
  9
$PROXYGRAPHICS
 70
     1
  9
$MEASUREMENT
 70
     1
  9
$CELWEIGHT
370
    -1
  9
$ENDCAPS
280
     0
  9
$JOINSTYLE
280
     0
  9
$LWDISPLAY
290
     1
  9
$INSUNITS
 70
     4
  9
$HYPERLINKBASE
  1

  9
$STYLESHEET
  1

  9
$XEDIT
290
     1
  9
$CEPSNTYPE
380
     0
  9
$PSTYLEMODE
290
     1
  9
$FINGERPRINTGUID
  2
{77459cd5-facf-4014-8118-4fd787210566}
  9
$VERSIONGUID
  2
{FAEB1C32-E019-11D5-929B-00C0DF256EC4}
  9
$EXTNAMES
290
     1
  9
$PSVPSCALE
 40
0.0
  9
$OLESTARTUP
290
     0
  0
ENDSEC
  0
SECTION
  2
CLASSES
  0
CLASS
  1
ACDBDICTIONARYWDFLT
  2
AcDbDictionaryWithDefault
  3
ObjectDBX Classes
 90
        0
280
     0
281
     0
  0
CLASS
  1
VISUALSTYLE
  2
AcDbVisualStyle
  3
ObjectDBX Classes
 90
     4095
280
     0
281
     0
  0
CLASS
  1
MATERIAL
  2
AcDbMaterial
  3
ObjectDBX Classes
 90
     1153
280
     0
281
     0
  0
CLASS
  1
SCALE
  2
AcDbScale
  3
ObjectDBX Classes
 90
     1153
280
     0
281
     0
  0
CLASS
  1
TABLESTYLE
  2
AcDbTableStyle
  3
ObjectDBX Classes
 90
     4095
280
     0
281
     0
  0
CLASS
  1
MLEADERSTYLE
  2
AcDbMLeaderStyle
  3
ACDB_MLEADERSTYLE_CLASS
 90
     4095
280
     0
281
     0
  0
CLASS
  1
SUN
  2
AcDbSun
  3
SCENEOE
 90
     1153
280
     0
281
     0
  0
CLASS
  1
ACDBPLACEHOLDER
  2
AcDbPlaceHolder
  3
ObjectDBX Classes
 90
        0
280
     0
281
     0
  0
CLASS
  1
LAYOUT
  2
AcDbLayout
  3
ObjectDBX Classes
 90
        0
280
     0
281
     0
  0
ENDSEC
  0
SECTION
  2
TABLES
  0
TABLE
  2
VPORT
  5
8
330
0
100
AcDbSymbolTable
 70
     1
  0
VPORT
  5
29
330
8
100
AcDbSymbolTableRecord
100
AcDbViewportTableRecord
  2
*Active
 70
     0
 10
0.0
 20
0.0
 11
1.0
 21
1.0
 12
139.7
 22
107.95
 13
0.0
 23
0.0
 14
10.0
 24
10.0
 15
10.0
 25
10.0
 16
0.0
 26
0.0
 36
1.0
 17
0.0
 27
0.0
 37
0.0
 40
215.9
 41
1.2941176471
 42
50.0
 43
0.0
 44
0.0
 50
0.0
 51
0.0
 71
     0
 72
  2000
 73
     1
 74
     3
 75
     0
 76
     0
 77
     0
 78
     0
281
     0
 65
     1
110
0.0
120
0.0
130
0.0
111
1.0
121
0.0
131
0.0
112
0.0
122
1.0
132
0.0
 79
     0
146
0.0
  0
ENDTAB
  0
TABLE
  2
LTYPE
  5
5
330
0
100
AcDbSymbolTable
 70
     6
  0
LTYPE
  5
14
330
5
100
AcDbSymbolTableRecord
100
AcDbLinetypeTableRecord
  2
ByBlock
 70
     0
  3

 72
    65
 73
     0
 40
0.0
  0
LTYPE
  5
15
330
5
100
AcDbSymbolTableRecord
100
AcDbLinetypeTableRecord
  2
ByLayer
 70
     0
  3

 72
    65
 73
     0
 40
0.0
  0
LTYPE
  5
16
330
5
100
AcDbSymbolTableRecord
100
AcDbLinetypeTableRecord
  2
Continuous
 70
     0
  3
Solid line
 72
    65
 73
     0
 40
0.0
  0
LTYPE
  5
6E
330
5
100
AcDbSymbolTableRecord
100
AcDbLinetypeTableRecord
  2
HIDDEN
 70
     0
  3
Hidden __ __ __ __ __ __ __ __ __ __ __ __ __ __
 72
    65
 73
     2
 40
1.905
 49
1.27
 74
     0
 49
-0.635
 74
     0
  0
LTYPE
  5
6F
330
5
100
AcDbSymbolTableRecord
100
AcDbLinetypeTableRecord
  2
PHANTOM
 70
     0
  3
Phantom ______  __  __  ______  __  __  ______
 72
    65
 73
     6
 40
12.7
 49
6.35
 74
     0
 49
-1.27
 74
     0
 49
1.27
 74
     0
 49
-1.27
 74
     0
 49
1.27
 74
     0
 49
-1.27
 74
     0
  0
LTYPE
  5
70
330
5
100
AcDbSymbolTableRecord
100
AcDbLinetypeTableRecord
  2
CENTER
 70
     0
  3
Center ____ _ ____ _ ____ _ ____ _ ____ _ ____
 72
    65
 73
     4
 40
10.16
 49
6.35
 74
     0
 49
-1.27
 74
     0
 49
1.27
 74
     0
 49
-1.27
 74
     0
  0
LTYPE
  5
71
330
5
100
AcDbSymbolTableRecord
100
AcDbLinetypeTableRecord
  2
CENTERX2
 70
     0
  3
Center (2x) ________  __  ________  __  _____
 72
    65
 73
     4
 40
20.32
 49
12.7
 74
     0
 49
-2.54
 74
     0
 49
2.54
 74
     0
 49
-2.54
 74
     0
  0
LTYPE
  5
72
330
5
100
AcDbSymbolTableRecord
100
AcDbLinetypeTableRecord
  2
DOT2
 70
     0
  3
Dot (.5x) ........................................
 72
    65
 73
     2
 40
0.635
 49
0.0
 74
     0
 49
-0.635
 74
     0
  0
ENDTAB
  0
TABLE
  2
LAYER
  5
2
330
0
100
AcDbSymbolTable
 70
     1
  0
LAYER
  5
10
330
2
100
AcDbSymbolTableRecord
100
AcDbLayerTableRecord
  2
0
 70
     0
 62
     7
  6
Continuous
370
    -3
390
F
  0
ENDTAB
  0
TABLE
  2
STYLE
  5
3
330
0
100
AcDbSymbolTable
 70
     1
  0
STYLE
  5
11
330
3
100
AcDbSymbolTableRecord
100
AcDbTextStyleTableRecord
  2
Standard
 70
     0
 40
0.0
 41
1.0
 50
0.0
 71
     0
 42
3.5
  3
txt
  4

  0
ENDTAB
  0
TABLE
  2
VIEW
  5
6
330
0
100
AcDbSymbolTable
 70
     0
  0
ENDTAB
  0
TABLE
  2
UCS
  5
7
330
0
100
AcDbSymbolTable
 70
     0
  0
ENDTAB
  0
TABLE
  2
APPID
  5
9
330
0
100
AcDbSymbolTable
 70
     1
  0
APPID
  5
12
330
9
100
AcDbSymbolTableRecord
100
AcDbRegAppTableRecord
  2
ACAD
 70
     0
  0
ENDTAB
  0
TABLE
  2
DIMSTYLE
  5
A
330
0
100
AcDbSymbolTable
 70
     1
100
AcDbDimStyleTable
  0
DIMSTYLE
105
27
330
A
100
AcDbSymbolTableRecord
100
AcDbDimStyleTableRecord
  2
ISO-25
 70
     0
 41
2.5
 42
0.625
 43
3.75
 44
1.25
 73
     0
 74
     0
 77
     1
 78
     8
140
2.5
141
2.5
143
0.0393700787
147
0.625
171
     3
172
     1
178
     0
271
     2
272
     2
274
     3
278
    44
283
     0
284
     8
340
11
  0
ENDTAB
  0
TABLE
  2
BLOCK_RECORD
  5
1
330
0
100
AcDbSymbolTable
 70
     1
  0
BLOCK_RECORD
  5
1F
330
1
100
AcDbSymbolTableRecord
100
AcDbBlockTableRecord
  2
*Model_Space
340
22
  0
BLOCK_RECORD
  5
1B
330
1
100
AcDbSymbolTableRecord
100
AcDbBlockTableRecord
  2
*Paper_Space
340
1E
  0
BLOCK_RECORD
  5
23
330
1
100
AcDbSymbolTableRecord
100
AcDbBlockTableRecord
  2
*Paper_Space0
340
26
  0
ENDTAB
  0
ENDSEC
  0
SECTION
  2
BLOCKS
  0
BLOCK
  5
20
330
1F
100
AcDbEntity
  8
0
100
AcDbBlockBegin
  2
*Model_Space
 70
     0
 10
0.0
 20
0.0
 30
0.0
  3
*Model_Space
  1

  0
ENDBLK
  5
21
330
1F
100
AcDbEntity
  8
0
100
AcDbBlockEnd
  0
BLOCK
  5
1C
330
1B
100
AcDbEntity
 67
     1
  8
0
100
AcDbBlockBegin
  2
*Paper_Space
 70
     0
 10
0.0
 20
0.0
 30
0.0
  3
*Paper_Space
  1

  0
ENDBLK
  5
1D
330
1B
100
AcDbEntity
 67
     1
  8
0
100
AcDbBlockEnd
  0
BLOCK
  5
24
330
23
100
AcDbEntity
  8
0
100
AcDbBlockBegin
  2
*Paper_Space0
 70
     0
 10
0.0
 20
0.0
 30
0.0
  3
*Paper_Space0
  1

  0
ENDBLK
  5
25
330
23
100
AcDbEntity
  8
0
100
AcDbBlockEnd
  0
ENDSEC
  0
SECTION
  2
ENTITIES
  0
SPLINE
  5
73
330
1F
100
AcDbEntity
  8
0
  6
Continuous
 62
     7
370
    25
100
AcDbSpline
210
0.0
220
0.0
230
1.0
 70
     8
 71
     3
 72
     9
 73
     5
 74
     0
 42
0.00000001
 43
0.00000001
 40
0.0
 40
0.0
 40
0.0
 40
0.0
 40
0.3591438931652677
 40
1.0
 40
1.0
 40
1.0
 40
1.0
 10
153.6043465793674
 20
-8.287509562090484
 30
0.0
 10
153.6063173024623
 20
-8.225603043719165
 30
0.0
 10
153.6118045824421
 20
-8.053230578115745
 30
0.0
 10
153.6127406621943
 20
-7.919884049563425
 30
0.0
 10
153.6133405546199
 20
-7.834428112415526
 30
0.0
  0
SPLINE
  5
74
330
1F
100
AcDbEntity
  8
0
  6
Continuous
 62
     7
370
    25
100
AcDbSpline
210
0.0
220
0.0
230
1.0
 70
     8
 71
     3
 72
     9
 73
     5
 74
     0
 42
0.00000001
 43
0.00000001
 40
0.0
 40
0.0
 40
0.0
 40
0.0
 40
0.7786142160798368
 40
1.0
 40
1.0
 40
1.0
 40
1.0
 10
130.1599829425466
 20
-7.809060598928886
 30
0.0
 10
130.1596598305942
 20
-7.920022945195088
 30
0.0
 10
130.1592448472228
 20
-8.062535557955774
 30
0.0
 10
130.1663289114296
 20
-8.260665588194327
 30
0.0
 10
130.1678972225374
 20
-8.30452876025678
 30
0.0
  0
ARC
  5
75
330
1F
100
AcDbEntity
  8
0
  6
Continuous
 62
     7
370
    25
100
AcDbCircle
 10
215.1248640942
 20
197.0619090692
 30
0.0
 40
10.63000000000001
100
AcDbArc
 50
6.7968150439
 51
21.8505108422
  0
ARC
  5
76
330
1F
100
AcDbEntity
  8
0
  6
Continuous
 62
     7
370
    25
100
AcDbCircle
 10
215.1248640942
 20
197.0619090692
 30
0.0
 40
10.62999999999999
100
AcDbArc
 50
338.1494891578
 51
353.2381045398
  0
LINE
  5
77
330
1F
100
AcDbEntity
  8
0
  6
Continuous
 62
     7
370
    25
100
AcDbLine
 10
225.6877216534
 20
195.9525291527
 30
0.0
 11
225.4273049251
 21
195.9525291527
 31
0.0
  0
LINE
  5
78
330
1F
100
AcDbEntity
  8
0
  6
Continuous
 62
     7
370
    25
100
AcDbLine
 10
225.6041485885
 20
198.1712889858
 30
0.0
 11
225.6877216534
 21
198.1712889858
 31
0.0
  0
LINE
  5
79
330
1F
100
AcDbEntity
  8
0
  6
Continuous
 62
     7
370
    25
100
AcDbLine
 10
223.0911844365
 20
189.9119090692
 30
0.0
 11
224.696189426
 21
191.1367812981
 31
0.0
  0
LINE
  5
7A
330
1F
100
AcDbEntity
  8
0
  6
Continuous
 62
     7
370
    25
100
AcDbLine
 10
224.696189426
 20
202.9870368404
 30
0.0
 11
223.0911844365
 21
204.2119090692
 31
0.0
  0
ARC
  5
7B
330
1F
100
AcDbEntity
  8
0
  6
Continuous
 62
     7
370
    25
100
AcDbCircle
 10
224.2411844365
 20
191.7329947326
 30
0.0
 40
0.7499999999999841
100
AcDbArc
 50
307.3493490446
 51
360.0
  0
ARC
  5
7C
330
1F
100
AcDbEntity
  8
0
  6
Continuous
 62
     7
370
    25
100
AcDbCircle
 10
224.2411844365
 20
202.3908234058
 30
0.0
 40
0.7499999999999841
100
AcDbArc
 50
0.0
 51
52.6506509554
  0
LINE
  5
7D
330
1F
100
AcDbEntity
  8
0
  6
Continuous
 62
     7
370
    25
100
AcDbLine
 10
223.0911844365
 20
201.5619090692
 30
0.0
 11
223.086257422
 21
201.5581624853
 31
0.0
  0
LINE
  5
7E
330
1F
100
AcDbEntity
  8
0
  6
Continuous
 62
     7
370
    25
100
AcDbLine
 10
223.086257422
 20
192.5656556532
 30
0.0
 11
223.0911844365
 21
192.5619090692
 31
0.0
  0
LINE
  5
7F
330
1F
100
AcDbEntity
  8
0
  6
Continuous
 62
     7
370
    25
100
AcDbLine
 10
218.2243013791
 20
188.086251025
 30
0.0
 11
222.5949836252
 21
188.1625415674
 31
0.0
  0
LINE
  5
80
330
1F
100
AcDbEntity
  8
0
  6
Continuous
 62
     7
370
    25
100
AcDbLine
 10
222.5949836252
 20
205.9612765711
 30
0.0
 11
217.2908811653
 21
206.0538600239
 31
0.0
  0
ARC
  5
81
330
1F
100
AcDbEntity
  8
0
  6
Continuous
 62
     7
370
    25
100
AcDbCircle
 10
222.586257422
 20
188.662465415
 30
0.0
 40
0.5
100
AcDbArc
 50
271.0
 51
0.0
  0
ARC
  5
82
330
1F
100
AcDbEntity
  8
0
  6
Continuous
 62
     7
370
    25
100
AcDbCircle
 10
222.586257422
 20
205.4613527235
 30
0.0
 40
0.5000000000000043
100
AcDbArc
 50
0.0
 51
89.0
  0
SPLINE
  5
83
330
1F
100
AcDbEntity
  8
0
  6
Continuous
 62
     7
370
    25
100
AcDbSpline
210
0.0
220
0.0
230
1.0
 70
     8
 71
     3
 72
    13
 73
     9
 74
     0
 42
0.00000001
 43
0.00000001
 40
0.0
 40
0.0
 40
0.0
 40
0.0
 40
0.0355114050979837
 40
0.1868647016990797
 40
0.3637103661741466
 40
0.5706676416089737
 40
0.8110228429175811
 40
1.0
 40
1.0
 40
1.0
 40
1.0
 10
214.6097271950798
 20
186.1970827944554
 30
0.0
 10
214.6073611770942
 20
186.1930185404454
 30
0.0
 10
214.5949109447287
 20
186.1716320137475
 30
0.0
 10
214.6753084726613
 20
186.2799318730297
 30
0.0
 10
214.8849770500452
 20
186.4786718409168
 30
0.0
 10
215.2763502585277
 20
186.7956162903531
 30
0.0
 10
215.7907671362063
 20
187.1578283010982
 30
0.0
 10
216.2218415114423
 20
187.4269126485698
 30
0.0
 10
216.4115854436921
 20
187.5453542102333
 30
0.0
  0
ARC
  5
84
330
1F
100
AcDbEntity
  8
0
  6
Continuous
 62
     7
370
    25
100
AcDbCircle
 10
218.286257422
 20
184.5367917072
 30
0.0
 40
3.549999999999999
100
AcDbArc
 50
91.0
 51
121.7654088545
  0
ARC
  5
85
330
1F
100
AcDbEntity
  8
0
  6
Continuous
 62
     7
370
    25
100
AcDbCircle
 10
217.336257422
 20
208.6534640313
 30
0.0
 40
2.600000000000026
100
AcDbArc
 50
242.9558679133
 51
269.0
  0
SPLINE
  5
86
330
1F
100
AcDbEntity
  8
0
  6
Continuous
 62
     7
370
    25
100
AcDbSpline
210
0.0
220
0.0
230
1.0
 70
     8
 71
     3
 72
    13
 73
     9
 74
     0
 42
0.00000001
 43
0.00000001
 40
0.0
 40
0.0
 40
0.0
 40
0.0
 40
0.065910327454679
 40
0.358735895632981
 40
0.6013929551168763
 40
0.8023475266146189
 40
0.9679810202002147
 40
1.0
 40
1.0
 40
1.0
 40
1.0
 10
216.1564604548456
 20
206.3381193604812
 30
0.0
 10
216.0929098597903
 20
206.3709971805073
 30
0.0
 10
215.7470174857787
 20
206.5499441630059
 30
0.0
 10
215.2661501112694
 20
206.8160283052898
 30
0.0
 10
214.766518053851
 20
207.1190821070803
 30
0.0
 10
214.5019887352346
 20
207.3007311791569
 30
0.0
 10
214.3957902572285
 20
207.3997486213759
 30
0.0
 10
214.4132660011101
 20
207.3801292692884
 30
0.0
 10
214.4160970078804
 20
207.376951005807
 30
0.0
  0
LINE
  5
87
330
1F
100
AcDbEntity
  8
0
  6
Continuous
 62
     7
370
    25
100
AcDbLine
 10
208.7449836252
 20
184.6913043781
 30
0.0
 11
212.7711622349
 21
184.7615815871
 31
0.0
  0
ARC
  5
88
330
1F
100
AcDbEntity
  8
0
  6
Continuous
 62
     7
370
    25
100
AcDbCircle
 10
208.736257422
 20
185.1912282257
 30
0.0
 40
0.5000000000000063
100
AcDbArc
 50
180.0
 51
271.0
  0
LINE
  5
89
330
1F
100
AcDbEntity
  8
0
  6
Continuous
 62
     7
370
    25
100
AcDbLine
 10
223.1020643517
 20
200.9871077767
 30
0.0
 11
223.086257422
 21
201.050976595
 31
0.0
  0
ARC
  5
8A
330
1F
100
AcDbEntity
  8
0
  6
Continuous
 62
     7
370
    25
100
AcDbCircle
 10
212.736257422
 20
206.5576338902
 30
0.0
 40
2.000000000000026
100
AcDbArc
 50
20.1304104371
 51
89.0
  0
ARC
  5
8B
330
1F
100
AcDbEntity
  8
0
  6
Continuous
 62
     7
370
    25
100
AcDbCircle
 10
208.736257422
 20
208.127682642
 30
0.0
 40
0.5000000000000063
100
AcDbArc
 50
89.0
 51
180.0
  0
LINE
  5
8C
330
1F
100
AcDbEntity
  8
0
  6
Continuous
 62
     7
370
    25
100
AcDbLine
 10
212.7711622349
 20
208.5573292805
 30
0.0
 11
208.7449836252
 21
208.6276064896
 31
0.0
  0
ARC
  5
8D
330
1F
100
AcDbEntity
  8
0
  6
Continuous
 62
     7
370
    25
100
AcDbCircle
 10
212.736257422
 20
186.7612769774
 30
0.0
 40
2.0
100
AcDbArc
 50
271.0
 51
344.2113005926
  0
LINE
  5
8E
330
1F
100
AcDbEntity
  8
0
  6
Continuous
 62
     7
370
    25
100
AcDbLine
 10
208.236257422
 20
202.7119090692
 30
0.0
 11
200.286257422
 21
202.7119090692
 31
0.0
  0
LINE
  5
8F
330
1F
100
AcDbEntity
  8
0
  6
Continuous
 62
     7
370
    25
100
AcDbLine
 10
200.286257422
 20
191.4119090692
 30
0.0
 11
208.236257422
 21
191.4119090692
 31
0.0
  0
LINE
  5
90
330
1F
100
AcDbEntity
  8
0
  6
Continuous
 62
     7
370
    25
100
AcDbLine
 10
198.5781130308
 20
187.0610610683
 30
0.0
 11
200.286257422
 21
188.8119090692
 31
0.0
  0
LINE
  5
91
330
1F
100
AcDbEntity
  8
0
  6
Continuous
 62
     7
370
    25
100
AcDbLine
 10
200.286257422
 20
205.3119090692
 30
0.0
 11
198.5781130308
 21
207.0627570702
 31
0.0
  0
LINE
  5
92
330
1F
100
AcDbEntity
  8
0
  6
Continuous
 62
     7
370
    25
100
AcDbLine
 10
192.8595587536
 20
187.6619090692
 30
0.0
 11
193.212350233
 21
187.6619090692
 31
0.0
  0
SPLINE
  5
93
330
1F
100
AcDbEntity
  8
0
  6
Continuous
 62
     7
370
    25
100
AcDbSpline
210
0.0
220
0.0
230
1.0
 70
     8
 71
     3
 72
     9
 73
     5
 74
     0
 42
0.00000001
 43
0.00000001
 40
0.0
 40
0.0
 40
0.0
 40
0.0
 40
0.5017901106541882
 40
1.0
 40
1.0
 40
1.0
 40
1.0
 10
193.2210833936186
 20
187.6695685216488
 30
0.0
 10
193.2949607339139
 20
187.7974461983655
 30
0.0
 10
193.4421883072094
 20
188.052289157606
 30
0.0
 10
193.5894686180872
 20
188.307092561571
 30
0.0
 10
193.6628451254724
 20
188.4340381372653
 30
0.0
  0
LINE
  5
94
330
1F
100
AcDbEntity
  8
0
  6
Continuous
 62
     7
370
    25
100
AcDbLine
 10
192.957290985
 20
205.6897775626
 30
0.0
 11
192.836257422
 21
205.8992062532
 31
0.0
  0
LINE
  5
95
330
1F
100
AcDbEntity
  8
0
  6
Continuous
 62
     7
370
    25
100
AcDbLine
 10
193.8201719619
 20
188.4340125243
 30
0.0
 11
193.9643525369
 21
188.1845164263
 31
0.0
  0
SPLINE
  5
96
330
1F
100
AcDbEntity
  8
0
  6
Continuous
 62
     7
370
    25
100
AcDbSpline
210
0.0
220
0.0
230
1.0
 70
     8
 71
     3
 72
     9
 73
     5
 74
     0
 42
0.00000001
 43
0.00000001
 40
0.0
 40
0.0
 40
0.0
 40
0.0
 40
0.4989150937459073
 40
1.0
 40
1.0
 40
1.0
 40
1.0
 10
193.5563477478167
 20
206.4542628350896
 30
0.0
 10
193.482889201997
 20
206.3271284957993
 30
0.0
 10
193.3356526346123
 20
206.0723069021374
 30
0.0
 10
193.1884001605849
 20
205.8174876978209
 30
0.0
 10
193.1146141684412
 20
205.6898016407143
 30
0.0
  0
LINE
  5
97
330
1F
100
AcDbEntity
  8
0
  6
Continuous
 62
     7
370
    25
100
AcDbLine
 10
193.986257422
 20
205.9619090692
 30
0.0
 11
193.5421196779
 21
206.4060468133
 31
0.0
  0
SPLINE
  5
98
330
1F
100
AcDbEntity
  8
0
  6
Continuous
 62
     7
370
    25
100
AcDbSpline
210
0.0
220
0.0
230
1.0
 70
     8
 71
     3
 72
     9
 73
     5
 74
     0
 42
0.00000001
 43
0.00000001
 40
0.0
 40
0.0
 40
0.0
 40
0.0
 40
0.5165667873823397
 40
1.0
 40
1.0
 40
1.0
 40
1.0
 10
193.6529372151359
 20
188.4257033381192
 30
0.0
 10
193.6825980894839
 20
188.4257088445001
 30
0.0
 10
193.7400173333695
 20
188.4257195040723
 30
0.0
 10
193.7972872439626
 20
188.4257089709469
 30
0.0
 10
193.824973420827
 20
188.4257038788842
 30
0.0
  0
SPLINE
  5
99
330
1F
100
AcDbEntity
  8
0
  6
Continuous
 62
     7
370
    25
100
AcDbSpline
210
0.0
220
0.0
230
1.0
 70
     8
 71
     3
 72
     9
 73
     5
 74
     0
 42
0.00000001
 43
0.00000001
 40
0.0
 40
0.0
 40
0.0
 40
0.0
 40
0.5120869110697421
 40
1.0
 40
1.0
 40
1.0
 40
1.0
 10
193.1237697640894
 20
205.6981147578288
 30
0.0
 10
193.0945419416406
 20
205.6981168880624
 30
0.0
 10
193.037466039451
 20
205.6981210479688
 30
0.0
 10
192.9803434503174
 20
205.6981169838412
 30
0.0
 10
192.9524725914055
 20
205.6981150009002
 30
0.0
  0
LINE
  5
9A
330
1F
100
AcDbEntity
  8
0
  6
Continuous
 62
     7
370
    25
100
AcDbLine
 10
193.986257422
 20
188.9369090692
 30
0.0
 11
195.486257422
 21
188.9369090692
 31
0.0
  0
LINE
  5
9B
330
1F
100
AcDbEntity
  8
0
  6
Continuous
 62
     7
370
    25
100
AcDbLine
 10
195.486257422
 20
205.1869090692
 30
0.0
 11
193.986257422
 21
205.1869090692
 31
0.0
  0
LINE
  5
9C
330
1F
100
AcDbEntity
  8
0
  6
Continuous
 62
     7
370
    25
100
AcDbLine
 10
195.4749477697
 20
188.0123417053
 30
0.0
 11
195.486257422
 21
187.9927685302
 31
0.0
  0
LINE
  5
9D
330
1F
100
AcDbEntity
  8
0
  6
Continuous
 62
     7
370
    25
100
AcDbLine
 10
176.5087863035
 20
214.1344379507
 30
0.0
 11
175.636257422
 21
213.2619090692
 31
0.0
  0
LINE
  5
9E
330
1F
100
AcDbEntity
  8
0
  6
Continuous
 62
     7
370
    25
100
AcDbLine
 10
175.636257422
 20
180.8619090692
 30
0.0
 11
176.5087863035
 21
179.9893801877
 31
0.0
  0
LINE
  5
9F
330
1F
100
AcDbEntity
  8
0
  6
Continuous
 62
     7
370
    25
100
AcDbLine
 10
184.2137285405
 20
179.9893801877
 30
0.0
 11
185.086257422
 21
180.8619090692
 31
0.0
  0
LINE
  5
A0
330
1F
100
AcDbEntity
  8
0
  6
Continuous
 62
     7
370
    25
100
AcDbLine
 10
185.086257422
 20
213.2619090692
 30
0.0
 11
184.2137285405
 21
214.1344379507
 31
0.0
  0
ARC
  5
A1
330
1F
100
AcDbEntity
  8
0
  6
Continuous
 62
     7
370
    25
100
AcDbCircle
 10
185.086257422
 20
191.3209206971
 30
0.0
 40
9.134011627906984
100
AcDbArc
 50
270.0
 51
328.0464183091
  0
ARC
  5
A2
330
1F
100
AcDbEntity
  8
0
  6
Continuous
 62
     7
370
    25
100
AcDbCircle
 10
185.086257422
 20
202.8028974413
 30
0.0
 40
9.134011627906998
100
AcDbArc
 50
31.9535816909
 51
90.0
  0
LINE
  5
A3
330
1F
100
AcDbEntity
  8
0
  6
Continuous
 62
     7
370
    25
100
AcDbLine
 10
183.6484520371
 20
214.5770062077
 30
0.0
 11
177.0488895155
 21
214.5770062077
 31
0.0
  0
LINE
  5
A4
330
1F
100
AcDbEntity
  8
0
  6
Continuous
 62
     7
370
    25
100
AcDbLine
 10
177.0488895155
 20
179.5468119308
 30
0.0
 11
183.6484520371
 21
179.5468119308
 31
0.0
  0
ARC
  5
A5
330
1F
100
AcDbEntity
  8
0
  6
Continuous
 62
     7
370
    25
100
AcDbCircle
 10
117.086257422
 20
261.3754308549
 30
0.0
 40
0.5
100
AcDbArc
 50
180.0
 51
244.1790080258
  0
ARC
  5
A6
330
1F
100
AcDbEntity
  8
0
  6
Continuous
 62
     7
370
    25
100
AcDbCircle
 10
166.686257422
 20
261.3754308549
 30
0.0
 40
0.5
100
AcDbArc
 50
295.8209919742
 51
0.0
  0
LINE
  5
A7
330
1F
100
AcDbEntity
  8
0
  6
Continuous
 62
     7
370
    25
100
AcDbLine
 10
167.186257422
 20
261.3754308549
 30
0.0
 11
167.186257422
 21
264.5619090692
 31
0.0
  0
LINE
  5
A8
330
1F
100
AcDbEntity
  8
0
  6
Continuous
 62
     7
370
    25
100
AcDbLine
 10
116.586257422
 20
264.5619090692
 30
0.0
 11
116.586257422
 21
261.3754308549
 31
0.0
  0
ARC
  5
A9
330
1F
100
AcDbEntity
  8
0
  6
Continuous
 62
     7
370
    25
100
AcDbCircle
 10
117.086257422
 20
264.5619090692
 30
0.0
 40
0.5
100
AcDbArc
 50
90.0
 51
180.0
  0
ARC
  5
AA
330
1F
100
AcDbEntity
  8
0
  6
Continuous
 62
     7
370
    25
100
AcDbCircle
 10
166.686257422
 20
264.5619090692
 30
0.0
 40
0.5
100
AcDbArc
 50
0.0
 51
90.0
  0
LINE
  5
AB
330
1F
100
AcDbEntity
  8
0
  6
Continuous
 62
     7
370
    25
100
AcDbLine
 10
116.8684769579
 20
260.9253512292
 30
0.0
 11
124.7573792782
 21
257.1081404291
 31
0.0
  0
LINE
  5
AC
330
1F
100
AcDbEntity
  8
0
  6
Continuous
 62
     7
370
    25
100
AcDbLine
 10
159.0151355658
 20
257.1081404291
 30
0.0
 11
166.904037886
 21
260.9253512292
 31
0.0
  0
ARC
  5
AD
330
1F
100
AcDbEntity
  8
0
  6
Continuous
 62
     7
370
    25
100
AcDbCircle
 10
159.886257422
 20
255.3078219263
 30
0.0
 40
1.999999999999995
100
AcDbArc
 50
115.8209919742
 51
171.4096175468
  0
ARC
  5
AE
330
1F
100
AcDbEntity
  8
0
  6
Continuous
 62
     7
370
    25
100
AcDbCircle
 10
123.886257422
 20
255.3078219263
 30
0.0
 40
1.999999999999992
100
AcDbArc
 50
8.6121549306
 51
64.1790080258
  0
LINE
  5
AF
330
1F
100
AcDbEntity
  8
0
  6
Continuous
 62
     7
370
    25
100
AcDbLine
 10
155.310236451
 20
181.3431013447
 30
0.0
 11
170.886257422
 21
181.6693724726
 31
0.0
  0
LINE
  5
B0
330
1F
100
AcDbEntity
  8
0
  6
Continuous
 62
     7
370
    25
100
AcDbLine
 10
170.886257422
 20
212.4544456658
 30
0.0
 11
165.263246614
 21
212.5722309514
 31
0.0
  0
SPLINE
  5
B1
330
1F
100
AcDbEntity
  8
0
  6
Continuous
 62
     7
370
    25
100
AcDbSpline
210
0.0
220
0.0
230
1.0
 70
     8
 71
     3
 72
     9
 73
     5
 74
     0
 42
0.00000001
 43
0.00000001
 40
0.0
 40
0.0
 40
0.0
 40
0.0
 40
0.499996177972525
 40
1.0
 40
1.0
 40
1.0
 40
1.0
 10
171.9111994061546
 20
182.8792566438374
 30
0.0
 10
171.9893824674349
 20
182.7438916140265
 30
0.0
 10
172.1457497852759
 20
182.4731594849133
 30
0.0
 10
172.3021134428226
 20
182.2024253996401
 30
0.0
 10
172.3802958692222
 20
182.0670573222504
 30
0.0
  0
SPLINE
  5
B2
330
1F
100
AcDbEntity
  8
0
  6
Continuous
 62
     7
370
    25
100
AcDbSpline
210
0.0
220
0.0
230
1.0
 70
     8
 71
     3
 72
     9
 73
     5
 74
     0
 42
0.00000001
 43
0.00000001
 40
0.0
 40
0.0
 40
0.0
 40
0.0
 40
0.4999960105738552
 40
1.0
 40
1.0
 40
1.0
 40
1.0
 10
173.4110386353091
 20
182.8795363244397
 30
0.0
 10
173.4892229806114
 20
182.7441691745295
 30
0.0
 10
173.6455929188688
 20
182.473432714543
 30
0.0
 10
173.8019590365824
 20
182.2026941497705
 30
0.0
 10
173.8801427192502
 20
182.0673237872928
 30
0.0
  0
SPLINE
  5
B3
330
1F
100
AcDbEntity
  8
0
  6
Continuous
 62
     7
370
    25
100
AcDbSpline
210
0.0
220
0.0
230
1.0
 70
     8
 71
     3
 72
     9
 73
     5
 74
     0
 42
0.00000001
 43
0.00000001
 40
0.0
 40
0.0
 40
0.0
 40
0.0
 40
0.4999960910112508
 40
0.9999999999999999
 40
0.9999999999999999
 40
0.9999999999999999
 40
0.9999999999999999
 10
174.911121986111
 20
182.8793904612948
 30
0.0
 10
174.9893057171081
 20
182.7440243263669
 30
0.0
 10
175.1456744015892
 20
182.4732899399158
 30
0.0
 10
175.3020393425226
 20
182.2025535379337
 30
0.0
 10
175.3802224242181
 20
182.0671842786371
 30
0.0
  0
LINE
  5
B4
330
1F
100
AcDbEntity
  8
0
  6
Continuous
 62
     7
370
    25
100
AcDbLine
 10
175.6643458885
 20
211.2500092502
 30
0.0
 11
175.6612028212
 21
211.2445673603
 31
0.0
  0
SPLINE
  5
B5
330
1F
100
AcDbEntity
  8
0
  6
Continuous
 62
     7
370
    25
100
AcDbSpline
210
0.0
220
0.0
230
1.0
 70
     8
 71
     3
 72
     9
 73
     5
 74
     0
 42
0.00000001
 43
0.00000001
 40
0.0
 40
0.0
 40
0.0
 40
0.0
 40
0.5035653169057785
 40
1.0
 40
1.0
 40
1.0
 40
1.0
 10
174.6301296263247
 20
212.0564712621358
 30
0.0
 10
174.5519464952355
 20
211.9211018615664
 30
0.0
 10
174.3966873293152
 20
211.6522799311737
 30
0.0
 10
174.2414244409009
 20
211.3834602429336
 30
0.0
 10
174.1643465580945
 20
211.2500088261926
 30
0.0
  0
SPLINE
  5
B6
330
1F
100
AcDbEntity
  8
0
  6
Continuous
 62
     7
370
    25
100
AcDbSpline
210
0.0
220
0.0
230
1.0
 70
     8
 71
     3
 72
     9
 73
     5
 74
     0
 42
0.00000001
 43
0.00000001
 40
0.0
 40
0.0
 40
0.0
 40
0.0
 40
0.5000038267495277
 40
1.0
 40
1.0
 40
1.0
 40
1.0
 10
173.1302033061075
 20
212.056600561374
 30
0.0
 10
173.0520208356638
 20
211.9212323576521
 30
0.0
 10
172.8956570915063
 20
211.6504980222733
 30
0.0
 10
172.7392896826076
 20
211.3797658838806
 30
0.0
 10
172.6611065765373
 20
211.2444008507084
 30
0.0
  0
SPLINE
  5
B7
330
1F
100
AcDbEntity
  8
0
  6
Continuous
 62
     7
370
    25
100
AcDbSpline
210
0.0
220
0.0
230
1.0
 70
     8
 71
     3
 72
     9
 73
     5
 74
     0
 42
0.00000001
 43
0.00000001
 40
0.0
 40
0.0
 40
0.0
 40
0.0
 40
0.4987844281256523
 40
1.0
 40
1.0
 40
1.0
 40
1.0
 10
175.2988139008122
 20
211.2445641420311
 30
0.0
 10
175.2208145229283
 20
211.3795932161661
 30
0.0
 10
175.0644355874892
 20
211.650309514673
 30
0.0
 10
174.9080855036977
 20
211.9210560050248
 30
0.0
 10
174.8297204070376
 20
212.0567583620194
 30
0.0
  0
SPLINE
  5
B8
330
1F
100
AcDbEntity
  8
0
  6
Continuous
 62
     7
370
    25
100
AcDbSpline
210
0.0
220
0.0
230
1.0
 70
     8
 71
     3
 72
     9
 73
     5
 74
     0
 42
0.00000001
 43
0.00000001
 40
0.0
 40
0.0
 40
0.0
 40
0.0
 40
0.4984739077222043
 40
0.9999999999999999
 40
0.9999999999999999
 40
0.9999999999999999
 40
0.9999999999999999
 10
173.7988139008122
 20
211.2445641420311
 30
0.0
 10
173.7208597934574
 20
211.3795037192986
 30
0.0
 10
173.5644742612417
 20
211.6502091166665
 30
0.0
 10
173.4081307548508
 20
211.9209664797544
 30
0.0
 10
173.3297204070376
 20
212.0567583620194
 30
0.0
  0
SPLINE
  5
B9
330
1F
100
AcDbEntity
  8
0
  6
Continuous
 62
     7
370
    25
100
AcDbSpline
210
0.0
220
0.0
230
1.0
 70
     8
 71
     3
 72
     9
 73
     5
 74
     0
 42
0.00000001
 43
0.00000001
 40
0.0
 40
0.0
 40
0.0
 40
0.0
 40
0.4981617098938687
 40
1.0
 40
1.0
 40
1.0
 40
1.0
 10
172.2988139008122
 20
211.2445641420311
 30
0.0
 10
172.2209049602548
 20
211.379411754024
 30
0.0
 10
172.0645120882012
 20
211.6501021931218
 30
0.0
 10
171.9081758949437
 20
211.9208744670588
 30
0.0
 10
171.8297204070376
 20
212.0567583620194
 30
0.0
  0
LINE
  5
BA
330
1F
100
AcDbEntity
  8
0
  6
Continuous
 62
     7
370
    25
100
AcDbLine
 10
175.5797213138
 20
182.0670613349
 30
0.0
 11
175.5926440375
 21
182.0894371737
 31
0.0
  0
SPLINE
  5
BB
330
1F
100
AcDbEntity
  8
0
  6
Continuous
 62
     7
370
    25
100
AcDbSpline
210
0.0
220
0.0
230
1.0
 70
     8
 71
     3
 72
     9
 73
     5
 74
     0
 42
0.00000001
 43
0.00000001
 40
0.0
 40
0.0
 40
0.0
 40
0.0
 40
0.5012156693466765
 40
1.0
 40
1.0
 40
1.0
 40
1.0
 10
174.0797213138029
 20
182.0670613348724
 30
0.0
 10
174.158086409746
 20
182.2027637621015
 30
0.0
 10
174.3144364617013
 20
182.4735103399288
 30
0.0
 10
174.4708154543133
 20
182.7442265937017
 30
0.0
 10
174.5488148454715
 20
182.8792556191367
 30
0.0
  0
SPLINE
  5
BC
330
1F
100
AcDbEntity
  8
0
  6
Continuous
 62
     7
370
    25
100
AcDbSpline
210
0.0
220
0.0
230
1.0
 70
     8
 71
     3
 72
     9
 73
     5
 74
     0
 42
0.00000001
 43
0.00000001
 40
0.0
 40
0.0
 40
0.0
 40
0.0
 40
0.5015262135375156
 40
1.0
 40
1.0
 40
1.0
 40
1.0
 10
172.5797213138029
 20
182.0670613348724
 30
0.0
 10
172.6581316591749
 20
182.2028533022097
 30
0.0
 10
172.8144751228972
 20
182.4736107694606
 30
0.0
 10
172.9708607231602
 20
182.7443161053435
 30
0.0
 10
173.0488148454715
 20
182.8792556191367
 30
0.0
  0
SPLINE
  5
BD
330
1F
100
AcDbEntity
  8
0
  6
Continuous
 62
     7
370
    25
100
AcDbSpline
210
0.0
220
0.0
230
1.0
 70
     8
 71
     3
 72
     9
 73
     5
 74
     0
 42
0.00000001
 43
0.00000001
 40
0.0
 40
0.0
 40
0.0
 40
0.0
 40
0.5018384349021675
 40
1.0
 40
1.0
 40
1.0
 40
1.0
 10
171.0797213138029
 20
182.0670613348724
 30
0.0
 10
171.1581767975582
 20
182.202945329791
 30
0.0
 10
171.3145129374367
 20
182.4737177247853
 30
0.0
 10
171.4709058882995
 20
182.744408085424
 30
0.0
 10
171.5488148454715
 20
182.8792556191367
 30
0.0
  0
LINE
  5
BE
330
1F
100
AcDbEntity
  8
0
  6
Continuous
 62
     7
370
    25
100
AcDbLine
 10
171.8237349118
 20
212.0619090692
 30
0.0
 11
170.886257422
 21
212.0619090692
 31
0.0
  0
LINE
  5
BF
330
1F
100
AcDbEntity
  8
0
  6
Continuous
 62
     7
370
    25
100
AcDbLine
 10
173.3237349118
 20
212.0619090692
 30
0.0
 11
173.1361852544
 21
212.0619090692
 31
0.0
  0
LINE
  5
C0
330
1F
100
AcDbEntity
  8
0
  6
Continuous
 62
     7
370
    25
100
AcDbLine
 10
174.8237349118
 20
212.0619090692
 30
0.0
 11
174.6361852544
 21
212.0619090692
 31
0.0
  0
LINE
  5
C1
330
1F
100
AcDbEntity
  8
0
  6
Continuous
 62
     7
370
    25
100
AcDbLine
 10
175.3863660671
 20
182.0619090692
 30
0.0
 11
175.5738343197
 21
182.0619090692
 31
0.0
  0
LINE
  5
C2
330
1F
100
AcDbEntity
  8
0
  6
Continuous
 62
     7
370
    25
100
AcDbLine
 10
173.8863660671
 20
182.0619090692
 30
0.0
 11
174.0738343197
 21
182.0619090692
 31
0.0
  0
LINE
  5
C3
330
1F
100
AcDbEntity
  8
0
  6
Continuous
 62
     7
370
    25
100
AcDbLine
 10
172.3863660671
 20
182.0619090692
 30
0.0
 11
172.5738343197
 21
182.0619090692
 31
0.0
  0
LINE
  5
C4
330
1F
100
AcDbEntity
  8
0
  6
Continuous
 62
     7
370
    25
100
AcDbLine
 10
170.886257422
 20
182.0619090692
 30
0.0
 11
171.0738343197
 21
182.0619090692
 31
0.0
  0
LINE
  5
C5
330
1F
100
AcDbEntity
  8
0
  6
Continuous
 62
     7
370
    25
100
AcDbLine
 10
127.9088443536
 20
239.3350242786
 30
0.0
 11
128.5661745187
 21
210.9054946383
 31
0.0
  0
LINE
  5
C6
330
1F
100
AcDbEntity
  8
0
  6
Continuous
 62
     7
370
    25
100
AcDbLine
 10
155.4795716548
 20
222.7227496402
 30
0.0
 11
155.8636704904
 21
239.3350242786
 31
0.0
  0
SPLINE
  5
C7
330
1F
100
AcDbEntity
  8
0
  6
Continuous
 62
     7
370
    25
100
AcDbSpline
210
0.0
220
0.0
230
1.0
 70
     8
 71
     3
 72
     9
 73
     5
 74
     0
 42
0.00000001
 43
0.00000001
 40
0.0
 40
0.0
 40
0.0
 40
0.0
 40
0.5027752844605446
 40
1.0
 40
1.0
 40
1.0
 40
1.0
 10
175.6675453779355
 20
211.2500100572423
 30
0.0
 10
175.6052307140442
 20
211.2499864572164
 30
0.0
 10
175.481289331448
 20
211.2499395177057
 30
0.0
 10
175.3573128517249
 20
211.2499861081025
 30
0.0
 10
175.295668681861
 20
211.2500092739992
 30
0.0
  0
SPLINE
  5
C8
330
1F
100
AcDbEntity
  8
0
  6
Continuous
 62
     7
370
    25
100
AcDbSpline
210
0.0
220
0.0
230
1.0
 70
     8
 71
     3
 72
     9
 73
     5
 74
     0
 42
0.00000001
 43
0.00000001
 40
0.0
 40
0.0
 40
0.0
 40
0.0
 40
0.5024505677200923
 40
0.9999999999999999
 40
0.9999999999999999
 40
0.9999999999999999
 40
0.9999999999999999
 10
174.1675453779354
 20
211.2500100572423
 30
0.0
 10
174.1052790606464
 20
211.2499740925318
 30
0.0
 10
173.9813538005525
 20
211.2499025139275
 30
0.0
 10
173.8573611955628
 20
211.2499735299747
 30
0.0
 10
173.7956687453433
 20
211.2500088639687
 30
0.0
  0
SPLINE
  5
C9
330
1F
100
AcDbEntity
  8
0
  6
Continuous
 62
     7
370
    25
100
AcDbSpline
210
0.0
220
0.0
230
1.0
 70
     8
 71
     3
 72
     9
 73
     5
 74
     0
 42
0.00000001
 43
0.00000001
 40
0.0
 40
0.0
 40
0.0
 40
0.0
 40
0.5021449888945024
 40
1.0
 40
1.0
 40
1.0
 40
1.0
 10
172.6675453779354
 20
211.2500100572423
 30
0.0
 10
172.6053286217974
 20
211.2499591454927
 30
0.0
 10
172.4814266462445
 20
211.2498577569484
 30
0.0
 10
172.3574107512956
 20
211.2499583084698
 30
0.0
 10
172.2956688165385
 20
211.2500083685487
 30
0.0
  0
SPLINE
  5
CA
330
1F
100
AcDbEntity
  8
0
  6
Continuous
 62
     7
370
    25
100
AcDbSpline
210
0.0
220
0.0
230
1.0
 70
     8
 71
     3
 72
     9
 73
     5
 74
     0
 42
0.00000001
 43
0.00000001
 40
0.0
 40
0.0
 40
0.0
 40
0.0
 40
0.5057289412931915
 40
1.0
 40
1.0
 40
1.0
 40
1.0
 10
174.5425465622222
 20
182.8738080938294
 30
0.0
 10
174.6052319331497
 20
182.8738318751981
 30
0.0
 10
174.7291824643713
 20
182.8738788991409
 30
0.0
 10
174.8530979056576
 20
182.873832057001
 30
0.0
 10
174.9143457220123
 20
182.873808904287
 30
0.0
  0
SPLINE
  5
CB
330
1F
100
AcDbEntity
  8
0
  6
Continuous
 62
     7
370
    25
100
AcDbSpline
210
0.0
220
0.0
230
1.0
 70
     8
 71
     3
 72
     9
 73
     5
 74
     0
 42
0.00000001
 43
0.00000001
 40
0.0
 40
0.0
 40
0.0
 40
0.0
 40
0.5060529424439243
 40
1.0
 40
1.0
 40
1.0
 40
1.0
 10
173.0425465622222
 20
182.8738080938294
 30
0.0
 10
173.1052803260407
 20
182.8738443414267
 30
0.0
 10
173.2292471258691
 20
182.8739159695002
 30
0.0
 10
173.3531465945734
 20
182.873844587954
 30
0.0
 10
173.4143463725727
 20
182.8738093292492
 30
0.0
  0
SPLINE
  5
CC
330
1F
100
AcDbEntity
  8
0
  6
Continuous
 62
     7
370
    25
100
AcDbSpline
210
0.0
220
0.0
230
1.0
 70
     8
 71
     3
 72
     9
 73
     5
 74
     0
 42
0.00000001
 43
0.00000001
 40
0.0
 40
0.0
 40
0.0
 40
0.0
 40
0.5063601542004668
 40
1.0
 40
1.0
 40
1.0
 40
1.0
 10
171.5425465622222
 20
182.8738080938294
 30
0.0
 10
171.6053299663438
 20
182.8738594234149
 30
0.0
 10
171.7293195883565
 20
182.8739607931319
 30
0.0
 10
171.8531953148211
 20
182.8738597321581
 30
0.0
 10
171.9143453093313
 20
182.8738098444345
 30
0.0
  0
SPLINE
  5
CD
330
1F
100
AcDbEntity
  8
0
  6
Continuous
 62
     7
370
    25
100
AcDbSpline
210
0.0
220
0.0
230
1.0
 70
     8
 71
     3
 72
    20
 73
    16
 74
     0
 42
0.00000001
 43
0.00000001
 40
0.0
 40
0.0
 40
0.0
 40
0.0
 40
0.0070346580076236
 40
0.0895639645409602
 40
0.1741607924713555
 40
0.2600354504431134
 40
0.3467009572404738
 40
0.433847158917246
 40
0.5300832577058746
 40
0.622379099686073
 40
0.7109072679759126
 40
0.7960991338589303
 40
0.8781795151166643
 40
0.9572284114940348
 40
1.0
 40
1.0
 40
1.0
 40
1.0
 10
165.2561888543149
 20
212.5459841357185
 30
0.0
 10
165.2194461059183
 20
212.5446625918249
 30
0.0
 10
164.7516442296988
 20
212.5278369394209
 30
0.0
 10
163.8426222479234
 20
212.6497365124592
 30
0.0
 10
162.5506214190435
 20
212.9333109021916
 30
0.0
 10
161.2891677417605
 20
213.4118859544922
 30
0.0
 10
160.0915431292864
 20
214.057893054301
 30
0.0
 10
158.9491530346281
 20
214.8940204456734
 30
0.0
 10
157.916528272097
 20
215.906442501048
 30
0.0
 10
157.0402518249294
 20
217.065436116696
 30
0.0
 10
156.3654409747605
 20
218.2856314533534
 30
0.0
 10
155.8799786422261
 20
219.5360420217588
 30
0.0
 10
155.5815650718634
 20
220.7903410854346
 30
0.0
 10
155.4448423527325
 20
221.8522094928535
 30
0.0
 10
155.4628846488083
 20
222.4890543075083
 30
0.0
 10
155.4692193606114
 20
222.712652698047
 30
0.0
  0
ARC
  5
CE
330
1F
100
AcDbEntity
  8
0
  6
Continuous
 62
     7
370
    25
100
AcDbCircle
 10
126.9091115457
 20
239.3119090692
 30
0.0
 40
1.0
100
AcDbArc
 50
1.3245219123
 51
90.0
  0
ARC
  5
CF
330
1F
100
AcDbEntity
  8
0
  6
Continuous
 62
     7
370
    25
100
AcDbCircle
 10
156.8634032983
 20
239.3119090692
 30
0.0
 40
1.0
100
AcDbArc
 50
90.0
 51
178.6754780877
  0
ARC
  5
D0
330
1F
100
AcDbEntity
  8
0
  6
Continuous
 62
     7
370
    25
100
AcDbCircle
 10
141.886257422
 20
197.0619090692
 30
0.0
 40
17.00000000000001
100
AcDbArc
 50
149.7241140142
 51
214.3989062351
  0
ARC
  5
D1
330
1F
100
AcDbEntity
  8
0
  6
Continuous
 62
     7
370
    25
100
AcDbCircle
 10
118.5688464402
 20
210.674342544
 30
0.0
 40
10.0
100
AcDbArc
 50
329.7241140142
 51
1.3245219123
  0
LINE
  5
D2
330
1F
100
AcDbEntity
  8
0
  6
Continuous
 62
     7
370
    25
100
AcDbLine
 10
123.8751504231
 20
252.8119090692
 30
0.0
 11
123.8751504231
 21
242.0619090692
 31
0.0
  0
ARC
  5
D3
330
1F
100
AcDbEntity
  8
0
  6
Continuous
 62
     7
370
    25
100
AcDbCircle
 10
125.6251504231
 20
242.0619090692
 30
0.0
 40
1.75
100
AcDbArc
 50
180.0
 51
270.0
  0
ARC
  5
D4
330
1F
100
AcDbEntity
  8
0
  6
Continuous
 62
     7
370
    25
100
AcDbCircle
 10
158.1473644209
 20
242.0619090692
 30
0.0
 40
1.75
100
AcDbArc
 50
270.0
 51
0.0
  0
ARC
  5
D5
330
1F
100
AcDbEntity
  8
0
  6
Continuous
 62
     7
370
    25
100
AcDbCircle
 10
158.1473644209
 20
252.8119090692
 30
0.0
 40
1.750000000000018
100
AcDbArc
 50
0.0
 51
74.1552676611
  0
LINE
  5
D6
330
1F
100
AcDbEntity
  8
0
  6
Continuous
 62
     7
370
    25
100
AcDbLine
 10
159.8973644209
 20
242.0619090692
 30
0.0
 11
159.8973644209
 21
252.8119090692
 31
0.0
  0
ARC
  5
D7
330
1F
100
AcDbEntity
  8
0
  6
Continuous
 62
     7
370
    25
100
AcDbCircle
 10
125.6251504231
 20
252.8119090692
 30
0.0
 40
1.750000000000031
100
AcDbArc
 50
105.8492995417
 51
180.0
  0
ARC
  5
D8
330
1F
100
AcDbEntity
  8
0
  6
Continuous
 62
     7
370
    25
100
AcDbCircle
 10
158.8975394123
 20
255.4576107686
 30
0.0
 40
1.000000000000027
100
AcDbArc
 50
171.3922075034
 51
254.1356649369
  0
ARC
  5
D9
330
1F
100
AcDbEntity
  8
0
  6
Continuous
 62
     7
370
    25
100
AcDbCircle
 10
124.8749754317
 20
255.4576107686
 30
0.0
 40
1.000000000000024
100
AcDbArc
 50
285.8464245101
 51
8.5753565097
  0
SPLINE
  5
DA
330
1F
100
AcDbEntity
  8
0
  6
Continuous
 62
     7
370
    25
100
AcDbSpline
210
0.0
220
0.0
230
1.0
 70
     8
 71
     3
 72
    17
 73
    13
 74
     0
 42
0.00000001
 43
0.00000001
 40
0.0
 40
0.0
 40
0.0
 40
0.0
 40
0.0962243605184267
 40
0.1958676656774327
 40
0.2936890179160278
 40
0.3944460383293476
 40
0.4985328208157942
 40
0.6055105721555812
 40
0.7146947363688728
 40
0.82702370789655
 40
0.9127507374779996
 40
1.0
 40
1.0
 40
1.0
 40
1.0
 10
154.4194708639915
 20
195.0969413333004
 30
0.0
 10
154.4290644270206
 20
195.7440830589594
 30
0.0
 10
154.4485924216565
 20
197.0613600819959
 30
0.0
 10
154.0382323641681
 20
198.9972891720004
 30
0.0
 10
153.3183399641475
 20
200.851236578683
 30
0.0
 10
152.2806119222616
 20
202.5737091554537
 30
0.0
 10
150.9362486197562
 20
204.1411946545016
 30
0.0
 10
149.3055739601041
 20
205.5004494421037
 30
0.0
 10
147.4193720796545
 20
206.6073039430152
 30
0.0
 10
145.4974715723641
 20
207.337897813663
 30
0.0
 10
143.630096917951
 20
207.7704309496535
 30
0.0
 10
142.4709375476525
 20
207.8512690262659
 30
0.0
 10
141.886257421988
 20
207.8920437618227
 30
0.0
  0
SPLINE
  5
DB
330
1F
100
AcDbEntity
  8
0
  6
Continuous
 62
     7
370
    25
100
AcDbSpline
210
0.0
220
0.0
230
1.0
 70
    24
 71
     3
 72
    13
 73
     9
 74
     0
 42
0.00000001
 43
0.00000001
 40
0.0
 40
0.0
 40
0.0
 40
0.0
 40
0.0088769305891356
 40
0.156801833547867
 40
0.3676799660841054
 40
0.5784774725819158
 40
0.7892380841704545
 40
1.0
 40
1.0
 40
1.0
 40
1.0
 10
141.886257421988
 20
207.8920437618227
 30
0.0
 10
141.8862574219896
 20
207.9061799737834
 30
0.0
 10
141.8862574220183
 20
208.1558815944728
 30
0.0
 10
141.8862574219678
 20
208.7432481682975
 30
0.0
 10
141.8862574219947
 20
209.5962399294775
 30
0.0
 10
141.8862574219858
 20
210.3499370651667
 30
0.0
 10
141.8862574219886
 20
210.8570925213869
 30
0.0
 10
141.8862574219881
 20
210.9159782932421
 30
0.0
 10
141.8862574219878
 20
210.9454212702695
 30
0.0
  0
SPLINE
  5
DC
330
1F
100
AcDbEntity
  8
0
  6
Continuous
 62
     7
370
    25
100
AcDbSpline
210
0.0
220
0.0
230
1.0
 70
     8
 71
     3
 72
    17
 73
    13
 74
     0
 42
0.00000001
 43
0.00000001
 40
0.0
 40
0.0
 40
0.0
 40
0.0
 40
0.084498659021284
 40
0.1707523992472066
 40
0.2766477565163949
 40
0.3858653819358107
 40
0.4890481164110219
 40
0.5951098677618353
 40
0.6947410048160338
 40
0.7970236474831212
 40
0.89706606564905
 40
1.0
 40
1.0
 40
1.0
 40
1.0
 10
141.8862574219878
 20
210.9454212702695
 30
0.0
 10
142.5671130945445
 20
210.8986492468761
 30
0.0
 10
143.9429661669684
 20
210.804133720777
 30
0.0
 10
146.1154418572004
 20
210.265579934371
 30
0.0
 10
148.3642441878754
 20
209.3448003157016
 30
0.0
 10
150.5277250121706
 20
207.9748220595828
 30
0.0
 10
152.4240739299077
 20
206.2649611484414
 30
0.0
 10
153.9621045283927
 20
204.3233157331798
 30
0.0
 10
155.1632278480067
 20
202.1605086363547
 30
0.0
 10
155.9813237825189
 20
199.8711513671713
 30
0.0
 10
156.4549090506405
 20
197.4436154273279
 30
0.0
 10
156.4310492254987
 20
195.8031091303193
 30
0.0
 10
156.4189493643852
 20
194.9711709986861
 30
0.0
  0
LWPOLYLINE
  5
DD
330
1F
100
AcDbEntity
  8
0
  6
Continuous
 62
     7
370
    25
100
AcDbPolyline
 90
        9
 70
   128
 43
0.0
 10
154.419470864
 20
195.0969413333
 10
154.8411285827
 20
195.0705065033
 10
155.2292244702
 20
195.046159128
 10
155.5745619999
 20
195.0244761559
 10
155.86895787
 20
195.0059713982
 10
156.1054359192
 20
194.9910833535
 10
156.2783924379
 20
194.9801648168
 10
156.3837289563
 20
194.9734745196
 10
156.4189493644
 20
194.9711709987
  0
SPLINE
  5
DE
330
1F
100
AcDbEntity
  8
0
  6
Continuous
 62
     7
370
    25
100
AcDbSpline
210
0.0
220
0.0
230
1.0
 70
     8
 71
     3
 72
    17
 73
    13
 74
     0
 42
0.00000001
 43
0.00000001
 40
0.0
 40
0.0
 40
0.0
 40
0.0
 40
0.0857250597941691
 40
0.1729766140899625
 40
0.2821577303353731
 40
0.3944901946971556
 40
0.4986065682832549
 40
0.6055547234782127
 40
0.7034343071058998
 40
0.8041326196788228
 40
0.9003946300127025
 40
1.0
 40
1.0
 40
1.0
 40
1.0
 10
141.886257421988
 20
207.8920437618227
 30
0.0
 10
141.3118080870557
 20
207.8523058055539
 30
0.0
 10
140.152680275872
 20
207.7721222846237
 30
0.0
 10
138.3051192960211
 20
207.3462291281272
 30
0.0
 10
136.3725500976169
 20
206.6165929365976
 30
0.0
 10
134.4993201272903
 20
205.5233347328356
 30
0.0
 10
132.8501173281109
 20
204.1547543849284
 30
0.0
 10
131.5140837868078
 20
202.6043175507666
 30
0.0
 10
130.4629249274192
 20
200.8688014431283
 30
0.0
 10
129.7464988533217
 20
199.0371120044228
 30
0.0
 10
129.3267445564296
 20
197.0846048797006
 30
0.0
 10
129.3441783102706
 20
195.7669928447947
 30
0.0
 10
129.3530439799842
 20
195.096941333301
 30
0.0
  0
LWPOLYLINE
  5
DF
330
1F
100
AcDbEntity
  8
0
  6
Continuous
 62
     7
370
    25
100
AcDbPolyline
 90
        9
 70
   128
 43
0.0
 10
127.3535654796
 20
194.9711709987
 10
127.3887858876
 20
194.9734745196
 10
127.4941224061
 20
194.9801648168
 10
127.6670789248
 20
194.9910833535
 10
127.903556974
 20
195.0059713982
 10
128.1979528441
 20
195.0244761559
 10
128.5432903738
 20
195.046159128
 10
128.9313862613
 20
195.0705065033
 10
129.35304398
 20
195.0969413333
  0
SPLINE
  5
E0
330
1F
100
AcDbEntity
  8
0
  6
Continuous
 62
     7
370
    25
100
AcDbSpline
210
0.0
220
0.0
230
1.0
 70
     8
 71
     3
 72
    17
 73
    13
 74
     0
 42
0.00000001
 43
0.00000001
 40
0.0
 40
0.0
 40
0.0
 40
0.0
 40
0.1000301760603106
 40
0.2029765358723073
 40
0.3025920435428722
 40
0.4048905291350463
 40
0.5080766894938471
 40
0.6141349813330067
 40
0.7200529301392607
 40
0.8292476404276979
 40
0.9137512522894781
 40
1.0
 40
1.0
 40
1.0
 40
1.0
 10
127.3535654795905
 20
194.9711709986864
 30
0.0
 10
127.3408393399031
 20
195.7794889403383
 30
0.0
 10
127.3150160548654
 20
197.4196897491524
 30
0.0
 10
127.7792614268028
 20
199.8280434934429
 30
0.0
 10
128.6002244955984
 20
202.1405249282278
 30
0.0
 10
129.7860362225655
 20
204.2864481110511
 30
0.0
 10
131.3323221752465
 20
206.2477352568085
 30
0.0
 10
133.2057744452738
 20
207.9447825247059
 30
0.0
 10
135.3840942558548
 20
209.3322025941464
 30
0.0
 10
137.6182170276362
 20
210.2538358766724
 30
0.0
 10
139.8153652385022
 20
210.8016480229491
 30
0.0
 10
141.1912726440717
 20
210.8971714293767
 30
0.0
 10
141.8862574219878
 20
210.9454212702695
 30
0.0
  0
SPLINE
  5
E1
330
1F
100
AcDbEntity
  8
0
  6
Continuous
 62
     7
370
    25
100
AcDbSpline
210
0.0
220
0.0
230
1.0
 70
     8
 71
     3
 72
    16
 73
    12
 74
     0
 42
0.00000001
 43
0.00000001
 40
0.0
 40
0.0
 40
0.0
 40
0.0
 40
0.098640344848299
 40
0.1973451184529487
 40
0.2984849550463971
 40
0.3997162815975193
 40
0.5112170933634073
 40
0.6227668911731818
 40
0.7429953860048752
 40
0.8632240990171007
 40
1.0
 40
1.0
 40
1.0
 40
1.0
 10
132.0144883357234
 20
-7.958077639051958
 30
0.0
 10
132.0379940731566
 20
-8.431973673745402
 30
0.0
 10
132.0850209012279
 20
-9.380075277047679
 30
0.0
 10
132.4779619536732
 20
-10.76339296642151
 30
0.0
 10
133.0941941026322
 20
-12.05569194077857
 30
0.0
 10
133.9476650592724
 20
-13.26851956683714
 30
0.0
 10
135.0232457780598
 20
-14.35133573421357
 30
0.0
 10
136.3329086066798
 20
-15.30129640534164
 30
0.0
 10
137.8270014642394
 20
-16.04287347778457
 30
0.0
 10
139.545070659515
 20
-16.60045791142897
 30
0.0
 10
140.7740405138851
 20
-16.72406230075771
 30
0.0
 10
141.4280889237532
 20
-16.7898436167157
 30
0.0
  0
LINE
  5
E2
330
1F
100
AcDbEntity
  8
0
  6
Continuous
 62
     7
370
    25
100
AcDbLine
 10
132.4721015732
 20
3.639023621
 30
0.0
 11
132.0144883357
 21
-7.9580776391
 31
0.0
  0
SPLINE
  5
E3
330
1F
100
AcDbEntity
  8
0
  6
Continuous
 62
     7
370
    25
100
AcDbSpline
210
0.0
220
0.0
230
1.0
 70
     8
 71
     3
 72
    17
 73
    13
 74
     0
 42
0.00000001
 43
0.00000001
 40
0.0
 40
0.0
 40
0.0
 40
0.0
 40
0.124050947112026
 40
0.2481614352877118
 40
0.3419043525855876
 40
0.4356472693735383
 40
0.5294882255574203
 40
0.6233290621174093
 40
0.717435962999523
 40
0.8115424928857023
 40
0.9057719634105869
 40
1.0
 40
1.0
 40
1.0
 40
1.0
 10
129.8194634099504
 20
189.3933910044374
 30
0.0
 10
130.5239147131718
 20
181.7328485053594
 30
0.0
 10
131.9331554369838
 20
166.4080866562061
 30
0.0
 10
133.3347343370974
 20
145.2491454680322
 30
0.0
 10
134.2944834935816
 20
125.9497680052711
 30
0.0
 10
134.8842231150121
 20
108.5139240740573
 30
0.0
 10
135.2015381813034
 20
91.06582287402743
 30
0.0
 10
135.240249861179
 20
73.59337345765137
 30
0.0
 10
134.9982593285449
 20
56.10725253462817
 30
0.0
 10
134.4627825644841
 20
38.60629631237486
 30
0.0
 10
133.6566237721698
 20
21.1100948016581
 30
0.0
 10
132.8669403033413
 20
9.46268447361373
 30
0.0
 10
132.4721015731988
 20
3.639023620999132
 30
0.0
  0
LINE
  5
E4
330
1F
100
AcDbEntity
  8
0
  6
Continuous
 62
     7
370
    25
100
AcDbLine
 10
129.35304398
 20
195.0969413333
 30
0.0
 11
129.81946341
 21
189.3933910044
 31
0.0
  0
LINE
  5
E5
330
1F
100
AcDbEntity
  8
0
  6
Continuous
 62
     7
370
    25
100
AcDbLine
 10
153.953051434
 20
189.3933910044
 30
0.0
 11
154.419470864
 21
195.0969413333
 31
0.0
  0
SPLINE
  5
E6
330
1F
100
AcDbEntity
  8
0
  6
Continuous
 62
     7
370
    25
100
AcDbSpline
210
0.0
220
0.0
230
1.0
 70
     8
 71
     3
 72
    17
 73
    13
 74
     0
 42
0.00000001
 43
0.00000001
 40
0.0
 40
0.0
 40
0.0
 40
0.0
 40
0.1175912744314823
 40
0.2352544953891715
 40
0.3306092539664666
 40
0.4259643023163858
 40
0.521427984646408
 40
0.6168917583122017
 40
0.7126161308224634
 40
0.8083404621932818
 40
0.9041703404535814
 40
1.0
 40
1.0
 40
1.0
 40
1.0
 10
151.300413270777
 20
3.639023620996551
 30
0.0
 10
150.816602624992
 20
10.90772853236685
 30
0.0
 10
149.8486853208522
 20
25.44958560743057
 30
0.0
 10
149.0394999158368
 20
45.9295075722142
 30
0.0
 10
148.6129250972764
 20
65.04257574574382
 30
0.0
 10
148.5164658116833
 20
82.78633932270965
 30
0.0
 10
148.7071080809125
 20
100.5370458213198
 30
0.0
 10
149.1848082922265
 20
118.3062479410384
 30
0.0
 10
149.9445958834644
 20
136.0826159478782
 30
0.0
 10
150.9914345135862
 20
153.867457132974
 30
0.0
 10
152.2975288050866
 20
171.642535263344
 30
0.0
 10
153.4012109775381
 20
183.4764435921957
 30
0.0
 10
153.9530514340258
 20
189.39339100444
 30
0.0
  0
LINE
  5
E7
330
1F
100
AcDbEntity
  8
0
  6
Continuous
 62
     7
370
    25
100
AcDbLine
 10
151.7580265083
 20
-7.9580776391
 30
0.0
 11
151.3004132708
 21
3.639023621
 31
0.0
  0
SPLINE
  5
E8
330
1F
100
AcDbEntity
  8
0
  6
Continuous
 62
     7
370
    25
100
AcDbSpline
210
0.0
220
0.0
230
1.0
 70
     8
 71
     3
 72
    16
 73
    12
 74
     0
 42
0.00000001
 43
0.00000001
 40
0.0
 40
0.0
 40
0.0
 40
0.0
 40
0.1367759009829179
 40
0.2570046139951414
 40
0.3772331088268354
 40
0.4887829066366031
 40
0.6002837184024815
 40
0.7015150449536055
 40
0.8026548815470552
 40
0.9013596551516996
 40
1.0
 40
1.0
 40
1.0
 40
1.0
 10
142.3444259202226
 20
-16.78984361671562
 30
0.0
 10
142.9984743300909
 20
-16.72406230075762
 30
0.0
 10
144.2274441844611
 20
-16.60045791142889
 30
0.0
 10
145.9455133797368
 20
-16.04287347778449
 30
0.0
 10
147.4396062372962
 20
-15.30129640534142
 30
0.0
 10
148.7492690659163
 20
-14.35133573421352
 30
0.0
 10
149.8248497847037
 20
-13.26851956683711
 30
0.0
 10
150.6783207413438
 20
-12.05569194077832
 30
0.0
 10
151.2945528903027
 20
-10.7633929664214
 30
0.0
 10
151.6874939427479
 20
-9.3800752770474
 30
0.0
 10
151.7345207708192
 20
-8.431973673745151
 30
0.0
 10
151.7580265082524
 20
-7.958077639051709
 30
0.0
  0
LINE
  5
E9
330
1F
100
AcDbEntity
  8
0
  6
Continuous
 62
     7
370
    25
100
AcDbLine
 10
142.3444259202
 20
-16.7898436167
 30
0.0
 11
141.4280889238
 21
-16.7898436167
 31
0.0
  0
ARC
  5
EA
330
1F
100
AcDbEntity
  8
0
  6
Continuous
 62
     7
370
    25
100
AcDbCircle
 10
150.2784645293
 20
144.9337193277
 30
0.0
 40
44.61126533200055
100
AcDbArc
 50
82.6676368741
 51
85.2752489515
  0
SPLINE
  5
EB
330
1F
100
AcDbEntity
  8
0
  6
Continuous
 62
     7
370
    25
100
AcDbSpline
210
0.0
220
0.0
230
1.0
 70
     8
 71
     3
 72
    17
 73
    13
 74
     0
 42
0.00000001
 43
0.00000001
 40
0.0
 40
0.0
 40
0.0
 40
0.0
 40
0.0957332006181084
 40
0.1914666626186342
 40
0.2872937780871114
 40
0.383120999483488
 40
0.4785058697472736
 40
0.5738907506760396
 40
0.6693616536447673
 40
0.7648324358912426
 40
0.8823919961686066
 40
0.9999999999999999
 40
0.9999999999999999
 40
0.9999999999999999
 40
0.9999999999999999
 10
155.9719707111345
 20
189.1801766082711
 30
0.0
 10
155.4555990689432
 20
183.2820779243631
 30
0.0
 10
154.4228543747
 20
171.4858644528413
 30
0.0
 10
153.2015019375101
 20
153.7588330878055
 30
0.0
 10
152.2208282601337
 20
136.0118910908859
 30
0.0
 10
151.5059548305265
 20
118.2742107887664
 30
0.0
 10
151.0496155206258
 20
100.5561439762822
 30
0.0
 10
150.8525335815154
 20
82.85624241359577
 30
0.0
 10
150.9120905172648
 20
65.15091237879298
 30
0.0
 10
151.2603985108329
 20
46.07968475260768
 30
0.0
 10
151.9400830216934
 20
25.64856833757059
 30
0.0
 10
152.7544604972479
 20
11.13992488987153
 30
0.0
 10
153.1617331142357
 20
3.884108805489367
 30
0.0
  0
ARC
  5
EC
330
1F
100
AcDbEntity
  8
0
  6
Continuous
 62
     7
370
    25
100
AcDbCircle
 10
151.1397574871
 20
12.0496542189
 30
0.0
 40
8.412164842419177
100
AcDbArc
 50
271.0943030934
 51
283.907983084
  0
SPLINE
  5
ED
330
1F
100
AcDbEntity
  8
0
  6
Continuous
 62
     7
370
    25
100
AcDbSpline
210
0.0
220
0.0
230
1.0
 70
     8
 71
     3
 72
    17
 73
    13
 74
     0
 42
0.00000001
 43
0.00000001
 40
0.0
 40
0.0
 40
0.0
 40
0.0
 40
0.0941011890930002
 40
0.1882033052366398
 40
0.2824021014499764
 40
0.376601077254145
 40
0.4703720236815201
 40
0.5641429828668791
 40
0.6579955000176901
 40
0.7518479480208067
 40
0.8758982641338979
 40
1.0
 40
1.0
 40
1.0
 40
1.0
 10
130.6107817297402
 20
3.884108805492032
 30
0.0
 10
130.9426124024612
 20
9.68902148936493
 30
0.0
 10
131.6062770169781
 20
21.29890404499607
 30
0.0
 10
132.2847343975609
 20
38.74374905426264
 30
0.0
 10
132.7302412440603
 20
56.20385349307444
 30
0.0
 10
132.9193632783181
 20
73.65042875033306
 30
0.0
 10
132.859322753781
 20
91.07252177981988
 30
0.0
 10
132.5493163992473
 20
108.4714930366296
 30
0.0
 10
131.9912460340692
 20
125.8701689971772
 30
0.0
 10
131.0908259471462
 20
145.1297221647654
 30
0.0
 10
129.7799865578932
 20
166.2428139602779
 30
0.0
 10
128.4604494152508
 20
181.5333329393764
 30
0.0
 10
127.8005441328416
 20
189.1801766082685
 30
0.0
  0
ARC
  5
EE
330
1F
100
AcDbEntity
  8
0
  6
Continuous
 62
     7
370
    25
100
AcDbCircle
 10
133.4940503146
 20
144.9337193277
 30
0.0
 40
44.61126533197372
100
AcDbArc
 50
94.7247510485
 51
97.3323631259
  0
ARC
  5
EF
330
1F
100
AcDbEntity
  8
0
  6
Continuous
 62
     7
370
    25
100
AcDbCircle
 10
132.6327573569
 20
12.049654219
 30
0.0
 40
8.41216484242149
100
AcDbArc
 50
256.092016916
 51
268.9056969066
  0
LINE
  5
F0
330
1F
100
AcDbEntity
  8
0
  6
Continuous
 62
     7
370
    25
100
AcDbLine
 10
127.8005441328
 20
189.1801766083
 30
0.0
 11
127.3535654796
 21
194.9711709987
 31
0.0
  0
LINE
  5
F1
330
1F
100
AcDbEntity
  8
0
  6
Continuous
 62
     7
370
    25
100
AcDbLine
 10
156.4189493644
 20
194.9711709987
 30
0.0
 11
155.9719707111
 21
189.1801766083
 31
0.0
  0
LINE
  5
F2
330
1F
100
AcDbEntity
  8
0
  6
Continuous
 62
     7
370
    25
100
AcDbLine
 10
130.6107817297
 20
3.9551225332
 30
0.0
 11
130.6107817297
 21
3.8841088055
 31
0.0
  0
LINE
  5
F3
330
1F
100
AcDbEntity
  8
0
  6
Continuous
 62
     7
370
    25
100
AcDbLine
 10
153.1617331142
 20
3.8841088055
 30
0.0
 11
153.1617331142
 21
3.9551225332
 31
0.0
  0
ARC
  5
F4
330
1F
100
AcDbEntity
  8
0
  6
Continuous
 62
     7
370
    25
100
AcDbCircle
 10
131.7184221325
 20
7.1697318574
 30
0.0
 40
15.13070637333958
100
AcDbArc
 50
264.3793844061
 51
271.1211919754
  0
ARC
  5
F5
330
1F
100
AcDbEntity
  8
0
  6
Continuous
 62
     7
370
    25
100
AcDbCircle
 10
177.9930101466
 20
-19.6748045375
 30
0.0
 40
36.67855590871735
100
AcDbArc
 50
175.4887264481
 51
180.0877343053
  0
SPLINE
  5
F6
330
1F
100
AcDbEntity
  8
0
  6
Continuous
 62
     7
370
    25
100
AcDbSpline
210
0.0
220
0.0
230
1.0
 70
     8
 71
     3
 72
    16
 73
    12
 74
     0
 42
0.00000001
 43
0.00000001
 40
0.0
 40
0.0
 40
0.0
 40
0.0
 40
0.1289418392257834
 40
0.2439400911840278
 40
0.3589702137075988
 40
0.4693438180688108
 40
0.5797228950311709
 40
0.6843248890190604
 40
0.788906798746852
 40
0.8944616416092039
 40
1.0
 40
1.0
 40
1.0
 40
1.0
 10
141.3144972386248
 20
-19.73096864577348
 30
0.0
 10
140.546053582663
 20
-19.642373305815
 30
0.0
 10
139.0922646757369
 20
-19.47476320006714
 30
0.0
 10
137.0734131700907
 20
-18.72107372097878
 30
0.0
 10
135.3109055528264
 20
-17.71925149241044
 30
0.0
 10
133.7755458257576
 20
-16.44216943692933
 30
0.0
 10
132.5077960545517
 20
-14.98184407043515
 30
0.0
 10
131.5090751170983
 20
-13.36022219245664
 30
0.0
 10
130.7845852128958
 20
-11.62534756832656
 30
0.0
 10
130.3224941265142
 20
-9.783714481101796
 30
0.0
 10
130.2651671022137
 20
-8.520024914735746
 30
0.0
 10
130.2365058284248
 20
-7.888229472920893
 30
0.0
  0
ARC
  5
F7
330
1F
100
AcDbEntity
  8
0
  6
Continuous
 62
     7
370
    25
100
AcDbCircle
 10
152.0540927115
 20
7.1697318575
 30
0.0
 40
15.13070637348058
100
AcDbArc
 50
268.8788080246
 51
275.6206155938
  0
SPLINE
  5
F8
330
1F
100
AcDbEntity
  8
0
  6
Continuous
 62
     7
370
    25
100
AcDbSpline
210
0.0
220
0.0
230
1.0
 70
     8
 71
     3
 72
    16
 73
    12
 74
     0
 42
0.00000001
 43
0.00000001
 40
0.0
 40
0.0
 40
0.0
 40
0.0
 40
0.1040419239026736
 40
0.2110962820894851
 40
0.3143508318419102
 40
0.4202791470204338
 40
0.5291618722915319
 40
0.6410309509559917
 40
0.7542368876038538
 40
0.87106366361228
 40
1.0
 40
1.0
 40
1.0
 40
1.0
 10
153.5360090155511
 20
-7.888229472921227
 30
0.0
 10
153.508736889184
 20
-8.511139714829113
 30
0.0
 10
153.4534029981446
 20
-9.774995968248989
 30
0.0
 10
152.9924737667395
 20
-11.60907209005982
 30
0.0
 10
152.2686124187011
 20
-13.35385901350838
 30
0.0
 10
151.2738167247707
 20
-14.96779069117207
 30
0.0
 10
150.0048196095541
 20
-16.4371876727136
 30
0.0
 10
148.4769803686995
 20
-17.70704097757026
 30
0.0
 10
146.7104514326359
 20
-18.7186516551166
 30
0.0
 10
144.6908224624353
 20
-19.4727424587964
 30
0.0
 10
143.2263392003685
 20
-19.64211146005748
 30
0.0
 10
142.4580176053536
 20
-19.7309686457732
 30
0.0
  0
ARC
  5
F9
330
1F
100
AcDbEntity
  8
0
  6
Continuous
 62
     7
370
    25
100
AcDbCircle
 10
105.7795046966
 20
-19.6748045376
 30
0.0
 40
36.67855590943128
100
AcDbArc
 50
359.9122656948
 51
4.5112735519
  0
LINE
  5
FA
330
1F
100
AcDbEntity
  8
0
  6
Continuous
 62
     7
370
    25
100
AcDbLine
 10
141.3144972386
 20
-19.7309686458
 30
0.0
 11
142.4580176054
 21
-19.7309686458
 31
0.0
  0
LINE
  5
FB
330
1F
100
AcDbEntity
  8
0
  6
Continuous
 62
     7
370
    25
100
AcDbLine
 10
130.2365058284
 20
-7.8882294729
 30
0.0
 11
130.6107817297
 21
3.8841088055
 31
0.0
  0
LINE
  5
FC
330
1F
100
AcDbEntity
  8
0
  6
Continuous
 62
     7
370
    25
100
AcDbLine
 10
153.1617331142
 20
3.8841088055
 30
0.0
 11
153.5360090156
 21
-7.8882294729
 31
0.0
  0
SPLINE
  5
FD
330
1F
100
AcDbEntity
  8
0
  6
Continuous
 62
     7
370
    25
100
AcDbSpline
210
0.0
220
0.0
230
1.0
 70
     8
 71
     3
 72
     9
 73
     5
 74
     0
 42
0.00000001
 43
0.00000001
 40
0.0
 40
0.0
 40
0.0
 40
0.0
 40
0.5173759112325205
 40
1.0
 40
1.0
 40
1.0
 40
1.0
 10
153.5360090155511
 20
-7.888229472921227
 30
0.0
 10
153.5357826238361
 20
-7.708318490972893
 30
0.0
 10
153.5353450469986
 20
-7.360581037329617
 30
0.0
 10
153.5287555703875
 20
-6.538203752758987
 30
0.0
 10
153.5255753302427
 20
-6.141304665169961
 30
0.0
  0
SPLINE
  5
FE
330
1F
100
AcDbEntity
  8
0
  6
Continuous
 62
     7
370
    25
100
AcDbSpline
210
0.0
220
0.0
230
1.0
 70
     8
 71
     3
 72
     9
 73
     5
 74
     0
 42
0.00000001
 43
0.00000001
 40
0.0
 40
0.0
 40
0.0
 40
0.0
 40
0.5697240273731504
 40
1.0
 40
1.0
 40
1.0
 40
1.0
 10
153.5255753302427
 20
-6.141304665169933
 30
0.0
 10
153.5255586249907
 20
-6.139507177603532
 30
0.0
 10
153.5255293033347
 20
-6.136352163105236
 30
0.0
 10
153.5254908682753
 20
-6.133142684183801
 30
0.0
 10
153.5254743305927
 20
-6.131761722519224
 30
0.0
  0
SPLINE
  5
FF
330
1F
100
AcDbEntity
  8
0
  6
Continuous
 62
     7
370
    25
100
AcDbSpline
210
0.0
220
0.0
230
1.0
 70
     8
 71
     3
 72
     9
 73
     5
 74
     0
 42
0.00000001
 43
0.00000001
 40
0.0
 40
0.0
 40
0.0
 40
0.0
 40
0.430275971560599
 40
0.9999999999999999
 40
0.9999999999999999
 40
0.9999999999999999
 40
0.9999999999999999
 10
130.2470405133829
 20
-6.13176172254068
 30
0.0
 10
130.2470239757004
 20
-6.133142684199261
 30
0.0
 10
130.2469855406411
 20
-6.136352163114895
 30
0.0
 10
130.2469562189851
 20
-6.13950717760503
 30
0.0
 10
130.2469395137332
 20
-6.141304665170128
 30
0.0
  0
SPLINE
  5
100
330
1F
100
AcDbEntity
  8
0
  6
Continuous
 62
     7
370
    25
100
AcDbSpline
210
0.0
220
0.0
230
1.0
 70
     8
 71
     3
 72
     9
 73
     5
 74
     0
 42
0.00000001
 43
0.00000001
 40
0.0
 40
0.0
 40
0.0
 40
0.0
 40
0.4826240887677676
 40
0.9999999999999999
 40
0.9999999999999999
 40
0.9999999999999999
 40
0.9999999999999999
 10
130.2469395137332
 20
-6.141304665170128
 30
0.0
 10
130.2437592735883
 20
-6.53820375275907
 30
0.0
 10
130.2371697969773
 20
-7.360581037329228
 30
0.0
 10
130.2367322201398
 20
-7.708318490972587
 30
0.0
 10
130.2365058284248
 20
-7.888229472920893
 30
0.0
  0
LINE
  5
101
330
1F
100
AcDbEntity
  8
0
  6
Continuous
 62
     7
370
    25
100
AcDbLine
 10
130.2469395137
 20
-6.1413055296
 30
0.0
 11
130.2469395137
 21
-6.1413046652
 31
0.0
  0
SPLINE
  5
102
330
1F
100
AcDbEntity
  8
0
  6
Continuous
 62
     7
370
    25
100
AcDbSpline
210
0.0
220
0.0
230
1.0
 70
     8
 71
     3
 72
    12
 73
     8
 74
     0
 42
0.00000001
 43
0.00000001
 40
0.0
 40
0.0
 40
0.0
 40
0.0
 40
0.2462814734948115
 40
0.4982835695466276
 40
0.7478612441217937
 40
0.9981631206918242
 40
1.0
 40
1.0
 40
1.0
 40
1.0
 10
130.6107817297402
 20
3.955122533169958
 30
0.0
 10
130.5587038439197
 20
3.047201104281805
 30
0.0
 10
130.4533384078888
 20
1.210269060492541
 30
0.0
 10
130.3511964992192
 20
-1.338633056354593
 30
0.0
 10
130.2811816812027
 20
-3.773187275998513
 30
0.0
 10
130.2553520947247
 20
-5.345301213141306
 30
0.0
 10
130.2470003577426
 20
-6.135548426705689
 30
0.0
 10
130.2469395137332
 20
-6.141305529575036
 30
0.0
  0
SPLINE
  5
103
330
1F
100
AcDbEntity
  8
0
  6
Continuous
 62
     7
370
    25
100
AcDbSpline
210
0.0
220
0.0
230
1.0
 70
     8
 71
     3
 72
    12
 73
     8
 74
     0
 42
0.00000001
 43
0.00000001
 40
0.0
 40
0.0
 40
0.0
 40
0.0
 40
0.0018368910680121
 40
0.2515916397908313
 40
0.5017194507754607
 40
0.7486305910858623
 40
1.0
 40
1.0
 40
1.0
 40
1.0
 10
153.5255753302427
 20
-6.14130552957487
 30
0.0
 10
153.5255144862188
 20
-6.135548426484727
 30
0.0
 10
153.51718092306
 20
-5.347020988949847
 30
0.0
 10
153.4913730001543
 20
-3.774931397756837
 30
0.0
 10
153.4218602062684
 20
-1.356919889754005
 30
0.0
 10
153.3200087257042
 20
1.1921979062752
 30
0.0
 10
153.2148054134714
 20
3.028670496725394
 30
0.0
 10
153.1617331142357
 20
3.955122533167321
 30
0.0
  0
LINE
  5
104
330
1F
100
AcDbEntity
  8
0
  6
Continuous
 62
     7
370
    25
100
AcDbLine
 10
153.5255753302
 20
-6.1413046652
 30
0.0
 11
153.5255753302
 21
-6.1413055296
 31
0.0
  0
ARC
  5
105
330
1F
100
AcDbEntity
  8
0
  6
Continuous
 62
     7
370
    25
100
AcDbCircle
 10
141.886257422
 20
197.0619090692
 30
0.0
 40
14.22500000000003
100
AcDbArc
 50
19.6092106103
 51
324.9137084853
  0
LINE
  5
106
330
1F
100
AcDbEntity
  8
0
  6
Continuous
 62
     7
370
    25
100
AcDbLine
 10
149.3674800464
 20
209.1607492221
 30
0.0
 11
149.4950526052
 21
209.3670630927
 31
0.0
  0
SPLINE
  5
107
330
1F
100
AcDbEntity
  8
0
  6
Continuous
 62
     7
370
    25
100
AcDbSpline
210
0.0
220
0.0
230
1.0
 70
     8
 71
     3
 72
    11
 73
     7
 74
     0
 42
0.00000001
 43
0.00000001
 40
0.0
 40
0.0
 40
0.0
 40
0.0
 40
0.1446702591042512
 40
0.3907520209323661
 40
0.5962314811354612
 40
1.0
 40
1.0
 40
1.0
 40
1.0
 10
154.3299274480125
 20
204.4419941611957
 30
0.0
 10
154.1250353751666
 20
204.7050955367133
 30
0.0
 10
153.5716252130968
 20
205.4157280801964
 30
0.0
 10
152.6594121497145
 20
206.4459144424039
 30
0.0
 10
151.285440740453
 20
207.8629953123575
 30
0.0
 10
150.208666220605
 20
208.7675711582824
 30
0.0
 10
149.4950526051844
 20
209.3670630926975
 30
0.0
  0
LINE
  5
108
330
1F
100
AcDbEntity
  8
0
  6
Continuous
 62
     7
370
    25
100
AcDbLine
 10
154.1212911544
 20
204.318256261
 30
0.0
 11
154.329927448
 21
204.4419941612
 31
0.0
  0
LINE
  5
109
330
1F
100
AcDbEntity
  8
0
  6
Continuous
 62
     7
370
    25
100
AcDbLine
 10
135.1489658055
 20
209.5902579897
 30
0.0
 11
135.0340790318
 21
209.8038960018
 31
0.0
  0
SPLINE
  5
10A
330
1F
100
AcDbEntity
  8
0
  6
Continuous
 62
     7
370
    25
100
AcDbSpline
210
0.0
220
0.0
230
1.0
 70
     8
 71
     3
 72
    11
 73
     7
 74
     0
 42
0.00000001
 43
0.00000001
 40
0.0
 40
0.0
 40
0.0
 40
0.0
 40
0.1446702591042583
 40
0.3907520209323607
 40
0.5962314811354763
 40
0.9999999999999999
 40
0.9999999999999999
 40
0.9999999999999999
 40
0.9999999999999999
 10
141.716751263254
 20
211.5284859740536
 30
0.0
 10
141.3864527518622
 20
211.4825949216938
 30
0.0
 10
140.494321835415
 20
211.3586439343704
 30
0.0
 10
139.1460477434198
 20
211.083737428921
 30
0.0
 10
137.2318340061923
 20
210.6023837194039
 30
0.0
 10
135.9100610840475
 20
210.1221575540301
 30
0.0
 10
135.0340790317699
 20
209.803896001797
 30
0.0
  0
LINE
  5
10B
330
1F
100
AcDbEntity
  8
0
  6
Continuous
 62
     7
370
    25
100
AcDbLine
 10
141.7195932815
 20
211.2859326935
 30
0.0
 11
141.7167512633
 21
211.5284859741
 31
0.0
  0
SPLINE
  5
10C
330
1F
100
AcDbEntity
  8
0
  6
Continuous
 62
     7
370
    25
100
AcDbSpline
210
0.0
220
0.0
230
1.0
 70
     8
 71
     3
 72
    11
 73
     7
 74
     0
 42
0.00000001
 43
0.00000001
 40
0.0
 40
0.0
 40
0.0
 40
0.0
 40
0.144670259104256
 40
0.3907520209323695
 40
0.5962314811354847
 40
1.0
 40
1.0
 40
1.0
 40
1.0
 10
129.2730812372294
 20
204.1484008820728
 30
0.0
 10
129.1476747986835
 20
203.8394084541953
 30
0.0
 10
128.8089540443061
 20
203.0048249233889
 30
0.0
 10
128.3728930156933
 20
201.6997320557319
 30
0.0
 10
127.8326506877273
 20
199.8012974762613
 30
0.0
 10
127.5876522854306
 20
198.4164954649626
 30
0.0
 10
127.4252838485735
 20
197.4987419783145
 30
0.0
  0
LINE
  5
10D
330
1F
100
AcDbEntity
  8
0
  6
Continuous
 62
     7
370
    25
100
AcDbLine
 10
129.4845595491
 20
204.0295855018
 30
0.0
 11
129.2730812372
 21
204.1484008821
 31
0.0
  0
SPLINE
  5
10E
330
1F
100
AcDbEntity
  8
0
  6
Continuous
 62
     7
370
    25
100
AcDbSpline
210
0.0
220
0.0
230
1.0
 70
     8
 71
     3
 72
     9
 73
     5
 74
     0
 42
0.00000001
 43
0.00000001
 40
0.0
 40
0.0
 40
0.0
 40
0.0
 40
0.5862283062032733
 40
1.0
 40
1.0
 40
1.0
 40
1.0
 10
135.0340790317699
 20
209.803896001797
 30
0.0
 10
134.7252380067555
 20
209.6799668406237
 30
0.0
 10
134.1984107932853
 20
209.4685659924184
 30
0.0
 10
133.6790453627064
 20
209.23655434086
 30
0.0
 10
133.4641466487963
 20
209.1405544868141
 30
0.0
  0
SPLINE
  5
10F
330
1F
100
AcDbEntity
  8
0
  6
Continuous
 62
     7
370
    25
100
AcDbSpline
210
0.0
220
0.0
230
1.0
 70
     8
 71
     3
 72
     9
 73
     5
 74
     0
 42
0.00000001
 43
0.00000001
 40
0.0
 40
0.0
 40
0.0
 40
0.0
 40
0.5863847898283554
 40
1.0
 40
1.0
 40
1.0
 40
1.0
 10
129.9653232623342
 20
205.7058059775082
 30
0.0
 10
129.8242915540845
 20
205.4035271950732
 30
0.0
 10
129.5837810383
 20
204.8880315893234
 30
0.0
 10
129.3639901087494
 20
204.3648123271588
 30
0.0
 10
129.2730812372294
 20
204.1484008820728
 30
0.0
  0
ARC
  5
110
330
1F
100
AcDbEntity
  8
0
  6
Continuous
 62
     7
370
    25
100
AcDbCircle
 10
141.886257422
 20
197.0619090692
 30
0.0
 40
14.72500000000004
100
AcDbArc
 50
124.8870148383
 51
144.0540459638
  0
SPLINE
  5
111
330
1F
100
AcDbEntity
  8
0
  6
Continuous
 62
     7
370
    25
100
AcDbSpline
210
0.0
220
0.0
230
1.0
 70
     8
 71
     3
 72
     9
 73
     5
 74
     0
 42
0.00000001
 43
0.00000001
 40
0.0
 40
0.0
 40
0.0
 40
0.0
 40
0.5863847898283804
 40
1.0
 40
1.0
 40
1.0
 40
1.0
 10
155.3325588120906
 20
203.0637924341701
 30
0.0
 10
155.1412935616017
 20
203.337068867471
 30
0.0
 10
154.8151165293754
 20
203.8031048868925
 30
0.0
 10
154.4718908213668
 20
204.255059046487
 30
0.0
 10
154.3299274480125
 20
204.4419941611957
 30
0.0
  0
ARC
  5
112
330
1F
100
AcDbEntity
  8
0
  6
Continuous
 62
     7
370
    25
100
AcDbCircle
 10
141.886257422
 20
197.0619090692
 30
0.0
 40
14.72500000000006
100
AcDbArc
 50
4.8870148383
 51
24.0540459638
  0
SPLINE
  5
113
330
1F
100
AcDbEntity
  8
0
  6
Continuous
 62
     7
370
    25
100
AcDbSpline
210
0.0
220
0.0
230
1.0
 70
     8
 71
     3
 72
     9
 73
     5
 74
     0
 42
0.00000001
 43
0.00000001
 40
0.0
 40
0.0
 40
0.0
 40
0.0
 40
0.5862283062032889
 40
1.0
 40
1.0
 40
1.0
 40
1.0
 10
156.3472309954024
 20
196.6250761601154
 30
0.0
 10
156.3943257060638
 20
196.9545049140954
 30
0.0
 10
156.4746608078715
 20
197.5164510884682
 30
0.0
 10
156.5334155389374
 20
198.0822405709762
 30
0.0
 10
156.5577265835292
 20
198.3163482434859
 30
0.0
  0
SPLINE
  5
114
330
1F
100
AcDbEntity
  8
0
  6
Continuous
 62
     7
370
    25
100
AcDbSpline
210
0.0
220
0.0
230
1.0
 70
     8
 71
     3
 72
     9
 73
     5
 74
     0
 42
0.00000001
 43
0.00000001
 40
0.0
 40
0.0
 40
0.0
 40
0.0
 40
0.5862283062032906
 40
1.0
 40
1.0
 40
1.0
 40
1.0
 10
149.4950526051844
 20
209.3670630926975
 30
0.0
 10
149.2333062908313
 20
209.5725626855042
 30
0.0
 10
148.7868141791689
 20
209.9231080116717
 30
0.0
 10
148.3262034796559
 20
210.2568858426212
 30
0.0
 10
148.1356158103375
 20
210.3949936610851
 30
0.0
  0
SPLINE
  5
115
330
1F
100
AcDbEntity
  8
0
  6
Continuous
 62
     7
370
    25
100
AcDbSpline
210
0.0
220
0.0
230
1.0
 70
     8
 71
     3
 72
     9
 73
     5
 74
     0
 42
0.00000001
 43
0.00000001
 40
0.0
 40
0.0
 40
0.0
 40
0.0
 40
0.5863847898283605
 40
1.0
 40
1.0
 40
1.0
 40
1.0
 10
143.4116246524368
 20
211.7076893424634
 30
0.0
 10
143.0793276936982
 20
211.6786869933293
 30
0.0
 10
142.5126401456874
 20
211.6292274070011
 30
0.0
 10
141.9496235081282
 20
211.557962304431
 30
0.0
 10
141.716751263254
 20
211.5284859740536
 30
0.0
  0
ARC
  5
116
330
1F
100
AcDbEntity
  8
0
  6
Continuous
 62
     7
370
    25
100
AcDbCircle
 10
141.886257422
 20
197.0619090692
 30
0.0
 40
14.72500000000005
100
AcDbArc
 50
64.8870148383
 51
84.0540459638
  0
SPLINE
  5
117
330
1F
100
AcDbEntity
  8
0
  6
Continuous
 62
     7
370
    25
100
AcDbSpline
210
0.0
220
0.0
230
1.0
 70
    24
 71
     3
 72
    12
 73
     8
 74
     0
 42
0.00000001
 43
0.00000001
 40
0.0
 40
0.0
 40
0.0
 40
0.0
 40
0.3013828945620896
 40
0.4108442493795673
 40
0.6247185195336444
 40
0.6986171054378644
 40
1.0
 40
1.0
 40
1.0
 40
1.0
 10
149.7164702213058
 20
209.4983813327684
 30
0.0
 10
150.192233116993
 20
209.0137431296129
 30
0.0
 10
150.8407916559415
 20
208.3530857983949
 30
0.0
 10
151.8317090592604
 20
207.3436829337047
 30
0.0
 10
152.4629773997563
 20
206.7006383477978
 30
0.0
 10
153.3971578934433
 20
205.7490308139034
 30
0.0
 10
153.9895633660587
 20
205.1455740786462
 30
0.0
 10
154.4653152626603
 20
204.6609470797631
 30
0.0
  0
ARC
  5
118
330
1F
100
AcDbEntity
  8
0
  6
Continuous
 62
     7
370
    25
100
AcDbCircle
 10
154.085238317
 20
204.7446302146
 30
0.0
 40
0.3891803587967506
100
AcDbArc
 50
308.956441591
 51
347.5830620402
  0
ARC
  5
119
330
1F
100
AcDbEntity
  8
0
  6
Continuous
 62
     7
370
    25
100
AcDbCircle
 10
149.7931148913
 20
209.1168227577
 30
0.0
 40
0.3891803587989002
100
AcDbArc
 50
101.357998762
 51
139.984619211
  0
ARC
  5
11A
330
1F
100
AcDbEntity
  8
0
  6
Continuous
 62
     7
370
    25
100
AcDbCircle
 10
156.2795476512
 20
196.2418264809
 30
0.0
 40
0.3891803588384979
100
AcDbArc
 50
41.3579987641
 51
79.9846192089
  0
LINE
  5
11B
330
1F
100
AcDbEntity
  8
0
  6
Continuous
 62
     7
370
    25
100
AcDbLine
 10
156.5716647353
 20
196.4989819997
 30
0.0
 11
156.4003429894
 21
195.8824473187
 31
0.0
  0
SPLINE
  5
11C
330
1F
100
AcDbEntity
  8
0
  6
Continuous
 62
     7
370
    25
100
AcDbSpline
210
0.0
220
0.0
230
1.0
 70
    24
 71
     3
 72
    12
 73
     8
 74
     0
 42
0.00000001
 43
0.00000001
 40
0.0
 40
0.0
 40
0.0
 40
0.0
 40
0.3013828945620988
 40
0.4108442493795587
 40
0.6247185195336517
 40
0.6986171054378599
 40
1.0
 40
1.0
 40
1.0
 40
1.0
 10
135.031062907949
 20
210.061308402239
 30
0.0
 10
135.6886533513698
 20
210.2310120545044
 30
0.0
 10
136.5850786528751
 20
210.4623515594661
 30
0.0
 10
137.9547058780092
 20
210.8158097714472
 30
0.0
 10
138.8272329954185
 20
211.0409818979682
 30
0.0
 10
140.1184395410472
 20
211.3742021702737
 30
0.0
 10
140.9372511401724
 20
211.5855119912711
 30
0.0
 10
141.5948263808658
 20
211.7552117201851
 30
0.0
  0
ARC
  5
11D
330
1F
100
AcDbEntity
  8
0
  6
Continuous
 62
     7
370
    25
100
AcDbCircle
 10
141.3323161874
 20
211.4678969973
 30
0.0
 40
0.3891803587963685
100
AcDbArc
 50
8.956441591
 51
47.5830620402
  0
ARC
  5
11E
330
1F
100
AcDbEntity
  8
0
  6
Continuous
 62
     7
370
    25
100
AcDbCircle
 10
135.399824662
 20
209.936905346
 30
0.0
 40
0.3891803587983827
100
AcDbArc
 50
161.357998762
 51
199.984619211
  0
SPLINE
  5
11F
330
1F
100
AcDbEntity
  8
0
  6
Continuous
 62
     7
370
    25
100
AcDbSpline
210
0.0
220
0.0
230
1.0
 70
    24
 71
     3
 72
    12
 73
     8
 74
     0
 42
0.00000001
 43
0.00000001
 40
0.0
 40
0.0
 40
0.0
 40
0.0
 40
0.3013828945621544
 40
0.4108442493795548
 40
0.6247185195336478
 40
0.69861710543786
 40
1.0
 40
1.0
 40
1.0
 40
1.0
 10
127.2008501086311
 20
197.6248361386855
 30
0.0
 10
127.3826776563648
 20
198.2791779941066
 30
0.0
 10
127.6305444189216
 20
199.1711748302862
 30
0.0
 10
128.0092542407368
 20
200.5340359069577
 30
0.0
 10
128.2505130176501
 20
201.4022526193853
 30
0.0
 10
128.6075390695919
 20
202.6870804255853
 30
0.0
 10
128.8339451961017
 20
203.5018469818397
 30
0.0
 10
129.0157685401935
 20
204.1561737096368
 30
0.0
  0
ARC
  5
120
330
1F
100
AcDbEntity
  8
0
  6
Continuous
 62
     7
370
    25
100
AcDbCircle
 10
129.1333352923
 20
203.7851758519
 30
0.0
 40
0.3891803587962795
100
AcDbArc
 50
68.956441591
 51
107.5830620402
  0
ARC
  5
121
330
1F
100
AcDbEntity
  8
0
  6
Continuous
 62
     7
370
    25
100
AcDbCircle
 10
127.4929671927
 20
197.8819916575
 30
0.0
 40
0.3891803587982889
100
AcDbArc
 50
221.357998762
 51
259.984619211
  0
LINE
  5
122
330
1F
100
AcDbEntity
  8
0
  6
Continuous
 62
     7
370
    25
100
AcDbLine
 10
154.4653152627
 20
204.6609470798
 30
0.0
 11
155.6893642429
 21
203.4140635928
 31
0.0
  0
LINE
  5
123
330
1F
100
AcDbEntity
  8
0
  6
Continuous
 62
     7
370
    25
100
AcDbLine
 10
155.6893642429
 20
203.4140635928
 30
0.0
 11
155.3325588121
 21
203.0637924342
 31
0.0
  0
LINE
  5
124
330
1F
100
AcDbEntity
  8
0
  6
Continuous
 62
     7
370
    25
100
AcDbLine
 10
129.0157685402
 20
204.1561737096
 30
0.0
 11
129.4835768254
 21
205.8396729654
 31
0.0
  0
LINE
  5
125
330
1F
100
AcDbEntity
  8
0
  6
Continuous
 62
     7
370
    25
100
AcDbLine
 10
129.4835768254
 20
205.8396729654
 30
0.0
 11
129.9653232623
 21
205.7058059775
 31
0.0
  0
LINE
  5
126
330
1F
100
AcDbEntity
  8
0
  6
Continuous
 62
     7
370
    25
100
AcDbLine
 10
141.5948263809
 20
211.7552117202
 30
0.0
 11
143.2866836462
 21
212.191827489
 31
0.0
  0
LINE
  5
127
330
1F
100
AcDbEntity
  8
0
  6
Continuous
 62
     7
370
    25
100
AcDbLine
 10
143.2866836462
 20
212.191827489
 30
0.0
 11
143.4116246524
 21
211.7076893425
 31
0.0
  0
LINE
  5
128
330
1F
100
AcDbEntity
  8
0
  6
Continuous
 62
     7
370
    25
100
AcDbLine
 10
126.7330418235
 20
195.9413368829
 30
0.0
 11
127.2008501086
 21
197.6248361387
 31
0.0
  0
LINE
  5
129
330
1F
100
AcDbEntity
  8
0
  6
Continuous
 62
     7
370
    25
100
AcDbLine
 10
127.2147882604
 20
195.8074698949
 30
0.0
 11
126.7330418235
 21
195.9413368829
 31
0.0
  0
LINE
  5
12A
330
1F
100
AcDbEntity
  8
0
  6
Continuous
 62
     7
370
    25
100
AcDbLine
 10
148.4924212411
 20
210.7452648197
 30
0.0
 11
149.7164702213
 21
209.4983813328
 31
0.0
  0
LINE
  5
12B
330
1F
100
AcDbEntity
  8
0
  6
Continuous
 62
     7
370
    25
100
AcDbLine
 10
148.4924212411
 20
210.7452648197
 30
0.0
 11
148.1356158103
 21
210.3949936611
 31
0.0
  0
LINE
  5
12C
330
1F
100
AcDbEntity
  8
0
  6
Continuous
 62
     7
370
    25
100
AcDbLine
 10
133.3392056426
 20
209.6246926334
 30
0.0
 11
135.0310629079
 21
210.0613084022
 31
0.0
  0
LINE
  5
12D
330
1F
100
AcDbEntity
  8
0
  6
Continuous
 62
     7
370
    25
100
AcDbLine
 10
133.4641466488
 20
209.1405544868
 30
0.0
 11
133.3392056426
 21
209.6246926334
 31
0.0
  0
LINE
  5
12E
330
1F
100
AcDbEntity
  8
0
  6
Continuous
 62
     7
370
    25
100
AcDbLine
 10
156.5577265835
 20
198.3163482435
 30
0.0
 11
157.0394730205
 21
198.1824812556
 31
0.0
  0
LINE
  5
12F
330
1F
100
AcDbEntity
  8
0
  6
Continuous
 62
     7
370
    25
100
AcDbLine
 10
157.0394730205
 20
198.1824812556
 30
0.0
 11
156.5716647353
 21
196.4989819997
 31
0.0
  0
LINE
  5
130
330
1F
100
AcDbEntity
  8
0
  6
Continuous
 62
     7
370
    25
100
AcDbLine
 10
147.1467312759
 20
212.1160584916
 30
0.0
 11
148.4924212411
 21
210.7452648197
 31
0.0
  0
LINE
  5
131
330
1F
100
AcDbEntity
  8
0
  6
Continuous
 62
     7
370
    25
100
AcDbLine
 10
148.1356158103
 20
210.3949936611
 30
0.0
 11
146.7899258452
 21
211.765787333
 31
0.0
  0
LINE
  5
132
330
1F
100
AcDbEntity
  8
0
  6
Continuous
 62
     7
370
    25
100
AcDbLine
 10
147.1467312759
 20
212.1160584916
 30
0.0
 11
146.7899258452
 21
211.765787333
 31
0.0
  0
LINE
  5
133
330
1F
100
AcDbEntity
  8
0
  6
Continuous
 62
     7
370
    25
100
AcDbLine
 10
145.2716117782
 20
212.187694202
 30
0.0
 11
143.4116246524
 21
211.7076893425
 31
0.0
  0
ARC
  5
134
330
1F
100
AcDbEntity
  8
0
  6
Continuous
 62
     7
370
    25
100
AcDbCircle
 10
141.886257422
 20
197.0619090692
 30
0.0
 40
15.50000000000003
100
AcDbArc
 50
71.5567201596
 51
77.3843406425
  0
LINE
  5
135
330
1F
100
AcDbEntity
  8
0
  6
Continuous
 62
     7
370
    25
100
AcDbLine
 10
146.9481086975
 20
212.2401059867
 30
0.0
 11
146.7899258452
 21
211.765787333
 31
0.0
  0
ARC
  5
136
330
1F
100
AcDbEntity
  8
0
  6
Continuous
 62
     7
370
    25
100
AcDbCircle
 10
146.7899258452
 20
211.765787333
 30
0.0
 40
0.500000000000036
100
AcDbArc
 50
44.470530401
 51
71.5567201596
  0
ARC
  5
137
330
1F
100
AcDbEntity
  8
0
  6
Continuous
 62
     7
370
    25
100
AcDbCircle
 10
141.886257422
 20
197.0619090692
 30
0.0
 40
16.00000000000005
100
AcDbArc
 50
71.5567201596
 51
77.3843406425
  0
LINE
  5
138
330
1F
100
AcDbEntity
  8
0
  6
Continuous
 62
     7
370
    25
100
AcDbLine
 10
145.3808167575
 20
212.6756227547
 30
0.0
 11
145.2716117782
 21
212.187694202
 31
0.0
  0
LINE
  5
139
330
1F
100
AcDbEntity
  8
0
  6
Continuous
 62
     7
370
    25
100
AcDbLine
 10
145.146670772
 20
212.6718323486
 30
0.0
 11
145.2716117782
 21
212.187694202
 31
0.0
  0
ARC
  5
13A
330
1F
100
AcDbEntity
  8
0
  6
Continuous
 62
     7
370
    25
100
AcDbCircle
 10
145.2716117782
 20
212.187694202
 30
0.0
 40
0.5000000000000301
100
AcDbArc
 50
77.3843406425
 51
104.470530401
  0
ARC
  5
13B
330
1F
100
AcDbEntity
  8
0
  6
Continuous
 62
     7
370
    25
100
AcDbCircle
 10
141.886257422
 20
197.0619090692
 30
0.0
 40
16.00000000000002
100
AcDbArc
 50
131.5567201596
 51
137.3843406425
  0
LINE
  5
13C
330
1F
100
AcDbEntity
  8
0
  6
Continuous
 62
     7
370
    25
100
AcDbLine
 10
131.2724789456
 20
209.0346993227
 30
0.0
 11
131.604159523
 21
208.6605496273
 31
0.0
  0
ARC
  5
13D
330
1F
100
AcDbEntity
  8
0
  6
Continuous
 62
     7
370
    25
100
AcDbCircle
 10
141.886257422
 20
197.0619090692
 30
0.0
 40
15.50000000000005
100
AcDbArc
 50
131.5567201596
 51
137.3843406425
  0
LINE
  5
13E
330
1F
100
AcDbEntity
  8
0
  6
Continuous
 62
     7
370
    25
100
AcDbLine
 10
130.1116643907
 20
207.8951430715
 30
0.0
 11
130.479620423
 21
207.5566045089
 31
0.0
  0
LINE
  5
13F
330
1F
100
AcDbEntity
  8
0
  6
Continuous
 62
     7
370
    25
100
AcDbLine
 10
129.4835768254
 20
205.8396729654
 30
0.0
 11
129.997873986
 21
207.6904714969
 31
0.0
  0
LINE
  5
140
330
1F
100
AcDbEntity
  8
0
  6
Continuous
 62
     7
370
    25
100
AcDbLine
 10
129.997873986
 20
207.6904714969
 30
0.0
 11
130.479620423
 21
207.5566045089
 31
0.0
  0
LINE
  5
141
330
1F
100
AcDbEntity
  8
0
  6
Continuous
 62
     7
370
    25
100
AcDbLine
 10
130.479620423
 20
207.5566045089
 30
0.0
 11
129.9653232623
 21
205.7058059775
 31
0.0
  0
LINE
  5
142
330
1F
100
AcDbEntity
  8
0
  6
Continuous
 62
     7
370
    25
100
AcDbLine
 10
143.2866836462
 20
212.191827489
 30
0.0
 11
145.146670772
 21
212.6718323486
 31
0.0
  0
ARC
  5
143
330
1F
100
AcDbEntity
  8
0
  6
Continuous
 62
     7
370
    25
100
AcDbCircle
 10
130.479620423
 20
207.5566045089
 30
0.0
 40
0.500000000000023
100
AcDbArc
 50
137.3843406425
 51
164.4705304011
  0
LINE
  5
144
330
1F
100
AcDbEntity
  8
0
  6
Continuous
 62
     7
370
    25
100
AcDbLine
 10
133.4641466488
 20
209.1405544868
 30
0.0
 11
131.604159523
 21
208.6605496273
 31
0.0
  0
LINE
  5
145
330
1F
100
AcDbEntity
  8
0
  6
Continuous
 62
     7
370
    25
100
AcDbLine
 10
127.2147882604
 20
195.8074698949
 30
0.0
 11
126.7004910998
 21
193.9566713635
 31
0.0
  0
LINE
  5
146
330
1F
100
AcDbEntity
  8
0
  6
Continuous
 62
     7
370
    25
100
AcDbLine
 10
126.7004910998
 20
193.9566713635
 30
0.0
 11
126.2187446629
 21
194.0905383515
 31
0.0
  0
LINE
  5
147
330
1F
100
AcDbEntity
  8
0
  6
Continuous
 62
     7
370
    25
100
AcDbLine
 10
126.2187446629
 20
194.0905383515
 30
0.0
 11
126.7330418235
 21
195.9413368829
 31
0.0
  0
LINE
  5
148
330
1F
100
AcDbEntity
  8
0
  6
Continuous
 62
     7
370
    25
100
AcDbLine
 10
127.648292759
 20
191.1527246157
 30
0.0
 11
126.7374606359
 21
192.0805482175
 31
0.0
  0
LINE
  5
149
330
1F
100
AcDbEntity
  8
0
  6
Continuous
 62
     7
370
    25
100
AcDbLine
 10
126.7374606359
 20
192.0805482175
 30
0.0
 11
127.0942660667
 21
192.4308193762
 31
0.0
  0
ARC
  5
14A
330
1F
100
AcDbEntity
  8
0
  6
Continuous
 62
     7
370
    25
100
AcDbCircle
 10
141.886257422
 20
197.0619090692
 30
0.0
 40
16.00000000000005
100
AcDbArc
 50
191.5567201596
 51
197.3843406425
  0
LINE
  5
14B
330
1F
100
AcDbEntity
  8
0
  6
Continuous
 62
     7
370
    25
100
AcDbLine
 10
126.2106276701
 20
193.8565024053
 30
0.0
 11
126.7004910998
 21
193.9566713635
 31
0.0
  0
ARC
  5
14C
330
1F
100
AcDbEntity
  8
0
  6
Continuous
 62
     7
370
    25
100
AcDbCircle
 10
141.886257422
 20
197.0619090692
 30
0.0
 40
15.50000000000003
100
AcDbArc
 50
191.5567201596
 51
197.3843406425
  0
LINE
  5
14D
330
1F
100
AcDbEntity
  8
0
  6
Continuous
 62
     7
370
    25
100
AcDbLine
 10
127.0942660667
 20
192.4308193762
 30
0.0
 11
126.6171050552
 21
192.2814293861
 31
0.0
  0
ARC
  5
14E
330
1F
100
AcDbEntity
  8
0
  6
Continuous
 62
     7
370
    25
100
AcDbCircle
 10
127.0942660667
 20
192.4308193762
 30
0.0
 40
0.4999999999999951
100
AcDbArc
 50
197.3843406425
 51
224.4705304011
  0
LINE
  5
14F
330
1F
100
AcDbEntity
  8
0
  6
Continuous
 62
     7
370
    25
100
AcDbLine
 10
156.5577265835
 20
198.3163482435
 30
0.0
 11
157.0720237441
 21
200.1671467749
 31
0.0
  0
LINE
  5
150
330
1F
100
AcDbEntity
  8
0
  6
Continuous
 62
     7
370
    25
100
AcDbLine
 10
157.0720237441
 20
200.1671467749
 30
0.0
 11
157.5537701811
 21
200.033279787
 31
0.0
  0
LINE
  5
151
330
1F
100
AcDbEntity
  8
0
  6
Continuous
 62
     7
370
    25
100
AcDbLine
 10
157.5537701811
 20
200.033279787
 30
0.0
 11
157.0394730205
 21
198.1824812556
 31
0.0
  0
ARC
  5
152
330
1F
100
AcDbEntity
  8
0
  6
Continuous
 62
     7
370
    25
100
AcDbCircle
 10
126.7004910998
 20
193.9566713635
 30
0.0
 40
0.5000000000000382
100
AcDbArc
 50
164.4705304011
 51
191.5567201596
  0
ARC
  5
153
330
1F
100
AcDbEntity
  8
0
  6
Continuous
 62
     7
370
    25
100
AcDbCircle
 10
131.604159523
 20
208.6605496273
 30
0.0
 40
0.4999999999999603
100
AcDbArc
 50
104.470530401
 51
131.5567201596
  0
LINE
  5
154
330
1F
100
AcDbEntity
  8
0
  6
Continuous
 62
     7
370
    25
100
AcDbLine
 10
131.604159523
 20
208.6605496273
 30
0.0
 11
131.4792185168
 21
209.1446877739
 31
0.0
  0
LINE
  5
155
330
1F
100
AcDbEntity
  8
0
  6
Continuous
 62
     7
370
    25
100
AcDbLine
 10
131.4792185168
 20
209.1446877739
 30
0.0
 11
133.3392056426
 21
209.6246926334
 31
0.0
  0
LINE
  5
156
330
1F
100
AcDbEntity
  8
0
  6
Continuous
 62
     7
370
    25
100
AcDbLine
 10
156.6782487773
 20
201.6929987623
 30
0.0
 11
155.3325588121
 21
203.0637924342
 31
0.0
  0
ARC
  5
157
330
1F
100
AcDbEntity
  8
0
  6
Continuous
 62
     7
370
    25
100
AcDbCircle
 10
141.886257422
 20
197.0619090692
 30
0.0
 40
15.50000000000001
100
AcDbArc
 50
11.5567201596
 51
17.3843406425
  0
LINE
  5
158
330
1F
100
AcDbEntity
  8
0
  6
Continuous
 62
     7
370
    25
100
AcDbLine
 10
157.1554097887
 20
201.8423887524
 30
0.0
 11
156.6782487773
 21
201.6929987623
 31
0.0
  0
ARC
  5
159
330
1F
100
AcDbEntity
  8
0
  6
Continuous
 62
     7
370
    25
100
AcDbCircle
 10
141.886257422
 20
197.0619090692
 30
0.0
 40
16.00000000000005
100
AcDbArc
 50
11.5567201596
 51
17.3843406425
  0
LINE
  5
15A
330
1F
100
AcDbEntity
  8
0
  6
Continuous
 62
     7
370
    25
100
AcDbLine
 10
157.0720237441
 20
200.1671467749
 30
0.0
 11
157.5618871739
 21
200.2673157331
 31
0.0
  0
ARC
  5
15B
330
1F
100
AcDbEntity
  8
0
  6
Continuous
 62
     7
370
    25
100
AcDbCircle
 10
157.0720237441
 20
200.1671467749
 30
0.0
 40
0.5000000000000242
100
AcDbArc
 50
344.4705304011
 51
11.5567201596
  0
LINE
  5
15C
330
1F
100
AcDbEntity
  8
0
  6
Continuous
 62
     7
370
    25
100
AcDbLine
 10
157.035054208
 20
202.0432699209
 30
0.0
 11
156.6782487773
 21
201.6929987623
 31
0.0
  0
ARC
  5
15D
330
1F
100
AcDbEntity
  8
0
  6
Continuous
 62
     7
370
    25
100
AcDbCircle
 10
156.6782487773
 20
201.6929987623
 30
0.0
 40
0.5000000000000352
100
AcDbArc
 50
17.3843406425
 51
44.470530401
  0
LINE
  5
15E
330
1F
100
AcDbEntity
  8
0
  6
Continuous
 62
     7
370
    25
100
AcDbLine
 10
155.6893642429
 20
203.4140635928
 30
0.0
 11
157.035054208
 21
202.0432699209
 31
0.0
  0
ARC
  5
15F
330
1F
100
AcDbEntity
  8
0
  6
Continuous
 62
     7
370
    25
100
AcDbCircle
 10
217.9976150814
 20
195.6885996276
 30
0.0
 40
7.434376658344519
100
AcDbArc
 50
356.0704737418
 51
3.9295262582
  0
ARC
  5
160
330
1F
100
AcDbEntity
  8
0
  6
Continuous
 62
     7
370
    25
100
AcDbCircle
 10
222.3737278565
 20
196.644250684
 30
0.0
 40
3.375347654720754
100
AcDbArc
 50
334.2741059287
 51
346.2044345254
  0
SPLINE
  5
161
330
1F
100
AcDbEntity
  8
0
  6
Continuous
 62
     7
370
    25
100
AcDbSpline
210
0.0
220
0.0
230
1.0
 70
     8
 71
     3
 72
    11
 73
     7
 74
     0
 42
0.00000001
 43
0.00000001
 40
0.0
 40
0.0
 40
0.0
 40
0.0
 40
0.2320800605672912
 40
0.5155071785497726
 40
0.7978344378324665
 40
0.9999999999999999
 40
0.9999999999999999
 40
0.9999999999999999
 40
0.9999999999999999
 10
225.6802972618242
 20
195.8088793754921
 30
0.0
 10
225.6845071331615
 20
195.8461588888071
 30
0.0
 10
225.6938582979701
 20
195.9289659023857
 30
0.0
 10
225.6903704195482
 20
195.9645188225979
 30
0.0
 10
225.6755947545445
 20
195.9334012083042
 30
0.0
 10
225.6587392961312
 20
195.8670553481254
 30
0.0
 10
225.6517059757705
 20
195.8393710408938
 30
0.0
  0
ARC
  5
162
330
1F
100
AcDbEntity
  8
0
  6
Continuous
 62
     7
370
    25
100
AcDbCircle
 10
217.9926964805
 20
197.389430433
 30
0.0
 40
7.74589494391506
100
AcDbArc
 50
349.3094308211
 51
351.4102179214
  0
SPLINE
  5
163
330
1F
100
AcDbEntity
  8
0
  6
Continuous
 62
     7
370
    25
100
AcDbSpline
210
0.0
220
0.0
230
1.0
 70
     8
 71
     3
 72
    10
 73
     6
 74
     0
 42
0.00000001
 43
0.00000001
 40
0.0
 40
0.0
 40
0.0
 40
0.0
 40
0.369084201918026
 40
0.7367361468476975
 40
1.0
 40
1.0
 40
1.0
 40
1.0
 10
225.6905748406305
 20
196.8815952082767
 30
0.0
 10
225.6908209560569
 20
196.8005318832955
 30
0.0
 10
225.6913122318415
 20
196.6387198052198
 30
0.0
 10
225.6754357193718
 20
196.4094388460119
 30
0.0
 10
225.6586924730881
 20
196.2846021585786
 30
0.0
 10
225.6517059757705
 20
196.2325112338492
 30
0.0
  0
SPLINE
  5
164
330
1F
100
AcDbEntity
  8
0
  6
Continuous
 62
     7
370
    25
100
AcDbSpline
210
0.0
220
0.0
230
1.0
 70
     8
 71
     3
 72
    11
 73
     7
 74
     0
 42
0.00000001
 43
0.00000001
 40
0.0
 40
0.0
 40
0.0
 40
0.0
 40
0.3307540669562893
 40
0.6616399873463896
 40
0.9896169167736562
 40
1.0
 40
1.0
 40
1.0
 40
1.0
 10
225.6517059757705
 20
198.5251420314608
 30
0.0
 10
225.6614543125747
 20
198.4580046385468
 30
0.0
 10
225.6809548723083
 20
198.3237030887372
 30
0.0
 10
225.6919332937228
 20
198.2087142991276
 30
0.0
 10
225.6937566497203
 20
198.1585435108753
 30
0.0
 10
225.6879013326061
 20
198.1721283252625
 30
0.0
 10
225.68772165344
 20
198.1725451956169
 30
0.0
  0
ARC
  5
165
330
1F
100
AcDbEntity
  8
0
  6
Continuous
 62
     7
370
    25
100
AcDbCircle
 10
217.9297767204
 20
197.3567268333
 30
0.0
 40
7.809826214503861
100
AcDbArc
 50
8.6042304424
 51
16.5896030164
  0
ARC
  5
166
330
1F
100
AcDbEntity
  8
0
  6
Continuous
 62
     7
370
    25
100
AcDbCircle
 10
222.5490456301
 20
199.2696276151
 30
0.0
 40
2.882940696893888
100
AcDbArc
 50
353.6888017346
 51
6.3111982654
  0
ARC
  5
167
330
1F
100
AcDbEntity
  8
0
  6
Continuous
 62
     7
370
    25
100
AcDbCircle
 10
217.9297767204
 20
196.7228917064
 30
0.0
 40
7.809826214505071
100
AcDbArc
 50
8.6042304424
 51
16.5896030164
  0
SPLINE
  5
168
330
1F
100
AcDbEntity
  8
0
  6
Continuous
 62
     7
370
    25
100
AcDbSpline
210
0.0
220
0.0
230
1.0
 70
     8
 71
     3
 72
    12
 73
     8
 74
     0
 42
0.00000001
 43
0.00000001
 40
0.0
 40
0.0
 40
0.0
 40
0.0
 40
0.213353439547615
 40
0.4267919313634486
 40
0.638353973909168
 40
0.8490950351927649
 40
1.0
 40
1.0
 40
1.0
 40
1.0
 10
225.6517059757705
 20
196.8583180620545
 30
0.0
 10
225.6613651194978
 20
196.9092983590189
 30
0.0
 10
225.6806872575213
 20
197.0112792759849
 30
0.0
 10
225.6930003275294
 20
197.2376881084976
 30
0.0
 10
225.6906628872326
 20
197.4861189781946
 30
0.0
 10
225.6755453682188
 20
197.714206945494
 30
0.0
 10
225.6587247558379
 20
197.8391652375698
 30
0.0
 10
225.6517059757705
 20
197.8913069045802
 30
0.0
  0
ARC
  5
169
330
1F
100
AcDbEntity
  8
0
  6
Continuous
 62
     7
370
    25
100
AcDbCircle
 10
222.3737278565
 20
197.6631977052
 30
0.0
 40
3.375347654719844
100
AcDbArc
 50
334.2741059287
 51
346.2044345254
  0
LINE
  5
16A
330
1F
100
AcDbEntity
  8
0
  6
Continuous
 62
     7
370
    25
100
AcDbLine
 10
223.0911844365
 20
204.2119090692
 30
0.0
 11
223.0911844365
 21
189.9119213019
 31
0.0
  0
LINE
  5
16B
330
1F
100
AcDbEntity
  8
0
  6
Continuous
 62
     7
370
    25
100
AcDbLine
 10
224.9911844365
 20
202.3908142888
 30
0.0
 11
224.9911844365
 21
191.7329947326
 31
0.0
  0
LWPOLYLINE
  5
16C
330
1F
100
AcDbEntity
  8
0
  6
Continuous
 62
     7
370
    25
100
AcDbPolyline
 90
        3
 70
   128
 43
0.0
 10
208.7449836252
 20
189.0167281887
 10
214.736457422
 20
189.0777085296
 10
218.2243013791
 20
189.1134551357
  0
LINE
  5
16D
330
1F
100
AcDbEntity
  8
0
  6
Continuous
 62
     7
370
    25
100
AcDbLine
 10
208.7449836252
 20
205.4977125318
 30
0.0
 11
208.7449836252
 21
189.0167281887
 31
0.0
  0
LWPOLYLINE
  5
16E
330
1F
100
AcDbEntity
  8
0
  6
Continuous
 62
     7
370
    25
100
AcDbPolyline
 90
        3
 70
   128
 43
0.0
 10
217.2908811653
 20
205.3957633003
 10
214.736457422
 20
205.4263510868
 10
208.7449836083
 20
205.4977122767
  0
SPLINE
  5
16F
330
1F
100
AcDbEntity
  8
0
  6
Continuous
 62
     7
370
    25
100
AcDbSpline
210
0.0
220
0.0
230
1.0
 70
     8
 71
     3
 72
    11
 73
     7
 74
     0
 42
0.00000001
 43
0.00000001
 40
0.0
 40
0.0
 40
0.0
 40
0.0
 40
0.2499999999999946
 40
0.5000000000000026
 40
0.7499999999999994
 40
1.0
 40
1.0
 40
1.0
 40
1.0
 10
208.7449836252066
 20
189.0167266513946
 30
0.0
 10
208.6786125724692
 20
189.0224722012183
 30
0.0
 10
208.5458704669945
 20
189.0339633008657
 30
0.0
 10
208.3774067262138
 20
189.1352937198625
 30
0.0
 10
208.2593193671787
 20
189.2817294102069
 30
0.0
 10
208.2439447370515
 20
189.3983072913871
 30
0.0
 10
208.236257421988
 20
189.4565962319772
 30
0.0
  0
LINE
  5
170
330
1F
100
AcDbEntity
  8
0
  6
Continuous
 62
     7
370
    25
100
AcDbLine
 10
208.236257422
 20
189.4566565546
 30
0.0
 11
208.236257422
 21
205.0363619029
 31
0.0
  0
SPLINE
  5
171
330
1F
100
AcDbEntity
  8
0
  6
Continuous
 62
     7
370
    25
100
AcDbSpline
210
0.0
220
0.0
230
1.0
 70
     8
 71
     3
 72
    11
 73
     7
 74
     0
 42
0.00000001
 43
0.00000001
 40
0.0
 40
0.0
 40
0.0
 40
0.0
 40
0.2499999999999889
 40
0.4999999999999988
 40
0.7499999999999931
 40
1.0
 40
1.0
 40
1.0
 40
1.0
 10
208.7449836252066
 20
205.4977122765381
 30
0.0
 10
208.6786125724692
 20
205.4916861458969
 30
0.0
 10
208.5458704669945
 20
205.4796338846145
 30
0.0
 10
208.3774067262138
 20
205.3733550494215
 30
0.0
 10
208.2593193671787
 20
205.219768251355
 30
0.0
 10
208.2439447370515
 20
205.0974973524112
 30
0.0
 10
208.236257421988
 20
205.0363619029393
 30
0.0
  0
LINE
  5
172
330
1F
100
AcDbEntity
  8
0
  6
Continuous
 62
     7
370
    25
100
AcDbLine
 10
223.086257422
 20
205.4613527235
 30
0.0
 11
223.086257422
 21
188.662465415
 31
0.0
  0
SPLINE
  5
173
330
1F
100
AcDbEntity
  8
0
  6
Continuous
 62
     7
370
    25
100
AcDbSpline
210
0.0
220
0.0
230
1.0
 70
     8
 71
     3
 72
    12
 73
     8
 74
     0
 42
0.00000001
 43
0.00000001
 40
0.0
 40
0.0
 40
0.0
 40
0.0
 40
0.1662426524176533
 40
0.3368059756191276
 40
0.6054181071254571
 40
0.8801435087136182
 40
1.0
 40
1.0
 40
1.0
 40
1.0
 10
212.8274914519318
 20
185.0957981656236
 30
0.0
 10
212.926948159207
 20
185.2827401157015
 30
0.0
 10
213.128446468086
 20
185.6614826644064
 30
0.0
 10
213.9506942241085
 20
186.4320328010348
 30
0.0
 10
215.3125233910951
 20
187.4004032395053
 30
0.0
 10
216.873629579754
 20
188.3395439142692
 30
0.0
 10
217.8438692719155
 20
188.9320162724127
 30
0.0
 10
218.1385850896184
 20
189.1119831165929
 30
0.0
  0
LINE
  5
174
330
1F
100
AcDbEntity
  8
0
  6
Continuous
 62
     7
370
    25
100
AcDbLine
 10
212.8274914519
 20
185.0957981656
 30
0.0
 11
208.7449836252
 21
185.0271972922
 31
0.0
  0
LINE
  5
175
330
1F
100
AcDbEntity
  8
0
  6
Continuous
 62
     7
370
    25
100
AcDbLine
 10
208.7449836252
 20
189.0167269666
 30
0.0
 11
208.7449836252
 21
185.0271972922
 31
0.0
  0
LWPOLYLINE
  5
176
330
1F
100
AcDbEntity
  8
0
  6
Continuous
 62
     7
370
    25
100
AcDbPolyline
 90
        3
 70
   128
 43
0.0
 10
218.1385850896
 20
189.1119831166
 10
214.736257422
 20
189.0774530978
 10
208.7449836421
 20
189.0167266516
  0
ARC
  5
177
330
1F
100
AcDbEntity
  8
0
  6
Continuous
 62
     7
370
    25
100
AcDbCircle
 10
208.7274732856
 20
185.5181974659
 30
0.0
 40
0.4913123065720407
100
AcDbArc
 50
181.1352754124
 51
272.0424505137
  0
LINE
  5
178
330
1F
100
AcDbEntity
  8
0
  6
Continuous
 62
     7
370
    25
100
AcDbLine
 10
208.236257422
 20
185.5084630965
 30
0.0
 11
208.236257422
 21
189.4566553315
 31
0.0
  0
LINE
  5
179
330
1F
100
AcDbEntity
  8
0
  6
Continuous
 62
     7
370
    25
100
AcDbLine
 10
218.1385850896
 20
189.1119831166
 30
0.0
 11
218.179695046
 21
189.1126881552
 31
0.0
  0
LINE
  5
17A
330
1F
100
AcDbEntity
  8
0
  6
Continuous
 62
     7
370
    25
100
AcDbLine
 10
218.2243013791
 20
189.1134551357
 30
0.0
 11
218.179695046
 21
189.1126881552
 31
0.0
  0
LINE
  5
17B
330
1F
100
AcDbEntity
  8
0
  6
Continuous
 62
     7
370
    25
100
AcDbLine
 10
212.7711622349
 20
208.384569226
 30
0.0
 11
212.7711622349
 21
208.4213077769
 31
0.0
  0
SPLINE
  5
17C
330
1F
100
AcDbEntity
  8
0
  6
Continuous
 62
     7
370
    25
100
AcDbSpline
210
0.0
220
0.0
230
1.0
 70
     8
 71
     3
 72
    13
 73
     9
 74
     0
 42
0.00000001
 43
0.00000001
 40
0.0
 40
0.0
 40
0.0
 40
0.0
 40
0.0460329529079878
 40
0.2492425848193731
 40
0.4775225570272896
 40
0.7051721168687856
 40
0.8526808263814669
 40
0.9999999999999999
 40
0.9999999999999999
 40
0.9999999999999999
 40
0.9999999999999999
 10
217.220171222005
 20
205.3970973296308
 30
0.0
 10
217.1181806876965
 20
205.4531599657056
 30
0.0
 10
216.565959229104
 20
205.756707651534
 30
0.0
 10
215.5248403046423
 20
206.3064428879776
 30
0.0
 10
214.2396398612617
 20
207.0162599551671
 30
0.0
 10
213.3470689611389
 20
207.6080502600905
 30
0.0
 10
212.8585265037473
 20
208.0651801259552
 30
0.0
 10
212.8002711742967
 20
208.2781518303209
 30
0.0
 10
212.7711622348625
 20
208.3845692259827
 30
0.0
  0
LWPOLYLINE
  5
17D
330
1F
100
AcDbEntity
  8
0
  6
Continuous
 62
     7
370
    25
100
AcDbPolyline
 90
        3
 70
   128
 43
0.0
 10
217.220171222
 20
205.3970973296
 10
214.736257422
 20
205.4266068651
 10
208.7449836252
 20
205.4977138139
  0
LINE
  5
17E
330
1F
100
AcDbEntity
  8
0
  6
Continuous
 62
     7
370
    25
100
AcDbLine
 10
208.7449836252
 20
208.4905144826
 30
0.0
 11
208.7449836252
 21
205.4977138139
 31
0.0
  0
LINE
  5
17F
330
1F
100
AcDbEntity
  8
0
  6
Continuous
 62
     7
370
    25
100
AcDbLine
 10
212.7711622349
 20
208.4213077769
 30
0.0
 11
208.7449836252
 21
208.4905144826
 31
0.0
  0
ARC
  5
180
330
1F
100
AcDbEntity
  8
0
  6
Continuous
 62
     7
370
    25
100
AcDbCircle
 10
208.7326318972
 20
207.9942781674
 30
0.0
 40
0.496390013658408
100
AcDbArc
 50
88.5741555685
 51
179.5466524836
  0
LINE
  5
181
330
1F
100
AcDbEntity
  8
0
  6
Continuous
 62
     7
370
    25
100
AcDbLine
 10
208.236257422
 20
205.0364110875
 30
0.0
 11
208.236257422
 21
207.9982057662
 31
0.0
  0
LINE
  5
182
330
1F
100
AcDbEntity
  8
0
  6
Continuous
 62
     7
370
    25
100
AcDbLine
 10
217.258347026
 20
205.3963778021
 30
0.0
 11
217.220171222
 21
205.3970973296
 31
0.0
  0
LINE
  5
183
330
1F
100
AcDbEntity
  8
0
  6
Continuous
 62
     7
370
    25
100
AcDbLine
 10
217.258347026
 20
205.3963778021
 30
0.0
 11
217.2908811653
 21
205.3957633003
 31
0.0
  0
LINE
  5
184
330
1F
100
AcDbEntity
  8
0
  6
Continuous
 62
     7
370
    25
100
AcDbLine
 10
212.7711622349
 20
184.8161557248
 30
0.0
 11
212.8274914519
 21
185.0957981656
 31
0.0
  0
LINE
  5
185
330
1F
100
AcDbEntity
  8
0
  6
Continuous
 62
     7
370
    25
100
AcDbLine
 10
208.236257422
 20
185.1912282257
 30
0.0
 11
208.236257422
 21
185.5084630965
 31
0.0
  0
LINE
  5
186
330
1F
100
AcDbEntity
  8
0
  6
Continuous
 62
     7
370
    25
100
AcDbLine
 10
208.236257422
 20
207.9982057662
 30
0.0
 11
208.236257422
 21
208.127682642
 31
0.0
  0
SPLINE
  5
187
330
1F
100
AcDbEntity
  8
0
  6
Continuous
 62
     7
370
    25
100
AcDbSpline
210
0.0
220
0.0
230
1.0
 70
     8
 71
     3
 72
    11
 73
     7
 74
     0
 42
0.00000001
 43
0.00000001
 40
0.0
 40
0.0
 40
0.0
 40
0.0
 40
0.2431641197380917
 40
0.4936284730588939
 40
0.7421706076863289
 40
1.0
 40
1.0
 40
1.0
 40
1.0
 10
198.286257421988
 20
186.7991427751711
 30
0.0
 10
198.4963977451967
 20
186.9915728234203
 30
0.0
 10
198.9229871901583
 20
187.3822100234737
 30
0.0
 10
199.1333716203013
 20
188.0018868996909
 30
0.0
 10
198.9426849266344
 20
188.6346383149968
 30
0.0
 10
198.5077257562396
 20
189.0358048121661
 30
0.0
 10
198.286257421988
 20
189.240066917515
 30
0.0
  0
LINE
  5
188
330
1F
100
AcDbEntity
  8
0
  6
Continuous
 62
     7
370
    25
100
AcDbLine
 10
198.286257422
 20
191.1727522123
 30
0.0
 11
198.286257422
 21
189.2400669175
 31
0.0
  0
SPLINE
  5
189
330
1F
100
AcDbEntity
  8
0
  6
Continuous
 62
     7
370
    25
100
AcDbSpline
210
0.0
220
0.0
230
1.0
 70
     8
 71
     3
 72
    11
 73
     7
 74
     0
 42
0.00000001
 43
0.00000001
 40
0.0
 40
0.0
 40
0.0
 40
0.0
 40
0.2431641197380908
 40
0.4936284730588918
 40
0.7421706076863277
 40
1.0
 40
1.0
 40
1.0
 40
1.0
 10
198.286257421988
 20
191.1727522123153
 30
0.0
 10
198.4963977451967
 20
191.7862313284039
 30
0.0
 10
198.9229871901584
 20
193.0316073306467
 30
0.0
 10
199.1333716203013
 20
195.0071762490197
 30
0.0
 10
198.9426849266344
 20
197.0244276216476
 30
0.0
 10
198.5077257562396
 20
198.3033716863968
 30
0.0
 10
198.286257421988
 20
198.9545721458883
 30
0.0
  0
LINE
  5
18A
330
1F
100
AcDbEntity
  8
0
  6
Continuous
 62
     7
370
    25
100
AcDbLine
 10
198.286257422
 20
201.4355185064
 30
0.0
 11
198.286257422
 21
198.9545721459
 31
0.0
  0
SPLINE
  5
18B
330
1F
100
AcDbEntity
  8
0
  6
Continuous
 62
     7
370
    25
100
AcDbSpline
210
0.0
220
0.0
230
1.0
 70
     8
 71
     3
 72
    13
 73
     9
 74
     0
 42
0.00000001
 43
0.00000001
 40
0.0
 40
0.0
 40
0.0
 40
0.0
 40
0.029086507871262
 40
0.2691317361521209
 40
0.5086847447945265
 40
0.7393528760311802
 40
0.9704551097945733
 40
1.0
 40
1.0
 40
1.0
 40
1.0
 10
198.286257421988
 20
201.4355185063589
 30
0.0
 10
198.3137552684316
 20
201.4851932141225
 30
0.0
 10
198.5681874328768
 20
201.9448235142752
 30
0.0
 10
198.9395325890983
 20
202.8417671041577
 30
0.0
 10
199.1343732239504
 20
204.1378307984474
 30
0.0
 10
198.9226256537562
 20
205.4154675418028
 30
0.0
 10
198.5605369698589
 20
206.2807992012726
 30
0.0
 10
198.3141822398038
 20
206.7259549710401
 30
0.0
 10
198.286257421988
 20
206.776414297588
 30
0.0
  0
LINE
  5
18C
330
1F
100
AcDbEntity
  8
0
  6
Continuous
 62
     7
370
    25
100
AcDbLine
 10
198.286257422
 20
207.3246753633
 30
0.0
 11
198.286257422
 21
206.7764142976
 31
0.0
  0
LINE
  5
18D
330
1F
100
AcDbEntity
  8
0
  6
Continuous
 62
     7
370
    25
100
AcDbLine
 10
198.286257422
 20
207.3246753633
 30
0.0
 11
198.5576562579
 21
207.042799243
 31
0.0
  0
LINE
  5
18E
330
1F
100
AcDbEntity
  8
0
  6
Continuous
 62
     7
370
    25
100
AcDbLine
 10
200.286257422
 20
205.3119090692
 30
0.0
 11
200.286257422
 21
188.8119090692
 31
0.0
  0
LINE
  5
18F
330
1F
100
AcDbEntity
  8
0
  6
Continuous
 62
     7
370
    25
100
AcDbLine
 10
195.736257422
 20
191.1727522123
 30
0.0
 11
195.486257422
 21
191.8579220137
 31
0.0
  0
LINE
  5
190
330
1F
100
AcDbEntity
  8
0
  6
Continuous
 62
     7
370
    25
100
AcDbLine
 10
195.486257422
 20
198.2694023445
 30
0.0
 11
195.736257422
 21
198.9545721459
 31
0.0
  0
LINE
  5
191
330
1F
100
AcDbEntity
  8
0
  6
Continuous
 62
     7
370
    25
100
AcDbLine
 10
198.286257422
 20
198.9545721459
 30
0.0
 11
195.736257422
 21
198.9545721459
 31
0.0
  0
LINE
  5
192
330
1F
100
AcDbEntity
  8
0
  6
Continuous
 62
     7
370
    25
100
AcDbLine
 10
195.736257422
 20
191.1727522123
 30
0.0
 11
198.286257422
 21
191.1727522123
 31
0.0
  0
LINE
  5
193
330
1F
100
AcDbEntity
  8
0
  6
Continuous
 62
     7
370
    25
100
AcDbLine
 10
195.486257422
 20
198.2694023445
 30
0.0
 11
195.486257422
 21
191.8579220137
 31
0.0
  0
SPLINE
  5
194
330
1F
100
AcDbEntity
  8
0
  6
Continuous
 62
     7
370
    25
100
AcDbSpline
210
0.0
220
0.0
230
1.0
 70
     8
 71
     3
 72
    27
 73
    23
 74
     0
 42
0.00000001
 43
0.00000001
 40
0.0
 40
0.0
 40
0.0
 40
0.0
 40
0.0325330446399549
 40
0.0929192696990593
 40
0.155491539076917
 40
0.2200774896150413
 40
0.286808596157239
 40
0.3432551430239442
 40
0.4086131449045318
 40
0.4508234967310984
 40
0.4799260268656576
 40
0.5138001925950767
 40
0.5476743442221779
 40
0.5781570289130482
 40
0.6095953475191549
 40
0.6618574976116315
 40
0.7275564512378703
 40
0.8113328522527482
 40
0.8799725123237444
 40
0.9334637947827115
 40
0.9811918675935916
 40
1.0
 40
1.0
 40
1.0
 40
1.0
 10
192.836257421988
 20
198.0710139261936
 30
0.0
 10
192.8403685428021
 20
197.8971374084138
 30
0.0
 10
192.8521105223162
 20
197.4005199159929
 30
0.0
 10
192.8707603534871
 20
196.5602591696157
 30
0.0
 10
192.895145804103
 20
195.5547427755369
 30
0.0
 10
192.9205930680683
 20
194.5326919163784
 30
0.0
 10
192.9452622386097
 20
193.5735233101028
 30
0.0
 10
192.9699213075884
 20
192.6511579402546
 30
0.0
 10
192.9912751752728
 20
191.8913578090297
 30
0.0
 10
193.0088384863988
 20
191.2967360563049
 30
0.0
 10
193.0219029270404
 20
190.8605987117901
 30
0.0
 10
193.0339946846825
 20
190.4775531856686
 30
0.0
 10
193.0462682458475
 20
190.1106181698636
 30
0.0
 10
193.0580860738722
 20
189.7739177799248
 30
0.0
 10
193.0728694654109
 20
189.3979498063226
 30
0.0
 10
193.0924653864341
 20
188.9526689969658
 30
0.0
 10
193.1191214315493
 20
188.445696753443
 30
0.0
 10
193.1477130857011
 20
188.0356931719861
 30
0.0
 10
193.1743251904949
 20
187.7861110240663
 30
0.0
 10
193.1958040996478
 20
187.6818596992889
 30
0.0
 10
193.2103800118802
 20
187.6473307699087
 30
0.0
 10
193.2188933111685
 20
187.6733001401044
 30
0.0
 10
193.2212998094007
 20
187.6806410359604
 30
0.0
  0
SPLINE
  5
195
330
1F
100
AcDbEntity
  8
0
  6
Continuous
 62
     7
370
    25
100
AcDbSpline
210
0.0
220
0.0
230
1.0
 70
     8
 71
     3
 72
     9
 73
     5
 74
     0
 42
0.00000001
 43
0.00000001
 40
0.0
 40
0.0
 40
0.0
 40
0.0
 40
0.3785182703643021
 40
1.0
 40
1.0
 40
1.0
 40
1.0
 10
192.836257421988
 20
187.7244792309201
 30
0.0
 10
192.8391995230055
 20
187.7080120524882
 30
0.0
 10
192.8469722020222
 20
187.6645077365247
 30
0.0
 10
192.8547345784482
 20
187.6737366874892
 30
0.0
 10
192.8595587535756
 20
187.6794723118974
 30
0.0
  0
SPLINE
  5
196
330
1F
100
AcDbEntity
  8
0
  6
Continuous
 62
     7
370
    25
100
AcDbSpline
210
0.0
220
0.0
230
1.0
 70
     8
 71
     3
 72
    19
 73
    15
 74
     0
 42
0.00000001
 43
0.00000001
 40
0.0
 40
0.0
 40
0.0
 40
0.0
 40
0.0117083078208046
 40
0.1136174738045699
 40
0.2146826074863852
 40
0.3151616029270887
 40
0.4172808026588149
 40
0.5171486676250663
 40
0.619028918219985
 40
0.7201495293643596
 40
0.7892014510358588
 40
0.8593891257586634
 40
0.9300346314238832
 40
1.0
 40
1.0
 40
1.0
 40
1.0
 10
192.9575233169382
 20
205.6469113945449
 30
0.0
 10
192.9601630822309
 20
205.6560764341289
 30
0.0
 10
192.985779376966
 20
205.745014021079
 30
0.0
 10
193.0379407171493
 20
205.1107539126145
 30
0.0
 10
193.1079481903935
 20
203.7382430392207
 30
0.0
 10
193.1762097620183
 20
201.6347247958576
 30
0.0
 10
193.2501289986777
 20
199.1152478999372
 30
0.0
 10
193.3163915448806
 20
196.3811006880173
 30
0.0
 10
193.3892489082635
 20
193.7208492819882
 30
0.0
 10
193.4527025058044
 20
191.6246823146871
 30
0.0
 10
193.5057962306695
 20
190.1407401341237
 30
0.0
 10
193.5559724317405
 20
189.1813042611831
 30
0.0
 10
193.6060143326841
 20
188.5226516641366
 30
0.0
 10
193.637472146165
 20
188.5155511401687
 30
0.0
 10
193.6531249719273
 20
188.5120180508597
 30
0.0
  0
SPLINE
  5
197
330
1F
100
AcDbEntity
  8
0
  6
Continuous
 62
     7
370
    25
100
AcDbSpline
210
0.0
220
0.0
230
1.0
 70
     8
 71
     3
 72
    27
 73
    23
 74
     0
 42
0.00000001
 43
0.00000001
 40
0.0
 40
0.0
 40
0.0
 40
0.0
 40
0.0151436181910954
 40
0.0478952108099447
 40
0.1018265553387761
 40
0.1557578997567095
 40
0.2096892441726297
 40
0.2633179399052671
 40
0.3166010242089368
 40
0.3698841080331789
 40
0.423167191858044
 40
0.4764502756799134
 40
0.529252100205425
 40
0.5818869257002746
 40
0.6345217508141898
 40
0.6871565759276631
 40
0.7397806675130872
 40
0.7917672369352942
 40
0.8437538056994793
 40
0.8957403742085732
 40
0.950094227561414
 40
1.0
 40
1.0
 40
1.0
 40
1.0
 10
193.5362684851735
 20
206.4001956206641
 30
0.0
 10
193.5383832803545
 20
206.4005945428044
 30
0.0
 10
193.5450718114395
 20
206.4018562267538
 30
0.0
 10
193.5599271583479
 20
206.2781901383148
 30
0.0
 10
193.5809090169946
 20
205.9578718133928
 30
0.0
 10
193.605259264805
 20
205.3345778618484
 30
0.0
 10
193.6291586039061
 20
204.4888746557668
 30
0.0
 10
193.6514604303328
 20
203.4443186634163
 30
0.0
 10
193.6751815708838
 20
202.2307184306421
 30
0.0
 10
193.6994571557772
 20
200.8808180422461
 30
0.0
 10
193.7237749098375
 20
199.4292223970722
 30
0.0
 10
193.7472423564051
 20
197.9205578435147
 30
0.0
 10
193.7696625607213
 20
196.3982475397632
 30
0.0
 10
193.7936852862733
 20
194.9043181067738
 30
0.0
 10
193.8179888984114
 20
193.4752544530546
 30
0.0
 10
193.8422641184046
 20
192.1491140326333
 30
0.0
 10
193.8651352426337
 20
190.9666952037466
 30
0.0
 10
193.888037462453
 20
189.9602891429499
 30
0.0
 10
193.912195683738
 20
189.1541259426554
 30
0.0
 10
193.9369087374629
 20
188.5653552622029
 30
0.0
 10
193.9609992522116
 20
188.2013780960263
 30
0.0
 10
193.9762322098902
 20
188.1824555300761
 30
0.0
 10
193.9835237430575
 20
188.1733978985807
 30
0.0
  0
SPLINE
  5
198
330
1F
100
AcDbEntity
  8
0
  6
Continuous
 62
     7
370
    25
100
AcDbSpline
210
0.0
220
0.0
230
1.0
 70
     8
 71
     3
 72
    19
 73
    15
 74
     0
 42
0.00000001
 43
0.00000001
 40
0.0
 40
0.0
 40
0.0
 40
0.0
 40
0.026450870425071
 40
0.128285605367895
 40
0.2292769260359143
 40
0.3296825344481173
 40
0.4317271505344776
 40
0.5251308679823076
 40
0.6199230129622969
 40
0.640449478692597
 40
0.7412663379329539
 40
0.8418385841445788
 40
0.9438353825262356
 40
1.0
 40
1.0
 40
1.0
 40
1.0
 10
193.1239008610324
 20
205.6179304825514
 30
0.0
 10
193.129853424372
 20
205.6419460628767
 30
0.0
 10
193.1587231053786
 20
205.7584206140267
 30
0.0
 10
193.2142741184663
 20
205.122445115179
 30
0.0
 10
193.2843542678337
 20
203.735096560028
 30
0.0
 10
193.3525846011005
 20
201.6357587406282
 30
0.0
 10
193.4249926266231
 20
199.1676299107703
 30
0.0
 10
193.4884084893907
 20
196.5636220580175
 30
0.0
 10
193.5381814191306
 20
194.7164910463212
 30
0.0
 10
193.5894815973801
 20
192.9341848163852
 30
0.0
 10
193.6403705985109
 20
191.2336125904944
 30
0.0
 10
193.7091501627165
 20
189.5230369520719
 30
0.0
 10
193.7722211484083
 20
188.5649134636345
 30
0.0
 10
193.8076161101376
 20
188.5429491049063
 30
0.0
 10
193.8201851964428
 20
188.5351493529924
 30
0.0
  0
LINE
  5
199
330
1F
100
AcDbEntity
  8
0
  6
Continuous
 62
     7
370
    25
100
AcDbLine
 10
193.986257422
 20
205.9619090692
 30
0.0
 11
193.986257422
 21
188.1619090692
 31
0.0
  0
LINE
  5
19A
330
1F
100
AcDbEntity
  8
0
  6
Continuous
 62
     7
370
    25
100
AcDbLine
 10
195.736257422
 20
201.4355185064
 30
0.0
 11
195.486257422
 21
201.905771036
 31
0.0
  0
LINE
  5
19B
330
1F
100
AcDbEntity
  8
0
  6
Continuous
 62
     7
370
    25
100
AcDbLine
 10
195.736257422
 20
201.4355185064
 30
0.0
 11
195.736257422
 21
198.9545721459
 31
0.0
  0
LINE
  5
19C
330
1F
100
AcDbEntity
  8
0
  6
Continuous
 62
     7
370
    25
100
AcDbLine
 10
195.486257422
 20
198.2694023445
 30
0.0
 11
195.486257422
 21
201.905771036
 31
0.0
  0
LINE
  5
19D
330
1F
100
AcDbEntity
  8
0
  6
Continuous
 62
     7
370
    25
100
AcDbLine
 10
195.736257422
 20
201.4355185064
 30
0.0
 11
198.286257422
 21
201.4355185064
 31
0.0
  0
LINE
  5
19E
330
1F
100
AcDbEntity
  8
0
  6
Continuous
 62
     7
370
    25
100
AcDbLine
 10
195.486257422
 20
206.306161768
 30
0.0
 11
195.736257422
 21
206.7764142976
 31
0.0
  0
LINE
  5
19F
330
1F
100
AcDbEntity
  8
0
  6
Continuous
 62
     7
370
    25
100
AcDbLine
 10
198.286257422
 20
206.7764142976
 30
0.0
 11
195.736257422
 21
206.7764142976
 31
0.0
  0
LINE
  5
1A0
330
1F
100
AcDbEntity
  8
0
  6
Continuous
 62
     7
370
    25
100
AcDbLine
 10
195.486257422
 20
206.306161768
 30
0.0
 11
195.486257422
 21
201.905771036
 31
0.0
  0
LINE
  5
1A1
330
1F
100
AcDbEntity
  8
0
  6
Continuous
 62
     7
370
    25
100
AcDbLine
 10
195.736257422
 20
191.1727522123
 30
0.0
 11
195.736257422
 21
189.2400669175
 31
0.0
  0
LINE
  5
1A2
330
1F
100
AcDbEntity
  8
0
  6
Continuous
 62
     7
370
    25
100
AcDbLine
 10
195.486257422
 20
189.0251496457
 30
0.0
 11
195.736257422
 21
189.2400669175
 31
0.0
  0
LINE
  5
1A3
330
1F
100
AcDbEntity
  8
0
  6
Continuous
 62
     7
370
    25
100
AcDbLine
 10
195.486257422
 20
189.0251496457
 30
0.0
 11
195.486257422
 21
191.8579220137
 31
0.0
  0
LINE
  5
1A4
330
1F
100
AcDbEntity
  8
0
  6
Continuous
 62
     7
370
    25
100
AcDbLine
 10
198.286257422
 20
189.2400669175
 30
0.0
 11
195.736257422
 21
189.2400669175
 31
0.0
  0
LINE
  5
1A5
330
1F
100
AcDbEntity
  8
0
  6
Continuous
 62
     7
370
    25
100
AcDbLine
 10
195.736257422
 20
186.7991427752
 30
0.0
 11
195.486257422
 21
187.014060047
 31
0.0
  0
LINE
  5
1A6
330
1F
100
AcDbEntity
  8
0
  6
Continuous
 62
     7
370
    25
100
AcDbLine
 10
195.736257422
 20
186.7991427752
 30
0.0
 11
198.286257422
 21
186.7991427752
 31
0.0
  0
LINE
  5
1A7
330
1F
100
AcDbEntity
  8
0
  6
Continuous
 62
     7
370
    25
100
AcDbLine
 10
195.486257422
 20
189.0251496457
 30
0.0
 11
195.486257422
 21
187.014060047
 31
0.0
  0
LINE
  5
1A8
330
1F
100
AcDbEntity
  8
0
  6
Continuous
 62
     7
370
    25
100
AcDbLine
 10
195.736257422
 20
207.3246753633
 30
0.0
 11
195.486257422
 21
207.1097580914
 31
0.0
  0
LINE
  5
1A9
330
1F
100
AcDbEntity
  8
0
  6
Continuous
 62
     7
370
    25
100
AcDbLine
 10
195.736257422
 20
207.3246753633
 30
0.0
 11
195.736257422
 21
206.7764142976
 31
0.0
  0
LINE
  5
1AA
330
1F
100
AcDbEntity
  8
0
  6
Continuous
 62
     7
370
    25
100
AcDbLine
 10
195.486257422
 20
206.306161768
 30
0.0
 11
195.486257422
 21
207.1097580914
 31
0.0
  0
LINE
  5
1AB
330
1F
100
AcDbEntity
  8
0
  6
Continuous
 62
     7
370
    25
100
AcDbLine
 10
195.736257422
 20
207.3246753633
 30
0.0
 11
198.286257422
 21
207.3246753633
 31
0.0
  0
LINE
  5
1AC
330
1F
100
AcDbEntity
  8
0
  6
Continuous
 62
     7
370
    25
100
AcDbLine
 10
176.7218005144
 20
214.3361136934
 30
0.0
 11
176.5390220519
 21
214.126002428
 31
0.0
  0
SPLINE
  5
1AD
330
1F
100
AcDbEntity
  8
0
  6
Continuous
 62
     7
370
    25
100
AcDbSpline
210
0.0
220
0.0
230
1.0
 70
     8
 71
     3
 72
     9
 73
     5
 74
     0
 42
0.00000001
 43
0.00000001
 40
0.0
 40
0.0
 40
0.0
 40
0.0
 40
0.5841917497409973
 40
1.0
 40
1.0
 40
1.0
 40
1.0
 10
177.136257421988
 20
214.5042098054979
 30
0.0
 10
177.1100894581673
 20
214.5498253609242
 30
0.0
 10
177.0652960083587
 20
214.6279085509836
 30
0.0
 10
176.8226815908448
 20
214.4218108272768
 30
0.0
 10
176.7218005144107
 20
214.3361136933998
 30
0.0
  0
LINE
  5
1AE
330
1F
100
AcDbEntity
  8
0
  6
Continuous
 62
     7
370
    25
100
AcDbLine
 10
177.136257422
 20
214.5042098055
 30
0.0
 11
177.136257422
 21
214.1984456917
 31
0.0
  0
SPLINE
  5
1AF
330
1F
100
AcDbEntity
  8
0
  6
Continuous
 62
     7
370
    25
100
AcDbSpline
210
0.0
220
0.0
230
1.0
 70
     8
 71
     3
 72
     9
 73
     5
 74
     0
 42
0.00000001
 43
0.00000001
 40
0.0
 40
0.0
 40
0.0
 40
0.0
 40
0.5850553834536069
 40
1.0
 40
1.0
 40
1.0
 40
1.0
 10
176.7218005144106
 20
213.0650147334808
 30
0.0
 10
176.8583546484349
 20
213.3532773629071
 30
0.0
 10
177.0917584216268
 20
213.8459873482843
 30
0.0
 10
177.1232077093521
 20
214.0950842664584
 30
0.0
 10
177.136257421988
 20
214.198445691653
 30
0.0
  0
SPLINE
  5
1B0
330
1F
100
AcDbEntity
  8
0
  6
Continuous
 62
     7
370
    25
100
AcDbSpline
210
0.0
220
0.0
230
1.0
 70
     8
 71
     3
 72
    11
 73
     7
 74
     0
 42
0.00000001
 43
0.00000001
 40
0.0
 40
0.0
 40
0.0
 40
0.0
 40
0.232871632211144
 40
0.4710265024313161
 40
0.731142121256026
 40
0.9999999999999999
 40
0.9999999999999999
 40
0.9999999999999999
 40
0.9999999999999999
 10
176.7218005144106
 20
205.1568942801759
 30
0.0
 10
176.4514037797378
 20
205.7566498485155
 30
0.0
 10
175.904475727607
 20
206.9697678439809
 30
0.0
 10
175.6032514096234
 20
208.9341638799296
 30
0.0
 10
175.8109031750331
 20
211.0055309348275
 30
0.0
 10
176.4148410068134
 20
212.3709978498974
 30
0.0
 10
176.7218005144106
 20
213.0650147334808
 30
0.0
  0
SPLINE
  5
1B1
330
1F
100
AcDbEntity
  8
0
  6
Continuous
 62
     7
370
    25
100
AcDbSpline
210
0.0
220
0.0
230
1.0
 70
     8
 71
     3
 72
     9
 73
     5
 74
     0
 42
0.00000001
 43
0.00000001
 40
0.0
 40
0.0
 40
0.0
 40
0.0
 40
0.5841917497409229
 40
1.0
 40
1.0
 40
1.0
 40
1.0
 10
177.136257421988
 20
203.1768919890156
 30
0.0
 10
177.1100894581673
 20
203.6167223826548
 30
0.0
 10
177.0652960083587
 20
204.3696094164657
 30
0.0
 10
176.8226815908447
 20
204.9256768525512
 30
0.0
 10
176.7218005144106
 20
205.1568942801759
 30
0.0
  0
LINE
  5
1B2
330
1F
100
AcDbEntity
  8
0
  6
Continuous
 62
     7
370
    25
100
AcDbLine
 10
177.136257422
 20
203.176891989
 30
0.0
 11
177.136257422
 21
201.7932731021
 31
0.0
  0
SPLINE
  5
1B3
330
1F
100
AcDbEntity
  8
0
  6
Continuous
 62
     7
370
    25
100
AcDbSpline
210
0.0
220
0.0
230
1.0
 70
     8
 71
     3
 72
     9
 73
     5
 74
     0
 42
0.00000001
 43
0.00000001
 40
0.0
 40
0.0
 40
0.0
 40
0.0
 40
0.5850553834536146
 40
1.0
 40
1.0
 40
1.0
 40
1.0
 10
176.7218005144106
 20
199.4050207004733
 30
0.0
 10
176.8583546484349
 20
199.8659396591967
 30
0.0
 10
177.0917584216268
 20
200.6537607300884
 30
0.0
 10
177.1232077093521
 20
201.45910134817
 30
0.0
 10
177.136257421988
 20
201.7932731021291
 30
0.0
  0
SPLINE
  5
1B4
330
1F
100
AcDbEntity
  8
0
  6
Continuous
 62
     7
370
    25
100
AcDbSpline
210
0.0
220
0.0
230
1.0
 70
     8
 71
     3
 72
    11
 73
     7
 74
     0
 42
0.00000001
 43
0.00000001
 40
0.0
 40
0.0
 40
0.0
 40
0.0
 40
0.2328716322111453
 40
0.4710265024313182
 40
0.731142121256027
 40
0.9999999999999999
 40
0.9999999999999999
 40
0.9999999999999999
 40
0.9999999999999999
 10
176.7218005144106
 20
187.8826896559909
 30
0.0
 10
176.4514037797378
 20
188.7565486525737
 30
0.0
 10
175.904475727607
 20
190.5240921823298
 30
0.0
 10
175.6032514096234
 20
193.3862667739183
 30
0.0
 10
175.8109031750331
 20
196.404300839294
 30
0.0
 10
176.4148410068134
 20
198.3938205891036
 30
0.0
 10
176.7218005144106
 20
199.4050207004733
 30
0.0
  0
SPLINE
  5
1B5
330
1F
100
AcDbEntity
  8
0
  6
Continuous
 62
     7
370
    25
100
AcDbSpline
210
0.0
220
0.0
230
1.0
 70
     8
 71
     3
 72
     9
 73
     5
 74
     0
 42
0.00000001
 43
0.00000001
 40
0.0
 40
0.0
 40
0.0
 40
0.0
 40
0.5841917497409191
 40
1.0
 40
1.0
 40
1.0
 40
1.0
 10
177.136257421988
 20
185.7345912527324
 30
0.0
 10
177.1100894581673
 20
186.1288060909454
 30
0.0
 10
177.0652960083587
 20
186.8036099346968
 30
0.0
 10
176.8226815908447
 20
187.5657750944892
 30
0.0
 10
176.7218005144106
 20
187.8826896559909
 30
0.0
  0
LINE
  5
1B6
330
1F
100
AcDbEntity
  8
0
  6
Continuous
 62
     7
370
    25
100
AcDbLine
 10
177.136257422
 20
185.7345912527
 30
0.0
 11
177.136257422
 21
184.6567364797
 31
0.0
  0
SPLINE
  5
1B7
330
1F
100
AcDbEntity
  8
0
  6
Continuous
 62
     7
370
    25
100
AcDbSpline
210
0.0
220
0.0
230
1.0
 70
     8
 71
     3
 72
     9
 73
     5
 74
     0
 42
0.00000001
 43
0.00000001
 40
0.0
 40
0.0
 40
0.0
 40
0.0
 40
0.585055383453619
 40
1.0
 40
1.0
 40
1.0
 40
1.0
 10
176.7218005144106
 20
183.4019150362073
 30
0.0
 10
176.8583546484349
 20
183.5745713655043
 30
0.0
 10
177.0917584216268
 20
183.8696824510188
 30
0.0
 10
177.1232077093521
 20
184.4259261509264
 30
0.0
 10
177.136257421988
 20
184.6567364796908
 30
0.0
  0
SPLINE
  5
1B8
330
1F
100
AcDbEntity
  8
0
  6
Continuous
 62
     7
370
    25
100
AcDbSpline
210
0.0
220
0.0
230
1.0
 70
     8
 71
     3
 72
    11
 73
     7
 74
     0
 42
0.00000001
 43
0.00000001
 40
0.0
 40
0.0
 40
0.0
 40
0.0
 40
0.2556279644381004
 40
0.5185037642963938
 40
0.7560467972580138
 40
1.0
 40
1.0
 40
1.0
 40
1.0
 10
176.7218005144106
 20
179.7877044450297
 30
0.0
 10
176.4281745543086
 20
180.0890170774783
 30
0.0
 10
175.8325974391731
 20
180.7001854780015
 30
0.0
 10
175.6007084775464
 20
181.6325388335893
 30
0.0
 10
175.8836789360072
 20
182.5474159421961
 30
0.0
 10
176.4399580695715
 20
183.1145651815147
 30
0.0
 10
176.7218005144106
 20
183.4019150362073
 30
0.0
  0
SPLINE
  5
1B9
330
1F
100
AcDbEntity
  8
0
  6
Continuous
 62
     7
370
    25
100
AcDbSpline
210
0.0
220
0.0
230
1.0
 70
     8
 71
     3
 72
     9
 73
     5
 74
     0
 42
0.00000001
 43
0.00000001
 40
0.0
 40
0.0
 40
0.0
 40
0.0
 40
0.3607400128961895
 40
1.0
 40
1.0
 40
1.0
 40
1.0
 10
177.048889515547
 20
179.5957575091394
 30
0.0
 10
177.0349216298164
 20
179.5824024310066
 30
0.0
 10
176.9962015399144
 20
179.5453810924929
 30
0.0
 10
176.8288083090282
 20
179.6932059369003
 30
0.0
 10
176.7218005144106
 20
179.7877044450297
 30
0.0
  0
LINE
  5
1BA
330
1F
100
AcDbEntity
  8
0
  6
Continuous
 62
     7
370
    25
100
AcDbLine
 10
175.636257422
 20
180.8619090692
 30
0.0
 11
175.636257422
 21
213.2619090692
 31
0.0
  0
SPLINE
  5
1BB
330
1F
100
AcDbEntity
  8
0
  6
Continuous
 62
     7
370
    25
100
AcDbSpline
210
0.0
220
0.0
230
1.0
 70
     8
 71
     3
 72
     9
 73
     5
 74
     0
 42
0.00000001
 43
0.00000001
 40
0.0
 40
0.0
 40
0.0
 40
0.0
 40
0.8988656309358759
 40
1.0
 40
1.0
 40
1.0
 40
1.0
 10
184.0007143295659
 20
179.7877044450302
 30
0.0
 10
183.8518008250812
 20
179.6577517597436
 30
0.0
 10
183.6861325657112
 20
179.5131776645574
 30
0.0
 10
183.6519128286437
 20
179.5562019229093
 30
0.0
 10
183.6484520371258
 20
179.5605531541321
 30
0.0
  0
SPLINE
  5
1BC
330
1F
100
AcDbEntity
  8
0
  6
Continuous
 62
     7
370
    25
100
AcDbSpline
210
0.0
220
0.0
230
1.0
 70
     8
 71
     3
 72
    11
 73
     7
 74
     0
 42
0.00000001
 43
0.00000001
 40
0.0
 40
0.0
 40
0.0
 40
0.0
 40
0.2379053903768484
 40
0.4814905141303173
 40
0.7366519444348057
 40
1.0
 40
1.0
 40
1.0
 40
1.0
 10
184.0007143295652
 20
183.4019150362074
 30
0.0
 10
184.2762997645382
 20
183.1217988271482
 30
0.0
 10
184.8340499380917
 20
182.5548789381014
 30
0.0
 10
185.120613162748
 20
181.6494403700319
 30
0.0
 10
184.8957327565501
 20
180.709774895887
 30
0.0
 10
184.3021776396322
 20
180.0982795146031
 30
0.0
 10
184.0007143295659
 20
179.7877044450302
 30
0.0
  0
SPLINE
  5
1BD
330
1F
100
AcDbEntity
  8
0
  6
Continuous
 62
     7
370
    25
100
AcDbSpline
210
0.0
220
0.0
230
1.0
 70
     8
 71
     3
 72
     9
 73
     5
 74
     0
 42
0.00000001
 43
0.00000001
 40
0.0
 40
0.0
 40
0.0
 40
0.0
 40
0.5841917497409903
 40
1.0
 40
1.0
 40
1.0
 40
1.0
 10
183.5862574219879
 20
184.6567364796908
 30
0.0
 10
183.6124253858086
 20
184.3385997017469
 30
0.0
 10
183.6572188356172
 20
183.7940237502979
 30
0.0
 10
183.8998332531312
 20
183.5170733129637
 30
0.0
 10
184.0007143295652
 20
183.4019150362074
 30
0.0
  0
LINE
  5
1BE
330
1F
100
AcDbEntity
  8
0
  6
Continuous
 62
     7
370
    25
100
AcDbLine
 10
183.586257422
 20
184.6567364797
 30
0.0
 11
183.586257422
 21
185.7345912527
 31
0.0
  0
SPLINE
  5
1BF
330
1F
100
AcDbEntity
  8
0
  6
Continuous
 62
     7
370
    25
100
AcDbSpline
210
0.0
220
0.0
230
1.0
 70
     8
 71
     3
 72
     9
 73
     5
 74
     0
 42
0.00000001
 43
0.00000001
 40
0.0
 40
0.0
 40
0.0
 40
0.0
 40
0.5850553834536201
 40
1.0
 40
1.0
 40
1.0
 40
1.0
 10
184.0007143295653
 20
187.8826896559909
 30
0.0
 10
183.864160195541
 20
187.435105700061
 30
0.0
 10
183.6307564223491
 20
186.6700773478941
 30
0.0
 10
183.5993071346238
 20
186.0089305551348
 30
0.0
 10
183.5862574219879
 20
185.7345912527324
 30
0.0
  0
SPLINE
  5
1C0
330
1F
100
AcDbEntity
  8
0
  6
Continuous
 62
     7
370
    25
100
AcDbSpline
210
0.0
220
0.0
230
1.0
 70
     8
 71
     3
 72
    11
 73
     7
 74
     0
 42
0.00000001
 43
0.00000001
 40
0.0
 40
0.0
 40
0.0
 40
0.0
 40
0.2328716322111473
 40
0.471026502431323
 40
0.7311421212560295
 40
1.0
 40
1.0
 40
1.0
 40
1.0
 10
184.0007143295653
 20
199.4050207004733
 30
0.0
 10
184.2711110642381
 20
198.5311617038905
 30
0.0
 10
184.8180391163689
 20
196.7636181741344
 30
0.0
 10
185.1192634343525
 20
193.9014435825459
 30
0.0
 10
184.9116116689428
 20
190.8834095171702
 30
0.0
 10
184.3076738371626
 20
188.8938897673605
 30
0.0
 10
184.0007143295653
 20
187.8826896559909
 30
0.0
  0
SPLINE
  5
1C1
330
1F
100
AcDbEntity
  8
0
  6
Continuous
 62
     7
370
    25
100
AcDbSpline
210
0.0
220
0.0
230
1.0
 70
     8
 71
     3
 72
     9
 73
     5
 74
     0
 42
0.00000001
 43
0.00000001
 40
0.0
 40
0.0
 40
0.0
 40
0.0
 40
0.5841917497409251
 40
1.0
 40
1.0
 40
1.0
 40
1.0
 10
183.5862574219879
 20
201.7932731021291
 30
0.0
 10
183.6124253858086
 20
201.3186731152844
 30
0.0
 10
183.6572188356172
 20
200.5062686486771
 30
0.0
 10
183.8998332531312
 20
199.7284458411025
 30
0.0
 10
184.0007143295653
 20
199.4050207004733
 30
0.0
  0
LINE
  5
1C2
330
1F
100
AcDbEntity
  8
0
  6
Continuous
 62
     7
370
    25
100
AcDbLine
 10
183.586257422
 20
201.7932731021
 30
0.0
 11
183.586257422
 21
203.176891989
 31
0.0
  0
SPLINE
  5
1C3
330
1F
100
AcDbEntity
  8
0
  6
Continuous
 62
     7
370
    25
100
AcDbSpline
210
0.0
220
0.0
230
1.0
 70
     8
 71
     3
 72
     9
 73
     5
 74
     0
 42
0.00000001
 43
0.00000001
 40
0.0
 40
0.0
 40
0.0
 40
0.0
 40
0.5850553834536161
 40
1.0
 40
1.0
 40
1.0
 40
1.0
 10
184.0007143295653
 20
205.1568942801759
 30
0.0
 10
183.864160195541
 20
204.8216241840174
 30
0.0
 10
183.6307564223491
 20
204.248567161314
 30
0.0
 10
183.5993071346238
 20
203.4911699036643
 30
0.0
 10
183.586257421988
 20
203.1768919890156
 30
0.0
  0
SPLINE
  5
1C4
330
1F
100
AcDbEntity
  8
0
  6
Continuous
 62
     7
370
    25
100
AcDbSpline
210
0.0
220
0.0
230
1.0
 70
     8
 71
     3
 72
    11
 73
     7
 74
     0
 42
0.00000001
 43
0.00000001
 40
0.0
 40
0.0
 40
0.0
 40
0.0
 40
0.2328716322111487
 40
0.4710265024313253
 40
0.731142121256031
 40
1.0
 40
1.0
 40
1.0
 40
1.0
 10
184.0007143295653
 20
213.0650147334808
 30
0.0
 10
184.2711110642381
 20
212.4652591651411
 30
0.0
 10
184.8180391163689
 20
211.2521411696757
 30
0.0
 10
185.1192634343525
 20
209.287745133727
 30
0.0
 10
184.9116116689428
 20
207.2163780788291
 30
0.0
 10
184.3076738371625
 20
205.8509111637592
 30
0.0
 10
184.0007143295653
 20
205.1568942801759
 30
0.0
  0
SPLINE
  5
1C5
330
1F
100
AcDbEntity
  8
0
  6
Continuous
 62
     7
370
    25
100
AcDbSpline
210
0.0
220
0.0
230
1.0
 70
     8
 71
     3
 72
     9
 73
     5
 74
     0
 42
0.00000001
 43
0.00000001
 40
0.0
 40
0.0
 40
0.0
 40
0.0
 40
0.5841917497409219
 40
1.0
 40
1.0
 40
1.0
 40
1.0
 10
183.5862574219879
 20
214.198445691653
 30
0.0
 10
183.6124253858086
 20
214.0419824827522
 30
0.0
 10
183.6572188356172
 20
213.774153967594
 30
0.0
 10
183.8998332531312
 20
213.2732815973536
 30
0.0
 10
184.0007143295653
 20
213.0650147334808
 30
0.0
  0
LINE
  5
1C6
330
1F
100
AcDbEntity
  8
0
  6
Continuous
 62
     7
370
    25
100
AcDbLine
 10
183.586257422
 20
214.1984456917
 30
0.0
 11
183.586257422
 21
214.5042098055
 31
0.0
  0
SPLINE
  5
1C7
330
1F
100
AcDbEntity
  8
0
  6
Continuous
 62
     7
370
    25
100
AcDbSpline
210
0.0
220
0.0
230
1.0
 70
     8
 71
     3
 72
     9
 73
     5
 74
     0
 42
0.00000001
 43
0.00000001
 40
0.0
 40
0.0
 40
0.0
 40
0.0
 40
0.5850553834536187
 40
1.0
 40
1.0
 40
1.0
 40
1.0
 10
184.0007143295653
 20
214.3361136933997
 30
0.0
 10
183.864160195541
 20
214.4484275531711
 30
0.0
 10
183.6307564223491
 20
214.6403988826347
 30
0.0
 10
183.5993071346238
 20
214.5441484177443
 30
0.0
 10
183.5862574219879
 20
214.5042098054979
 30
0.0
  0
LINE
  5
1C8
330
1F
100
AcDbEntity
  8
0
  6
Continuous
 62
     7
370
    25
100
AcDbLine
 10
184.1821099425
 20
214.1260085384
 30
0.0
 11
184.0007143296
 21
214.3361136934
 31
0.0
  0
LINE
  5
1C9
330
1F
100
AcDbEntity
  8
0
  6
Continuous
 62
     7
370
    25
100
AcDbLine
 10
185.086257422
 20
181.6424008155
 30
0.0
 11
185.086257422
 21
180.8619090692
 31
0.0
  0
LINE
  5
1CA
330
1F
100
AcDbEntity
  8
0
  6
Continuous
 62
     7
370
    25
100
AcDbLine
 10
185.086257422
 20
213.2619090692
 30
0.0
 11
185.086257422
 21
181.6424008155
 31
0.0
  0
LINE
  5
1CB
330
1F
100
AcDbEntity
  8
0
  6
Continuous
 62
     7
370
    25
100
AcDbLine
 10
176.7218005144
 20
187.882689656
 30
0.0
 11
184.0007143296
 21
187.882689656
 31
0.0
  0
LINE
  5
1CC
330
1F
100
AcDbEntity
  8
0
  6
Continuous
 62
     7
370
    25
100
AcDbLine
 10
184.0007143296
 20
199.4050207005
 30
0.0
 11
176.7218005144
 21
199.4050207005
 31
0.0
  0
LINE
  5
1CD
330
1F
100
AcDbEntity
  8
0
  6
Continuous
 62
     7
370
    25
100
AcDbLine
 10
192.836257422
 20
186.4869090692
 30
0.0
 11
192.836257422
 21
207.6369090692
 31
0.0
  0
LINE
  5
1CE
330
1F
100
AcDbEntity
  8
0
  6
Continuous
 62
     7
370
    25
100
AcDbLine
 10
177.136257422
 20
201.7932731021
 30
0.0
 11
183.586257422
 21
201.7932731021
 31
0.0
  0
LINE
  5
1CF
330
1F
100
AcDbEntity
  8
0
  6
Continuous
 62
     7
370
    25
100
AcDbLine
 10
183.586257422
 20
203.176891989
 30
0.0
 11
177.136257422
 21
203.176891989
 31
0.0
  0
LINE
  5
1D0
330
1F
100
AcDbEntity
  8
0
  6
Continuous
 62
     7
370
    25
100
AcDbLine
 10
176.7218005144
 20
205.1568942802
 30
0.0
 11
184.0007143296
 21
205.1568942802
 31
0.0
  0
LINE
  5
1D1
330
1F
100
AcDbEntity
  8
0
  6
Continuous
 62
     7
370
    25
100
AcDbLine
 10
184.0007143296
 20
213.0650147335
 30
0.0
 11
176.7218005144
 21
213.0650147335
 31
0.0
  0
LINE
  5
1D2
330
1F
100
AcDbEntity
  8
0
  6
Continuous
 62
     7
370
    25
100
AcDbLine
 10
183.586257422
 20
185.7345912527
 30
0.0
 11
177.136257422
 21
185.7345912527
 31
0.0
  0
LINE
  5
1D3
330
1F
100
AcDbEntity
  8
0
  6
Continuous
 62
     7
370
    25
100
AcDbLine
 10
177.136257422
 20
184.6567364797
 30
0.0
 11
183.586257422
 21
184.6567364797
 31
0.0
  0
LINE
  5
1D4
330
1F
100
AcDbEntity
  8
0
  6
Continuous
 62
     7
370
    25
100
AcDbLine
 10
184.0007143296
 20
183.4019150362
 30
0.0
 11
176.7218005144
 21
183.4019150362
 31
0.0
  0
LINE
  5
1D5
330
1F
100
AcDbEntity
  8
0
  6
Continuous
 62
     7
370
    25
100
AcDbLine
 10
176.7218005144
 20
179.787704445
 30
0.0
 11
184.0007143296
 21
179.787704445
 31
0.0
  0
LINE
  5
1D6
330
1F
100
AcDbEntity
  8
0
  6
Continuous
 62
     7
370
    25
100
AcDbLine
 10
177.136257422
 20
214.1984456917
 30
0.0
 11
183.586257422
 21
214.1984456917
 31
0.0
  0
LINE
  5
1D7
330
1F
100
AcDbEntity
  8
0
  6
Continuous
 62
     7
370
    25
100
AcDbLine
 10
183.586257422
 20
214.5042098055
 30
0.0
 11
177.136257422
 21
214.5042098055
 31
0.0
  0
LINE
  5
1D8
330
1F
100
AcDbEntity
  8
0
  6
Continuous
 62
     7
370
    25
100
AcDbLine
 10
141.886257422
 20
212.0619090692
 30
0.0
 11
142.4964774131
 21
212.0494916482
 31
0.0
  0
ARC
  5
1D9
330
1F
100
AcDbEntity
  8
0
  6
Continuous
 62
     7
370
    25
100
AcDbCircle
 10
141.886257422
 20
197.0619090692
 30
0.0
 40
15.00000000000002
100
AcDbArc
 50
28.1860062217
 51
61.888394135
  0
ARC
  5
1DA
330
1F
100
AcDbEntity
  8
0
  6
Continuous
 62
     7
370
    25
100
AcDbCircle
 10
141.886257422
 20
197.0619090692
 30
0.0
 40
15.00000000000001
100
AcDbArc
 50
345.1866966782
 51
0.9671158827
  0
ARC
  5
1DB
330
1F
100
AcDbEntity
  8
0
  6
Continuous
 62
     7
370
    25
100
AcDbCircle
 10
141.886257422
 20
197.0619090692
 30
0.0
 40
14.99999999999998
100
AcDbArc
 50
147.7645854078
 51
181.2816926169
  0
ARC
  5
1DC
330
1F
100
AcDbEntity
  8
0
  6
Continuous
 62
     7
370
    25
100
AcDbCircle
 10
141.886257422
 20
197.0619090692
 30
0.0
 40
15.00000000000003
100
AcDbArc
 50
90.0
 51
122.0114166868
  0
ARC
  5
1DD
330
1F
100
AcDbEntity
  8
0
  6
Continuous
 62
     7
370
    25
100
AcDbCircle
 10
155.2944770159
 20
214.4574199353
 30
0.0
 40
6.213875553933466
100
AcDbArc
 50
239.3038676187
 51
299.7771370676
  0
LINE
  5
1DE
330
1F
100
AcDbEntity
  8
0
  6
Continuous
 62
     7
370
    25
100
AcDbLine
 10
117.086257422
 20
265.0619090692
 30
0.0
 11
166.6862573805
 21
265.0619090692
 31
0.0
  0
LWPOLYLINE
  5
1DF
330
1F
100
AcDbEntity
  8
0
  6
Continuous
 62
     7
370
    25
100
AcDbPolyline
 90
        9
 70
   128
 43
0.0
 10
152.1223875341
 20
209.1141907881
 10
151.5617881395
 20
209.7676449603
 10
151.1286685733
 20
210.547371762
 10
150.830885019
 20
211.4392280388
 10
150.673838854
 20
212.4270367645
 10
150.6603786762
 20
213.4928804698
 10
150.7907486345
 20
214.6174262396
 10
151.0625839999
 20
215.7802763856
 10
151.470954059
 20
216.9603384318
  0
ARC
  5
1E0
330
1F
100
AcDbEntity
  8
0
  6
Continuous
 62
     7
370
    25
100
AcDbCircle
 10
122.142497373
 20
210.4523141687
 30
0.0
 40
7.748014529181563
100
AcDbArc
 50
327.7818157888
 51
13.7464277327
  0
SPLINE
  5
1E1
330
1F
100
AcDbEntity
  8
0
  6
Continuous
 62
     7
370
    25
100
AcDbSpline
210
0.0
220
0.0
230
1.0
 70
     8
 71
     3
 72
    42
 73
    38
 74
     0
 42
0.00000001
 43
0.00000001
 40
0.0
 40
0.0
 40
0.0
 40
0.0
 40
0.0624999999999998
 40
0.0624999999999998
 40
0.1249999999999997
 40
0.1249999999999997
 40
0.1874999999999996
 40
0.1874999999999996
 40
0.2499999999999995
 40
0.2499999999999995
 40
0.3749999999999996
 40
0.3749999999999996
 40
0.4062499999999997
 40
0.4062499999999997
 40
0.4374999999999998
 40
0.4374999999999998
 40
0.4999999999999999
 40
0.4999999999999999
 40
0.5312499999999999
 40
0.5312499999999999
 40
0.5625
 40
0.5625
 40
0.59375
 40
0.59375
 40
0.625
 40
0.625
 40
0.6875
 40
0.6875
 40
0.71875
 40
0.71875
 40
0.75
 40
0.75
 40
0.8125
 40
0.8125
 40
0.875
 40
0.875
 40
1.0
 40
1.0
 40
1.0
 40
1.0
 10
129.6685846474165
 20
212.2934386841816
 30
0.0
 10
129.8624084426918
 20
212.7256120997524
 30
0.0
 10
130.0757887938714
 20
213.1787212303297
 30
0.0
 10
130.536375279756
 20
214.0925025629204
 30
0.0
 10
130.7843686502333
 20
214.5552320764465
 30
0.0
 10
131.3193409922912
 20
215.4814416737222
 30
0.0
 10
131.6063013173269
 20
215.9450341328376
 30
0.0
 10
132.2252391993886
 20
216.8654945191012
 30
0.0
 10
132.5578379918401
 20
217.3232744972373
 30
0.0
 10
133.6331369542448
 20
218.6707482173849
 30
0.0
 10
134.4378342157955
 20
219.5205988545891
 30
0.0
 10
135.6098890747711
 20
220.4729104347283
 30
0.0
 10
135.8528417572482
 20
220.6577348527313
 30
0.0
 10
136.358545765651
 20
221.0140354216432
 30
0.0
 10
136.6206711225016
 20
221.1849022517218
 30
0.0
 10
137.4247769379617
 20
221.6643794239979
 30
0.0
 10
137.9886316061504
 20
221.9434194365273
 30
0.0
 10
138.8862803927078
 20
222.2850222513
 30
0.0
 10
139.1941934750056
 20
222.3859884101636
 30
0.0
 10
139.8300777177961
 20
222.5580330305951
 30
0.0
 10
140.1563347780435
 20
222.6283948029803
 30
0.0
 10
140.8145081781838
 20
222.7325982908305
 30
0.0
 10
141.1497635213566
 20
222.7668488080689
 30
0.0
 10
141.8152273838951
 20
222.7970941666335
 30
0.0
 10
142.1467021753976
 20
222.7934744466114
 30
0.0
 10
143.1374340995269
 20
222.7275717089025
 30
0.0
 10
143.7986429119204
 20
222.6079531373941
 30
0.0
 10
144.7486435642836
 20
222.3318122571175
 30
0.0
 10
145.0577134744841
 20
222.2241814082897
 30
0.0
 10
145.6539123262259
 20
221.9849375193851
 30
0.0
 10
145.9424881668753
 20
221.852905956555
 30
0.0
 10
146.7831882071154
 20
221.4244272222253
 30
0.0
 10
147.3104683637178
 20
221.0958229911901
 30
0.0
 10
148.310985015089
 20
220.370195062519
 30
0.0
 10
148.7740397687915
 20
219.9804382496593
 30
0.0
 10
150.0678938771874
 20
218.761608841753
 30
0.0
 10
150.8107145929846
 20
217.8791591165367
 30
0.0
 10
151.470954059029
 20
216.9603384317544
 30
0.0
  0
SPLINE
  5
1E2
330
1F
100
AcDbEntity
  8
0
  6
Continuous
 62
     7
370
    25
100
AcDbSpline
210
0.0
220
0.0
230
1.0
 70
     8
 71
     3
 72
     8
 73
     4
 74
     0
 42
0.00000001
 43
0.00000001
 40
0.0
 40
0.0
 40
0.0
 40
0.0
 40
0.000098823642892
 40
0.000098823642892
 40
0.000098823642892
 40
0.000098823642892
 10
125.9388260727539
 20
255.3440668332873
 30
0.0
 10
125.9415318746244
 20
255.3318259625861
 30
0.0
 10
125.9442155945034
 20
255.3197503025305
 30
0.0
 10
125.9468861451561
 20
255.3078219262831
 30
0.0
  0
SPLINE
  5
1E3
330
1F
100
AcDbEntity
  8
0
  6
Continuous
 62
     7
370
    25
100
AcDbSpline
210
0.0
220
0.0
230
1.0
 70
     8
 71
     3
 72
     8
 73
     4
 74
     0
 42
0.00000001
 43
0.00000001
 40
0.0
 40
0.0
 40
0.0
 40
0.0
 40
0.0002560048126404
 40
0.0002560048126404
 40
0.0002560048126404
 40
0.0002560048126404
 10
125.9174586867856
 20
255.4350292643344
 30
0.0
 10
125.9246224666272
 20
255.4061002793837
 30
0.0
 10
125.931816633711
 20
255.375777077106
 30
0.0
 10
125.9388260727546
 20
255.344066833295
 30
0.0
  0
SPLINE
  5
1E4
330
1F
100
AcDbEntity
  8
0
  6
Continuous
 62
     7
370
    25
100
AcDbSpline
210
0.0
220
0.0
230
1.0
 70
     8
 71
     3
 72
     8
 73
     4
 74
     0
 42
0.00000001
 43
0.00000001
 40
0.0
 40
0.0
 40
0.0
 40
0.0
 40
0.0002560048126397
 40
0.0002560048126397
 40
0.0002560048126397
 40
0.0002560048126397
 10
157.8336887712221
 20
255.3440668332875
 30
0.0
 10
157.8406982102655
 20
255.3757770770985
 30
0.0
 10
157.847892377348
 20
255.4061002793918
 30
0.0
 10
157.8550561571897
 20
255.4350292643423
 30
0.0
  0
SPLINE
  5
1E5
330
1F
100
AcDbEntity
  8
0
  6
Continuous
 62
     7
370
    25
100
AcDbSpline
210
0.0
220
0.0
230
1.0
 70
     8
 71
     3
 72
     8
 73
     4
 74
     0
 42
0.00000001
 43
0.00000001
 40
0.0000000000000011
 40
0.0000000000000011
 40
0.0000000000000011
 40
0.0000000000000011
 40
0.0000988236428765
 40
0.0000988236428765
 40
0.0000988236428765
 40
0.0000988236428765
 10
157.8256286988212
 20
255.3078219262863
 30
0.0
 10
157.8282992494735
 20
255.3197503025319
 30
0.0
 10
157.830982969352
 20
255.3318259625883
 30
0.0
 10
157.8336887712221
 20
255.3440668332875
 30
0.0
  0
LINE
  5
1E6
330
1F
100
AcDbEntity
  8
0
  6
Continuous
 62
     7
370
    25
100
AcDbLine
 10
157.8256286988
 20
255.3078219263
 30
0.0
 11
151.0610706364
 21
255.3078219263
 31
0.0
  0
SPLINE
  5
1E7
330
1F
100
AcDbEntity
  8
0
  6
Continuous
 62
     7
370
    25
100
AcDbSpline
210
0.0
220
0.0
230
1.0
 70
     8
 71
     3
 72
     8
 73
     4
 74
     0
 42
0.00000001
 43
0.00000001
 40
0.0
 40
0.0
 40
0.0
 40
0.0
 40
0.000098823642892
 40
0.000098823642892
 40
0.000098823642892
 40
0.000098823642892
 10
150.9857874280953
 20
255.3440668332873
 30
0.0
 10
151.0108158176909
 20
255.3318259625861
 30
0.0
 10
151.0359147962761
 20
255.3197503025306
 30
0.0
 10
151.061070636423
 20
255.3078219262831
 30
0.0
  0
SPLINE
  5
1E8
330
1F
100
AcDbEntity
  8
0
  6
Continuous
 62
     7
370
    25
100
AcDbSpline
210
0.0
220
0.0
230
1.0
 70
     8
 71
     3
 72
     8
 73
     4
 74
     0
 42
0.00000001
 43
0.00000001
 40
0.0
 40
0.0
 40
0.0
 40
0.0
 40
0.0002560048126404
 40
0.0002560048126404
 40
0.0002560048126404
 40
0.0002560048126404
 10
150.7900593934875
 20
255.4350292643344
 30
0.0
 10
150.8557262164837
 20
255.4061002793837
 30
0.0
 10
150.9209508363507
 20
255.375777077106
 30
0.0
 10
150.9857874280974
 20
255.344066833295
 30
0.0
  0
SPLINE
  5
1E9
330
1F
100
AcDbEntity
  8
0
  6
Continuous
 62
     7
370
    25
100
AcDbSpline
210
0.0
220
0.0
230
1.0
 70
     8
 71
     3
 72
    14
 73
    10
 74
     0
 42
0.00000001
 43
0.00000001
 40
0.0
 40
0.0
 40
0.0
 40
0.0
 40
0.25
 40
0.25
 40
0.5
 40
0.5
 40
0.75
 40
0.75
 40
1.0
 40
1.0
 40
1.0
 40
1.0
 10
148.9512541856908
 20
255.4350292643344
 30
0.0
 10
149.1069695073948
 20
255.496880821546
 30
0.0
 10
149.2648690381338
 20
255.5390909612558
 30
0.0
 10
149.5806889761566
 20
255.5942431090376
 30
0.0
 10
149.7386679418764
 20
255.6073173528495
 30
0.0
 10
150.053525110716
 20
255.6074811186115
 30
0.0
 10
150.2065958960157
 20
255.594571128337
 30
0.0
 10
150.5043846853256
 20
255.539494641628
 30
0.0
 10
150.6498415405676
 20
255.4968010993641
 30
0.0
 10
150.7900593934879
 20
255.4350292643358
 30
0.0
  0
SPLINE
  5
1EA
330
1F
100
AcDbEntity
  8
0
  6
Continuous
 62
     7
370
    25
100
AcDbSpline
210
0.0
220
0.0
230
1.0
 70
     8
 71
     3
 72
     8
 73
     4
 74
     0
 42
0.00000001
 43
0.00000001
 40
0.0
 40
0.0
 40
0.0
 40
0.0
 40
0.0002560048126397
 40
0.0002560048126397
 40
0.0002560048126397
 40
0.0002560048126397
 10
148.7341587651152
 20
255.3440668332875
 30
0.0
 10
148.8060047959052
 20
255.3757770770985
 30
0.0
 10
148.87842358285
 20
255.4061002793918
 30
0.0
 10
148.9512541856878
 20
255.4350292643423
 30
0.0
  0
SPLINE
  5
1EB
330
1F
100
AcDbEntity
  8
0
  6
Continuous
 62
     7
370
    25
100
AcDbSpline
210
0.0
220
0.0
230
1.0
 70
     8
 71
     3
 72
     8
 73
     4
 74
     0
 42
0.00000001
 43
0.00000001
 40
0.0000000000000011
 40
0.0000000000000011
 40
0.0000000000000011
 40
0.0000000000000011
 40
0.0000988236428765
 40
0.0000988236428765
 40
0.0000988236428765
 40
0.0000988236428765
 10
148.6508154843993
 20
255.3078219262863
 30
0.0
 10
148.6786418751947
 20
255.3197503025319
 30
0.0
 10
148.7064245736535
 20
255.3318259625883
 30
0.0
 10
148.7341587651152
 20
255.3440668332875
 30
0.0
  0
LINE
  5
1EC
330
1F
100
AcDbEntity
  8
0
  6
Continuous
 62
     7
370
    25
100
AcDbLine
 10
148.6508154844
 20
255.3078219263
 30
0.0
 11
135.1216993596
 21
255.3078219263
 31
0.0
  0
SPLINE
  5
1ED
330
1F
100
AcDbEntity
  8
0
  6
Continuous
 62
     7
370
    25
100
AcDbSpline
210
0.0
220
0.0
230
1.0
 70
     8
 71
     3
 72
     8
 73
     4
 74
     0
 42
0.00000001
 43
0.00000001
 40
0.0
 40
0.0
 40
0.0
 40
0.0
 40
0.0000988236428927
 40
0.0000988236428927
 40
0.0000988236428927
 40
0.0000988236428927
 10
135.0383560788607
 20
255.3440668332875
 30
0.0
 10
135.066090270327
 20
255.3318259625863
 30
0.0
 10
135.0938729687913
 20
255.3197503025306
 30
0.0
 10
135.1216993595912
 20
255.3078219262831
 30
0.0
  0
SPLINE
  5
1EE
330
1F
100
AcDbEntity
  8
0
  6
Continuous
 62
     7
370
    25
100
AcDbSpline
210
0.0
220
0.0
230
1.0
 70
     8
 71
     3
 72
     8
 73
     4
 74
     0
 42
0.00000001
 43
0.00000001
 40
0.0
 40
0.0
 40
0.0
 40
0.0
 40
0.0002560048126397
 40
0.0002560048126397
 40
0.0002560048126397
 40
0.0002560048126397
 10
134.8212606582851
 20
255.4350292643344
 30
0.0
 10
134.8940912611228
 20
255.4061002793837
 30
0.0
 10
134.9665100480733
 20
255.3757770771061
 30
0.0
 10
135.0383560788634
 20
255.3440668332953
 30
0.0
  0
SPLINE
  5
1EF
330
1F
100
AcDbEntity
  8
0
  6
Continuous
 62
     7
370
    25
100
AcDbSpline
210
0.0
220
0.0
230
1.0
 70
     8
 71
     3
 72
    14
 73
    10
 74
     0
 42
0.00000001
 43
0.00000001
 40
0.0
 40
0.0
 40
0.0
 40
0.0
 40
0.25
 40
0.25
 40
0.5
 40
0.5
 40
0.75
 40
0.75
 40
1.0
 40
1.0
 40
1.0
 40
1.0
 10
132.9824554504884
 20
255.4350292643344
 30
0.0
 10
133.1228542673279
 20
255.496880821546
 30
0.0
 10
133.2667035298286
 20
255.5390909612558
 30
0.0
 10
133.5633993922804
 20
255.5942431090376
 30
0.0
 10
133.7161354096402
 20
255.6073173528495
 30
0.0
 10
134.0309299686887
 20
255.6074811186115
 30
0.0
 10
134.1891841208966
 20
255.594571128337
 30
0.0
 10
134.506087538989
 20
255.539494641628
 30
0.0
 10
134.6657460423674
 20
255.4968010993641
 30
0.0
 10
134.8212606582855
 20
255.4350292643358
 30
0.0
  0
SPLINE
  5
1F0
330
1F
100
AcDbEntity
  8
0
  6
Continuous
 62
     7
370
    25
100
AcDbSpline
210
0.0
220
0.0
230
1.0
 70
     8
 71
     3
 72
     8
 73
     4
 74
     0
 42
0.00000001
 43
0.00000001
 40
0.0
 40
0.0
 40
0.0
 40
0.0
 40
0.0002560048126397
 40
0.0002560048126397
 40
0.0002560048126397
 40
0.0002560048126397
 10
132.7867274158811
 20
255.3440668332875
 30
0.0
 10
132.8515640076277
 20
255.3757770770985
 30
0.0
 10
132.91678862749
 20
255.4061002793918
 30
0.0
 10
132.982455450486
 20
255.4350292643423
 30
0.0
  0
SPLINE
  5
1F1
330
1F
100
AcDbEntity
  8
0
  6
Continuous
 62
     7
370
    25
100
AcDbSpline
210
0.0
220
0.0
230
1.0
 70
     8
 71
     3
 72
     8
 73
     4
 74
     0
 42
0.00000001
 43
0.00000001
 40
0.0000000000000011
 40
0.0000000000000011
 40
0.0000000000000011
 40
0.0000000000000011
 40
0.0000988236428765
 40
0.0000988236428765
 40
0.0000988236428765
 40
0.0000988236428765
 10
132.7114442075661
 20
255.3078219262863
 30
0.0
 10
132.7366000477091
 20
255.3197503025319
 30
0.0
 10
132.7616990262894
 20
255.3318259625883
 30
0.0
 10
132.7867274158811
 20
255.3440668332875
 30
0.0
  0
LINE
  5
1F2
330
1F
100
AcDbEntity
  8
0
  6
Continuous
 62
     7
370
    25
100
AcDbLine
 10
132.7114442076
 20
255.3078219263
 30
0.0
 11
125.9468861452
 21
255.3078219263
 31
0.0
  0
LINE
  5
1F3
330
1F
100
AcDbEntity
  8
0
  6
Continuous
 62
     7
370
    25
100
AcDbLine
 10
170.886257422
 20
207.553149236
 30
0.0
 11
170.886257422
 21
181.6693724726
 31
0.0
  0
LINE
  5
1F4
330
1F
100
AcDbEntity
  8
0
  6
Continuous
 62
     7
370
    25
100
AcDbLine
 10
170.886257422
 20
212.4544456658
 30
0.0
 11
170.886257422
 21
208.8659957312
 31
0.0
  0
ELLIPSE
  5
1F5
330
1F
100
AcDbEntity
  8
0
  6
Continuous
 62
     7
370
    25
100
AcDbEllipse
 10
179.1270138108
 20
197.1539423559
 30
0.0
 11
-5.596045292391608
 21
15.00796136777757
 31
0.0
210
0.0
220
0.0
230
1.0
 40
0.4514218124
 41
0.5258794326610033
 42
0.6494913437152782
  0
SPLINE
  5
1F6
330
1F
100
AcDbEntity
  8
0
  6
Continuous
 62
     7
370
    25
100
AcDbSpline
210
0.0
220
0.0
230
1.0
 70
     8
 71
     3
 72
     8
 73
     4
 74
     0
 42
0.00000001
 43
0.00000001
 40
0.0000002008695006
 40
0.0000002008695006
 40
0.0000002008695006
 40
0.0000002008695006
 40
0.0003147847660132
 40
0.0003147847660132
 40
0.0003147847660132
 40
0.0003147847660132
 10
170.8862574219879
 20
207.5531492360345
 30
0.0
 10
170.7818500393789
 20
207.5615897919263
 30
0.0
 10
170.6774390248549
 20
207.5699967176729
 30
0.0
 10
170.5730245097841
 20
207.5783708397664
 30
0.0
  0
LINE
  5
1F7
330
1F
100
AcDbEntity
  8
0
  6
Continuous
 62
     7
370
    25
100
AcDbLine
 10
165.2683565944
 20
212.5716117808
 30
0.0
 11
165.2631761485
 21
212.5688669606
 31
0.0
  0
SPLINE
  5
1F8
330
1F
100
AcDbEntity
  8
0
  6
Continuous
 62
     7
370
    25
100
AcDbSpline
210
0.0
220
0.0
230
1.0
 70
     8
 71
     3
 72
    16
 73
    12
 74
     0
 42
0.00000001
 43
0.00000001
 40
0.0
 40
0.0
 40
0.0
 40
0.0
 40
0.25
 40
0.25
 40
0.5
 40
0.5
 40
0.75
 40
0.75
 40
0.875
 40
0.875
 40
1.0
 40
1.0
 40
1.0
 40
1.0
 10
149.1620735274156
 20
252.8119090692151
 30
0.0
 10
148.5297176267109
 20
252.8119090692151
 30
0.0
 10
147.9086319422889
 20
252.879904237998
 30
0.0
 10
146.6787069048024
 20
253.0897788158248
 30
0.0
 10
146.0701008393729
 20
253.233065689616
 30
0.0
 10
144.8602906886981
 20
253.5642968669524
 30
0.0
 10
144.2609935420701
 20
253.7520122438717
 30
0.0
 10
143.367947536643
 20
254.0482046948946
 30
0.0
 10
143.071095274289
 20
254.149464786702
 30
0.0
 10
142.4782047608365
 20
254.3544663012253
 30
0.0
 10
142.1806276718008
 20
254.4587507475471
 30
0.0
 10
141.8862574219879
 20
254.5619090692152
 30
0.0
  0
SPLINE
  5
1F9
330
1F
100
AcDbEntity
  8
0
  6
Continuous
 62
     7
370
    25
100
AcDbSpline
210
0.0
220
0.0
230
1.0
 70
     8
 71
     3
 72
    14
 73
    10
 74
     0
 42
0.00000001
 43
0.00000001
 40
0.0
 40
0.0
 40
0.0
 40
0.0
 40
0.25
 40
0.25
 40
0.5
 40
0.5
 40
0.75
 40
0.75
 40
1.0
 40
1.0
 40
1.0
 40
1.0
 10
149.0605253258182
 20
254.4005454589801
 30
0.0
 10
148.4752214559113
 20
254.3384918267929
 30
0.0
 10
147.8873477905263
 20
254.3199673635197
 30
0.0
 10
146.7032740572252
 20
254.3150246473179
 30
0.0
 10
146.1066152040846
 20
254.330486251115
 30
0.0
 10
144.906719114718
 20
254.3781506567419
 30
0.0
 10
144.3051566076633
 20
254.4105893970637
 30
0.0
 10
143.0979984086378
 20
254.4825656063343
 30
0.0
 10
142.4902275448734
 20
254.5223811501668
 30
0.0
 10
141.8862574219879
 20
254.5619090692152
 30
0.0
  0
SPLINE
  5
1FA
330
1F
100
AcDbEntity
  8
0
  6
Continuous
 62
     7
370
    25
100
AcDbSpline
210
0.0
220
0.0
230
1.0
 70
     8
 71
     3
 72
     8
 73
     4
 74
     0
 42
0.00000001
 43
0.00000001
 40
0.0
 40
0.0
 40
0.0
 40
0.0
 40
0.0001055072942668
 40
0.0001055072942668
 40
0.0001055072942668
 40
0.0001055072942668
 10
149.1620735274156
 20
254.4117497213962
 30
0.0
 10
149.1282352605857
 20
254.4078658983819
 30
0.0
 10
149.0943854219876
 20
254.4041352899402
 30
0.0
 10
149.0605253258183
 20
254.4005454589797
 30
0.0
  0
LINE
  5
1FB
330
1F
100
AcDbEntity
  8
0
  6
Continuous
 62
     7
370
    25
100
AcDbLine
 10
149.1620735274
 20
254.4117497214
 30
0.0
 11
149.1620735274
 21
252.8119090692
 31
0.0
  0
ARC
  5
1FC
330
1F
100
AcDbEntity
  8
0
  6
Continuous
 62
     7
370
    25
100
AcDbCircle
 10
150.2403353893
 20
255.4794736583
 30
0.0
 40
1.59876134718265
100
AcDbArc
 50
186.1634674732
 51
222.4427022402
  0
SPLINE
  5
1FD
330
1F
100
AcDbEntity
  8
0
  6
Continuous
 62
     7
370
    25
100
AcDbSpline
210
0.0
220
0.0
230
1.0
 70
     8
 71
     3
 72
    12
 73
     8
 74
     0
 42
0.00000001
 43
0.00000001
 40
0.0
 40
0.0
 40
0.0
 40
0.0
 40
0.2499999999999999
 40
0.2499999999999999
 40
0.4999999999999998
 40
0.4999999999999998
 40
1.0
 40
1.0
 40
1.0
 40
1.0
 10
148.6508154843989
 20
255.3078219262862
 30
0.0
 10
148.1286573594698
 20
255.1959048145835
 30
0.0
 10
147.590030321882
 20
255.1165246690383
 30
0.0
 10
146.4869841205735
 20
254.9747768319228
 30
0.0
 10
145.9271291011443
 20
254.9151020349815
 30
0.0
 10
144.2246664160983
 20
254.7491637146795
 30
0.0
 10
143.054036516269
 20
254.655888740043
 30
0.0
 10
141.8862574219879
 20
254.5619090692152
 30
0.0
  0
LINE
  5
1FE
330
1F
100
AcDbEntity
  8
0
  6
Continuous
 62
     7
370
    25
100
AcDbLine
 10
134.6104413166
 20
252.8119090692
 30
0.0
 11
134.6104413166
 21
254.4117497214
 31
0.0
  0
SPLINE
  5
1FF
330
1F
100
AcDbEntity
  8
0
  6
Continuous
 62
     7
370
    25
100
AcDbSpline
210
0.0
220
0.0
230
1.0
 70
     8
 71
     3
 72
     8
 73
     4
 74
     0
 42
0.00000001
 43
0.00000001
 40
0.0
 40
0.0
 40
0.0
 40
0.0
 40
0.0001055072942852
 40
0.0001055072942852
 40
0.0001055072942852
 40
0.0001055072942852
 10
134.7119895181754
 20
254.4005454589782
 30
0.0
 10
134.6781294220001
 20
254.4041352899393
 30
0.0
 10
134.6442795833962
 20
254.4078658983811
 30
0.0
 10
134.6104413165603
 20
254.4117497213962
 30
0.0
  0
SPLINE
  5
200
330
1F
100
AcDbEntity
  8
0
  6
Continuous
 62
     7
370
    25
100
AcDbSpline
210
0.0
220
0.0
230
1.0
 70
     8
 71
     3
 72
    14
 73
    10
 74
     0
 42
0.00000001
 43
0.00000001
 40
0.0
 40
0.0
 40
0.0
 40
0.0
 40
0.2500000000000001
 40
0.2500000000000001
 40
0.5000000000000002
 40
0.5000000000000002
 40
0.7500000000000001
 40
0.7500000000000001
 40
1.0
 40
1.0
 40
1.0
 40
1.0
 10
134.7119895181754
 20
254.4005454589782
 30
0.0
 10
135.2972933881009
 20
254.33849182679
 30
0.0
 10
135.8851670535046
 20
254.3199673635179
 30
0.0
 10
137.0692407868438
 20
254.3150246473191
 30
0.0
 10
137.6658996400041
 20
254.3304862511182
 30
0.0
 10
138.8657957294091
 20
254.3781506567491
 30
0.0
 10
139.4673582364831
 20
254.4105893970731
 30
0.0
 10
140.6745164355476
 20
254.4825656063475
 30
0.0
 10
141.282287299082
 20
254.522381150179
 30
0.0
 10
141.8862574219879
 20
254.5619090692152
 30
0.0
  0
SPLINE
  5
201
330
1F
100
AcDbEntity
  8
0
  6
Continuous
 62
     7
370
    25
100
AcDbSpline
210
0.0
220
0.0
230
1.0
 70
     8
 71
     3
 72
    16
 73
    12
 74
     0
 42
0.00000001
 43
0.00000001
 40
0.0
 40
0.0
 40
0.0
 40
0.0
 40
0.2499999999999999
 40
0.2499999999999999
 40
0.4999999999999999
 40
0.4999999999999999
 40
0.75
 40
0.75
 40
0.875
 40
0.875
 40
1.0
 40
1.0
 40
1.0
 40
1.0
 10
134.6104413165603
 20
252.8119090692151
 30
0.0
 10
135.242797217265
 20
252.8119090692152
 30
0.0
 10
135.863882901687
 20
252.879904237998
 30
0.0
 10
137.0938079391735
 20
253.0897788158248
 30
0.0
 10
137.702414004603
 20
253.233065689616
 30
0.0
 10
138.9122241552779
 20
253.5642968669524
 30
0.0
 10
139.5115213019058
 20
253.7520122438717
 30
0.0
 10
140.4045673073329
 20
254.0482046948946
 30
0.0
 10
140.7014195696869
 20
254.149464786702
 30
0.0
 10
141.2943100831394
 20
254.3544663012253
 30
0.0
 10
141.591887172175
 20
254.4587507475473
 30
0.0
 10
141.8862574219879
 20
254.5619090692152
 30
0.0
  0
ARC
  5
202
330
1F
100
AcDbEntity
  8
0
  6
Continuous
 62
     7
370
    25
100
AcDbCircle
 10
133.5321794547
 20
255.4794736583
 30
0.0
 40
1.598761347194381
100
AcDbArc
 50
317.5572977601
 51
353.8365325269
  0
SPLINE
  5
203
330
1F
100
AcDbEntity
  8
0
  6
Continuous
 62
     7
370
    25
100
AcDbSpline
210
0.0
220
0.0
230
1.0
 70
     8
 71
     3
 72
    18
 73
    14
 74
     0
 42
0.00000001
 43
0.00000001
 40
0.0
 40
0.0
 40
0.0
 40
0.0
 40
0.2500000000000001
 40
0.2500000000000001
 40
0.5000000000000001
 40
0.5000000000000001
 40
0.7500000000000002
 40
0.7500000000000002
 40
0.8750000000000003
 40
0.8750000000000003
 40
0.9375000000000002
 40
0.9375000000000002
 40
1.0
 40
1.0
 40
1.0
 40
1.0
 10
135.1216993595912
 20
255.3078219262832
 30
0.0
 10
135.6461243610993
 20
255.1954189420702
 30
0.0
 10
136.1834261565726
 20
255.1164539158414
 30
0.0
 10
137.2781394926749
 20
254.9756766907618
 30
0.0
 10
137.8357839221466
 20
254.9161029754518
 30
0.0
 10
138.9703997258855
 20
254.8053834523932
 30
0.0
 10
139.5497623333942
 20
254.7543508859177
 30
0.0
 10
140.4231994043208
 20
254.6807332521526
 30
0.0
 10
140.7150008452757
 20
254.6567096719693
 30
0.0
 10
141.1536496097458
 20
254.6210020134648
 30
0.0
 10
141.3000237735029
 20
254.6091548300587
 30
0.0
 10
141.5930832036172
 20
254.5855028173625
 30
0.0
 10
141.7411971433586
 20
254.5735831220567
 30
0.0
 10
141.8862574219879
 20
254.5619090692152
 30
0.0
  0
ARC
  5
204
330
1F
100
AcDbEntity
  8
0
  6
Continuous
 62
     7
370
    25
100
AcDbCircle
 10
165.8296602656
 20
222.5534201737
 30
0.0
 40
15.40957518232581
100
AcDbArc
 50
201.2821805457
 51
241.0914009813
  0
LINE
  5
205
330
1F
100
AcDbEntity
  8
0
  6
Continuous
 62
     7
370
    25
100
AcDbLine
 10
149.3918109215
 20
252.8119090692
 30
0.0
 11
149.1620735274
 21
252.8119090692
 31
0.0
  0
SPLINE
  5
206
330
1F
100
AcDbEntity
  8
0
  6
Continuous
 62
     7
370
    25
100
AcDbSpline
210
0.0
220
0.0
230
1.0
 70
     8
 71
     3
 72
     8
 73
     4
 74
     0
 42
0.00000001
 43
0.00000001
 40
0.0
 40
0.0
 40
0.0
 40
0.0
 40
0.0002416894103822
 40
0.0002416894103822
 40
0.0002416894103822
 40
0.0002416894103822
 10
149.3918109214531
 20
254.440692313093
 30
0.0
 10
149.3152433917534
 20
254.4315291522449
 30
0.0
 10
149.2386528354279
 20
254.4218899395311
 30
0.0
 10
149.1620735274155
 20
254.4117497213963
 30
0.0
  0
LINE
  5
207
330
1F
100
AcDbEntity
  8
0
  6
Continuous
 62
     7
370
    25
100
AcDbLine
 10
149.3918109215
 20
252.8119090692
 30
0.0
 11
149.3918109215
 21
254.4406923131
 31
0.0
  0
LINE
  5
208
330
1F
100
AcDbEntity
  8
0
  6
Continuous
 62
     7
370
    25
100
AcDbLine
 10
151.9898871328
 20
252.8119090692
 30
0.0
 11
149.3918109215
 21
252.8119090692
 31
0.0
  0
SPLINE
  5
209
330
1F
100
AcDbEntity
  8
0
  6
Continuous
 62
     7
370
    25
100
AcDbSpline
210
0.0
220
0.0
230
1.0
 70
     8
 71
     3
 72
    10
 73
     6
 74
     0
 42
0.00000001
 43
0.00000001
 40
0.0
 40
0.0
 40
0.0
 40
0.0
 40
0.5
 40
0.5
 40
1.0
 40
1.0
 40
1.0
 40
1.0
 10
151.028575351463
 20
254.440692313093
 30
0.0
 10
150.7865565322913
 20
254.4831163387791
 30
0.0
 10
150.5317245015861
 20
254.4955374233928
 30
0.0
 10
149.9792814267369
 20
254.4955374233928
 30
0.0
 10
149.688834480897
 20
254.4831163387795
 30
0.0
 10
149.3918109214529
 20
254.4406923130933
 30
0.0
  0
ARC
  5
20A
330
1F
100
AcDbEntity
  8
0
  6
Continuous
 62
     7
370
    25
100
AcDbCircle
 10
150.2277891836
 20
252.8699905114
 30
0.0
 40
1.763054915953991
100
AcDbArc
 50
358.1121270215
 51
62.9862857032
  0
LINE
  5
20B
330
1F
100
AcDbEntity
  8
0
  6
Continuous
 62
     7
370
    25
100
AcDbLine
 10
151.9898871328
 20
252.8119090692
 30
0.0
 11
151.9898871328
 21
242.0619090692
 31
0.0
  0
LINE
  5
20C
330
1F
100
AcDbEntity
  8
0
  6
Continuous
 62
     7
370
    25
100
AcDbLine
 10
149.3918109215
 20
242.0619090692
 30
0.0
 11
151.9898871328
 21
242.0619090692
 31
0.0
  0
LINE
  5
20D
330
1F
100
AcDbEntity
  8
0
  6
Continuous
 62
     7
370
    25
100
AcDbLine
 10
149.3918109215
 20
242.0619090692
 30
0.0
 11
149.3918109215
 21
252.8119090692
 31
0.0
  0
LINE
  5
20E
330
1F
100
AcDbEntity
  8
0
  6
Continuous
 62
     7
370
    25
100
AcDbLine
 10
150.4743426762
 20
240.3119090692
 30
0.0
 11
149.3918109215
 21
240.3119090692
 31
0.0
  0
LINE
  5
20F
330
1F
100
AcDbEntity
  8
0
  6
Continuous
 62
     7
370
    25
100
AcDbLine
 10
149.3918109215
 20
240.3119090692
 30
0.0
 11
149.3918109215
 21
242.0619090692
 31
0.0
  0
ARC
  5
210
330
1F
100
AcDbEntity
  8
0
  6
Continuous
 62
     7
370
    25
100
AcDbCircle
 10
150.3480473048
 20
241.9525340692
 30
0.0
 40
1.645478930724557
100
AcDbArc
 50
274.4019496523
 51
3.8112610495
  0
LINE
  5
211
330
1F
100
AcDbEntity
  8
0
  6
Continuous
 62
     7
370
    25
100
AcDbLine
 10
134.6104413166
 20
252.8119090692
 30
0.0
 11
134.3807039225
 21
252.8119090692
 31
0.0
  0
LINE
  5
212
330
1F
100
AcDbEntity
  8
0
  6
Continuous
 62
     7
370
    25
100
AcDbLine
 10
134.3807039225
 20
252.8119090692
 30
0.0
 11
134.3807039225
 21
254.4406923131
 31
0.0
  0
SPLINE
  5
213
330
1F
100
AcDbEntity
  8
0
  6
Continuous
 62
     7
370
    25
100
AcDbSpline
210
0.0
220
0.0
230
1.0
 70
     8
 71
     3
 72
     8
 73
     4
 74
     0
 42
0.00000001
 43
0.00000001
 40
0.0
 40
0.0
 40
0.0
 40
0.0
 40
0.0002416894103822
 40
0.0002416894103822
 40
0.0002416894103822
 40
0.0002416894103822
 10
134.6104413165603
 20
254.4117497213962
 30
0.0
 10
134.533862008548
 20
254.4218899395308
 30
0.0
 10
134.4572714522225
 20
254.4315291522451
 30
0.0
 10
134.3807039225229
 20
254.4406923130931
 30
0.0
  0
LINE
  5
214
330
1F
100
AcDbEntity
  8
0
  6
Continuous
 62
     7
370
    25
100
AcDbLine
 10
134.3807039225
 20
252.8119090692
 30
0.0
 11
131.7826277112
 21
252.8119090692
 31
0.0
  0
ARC
  5
215
330
1F
100
AcDbEntity
  8
0
  6
Continuous
 62
     7
370
    25
100
AcDbCircle
 10
133.5447256604
 20
252.8699905114
 30
0.0
 40
1.763054915954132
100
AcDbArc
 50
117.0137142968
 51
181.8878729785
  0
SPLINE
  5
216
330
1F
100
AcDbEntity
  8
0
  6
Continuous
 62
     7
370
    25
100
AcDbSpline
210
0.0
220
0.0
230
1.0
 70
     8
 71
     3
 72
    10
 73
     6
 74
     0
 42
0.00000001
 43
0.00000001
 40
0.0
 40
0.0
 40
0.0
 40
0.0
 40
0.5
 40
0.5
 40
1.0
 40
1.0
 40
1.0
 40
1.0
 10
134.3807039225228
 20
254.440692313093
 30
0.0
 10
134.0836803630787
 20
254.4831163387791
 30
0.0
 10
133.793233417239
 20
254.4955374233928
 30
0.0
 10
133.2407903423899
 20
254.4955374233928
 30
0.0
 10
132.9859583116848
 20
254.4831163387795
 30
0.0
 10
132.7439394925131
 20
254.4406923130933
 30
0.0
  0
LINE
  5
217
330
1F
100
AcDbEntity
  8
0
  6
Continuous
 62
     7
370
    25
100
AcDbLine
 10
131.7826277112
 20
242.0619090692
 30
0.0
 11
134.3807039225
 21
242.0619090692
 31
0.0
  0
LINE
  5
218
330
1F
100
AcDbEntity
  8
0
  6
Continuous
 62
     7
370
    25
100
AcDbLine
 10
134.3807039225
 20
242.0619090692
 30
0.0
 11
134.3807039225
 21
240.3119090692
 31
0.0
  0
LINE
  5
219
330
1F
100
AcDbEntity
  8
0
  6
Continuous
 62
     7
370
    25
100
AcDbLine
 10
134.3807039225
 20
240.3119090692
 30
0.0
 11
133.2981721678
 21
240.3119090692
 31
0.0
  0
ARC
  5
21A
330
1F
100
AcDbEntity
  8
0
  6
Continuous
 62
     7
370
    25
100
AcDbCircle
 10
133.4244675392
 20
241.9525340692
 30
0.0
 40
1.645478930724555
100
AcDbArc
 50
176.1887389505
 51
265.5980503477
  0
LINE
  5
21B
330
1F
100
AcDbEntity
  8
0
  6
Continuous
 62
     7
370
    25
100
AcDbLine
 10
134.3807039225
 20
242.0619090692
 30
0.0
 11
149.3918109215
 21
242.0619090692
 31
0.0
  0
LINE
  5
21C
330
1F
100
AcDbEntity
  8
0
  6
Continuous
 62
     7
370
    25
100
AcDbLine
 10
134.3807039225
 20
252.8119090692
 30
0.0
 11
134.3807039225
 21
242.0619090692
 31
0.0
  0
LINE
  5
21D
330
1F
100
AcDbEntity
  8
0
  6
Continuous
 62
     7
370
    25
100
AcDbLine
 10
131.7826277112
 20
242.0619090692
 30
0.0
 11
131.7826277112
 21
252.8119090692
 31
0.0
  0
LINE
  5
21E
330
1F
100
AcDbEntity
  8
0
  6
Continuous
 62
     7
370
    25
100
AcDbLine
 10
149.3918109215
 20
240.3119090692
 30
0.0
 11
146.4962898079
 21
240.3119090692
 31
0.0
  0
SPLINE
  5
21F
330
1F
100
AcDbEntity
  8
0
  6
Continuous
 62
     7
370
    25
100
AcDbSpline
210
0.0
220
0.0
230
1.0
 70
     8
 71
     3
 72
    14
 73
    10
 74
     0
 42
0.00000001
 43
0.00000001
 40
0.0
 40
0.0
 40
0.0
 40
0.0
 40
0.25
 40
0.25
 40
0.5
 40
0.5
 40
0.75
 40
0.75
 40
1.0
 40
1.0
 40
1.0
 40
1.0
 10
137.2762250360632
 20
240.3119090692149
 30
0.0
 10
138.0358032691651
 20
240.3119090692149
 30
0.0
 10
138.8002061377592
 20
240.3313637009472
 30
0.0
 10
140.3387776520354
 20
240.3626931869436
 30
0.0
 10
141.1140856330987
 20
240.3746185029922
 30
0.0
 10
142.6642165272864
 20
240.3745657453606
 30
0.0
 10
143.4372732105473
 20
240.362625865948
 30
0.0
 10
144.9730063331971
 20
240.3313448005075
 30
0.0
 10
145.736707866742
 20
240.3119090692085
 30
0.0
 10
146.4962898079127
 20
240.3119090692085
 30
0.0
  0
LINE
  5
220
330
1F
100
AcDbEntity
  8
0
  6
Continuous
 62
     7
370
    25
100
AcDbLine
 10
137.2762250361
 20
240.3119090692
 30
0.0
 11
134.3807039225
 21
240.3119090692
 31
0.0
  0
SPLINE
  5
221
330
1F
100
AcDbEntity
  8
0
  6
Continuous
 62
     7
370
    25
100
AcDbSpline
210
0.0
220
0.0
230
1.0
 70
     8
 71
     3
 72
    26
 73
    22
 74
     0
 42
0.00000001
 43
0.00000001
 40
0.0
 40
0.0
 40
0.0
 40
0.0
 40
0.0164500299912593
 40
0.0742462163199685
 40
0.1327423880177306
 40
0.1909816806447822
 40
0.2480461079420347
 40
0.3053606751456352
 40
0.3637113340690808
 40
0.4221552404295451
 40
0.4797405771634524
 40
0.5366131946726088
 40
0.5946927023357595
 40
0.6532143755230008
 40
0.7112188823310853
 40
0.7680468008763588
 40
0.8257330002977563
 40
0.8842045812241769
 40
0.9425070556221264
 40
0.999702199573512
 40
1.0
 40
1.0
 40
1.0
 40
1.0
 10
174.9110720950731
 20
182.9250122251662
 30
0.0
 10
174.9071565844863
 20
182.9186088241426
 30
0.0
 10
174.8894841640601
 20
182.8897074605686
 30
0.0
 10
174.8563116500896
 20
183.2969015972864
 30
0.0
 10
174.8118935318595
 20
184.1552935131876
 30
0.0
 10
174.7677303895875
 20
185.4660989075202
 30
0.0
 10
174.7266753523366
 20
187.1303398308199
 30
0.0
 10
174.6848655961392
 20
189.1142786101768
 30
0.0
 10
174.6405626003657
 20
191.3717998365011
 30
0.0
 10
174.5961612206249
 20
193.819769155276
 30
0.0
 10
174.5535657758566
 20
196.3512467638158
 30
0.0
 10
174.5130914223698
 20
198.8995607749449
 30
0.0
 10
174.4692350603814
 20
201.4034001259576
 30
0.0
 10
174.4247770298454
 20
203.7814719011894
 30
0.0
 10
174.3810868497618
 20
205.9232637079909
 30
0.0
 10
174.3407502732467
 20
207.7723879800135
 30
0.0
 10
174.2978679557838
 20
209.2810861068227
 30
0.0
 10
174.2534652853231
 20
210.419055984483
 30
0.0
 10
174.209141174988
 20
211.0603604028992
 30
0.0
 10
174.1815363693455
 20
211.323806801853
 30
0.0
 10
174.1676116741316
 20
211.2492346859152
 30
0.0
 10
174.1675395473651
 20
211.2488484192494
 30
0.0
  0
SPLINE
  5
222
330
1F
100
AcDbEntity
  8
0
  6
Continuous
 62
     7
370
    25
100
AcDbSpline
210
0.0
220
0.0
230
1.0
 70
     8
 71
     3
 72
    25
 73
    21
 74
     0
 42
0.00000001
 43
0.00000001
 40
0.0
 40
0.0
 40
0.0
 40
0.0
 40
0.0214927406647432
 40
0.0794143573753929
 40
0.1379517358348054
 40
0.196146024589656
 40
0.2531312699848115
 40
0.3105998298952384
 40
0.3690230051576256
 40
0.4274529652133383
 40
0.4849412264899944
 40
0.5419125156723311
 40
0.6000951783065003
 40
0.6586344122859309
 40
0.7165711865817119
 40
0.7733959305044915
 40
0.8312148691340019
 40
0.8897355590547047
 40
0.948000763177248
 40
1.0
 40
1.0
 40
1.0
 40
1.0
 10
173.4109429257124
 20
182.9316588410645
 30
0.0
 10
173.4058370221422
 20
182.9271823030963
 30
0.0
 10
173.3869710218877
 20
182.9106417701064
 30
0.0
 10
173.3523321923163
 20
183.3550669866409
 30
0.0
 10
173.3079016371991
 20
184.2569383456332
 30
0.0
 10
173.2638591200931
 20
185.6013062586443
 30
0.0
 10
173.223117471604
 20
187.2960071858457
 30
0.0
 10
173.1809267018374
 20
189.3062865446634
 30
0.0
 10
173.1365705377163
 20
191.5855082298747
 30
0.0
 10
173.0922070928976
 20
194.0447433048294
 30
0.0
 10
173.0499595455518
 20
196.5802515336166
 30
0.0
 10
173.0092587623646
 20
199.1271285273247
 30
0.0
 10
172.9652438055067
 20
201.6237830008769
 30
0.0
 10
172.9207906219065
 20
203.9847255102823
 30
0.0
 10
172.8773215742051
 20
206.102274364136
 30
0.0
 10
172.8370668016744
 20
207.9214985550121
 30
0.0
 10
172.7938995726985
 20
209.4031592471221
 30
0.0
 10
172.7494554773387
 20
210.4828201537482
 30
0.0
 10
172.7066024493286
 20
211.1400192836879
 30
0.0
 10
172.6802759346596
 20
211.2024213765519
 30
0.0
 10
172.6678607021581
 20
211.2318493696315
 30
0.0
  0
SPLINE
  5
223
330
1F
100
AcDbEntity
  8
0
  6
Continuous
 62
     7
370
    25
100
AcDbSpline
210
0.0
220
0.0
230
1.0
 70
     8
 71
     3
 72
    19
 73
    15
 74
     0
 42
0.00000001
 43
0.00000001
 40
0.0
 40
0.0
 40
0.0
 40
0.0
 40
0.0404826369338616
 40
0.1278395828250647
 40
0.215995723289133
 40
0.3035060122740747
 40
0.3891940629073231
 40
0.4759126500420906
 40
0.563944202184394
 40
0.6518557107792285
 40
0.7382257192104548
 40
0.8241606987291752
 40
0.9118766892852771
 40
1.0
 40
1.0
 40
1.0
 40
1.0
 10
171.9110593215327
 20
182.9345181406376
 30
0.0
 10
171.9046756934256
 20
182.9338892936649
 30
0.0
 10
171.8845169188018
 20
182.9319034661415
 30
0.0
 10
171.8483496660917
 20
183.4171509566366
 30
0.0
 10
171.803909346689
 20
184.3618687933932
 30
0.0
 10
171.7600213269526
 20
185.7394911740219
 30
0.0
 10
171.7195176524986
 20
187.4643124127125
 30
0.0
 10
171.67697458122
 20
189.5006002163249
 30
0.0
 10
171.6325781486754
 20
191.8007316753184
 30
0.0
 10
171.5882667507202
 20
194.2699796400016
 30
0.0
 10
171.5463923245098
 20
196.8099275978175
 30
0.0
 10
171.5054027680682
 20
199.3514223881754
 30
0.0
 10
171.4612129898156
 20
201.8535349803028
 30
0.0
 10
171.4316145474891
 20
203.3873004798286
 30
0.0
 10
171.4167810449049
 20
204.1559596629658
 30
0.0
  0
LINE
  5
224
330
1F
100
AcDbEntity
  8
0
  6
Continuous
 62
     7
370
    25
100
AcDbLine
 10
171.4167810449
 20
204.1559515883
 30
0.0
 11
171.8855312025
 21
204.5619005324
 31
0.0
  0
SPLINE
  5
225
330
1F
100
AcDbEntity
  8
0
  6
Continuous
 62
     7
370
    25
100
AcDbSpline
210
0.0
220
0.0
230
1.0
 70
     8
 71
     3
 72
    27
 73
    23
 74
     0
 42
0.00000001
 43
0.00000001
 40
0.0
 40
0.0
 40
0.0
 40
0.0
 40
0.0100400396854842
 40
0.0669707335065468
 40
0.1248426800975565
 40
0.1827168676938405
 40
0.239654068867332
 40
0.2960902482643943
 40
0.3537255730445688
 40
0.4117096198516856
 40
0.4690925593404896
 40
0.5253783206931526
 40
0.5826549372357763
 40
0.6406222518061147
 40
0.6656907788701856
 40
0.7081784552505366
 40
0.7499358845755374
 40
0.8066013098249242
 40
0.8643709424054793
 40
0.9223155958345052
 40
0.9794892490840695
 40
1.0
 40
1.0
 40
1.0
 40
1.0
 10
175.3863660670785
 20
182.0963443626737
 30
0.0
 10
175.3839335741468
 20
182.0854893139966
 30
0.0
 10
175.3677079574178
 20
182.0130821726978
 30
0.0
 10
175.3369851159779
 20
182.3435722546778
 30
0.0
 10
175.2926078971805
 20
183.1172946490719
 30
0.0
 10
175.2482517701447
 20
184.3922032112168
 30
0.0
 10
175.206021905619
 20
186.0532418264059
 30
0.0
 10
175.1653075748627
 20
188.0649716907368
 30
0.0
 10
175.1212852424765
 20
190.378540389776
 30
0.0
 10
175.0768320042637
 20
192.9245943137344
 30
0.0
 10
175.0333770852005
 20
195.5847778111133
 30
0.0
 10
174.9931183281422
 20
198.2804841626889
 30
0.0
 10
174.9499606486784
 20
200.9466609509342
 30
0.0
 10
174.9138304098366
 20
203.026341659836
 30
0.0
 10
174.8817913989192
 20
204.7729792493335
 30
0.0
 10
174.8541237629281
 20
206.2052067184154
 30
0.0
 10
174.8202841666053
 20
207.8724584686433
 30
0.0
 10
174.7823800231216
 20
209.4519049422429
 30
0.0
 10
174.7381702910404
 20
210.8023078626498
 30
0.0
 10
174.6937366176836
 20
211.6739014206058
 30
0.0
 10
174.6597948261943
 20
212.0762195770297
 30
0.0
 10
174.6411167609345
 20
212.0219313869516
 30
0.0
 10
174.6361852544339
 20
212.0075978594394
 30
0.0
  0
SPLINE
  5
226
330
1F
100
AcDbEntity
  8
0
  6
Continuous
 62
     7
370
    25
100
AcDbSpline
210
0.0
220
0.0
230
1.0
 70
     8
 71
     3
 72
    27
 73
    23
 74
     0
 42
0.00000001
 43
0.00000001
 40
0.0
 40
0.0
 40
0.0
 40
0.0
 40
0.0100400396854842
 40
0.0669707335065467
 40
0.1248426800975564
 40
0.1827168676938403
 40
0.2396540688673318
 40
0.296090248264394
 40
0.3537255730445685
 40
0.4117096198516852
 40
0.4690925593404892
 40
0.525378320693152
 40
0.5826549372357758
 40
0.640622251806114
 40
0.6656907788701849
 40
0.7081784552505359
 40
0.7499358845755366
 40
0.8066013098249234
 40
0.8643709424054785
 40
0.9223155958345043
 40
0.9794892490840685
 40
1.0
 40
1.0
 40
1.0
 40
1.0
 10
173.8863660670784
 20
182.0963443626737
 30
0.0
 10
173.8839335741468
 20
182.0854893139966
 30
0.0
 10
173.8677079574178
 20
182.0130821726978
 30
0.0
 10
173.8369851159779
 20
182.3435722546778
 30
0.0
 10
173.7926078971805
 20
183.1172946490719
 30
0.0
 10
173.7482517701446
 20
184.3922032112168
 30
0.0
 10
173.706021905619
 20
186.0532418264059
 30
0.0
 10
173.6653075748627
 20
188.0649716907368
 30
0.0
 10
173.6212852424766
 20
190.378540389776
 30
0.0
 10
173.5768320042637
 20
192.9245943137344
 30
0.0
 10
173.5333770852005
 20
195.5847778111133
 30
0.0
 10
173.4931183281422
 20
198.2804841626889
 30
0.0
 10
173.4499606486784
 20
200.9466609509342
 30
0.0
 10
173.4138304098366
 20
203.026341659836
 30
0.0
 10
173.3817913989192
 20
204.7729792493335
 30
0.0
 10
173.354123762928
 20
206.2052067184154
 30
0.0
 10
173.3202841666054
 20
207.8724584686433
 30
0.0
 10
173.2823800231216
 20
209.4519049422429
 30
0.0
 10
173.2381702910404
 20
210.8023078626498
 30
0.0
 10
173.1937366176836
 20
211.6739014206058
 30
0.0
 10
173.1597948261943
 20
212.0762195770297
 30
0.0
 10
173.1411167609345
 20
212.0219313869516
 30
0.0
 10
173.1361852544339
 20
212.0075978594394
 30
0.0
  0
SPLINE
  5
227
330
1F
100
AcDbEntity
  8
0
  6
Continuous
 62
     7
370
    25
100
AcDbSpline
210
0.0
220
0.0
230
1.0
 70
     8
 71
     3
 72
    21
 73
    17
 74
     0
 42
0.00000001
 43
0.00000001
 40
0.0
 40
0.0
 40
0.0
 40
0.0
 40
0.0150605813385307
 40
0.1004595809252289
 40
0.1872705085865144
 40
0.2740847978721829
 40
0.3594935588257307
 40
0.4441507610750637
 40
0.530606743722167
 40
0.6175858275337901
 40
0.703663219126634
 40
0.7880947864917012
 40
0.8740126881393593
 40
0.9609666727261912
 40
0.9985707662071613
 40
1.0
 40
1.0
 40
1.0
 40
1.0
 10
172.3863660670784
 20
182.0963443626737
 30
0.0
 10
172.3839335741467
 20
182.085489313999
 30
0.0
 10
172.367707957417
 20
182.0130821727163
 30
0.0
 10
172.3369851160027
 20
182.3435722541273
 30
0.0
 10
172.2926078970902
 20
183.1172946510752
 30
0.0
 10
172.2482517704781
 20
184.3922032038186
 30
0.0
 10
172.2060219044018
 20
186.0532418534112
 30
0.0
 10
172.1653075794037
 20
188.0649715899906
 30
0.0
 10
172.1212852250776
 20
190.3785407757869
 30
0.0
 10
172.0768320693042
 20
192.9245928707548
 30
0.0
 10
172.0333768472616
 20
195.5847830899905
 30
0.0
 10
171.9931192040004
 20
198.2804647310292
 30
0.0
 10
171.9499572965287
 20
200.946735321226
 30
0.0
 10
171.9138400380067
 20
203.0261280506925
 30
0.0
 10
171.892383990048
 20
204.195226127327
 30
0.0
 10
171.8857732592096
 20
204.5489487212739
 30
0.0
 10
171.8855312024707
 20
204.5619005324534
 30
0.0
  0
SPLINE
  5
228
330
1F
100
AcDbEntity
  8
0
  6
Continuous
 62
     7
370
    25
100
AcDbSpline
210
0.0
220
0.0
230
1.0
 70
     8
 71
     3
 72
    16
 73
    12
 74
     0
 42
0.00000001
 43
0.00000001
 40
0.0
 40
0.0
 40
0.0
 40
0.0
 40
0.25
 40
0.25
 40
0.375
 40
0.375
 40
0.5
 40
0.5
 40
0.75
 40
0.75
 40
1.0
 40
1.0
 40
1.0
 40
1.0
 10
146.1885675850316
 20
239.335024278645
 30
0.0
 10
145.4888186322563
 20
239.335024278645
 30
0.0
 10
144.7802026099893
 20
239.3650691888969
 30
0.0
 10
143.7030266190349
 20
239.4020781585046
 30
0.0
 10
143.3415896126622
 20
239.4134161056023
 30
0.0
 10
142.6137643795473
 20
239.4291793644566
 30
0.0
 10
142.2458560448394
 20
239.4335795034198
 30
0.0
 10
141.1463426515683
 20
239.4334183737255
 30
0.0
 10
140.4222919978075
 20
239.4142132977429
 30
0.0
 10
138.9908631217392
 20
239.3650056091543
 30
0.0
 10
138.2834813022645
 20
239.335024278645
 30
0.0
 10
137.5839472589443
 20
239.335024278645
 30
0.0
  0
LWPOLYLINE
  5
229
330
1F
100
AcDbEntity
  8
0
  6
Continuous
 62
     7
370
    25
100
AcDbPolyline
 90
        9
 70
   128
 43
0.0
 10
137.5839472589
 20
239.3350242786
 10
137.5768387889
 20
239.5267970705
 10
137.5585143771
 20
239.7105523606
 10
137.5296577101
 20
239.8794342131
 10
137.4913454341
 20
240.0271416221
 10
137.4450069856
 20
240.1481636033
 10
137.3923712586
 20
240.2379848093
 10
137.3354020996
 20
240.2932539984
 10
137.2762250361
 20
240.3119090692
  0
LWPOLYLINE
  5
22A
330
1F
100
AcDbEntity
  8
0
  6
Continuous
 62
     7
370
    25
100
AcDbPolyline
 90
        9
 70
   128
 43
0.0
 10
146.4962898079
 20
240.3119090692
 10
146.4371127443
 20
240.2932539984
 10
146.3801435854
 20
240.2379848093
 10
146.3275078584
 20
240.1481636033
 10
146.2811694099
 20
240.0271416221
 10
146.2428571339
 20
239.8794342131
 10
146.2140004669
 20
239.7105523606
 10
146.1956760551
 20
239.5267970705
 10
146.188567585
 20
239.3350242786
  0
SPLINE
  5
22B
330
1F
100
AcDbEntity
  8
0
  6
Continuous
 62
     7
370
    25
100
AcDbSpline
210
0.0
220
0.0
230
1.0
 70
     8
 71
     3
 72
    26
 73
    22
 74
     0
 42
0.00000001
 43
0.00000001
 40
0.0
 40
0.0
 40
0.0
 40
0.0
 40
0.0050097736229769
 40
0.0618155421883053
 40
0.1196437949784034
 40
0.1775599725932756
 40
0.2346210558703166
 40
0.2909852373515793
 40
0.3485463827338693
 40
0.4065412539661167
 40
0.464019228795079
 40
0.5203338421173853
 40
0.5775067750719397
 40
0.6354536417373222
 40
0.693228461430505
 40
0.749901797733141
 40
0.8043296581558625
 40
0.8598100799709114
 40
0.915719680690678
 40
0.973716894694158
 40
1.0
 40
1.0
 40
1.0
 40
1.0
 10
175.5738343196719
 20
182.0809810161489
 30
0.0
 10
175.5726151625443
 20
182.0747355293127
 30
0.0
 10
175.5575719960212
 20
181.997672535241
 30
0.0
 10
175.5284433736311
 20
182.2992353478356
 30
0.0
 10
175.4840949404602
 20
183.0240430206015
 30
0.0
 10
175.4397065825559
 20
184.2618437928486
 30
0.0
 10
175.3971256056087
 20
185.888933321849
 30
0.0
 10
175.3566421292039
 20
187.8714028553867
 30
0.0
 10
175.3127764457048
 20
190.1596675385773
 30
0.0
 10
175.2683184684129
 20
192.6896613471042
 30
0.0
 10
175.2246393941292
 20
195.3433581343854
 30
0.0
 10
175.1843075907186
 20
198.0384402744674
 30
0.0
 10
175.1414151281174
 20
200.7103213549045
 30
0.0
 10
175.0969891123389
 20
203.2863401708415
 30
0.0
 10
175.0527514221502
 20
205.6509485575318
 30
0.0
 10
175.0118492867418
 20
207.6949478413933
 30
0.0
 10
174.9715843333087
 20
209.3854533537529
 30
0.0
 10
174.9291040823321
 20
210.7070863884824
 30
0.0
 10
174.8855881864571
 20
211.6085816310266
 30
0.0
 10
174.8502521771762
 20
212.0566170112286
 30
0.0
 10
174.8300385884734
 20
212.0151658913765
 30
0.0
 10
174.8237349118281
 20
212.0022392181383
 30
0.0
  0
SPLINE
  5
22C
330
1F
100
AcDbEntity
  8
0
  6
Continuous
 62
     7
370
    25
100
AcDbSpline
210
0.0
220
0.0
230
1.0
 70
     8
 71
     3
 72
    26
 73
    22
 74
     0
 42
0.00000001
 43
0.00000001
 40
0.0
 40
0.0
 40
0.0
 40
0.0
 40
0.0050097736229761
 40
0.0618155421883046
 40
0.1196437949784027
 40
0.1775599725932749
 40
0.234621055870316
 40
0.2909852373515787
 40
0.3485463827338687
 40
0.4065412539661162
 40
0.4640192287950785
 40
0.5203338421173848
 40
0.5775067750719393
 40
0.6354536417373218
 40
0.6932284614305048
 40
0.7499017977331408
 40
0.8043296581558624
 40
0.8598100799709113
 40
0.9157196806906779
 40
0.9737168946941579
 40
1.0
 40
1.0
 40
1.0
 40
1.0
 10
174.0738343196719
 20
182.0809810161489
 30
0.0
 10
174.0726151625443
 20
182.0747355293127
 30
0.0
 10
174.0575719960212
 20
181.997672535241
 30
0.0
 10
174.0284433736312
 20
182.2992353478356
 30
0.0
 10
173.9840949404602
 20
183.0240430206015
 30
0.0
 10
173.9397065825559
 20
184.2618437928486
 30
0.0
 10
173.8971256056087
 20
185.888933321849
 30
0.0
 10
173.8566421292039
 20
187.8714028553867
 30
0.0
 10
173.8127764457048
 20
190.1596675385773
 30
0.0
 10
173.7683184684129
 20
192.6896613471042
 30
0.0
 10
173.7246393941292
 20
195.3433581343854
 30
0.0
 10
173.6843075907187
 20
198.0384402744674
 30
0.0
 10
173.6414151281174
 20
200.7103213549044
 30
0.0
 10
173.5969891123389
 20
203.2863401708415
 30
0.0
 10
173.5527514221502
 20
205.6509485575317
 30
0.0
 10
173.5118492867418
 20
207.6949478413933
 30
0.0
 10
173.4715843333087
 20
209.3854533537529
 30
0.0
 10
173.4291040823321
 20
210.7070863884824
 30
0.0
 10
173.3855881864571
 20
211.6085816310266
 30
0.0
 10
173.3502521771762
 20
212.0566170112286
 30
0.0
 10
173.3300385884734
 20
212.0151658913765
 30
0.0
 10
173.3237349118281
 20
212.0022392181383
 30
0.0
  0
SPLINE
  5
22D
330
1F
100
AcDbEntity
  8
0
  6
Continuous
 62
     7
370
    25
100
AcDbSpline
210
0.0
220
0.0
230
1.0
 70
     8
 71
     3
 72
    26
 73
    22
 74
     0
 42
0.00000001
 43
0.00000001
 40
0.0
 40
0.0
 40
0.0
 40
0.0
 40
0.005009773622976
 40
0.0618155421883044
 40
0.1196437949784026
 40
0.1775599725932748
 40
0.2346210558703158
 40
0.2909852373515786
 40
0.3485463827338686
 40
0.4065412539661161
 40
0.4640192287950785
 40
0.5203338421173848
 40
0.5775067750719393
 40
0.6354536417373218
 40
0.6932284614305048
 40
0.7499017977331408
 40
0.8043296581558624
 40
0.8598100799709113
 40
0.9157196806906779
 40
0.9737168946941579
 40
1.0
 40
1.0
 40
1.0
 40
1.0
 10
172.5738343196719
 20
182.0809810161489
 30
0.0
 10
172.5726151625443
 20
182.0747355293127
 30
0.0
 10
172.5575719960212
 20
181.997672535241
 30
0.0
 10
172.5284433736311
 20
182.2992353478356
 30
0.0
 10
172.4840949404602
 20
183.0240430206015
 30
0.0
 10
172.4397065825559
 20
184.2618437928486
 30
0.0
 10
172.3971256056087
 20
185.888933321849
 30
0.0
 10
172.3566421292039
 20
187.8714028553867
 30
0.0
 10
172.3127764457048
 20
190.1596675385773
 30
0.0
 10
172.2683184684129
 20
192.6896613471041
 30
0.0
 10
172.2246393941292
 20
195.3433581343854
 30
0.0
 10
172.1843075907187
 20
198.0384402744674
 30
0.0
 10
172.1414151281174
 20
200.7103213549044
 30
0.0
 10
172.0969891123389
 20
203.2863401708415
 30
0.0
 10
172.0527514221502
 20
205.6509485575317
 30
0.0
 10
172.0118492867418
 20
207.6949478413933
 30
0.0
 10
171.9715843333087
 20
209.3854533537529
 30
0.0
 10
171.9291040823321
 20
210.7070863884824
 30
0.0
 10
171.8855881864571
 20
211.6085816310266
 30
0.0
 10
171.8502521771762
 20
212.0566170112286
 30
0.0
 10
171.8300385884734
 20
212.0151658913765
 30
0.0
 10
171.8237349118281
 20
212.0022392181383
 30
0.0
  0
SPLINE
  5
22E
330
1F
100
AcDbEntity
  8
0
  6
Continuous
 62
     7
370
    25
100
AcDbSpline
210
0.0
220
0.0
230
1.0
 70
     8
 71
     3
 72
    13
 73
     9
 74
     0
 42
0.00000001
 43
0.00000001
 40
0.0
 40
0.0
 40
0.0
 40
0.0
 40
0.0200384432477407
 40
0.2472541330585794
 40
0.4785596268509374
 40
0.710216808512628
 40
0.9384537239807504
 40
1.0
 40
1.0
 40
1.0
 40
1.0
 10
171.0738343196719
 20
182.0809810161489
 30
0.0
 10
171.0726151579257
 20
182.074735384284
 30
0.0
 10
171.0575719344128
 20
181.9976706007045
 30
0.0
 10
171.0284472848185
 20
182.2993581611921
 30
0.0
 10
170.9840808146523
 20
183.0235994627448
 30
0.0
 10
170.9397588252798
 20
184.2634842420782
 30
0.0
 10
170.9071764386627
 20
185.495643240943
 30
0.0
 10
170.8899220379493
 20
186.2871925131893
 30
0.0
 10
170.8862574219879
 20
186.4553075434037
 30
0.0
  0
SPLINE
  5
22F
330
1F
100
AcDbEntity
  8
0
  6
Continuous
 62
     7
370
    25
100
AcDbSpline
210
0.0
220
0.0
230
1.0
 70
     8
 71
     3
 72
    15
 73
    11
 74
     0
 42
0.00000001
 43
0.00000001
 40
0.0
 40
0.0
 40
0.0
 40
0.0
 40
0.1122165900292222
 40
0.2415380332666769
 40
0.3699054500397816
 40
0.4956009334811168
 40
0.6228223614383935
 40
0.751963462853384
 40
0.8809218114665369
 40
1.0
 40
1.0
 40
1.0
 40
1.0
 10
175.6362574219879
 20
198.9576721565311
 30
0.0
 10
175.6236582788793
 20
199.6958859035535
 30
0.0
 10
175.5965395413867
 20
201.2848372033548
 30
0.0
 10
175.5537240373062
 20
203.5750081189564
 30
0.0
 10
175.5099000917184
 20
205.7428270995172
 30
0.0
 10
175.4693892157215
 20
207.6182927922347
 30
0.0
 10
175.4268339736553
 20
209.1645051395574
 30
0.0
 10
175.3824525702911
 20
210.3193735451808
 30
0.0
 10
175.3389570112217
 20
211.0614871726121
 30
0.0
 10
175.3118631763104
 20
211.1766217834924
 30
0.0
 10
175.2988558798098
 20
211.2318959824424
 30
0.0
  0
SPLINE
  5
230
330
1F
100
AcDbEntity
  8
0
  6
Continuous
 62
     7
370
    25
100
AcDbSpline
210
0.0
220
0.0
230
1.0
 70
     8
 71
     3
 72
    25
 73
    21
 74
     0
 42
0.00000001
 43
0.00000001
 40
0.0
 40
0.0
 40
0.0
 40
0.0
 40
0.0257441542042713
 40
0.0835134469863054
 40
0.1419824015329174
 40
0.2001945986793208
 40
0.25723247839067
 40
0.3145203753501949
 40
0.3728438840182093
 40
0.4312605989404922
 40
0.4888191458452128
 40
0.5456653004947768
 40
0.6037177832363425
 40
0.6622122279993654
 40
0.7201897492464233
 40
0.7769912283827214
 40
0.8346505850459093
 40
0.8930949600146671
 40
0.9513703094486281
 40
0.9999999999999999
 40
0.9999999999999999
 40
0.9999999999999999
 40
0.9999999999999999
 10
174.5427419211754
 20
182.9287523310886
 30
0.0
 10
174.5366197694493
 20
182.9162695003873
 30
0.0
 10
174.5167596493781
 20
182.8757754833092
 30
0.0
 10
174.4813295559686
 20
183.2917173325668
 30
0.0
 10
174.4368888559658
 20
184.1566809368375
 30
0.0
 10
174.392731735414
 20
185.4657322292485
 30
0.0
 10
174.3516751085352
 20
187.130432621537
 30
0.0
 10
174.3098657870503
 20
189.1142471950103
 30
0.0
 10
174.2655626775475
 20
191.371801711174
 30
0.0
 10
174.2211613285456
 20
193.8197610394439
 30
0.0
 10
174.1785658682891
 20
196.3512430277364
 30
0.0
 10
174.1380915195149
 20
198.8995485180884
 30
0.0
 10
174.0942351729134
 20
201.4034182280242
 30
0.0
 10
174.0497771021203
 20
203.7813772622494
 30
0.0
 10
174.0060870677844
 20
205.9235859394603
 30
0.0
 10
173.9657499358492
 20
207.7711832927673
 30
0.0
 10
173.922869720755
 20
209.2856688014335
 30
0.0
 10
173.878459116358
 20
210.401708599904
 30
0.0
 10
173.8363395347394
 20
211.088850505252
 30
0.0
 10
173.8106521746104
 20
211.1763019360364
 30
0.0
 10
173.7989673337991
 20
211.2160824367303
 30
0.0
  0
SPLINE
  5
231
330
1F
100
AcDbEntity
  8
0
  6
Continuous
 62
     7
370
    25
100
AcDbSpline
210
0.0
220
0.0
230
1.0
 70
     8
 71
     3
 72
    25
 73
    21
 74
     0
 42
0.00000001
 43
0.00000001
 40
0.0
 40
0.0
 40
0.0
 40
0.0
 40
0.0306618560719737
 40
0.0885464284937811
 40
0.1470463713905747
 40
0.2052034465631216
 40
0.2621522521003747
 40
0.3195840565267655
 40
0.3779698682998756
 40
0.4363624631591637
 40
0.4938139639946704
 40
0.5507488168316644
 40
0.60889426880809
 40
0.6673960667572781
 40
0.7252957929496633
 40
0.7820841973822807
 40
0.8398661569757219
 40
0.8983494217330747
 40
0.9565773668130267
 40
1.0
 40
1.0
 40
1.0
 40
1.0
 10
173.0425254241878
 20
182.9288707900758
 30
0.0
 10
173.0352465435776
 20
182.9199611380498
 30
0.0
 10
173.014226326147
 20
182.8942315193284
 30
0.0
 10
172.9773499210105
 20
183.350600846658
 30
0.0
 10
172.9328970444352
 20
184.2581298010238
 30
0.0
 10
172.8888604657587
 20
185.600990355354
 30
0.0
 10
172.8481172499891
 20
187.2960856939711
 30
0.0
 10
172.8059269116656
 20
189.3062578062672
 30
0.0
 10
172.7615706347935
 20
191.585507898472
 30
0.0
 10
172.7172072203493
 20
194.0447347257049
 30
0.0
 10
172.6749596529194
 20
196.5802451686887
 30
0.0
 10
172.6342588857316
 20
199.1271204922876
 30
0.0
 10
172.5902439134264
 20
201.6237796719251
 30
0.0
 10
172.5457908047747
 20
203.9847062804974
 30
0.0
 10
172.5023214764946
 20
206.1023160747238
 30
0.0
 10
172.4620677090842
 20
207.9213199194409
 30
0.0
 10
172.4188966708373
 20
209.4038212929886
 30
0.0
 10
172.3744670278424
 20
210.480305586202
 30
0.0
 10
172.3337351888975
 20
211.1150551664699
 30
0.0
 10
172.3094283918695
 20
211.1773207595838
 30
0.0
 10
172.2990451245109
 20
211.2039190933665
 30
0.0
  0
SPLINE
  5
232
330
1F
100
AcDbEntity
  8
0
  6
Continuous
 62
     7
370
    25
100
AcDbSpline
210
0.0
220
0.0
230
1.0
 70
     8
 71
     3
 72
    19
 73
    15
 74
     0
 42
0.00000001
 43
0.00000001
 40
0.0
 40
0.0
 40
0.0
 40
0.0
 40
0.0532475561386642
 40
0.1394423464909378
 40
0.2264257037311102
 40
0.3127718059995497
 40
0.3973199112399582
 40
0.4828848336205094
 40
0.5697452583404884
 40
0.6564872410560131
 40
0.7417082352434675
 40
0.8264999749873017
 40
0.9130490345028692
 40
1.0
 40
1.0
 40
1.0
 40
1.0
 10
171.5424793573953
 20
182.9254882644917
 30
0.0
 10
171.5339804516427
 20
182.9221442026409
 30
0.0
 10
171.511723892907
 20
182.9133869212724
 30
0.0
 10
171.4733662011537
 20
183.413346915221
 30
0.0
 10
171.4289051081882
 20
184.3628800494177
 30
0.0
 10
171.3850226021909
 20
185.7392215775838
 30
0.0
 10
171.3445174724313
 20
187.4643776691856
 30
0.0
 10
171.3019748047774
 20
189.5005738294495
 30
0.0
 10
171.2575782672155
 20
191.8007292937484
 30
0.0
 10
171.2132668963806
 20
194.2699702482249
 30
0.0
 10
171.1713924493013
 20
196.8099198008362
 30
0.0
 10
171.1304029073568
 20
199.3514141753882
 30
0.0
 10
171.086213133545
 20
201.8535271344101
 30
0.0
 10
171.0566146908692
 20
203.3872930341805
 30
0.0
 10
171.0417811877174
 20
204.1559524382459
 30
0.0
  0
ELLIPSE
  5
233
330
1F
100
AcDbEntity
  8
0
  6
Continuous
 62
     7
370
    25
100
AcDbEllipse
 10
163.2252742162
 20
197.0619090692
 30
0.0
 11
5.514779443589646
 21
14.79197504224379
 31
0.0
210
0.0
220
0.0
230
1.0
 40
0.4514183623
 41
5.402723445751577
 42
5.733243257345102
  0
LINE
  5
234
330
1F
100
AcDbEntity
  8
0
  6
Continuous
 62
     7
370
    25
100
AcDbLine
 10
171.4167716424
 20
208.3717859496
 30
0.0
 11
171.0417717852
 21
208.3717859495
 31
0.0
  0
ELLIPSE
  5
235
330
1F
100
AcDbEntity
  8
0
  6
Continuous
 62
     7
370
    25
100
AcDbEllipse
 10
179.2332843961
 20
197.0619090692
 30
0.0
 11
-5.514823779167075
 21
14.79197426083275
 31
0.0
210
0.0
220
0.0
230
1.0
 40
0.4514155752
 41
0.5499417359511678
 42
0.610687564305693
  0
ARC
  5
236
330
1F
100
AcDbEntity
  8
0
  6
Continuous
 62
     7
370
    25
100
AcDbCircle
 10
133.4589006204
 20
255.5046443714
 30
0.0
 40
1.587597143788567
100
AcDbArc
 50
316.4967713478
 51
354.1948906197
  0
ARC
  5
237
330
1F
100
AcDbEntity
  8
0
  6
Continuous
 62
     7
370
    25
100
AcDbCircle
 10
150.3136142236
 20
255.5046443714
 30
0.0
 40
1.587597143788619
100
AcDbArc
 50
185.8051093803
 51
223.5032286522
  0
ARC
  5
238
330
1F
100
AcDbEntity
  8
0
  6
Continuous
 62
     7
370
    25
100
AcDbCircle
 10
133.2871776838
 20
255.5199627293
 30
0.0
 40
1.536432317410611
100
AcDbArc
 50
315.3759149485
 51
356.8310931139
  0
ARC
  5
239
330
1F
100
AcDbEntity
  8
0
  6
Continuous
 62
     7
370
    25
100
AcDbCircle
 10
150.4853371601
 20
255.5199627293
 30
0.0
 40
1.536432317410264
100
AcDbArc
 50
183.1689068861
 51
224.6240850515
  0
ARC
  5
23A
330
1F
100
AcDbEntity
  8
0
  6
Continuous
 62
     7
370
    25
100
AcDbCircle
 10
132.00938762
 20
255.142667896
 30
0.0
 40
1.016039454124147
100
AcDbArc
 50
316.2990799783
 51
16.7230650331
  0
ARC
  5
23B
330
1F
100
AcDbEntity
  8
0
  6
Continuous
 62
     7
370
    25
100
AcDbCircle
 10
151.7631272239
 20
255.142667896
 30
0.0
 40
1.016039454124227
100
AcDbArc
 50
163.276934967
 51
223.7009200217
  0
SPLINE
  5
23C
330
1F
100
AcDbEntity
  8
0
  6
Continuous
 62
     7
370
    25
100
AcDbSpline
210
0.0
220
0.0
230
1.0
 70
     8
 71
     3
 72
    12
 73
     8
 74
     0
 42
0.00000001
 43
0.00000001
 40
0.0
 40
0.0
 40
0.0
 40
0.0
 40
0.5000000000000004
 40
0.5000000000000004
 40
0.7500000000000002
 40
0.7500000000000002
 40
1.0
 40
1.0
 40
1.0
 40
1.0
 10
129.6685846474167
 20
212.2934386841815
 30
0.0
 10
129.5059157935685
 20
211.9307321647127
 30
0.0
 10
129.3520183222934
 20
211.5995911553079
 30
0.0
 10
129.1332366183736
 20
211.211973563549
 30
0.0
 10
129.0620519749127
 20
211.1017728147664
 30
0.0
 10
128.9306796634632
 20
210.9491662284934
 30
0.0
 10
128.8691224825775
 20
210.9054946382396
 30
0.0
 10
128.8149870206994
 20
210.9054946382393
 30
0.0
  0
SPLINE
  5
23D
330
1F
100
AcDbEntity
  8
0
  6
Continuous
 62
     7
370
    25
100
AcDbSpline
210
0.0
220
0.0
230
1.0
 70
     8
 71
     3
 72
    16
 73
    12
 74
     0
 42
0.00000001
 43
0.00000001
 40
0.0
 40
0.0
 40
0.0
 40
0.0
 40
0.2500000000000001
 40
0.2500000000000001
 40
0.3750000000000002
 40
0.3750000000000002
 40
0.5000000000000001
 40
0.5000000000000001
 40
0.7500000000000001
 40
0.7500000000000001
 40
1.0
 40
1.0
 40
1.0
 40
1.0
 10
132.5203098943556
 20
239.335024278645
 30
0.0
 10
131.9743876054275
 20
239.335024278645
 30
0.0
 10
131.4733858429574
 20
239.3650691888969
 30
0.0
 10
130.7870529939185
 20
239.4020781585046
 30
0.0
 10
130.569194022165
 20
239.4134161056023
 30
0.0
 10
130.1556032985164
 20
239.4291793644566
 30
0.0
 10
129.9591331791967
 20
239.4335795034198
 30
0.0
 10
129.4098500905064
 20
239.4334183737255
 30
0.0
 10
129.0981182575852
 20
239.4142132977429
 30
0.0
 10
128.5790928722462
 20
239.3650056091543
 30
0.0
 10
128.3717791513522
 20
239.335024278645
 30
0.0
 10
128.217999731312
 20
239.335024278645
 30
0.0
  0
LINE
  5
23E
330
1F
100
AcDbEntity
  8
0
  6
Continuous
 62
     7
370
    25
100
AcDbLine
 10
137.5839472589
 20
239.3350242786
 30
0.0
 11
132.5203098944
 21
239.3350242786
 31
0.0
  0
LINE
  5
23F
330
1F
100
AcDbEntity
  8
0
  6
Continuous
 62
     7
370
    25
100
AcDbLine
 10
151.2522049496
 20
239.3350242786
 30
0.0
 11
146.188567585
 21
239.3350242786
 31
0.0
  0
SPLINE
  5
240
330
1F
100
AcDbEntity
  8
0
  6
Continuous
 62
     7
370
    25
100
AcDbSpline
210
0.0
220
0.0
230
1.0
 70
     8
 71
     3
 72
    16
 73
    12
 74
     0
 42
0.00000001
 43
0.00000001
 40
0.0
 40
0.0
 40
0.0
 40
0.0
 40
0.2499999999999998
 40
0.2499999999999998
 40
0.3749999999999998
 40
0.3749999999999998
 40
0.4999999999999999
 40
0.4999999999999999
 40
0.7499999999999999
 40
0.7499999999999999
 40
1.0
 40
1.0
 40
1.0
 40
1.0
 10
155.5545151126639
 20
239.335024278645
 30
0.0
 10
155.4006884488167
 20
239.335024278645
 30
0.0
 10
155.1930741890198
 20
239.3650691888969
 30
0.0
 10
154.8022310471044
 20
239.4020781585046
 30
0.0
 10
154.6586530124852
 20
239.4134161056023
 30
0.0
 10
154.3444185030188
 20
239.4291793644566
 30
0.0
 10
154.1729802876306
 20
239.4335795034198
 30
0.0
 10
153.6227499830498
 20
239.4334183737255
 30
0.0
 10
153.2104311622103
 20
239.4142132977429
 30
0.0
 10
152.298027671481
 20
239.3650056091543
 30
0.0
 10
151.7979595729003
 20
239.3350242786451
 30
0.0
 10
151.2522049496203
 20
239.335024278645
 30
0.0
  0
LINE
  5
241
330
1F
100
AcDbEntity
  8
0
  6
Continuous
 62
     7
370
    25
100
AcDbLine
 10
152.1047558298
 20
252.8119090692
 30
0.0
 11
151.9898871328
 21
252.8119090692
 31
0.0
  0
SPLINE
  5
242
330
1F
100
AcDbEntity
  8
0
  6
Continuous
 62
     7
370
    25
100
AcDbSpline
210
0.0
220
0.0
230
1.0
 70
     8
 71
     3
 72
     8
 73
     4
 74
     0
 42
0.00000001
 43
0.00000001
 40
0.0000000000000002
 40
0.0000000000000002
 40
0.0000000000000002
 40
0.0000000000000002
 40
0.0002416894103824
 40
0.0002416894103824
 40
0.0002416894103824
 40
0.0002416894103824
 10
151.203424215564
 20
254.4117497213961
 30
0.0
 10
151.1453253862097
 20
254.4218899395308
 30
0.0
 10
151.0870556919334
 20
254.4315291522451
 30
0.0
 10
151.028575351463
 20
254.4406923130931
 30
0.0
  0
ARC
  5
243
330
1F
100
AcDbEntity
  8
0
  6
Continuous
 62
     7
370
    25
100
AcDbCircle
 10
150.3282847556
 20
252.8648861295
 30
0.0
 40
1.777260826753933
100
AcDbArc
 50
358.291859247
 51
60.5009498435
  0
LINE
  5
244
330
1F
100
AcDbEntity
  8
0
  6
Continuous
 62
     7
370
    25
100
AcDbLine
 10
151.9898871328
 20
242.0619090692
 30
0.0
 11
159.4954406323
 21
242.0619090692
 31
0.0
  0
ARC
  5
245
330
1F
100
AcDbEntity
  8
0
  6
Continuous
 62
     7
370
    25
100
AcDbCircle
 10
157.8536008043
 20
241.9525340692
 30
0.0
 40
1.645478930724583
100
AcDbArc
 50
274.4019496523
 51
3.8112610495
  0
LINE
  5
246
330
1F
100
AcDbEntity
  8
0
  6
Continuous
 62
     7
370
    25
100
AcDbLine
 10
157.9798961756
 20
240.3119090692
 30
0.0
 11
156.5321356189
 21
240.3119090692
 31
0.0
  0
SPLINE
  5
247
330
1F
100
AcDbEntity
  8
0
  6
Continuous
 62
     7
370
    25
100
AcDbSpline
210
0.0
220
0.0
230
1.0
 70
     8
 71
     3
 72
    14
 73
    10
 74
     0
 42
0.00000001
 43
0.00000001
 40
0.0
 40
0.0
 40
0.0
 40
0.0
 40
0.2499999999999999
 40
0.2499999999999999
 40
0.4999999999999998
 40
0.4999999999999998
 40
0.7499999999999999
 40
0.7499999999999999
 40
1.0
 40
1.0
 40
1.0
 40
1.0
 10
151.9221032329538
 20
240.3119090692149
 30
0.0
 10
152.4373169644504
 20
240.3119090692149
 30
0.0
 10
152.9195005301753
 20
240.3313637009472
 30
0.0
 10
153.8221692222497
 20
240.3626931869436
 30
0.0
 10
154.2431068037363
 20
240.3746185029921
 30
0.0
 10
155.0180061668576
 20
240.3745657453606
 30
0.0
 10
155.3711724977062
 20
240.362625865948
 30
0.0
 10
156.0057779342097
 20
240.3313448005075
 30
0.0
 10
156.2877699243476
 20
240.3119090692085
 30
0.0
 10
156.5321356188785
 20
240.3119090692085
 30
0.0
  0
LINE
  5
248
330
1F
100
AcDbEntity
  8
0
  6
Continuous
 62
     7
370
    25
100
AcDbLine
 10
151.922103233
 20
240.3119090692
 30
0.0
 11
150.4743426762
 21
240.3119090692
 31
0.0
  0
SPLINE
  5
249
330
1F
100
AcDbEntity
  8
0
  6
Continuous
 62
     7
370
    25
100
AcDbSpline
210
0.0
220
0.0
230
1.0
 70
     8
 71
     3
 72
    16
 73
    12
 74
     0
 42
0.00000001
 43
0.00000001
 40
0.0
 40
0.0
 40
0.0
 40
0.0
 40
0.2500000000000001
 40
0.2500000000000001
 40
0.5000000000000001
 40
0.5000000000000001
 40
0.7500000000000002
 40
0.7500000000000002
 40
0.8750000000000001
 40
0.8750000000000001
 40
1.0
 40
1.0
 40
1.0
 40
1.0
 10
152.1047558298252
 20
252.8119090692151
 30
0.0
 10
152.4204428532227
 20
252.8119090692152
 30
0.0
 10
152.7309568606904
 20
252.8797545616453
 30
0.0
 10
153.3463223360361
 20
253.0897112731338
 30
0.0
 10
153.6514052021114
 20
253.2333846497831
 30
0.0
 10
154.2566622608552
 20
253.5648968827208
 30
0.0
 10
154.5558000868115
 20
253.7523376628747
 30
0.0
 10
155.0021079365828
 20
254.0484010171439
 30
0.0
 10
155.1504698714331
 20
254.1496192985233
 30
0.0
 10
155.4467940002937
 20
254.3545390987973
 30
0.0
 10
155.5954046627685
 20
254.4586988162194
 30
0.0
 10
155.742663882539
 20
254.5619090692152
 30
0.0
  0
SPLINE
  5
24A
330
1F
100
AcDbEntity
  8
0
  6
Continuous
 62
     7
370
    25
100
AcDbSpline
210
0.0
220
0.0
230
1.0
 70
     8
 71
     3
 72
    16
 73
    12
 74
     0
 42
0.00000001
 43
0.00000001
 40
0.0
 40
0.0
 40
0.0
 40
0.0
 40
0.2499999999999998
 40
0.2499999999999998
 40
0.4999999999999996
 40
0.4999999999999996
 40
0.7499999999999993
 40
0.7499999999999993
 40
0.8749999999999997
 40
0.8749999999999997
 40
1.0
 40
1.0
 40
1.0
 40
1.0
 10
159.3805719352528
 20
252.8119090692151
 30
0.0
 10
159.0643939849004
 20
252.8119090692152
 30
0.0
 10
158.7538511426895
 20
252.879904237998
 30
0.0
 10
158.1388886239462
 20
253.0897788158248
 30
0.0
 10
157.8345855912314
 20
253.233065689616
 30
0.0
 10
157.229680515894
 20
253.5642968669524
 30
0.0
 10
156.9300319425801
 20
253.7520122438717
 30
0.0
 10
156.4835089398665
 20
254.0482046948946
 30
0.0
 10
156.3350828086895
 20
254.149464786702
 30
0.0
 10
156.0386375519633
 20
254.3544663012253
 30
0.0
 10
155.8898490074462
 20
254.4587507475514
 30
0.0
 10
155.742663882539
 20
254.5619090692152
 30
0.0
  0
LINE
  5
24B
330
1F
100
AcDbEntity
  8
0
  6
Continuous
 62
     7
370
    25
100
AcDbLine
 10
159.4954406323
 20
252.8119090692
 30
0.0
 11
159.3805719353
 21
252.8119090692
 31
0.0
  0
LINE
  5
24C
330
1F
100
AcDbEntity
  8
0
  6
Continuous
 62
     7
370
    25
100
AcDbLine
 10
159.4954406323
 20
242.0619090692
 30
0.0
 11
159.4954406323
 21
252.8119090692
 31
0.0
  0
LINE
  5
24D
330
1F
100
AcDbEntity
  8
0
  6
Continuous
 62
     7
370
    25
100
AcDbLine
 10
131.7826277112
 20
252.8119090692
 30
0.0
 11
131.6677590142
 21
252.8119090692
 31
0.0
  0
ARC
  5
24E
330
1F
100
AcDbEntity
  8
0
  6
Continuous
 62
     7
370
    25
100
AcDbCircle
 10
133.4442300883
 20
252.8648861295
 30
0.0
 40
1.777260826754076
100
AcDbArc
 50
119.4990501565
 51
181.708140753
  0
SPLINE
  5
24F
330
1F
100
AcDbEntity
  8
0
  6
Continuous
 62
     7
370
    25
100
AcDbSpline
210
0.0
220
0.0
230
1.0
 70
     8
 71
     3
 72
     8
 73
     4
 74
     0
 42
0.00000001
 43
0.00000001
 40
0.0
 40
0.0
 40
0.0
 40
0.0
 40
0.0002416894103822
 40
0.0002416894103822
 40
0.0002416894103822
 40
0.0002416894103822
 10
132.743939492513
 20
254.440692313093
 30
0.0
 10
132.6854591520426
 20
254.4315291522449
 30
0.0
 10
132.6271894577663
 20
254.4218899395311
 30
0.0
 10
132.5690906284121
 20
254.4117497213963
 30
0.0
  0
LINE
  5
250
330
1F
100
AcDbEntity
  8
0
  6
Continuous
 62
     7
370
    25
100
AcDbLine
 10
124.3919429087
 20
252.8119090692
 30
0.0
 11
124.2770742117
 21
252.8119090692
 31
0.0
  0
SPLINE
  5
251
330
1F
100
AcDbEntity
  8
0
  6
Continuous
 62
     7
370
    25
100
AcDbSpline
210
0.0
220
0.0
230
1.0
 70
     8
 71
     3
 72
    16
 73
    12
 74
     0
 42
0.00000001
 43
0.00000001
 40
0.0
 40
0.0
 40
0.0
 40
0.0
 40
0.2500000000000001
 40
0.2500000000000001
 40
0.5000000000000002
 40
0.5000000000000002
 40
0.75
 40
0.75
 40
0.875
 40
0.875
 40
1.0
 40
1.0
 40
1.0
 40
1.0
 10
124.3919429087231
 20
252.8119090692151
 30
0.0
 10
124.7076299321206
 20
252.8119090692152
 30
0.0
 10
125.0181439395884
 20
252.8797545616453
 30
0.0
 10
125.633509414934
 20
253.0897112731338
 30
0.0
 10
125.9385922810094
 20
253.2333846497831
 30
0.0
 10
126.5438493397531
 20
253.5648968827208
 30
0.0
 10
126.8429871657095
 20
253.7523376628747
 30
0.0
 10
127.2892950154808
 20
254.0484010171439
 30
0.0
 10
127.4376569503311
 20
254.1496192985232
 30
0.0
 10
127.7339810791917
 20
254.3545390987973
 30
0.0
 10
127.8825917416675
 20
254.4586988162139
 30
0.0
 10
128.0298509614369
 20
254.5619090692152
 30
0.0
  0
SPLINE
  5
252
330
1F
100
AcDbEntity
  8
0
  6
Continuous
 62
     7
370
    25
100
AcDbSpline
210
0.0
220
0.0
230
1.0
 70
     8
 71
     3
 72
    16
 73
    12
 74
     0
 42
0.00000001
 43
0.00000001
 40
0.0
 40
0.0
 40
0.0
 40
0.0
 40
0.2499999999999999
 40
0.2499999999999999
 40
0.4999999999999998
 40
0.4999999999999998
 40
0.7499999999999997
 40
0.7499999999999997
 40
0.8749999999999998
 40
0.8749999999999998
 40
1.0
 40
1.0
 40
1.0
 40
1.0
 10
131.6677590141507
 20
252.8119090692151
 30
0.0
 10
131.3515810637984
 20
252.8119090692151
 30
0.0
 10
131.0410382215874
 20
252.879904237998
 30
0.0
 10
130.4260757028442
 20
253.0897788158248
 30
0.0
 10
130.1217726701294
 20
253.233065689616
 30
0.0
 10
129.516867594792
 20
253.5642968669524
 30
0.0
 10
129.217219021478
 20
253.7520122438717
 30
0.0
 10
128.7706960187645
 20
254.0482046948946
 30
0.0
 10
128.6222698875875
 20
254.149464786702
 30
0.0
 10
128.3258246308612
 20
254.3544663012253
 30
0.0
 10
128.1770360863435
 20
254.4587507475476
 30
0.0
 10
128.0298509614369
 20
254.5619090692152
 30
0.0
  0
LINE
  5
253
330
1F
100
AcDbEntity
  8
0
  6
Continuous
 62
     7
370
    25
100
AcDbLine
 10
124.2770742117
 20
242.0619090692
 30
0.0
 11
131.7826277112
 21
242.0619090692
 31
0.0
  0
LINE
  5
254
330
1F
100
AcDbEntity
  8
0
  6
Continuous
 62
     7
370
    25
100
AcDbLine
 10
124.2770742117
 20
252.8119090692
 30
0.0
 11
124.2770742117
 21
242.0619090692
 31
0.0
  0
ARC
  5
255
330
1F
100
AcDbEntity
  8
0
  6
Continuous
 62
     7
370
    25
100
AcDbCircle
 10
125.9189140397
 20
241.9525340692
 30
0.0
 40
1.645478930724586
100
AcDbArc
 50
176.1887389505
 51
265.5980503477
  0
LINE
  5
256
330
1F
100
AcDbEntity
  8
0
  6
Continuous
 62
     7
370
    25
100
AcDbLine
 10
133.2981721678
 20
240.3119090692
 30
0.0
 11
131.850411611
 21
240.3119090692
 31
0.0
  0
SPLINE
  5
257
330
1F
100
AcDbEntity
  8
0
  6
Continuous
 62
     7
370
    25
100
AcDbSpline
210
0.0
220
0.0
230
1.0
 70
     8
 71
     3
 72
    14
 73
    10
 74
     0
 42
0.00000001
 43
0.00000001
 40
0.0
 40
0.0
 40
0.0
 40
0.0
 40
0.25
 40
0.25
 40
0.5
 40
0.5
 40
0.75
 40
0.75
 40
1.0
 40
1.0
 40
1.0
 40
1.0
 10
127.2403792250973
 20
240.3119090692149
 30
0.0
 10
127.4847437267026
 20
240.3119090692149
 30
0.0
 10
127.7669630295719
 20
240.3313637009472
 30
0.0
 10
128.4028658517737
 20
240.3626931869436
 30
0.0
 10
128.7572362513504
 20
240.3746185029922
 30
0.0
 10
129.5324677824167
 20
240.3745657453606
 30
0.0
 10
129.9523581348291
 20
240.362625865948
 30
0.0
 10
130.8534858209754
 20
240.3313448005075
 30
0.0
 10
131.3351953643824
 20
240.3119090692085
 30
0.0
 10
131.8504116110222
 20
240.3119090692085
 30
0.0
  0
LINE
  5
258
330
1F
100
AcDbEntity
  8
0
  6
Continuous
 62
     7
370
    25
100
AcDbLine
 10
127.2403792251
 20
240.3119090692
 30
0.0
 11
125.7926186683
 21
240.3119090692
 31
0.0
  0
SPLINE
  5
259
330
1F
100
AcDbEntity
  8
0
  6
Continuous
 62
     7
370
    25
100
AcDbSpline
210
0.0
220
0.0
230
1.0
 70
     8
 71
     3
 72
    14
 73
    10
 74
     0
 42
0.00000001
 43
0.00000001
 40
0.0
 40
0.0
 40
0.0
 40
0.0
 40
0.25
 40
0.25
 40
0.5
 40
0.5
 40
0.75
 40
0.75
 40
1.0
 40
1.0
 40
1.0
 40
1.0
 10
132.4954985018515
 20
254.4005454589801
 30
0.0
 10
132.0710823402661
 20
254.3384918267929
 30
0.0
 10
131.6523837856004
 20
254.3199673635197
 30
0.0
 10
130.8418905167409
 20
254.3150246473179
 30
0.0
 10
130.4491374814212
 20
254.330486251115
 30
0.0
 10
129.6963507217643
 20
254.3781506567419
 30
0.0
 10
129.3372422848206
 20
254.4105893970637
 30
0.0
 10
128.6555206201301
 20
254.4825656063343
 30
0.0
 10
128.3318360228799
 20
254.5223811501723
 30
0.0
 10
128.0298509614369
 20
254.5619090692152
 30
0.0
  0
SPLINE
  5
25A
330
1F
100
AcDbEntity
  8
0
  6
Continuous
 62
     7
370
    25
100
AcDbSpline
210
0.0
220
0.0
230
1.0
 70
     8
 71
     3
 72
     8
 73
     4
 74
     0
 42
0.00000001
 43
0.00000001
 40
0.0
 40
0.0
 40
0.0
 40
0.0
 40
0.0001055072942668
 40
0.0001055072942668
 40
0.0001055072942668
 40
0.0001055072942668
 10
132.5690906284121
 20
254.4117497213962
 30
0.0
 10
132.5445843474535
 20
254.4078658983819
 30
0.0
 10
132.5200511706207
 20
254.4041352899402
 30
0.0
 10
132.4954985018516
 20
254.4005454589797
 30
0.0
  0
SPLINE
  5
25B
330
1F
100
AcDbEntity
  8
0
  6
Continuous
 62
     7
370
    25
100
AcDbSpline
210
0.0
220
0.0
230
1.0
 70
     8
 71
     3
 72
     8
 73
     4
 74
     0
 42
0.00000001
 43
0.00000001
 40
0.0
 40
0.0
 40
0.0
 40
0.0
 40
0.000105507294285
 40
0.000105507294285
 40
0.000105507294285
 40
0.000105507294285
 10
151.2770163421372
 20
254.4005454589782
 30
0.0
 10
151.2524636733639
 20
254.4041352899393
 30
0.0
 10
151.2279304965267
 20
254.4078658983811
 30
0.0
 10
151.203424215564
 20
254.4117497213961
 30
0.0
  0
SPLINE
  5
25C
330
1F
100
AcDbEntity
  8
0
  6
Continuous
 62
     7
370
    25
100
AcDbSpline
210
0.0
220
0.0
230
1.0
 70
     8
 71
     3
 72
    14
 73
    10
 74
     0
 42
0.00000001
 43
0.00000001
 40
0.0
 40
0.0
 40
0.0
 40
0.0
 40
0.25
 40
0.25
 40
0.5
 40
0.5
 40
0.75
 40
0.75
 40
1.0
 40
1.0
 40
1.0
 40
1.0
 10
151.2770163421372
 20
254.4005454589782
 30
0.0
 10
151.7014325037215
 20
254.3384918267921
 30
0.0
 10
152.1201310583859
 20
254.3199673635194
 30
0.0
 10
152.930624327243
 20
254.3150246473182
 30
0.0
 10
153.3233773625616
 20
254.3304862511153
 30
0.0
 10
154.0761641222162
 20
254.3781506567422
 30
0.0
 10
154.4352725591589
 20
254.4105893970641
 30
0.0
 10
155.1169942238475
 20
254.4825656063345
 30
0.0
 10
155.440678821097
 20
254.5223811501693
 30
0.0
 10
155.742663882539
 20
254.5619090692152
 30
0.0
  0
ARC
  5
25D
330
1F
100
AcDbEntity
  8
0
  6
Continuous
 62
     7
370
    25
100
AcDbCircle
 10
152.1213055904
 20
239.4571725359
 30
0.0
 40
0.8776423648443705
100
AcDbArc
 50
103.119007754
 51
188.0002668541
  0
ARC
  5
25E
330
1F
100
AcDbEntity
  8
0
  6
Continuous
 62
     7
370
    25
100
AcDbCircle
 10
131.6512092536
 20
239.4571725359
 30
0.0
 40
0.8776423648443705
100
AcDbArc
 50
351.9997331459
 51
76.880992246
  0
LINE
  5
25F
330
1F
100
AcDbEntity
  8
0
  6
Continuous
 62
     7
370
    25
100
AcDbLine
 10
171.0417811877
 20
204.155950961
 30
0.0
 11
171.4167810449
 21
204.1559515883
 31
0.0
  0
ARC
  5
260
330
1F
100
AcDbEntity
  8
0
  6
Continuous
 62
     7
370
    25
100
AcDbCircle
 10
151.9473140074
 20
255.0769614405
 30
0.0
 40
0.997937199216408
100
AcDbArc
 50
164.4750771131
 51
221.8041723327
  0
ARC
  5
261
330
1F
100
AcDbEntity
  8
0
  6
Continuous
 62
     7
370
    25
100
AcDbCircle
 10
131.8252008366
 20
255.0769614405
 30
0.0
 40
0.9979371992165915
100
AcDbArc
 50
318.1958276672
 51
15.5249228869
  0
ARC
  5
262
330
1F
100
AcDbEntity
  8
0
  6
Continuous
 62
     7
370
    25
100
AcDbCircle
 10
152.0359545342
 20
255.0605218091
 30
0.0
 40
1.005761384292217
100
AcDbArc
 50
165.7659488811
 51
221.0103806761
  0
ARC
  5
263
330
1F
100
AcDbEntity
  8
0
  6
Continuous
 62
     7
370
    25
100
AcDbCircle
 10
131.7365603098
 20
255.0605218091
 30
0.0
 40
1.00576138428834
100
AcDbArc
 50
318.9896193238
 51
14.2340511189
  0
SPLINE
  5
264
330
1F
100
AcDbEntity
  8
0
  6
Continuous
 62
     7
370
    25
100
AcDbSpline
210
0.0
220
0.0
230
1.0
 70
     8
 71
     3
 72
    12
 73
     8
 74
     0
 42
0.00000001
 43
0.00000001
 40
0.0
 40
0.0
 40
0.0
 40
0.0
 40
0.25
 40
0.25
 40
0.5
 40
0.5
 40
1.0
 40
1.0
 40
1.0
 40
1.0
 10
132.7114442075657
 20
255.3078219262862
 30
0.0
 10
132.2393985723021
 20
255.1959048145835
 30
0.0
 10
131.7822665502002
 20
255.1165246690383
 30
0.0
 10
130.905825933256
 20
254.9747768319228
 30
0.0
 10
130.4900247423081
 20
254.9151020349815
 30
0.0
 10
129.3109069630972
 20
254.7491637146795
 30
0.0
 10
128.6137405085776
 20
254.655888740038
 30
0.0
 10
128.0298509614369
 20
254.5619090692152
 30
0.0
  0
SPLINE
  5
265
330
1F
100
AcDbEntity
  8
0
  6
Continuous
 62
     7
370
    25
100
AcDbSpline
210
0.0
220
0.0
230
1.0
 70
     8
 71
     3
 72
    18
 73
    14
 74
     0
 42
0.00000001
 43
0.00000001
 40
0.0
 40
0.0
 40
0.0
 40
0.0
 40
0.2500000000000003
 40
0.2500000000000003
 40
0.5000000000000006
 40
0.5000000000000006
 40
0.7500000000000009
 40
0.7500000000000009
 40
0.875000000000001
 40
0.875000000000001
 40
0.9375000000000004
 40
0.9375000000000004
 40
1.0
 40
1.0
 40
1.0
 40
1.0
 10
151.061070636423
 20
255.3078219262832
 30
0.0
 10
151.5351655918148
 20
255.195418942088
 30
0.0
 10
151.9908835485746
 20
255.1164539158672
 30
0.0
 10
152.8609283762164
 20
254.9756766908026
 30
0.0
 10
153.2755141632305
 20
254.9161029754983
 30
0.0
 10
154.0619897741947
 20
254.8053834524516
 30
0.0
 10
154.4352612207194
 20
254.7543508859816
 30
0.0
 10
154.9554147642893
 20
254.6807332522252
 30
0.0
 10
155.122186577434
 20
254.6567096720449
 30
0.0
 10
155.3624080397588
 20
254.6210020135452
 30
0.0
 10
155.440824987418
 20
254.6091548301409
 30
0.0
 10
155.5943320564889
 20
254.5855028174482
 30
0.0
 10
155.6701337432358
 20
254.573583122051
 30
0.0
 10
155.7426638825389
 20
254.5619090692152
 30
0.0
  0
SPLINE
  5
266
330
1F
100
AcDbEntity
  8
0
  6
Continuous
 62
     7
370
    25
100
AcDbSpline
210
0.0
220
0.0
230
1.0
 70
     8
 71
     3
 72
    18
 73
    14
 74
     0
 42
0.00000001
 43
0.00000001
 40
0.0
 40
0.0
 40
0.0
 40
0.0
 40
0.2499999999999997
 40
0.2499999999999997
 40
0.4999999999999994
 40
0.4999999999999994
 40
0.7499999999999991
 40
0.7499999999999991
 40
0.8749999999999992
 40
0.8749999999999992
 40
0.9374999999999997
 40
0.9374999999999997
 40
1.0
 40
1.0
 40
1.0
 40
1.0
 10
125.9468861451561
 20
255.3078219262832
 30
0.0
 10
125.9972161911898
 20
255.1954189420879
 30
0.0
 10
126.0788000298166
 20
255.1164539158672
 30
0.0
 10
126.3034685380979
 20
254.9756766908026
 30
0.0
 10
126.4465271804628
 20
254.9161029754983
 30
0.0
 10
126.7946673730463
 20
254.8053834524516
 30
0.0
 10
127.0007585339305
 20
254.7543508859816
 30
0.0
 10
127.3540420611457
 20
254.6807332522252
 30
0.0
 10
127.4790716889086
 20
254.6567096720449
 30
0.0
 10
127.6774989909827
 20
254.6210020135452
 30
0.0
 10
127.7454562070567
 20
254.609154830141
 30
0.0
 10
127.8850085680526
 20
254.5855028174482
 30
0.0
 10
127.9573208221339
 20
254.5735831220545
 30
0.0
 10
128.0298509614369
 20
254.5619090692152
 30
0.0
  0
SPLINE
  5
267
330
1F
100
AcDbEntity
  8
0
  6
Continuous
 62
     7
370
    25
100
AcDbSpline
210
0.0
220
0.0
230
1.0
 70
     8
 71
     3
 72
    12
 73
     8
 74
     0
 42
0.00000001
 43
0.00000001
 40
0.0
 40
0.0
 40
0.0
 40
0.0
 40
0.2499999999999999
 40
0.2499999999999999
 40
0.4999999999999999
 40
0.4999999999999999
 40
1.0
 40
1.0
 40
1.0
 40
1.0
 10
157.8256286988211
 20
255.3078219262862
 30
0.0
 10
157.7755162091557
 20
255.1959048145835
 30
0.0
 10
157.6940211936697
 20
255.1165246690383
 30
0.0
 10
157.4674156093055
 20
254.9747768319228
 30
0.0
 10
157.3233617808241
 20
254.9151020349815
 30
0.0
 10
156.800016874989
 20
254.7491637146795
 30
0.0
 10
156.3265534296794
 20
254.6558887400441
 30
0.0
 10
155.742663882539
 20
254.5619090692152
 30
0.0
  0
LINE
  5
268
330
1F
100
AcDbEntity
  8
0
  6
Continuous
 62
     7
370
    25
100
AcDbLine
 10
171.0417717852
 20
208.3717859495
 30
0.0
 11
171.0417811877
 21
204.155950961
 31
0.0
  0
LINE
  5
269
330
1F
100
AcDbEntity
  8
0
  6
Continuous
 62
     7
370
    25
100
AcDbLine
 10
170.886257422
 20
207.7527490765
 30
0.0
 11
170.886257422
 21
208.8659957312
 31
0.0
  0
LINE
  5
26A
330
1F
100
AcDbEntity
  8
0
  6
Continuous
 62
     7
370
    25
100
AcDbLine
 10
171.4167716424
 20
208.3717859496
 30
0.0
 11
171.4167810449
 21
204.1559515883
 31
0.0
  0
ARC
  5
26B
330
1F
100
AcDbEntity
  8
0
  6
Continuous
 62
     7
370
    25
100
AcDbCircle
 10
156.5429732565
 20
239.3234424862
 30
0.0
 40
0.9885259936318013
100
AcDbArc
 50
90.628170975
 51
179.3286944278
  0
ARC
  5
26C
330
1F
100
AcDbEntity
  8
0
  6
Continuous
 62
     7
370
    25
100
AcDbCircle
 10
127.2295415874
 20
239.3234424862
 30
0.0
 40
0.988525993631801
100
AcDbArc
 50
0.6713055722
 51
89.371829025
  0
SPLINE
  5
26D
330
1F
100
AcDbEntity
  8
0
  6
Continuous
 62
     7
370
    25
100
AcDbSpline
210
0.0
220
0.0
230
1.0
 70
     8
 71
     3
 72
    10
 73
     6
 74
     0
 42
0.00000001
 43
0.00000001
 40
0.0
 40
0.0
 40
0.0
 40
0.0
 40
0.5
 40
0.5
 40
1.0
 40
1.0
 40
1.0
 40
1.0
 10
127.4791645531904
 20
205.632700516276
 30
0.0
 10
127.6572206623134
 20
205.5880835764802
 30
0.0
 10
127.8476560578444
 20
205.632577989141
 30
0.0
 10
128.2537761734441
 20
205.874196677345
 30
0.0
 10
128.4681131269377
 20
206.0695530233826
 30
0.0
 10
128.6975036344151
 20
206.3215004404991
 30
0.0
  0
ARC
  5
26E
330
1F
100
AcDbEntity
  8
0
  6
Continuous
 62
     7
370
    25
100
AcDbCircle
 10
118.6699584932
 20
210.670053487
 30
0.0
 40
10.14776016461587
100
AcDbArc
 50
330.2378582576
 51
1.3294554288
  0
SPLINE
  5
26F
330
1F
100
AcDbEntity
  8
0
  6
Continuous
 62
     7
370
    25
100
AcDbSpline
210
0.0
220
0.0
230
1.0
 70
     8
 71
     3
 72
    14
 73
    10
 74
     0
 42
0.00000001
 43
0.00000001
 40
0.0
 40
0.0
 40
0.0
 40
0.0
 40
0.2499999999999999
 40
0.2499999999999999
 40
0.4999999999999998
 40
0.4999999999999998
 40
0.7499999999999999
 40
0.7499999999999999
 40
1.0
 40
1.0
 40
1.0
 40
1.0
 10
158.4512842459547
 20
254.4005454589801
 30
0.0
 10
158.2903965376332
 20
254.3384918267929
 30
0.0
 10
158.1212214269139
 20
254.3199673635197
 30
0.0
 10
157.7476409624723
 20
254.3150246473179
 30
0.0
 10
157.5437351446514
 20
254.330486251115
 30
0.0
 10
157.0966258149417
 20
254.3781506567419
 30
0.0
 10
156.8541717448307
 20
254.4105893970637
 30
0.0
 10
156.3287352104957
 20
254.4825656063343
 30
0.0
 10
156.0446489439816
 20
254.5223811501636
 30
0.0
 10
155.742663882539
 20
254.5619090692152
 30
0.0
  0
SPLINE
  5
270
330
1F
100
AcDbEntity
  8
0
  6
Continuous
 62
     7
370
    25
100
AcDbSpline
210
0.0
220
0.0
230
1.0
 70
     8
 71
     3
 72
     8
 73
     4
 74
     0
 42
0.00000001
 43
0.00000001
 40
0.0
 40
0.0
 40
0.0
 40
0.0
 40
0.0001055072942668
 40
0.0001055072942668
 40
0.0001055072942668
 40
0.0001055072942668
 10
158.4792403209915
 20
254.4117497213962
 30
0.0
 10
158.4699083351201
 20
254.4078658983819
 30
0.0
 10
158.4605916733549
 20
254.4041352899402
 30
0.0
 10
158.4512842459547
 20
254.4005454589797
 30
0.0
  0
ARC
  5
271
330
1F
100
AcDbEntity
  8
0
  6
Continuous
 62
     7
370
    25
100
AcDbCircle
 10
157.6041008611
 20
252.8648861295
 30
0.0
 40
1.777260826754074
100
AcDbArc
 50
358.291859247
 51
60.5009498435
  0
ARC
  5
272
330
1F
100
AcDbEntity
  8
0
  6
Continuous
 62
     7
370
    25
100
AcDbCircle
 10
158.8283368502
 20
255.3299234487
 30
0.0
 40
1.002951700818495
100
AcDbArc
 50
181.2626993566
 51
247.9173961432
  0
ARC
  5
273
330
1F
100
AcDbEntity
  8
0
  6
Continuous
 62
     7
370
    25
100
AcDbCircle
 10
126.1684139829
 20
252.8648861295
 30
0.0
 40
1.777260826753905
100
AcDbArc
 50
119.4990501565
 51
181.708140753
  0
SPLINE
  5
274
330
1F
100
AcDbEntity
  8
0
  6
Continuous
 62
     7
370
    25
100
AcDbSpline
210
0.0
220
0.0
230
1.0
 70
     8
 71
     3
 72
     8
 73
     4
 74
     0
 42
0.00000001
 43
0.00000001
 40
0.0
 40
0.0
 40
0.0
 40
0.0
 40
0.000105507294285
 40
0.000105507294285
 40
0.000105507294285
 40
0.000105507294285
 10
125.3212305980261
 20
254.4005454589782
 30
0.0
 10
125.3119231706242
 20
254.4041352899393
 30
0.0
 10
125.3026065088575
 20
254.4078658983811
 30
0.0
 10
125.2932745229845
 20
254.4117497213961
 30
0.0
  0
SPLINE
  5
275
330
1F
100
AcDbEntity
  8
0
  6
Continuous
 62
     7
370
    25
100
AcDbSpline
210
0.0
220
0.0
230
1.0
 70
     8
 71
     3
 72
    14
 73
    10
 74
     0
 42
0.00000001
 43
0.00000001
 40
0.0
 40
0.0
 40
0.0
 40
0.0
 40
0.2500000000000001
 40
0.2500000000000001
 40
0.5000000000000002
 40
0.5000000000000002
 40
0.7500000000000001
 40
0.7500000000000001
 40
1.0
 40
1.0
 40
1.0
 40
1.0
 10
125.3212305980261
 20
254.4005454589782
 30
0.0
 10
125.4821183063474
 20
254.3384918267922
 30
0.0
 10
125.6512934170665
 20
254.3199673635194
 30
0.0
 10
126.0248738815076
 20
254.3150246473182
 30
0.0
 10
126.2287796993283
 20
254.3304862511153
 30
0.0
 10
126.6758890290373
 20
254.3781506567422
 30
0.0
 10
126.9183430991478
 20
254.4105893970641
 30
0.0
 10
127.4437796334817
 20
254.4825656063345
 30
0.0
 10
127.7278658999948
 20
254.5223811501714
 30
0.0
 10
128.0298509614369
 20
254.5619090692152
 30
0.0
  0
ARC
  5
276
330
1F
100
AcDbEntity
  8
0
  6
Continuous
 62
     7
370
    25
100
AcDbCircle
 10
124.9441779938
 20
255.3299234487
 30
0.0
 40
1.002951700818864
100
AcDbArc
 50
292.082603857
 51
358.7373006436
  0
SPLINE
  5
277
330
1F
100
AcDbEntity
  8
0
  6
Continuous
 62
     7
370
    25
100
AcDbSpline
210
0.0
220
0.0
230
1.0
 70
     8
 71
     3
 72
     8
 73
     4
 74
     0
 42
0.00000001
 43
0.00000001
 40
0.0
 40
0.0
 40
0.0
 40
0.0
 40
0.0002416894103822
 40
0.0002416894103822
 40
0.0002416894103822
 40
0.0002416894103822
 10
158.5341288509281
 20
254.440692313093
 30
0.0
 10
158.5160416616988
 20
254.4315291522449
 30
0.0
 10
158.4977207996496
 20
254.4218899395311
 30
0.0
 10
158.4792403209914
 20
254.4117497213963
 30
0.0
  0
ARC
  5
278
330
1F
100
AcDbEntity
  8
0
  6
Continuous
 62
     7
370
    25
100
AcDbCircle
 10
157.733342683
 20
252.8699905114
 30
0.0
 40
1.763054915954336
100
AcDbArc
 50
358.1121270215
 51
62.9862857032
  0
ARC
  5
279
330
1F
100
AcDbEntity
  8
0
  6
Continuous
 62
     7
370
    25
100
AcDbCircle
 10
126.039172161
 20
252.8699905114
 30
0.0
 40
1.763054915954286
100
AcDbArc
 50
117.0137142968
 51
181.8878729785
  0
SPLINE
  5
27A
330
1F
100
AcDbEntity
  8
0
  6
Continuous
 62
     7
370
    25
100
AcDbSpline
210
0.0
220
0.0
230
1.0
 70
     8
 71
     3
 72
     8
 73
     4
 74
     0
 42
0.00000001
 43
0.00000001
 40
0.0000000000000002
 40
0.0000000000000002
 40
0.0000000000000002
 40
0.0000000000000002
 40
0.0002416894103823
 40
0.0002416894103823
 40
0.0002416894103823
 40
0.0002416894103823
 10
125.2932745229845
 20
254.4117497213961
 30
0.0
 10
125.2747940443263
 20
254.4218899395308
 30
0.0
 10
125.2564731822772
 20
254.4315291522451
 30
0.0
 10
125.2383859930478
 20
254.4406923130931
 30
0.0
  0
LINE
  5
27B
330
1F
100
AcDbEntity
  8
0
  6
Continuous
 62
     7
370
    25
100
AcDbLine
 10
125.7926186683
 20
240.3119090692
 30
0.0
 11
125.6251504231
 21
240.3119090692
 31
0.0
  0
LINE
  5
27C
330
1F
100
AcDbEntity
  8
0
  6
Continuous
 62
     7
370
    25
100
AcDbLine
 10
158.1473644209
 20
240.3119090692
 30
0.0
 11
157.9798961756
 21
240.3119090692
 31
0.0
  0
ARC
  5
27D
330
1F
100
AcDbEntity
  8
0
  6
Continuous
 62
     7
370
    25
100
AcDbCircle
 10
124.9368642806
 20
255.3481877353
 30
0.0
 40
1.001970266457845
100
AcDbArc
 50
290.8369281334
 51
359.7643533258
  0
ARC
  5
27E
330
1F
100
AcDbEntity
  8
0
  6
Continuous
 62
     7
370
    25
100
AcDbCircle
 10
158.8356505634
 20
255.3481877353
 30
0.0
 40
1.001970266457816
100
AcDbArc
 50
180.2356466742
 51
249.1630718666
  0
ARC
  5
27F
330
1F
100
AcDbEntity
  8
0
  6
Continuous
 62
     7
370
    25
100
AcDbCircle
 10
124.9171711597
 20
255.3891143435
 30
0.0
 40
1.001340759617986
100
AcDbArc
 50
288.7103891537
 51
2.628130234
  0
ARC
  5
280
330
1F
100
AcDbEntity
  8
0
  6
Continuous
 62
     7
370
    25
100
AcDbCircle
 10
158.8553436843
 20
255.3891143435
 30
0.0
 40
1.001340759617968
100
AcDbArc
 50
177.371869766
 51
251.2896108463
  0
SPLINE
  5
281
330
1F
100
AcDbEntity
  8
0
  6
Continuous
 62
     8
370
    25
100
AcDbSpline
210
0.0
220
0.0
230
1.0
 70
     8
 71
     3
 72
     9
 73
     5
 74
     0
 42
0.00000001
 43
0.00000001
 40
0.0
 40
0.0
 40
0.0
 40
0.0
 40
0.5235409429433535
 40
1.0
 40
1.0
 40
1.0
 40
1.0
 10
127.3952394458745
 20
197.2766410265746
 30
0.0
 10
127.3589193881507
 20
197.0211105990157
 30
0.0
 10
127.2895455250109
 20
196.5330295214932
 30
0.0
 10
127.238912719308
 20
196.0416107970243
 30
0.0
 10
127.2147882604467
 20
195.8074698949439
 30
0.0
  0
ARC
  5
282
330
1F
100
AcDbEntity
  8
0
  6
Continuous
 62
     8
370
    25
100
AcDbCircle
 10
141.886257422
 20
197.0619090692
 30
0.0
 40
14.72500000000004
100
AcDbArc
 50
184.8870148383
 51
189.8906046654
  0
LINE
  5
283
330
1F
100
AcDbEntity
  8
0
  6
Continuous
 62
     8
370
    25
100
AcDbLine
 10
127.0942660667
 20
192.4308193762
 30
0.0
 11
127.5885021677
 21
191.927363352
 31
0.0
  0
LINE
  5
284
330
1F
100
AcDbEntity
  8
0
  6
Continuous
 62
     8
370
    25
100
AcDbLine
 10
225.6517059758
 20
195.8393710409
 30
0.0
 11
225.4304631518
 21
195.8393710409
 31
0.0
  0
LINE
  5
285
330
1F
100
AcDbEntity
  8
0
  6
Continuous
 62
     8
370
    25
100
AcDbLine
 10
225.528794109
 20
198.5251420315
 30
0.0
 11
225.6517059758
 21
198.5251420315
 31
0.0
  0
LINE
  5
286
330
1F
100
AcDbEntity
  8
0
  6
Continuous
 62
     8
370
    25
100
AcDbLine
 10
225.6517059758
 20
196.2325112338
 30
0.0
 11
225.4307695021
 21
196.2325112338
 31
0.0
  0
LINE
  5
287
330
1F
100
AcDbEntity
  8
0
  6
Continuous
 62
     8
370
    25
100
AcDbLine
 10
224.696189426
 20
191.1367914351
 30
0.0
 11
224.696189426
 21
202.9870368404
 31
0.0
  0
LINE
  5
288
330
1F
100
AcDbEntity
  8
0
  6
Continuous
 62
     8
370
    25
100
AcDbLine
 10
218.2243013791
 20
189.1134551357
 30
0.0
 11
218.2243013791
 21
188.086251025
 31
0.0
  0
LINE
  5
289
330
1F
100
AcDbEntity
  8
0
  6
Continuous
 62
     8
370
    25
100
AcDbLine
 10
217.2908811653
 20
206.0538600239
 30
0.0
 11
217.2908811653
 21
205.3957633003
 31
0.0
  0
LINE
  5
28A
330
1F
100
AcDbEntity
  8
0
  6
Continuous
 62
     8
370
    25
100
AcDbLine
 10
222.5949836252
 20
188.1625415674
 30
0.0
 11
222.5949836252
 21
205.9612765711
 31
0.0
  0
SPLINE
  5
28B
330
1F
100
AcDbEntity
  8
0
  6
Continuous
 62
     8
370
    25
100
AcDbSpline
210
0.0
220
0.0
230
1.0
 70
     8
 71
     3
 72
    10
 73
     6
 74
     0
 42
0.00000001
 43
0.00000001
 40
0.0
 40
0.0
 40
0.0
 40
0.0
 40
0.315321638982026
 40
0.9668162987743301
 40
1.0
 40
1.0
 40
1.0
 40
1.0
 10
218.1796950459541
 20
189.1126881551712
 30
0.0
 10
217.9896443578624
 20
188.9032900711815
 30
0.0
 10
217.4069247467579
 20
188.2612488805198
 30
0.0
 10
216.7734767562727
 20
187.74176710944
 30
0.0
 10
216.4225204857241
 20
187.5620326666568
 30
0.0
 10
216.4055109982213
 20
187.5533216362098
 30
0.0
  0
ARC
  5
28C
330
1F
100
AcDbEntity
  8
0
  6
Continuous
 62
     8
370
    25
100
AcDbCircle
 10
212.8751728254
 20
187.0163175587
 30
0.0
 40
1.921111202549611
100
AcDbArc
 50
268.5777908
 51
338.9590854324
  0
SPLINE
  5
28D
330
1F
100
AcDbEntity
  8
0
  6
Continuous
 62
     8
370
    25
100
AcDbSpline
210
0.0
220
0.0
230
1.0
 70
     8
 71
     3
 72
    11
 73
     7
 74
     0
 42
0.00000001
 43
0.00000001
 40
0.0
 40
0.0
 40
0.0
 40
0.0
 40
0.186985029706166
 40
0.8392317873888401
 40
0.8428766719154444
 40
1.0
 40
1.0
 40
1.0
 40
1.0
 10
216.1381988102579
 20
206.3177566774592
 30
0.0
 10
216.2035760296028
 20
206.2916721327869
 30
0.0
 10
216.497004015424
 20
206.1745987013846
 30
0.0
 10
216.8263618901122
 20
205.8661518643574
 30
0.0
 10
217.1367353336145
 20
205.5356811687728
 30
0.0
 10
217.1982383681712
 20
205.4652308723598
 30
0.0
 10
217.2583470259707
 20
205.3963778021094
 30
0.0
  0
ARC
  5
28E
330
1F
100
AcDbEntity
  8
0
  6
Continuous
 62
     8
370
    25
100
AcDbCircle
 10
212.7437052175
 20
206.3812364252
 30
0.0
 40
2.003520950351384
100
AcDbArc
 50
31.0270654393
 51
89.2147721433
  0
LINE
  5
28F
330
1F
100
AcDbEntity
  8
0
  6
Continuous
 62
     8
370
    25
100
AcDbLine
 10
212.7711622349
 20
184.7615815871
 30
0.0
 11
212.7711622349
 21
184.8161557248
 31
0.0
  0
LINE
  5
290
330
1F
100
AcDbEntity
  8
0
  6
Continuous
 62
     8
370
    25
100
AcDbLine
 10
208.7449836252
 20
185.0271972922
 30
0.0
 11
208.7449836252
 21
184.6913043781
 31
0.0
  0
ARC
  5
291
330
1F
100
AcDbEntity
  8
0
  6
Continuous
 62
     8
370
    25
100
AcDbCircle
 10
212.7399031966
 20
186.8147172104
 30
0.0
 40
1.998805928363321
100
AcDbArc
 50
270.8960769798
 51
341.7945761167
  0
ARC
  5
292
330
1F
100
AcDbEntity
  8
0
  6
Continuous
 62
     8
370
    25
100
AcDbCircle
 10
212.7434813311
 20
206.4185646846
 30
0.0
 40
2.002934378875869
100
AcDbArc
 50
30.1717974128
 51
89.2081370875
  0
LINE
  5
293
330
1F
100
AcDbEntity
  8
0
  6
Continuous
 62
     8
370
    25
100
AcDbLine
 10
212.7711622349
 20
208.4213077769
 30
0.0
 11
212.7711622349
 21
208.5573292805
 31
0.0
  0
LINE
  5
294
330
1F
100
AcDbEntity
  8
0
  6
Continuous
 62
     8
370
    25
100
AcDbLine
 10
208.7449836252
 20
208.6276064896
 30
0.0
 11
208.7449836252
 21
208.4905144826
 31
0.0
  0
SPLINE
  5
295
330
1F
100
AcDbEntity
  8
0
  6
Continuous
 62
     8
370
    25
100
AcDbSpline
210
0.0
220
0.0
230
1.0
 70
     8
 71
     3
 72
    11
 73
     7
 74
     0
 42
0.00000001
 43
0.00000001
 40
0.0
 40
0.0
 40
0.0
 40
0.0
 40
0.0238959033272322
 40
0.4675132694500547
 40
0.9099810774576117
 40
1.0
 40
1.0
 40
1.0
 40
1.0
 10
152.1223875341249
 20
209.1141907880786
 30
0.0
 10
152.0952850260039
 20
209.1345965979232
 30
0.0
 10
151.5650358862908
 20
209.5338276604863
 30
0.0
 10
150.3977522302065
 20
210.2981638434948
 30
0.0
 10
148.9290857436525
 20
211.0928005985791
 30
0.0
 10
147.9299674504508
 20
211.4327902513473
 30
0.0
 10
147.7610626738876
 20
211.4902668051501
 30
0.0
  0
SPLINE
  5
296
330
1F
100
AcDbEntity
  8
0
  6
Continuous
 62
     8
370
    25
100
AcDbSpline
210
0.0
220
0.0
230
1.0
 70
     8
 71
     3
 72
    17
 73
    13
 74
     0
 42
0.00000001
 43
0.00000001
 40
0.0
 40
0.0
 40
0.0
 40
0.0
 40
0.0436710627231374
 40
0.1316888398195808
 40
0.2066851899183909
 40
0.2978846702384169
 40
0.4164069077461663
 40
0.535189340548158
 40
0.5687954608619467
 40
0.7586696138244864
 40
0.9490468960372882
 40
1.0
 40
1.0
 40
1.0
 40
1.0
 10
144.1198248408858
 20
212.4068353332059
 30
0.0
 10
143.9052861101866
 20
212.4380854050964
 30
0.0
 10
143.2583507076464
 20
212.5323191025362
 30
0.0
 10
142.187523165748
 20
212.579997187636
 30
0.0
 10
140.875875501206
 20
212.5558535851835
 30
0.0
 10
139.4326590861959
 20
212.414228406222
 30
0.0
 10
137.8675937136214
 20
212.1091711809234
 30
0.0
 10
136.6993852707797
 20
211.7607667372635
 30
0.0
 10
135.3289300519067
 20
211.2650398842151
 30
0.0
 10
133.8680711733454
 20
210.5781579589592
 30
0.0
 10
132.5315727356327
 20
209.7905858550654
 30
0.0
 10
131.9840714147284
 20
209.3402286331653
 30
0.0
 10
131.8684751478602
 20
209.2451428103169
 30
0.0
  0
SPLINE
  5
297
330
1F
100
AcDbEntity
  8
0
  6
Continuous
 62
     8
370
    25
100
AcDbSpline
210
0.0
220
0.0
230
1.0
 70
     8
 71
     3
 72
     9
 73
     5
 74
     0
 42
0.00000001
 43
0.00000001
 40
0.0
 40
0.0
 40
0.0
 40
0.0
 40
0.7878059068412159
 40
1.0
 40
1.0
 40
1.0
 40
1.0
 10
130.0766784496936
 20
207.7549160199721
 30
0.0
 10
129.6697852306433
 20
207.3551423302748
 30
0.0
 10
129.1532960605103
 20
206.8476903218222
 30
0.0
 10
128.777289917049
 20
206.4136097696295
 30
0.0
 10
128.6975036344151
 20
206.3215004404991
 30
0.0
  0
SPLINE
  5
298
330
1F
100
AcDbEntity
  8
0
  6
Continuous
 62
     8
370
    25
100
AcDbSpline
210
0.0
220
0.0
230
1.0
 70
     8
 71
     3
 72
    13
 73
     9
 74
     0
 42
0.00000001
 43
0.00000001
 40
0.0
 40
0.0
 40
0.0
 40
0.0
 40
0.0663750389616083
 40
0.3332517851094188
 40
0.5131101279212553
 40
0.6927952350032327
 40
0.8307752913658418
 40
1.0
 40
1.0
 40
1.0
 40
1.0
 10
156.1050036461924
 20
190.9037331473982
 30
0.0
 10
156.1676078871141
 20
191.0438792664875
 30
0.0
 10
156.4819274772638
 20
191.7475164333097
 30
0.0
 10
156.8421667250722
 20
193.0302735519183
 30
0.0
 10
157.1647610580482
 20
194.6841105172103
 30
0.0
 10
157.2994991613866
 20
196.0722667664844
 30
0.0
 10
157.3331720580251
 20
197.45603800373
 30
0.0
 10
157.2517188749207
 20
198.3128453765548
 30
0.0
 10
157.2068501334533
 20
198.7848204060548
 30
0.0
  0
SPLINE
  5
299
330
1F
100
AcDbEntity
  8
0
  6
Continuous
 62
     8
370
    25
100
AcDbSpline
210
0.0
220
0.0
230
1.0
 70
     8
 71
     3
 72
    11
 73
     7
 74
     0
 42
0.00000001
 43
0.00000001
 40
0.0
 40
0.0
 40
0.0
 40
0.0
 40
0.1074747883708392
 40
0.3577190385316543
 40
0.6786264911578035
 40
1.0
 40
1.0
 40
1.0
 40
1.0
 10
156.2217903686729
 20
202.8717051128461
 30
0.0
 10
156.1152140859211
 20
203.1792218763023
 30
0.0
 10
155.7604856330978
 20
204.2027605370749
 30
0.0
 10
154.8704068585572
 20
205.7834886774309
 30
0.0
 10
153.6132281168722
 20
207.6092060685138
 30
0.0
 10
152.6195747355161
 20
208.612286594219
 30
0.0
 10
152.1223875341249
 20
209.1141907880786
 30
0.0
  0
ARC
  5
29A
330
1F
100
AcDbEntity
  8
0
  6
Continuous
 62
     8
370
    25
100
AcDbCircle
 10
141.886257422
 20
197.0619090692
 30
0.0
 40
16.11469077681542
100
AcDbArc
 50
144.927984031
 51
209.4044657747
  0
SPLINE
  5
29B
330
1F
100
AcDbEntity
  8
0
  6
Continuous
 62
     8
370
    25
100
AcDbSpline
210
0.0
220
0.0
230
1.0
 70
     8
 71
     3
 72
    23
 73
    19
 74
     0
 42
0.00000001
 43
0.00000001
 40
0.0
 40
0.0
 40
0.0
 40
0.0
 40
0.0893906822301521
 40
0.178652976950854
 40
0.2488689578015492
 40
0.3188886956749636
 40
0.3636759274292496
 40
0.4084052289491359
 40
0.44188473970459
 40
0.4817621760569365
 40
0.5216596388231741
 40
0.5562049871711497
 40
0.617270771259078
 40
0.6784843440839095
 40
0.772476687109073
 40
0.866690286310199
 40
0.9631413518742025
 40
1.0
 40
1.0
 40
1.0
 40
1.0
 10
158.3804594546979
 20
209.0640015584617
 30
0.0
 10
159.2103288750677
 20
208.5657925067874
 30
0.0
 10
160.8688758145332
 20
207.5700899569812
 30
0.0
 10
162.994612694153
 20
205.7787467223466
 30
0.0
 10
164.738332952538
 20
203.8231748949451
 30
0.0
 10
165.9001267514163
 20
201.9774276077326
 30
0.0
 10
166.6279673240975
 20
200.2004423719542
 30
0.0
 10
166.9864594907447
 20
198.7366883527311
 30
0.0
 10
167.1238006962264
 20
197.2868670349106
 30
0.0
 10
167.0585360837361
 20
195.8874591432152
 30
0.0
 10
166.7905883339775
 20
194.5089230903842
 30
0.0
 10
166.2676643096743
 20
192.9528447092864
 30
0.0
 10
165.4068677898036
 20
191.2915596054351
 30
0.0
 10
163.9106778653385
 20
189.2801699408345
 30
0.0
 10
161.8770613149008
 20
187.325448307754
 30
0.0
 10
159.3148947201164
 20
185.5492313074015
 30
0.0
 10
157.1649098845793
 20
184.3521164262584
 30
0.0
 10
155.8672211292344
 20
183.83364330563
 30
0.0
 10
155.5084246703255
 20
183.6902912738314
 30
0.0
  0
LINE
  5
29C
330
1F
100
AcDbEntity
  8
0
  6
Continuous
 62
     8
370
    25
100
AcDbLine
 10
166.904037886
 20
260.9253512292
 30
0.0
 11
116.8684769579
 21
260.9253512292
 31
0.0
  0
LINE
  5
29D
330
1F
100
AcDbEntity
  8
0
  6
Continuous
 62
     8
370
    25
100
AcDbLine
 10
116.586257422
 20
261.3754308549
 30
0.0
 11
167.186257422
 21
261.3754308549
 31
0.0
  0
LINE
  5
29E
330
1F
100
AcDbEntity
  8
0
  6
Continuous
 62
     8
370
    25
100
AcDbLine
 10
167.186257422
 20
264.5619090692
 30
0.0
 11
116.586257422
 21
264.5619090692
 31
0.0
  0
LINE
  5
29F
330
1F
100
AcDbEntity
  8
0
  6
Continuous
 62
     8
370
    25
100
AcDbLine
 10
124.7573792782
 20
257.1081404291
 30
0.0
 11
159.0151355658
 21
257.1081404291
 31
0.0
  0
SPLINE
  5
2A0
330
1F
100
AcDbEntity
  8
0
  6
Continuous
 62
     8
370
    25
100
AcDbSpline
210
0.0
220
0.0
230
1.0
 70
     8
 71
     3
 72
    10
 73
     6
 74
     0
 42
0.00000001
 43
0.00000001
 40
0.0
 40
0.0
 40
0.0
 40
0.0
 40
0.0002434244230704
 40
0.8869516441425681
 40
0.9999999999999999
 40
0.9999999999999999
 40
0.9999999999999999
 40
0.9999999999999999
 10
125.8637065550953
 20
255.6073575687003
 30
0.0
 10
125.8637021826381
 20
255.6073715862162
 30
0.0
 10
125.8477705104611
 20
255.6584464067648
 30
0.0
 10
125.8846737056249
 20
255.5625044610711
 30
0.0
 10
125.9141281046572
 20
255.4479792980704
 30
0.0
 10
125.9174586867856
 20
255.4350292643344
 30
0.0
  0
LINE
  5
2A1
330
1F
100
AcDbEntity
  8
0
  6
Continuous
 62
     8
370
    25
100
AcDbLine
 10
157.8550561572
 20
255.4350292643
 30
0.0
 11
157.9088087198
 21
255.6073589502
 31
0.0
  0
SPLINE
  5
2A2
330
1F
100
AcDbEntity
  8
0
  6
Continuous
 62
     8
370
    25
100
AcDbSpline
210
0.0
220
0.0
230
1.0
 70
     8
 71
     3
 72
    15
 73
    11
 74
     0
 42
0.00000001
 43
0.00000001
 40
0.0
 40
0.0
 40
0.0
 40
0.0
 40
0.0624115434458107
 40
0.1698010418150066
 40
0.2806314019261877
 40
0.3473111430067065
 40
0.5030505440632206
 40
0.6630141744786833
 40
0.8305089040856821
 40
1.0
 40
1.0
 40
1.0
 40
1.0
 10
165.2631761484631
 20
212.568866960577
 30
0.0
 10
165.2575569300566
 20
212.5658885868289
 30
0.0
 10
165.2422689066091
 20
212.5577854229361
 30
0.0
 10
165.0064935482786
 20
212.4328961906212
 30
0.0
 10
164.5951873809863
 20
212.2157357594192
 30
0.0
 10
163.9639154272288
 20
211.8839732458768
 30
0.0
 10
163.059089686532
 20
211.4112180345704
 30
0.0
 10
161.6913252781654
 20
210.7071133930299
 30
0.0
 10
160.1257781767281
 20
209.9144416528116
 30
0.0
 10
158.9645255204886
 20
209.3485989754423
 30
0.0
 10
158.3804594546979
 20
209.0640015584617
 30
0.0
  0
LINE
  5
2A3
330
1F
100
AcDbEntity
  8
0
  6
Continuous
 62
     8
370
    25
100
AcDbLine
 10
128.5661745187
 20
210.9054946383
 30
0.0
 11
128.8149870207
 21
210.9054946383
 31
0.0
  0
SPLINE
  5
2A4
330
1F
100
AcDbEntity
  8
0
  6
Continuous
 62
     8
370
    25
100
AcDbSpline
210
0.0
220
0.0
230
1.0
 70
     8
 71
     3
 72
    15
 73
    11
 74
     0
 42
0.00000001
 43
0.00000001
 40
0.0
 40
0.0
 40
0.0
 40
0.0
 40
0.1644199879401093
 40
0.3304593616963783
 40
0.4870741887796826
 40
0.6471808244852008
 40
0.7534881094079755
 40
0.8622470515298735
 40
0.9365098595842815
 40
1.0
 40
1.0
 40
1.0
 40
1.0
 10
151.470954059029
 20
216.9603384317544
 30
0.0
 10
151.809507507015
 20
217.4328357503229
 30
0.0
 10
152.4899488433952
 20
218.3824840519287
 30
0.0
 10
153.3910108434816
 20
219.6878945208228
 30
0.0
 10
154.1886855294109
 20
220.8616194766732
 30
0.0
 10
154.7682657897962
 20
221.7267752937354
 30
0.0
 10
155.1635761363481
 20
222.3209784841975
 30
0.0
 10
155.3606125014439
 20
222.6184050765429
 30
0.0
 10
155.4828335721412
 20
222.8032413453145
 30
0.0
 10
155.4469061888177
 20
222.748923016701
 30
0.0
 10
155.4303473083197
 20
222.7238877753569
 30
0.0
  0
LINE
  5
2A5
330
1F
100
AcDbEntity
  8
0
  6
Continuous
 62
     8
370
    25
100
AcDbLine
 10
128.2179997313
 20
239.3350242786
 30
0.0
 11
127.9088443536
 21
239.3350242786
 31
0.0
  0
LINE
  5
2A6
330
1F
100
AcDbEntity
  8
0
  6
Continuous
 62
     8
370
    25
100
AcDbLine
 10
155.8636704904
 20
239.3350242786
 30
0.0
 11
155.5545151127
 21
239.3350242786
 31
0.0
  0
ARC
  5
2A7
330
1F
100
AcDbEntity
  8
0
  6
Continuous
 62
     8
370
    25
100
AcDbCircle
 10
141.886257422
 20
197.0619090692
 30
0.0
 40
16.76373439777597
100
AcDbArc
 50
149.2515511975
 51
213.4643497665
  0
LINE
  5
2A8
330
1F
100
AcDbEntity
  8
0
  6
Continuous
 62
     8
370
    25
100
AcDbLine
 10
127.4791645532
 20
205.6327005163
 30
0.0
 11
127.2049245816
 21
205.6327005163
 31
0.0
  0
LINE
  5
2A9
330
1F
100
AcDbEntity
  8
0
  6
Continuous
 62
     8
370
    25
100
AcDbLine
 10
124.2770742117
 20
252.8119090692
 30
0.0
 11
123.8751504231
 21
252.8119090692
 31
0.0
  0
LINE
  5
2AA
330
1F
100
AcDbEntity
  8
0
  6
Continuous
 62
     8
370
    25
100
AcDbLine
 10
123.8751504231
 20
242.0619090692
 30
0.0
 11
124.2770742117
 21
242.0619090692
 31
0.0
  0
LINE
  5
2AB
330
1F
100
AcDbEntity
  8
0
  6
Continuous
 62
     8
370
    25
100
AcDbLine
 10
159.4954406323
 20
242.0619090692
 30
0.0
 11
159.8973644209
 21
242.0619090692
 31
0.0
  0
LINE
  5
2AC
330
1F
100
AcDbEntity
  8
0
  6
Continuous
 62
     8
370
    25
100
AcDbLine
 10
159.8973644209
 20
252.8119090692
 30
0.0
 11
159.4954406323
 21
252.8119090692
 31
0.0
  0
SPLINE
  5
2AD
330
1F
100
AcDbEntity
  8
0
  6
Continuous
 62
     8
370
    25
100
AcDbSpline
210
0.0
220
0.0
230
1.0
 70
    24
 71
     3
 72
     9
 73
     5
 74
     0
 42
0.00000001
 43
0.00000001
 40
0.0
 40
0.0
 40
0.0
 40
0.0
 40
0.0011254209461464
 40
1.0
 40
1.0
 40
1.0
 40
1.0
 10
158.624646406171
 20
254.4954756300133
 30
0.0
 10
158.6246804778609
 20
254.4954962509877
 30
0.0
 10
158.6549550964394
 20
254.513819150006
 30
0.0
 10
158.5945079594467
 20
254.4772351453469
 30
0.0
 10
158.5341288509281
 20
254.440692313093
 30
0.0
  0
LINE
  5
2AE
330
1F
100
AcDbEntity
  8
0
  6
Continuous
 62
     8
370
    25
100
AcDbLine
 10
125.238385993
 20
254.4406923131
 30
0.0
 11
125.1479832773
 21
254.4954061265
 31
0.0
  0
ENDSEC
  0
SECTION
  2
OBJECTS
  0
DICTIONARY
  5
C
330
0
100
AcDbDictionary
281
     1
  3
ACAD_GROUP
350
D
  3
ACAD_LAYOUT
350
1A
  3
ACAD_MLINESTYLE
350
17
  3
ACAD_PLOTSETTINGS
350
19
  3
ACAD_PLOTSTYLENAME
350
E
  3
ACAD_SCALELIST
350
47
  3
DWGPROPS
350
2AF
  0
DICTIONARY
  5
D
102
{ACAD_REACTORS
330
C
102
}
330
C
100
AcDbDictionary
281
     1
  0
DICTIONARY
  5
1A
102
{ACAD_REACTORS
330
C
102
}
330
C
100
AcDbDictionary
281
     1
  3
Layout1
350
1E
  3
Layout2
350
26
  3
Model
350
22
  0
DICTIONARY
  5
17
102
{ACAD_REACTORS
330
C
102
}
330
C
100
AcDbDictionary
281
     1
  3
Standard
350
18
  0
DICTIONARY
  5
19
102
{ACAD_REACTORS
330
C
102
}
330
C
100
AcDbDictionary
281
     1
  0
ACDBDICTIONARYWDFLT
  5
E
102
{ACAD_REACTORS
330
C
102
}
330
C
100
AcDbDictionary
281
     1
  3
Normal
350
F
100
AcDbDictionaryWithDefault
340
F
  0
DICTIONARY
  5
47
102
{ACAD_REACTORS
330
C
102
}
330
C
100
AcDbDictionary
281
     1
  3
A0
350
48
  3
A1
350
49
  3
A2
350
4A
  3
A3
350
4B
  3
A4
350
4C
  3
A5
350
4D
  3
A6
350
4E
  3
A7
350
4F
  3
A8
350
50
  3
A9
350
51
  3
B0
350
52
  3
B1
350
53
  3
B2
350
54
  3
B3
350
55
  3
B4
350
56
  3
B5
350
57
  3
B6
350
58
  3
B7
350
59
  3
B8
350
5A
  3
B9
350
5B
  3
C0
350
5C
  3
C1
350
5D
  3
C2
350
5E
  3
C3
350
5F
  3
C4
350
60
  3
C5
350
61
  3
C6
350
62
  3
C7
350
63
  3
C8
350
64
  3
C9
350
65
  3
D0
350
66
  3
D1
350
67
  3
D2
350
68
  0
XRECORD
  5
2AF
102
{ACAD_REACTORS
330
C
102
}
330
C
100
AcDbXrecord
280
     1
  1
DWGPROPS COOKIE
  2

  3

  4

  6

  7

  8
vishesh
  9

300
=
301
=
302
=
303
=
304
=
305
=
306
=
307
=
308
=
309
=
 40
0.0
 41
2460383.50013515
 42
2460383.500135521
  1

 90
        0
  0
LAYOUT
  5
1E
102
{ACAD_REACTORS
330
1A
102
}
330
1A
100
AcDbPlotSettings
  1

  2
none_device
  4

  6

 40
0.0
 41
0.0
 42
0.0
 43
0.0
 44
0.0
 45
0.0
 46
0.0
 47
0.0
 48
0.0
 49
0.0
140
0.0
141
0.0
142
1.0
143
1.0
 70
   688
 72
     1
 73
     0
 74
     5
  7

 75
    16
147
1.0
148
0.0
149
0.0
100
AcDbLayout
  1
Layout1
 70
     1
 71
     1
 10
0.0
 20
0.0
 11
420.0
 21
297.0
 12
0.0
 22
0.0
 32
0.0
 14
1.0000000000E+20
 24
1.0000000000E+20
 34
1.0000000000E+20
 15
-1.0000000000E+20
 25
-1.0000000000E+20
 35
-1.0000000000E+20
146
0.0
 13
0.0
 23
0.0
 33
0.0
 16
1.0
 26
0.0
 36
0.0
 17
0.0
 27
1.0
 37
0.0
 76
     0
330
1B
  0
LAYOUT
  5
26
102
{ACAD_REACTORS
330
1A
102
}
330
1A
100
AcDbPlotSettings
  1

  2
none_device
  4

  6

 40
0.0
 41
0.0
 42
0.0
 43
0.0
 44
0.0
 45
0.0
 46
0.0
 47
0.0
 48
0.0
 49
0.0
140
0.0
141
0.0
142
1.0
143
1.0
 70
   688
 72
     1
 73
     0
 74
     5
  7

 75
    16
147
1.0
148
0.0
149
0.0
100
AcDbLayout
  1
Layout2
 70
     1
 71
     2
 10
0.0
 20
0.0
 11
0.0
 21
0.0
 12
0.0
 22
0.0
 32
0.0
 14
0.0
 24
0.0
 34
0.0
 15
0.0
 25
0.0
 35
0.0
146
0.0
 13
0.0
 23
0.0
 33
0.0
 16
1.0
 26
0.0
 36
0.0
 17
0.0
 27
1.0
 37
0.0
 76
     0
330
23
  0
LAYOUT
  5
22
102
{ACAD_REACTORS
330
1A
102
}
330
1A
100
AcDbPlotSettings
  1

  2
none_device
  4
Letter_(8.50_x_11.00_Inches)
  6

 40
6.35
 41
6.35
 42
6.35000508
 43
6.35000508
 44
215.9
 45
279.4
 46
0.0
 47
0.0
 48
0.0
 49
0.0
140
0.0
141
0.0
142
1.0
143
1.0
 70
  1712
 72
     1
 73
     0
 74
     0
  7

 75
     0
147
1.0
148
0.0
149
0.0
100
AcDbLayout
  1
Model
 70
     1
 71
     0
 10
0.0
 20
0.0
 11
279.4
 21
215.9
 12
0.0
 22
0.0
 32
0.0
 14
0.0
 24
0.0
 34
0.0
 15
279.4
 25
215.9
 35
0.0
146
0.0
 13
0.0
 23
0.0
 33
0.0
 16
1.0
 26
0.0
 36
0.0
 17
0.0
 27
1.0
 37
0.0
 76
     0
330
1F
331
29
  0
MLINESTYLE
  5
18
102
{ACAD_REACTORS
330
17
102
}
330
17
100
AcDbMlineStyle
  2
Standard
 70
     0
  3

 62
   256
 51
90.0
 52
90.0
 71
     2
 49
0.5
 62
   256
  6
BYLAYER
 49
-0.5
 62
   256
  6
BYLAYER
  0
ACDBPLACEHOLDER
  5
F
102
{ACAD_REACTORS
330
E
102
}
330
E
  0
SCALE
  5
48
102
{ACAD_REACTORS
330
47
102
}
330
47
100
AcDbScale
 70
     0
300
1:1
140
1.0
141
1.0
290
     1
  0
SCALE
  5
49
102
{ACAD_REACTORS
330
47
102
}
330
47
100
AcDbScale
 70
     0
300
1:2
140
1.0
141
2.0
290
     0
  0
SCALE
  5
4A
102
{ACAD_REACTORS
330
47
102
}
330
47
100
AcDbScale
 70
     0
300
1:4
140
1.0
141
4.0
290
     0
  0
SCALE
  5
4B
102
{ACAD_REACTORS
330
47
102
}
330
47
100
AcDbScale
 70
     0
300
1:5
140
1.0
141
5.0
290
     0
  0
SCALE
  5
4C
102
{ACAD_REACTORS
330
47
102
}
330
47
100
AcDbScale
 70
     0
300
1:8
140
1.0
141
8.0
290
     0
  0
SCALE
  5
4D
102
{ACAD_REACTORS
330
47
102
}
330
47
100
AcDbScale
 70
     0
300
1:10
140
1.0
141
10.0
290
     0
  0
SCALE
  5
4E
102
{ACAD_REACTORS
330
47
102
}
330
47
100
AcDbScale
 70
     0
300
1:16
140
1.0
141
16.0
290
     0
  0
SCALE
  5
4F
102
{ACAD_REACTORS
330
47
102
}
330
47
100
AcDbScale
 70
     0
300
1:20
140
1.0
141
20.0
290
     0
  0
SCALE
  5
50
102
{ACAD_REACTORS
330
47
102
}
330
47
100
AcDbScale
 70
     0
300
1:30
140
1.0
141
30.0
290
     0
  0
SCALE
  5
51
102
{ACAD_REACTORS
330
47
102
}
330
47
100
AcDbScale
 70
     0
300
1:40
140
1.0
141
40.0
290
     0
  0
SCALE
  5
52
102
{ACAD_REACTORS
330
47
102
}
330
47
100
AcDbScale
 70
     0
300
1:50
140
1.0
141
50.0
290
     0
  0
SCALE
  5
53
102
{ACAD_REACTORS
330
47
102
}
330
47
100
AcDbScale
 70
     0
300
1:100
140
1.0
141
100.0
290
     0
  0
SCALE
  5
54
102
{ACAD_REACTORS
330
47
102
}
330
47
100
AcDbScale
 70
     0
300
2:1
140
2.0
141
1.0
290
     0
  0
SCALE
  5
55
102
{ACAD_REACTORS
330
47
102
}
330
47
100
AcDbScale
 70
     0
300
4:1
140
4.0
141
1.0
290
     0
  0
SCALE
  5
56
102
{ACAD_REACTORS
330
47
102
}
330
47
100
AcDbScale
 70
     0
300
8:1
140
8.0
141
1.0
290
     0
  0
SCALE
  5
57
102
{ACAD_REACTORS
330
47
102
}
330
47
100
AcDbScale
 70
     0
300
10:1
140
10.0
141
1.0
290
     0
  0
SCALE
  5
58
102
{ACAD_REACTORS
330
47
102
}
330
47
100
AcDbScale
 70
     0
300
100:1
140
100.0
141
1.0
290
     0
  0
SCALE
  5
59
102
{ACAD_REACTORS
330
47
102
}
330
47
100
AcDbScale
 70
     0
300
1/128" = 1'-0"
140
0.0078125
141
12.0
290
     0
  0
SCALE
  5
5A
102
{ACAD_REACTORS
330
47
102
}
330
47
100
AcDbScale
 70
     0
300
1/64" = 1'-0"
140
0.015625
141
12.0
290
     0
  0
SCALE
  5
5B
102
{ACAD_REACTORS
330
47
102
}
330
47
100
AcDbScale
 70
     0
300
1/32" = 1'-0"
140
0.03125
141
12.0
290
     0
  0
SCALE
  5
5C
102
{ACAD_REACTORS
330
47
102
}
330
47
100
AcDbScale
 70
     0
300
1/16" = 1'-0"
140
0.0625
141
12.0
290
     0
  0
SCALE
  5
5D
102
{ACAD_REACTORS
330
47
102
}
330
47
100
AcDbScale
 70
     0
300
3/32" = 1'-0"
140
0.09375
141
12.0
290
     0
  0
SCALE
  5
5E
102
{ACAD_REACTORS
330
47
102
}
330
47
100
AcDbScale
 70
     0
300
1/8" = 1'-0"
140
0.125
141
12.0
290
     0
  0
SCALE
  5
5F
102
{ACAD_REACTORS
330
47
102
}
330
47
100
AcDbScale
 70
     0
300
3/16" = 1'-0"
140
0.1875
141
12.0
290
     0
  0
SCALE
  5
60
102
{ACAD_REACTORS
330
47
102
}
330
47
100
AcDbScale
 70
     0
300
1/4" = 1'-0"
140
0.25
141
12.0
290
     0
  0
SCALE
  5
61
102
{ACAD_REACTORS
330
47
102
}
330
47
100
AcDbScale
 70
     0
300
3/8" = 1'-0"
140
0.375
141
12.0
290
     0
  0
SCALE
  5
62
102
{ACAD_REACTORS
330
47
102
}
330
47
100
AcDbScale
 70
     0
300
1/2" = 1'-0"
140
0.5
141
12.0
290
     0
  0
SCALE
  5
63
102
{ACAD_REACTORS
330
47
102
}
330
47
100
AcDbScale
 70
     0
300
3/4" = 1'-0"
140
0.75
141
12.0
290
     0
  0
SCALE
  5
64
102
{ACAD_REACTORS
330
47
102
}
330
47
100
AcDbScale
 70
     0
300
1" = 1'-0"
140
1.0
141
12.0
290
     0
  0
SCALE
  5
65
102
{ACAD_REACTORS
330
47
102
}
330
47
100
AcDbScale
 70
     0
300
1-1/2" = 1'-0"
140
1.5
141
12.0
290
     0
  0
SCALE
  5
66
102
{ACAD_REACTORS
330
47
102
}
330
47
100
AcDbScale
 70
     0
300
3" = 1'-0"
140
3.0
141
12.0
290
     0
  0
SCALE
  5
67
102
{ACAD_REACTORS
330
47
102
}
330
47
100
AcDbScale
 70
     0
300
6" = 1'-0"
140
6.0
141
12.0
290
     0
  0
SCALE
  5
68
102
{ACAD_REACTORS
330
47
102
}
330
47
100
AcDbScale
 70
     0
300
1'-0" = 1'-0"
140
12.0
141
12.0
290
     0
  0
ENDSEC
  0
EOF
