  0
SECTION
  2
HEADER
  9
$ACADVER
  1
AC1015
  9
$ACADMAINTVER
 70
     6
  9
$DWGCODEPAGE
  3
ANSI_1252
  9
$INSBASE
 10
0.0
 20
0.0
 30
0.0
  9
$EXTMIN
 10
0.0
 20
0.0
 30
0.0
  9
$EXTMAX
 10
279.4
 20
215.9
 30
0.0
  9
$LIMMIN
 10
0.0
 20
0.0
  9
$LIMMAX
 10
279.4
 20
215.9
  9
$ORTHOMODE
 70
     0
  9
$REGENMODE
 70
     1
  9
$FILLMODE
 70
     1
  9
$QTEXTMODE
 70
     0
  9
$MIRRTEXT
 70
     1
  9
$LTSCALE
 40
1.0
  9
$ATTMODE
 70
     1
  9
$TEXTSIZE
 40
3.5
  9
$TRACEWID
 40
1.0
  9
$TEXTSTYLE
  7
Standard
  9
$CLAYER
  8
0
  9
$CELTYPE
  6
ByLayer
  9
$CECOLOR
 62
   256
  9
$CELTSCALE
 40
1.0
  9
$DISPSILH
 70
     0
  9
$DIMSCALE
 40
1.0
  9
$DIMASZ
 40
3.302
  9
$DIMEXO
 40
1.0
  9
$DIMDLI
 40
3.75
  9
$DIMRND
 40
0.0
  9
$DIMDLE
 40
0.0
  9
$DIMEXE
 40
1.0
  9
$DIMTP
 40
0.0
  9
$DIMTM
 40
0.0
  9
$DIMTXT
 40
3.5
  9
$DIMCEN
 40
2.5
  9
$DIMTSZ
 40
0.0
  9
$DIMTOL
 70
     0
  9
$DIMLIM
 70
     0
  9
$DIMTIH
 70
     1
  9
$DIMTOH
 70
     1
  9
$DIMSE1
 70
     0
  9
$DIMSE2
 70
     0
  9
$DIMTAD
 70
     1
  9
$DIMZIN
 70
     1
  9
$DIMBLK
  1

  9
$DIMASO
 70
     1
  9
$DIMSHO
 70
     1
  9
$DIMPOST
  1

  9
$DIMAPOST
  1

  9
$DIMALT
 70
     0
  9
$DIMALTD
 70
     3
  9
$DIMALTF
 40
0.0393700787
  9
$DIMLFAC
 40
2.0
  9
$DIMTOFL
 70
     1
  9
$DIMTVP
 40
0.0
  9
$DIMTIX
 70
     0
  9
$DIMSOXD
 70
     0
  9
$DIMSAH
 70
     0
  9
$DIMBLK1
  1

  9
$DIMBLK2
  1

  9
$DIMSTYLE
  2
ISO-25
  9
$DIMCLRD
 70
     0
  9
$DIMCLRE
 70
     0
  9
$DIMCLRT
 70
     0
  9
$DIMTFAC
 40
1.0
  9
$DIMGAP
 40
1.524
  9
$DIMJUST
 70
     0
  9
$DIMSD1
 70
     0
  9
$DIMSD2
 70
     0
  9
$DIMTOLJ
 70
     0
  9
$DIMTZIN
 70
     1
  9
$DIMALTZ
 70
     0
  9
$DIMALTTZ
 70
     0
  9
$DIMUPT
 70
     0
  9
$DIMDEC
 70
     2
  9
$DIMTDEC
 70
     2
  9
$DIMALTU
 70
     2
  9
$DIMALTTD
 70
     3
  9
$DIMTXSTY
  7
Standard
  9
$DIMAUNIT
 70
     0
  9
$DIMADEC
 70
     2
  9
$DIMALTRND
 40
0.0
  9
$DIMAZIN
 70
     0
  9
$DIMDSEP
 70
    44
  9
$DIMATFIT
 70
     3
  9
$DIMFRAC
 70
     0
  9
$DIMLDRBLK
  1

  9
$DIMLUNIT
 70
     2
  9
$DIMLWD
 70
    -2
  9
$DIMLWE
 70
    -2
  9
$DIMTMOVE
 70
     0
  9
$LUNITS
 70
     2
  9
$LUPREC
 70
     2
  9
$SKETCHINC
 40
1.0
  9
$FILLETRAD
 40
10.0
  9
$AUNITS
 70
     0
  9
$AUPREC
 70
     2
  9
$MENU
  1
.
  9
$ELEVATION
 40
0.0
  9
$PELEVATION
 40
0.0
  9
$THICKNESS
 40
0.0
  9
$LIMCHECK
 70
     0
  9
$CHAMFERA
 40
0.0
  9
$CHAMFERB
 40
0.0
  9
$CHAMFERC
 40
0.0
  9
$CHAMFERD
 40
0.0
  9
$SKPOLY
 70
     0
  9
$TDCREATE
 40
2460383.715700914
  9
$TDUCREATE
 40
2460383.486534248
  9
$TDUPDATE
 40
2460383.715701296
  9
$TDUUPDATE
 40
2460383.486534629
  9
$TDINDWG
 40
0.0000000116
  9
$TDUSRTIMER
 40
0.0000000116
  9
$USRTIMER
 70
     1
  9
$ANGBASE
 50
0.0
  9
$ANGDIR
 70
     0
  9
$PDMODE
 70
     0
  9
$PDSIZE
 40
-1.0
  9
$PLINEWID
 40
0.0
  9
$SPLFRAME
 70
     0
  9
$SPLINETYPE
 70
     6
  9
$SPLINESEGS
 70
     8
  9
$HANDSEED
  5
178
  9
$SURFTAB1
 70
     6
  9
$SURFTAB2
 70
     6
  9
$SURFTYPE
 70
     6
  9
$SURFU
 70
     6
  9
$SURFV
 70
     6
  9
$UCSBASE
  2

  9
$UCSNAME
  2

  9
$UCSORG
 10
0.0
 20
0.0
 30
0.0
  9
$UCSXDIR
 10
1.0
 20
0.0
 30
0.0
  9
$UCSYDIR
 10
0.0
 20
1.0
 30
0.0
  9
$UCSORTHOREF
  2

  9
$UCSORTHOVIEW
 70
     0
  9
$UCSORGTOP
 10
0.0
 20
0.0
 30
0.0
  9
$UCSORGBOTTOM
 10
0.0
 20
0.0
 30
0.0
  9
$UCSORGLEFT
 10
0.0
 20
0.0
 30
0.0
  9
$UCSORGRIGHT
 10
0.0
 20
0.0
 30
0.0
  9
$UCSORGFRONT
 10
0.0
 20
0.0
 30
0.0
  9
$UCSORGBACK
 10
0.0
 20
0.0
 30
0.0
  9
$PUCSBASE
  2

  9
$PUCSNAME
  2

  9
$PUCSORG
 10
0.0
 20
0.0
 30
0.0
  9
$PUCSXDIR
 10
1.0
 20
0.0
 30
0.0
  9
$PUCSYDIR
 10
0.0
 20
1.0
 30
0.0
  9
$PUCSORTHOREF
  2

  9
$PUCSORTHOVIEW
 70
     0
  9
$PUCSORGTOP
 10
0.0
 20
0.0
 30
0.0
  9
$PUCSORGBOTTOM
 10
0.0
 20
0.0
 30
0.0
  9
$PUCSORGLEFT
 10
0.0
 20
0.0
 30
0.0
  9
$PUCSORGRIGHT
 10
0.0
 20
0.0
 30
0.0
  9
$PUCSORGFRONT
 10
0.0
 20
0.0
 30
0.0
  9
$PUCSORGBACK
 10
0.0
 20
0.0
 30
0.0
  9
$USERI1
 70
     0
  9
$USERI2
 70
     0
  9
$USERI3
 70
     0
  9
$USERI4
 70
     0
  9
$USERI5
 70
     0
  9
$USERR1
 40
0.0
  9
$USERR2
 40
0.0
  9
$USERR3
 40
0.0
  9
$USERR4
 40
0.0
  9
$USERR5
 40
0.0
  9
$WORLDVIEW
 70
     1
  9
$SHADEDGE
 70
     3
  9
$SHADEDIF
 70
    70
  9
$TILEMODE
 70
     1
  9
$MAXACTVP
 70
    64
  9
$PINSBASE
 10
0.0
 20
0.0
 30
0.0
  9
$PLIMCHECK
 70
     0
  9
$PEXTMIN
 10
1.0000000000E+20
 20
1.0000000000E+20
 30
1.0000000000E+20
  9
$PEXTMAX
 10
-1.0000000000E+20
 20
-1.0000000000E+20
 30
-1.0000000000E+20
  9
$PLIMMIN
 10
0.0
 20
0.0
  9
$PLIMMAX
 10
420.0
 20
297.0
  9
$UNITMODE
 70
     0
  9
$VISRETAIN
 70
     1
  9
$PLINEGEN
 70
     0
  9
$PSLTSCALE
 70
     1
  9
$TREEDEPTH
 70
  3020
  9
$CMLSTYLE
  2
Standard
  9
$CMLJUST
 70
     0
  9
$CMLSCALE
 40
20.0
  9
$PROXYGRAPHICS
 70
     1
  9
$MEASUREMENT
 70
     1
  9
$CELWEIGHT
370
    -1
  9
$ENDCAPS
280
     0
  9
$JOINSTYLE
280
     0
  9
$LWDISPLAY
290
     1
  9
$INSUNITS
 70
     4
  9
$HYPERLINKBASE
  1

  9
$STYLESHEET
  1

  9
$XEDIT
290
     1
  9
$CEPSNTYPE
380
     0
  9
$PSTYLEMODE
290
     1
  9
$FINGERPRINTGUID
  2
{535f940b-d216-4ef1-8cea-9d2623456e52}
  9
$VERSIONGUID
  2
{FAEB1C32-E019-11D5-929B-00C0DF256EC4}
  9
$EXTNAMES
290
     1
  9
$PSVPSCALE
 40
0.0
  9
$OLESTARTUP
290
     0
  0
ENDSEC
  0
SECTION
  2
CLASSES
  0
CLASS
  1
ACDBDICTIONARYWDFLT
  2
AcDbDictionaryWithDefault
  3
ObjectDBX Classes
 90
        0
280
     0
281
     0
  0
CLASS
  1
VISUALSTYLE
  2
AcDbVisualStyle
  3
ObjectDBX Classes
 90
     4095
280
     0
281
     0
  0
CLASS
  1
MATERIAL
  2
AcDbMaterial
  3
ObjectDBX Classes
 90
     1153
280
     0
281
     0
  0
CLASS
  1
SCALE
  2
AcDbScale
  3
ObjectDBX Classes
 90
     1153
280
     0
281
     0
  0
CLASS
  1
TABLESTYLE
  2
AcDbTableStyle
  3
ObjectDBX Classes
 90
     4095
280
     0
281
     0
  0
CLASS
  1
MLEADERSTYLE
  2
AcDbMLeaderStyle
  3
ACDB_MLEADERSTYLE_CLASS
 90
     4095
280
     0
281
     0
  0
CLASS
  1
SUN
  2
AcDbSun
  3
SCENEOE
 90
     1153
280
     0
281
     0
  0
CLASS
  1
ACDBPLACEHOLDER
  2
AcDbPlaceHolder
  3
ObjectDBX Classes
 90
        0
280
     0
281
     0
  0
CLASS
  1
LAYOUT
  2
AcDbLayout
  3
ObjectDBX Classes
 90
        0
280
     0
281
     0
  0
ENDSEC
  0
SECTION
  2
TABLES
  0
TABLE
  2
VPORT
  5
8
330
0
100
AcDbSymbolTable
 70
     1
  0
VPORT
  5
29
330
8
100
AcDbSymbolTableRecord
100
AcDbViewportTableRecord
  2
*Active
 70
     0
 10
0.0
 20
0.0
 11
1.0
 21
1.0
 12
139.7
 22
107.95
 13
0.0
 23
0.0
 14
10.0
 24
10.0
 15
10.0
 25
10.0
 16
0.0
 26
0.0
 36
1.0
 17
0.0
 27
0.0
 37
0.0
 40
215.9
 41
1.2941176471
 42
50.0
 43
0.0
 44
0.0
 50
0.0
 51
0.0
 71
     0
 72
  2000
 73
     1
 74
     3
 75
     0
 76
     0
 77
     0
 78
     0
281
     0
 65
     1
110
0.0
120
0.0
130
0.0
111
1.0
121
0.0
131
0.0
112
0.0
122
1.0
132
0.0
 79
     0
146
0.0
  0
ENDTAB
  0
TABLE
  2
LTYPE
  5
5
330
0
100
AcDbSymbolTable
 70
     6
  0
LTYPE
  5
14
330
5
100
AcDbSymbolTableRecord
100
AcDbLinetypeTableRecord
  2
ByBlock
 70
     0
  3

 72
    65
 73
     0
 40
0.0
  0
LTYPE
  5
15
330
5
100
AcDbSymbolTableRecord
100
AcDbLinetypeTableRecord
  2
ByLayer
 70
     0
  3

 72
    65
 73
     0
 40
0.0
  0
LTYPE
  5
16
330
5
100
AcDbSymbolTableRecord
100
AcDbLinetypeTableRecord
  2
Continuous
 70
     0
  3
Solid line
 72
    65
 73
     0
 40
0.0
  0
LTYPE
  5
6E
330
5
100
AcDbSymbolTableRecord
100
AcDbLinetypeTableRecord
  2
HIDDEN
 70
     0
  3
Hidden __ __ __ __ __ __ __ __ __ __ __ __ __ __
 72
    65
 73
     2
 40
1.905
 49
1.27
 74
     0
 49
-0.635
 74
     0
  0
LTYPE
  5
6F
330
5
100
AcDbSymbolTableRecord
100
AcDbLinetypeTableRecord
  2
PHANTOM
 70
     0
  3
Phantom ______  __  __  ______  __  __  ______
 72
    65
 73
     6
 40
12.7
 49
6.35
 74
     0
 49
-1.27
 74
     0
 49
1.27
 74
     0
 49
-1.27
 74
     0
 49
1.27
 74
     0
 49
-1.27
 74
     0
  0
LTYPE
  5
70
330
5
100
AcDbSymbolTableRecord
100
AcDbLinetypeTableRecord
  2
CENTER
 70
     0
  3
Center ____ _ ____ _ ____ _ ____ _ ____ _ ____
 72
    65
 73
     4
 40
10.16
 49
6.35
 74
     0
 49
-1.27
 74
     0
 49
1.27
 74
     0
 49
-1.27
 74
     0
  0
LTYPE
  5
71
330
5
100
AcDbSymbolTableRecord
100
AcDbLinetypeTableRecord
  2
CENTERX2
 70
     0
  3
Center (2x) ________  __  ________  __  _____
 72
    65
 73
     4
 40
20.32
 49
12.7
 74
     0
 49
-2.54
 74
     0
 49
2.54
 74
     0
 49
-2.54
 74
     0
  0
LTYPE
  5
72
330
5
100
AcDbSymbolTableRecord
100
AcDbLinetypeTableRecord
  2
DOT2
 70
     0
  3
Dot (.5x) ........................................
 72
    65
 73
     2
 40
0.635
 49
0.0
 74
     0
 49
-0.635
 74
     0
  0
ENDTAB
  0
TABLE
  2
LAYER
  5
2
330
0
100
AcDbSymbolTable
 70
     5
  0
LAYER
  5
10
330
2
100
AcDbSymbolTableRecord
100
AcDbLayerTableRecord
  2
0
 70
     0
 62
     7
  6
Continuous
370
    -3
390
F
  0
LAYER
  5
73
330
2
100
AcDbSymbolTableRecord
100
AcDbLayerTableRecord
  2
FORMAT
 70
     0
 62
     7
  6
Continuous
370
    -3
390
F
  0
LAYER
  5
74
330
2
100
AcDbSymbolTableRecord
100
AcDbLayerTableRecord
  2
OUT_LINE
 70
     0
 62
     7
  6
Continuous
370
    50
390
F
  0
LAYER
  5
75
330
2
100
AcDbSymbolTableRecord
100
AcDbLayerTableRecord
  2
WATERMARK
 70
     0
 62
   254
  6
Continuous
370
    -3
390
F
  0
LAYER
  5
76
330
2
100
AcDbSymbolTableRecord
100
AcDbLayerTableRecord
  2
LAYER3
 70
     0
 62
     7
  6
Continuous
370
    35
390
F
  0
ENDTAB
  0
TABLE
  2
STYLE
  5
3
330
0
100
AcDbSymbolTable
 70
     1
  0
STYLE
  5
11
330
3
100
AcDbSymbolTableRecord
100
AcDbTextStyleTableRecord
  2
Standard
 70
     0
 40
0.0
 41
1.0
 50
0.0
 71
     0
 42
3.5
  3
txt
  4

  0
ENDTAB
  0
TABLE
  2
VIEW
  5
6
330
0
100
AcDbSymbolTable
 70
     0
  0
ENDTAB
  0
TABLE
  2
UCS
  5
7
330
0
100
AcDbSymbolTable
 70
     0
  0
ENDTAB
  0
TABLE
  2
APPID
  5
9
330
0
100
AcDbSymbolTable
 70
     1
  0
APPID
  5
12
330
9
100
AcDbSymbolTableRecord
100
AcDbRegAppTableRecord
  2
ACAD
 70
     0
  0
ENDTAB
  0
TABLE
  2
DIMSTYLE
  5
A
330
0
100
AcDbSymbolTable
 70
     1
100
AcDbDimStyleTable
  0
DIMSTYLE
105
27
330
A
100
AcDbSymbolTableRecord
100
AcDbDimStyleTableRecord
  2
ISO-25
 70
     0
 41
2.5
 42
0.625
 43
3.75
 44
1.25
 73
     0
 74
     0
 77
     1
 78
     8
140
2.5
141
2.5
143
0.0393700787
147
0.625
171
     3
172
     1
178
     0
271
     2
272
     2
274
     3
278
    44
283
     0
284
     8
340
11
  0
ENDTAB
  0
TABLE
  2
BLOCK_RECORD
  5
1
330
0
100
AcDbSymbolTable
 70
     4
  0
BLOCK_RECORD
  5
1F
330
1
100
AcDbSymbolTableRecord
100
AcDbBlockTableRecord
  2
*Model_Space
340
22
  0
BLOCK_RECORD
  5
1B
330
1
100
AcDbSymbolTableRecord
100
AcDbBlockTableRecord
  2
*Paper_Space
340
1E
  0
BLOCK_RECORD
  5
23
330
1
100
AcDbSymbolTableRecord
100
AcDbBlockTableRecord
  2
*Paper_Space0
340
26
  0
BLOCK_RECORD
  5
77
330
1
100
AcDbSymbolTableRecord
100
AcDbBlockTableRecord
  2
Block5
340
0
  0
BLOCK_RECORD
  5
85
330
1
100
AcDbSymbolTableRecord
100
AcDbBlockTableRecord
  2
Block2
340
0
  0
BLOCK_RECORD
  5
90
330
1
100
AcDbSymbolTableRecord
100
AcDbBlockTableRecord
  2
Block7
340
0
  0
ENDTAB
  0
ENDSEC
  0
SECTION
  2
BLOCKS
  0
BLOCK
  5
20
330
1F
100
AcDbEntity
  8
0
100
AcDbBlockBegin
  2
*Model_Space
 70
     0
 10
0.0
 20
0.0
 30
0.0
  3
*Model_Space
  1

  0
ENDBLK
  5
21
330
1F
100
AcDbEntity
  8
0
100
AcDbBlockEnd
  0
BLOCK
  5
1C
330
1B
100
AcDbEntity
 67
     1
  8
0
100
AcDbBlockBegin
  2
*Paper_Space
 70
     0
 10
0.0
 20
0.0
 30
0.0
  3
*Paper_Space
  1

  0
ENDBLK
  5
1D
330
1B
100
AcDbEntity
 67
     1
  8
0
100
AcDbBlockEnd
  0
BLOCK
  5
24
330
23
100
AcDbEntity
  8
0
100
AcDbBlockBegin
  2
*Paper_Space0
 70
     0
 10
0.0
 20
0.0
 30
0.0
  3
*Paper_Space0
  1

  0
ENDBLK
  5
25
330
23
100
AcDbEntity
  8
0
100
AcDbBlockEnd
  0
BLOCK
  5
78
330
77
100
AcDbEntity
  8
0
100
AcDbBlockBegin
  2
Block5
 70
     0
 10
0.0
 20
0.0
 30
0.0
  3
Block5
  1

  0
LINE
  5
7A
330
77
100
AcDbEntity
  8
LAYER3
100
AcDbLine
 10
251.0883122991
 20
64.4632252413
 30
0.0
 11
250.3611798328
 21
64.9733337839
 31
0.0
  0
LINE
  5
7B
330
77
100
AcDbEntity
  8
LAYER3
100
AcDbLine
 10
250.3611798328
 20
64.9733337839
 30
0.0
 11
251.0883122991
 21
65.4834423266
 31
0.0
  0
LINE
  5
7C
330
77
100
AcDbEntity
  8
LAYER3
100
AcDbLine
 10
250.3611798328
 20
65.6106440044
 30
0.0
 11
250.3611798328
 21
64.3360235634
 31
0.0
  0
LINE
  5
7D
330
77
100
AcDbEntity
  8
LAYER3
100
AcDbLine
 10
251.0883122991
 20
65.4834423266
 30
0.0
 11
251.0883122991
 21
64.4632252413
 31
0.0
  0
LINE
  5
7E
330
77
100
AcDbEntity
  8
LAYER3
  6
Continuous
 62
     7
370
    18
100
AcDbLine
 10
254.0738326611
 20
65.4834423266
 30
0.0
 11
254.0738326611
 21
64.4632252413
 31
0.0
  0
LINE
  5
7F
330
77
100
AcDbEntity
  8
LAYER3
100
AcDbLine
 10
251.0883122991
 20
64.9733337839
 30
0.0
 11
254.0738326611
 21
64.9733337839
 31
0.0
  0
LINE
  5
80
330
77
100
AcDbEntity
  8
LAYER3
100
AcDbLine
 10
254.0738326611
 20
64.9733337839
 30
0.0
 11
254.0738326611
 21
64.4632252413
 31
0.0
  0
LINE
  5
81
330
77
100
AcDbEntity
  8
LAYER3
100
AcDbLine
 10
254.0738326611
 20
65.4834423266
 30
0.0
 11
254.8009651274
 21
64.9733337839
 31
0.0
  0
LINE
  5
82
330
77
100
AcDbEntity
  8
LAYER3
100
AcDbLine
 10
254.8009651274
 20
64.9733337839
 30
0.0
 11
254.0738326611
 21
64.4632252413
 31
0.0
  0
LINE
  5
83
330
77
100
AcDbEntity
  8
LAYER3
100
AcDbLine
 10
254.0738326611
 20
65.4834423266
 30
0.0
 11
254.0738326611
 21
64.9733337839
 31
0.0
  0
LINE
  5
84
330
77
100
AcDbEntity
  8
LAYER3
100
AcDbLine
 10
254.8009651274
 20
65.6106440044
 30
0.0
 11
254.8009651274
 21
64.3360235634
 31
0.0
  0
ENDBLK
  5
79
330
77
100
AcDbEntity
  8
0
100
AcDbBlockEnd
  0
BLOCK
  5
86
330
85
100
AcDbEntity
  8
0
100
AcDbBlockBegin
  2
Block2
 70
     0
 10
0.0
 20
0.0
 30
0.0
  3
Block2
  1

  0
CIRCLE
  5
88
330
85
100
AcDbEntity
  8
FORMAT
100
AcDbCircle
 10
44.9757425281
 20
71.5551333392
 30
0.0
 40
3.500000000000012
  0
CIRCLE
  5
89
330
85
100
AcDbEntity
  8
FORMAT
100
AcDbCircle
 10
44.9757425281
 20
71.5551333392
 30
0.0
 40
1.664444312410222
  0
LINE
  5
8A
330
85
100
AcDbEntity
  8
FORMAT
100
AcDbLine
 10
50.8419693267
 20
74.6444962432
 30
0.0
 11
58.8419693267
 21
73.6204905773
 31
0.0
  0
LINE
  5
8B
330
85
100
AcDbEntity
  8
FORMAT
100
AcDbLine
 10
58.8419693267
 20
73.6204905773
 30
0.0
 11
58.8419693267
 21
69.4897761011
 31
0.0
  0
LINE
  5
8C
330
85
100
AcDbEntity
  8
FORMAT
100
AcDbLine
 10
58.8419693267
 20
69.4897761011
 30
0.0
 11
50.8419693267
 21
68.4657704351
 31
0.0
  0
LINE
  5
8D
330
85
100
AcDbEntity
  8
FORMAT
100
AcDbLine
 10
50.8419693267
 20
68.4657704351
 30
0.0
 11
50.8419693267
 21
74.6444962432
 31
0.0
  0
LINE
  5
8E
330
85
100
AcDbEntity
  8
FORMAT
  6
CENTERX2
100
AcDbLine
 10
58.8419693267
 20
71.5551333392
 30
0.0
 11
40.5246830005
 21
71.5551333392
 31
0.0
  0
LINE
  5
8F
330
85
100
AcDbEntity
  8
FORMAT
100
AcDbLine
 10
44.9757425281
 20
77.2283416432
 30
0.0
 11
44.9757425281
 21
65.8819250352
 31
0.0
  0
ENDBLK
  5
87
330
85
100
AcDbEntity
  8
0
100
AcDbBlockEnd
  0
BLOCK
  5
91
330
90
100
AcDbEntity
  8
0
100
AcDbBlockBegin
  2
Block7
 70
     0
 10
0.0
 20
0.0
 30
0.0
  3
Block7
  1

  0
LINE
  5
93
330
90
100
AcDbEntity
  8
FORMAT
100
AcDbLine
 10
221.8284763776
 20
80.2705155621
 30
0.0
 11
222.3963943455
 21
79.286852787
 31
0.0
  0
LINE
  5
94
330
90
100
AcDbEntity
  8
FORMAT
100
AcDbLine
 10
222.3963943455
 20
79.286852787
 30
0.0
 11
222.9643123135
 21
80.2705155621
 31
0.0
  0
LINE
  5
95
330
90
100
AcDbEntity
  8
FORMAT
100
AcDbLine
 10
221.8284763776
 20
80.2705155621
 30
0.0
 11
222.9643123135
 21
80.2705155621
 31
0.0
  0
LINE
  5
96
330
90
100
AcDbEntity
  8
FORMAT
100
AcDbLine
 10
222.9643123135
 20
80.2705155621
 30
0.0
 11
223.3725273771
 21
80.9775647926
 31
0.0
  0
LINE
  5
97
330
90
100
AcDbEntity
  8
FORMAT
100
AcDbLine
 10
223.3725273771
 20
80.9775647926
 30
0.0
 11
224.1023154201
 21
80.9775647926
 31
0.0
  0
ENDBLK
  5
92
330
90
100
AcDbEntity
  8
0
100
AcDbBlockEnd
  0
ENDSEC
  0
SECTION
  2
ENTITIES
  0
SPLINE
  5
98
330
1F
100
AcDbEntity
  8
0
  6
Continuous
 62
     7
370
    25
100
AcDbSpline
210
0.0
220
0.0
230
1.0
 70
     8
 71
     3
 72
    57
 73
    53
 74
     0
 42
0.00000001
 43
0.00000001
 40
0.0
 40
0.0
 40
0.0
 40
0.0
 40
0.0098002128928852
 40
0.0348390229258283
 40
0.0573744174915555
 40
0.0835073350464581
 40
0.1052030535796095
 40
0.1261954731025783
 40
0.1488889800761395
 40
0.1724358448496167
 40
0.1944001439946361
 40
0.2099846862892599
 40
0.2279360923358082
 40
0.241924185245179
 40
0.2572871452148354
 40
0.2728716465684956
 40
0.2847347566747325
 40
0.2957833293679804
 40
0.3054109088771013
 40
0.3135672248992169
 40
0.322319007397968
 40
0.3313838439876867
 40
0.3418195334767082
 40
0.3600704807128344
 40
0.3797957414674304
 40
0.3994516089443462
 40
0.4191279842890452
 40
0.4445294740096817
 40
0.4687322960403559
 40
0.4922618515619464
 40
0.5169976082173879
 40
0.5431249543827645
 40
0.5706392062741701
 40
0.5991129768899509
 40
0.6265658031224636
 40
0.6527563369082923
 40
0.6715816444584202
 40
0.6897078439624661
 40
0.7071392529912086
 40
0.7249678661257031
 40
0.7463621365448664
 40
0.7715106303983442
 40
0.7903621463705818
 40
0.8108718910953587
 40
0.8330348056531062
 40
0.856843352536153
 40
0.8822913418725977
 40
0.9093700895350745
 40
0.9307540429611952
 40
0.9530540589213137
 40
0.9762723082416457
 40
1.0
 40
1.0
 40
1.0
 40
1.0
 10
63.0823738277399
 20
137.2703861660182
 30
0.0
 10
62.36753400428591
 20
137.2624055821609
 30
0.0
 10
59.82633196410489
 20
137.23403520419
 30
0.0
 10
55.80882846616
 20
137.1303848403375
 30
0.0
 10
50.88551740541727
 20
136.9372485996319
 30
0.0
 10
46.48822573951872
 20
136.680270642347
 30
0.0
 10
42.52385810275211
 20
136.3602025354342
 30
0.0
 10
39.03923706447998
 20
135.9912965977663
 30
0.0
 10
35.77110005222767
 20
135.5360252335336
 30
0.0
 10
32.8281193640001
 20
134.9898186525479
 30
0.0
 10
30.48123365688316
 20
134.3990116768882
 30
0.0
 10
28.59852023443266
 20
133.7804632553234
 30
0.0
 10
26.95030401472709
 20
133.0682630047324
 30
0.0
 10
25.39678371672976
 20
132.1232168753973
 30
0.0
 10
24.05531608539824
 20
130.9803492433432
 30
0.0
 10
22.91337827702677
 20
129.4656287341098
 30
0.0
 10
22.19597663581602
 20
127.6866477180528
 30
0.0
 10
21.96254086108218
 20
126.0616549286259
 30
0.0
 10
22.0624888156497
 20
124.6409298903721
 30
0.0
 10
22.37383956929273
 20
123.3967469162622
 30
0.0
 10
22.85835541540032
 20
122.2727329124915
 30
0.0
 10
23.47511757235371
 20
121.2787280942627
 30
0.0
 10
24.38418521750724
 20
120.1646167889231
 30
0.0
 10
25.69194945802128
 20
118.9948310113124
 30
0.0
 10
27.4610608535828
 20
117.8173986104032
 30
0.0
 10
29.46833853105118
 20
116.7588224779205
 30
0.0
 10
31.85394450910201
 20
115.7006393986597
 30
0.0
 10
34.79541877120146
 20
114.5866713101844
 30
0.0
 10
38.32126531089569
 20
113.4262225061004
 30
0.0
 10
42.17882752583279
 20
112.2896558975835
 30
0.0
 10
46.54378908439516
 20
111.1216849186112
 30
0.0
 10
51.52840259924271
 20
109.901873879716
 30
0.0
 10
57.10400469715482
 20
108.643954059777
 30
0.0
 10
63.06205102135664
 20
107.397845555419
 30
0.0
 10
69.12234862797406
 20
106.2152312423868
 30
0.0
 10
74.55680196613748
 20
105.2163357835248
 30
0.0
 10
79.29811760325434
 20
104.3843550695492
 30
0.0
 10
83.35985250812755
 20
103.6973581328892
 30
0.0
 10
87.29976042987927
 20
103.0535222773609
 30
0.0
 10
91.40620574037384
 20
102.4040166843499
 30
0.0
 10
95.94043789179018
 20
101.7117744373798
 30
0.0
 10
100.343327903906
 20
101.0664190917712
 30
0.0
 10
104.4394503559463
 20
100.4882004275952
 30
0.0
 10
108.1079815653437
 20
99.98735635262501
 30
0.0
 10
111.759346784865
 20
99.50626108924135
 30
0.0
 10
115.2791024282426
 20
99.0598128013747
 30
0.0
 10
118.5249189943838
 20
98.66496073197357
 30
0.0
 10
121.0915119694881
 20
98.36644099475392
 30
0.0
 10
123.0135029934043
 20
98.15180680632054
 30
0.0
 10
124.3412244388849
 20
98.00918554653661
 30
0.0
 10
125.2198372056727
 20
97.91932562611859
 30
0.0
 10
125.3284681599197
 20
97.90913067511204
 30
0.0
 10
125.3833730513451
 20
97.90397788342402
 30
0.0
  0
SPLINE
  5
99
330
1F
100
AcDbEntity
  8
0
  6
Continuous
 62
     7
370
    25
100
AcDbSpline
210
0.0
220
0.0
230
1.0
 70
     8
 71
     3
 72
    13
 73
     9
 74
     0
 42
0.00000001
 43
0.00000001
 40
0.0
 40
0.0
 40
0.0
 40
0.0
 40
0.1573500520972537
 40
0.396531466034539
 40
0.6084111229213175
 40
0.7930884708639686
 40
0.9506357541570394
 40
0.9999999999999999
 40
0.9999999999999999
 40
0.9999999999999999
 40
0.9999999999999999
 10
112.9191157238514
 20
111.4601017715594
 30
0.0
 10
111.9520143018124
 20
111.5853803039566
 30
0.0
 10
109.5148613452428
 20
111.9010896377127
 30
0.0
 10
105.1390580536356
 20
112.5035976548639
 30
0.0
 10
100.2851626981185
 20
113.1987147365506
 30
0.0
 10
95.79732567322952
 20
113.8706378630816
 30
0.0
 10
92.53413817995373
 20
114.3726952288357
 30
0.0
 10
90.76152852736416
 20
114.6570485857479
 30
0.0
 10
90.3386253714143
 20
114.7248886383321
 30
0.0
  0
SPLINE
  5
9A
330
1F
100
AcDbEntity
  8
0
  6
Continuous
 62
     7
370
    25
100
AcDbSpline
210
0.0
220
0.0
230
1.0
 70
     8
 71
     3
 72
    18
 73
    14
 74
     0
 42
0.00000001
 43
0.00000001
 40
0.0
 40
0.0
 40
0.0
 40
0.0
 40
0.0937724282626434
 40
0.2076192897566026
 40
0.3158297865352451
 40
0.4184199954780004
 40
0.5164302579687314
 40
0.6178288562586326
 40
0.697127037806574
 40
0.778878754937716
 40
0.8610452381706495
 40
0.9431495253433831
 40
1.0
 40
1.0
 40
1.0
 40
1.0
 10
63.0823738277399
 20
119.6639810671858
 30
0.0
 10
61.59874549839153
 20
119.9745977514217
 30
0.0
 10
58.31387951263151
 20
120.6623267199729
 30
0.0
 10
53.63844950913519
 20
121.7361512283852
 30
0.0
 10
49.13708296684271
 20
122.8456511305221
 30
0.0
 10
45.22509687792864
 20
123.8996307334819
 30
0.0
 10
41.77461089767892
 20
124.9211911658356
 30
0.0
 10
39.01791230874613
 20
125.8324868586233
 30
0.0
 10
36.82740046060817
 20
126.6454158399537
 30
0.0
 10
35.12319127321989
 20
127.3695676441497
 30
0.0
 10
33.92823845797577
 20
127.9622955054657
 30
0.0
 10
33.27769600780495
 20
128.366916183924
 30
0.0
 10
33.23919237578704
 20
128.3691859608839
 30
0.0
 10
33.22343940894085
 20
128.3701145933096
 30
0.0
  0
SPLINE
  5
9B
330
1F
100
AcDbEntity
  8
0
  6
Continuous
 62
     7
370
    25
100
AcDbSpline
210
0.0
220
0.0
230
1.0
 70
     8
 71
     3
 72
    13
 73
     9
 74
     0
 42
0.00000001
 43
0.00000001
 40
0.0
 40
0.0
 40
0.0
 40
0.0
 40
0.0805928902674868
 40
0.2955745730368413
 40
0.4824129142778144
 40
0.6912269540665684
 40
0.9220906714000823
 40
1.0
 40
1.0
 40
1.0
 40
1.0
 10
43.63156311594773
 20
124.3877128068843
 30
0.0
 10
44.05618861434335
 20
124.4294469633445
 30
0.0
 10
45.61350340938636
 20
124.5825070587924
 30
0.0
 10
48.50514594202154
 20
124.7801119771303
 30
0.0
 10
52.35618655225075
 20
124.9897123479352
 30
0.0
 10
56.58246442944603
 20
125.1461217699431
 30
0.0
 10
60.21931175773337
 20
125.2421067781527
 30
0.0
 10
62.50551990755982
 20
125.2615773004598
 30
0.0
 10
63.0823738277399
 20
125.2664900845918
 30
0.0
  0
ARC
  5
9C
330
1F
100
AcDbEntity
  8
0
  6
Continuous
 62
     7
370
    25
100
AcDbCircle
 10
126.3416510793
 20
103.8272452211
 30
0.0
 40
7.499999999999998
100
AcDbArc
 50
228.1313996606
 51
267.8685538107
  0
SPLINE
  5
9D
330
1F
100
AcDbEntity
  8
0
  6
Continuous
 62
     7
370
    25
100
AcDbSpline
210
0.0
220
0.0
230
1.0
 70
     8
 71
     3
 72
    57
 73
    53
 74
     0
 42
0.00000001
 43
0.00000001
 40
0.0
 40
0.0
 40
0.0
 40
0.0
 40
0.01218917513049
 40
0.0371675763727814
 40
0.0596486019037668
 40
0.0857184710173252
 40
0.1073618463234151
 40
0.1283036194029399
 40
0.1509423758787694
 40
0.1744324313381167
 40
0.1963437392768009
 40
0.2118906822066141
 40
0.2297987785779686
 40
0.2437531237263603
 40
0.2590790189221156
 40
0.2746259210097382
 40
0.2864604101018796
 40
0.2974823269391205
 40
0.3070866788893326
 40
0.3152233169320864
 40
0.3239539848253067
 40
0.3329969515332245
 40
0.3434074638121141
 40
0.3616143786980864
 40
0.3812920501644567
 40
0.4009004957718057
 40
0.4205293997695287
 40
0.4458696056962178
 40
0.4700140358461558
 40
0.4934868238140264
 40
0.5181629028273006
 40
0.5442272139928999
 40
0.5716750848270439
 40
0.6000801594446504
 40
0.6274667528158339
 40
0.6535940991550361
 40
0.6723739886497032
 40
0.6904564567707607
 40
0.7078458106723893
 40
0.7256314103826453
 40
0.7469740648503664
 40
0.772061885289319
 40
0.790867919975493
 40
0.8113281827610831
 40
0.8334376269317009
 40
0.8571887331647141
 40
0.8825753265219455
 40
0.909588743827409
 40
0.9309211061929274
 40
0.9531673209942096
 40
0.9763295538201217
 40
1.0
 40
1.0
 40
1.0
 40
1.0
 10
208.0668050922034
 20
128.7913067411683
 30
0.0
 10
208.9492275321524
 20
128.9204602328628
 30
0.0
 10
211.639934908062
 20
129.3142787000664
 30
0.0
 10
215.7785432533661
 20
129.9814589919973
 30
0.0
 10
220.6303921174898
 20
130.8326667205627
 30
0.0
 10
224.9539624773854
 20
131.6763659692075
 30
0.0
 10
228.8396327389197
 20
132.524671260875
 30
0.0
 10
232.2434387359865
 20
133.3570827738552
 30
0.0
 10
235.4211162425491
 20
134.2460837879257
 30
0.0
 10
238.264393327359
 20
135.1816376110383
 30
0.0
 10
240.5109718875158
 20
136.081531262144
 30
0.0
 10
242.2938464363237
 20
136.9467309851586
 30
0.0
 10
243.8317910499842
 20
137.8733227063766
 30
0.0
 10
245.2446990285881
 20
139.0179748617991
 30
0.0
 10
246.4209637447292
 20
140.330256518216
 30
0.0
 10
247.3496801602521
 20
141.9843079077403
 30
0.0
 10
247.8222844371501
 20
143.8433624437202
 30
0.0
 10
247.8359154359651
 20
145.4849799455999
 30
0.0
 10
247.5465338050044
 20
146.8795076432846
 30
0.0
 10
247.0713064492144
 20
148.0707630840556
 30
0.0
 10
246.4405740678264
 20
149.1197338886404
 30
0.0
 10
245.6962048695625
 20
150.0221504407866
 30
0.0
 10
244.6460745298665
 20
151.0044305707903
 30
0.0
 10
243.1933829807283
 20
151.9884698674295
 30
0.0
 10
241.2824787293014
 20
152.9182801332873
 30
0.0
 10
239.151478361384
 20
153.6983984157679
 30
0.0
 10
236.6456128380335
 20
154.4274425095163
 30
0.0
 10
233.5814164517481
 20
155.1372990041768
 30
0.0
 10
229.9318886589033
 20
155.8149287981107
 30
0.0
 10
225.9568349832798
 20
156.4244517046682
 30
0.0
 10
221.4747487323356
 20
156.9971195442954
 30
0.0
 10
216.3716514373446
 20
157.5381452930907
 30
0.0
 10
210.6777876627143
 20
158.0377614893668
 30
0.0
 10
204.6065096161751
 20
158.4744367549434
 30
0.0
 10
198.4424083670964
 20
158.8344915914026
 30
0.0
 10
192.9231224675828
 20
159.0963281469829
 30
0.0
 10
188.1130874770313
 20
159.2856143558461
 30
0.0
 10
183.995930543799
 20
159.4222672577022
 30
0.0
 10
180.0052846632969
 20
159.5324693320099
 30
0.0
 10
175.8488430908917
 20
159.6259790032903
 30
0.0
 10
171.2627455819002
 20
159.704529429485
 30
0.0
 10
166.8130876547469
 20
159.7542115411605
 30
0.0
 10
162.6764262007955
 20
159.7784598628772
 30
0.0
 10
158.9738672959061
 20
159.7833155381108
 30
0.0
 10
155.2909653861144
 20
159.7709001592005
 30
0.0
 10
151.7431283001209
 20
159.7417818818129
 30
0.0
 10
148.4736731836385
 20
159.6982321509905
 30
0.0
 10
145.8902243639892
 20
159.6502141375177
 30
0.0
 10
143.95680480566
 20
159.6054241572912
 30
0.0
 10
142.6219452873066
 20
159.5688847704211
 30
0.0
 10
141.7392143430043
 20
159.5402268006621
 30
0.0
 10
141.6301968375126
 20
159.5357765486421
 30
0.0
 10
141.5750965730993
 20
159.5335272762716
 30
0.0
  0
SPLINE
  5
9E
330
1F
100
AcDbEntity
  8
0
  6
Continuous
 62
     7
370
    25
100
AcDbSpline
210
0.0
220
0.0
230
1.0
 70
     8
 71
     3
 72
    29
 73
    25
 74
     0
 42
0.00000001
 43
0.00000001
 40
0.0
 40
0.0
 40
0.0
 40
0.0
 40
0.0273291353855495
 40
0.0886901172541165
 40
0.1430469486254574
 40
0.1904251424913726
 40
0.2308432328205965
 40
0.2657017548226473
 40
0.301234948497286
 40
0.3381906084779449
 40
0.3896552028907164
 40
0.4436119815820868
 40
0.500035419178681
 40
0.5579297728812693
 40
0.6134658319099071
 40
0.6662523949978668
 40
0.7162973046672294
 40
0.7641080537003673
 40
0.8135716793651703
 40
0.8522544189112631
 40
0.8921340267345247
 40
0.9322159631455926
 40
0.9722675594662477
 40
1.0
 40
1.0
 40
1.0
 40
1.0
 10
156.7094497305227
 20
147.7736365529226
 30
0.0
 10
157.3728398706531
 20
147.7771422426205
 30
0.0
 10
159.5257125643313
 20
147.7885191129816
 30
0.0
 10
163.5982754880225
 20
147.7774768451122
 30
0.0
 10
168.4961259183836
 20
147.7387898186446
 30
0.0
 10
173.0297801178496
 20
147.675487626083
 30
0.0
 10
177.0755508260283
 20
147.5976285828324
 30
0.0
 10
180.8165525079383
 20
147.5074207066493
 30
0.0
 10
184.5016265987112
 20
147.4006541394058
 30
0.0
 10
188.8031729624706
 20
147.2529021472804
 30
0.0
 10
193.7735457105009
 20
147.0477210562333
 30
0.0
 10
199.3916794227368
 20
146.764362604111
 30
0.0
 10
205.1199810800216
 20
146.412621925626
 30
0.0
 10
210.6957542955572
 20
145.9958077611747
 30
0.0
 10
215.8701533072275
 20
145.5289533468744
 30
0.0
 10
220.474481821193
 20
145.0311477196848
 30
0.0
 10
224.4936676412748
 20
144.51109433663
 30
0.0
 10
228.0495865419965
 20
143.9609195313762
 30
0.0
 10
230.9036043906091
 20
143.427176201836
 30
0.0
 10
233.1832599324155
 20
142.9150338102998
 30
0.0
 10
234.9691255126119
 20
142.4257242314173
 30
0.0
 10
236.2327128550837
 20
141.9984272059052
 30
0.0
 10
236.9315982842986
 20
141.6846073465077
 30
0.0
 10
236.9700588725634
 20
141.6875163579869
 30
0.0
 10
236.985794228946
 20
141.6887065200309
 30
0.0
  0
SPLINE
  5
9F
330
1F
100
AcDbEntity
  8
0
  6
Continuous
 62
     7
370
    25
100
AcDbSpline
210
0.0
220
0.0
230
1.0
 70
     8
 71
     3
 72
    13
 73
     9
 74
     0
 42
0.00000001
 43
0.00000001
 40
0.0
 40
0.0
 40
0.0
 40
0.0
 40
0.0751988534463253
 40
0.2757919330911643
 40
0.4501252892286247
 40
0.644963522768944
 40
0.8603756613364386
 40
1.0
 40
1.0
 40
1.0
 40
1.0
 10
226.1379731049977
 20
144.2408311156833
 30
0.0
 10
225.7227623962054
 20
144.1425868145445
 30
0.0
 10
224.1999763593182
 20
143.782275659726
 30
0.0
 10
221.3611242586133
 20
143.1990131647922
 30
0.0
 10
217.5718939394581
 20
142.4755563541503
 30
0.0
 10
213.4087657771634
 20
141.7536205299068
 30
0.0
 10
209.3047211653598
 20
141.0933086936951
 30
0.0
 10
206.50946020144
 20
140.6932832151468
 30
0.0
 10
205.4101746673922
 20
140.5359661604981
 30
0.0
  0
ARC
  5
A0
330
1F
100
AcDbEntity
  8
0
  6
Continuous
 62
     7
370
    25
100
AcDbCircle
 10
141.4189977559
 20
153.5352753733
 30
0.0
 40
7.50000000000002
100
AcDbArc
 50
55.8304694164
 51
150.986331992
  0
LINE
  5
A1
330
1F
100
AcDbEntity
  8
0
  6
Continuous
 62
     7
370
    25
100
AcDbLine
 10
65.264631576
 20
136.4176386901
 30
0.0
 11
65.264631576
 21
132.8450727449
 31
0.0
  0
LINE
  5
A2
330
1F
100
AcDbEntity
  8
0
  6
Continuous
 62
     7
370
    25
100
AcDbLine
 10
93.9523738277
 20
142.7256269927
 30
0.0
 11
74.4337211907
 21
141.7134207586
 31
0.0
  0
LINE
  5
A3
330
1F
100
AcDbEntity
  8
0
  6
Continuous
 62
     7
370
    25
100
AcDbLine
 10
66.6764794197
 20
115.9519698355
 30
0.0
 11
93.9523738277
 21
114.5374853998
 31
0.0
  0
LINE
  5
A4
330
1F
100
AcDbEntity
  8
0
  6
Continuous
 62
     7
370
    25
100
AcDbLine
 10
65.7528637486
 20
140.5471278723
 30
0.0
 11
65.2368484524
 21
140.1315561963
 31
0.0
  0
LINE
  5
A5
330
1F
100
AcDbEntity
  8
0
  6
Continuous
 62
     7
370
    25
100
AcDbLine
 10
65.2368484524
 20
117.1315561963
 30
0.0
 11
66.2138653693
 21
116.3447179754
 31
0.0
  0
ARC
  5
A6
330
1F
100
AcDbEntity
  8
0
  6
Continuous
 62
     7
370
    25
100
AcDbCircle
 10
66.7023738277
 20
116.4512988649
 30
0.0
 40
0.5000000000000077
100
AcDbArc
 50
192.3077052324
 51
267.0313913905
  0
ARC
  5
A7
330
1F
100
AcDbEntity
  8
0
  6
Continuous
 62
     7
370
    25
100
AcDbCircle
 10
63.3823738277
 20
117.4315561963
 30
0.0
 40
0.2999999999999972
100
AcDbArc
 50
180.0
 51
270.0
  0
ARC
  5
A8
330
1F
100
AcDbEntity
  8
0
  6
Continuous
 62
     7
370
    25
100
AcDbCircle
 10
63.3823738277
 20
139.8315561963
 30
0.0
 40
0.2999999999999972
100
AcDbArc
 50
90.0
 51
180.0
  0
LINE
  5
A9
330
1F
100
AcDbEntity
  8
0
  6
Continuous
 62
     7
370
    25
100
AcDbLine
 10
65.2368484524
 20
140.1315561963
 30
0.0
 11
63.3823738277
 21
140.1315561963
 31
0.0
  0
LINE
  5
AA
330
1F
100
AcDbEntity
  8
0
  6
Continuous
 62
     7
370
    25
100
AcDbLine
 10
63.3823738277
 20
117.1315561963
 30
0.0
 11
65.2368484524
 21
117.1315561963
 31
0.0
  0
LINE
  5
AB
330
1F
100
AcDbEntity
  8
0
  6
Continuous
 62
     7
370
    25
100
AcDbLine
 10
66.2110252154
 20
127.0613799114
 30
0.0
 11
66.2049090061
 21
127.1962833603
 31
0.0
  0
LINE
  5
AC
330
1F
100
AcDbEntity
  8
0
  6
Continuous
 62
     7
370
    25
100
AcDbLine
 10
205.8845473439
 20
132.4409026843
 30
0.0
 11
205.8845473439
 21
135.6531431942
 31
0.0
  0
LINE
  5
AD
330
1F
100
AcDbEntity
  8
0
  6
Continuous
 62
     7
370
    25
100
AcDbLine
 10
177.1968050922
 20
114.5374853998
 30
0.0
 11
204.4726995003
 21
115.9519698355
 31
0.0
  0
LINE
  5
AE
330
1F
100
AcDbEntity
  8
0
  6
Continuous
 62
     7
370
    25
100
AcDbLine
 10
204.4726995003
 20
141.311142557
 30
0.0
 11
177.1968050922
 21
142.7256269927
 31
0.0
  0
LINE
  5
AF
330
1F
100
AcDbEntity
  8
0
  6
Continuous
 62
     7
370
    25
100
AcDbLine
 10
204.9353135507
 20
116.3447179754
 30
0.0
 11
205.9123304676
 21
117.1315561963
 31
0.0
  0
LINE
  5
B0
330
1F
100
AcDbEntity
  8
0
  6
Continuous
 62
     7
370
    25
100
AcDbLine
 10
205.9123304676
 20
140.1315561963
 30
0.0
 11
205.0750764514
 21
140.8058367017
 31
0.0
  0
ARC
  5
B1
330
1F
100
AcDbEntity
  8
0
  6
Continuous
 62
     7
370
    25
100
AcDbCircle
 10
204.4468050922
 20
140.8118135276
 30
0.0
 40
0.4999999999999891
100
AcDbArc
 50
44.7917566447
 51
87.0313913905
  0
ARC
  5
B2
330
1F
100
AcDbEntity
  8
0
  6
Continuous
 62
     7
370
    25
100
AcDbCircle
 10
204.4468050922
 20
116.4512988649
 30
0.0
 40
0.4999999999999938
100
AcDbArc
 50
272.9686086095
 51
347.6922947676
  0
LINE
  5
B3
330
1F
100
AcDbEntity
  8
0
  6
Continuous
 62
     7
370
    25
100
AcDbLine
 10
205.9123304676
 20
117.1315561963
 30
0.0
 11
207.7668050922
 21
117.1315561963
 31
0.0
  0
LINE
  5
B4
330
1F
100
AcDbEntity
  8
0
  6
Continuous
 62
     7
370
    25
100
AcDbLine
 10
207.7668050922
 20
140.1315561963
 30
0.0
 11
205.9123304676
 21
140.1315561963
 31
0.0
  0
ARC
  5
B5
330
1F
100
AcDbEntity
  8
0
  6
Continuous
 62
     7
370
    25
100
AcDbCircle
 10
207.7668050922
 20
139.8315561963
 30
0.0
 40
0.2999999999999545
100
AcDbArc
 50
0.0
 51
90.0
  0
ARC
  5
B6
330
1F
100
AcDbEntity
  8
0
  6
Continuous
 62
     7
370
    25
100
AcDbCircle
 10
207.7668050922
 20
117.4315561963
 30
0.0
 40
0.2999999999999972
100
AcDbArc
 50
270.0
 51
0.0
  0
LINE
  5
B7
330
1F
100
AcDbEntity
  8
0
  6
Continuous
 62
     7
370
    25
100
AcDbLine
 10
173.7235716298
 20
116.4315561963
 30
0.0
 11
176.3435716298
 21
116.4315561963
 31
0.0
  0
LINE
  5
B8
330
1F
100
AcDbEntity
  8
0
  6
Continuous
 62
     7
370
    25
100
AcDbLine
 10
176.3435716298
 20
140.8315561963
 30
0.0
 11
173.7235716298
 21
140.8315561963
 31
0.0
  0
LINE
  5
B9
330
1F
100
AcDbEntity
  8
0
  6
Continuous
 62
     7
370
    25
100
AcDbLine
 10
176.3435716298
 20
117.4315561963
 30
0.0
 11
177.1968050922
 21
117.4315561963
 31
0.0
  0
LINE
  5
BA
330
1F
100
AcDbEntity
  8
0
  6
Continuous
 62
     7
370
    25
100
AcDbLine
 10
177.1968050922
 20
139.8315561963
 30
0.0
 11
176.3435716298
 21
139.8315561963
 31
0.0
  0
LINE
  5
BB
330
1F
100
AcDbEntity
  8
0
  6
Continuous
 62
     7
370
    25
100
AcDbLine
 10
173.4597084894
 20
119.3385946302
 30
0.0
 11
173.4895879483
 21
119.2869222218
 31
0.0
  0
SPLINE
  5
BC
330
1F
100
AcDbEntity
  8
0
  6
Continuous
 62
     7
370
    25
100
AcDbSpline
210
0.0
220
0.0
230
1.0
 70
     8
 71
     3
 72
     9
 73
     5
 74
     0
 42
0.00000001
 43
0.00000001
 40
0.0
 40
0.0
 40
0.0
 40
0.0
 40
0.4999819775249052
 40
0.9999999999999999
 40
0.9999999999999999
 40
0.9999999999999999
 40
0.9999999999999999
 10
173.4142524038367
 20
137.1617029670451
 30
0.0
 10
173.3359572830629
 20
137.2971569904284
 30
0.0
 10
173.1793613970245
 20
137.568074802414
 30
0.0
 10
173.0227827393628
 20
137.8389937583191
 30
0.0
 10
172.9444905885969
 20
137.9744581189018
 30
0.0
  0
LINE
  5
BD
330
1F
100
AcDbEntity
  8
0
  6
Continuous
 62
     7
370
    25
100
AcDbLine
 10
173.6945516331
 20
119.2887469328
 30
0.0
 11
173.7290422737
 21
119.3484232947
 31
0.0
  0
LINE
  5
BE
330
1F
100
AcDbEntity
  8
0
  6
Continuous
 62
     7
370
    25
100
AcDbLine
 10
173.6377097736
 20
119.2815561963
 30
0.0
 11
173.7235716298
 21
119.2815561963
 31
0.0
  0
SPLINE
  5
BF
330
1F
100
AcDbEntity
  8
0
  6
Continuous
 62
     7
370
    25
100
AcDbSpline
210
0.0
220
0.0
230
1.0
 70
     8
 71
     3
 72
     9
 73
     5
 74
     0
 42
0.00000001
 43
0.00000001
 40
0.0
 40
0.0
 40
0.0
 40
0.0
 40
0.5094805097066976
 40
1.0
 40
1.0
 40
1.0
 40
1.0
 10
173.7788592336169
 20
137.1696572833831
 30
0.0
 10
173.7161544308959
 20
137.1696415461653
 30
0.0
 10
173.5930784711166
 20
137.1696106574118
 30
0.0
 10
173.4700185755584
 20
137.1696412890341
 30
0.0
 10
173.4096552983137
 20
137.1696563144419
 30
0.0
  0
LINE
  5
C0
330
1F
100
AcDbEntity
  8
0
  6
Continuous
 62
     7
370
    25
100
AcDbLine
 10
97.3112027382
 20
140.8315561963
 30
0.0
 11
94.6912027382
 21
140.8315561963
 31
0.0
  0
LINE
  5
C1
330
1F
100
AcDbEntity
  8
0
  6
Continuous
 62
     7
370
    25
100
AcDbLine
 10
94.6912027382
 20
116.4315561963
 30
0.0
 11
97.3112027382
 21
116.4315561963
 31
0.0
  0
LINE
  5
C2
330
1F
100
AcDbEntity
  8
0
  6
Continuous
 62
     7
370
    25
100
AcDbLine
 10
94.6912027382
 20
139.8315561963
 30
0.0
 11
93.9523738277
 21
139.8315561963
 31
0.0
  0
LINE
  5
C3
330
1F
100
AcDbEntity
  8
0
  6
Continuous
 62
     7
370
    25
100
AcDbLine
 10
93.9523738277
 20
117.4315561963
 30
0.0
 11
94.6912027382
 21
117.4315561963
 31
0.0
  0
LINE
  5
C4
330
1F
100
AcDbEntity
  8
0
  6
Continuous
 62
     7
370
    25
100
AcDbLine
 10
97.3112027382
 20
119.9108778366
 30
0.0
 11
97.4197456015
 21
120.0987920091
 31
0.0
  0
SPLINE
  5
C5
330
1F
100
AcDbEntity
  8
0
  6
Continuous
 62
     7
370
    25
100
AcDbSpline
210
0.0
220
0.0
230
1.0
 70
     8
 71
     3
 72
     9
 73
     5
 74
     0
 42
0.00000001
 43
0.00000001
 40
0.0
 40
0.0
 40
0.0
 40
0.0
 40
0.4999833221316047
 40
0.9999999999999999
 40
0.9999999999999999
 40
0.9999999999999999
 40
0.9999999999999999
 10
97.77370609306357
 20
120.1044925691167
 30
0.0
 10
97.85199670996988
 20
119.9690532496333
 30
0.0
 10
98.00858316683913
 20
119.6981655750085
 30
0.0
 10
98.16515389148611
 20
119.4272614539
 30
0.0
 10
98.24344186507555
 20
119.2918048752424
 30
0.0
  0
LINE
  5
C6
330
1F
100
AcDbEntity
  8
0
  6
Continuous
 62
     7
370
    25
100
AcDbLine
 10
97.4932383832
 20
137.9709404084
 30
0.0
 11
97.3112027382
 21
137.6559848234
 31
0.0
  0
SPLINE
  5
C7
330
1F
100
AcDbEntity
  8
0
  6
Continuous
 62
     7
370
    25
100
AcDbSpline
210
0.0
220
0.0
230
1.0
 70
     8
 71
     3
 72
     9
 73
     5
 74
     0
 42
0.00000001
 43
0.00000001
 40
0.0
 40
0.0
 40
0.0
 40
0.0
 40
0.5099720912989555
 40
1.0
 40
1.0
 40
1.0
 40
1.0
 10
97.41119900267337
 20
120.0934552986362
 30
0.0
 10
97.47391053984813
 20
120.0934725551715
 30
0.0
 10
97.59688106753921
 20
120.0935063933671
 30
0.0
 10
97.71983466657694
 20
120.0934728541864
 30
0.0
 10
97.78008536158065
 20
120.0934564190518
 30
0.0
  0
LINE
  5
C8
330
1F
100
AcDbEntity
  8
0
  6
Continuous
 62
     7
370
    25
100
AcDbLine
 10
145.0627097736
 20
113.7577777159
 30
0.0
 11
173.6377097736
 21
114.2565561963
 31
0.0
  0
LINE
  5
C9
330
1F
100
AcDbEntity
  8
0
  6
Continuous
 62
     7
370
    25
100
AcDbLine
 10
173.6377097736
 20
143.0065561963
 30
0.0
 11
143.8170708216
 21
143.5270773854
 31
0.0
  0
LINE
  5
CA
330
1F
100
AcDbEntity
  8
0
  6
Continuous
 62
     7
370
    25
100
AcDbLine
 10
127.1013002035
 20
143.52346334
 30
0.0
 11
97.4877097736
 21
143.0065561963
 31
0.0
  0
LINE
  5
CB
330
1F
100
AcDbEntity
  8
0
  6
Continuous
 62
     7
370
    25
100
AcDbLine
 10
97.4877097736
 20
114.2565561963
 30
0.0
 11
126.0627097736
 21
113.7577777159
 31
0.0
  0
LINE
  5
CC
330
1F
100
AcDbEntity
  8
0
  6
Continuous
 62
     7
370
    25
100
AcDbLine
 10
125.3877097736
 20
-126.178700446
 30
0.0
 11
125.3877097736
 21
-127.8585227589
 31
0.0
  0
LINE
  5
CD
330
1F
100
AcDbEntity
  8
0
  6
Continuous
 62
     7
370
    25
100
AcDbLine
 10
145.7377097736
 20
-127.8585227589
 30
0.0
 11
145.7377097736
 21
-126.178700446
 31
0.0
  0
SPLINE
  5
CE
330
1F
100
AcDbEntity
  8
0
  6
Continuous
 62
     7
370
    25
100
AcDbSpline
210
0.0
220
0.0
230
1.0
 70
     8
 71
     3
 72
    13
 73
     9
 74
     0
 42
0.00000001
 43
0.00000001
 40
0.0
 40
0.0
 40
0.0
 40
0.0
 40
0.1364084470361797
 40
0.3237292504422865
 40
0.5107787147625362
 40
0.6975693331352162
 40
0.8841439885021456
 40
1.0
 40
1.0
 40
1.0
 40
1.0
 10
125.4191029024279
 20
-127.8632430729724
 30
0.0
 10
125.4229924030436
 20
-128.2997734811392
 30
0.0
 10
125.4322231006012
 20
-129.3357625632055
 30
0.0
 10
125.8141309855821
 20
-130.9364457232238
 30
0.0
 10
126.4938364006717
 20
-132.6018982381001
 30
0.0
 10
127.4663317365852
 20
-134.1152451880405
 30
0.0
 10
128.5226692539261
 20
-135.2811750769041
 30
0.0
 10
129.2851466866672
 20
-135.8758892863749
 30
0.0
 10
129.5772387391375
 20
-136.1037141197645
 30
0.0
  0
SPLINE
  5
CF
330
1F
100
AcDbEntity
  8
0
  6
Continuous
 62
     7
370
    25
100
AcDbSpline
210
0.0
220
0.0
230
1.0
 70
     8
 71
     3
 72
    20
 73
    16
 74
     0
 42
0.00000001
 43
0.00000001
 40
0.0
 40
0.0
 40
0.0
 40
0.0
 40
0.0813059513482936
 40
0.1611044446515811
 40
0.2409430739595728
 40
0.3208598404339105
 40
0.4008818666318194
 40
0.4810168648154629
 40
0.5612637241439713
 40
0.6416073077965488
 40
0.7220201865837397
 40
0.8024664713663922
 40
0.8829066472711176
 40
0.9633026106786833
 40
1.0
 40
1.0
 40
1.0
 40
1.0
 10
129.5772387391375
 20
-136.1037141197645
 30
0.0
 10
130.0866744910516
 20
-136.4361379209082
 30
0.0
 10
131.0961007696544
 20
-137.0948221990467
 30
0.0
 10
132.7964595824546
 20
-137.72142868809
 30
0.0
 10
134.5594147118466
 20
-138.0586794199227
 30
0.0
 10
136.3588022988652
 20
-138.0760451542185
 30
0.0
 10
138.1346774911288
 20
-137.7781797650763
 30
0.0
 10
139.833023497257
 20
-137.1715447995813
 30
0.0
 10
141.4000059433269
 20
-136.2745735881884
 30
0.0
 10
142.7865413709329
 20
-135.1145899561457
 30
0.0
 10
143.946926403012
 20
-133.7278058722549
 30
0.0
 10
144.8504454397543
 20
-132.1578931878853
 30
0.0
 10
145.4460943502197
 20
-130.4546675479336
 30
0.0
 10
145.7360804768686
 20
-128.9940828823128
 30
0.0
 10
145.7073897241
 20
-128.1198460472965
 30
0.0
 10
145.6983979606931
 20
-127.8458577401387
 30
0.0
  0
LINE
  5
D0
330
1F
100
AcDbEntity
  8
0
  6
Continuous
 62
     7
370
    25
100
AcDbLine
 10
126.0627097736
 20
-90.6545674043
 30
0.0
 11
126.0627097736
 21
-124.7625408676
 31
0.0
  0
LINE
  5
D1
330
1F
100
AcDbEntity
  8
0
  6
Continuous
 62
     7
370
    25
100
AcDbLine
 10
145.0627097736
 20
-124.7625408676
 30
0.0
 11
145.0627097736
 21
-90.6545674043
 31
0.0
  0
LINE
  5
D2
330
1F
100
AcDbEntity
  8
0
  6
Continuous
 62
     7
370
    25
100
AcDbLine
 10
145.0627097736
 20
-90.6545674043
 30
0.0
 11
145.0627097736
 21
101.9837802972
 31
0.0
  0
LINE
  5
D3
330
1F
100
AcDbEntity
  8
0
  6
Continuous
 62
     7
370
    25
100
AcDbLine
 10
126.0627097736
 20
101.9837802972
 30
0.0
 11
126.0627097736
 21
-90.6545674043
 31
0.0
  0
LINE
  5
D4
330
1F
100
AcDbEntity
  8
0
  6
Continuous
 62
     7
370
    25
100
AcDbLine
 10
126.0627097736
 20
128.6315561963
 30
0.0
 11
126.0627097736
 21
101.9837802972
 31
0.0
  0
LINE
  5
D5
330
1F
100
AcDbEntity
  8
0
  6
Continuous
 62
     7
370
    25
100
AcDbLine
 10
145.0627097736
 20
101.9837802972
 30
0.0
 11
145.0627097736
 21
128.6315561963
 31
0.0
  0
LINE
  5
D6
330
1F
100
AcDbEntity
  8
0
  6
Continuous
 62
     7
370
    25
100
AcDbLine
 10
145.0627097736
 20
-126.2165911748
 30
0.0
 11
145.0627097736
 21
-124.7625408676
 31
0.0
  0
LINE
  5
D7
330
1F
100
AcDbEntity
  8
0
  6
Continuous
 62
     7
370
    25
100
AcDbLine
 10
126.0627097736
 20
-124.7625408676
 30
0.0
 11
126.0627097736
 21
-126.2098630097
 31
0.0
  0
LINE
  5
D8
330
1F
100
AcDbEntity
  8
0
  6
Continuous
 62
     7
370
    25
100
AcDbLine
 10
136.0015921769
 20
165.3167120482
 30
0.0
 11
135.2909454257
 21
164.3132457972
 31
0.0
  0
SPLINE
  5
D9
330
1F
100
AcDbEntity
  8
0
  6
Continuous
 62
     7
370
    25
100
AcDbSpline
210
0.0
220
0.0
230
1.0
 70
    24
 71
     3
 72
    11
 73
     7
 74
     0
 42
0.00000001
 43
0.00000001
 40
0.0
 40
0.0
 40
0.0
 40
0.0
 40
0.0414613054816536
 40
0.4129968995222316
 40
0.7969492528207415
 40
0.9999999999999999
 40
0.9999999999999999
 40
0.9999999999999999
 40
0.9999999999999999
 10
132.8564843691873
 20
160.875673606449
 30
0.0
 10
132.8127026395921
 20
160.8138517688311
 30
0.0
 10
132.3765919487088
 20
160.1980431983499
 30
0.0
 10
131.5061753952547
 20
158.9689745588718
 30
0.0
 10
130.4806925514568
 20
157.5209451083365
 30
0.0
 10
129.8983000849503
 20
156.6985798699793
 30
0.0
 10
129.6968442061322
 20
156.4141148033266
 30
0.0
  0
LINE
  5
DA
330
1F
100
AcDbEntity
  8
0
  6
Continuous
 62
     7
370
    25
100
AcDbLine
 10
148.91331842
 20
164.1176045648
 30
0.0
 11
147.6889677792
 21
164.231309579
 31
0.0
  0
SPLINE
  5
DB
330
1F
100
AcDbEntity
  8
0
  6
Continuous
 62
     7
370
    25
100
AcDbSpline
210
0.0
220
0.0
230
1.0
 70
    24
 71
     3
 72
    11
 73
     7
 74
     0
 42
0.00000001
 43
0.00000001
 40
0.0
 40
0.0
 40
0.0
 40
0.0
 40
0.0296982249931802
 40
0.2958246176999495
 40
0.5708449828912523
 40
0.9999999999999999
 40
0.9999999999999999
 40
0.9999999999999999
 40
0.9999999999999999
 10
143.4947124063784
 20
164.6208286030347
 30
0.0
 10
143.4192894251425
 20
164.6278331088242
 30
0.0
 10
142.667999588965
 20
164.6976051321636
 30
0.0
 10
141.1644085608108
 20
164.8372431031004
 30
0.0
 10
138.6892616009645
 20
165.0671091323408
 30
0.0
 10
137.0193243565666
 20
165.2221956179829
 30
0.0
 10
136.0015921769081
 20
165.3167120482246
 30
0.0
  0
SPLINE
  5
DC
330
1F
100
AcDbEntity
  8
0
  6
Continuous
 62
     7
370
    25
100
AcDbSpline
210
0.0
220
0.0
230
1.0
 70
    24
 71
     3
 72
    10
 73
     6
 74
     0
 42
0.00000001
 43
0.00000001
 40
0.0
 40
0.0
 40
0.0
 40
0.0
 40
0.213232654437954
 40
0.6855331644794842
 40
1.0
 40
1.0
 40
1.0
 40
1.0
 10
150.9317919083896
 20
159.7279539771446
 30
0.0
 10
150.780960815938
 20
160.0559720548771
 30
0.0
 10
150.2960457996016
 20
161.110535069286
 30
0.0
 10
149.620618417824
 20
162.5794125256352
 30
0.0
 10
149.1152939815103
 20
163.6783606770858
 30
0.0
 10
148.9133184199989
 20
164.1176045647956
 30
0.0
  0
LINE
  5
DD
330
1F
100
AcDbEntity
  8
0
  6
Continuous
 62
     7
370
    25
100
AcDbLine
 10
117.4971732486
 20
94.3443266179
 30
0.0
 11
118.6952537558
 21
94.0676202389
 31
0.0
  0
SPLINE
  5
DE
330
1F
100
AcDbEntity
  8
0
  6
Continuous
 62
     7
370
    25
100
AcDbSpline
210
0.0
220
0.0
230
1.0
 70
    24
 71
     3
 72
    10
 73
     6
 74
     0
 42
0.00000001
 43
0.00000001
 40
0.0
 40
0.0
 40
0.0
 40
0.0
 40
0.0687370687309576
 40
0.6846913269698913
 40
1.0
 40
1.0
 40
1.0
 40
1.0
 10
122.7995155880413
 20
93.11970778799783
 30
0.0
 10
122.87329897793
 20
93.10266691760386
 30
0.0
 10
123.6082568116563
 20
92.93292246416428
 30
0.0
 10
124.7308066897769
 20
92.67366049459748
 30
0.0
 10
125.7258172978446
 20
92.4438547505362
 30
0.0
 10
126.0627097735852
 20
92.36604670966864
 30
0.0
  0
SPLINE
  5
DF
330
1F
100
AcDbEntity
  8
0
  6
Continuous
 62
     7
370
    25
100
AcDbSpline
210
0.0
220
0.0
230
1.0
 70
    24
 71
     3
 72
    10
 73
     6
 74
     0
 42
0.00000001
 43
0.00000001
 40
0.0
 40
0.0
 40
0.0
 40
0.0
 40
0.2132326544377945
 40
0.6855331644794218
 40
1.0
 40
1.0
 40
1.0
 40
1.0
 10
116.0849774523368
 20
98.96482123840113
 30
0.0
 10
116.1905042456913
 20
98.61955326471461
 30
0.0
 10
116.5297680267309
 20
97.50953262918509
 30
0.0
 10
117.0023210301227
 20
95.96340948117572
 30
0.0
 10
117.3558639668022
 20
94.80666957201873
 30
0.0
 10
117.4971732485681
 20
94.34432661789802
 30
0.0
  0
LINE
  5
E0
330
1F
100
AcDbEntity
  8
0
  6
Continuous
 62
     7
370
    25
100
AcDbLine
 10
125.3908184918
 20
97.9030644853
 30
0.0
 11
126.0627097736
 21
97.8337327494
 31
0.0
  0
ARC
  5
E1
330
1F
100
AcDbEntity
  8
0
  6
Continuous
 62
     7
370
    25
100
AcDbCircle
 10
126.3416510793
 20
103.8272452211
 30
0.0
 40
6.499999999999993
100
AcDbArc
 50
242.3459714023
 51
267.5404509049
  0
LINE
  5
E2
330
1F
100
AcDbEntity
  8
0
  6
Continuous
 62
     7
370
    25
100
AcDbLine
 10
118.9563705414
 20
93.4932738301
 30
0.0
 11
126.0627097736
 21
92.8025148323
 31
0.0
  0
LINE
  5
E3
330
1F
100
AcDbEntity
  8
0
  6
Continuous
 62
     7
370
    25
100
AcDbLine
 10
116.4913618686
 20
98.9152495779
 30
0.0
 11
118.9563705414
 21
93.4932738301
 31
0.0
  0
ARC
  5
E4
330
1F
100
AcDbEntity
  8
0
  6
Continuous
 62
     7
370
    25
100
AcDbCircle
 10
141.4189977559
 20
153.5352753733
 30
0.0
 40
6.000000000000011
100
AcDbArc
 50
88.5808473143
 51
142.8191021903
  0
ARC
  5
E5
330
1F
100
AcDbEntity
  8
0
  6
Continuous
 62
     7
370
    25
100
AcDbCircle
 10
141.4189977559
 20
153.5352753733
 30
0.0
 40
6.499999999999994
100
AcDbArc
 50
70.0450411581
 51
145.9190090916
  0
LINE
  5
E6
330
1F
100
AcDbEntity
  8
0
  6
Continuous
 62
     7
370
    25
100
AcDbLine
 10
147.3532596199
 20
164.7654966295
 30
0.0
 11
134.66047179
 21
164.2896075283
 31
0.0
  0
LINE
  5
E7
330
1F
100
AcDbEntity
  8
0
  6
Continuous
 62
     7
370
    25
100
AcDbLine
 10
150.5224297751
 20
159.7226354085
 30
0.0
 11
147.3532596199
 21
164.7654966295
 31
0.0
  0
LINE
  5
E8
330
1F
100
AcDbEntity
  8
0
  6
Continuous
 62
     7
370
    25
100
AcDbLine
 10
134.66047179
 20
164.2896075283
 30
0.0
 11
130.6823952265
 21
156.7613452094
 31
0.0
  0
ARC
  5
E9
330
1F
100
AcDbEntity
  8
0
  6
Continuous
 62
     7
370
    25
100
AcDbCircle
 10
67.7604703212
 20
127.3434633042
 30
0.0
 40
7.045247365669826
100
AcDbArc
 50
87.1380396668
 51
102.7769208817
  0
LWPOLYLINE
  5
EA
330
1F
100
AcDbEntity
  8
0
  6
Continuous
 62
     7
370
    25
100
AcDbPolyline
 90
        9
 70
   128
 43
0.0
 10
80.6305532209
 20
132.0165077592
 10
79.9764610104
 20
132.4583941585
 10
79.0019562956
 20
132.8751571832
 10
77.7293495624
 20
133.2572553855
 10
76.187776098
 20
133.5959409406
 10
74.4125289621
 20
133.8834599206
 10
72.4442509817
 20
134.1132298143
 10
70.3280042663
 20
134.2799902285
 10
68.1122385484
 20
134.3799233203
  0
LWPOLYLINE
  5
EB
330
1F
100
AcDbEntity
  8
0
  6
Continuous
 62
     7
370
    25
100
AcDbPolyline
 90
        9
 70
   128
 43
0.0
 10
93.2957450213
 20
129.0712766997
 10
90.9992625443
 20
129.2760152926
 10
88.8468323225
 20
129.5375716364
 10
86.8722895366
 20
129.8518341896
 10
85.1066730613
 20
130.213862894
 10
83.577737549
 20
130.6179668304
 10
82.3095171397
 20
131.0577936769
 10
81.3219476559
 20
131.5264295644
 10
80.6305532209
 20
132.0165077592
  0
ARC
  5
EC
330
1F
100
AcDbEntity
  8
0
  6
Continuous
 62
     7
370
    25
100
AcDbCircle
 10
93.4050710284
 20
128.2227918386
 30
0.0
 40
0.8554991147092983
100
AcDbArc
 50
50.2270602879
 51
97.3420233441
  0
LINE
  5
ED
330
1F
100
AcDbEntity
  8
0
  6
Continuous
 62
     7
370
    25
100
AcDbLine
 10
93.9523738277
 20
127.5379727084
 30
0.0
 11
93.9523738277
 21
128.8803162725
 31
0.0
  0
LINE
  5
EE
330
1F
100
AcDbEntity
  8
0
  6
Continuous
 62
     7
370
    25
100
AcDbLine
 10
66.6505850116
 20
127.2336319513
 30
0.0
 11
93.9523738277
 21
127.5379727084
 31
0.0
  0
SPLINE
  5
EF
330
1F
100
AcDbEntity
  8
0
  6
Continuous
 62
     7
370
    25
100
AcDbSpline
210
0.0
220
0.0
230
1.0
 70
     8
 71
     3
 72
     9
 73
     5
 74
     0
 42
0.00000001
 43
0.00000001
 40
0.0
 40
0.0
 40
0.0
 40
0.0
 40
0.3190906085462764
 40
1.0
 40
1.0
 40
1.0
 40
1.0
 10
66.20237382773992
 20
127.2049210621033
 30
0.0
 10
66.24646136526916
 20
127.2099707469884
 30
0.0
 10
66.38462756743385
 20
127.2257959851806
 30
0.0
 10
66.5428499234446
 20
127.230457727297
 30
0.0
 10
66.65058501159027
 20
127.2336319512845
 30
0.0
  0
LINE
  5
F0
330
1F
100
AcDbEntity
  8
0
  6
Continuous
 62
     7
370
    25
100
AcDbLine
 10
66.2023738277
 20
127.2049210621
 30
0.0
 11
66.2023738277
 21
134.2142598927
 31
0.0
  0
SPLINE
  5
F1
330
1F
100
AcDbEntity
  8
0
  6
Continuous
 62
     7
370
    25
100
AcDbSpline
210
0.0
220
0.0
230
1.0
 70
     8
 71
     3
 72
    10
 73
     6
 74
     0
 42
0.00000001
 43
0.00000001
 40
0.0
 40
0.0
 40
0.0
 40
0.0
 40
0.6754403570339776
 40
0.925565745902209
 40
1.0
 40
1.0
 40
1.0
 40
1.0
 10
66.20237382773992
 20
134.214259892731
 30
0.0
 10
66.10330171294521
 20
134.3895539722303
 30
0.0
 10
65.96754175298261
 20
134.6297619991188
 30
0.0
 10
65.87560212989379
 20
134.7935448644864
 30
0.0
 10
65.85529240318705
 20
134.8207553066246
 30
0.0
 10
65.8506345863848
 20
134.8269957280946
 30
0.0
  0
LINE
  5
F2
330
1F
100
AcDbEntity
  8
0
  6
Continuous
 62
     7
370
    25
100
AcDbLine
 10
65.8506345864
 20
134.8269957281
 30
0.0
 11
65.8506345864
 21
141.082487371
 31
0.0
  0
SPLINE
  5
F3
330
1F
100
AcDbEntity
  8
0
  6
Continuous
 62
     7
370
    25
100
AcDbSpline
210
0.0
220
0.0
230
1.0
 70
     8
 71
     3
 72
     9
 73
     5
 74
     0
 42
0.00000001
 43
0.00000001
 40
0.0
 40
0.0
 40
0.0
 40
0.0
 40
0.3946348614555799
 40
1.0
 40
1.0
 40
1.0
 40
1.0
 10
65.85063458638477
 20
141.0824873709881
 30
0.0
 10
65.88180857500336
 20
141.191144959531
 30
0.0
 10
65.96080308781352
 20
141.466481984096
 30
0.0
 10
66.11128021860846
 20
141.8281894297727
 30
0.0
 10
66.20237382773992
 20
142.0471545077374
 30
0.0
  0
ARC
  5
F4
330
1F
100
AcDbEntity
  8
0
  6
Continuous
 62
     7
370
    25
100
AcDbCircle
 10
67.7604703212
 20
135.1763579192
 30
0.0
 40
7.045247365669938
100
AcDbArc
 50
87.1380396668
 51
102.7769208817
  0
LINE
  5
F5
330
1F
100
AcDbEntity
  8
0
  6
Continuous
 62
     7
370
    25
100
AcDbLine
 10
68.1122385484
 20
142.2128179353
 30
0.0
 11
68.1122385484
 21
134.3799233203
 31
0.0
  0
LINE
  5
F6
330
1F
100
AcDbEntity
  8
0
  6
Continuous
 62
     7
370
    25
100
AcDbLine
 10
80.6305532209
 20
139.8494023742
 30
0.0
 11
80.6305532209
 21
132.0165077592
 31
0.0
  0
LWPOLYLINE
  5
F7
330
1F
100
AcDbEntity
  8
0
  6
Continuous
 62
     7
370
    25
100
AcDbPolyline
 90
        9
 70
   128
 43
0.0
 10
68.1122385484
 20
142.2128179353
 10
70.3280042663
 20
142.1128848435
 10
72.4442509817
 20
141.9461244293
 10
74.4125289621
 20
141.7163545356
 10
76.187776098
 20
141.4288355556
 10
77.7293495624
 20
141.0901500005
 10
79.0019562956
 20
140.7080517982
 10
79.9764610104
 20
140.2912887736
 10
80.6305532209
 20
139.8494023742
  0
SPLINE
  5
F8
330
1F
100
AcDbEntity
  8
0
  6
Continuous
 62
     7
370
    25
100
AcDbSpline
210
0.0
220
0.0
230
1.0
 70
     8
 71
     3
 72
    25
 73
    21
 74
     0
 42
0.00000001
 43
0.00000001
 40
0.0
 40
0.0
 40
0.0
 40
0.0
 40
0.4148573598990562
 40
0.4496769257725275
 40
0.4678155697173949
 40
0.4791961299301026
 40
0.486499248956567
 40
0.491222417497459
 40
0.4943031976304199
 40
0.4963408991486036
 40
0.4983987690570054
 40
0.4991520515016157
 40
0.499913897534352
 40
0.5005698425296734
 40
0.5014559077305891
 40
0.5038278152241054
 40
0.5143812730596806
 40
0.5562638582030333
 40
0.7237604427820123
 40
1.0
 40
1.0
 40
1.0
 40
1.0
 10
65.8506345863848
 20
134.8269957280946
 30
0.0
 10
65.59811525705331
 20
135.2366486836423
 30
0.0
 10
65.3244016227103
 20
135.6806843920341
 30
0.0
 10
65.27329324803432
 20
136.1752110991041
 30
0.0
 10
65.26840445025341
 20
136.2449376176195
 30
0.0
 10
65.26646936147543
 20
136.2866122542692
 30
0.0
 10
65.26556328844421
 20
136.3151536931332
 30
0.0
 10
65.2651173811026
 20
136.3358933729096
 30
0.0
 10
65.26488616967563
 20
136.3518287009309
 30
0.0
 10
65.2647486740511
 20
136.3662621407683
 30
0.0
 10
65.26467385876522
 20
136.3791631176248
 30
0.0
 10
65.26463832085457
 20
136.3934350574133
 30
0.0
 10
65.26462890170212
 20
136.4046002785636
 30
0.0
 10
65.26463657809384
 20
136.4176396100246
 30
0.0
 10
65.2646743413903
 20
136.4383657747654
 30
0.0
 10
65.26489445780864
 20
136.4976463545682
 30
0.0
 10
65.26635401664022
 20
136.678069406079
 30
0.0
 10
65.28139321377685
 20
137.3712258970539
 30
0.0
 10
65.38016178077532
 20
138.8834490353473
 30
0.0
 10
65.67012405015078
 20
140.2387625383668
 30
0.0
 10
65.8506345863848
 20
141.0824873709881
 30
0.0
  0
LINE
  5
F9
330
1F
100
AcDbEntity
  8
0
  6
Continuous
 62
     7
370
    25
100
AcDbLine
 10
66.2030795476
 20
127.1945576473
 30
0.0
 11
66.2023738277
 21
127.2049210621
 31
0.0
  0
LINE
  5
FA
330
1F
100
AcDbEntity
  8
0
  6
Continuous
 62
     7
370
    25
100
AcDbLine
 10
66.2028212547
 20
127.1518650891
 30
0.0
 11
66.2030795476
 21
127.1945576473
 31
0.0
  0
SPLINE
  5
FB
330
1F
100
AcDbEntity
  8
0
  6
Continuous
 62
     7
370
    25
100
AcDbSpline
210
0.0
220
0.0
230
1.0
 70
     8
 71
     3
 72
    12
 73
     8
 74
     0
 42
0.00000001
 43
0.00000001
 40
0.0
 40
0.0
 40
0.0
 40
0.0
 40
0.4611931251085312
 40
0.9253768565446281
 40
0.9573797248024208
 40
0.9786269776355792
 40
1.0
 40
1.0
 40
1.0
 40
1.0
 10
66.20237382773989
 20
127.1527671198486
 30
0.0
 10
65.9713066185738
 20
127.9667038175424
 30
0.0
 10
65.50767384517042
 20
129.5998551845777
 30
0.0
 10
65.31884654848128
 20
131.2682142387071
 30
0.0
 10
65.2742814715673
 20
132.3617879392233
 30
0.0
 10
65.26891237521892
 20
132.5312344644128
 30
0.0
 10
65.26678331402184
 20
132.6491694891288
 30
0.0
 10
65.26571564206593
 20
132.7083110106023
 30
0.0
  0
LINE
  5
FC
330
1F
100
AcDbEntity
  8
0
  6
Continuous
 62
     7
370
    25
100
AcDbLine
 10
93.2957450213
 20
129.0712766997
 30
0.0
 11
93.2957450213
 21
136.9041713147
 31
0.0
  0
LWPOLYLINE
  5
FD
330
1F
100
AcDbEntity
  8
0
  6
Continuous
 62
     7
370
    25
100
AcDbPolyline
 90
        9
 70
   128
 43
0.0
 10
80.6305532209
 20
139.8494023742
 10
81.3219476559
 20
139.3593241794
 10
82.3095171397
 20
138.8906882919
 10
83.577737549
 20
138.4508614454
 10
85.1066730613
 20
138.046757509
 10
86.8722895366
 20
137.6847288046
 10
88.8468323225
 20
137.3704662514
 10
90.9992625443
 20
137.1089099076
 10
93.2957450213
 20
136.9041713147
  0
LINE
  5
FE
330
1F
100
AcDbEntity
  8
0
  6
Continuous
 62
     7
370
    25
100
AcDbLine
 10
93.9523738277
 20
136.7132108875
 30
0.0
 11
93.9523738277
 21
128.8803162725
 31
0.0
  0
ARC
  5
FF
330
1F
100
AcDbEntity
  8
0
  6
Continuous
 62
     7
370
    25
100
AcDbCircle
 10
93.4050710284
 20
136.0556864536
 30
0.0
 40
0.8554991147094801
100
AcDbArc
 50
50.2270602879
 51
97.3420233441
  0
SPLINE
  5
100
330
1F
100
AcDbEntity
  8
0
  6
Continuous
 62
     7
370
    25
100
AcDbSpline
210
0.0
220
0.0
230
1.0
 70
     8
 71
     3
 72
    11
 73
     7
 74
     0
 42
0.00000001
 43
0.00000001
 40
0.0
 40
0.0
 40
0.0
 40
0.0
 40
0.0366078402557414
 40
0.1830392013805608
 40
0.7687646538305767
 40
1.0
 40
1.0
 40
1.0
 40
1.0
 10
93.9523738277399
 20
127.1023084350871
 30
0.0
 10
93.61953165445094
 20
127.0988094971741
 30
0.0
 10
91.95532078708018
 20
127.081314807599
 30
0.0
 10
84.9656552505369
 20
127.0078385275364
 30
0.0
 10
76.20650452633387
 20
126.9157663653689
 30
0.0
 10
68.7788327487624
 20
126.8376890525232
 30
0.0
 10
66.67647941966506
 20
126.8155897859558
 30
0.0
  0
LINE
  5
101
330
1F
100
AcDbEntity
  8
0
  6
Continuous
 62
     7
370
    25
100
AcDbLine
 10
93.9523738277
 20
136.7132108875
 30
0.0
 11
93.9523738277
 21
142.7256269927
 31
0.0
  0
LINE
  5
102
330
1F
100
AcDbEntity
  8
0
  6
Continuous
 62
     7
370
    25
100
AcDbLine
 10
93.9523738277
 20
114.5374853998
 30
0.0
 11
93.9523738277
 21
127.1023084351
 31
0.0
  0
LINE
  5
103
330
1F
100
AcDbEntity
  8
0
  6
Continuous
 62
     7
370
    25
100
AcDbLine
 10
65.2368484524
 20
134.5080305881
 30
0.0
 11
65.2368484524
 21
140.1315561963
 31
0.0
  0
LINE
  5
104
330
1F
100
AcDbEntity
  8
0
  6
Continuous
 62
     7
370
    25
100
AcDbLine
 10
65.2368484524
 20
117.1315561963
 30
0.0
 11
65.2368484524
 21
134.5080305881
 31
0.0
  0
LINE
  5
105
330
1F
100
AcDbEntity
  8
0
  6
Continuous
 62
     7
370
    25
100
AcDbLine
 10
66.2138653693
 20
127.0772085519
 30
0.0
 11
66.2138653693
 21
116.3447179754
 31
0.0
  0
SPLINE
  5
106
330
1F
100
AcDbEntity
  8
0
  6
Continuous
 62
     7
370
    25
100
AcDbSpline
210
0.0
220
0.0
230
1.0
 70
     8
 71
     3
 72
    10
 73
     6
 74
     0
 42
0.00000001
 43
0.00000001
 40
0.0
 40
0.0
 40
0.0
 40
0.0
 40
0.1444181916056926
 40
0.5759361571407143
 40
0.9999999999999999
 40
0.9999999999999999
 40
0.9999999999999999
 40
0.9999999999999999
 10
65.34281945495624
 20
131.6503808932456
 30
0.0
 10
65.31139206899023
 20
131.4243698977697
 30
0.0
 10
65.18606043520504
 20
130.5230436676133
 30
0.0
 10
65.41289379494542
 20
128.9185863619103
 30
0.0
 10
65.94074676227885
 20
127.6860950683636
 30
0.0
 10
66.20237382773992
 20
127.0752183653947
 30
0.0
  0
ARC
  5
107
330
1F
100
AcDbEntity
  8
0
  6
Continuous
 62
     7
370
    25
100
AcDbCircle
 10
63.6891043343
 20
126.8403685703
 30
0.0
 40
2.987477847447473
100
AcDbArc
 50
359.5247710231
 51
7.5642132291
  0
SPLINE
  5
108
330
1F
100
AcDbEntity
  8
0
  6
Continuous
 62
     7
370
    25
100
AcDbSpline
210
0.0
220
0.0
230
1.0
 70
    24
 71
     3
 72
    11
 73
     7
 74
     0
 42
0.00000001
 43
0.00000001
 40
0.0
 40
0.0
 40
0.0
 40
0.0
 40
0.2685623617429106
 40
0.5371309581871039
 40
0.805518760213345
 40
1.0
 40
1.0
 40
1.0
 40
1.0
 10
93.9523738277399
 20
127.5379727084273
 30
0.0
 10
93.9523738277399
 20
127.5210901871475
 30
0.0
 10
93.9523738277399
 20
127.4873247526584
 30
0.0
 10
93.95237382773988
 20
127.3721963868478
 30
0.0
 10
93.9523738277399
 20
127.2381422925704
 30
0.0
 10
93.9523738277399
 20
127.1424957412279
 30
0.0
 10
93.9523738277399
 20
127.1023084350871
 30
0.0
  0
SPLINE
  5
109
330
1F
100
AcDbEntity
  8
0
  6
Continuous
 62
     7
370
    25
100
AcDbSpline
210
0.0
220
0.0
230
1.0
 70
     8
 71
     3
 72
    10
 73
     6
 74
     0
 42
0.00000001
 43
0.00000001
 40
0.0
 40
0.0
 40
0.0
 40
0.0
 40
0.3886742854965964
 40
0.7913457497910592
 40
1.0
 40
1.0
 40
1.0
 40
1.0
 10
66.67647941966509
 20
126.8155897859558
 30
0.0
 10
66.62269012127875
 20
126.8111432111884
 30
0.0
 10
66.51317443101928
 20
126.8020899288527
 30
0.0
 10
66.39790824589633
 20
126.7625942808071
 30
0.0
 10
66.34537852239549
 20
126.7319869538452
 30
0.0
 10
66.32744937299002
 20
126.721540233371
 30
0.0
  0
LINE
  5
10A
330
1F
100
AcDbEntity
  8
0
  6
Continuous
 62
     7
370
    25
100
AcDbLine
 10
63.0823738277
 20
130.9087679612
 30
0.0
 11
63.0823738277
 21
139.8315561963
 31
0.0
  0
LINE
  5
10B
330
1F
100
AcDbEntity
  8
0
  6
Continuous
 62
     7
370
    25
100
AcDbLine
 10
63.0823738277
 20
117.4315561963
 30
0.0
 11
63.0823738277
 21
130.9087679612
 31
0.0
  0
SPLINE
  5
10C
330
1F
100
AcDbEntity
  8
0
  6
Continuous
 62
     7
370
    25
100
AcDbSpline
210
0.0
220
0.0
230
1.0
 70
     8
 71
     3
 72
     9
 73
     5
 74
     0
 42
0.00000001
 43
0.00000001
 40
0.0
 40
0.0
 40
0.0
 40
0.0
 40
0.1857380603239571
 40
1.0
 40
1.0
 40
1.0
 40
1.0
 10
66.20253773748075
 20
127.1159983739512
 30
0.0
 10
66.20208848816692
 20
127.122208342324
 30
0.0
 10
66.19966976303849
 20
127.1556423534363
 30
0.0
 10
66.20154919645552
 20
127.1770920091113
 30
0.0
 10
66.20307954755519
 20
127.1945576473466
 30
0.0
  0
SPLINE
  5
10D
330
1F
100
AcDbEntity
  8
0
  6
Continuous
 62
     7
370
    25
100
AcDbSpline
210
0.0
220
0.0
230
1.0
 70
     8
 71
     3
 72
    11
 73
     7
 74
     0
 42
0.00000001
 43
0.00000001
 40
0.0
 40
0.0
 40
0.0
 40
0.0
 40
0.2532502248893278
 40
0.5081816079101394
 40
0.7376638860085454
 40
1.0
 40
1.0
 40
1.0
 40
1.0
 10
66.32744937299002
 20
126.721540233371
 30
0.0
 10
66.31442390721523
 20
126.7615823453522
 30
0.0
 10
66.28828650834784
 20
126.8419323819993
 30
0.0
 10
66.24350087856403
 20
126.9527582802478
 30
0.0
 10
66.21215268154378
 20
127.0471408927233
 30
0.0
 10
66.20588234000105
 20
127.0920459823671
 30
0.0
 10
66.20253773748075
 20
127.1159983739512
 30
0.0
  0
LINE
  5
10E
330
1F
100
AcDbEntity
  8
0
  6
Continuous
 62
     7
370
    25
100
AcDbLine
 10
177.1968050922
 20
127.2453637485
 30
0.0
 11
177.1968050922
 21
128.4560404052
 31
0.0
  0
ARC
  5
10F
330
1F
100
AcDbEntity
  8
0
  6
Continuous
 62
     7
370
    25
100
AcDbCircle
 10
177.7404660795
 20
127.7211421747
 30
0.0
 40
0.9141349343734562
100
AcDbArc
 50
82.9013016817
 51
126.4931932787
  0
LWPOLYLINE
  5
110
330
1F
100
AcDbEntity
  8
0
  6
Continuous
 62
     7
370
    25
100
AcDbPolyline
 90
        9
 70
   128
 43
0.0
 10
190.5186256991
 20
131.2846112161
 10
189.827231264
 20
130.8426034871
 10
188.8396617802
 20
130.4199348465
 10
187.571441371
 20
130.0232494448
 10
186.0425058587
 20
129.6587829879
 10
184.2768893834
 20
129.3322647155
 10
182.3023465974
 20
129.0488273398
 10
180.1499163756
 20
128.8129263616
 10
177.8534338986
 20
128.6282700323
  0
LWPOLYLINE
  5
111
330
1F
100
AcDbEntity
  8
0
  6
Continuous
 62
     7
370
    25
100
AcDbPolyline
 90
        9
 70
   128
 43
0.0
 10
203.0369403715
 20
133.4162056353
 10
200.8211746537
 20
133.3260747145
 10
198.7049279383
 20
133.1756713855
 10
196.7366499578
 20
132.9684390091
 10
194.961402822
 20
132.7091220006
 10
193.4198293575
 20
132.4036572101
 10
192.1472226243
 20
132.0590380035
 10
191.1727179095
 20
131.6831541547
 10
190.5186256991
 20
131.2846112161
  0
ARC
  5
112
330
1F
100
AcDbEntity
  8
0
  6
Continuous
 62
     7
370
    25
100
AcDbCircle
 10
203.3892525432
 20
125.6385827514
 30
0.0
 40
7.785598345009546
100
AcDbArc
 50
78.4597896074
 51
92.5936216069
  0
LINE
  5
113
330
1F
100
AcDbEntity
  8
0
  6
Continuous
 62
     7
370
    25
100
AcDbLine
 10
204.9468050922
 20
126.9449802518
 30
0.0
 11
204.9468050922
 21
133.2667916924
 31
0.0
  0
SPLINE
  5
114
330
1F
100
AcDbEntity
  8
0
  6
Continuous
 62
     7
370
    25
100
AcDbSpline
210
0.0
220
0.0
230
1.0
 70
     8
 71
     3
 72
     9
 73
     5
 74
     0
 42
0.00000001
 43
0.00000001
 40
0.0
 40
0.0
 40
0.0
 40
0.0
 40
0.6809093914537249
 40
1.0
 40
1.0
 40
1.0
 40
1.0
 10
204.498593908353
 20
126.9708749662326
 30
0.0
 10
204.6063289964987
 20
126.9680120934276
 30
0.0
 10
204.7645513525094
 20
126.9638076091878
 30
0.0
 10
204.9027175546741
 20
126.9495346264897
 30
0.0
 10
204.9468050922034
 20
126.9449802517548
 30
0.0
  0
LINE
  5
115
330
1F
100
AcDbEntity
  8
0
  6
Continuous
 62
     7
370
    25
100
AcDbLine
 10
177.1968050922
 20
127.2453637485
 30
0.0
 11
204.4985939084
 21
126.9708749662
 31
0.0
  0
SPLINE
  5
116
330
1F
100
AcDbEntity
  8
0
  6
Continuous
 62
     7
370
    25
100
AcDbSpline
210
0.0
220
0.0
230
1.0
 70
     8
 71
     3
 72
    10
 73
     6
 74
     0
 42
0.00000001
 43
0.00000001
 40
0.0
 40
0.0
 40
0.0
 40
0.0
 40
0.675440357033981
 40
0.9255657459022115
 40
1.0
 40
1.0
 40
1.0
 40
1.0
 10
204.9468050922034
 20
141.1311298296211
 30
0.0
 10
205.0458772069981
 20
140.8932866397574
 30
0.0
 10
205.1816371669607
 20
140.5673666571248
 30
0.0
 10
205.2735767900495
 20
140.2724860226381
 30
0.0
 10
205.2938865167562
 20
140.1977064956396
 30
0.0
 10
205.2985443335585
 20
140.1805566175369
 30
0.0
  0
LINE
  5
117
330
1F
100
AcDbEntity
  8
0
  6
Continuous
 62
     7
370
    25
100
AcDbLine
 10
205.2985443336
 20
140.1805566175
 30
0.0
 11
205.2985443336
 21
133.8999536078
 31
0.0
  0
SPLINE
  5
118
330
1F
100
AcDbEntity
  8
0
  6
Continuous
 62
     7
370
    25
100
AcDbSpline
210
0.0
220
0.0
230
1.0
 70
     8
 71
     3
 72
     9
 73
     5
 74
     0
 42
0.00000001
 43
0.00000001
 40
0.0
 40
0.0
 40
0.0
 40
0.0
 40
0.3946348614555779
 40
0.9999999999999999
 40
0.9999999999999999
 40
0.9999999999999999
 40
0.9999999999999999
 10
205.2985443335585
 20
133.899953607768
 30
0.0
 10
205.2673703449399
 20
133.8454013419448
 30
0.0
 10
205.1883758321298
 20
133.7071665554336
 30
0.0
 10
205.0378987013348
 20
133.4328521004538
 30
0.0
 10
204.9468050922034
 20
133.2667916924102
 30
0.0
  0
LINE
  5
119
330
1F
100
AcDbEntity
  8
0
  6
Continuous
 62
     7
370
    25
100
AcDbLine
 10
203.0369403715
 20
133.4162056353
 30
0.0
 11
203.0369403715
 21
141.2805437725
 31
0.0
  0
ARC
  5
11A
330
1F
100
AcDbEntity
  8
0
  6
Continuous
 62
     7
370
    25
100
AcDbCircle
 10
203.3892525432
 20
133.5029208887
 30
0.0
 40
7.785598345009238
100
AcDbArc
 50
78.4597896074
 51
92.5936216069
  0
LINE
  5
11B
330
1F
100
AcDbEntity
  8
0
  6
Continuous
 62
     7
370
    25
100
AcDbLine
 10
190.5186256991
 20
131.2846112161
 30
0.0
 11
190.5186256991
 21
139.1489493534
 31
0.0
  0
LWPOLYLINE
  5
11C
330
1F
100
AcDbEntity
  8
0
  6
Continuous
 62
     7
370
    25
100
AcDbPolyline
 90
        9
 70
   128
 43
0.0
 10
190.5186256991
 20
139.1489493534
 10
191.1727179095
 20
139.5474922919
 10
192.1472226243
 20
139.9233761407
 10
193.4198293575
 20
140.2679953473
 10
194.961402822
 20
140.5734601378
 10
196.7366499578
 20
140.8327771463
 10
198.7049279383
 20
141.0400095227
 10
200.8211746537
 20
141.1904128517
 10
203.0369403715
 20
141.2805437725
  0
SPLINE
  5
11D
330
1F
100
AcDbEntity
  8
0
  6
Continuous
 62
     7
370
    25
100
AcDbSpline
210
0.0
220
0.0
230
1.0
 70
     8
 71
     3
 72
    25
 73
    21
 74
     0
 42
0.00000001
 43
0.00000001
 40
0.0
 40
0.0
 40
0.0
 40
0.0
 40
0.4148573598990564
 40
0.4496769257725276
 40
0.467815569717395
 40
0.4791961299301032
 40
0.4864992489565669
 40
0.4912224174974593
 40
0.4943031976304205
 40
0.4963408991486042
 40
0.4983987690570058
 40
0.4991520515016156
 40
0.4999138975343521
 40
0.5005698425296737
 40
0.5014559077305885
 40
0.5038278152241055
 40
0.5143812730596807
 40
0.5562638582030334
 40
0.7237604427820117
 40
1.0
 40
1.0
 40
1.0
 40
1.0
 10
205.2985443335585
 20
140.1805566175369
 30
0.0
 10
205.5510636628901
 20
138.9490852047355
 30
0.0
 10
205.8247772972333
 20
137.6142546518438
 30
0.0
 10
205.8758856719089
 20
136.1930255415199
 30
0.0
 10
205.8807744696899
 20
135.9961062604712
 30
0.0
 10
205.8827095584678
 20
135.8819034097086
 30
0.0
 10
205.8836156314991
 20
135.8075696008037
 30
0.0
 10
205.8840615388407
 20
135.757670596849
 30
0.0
 10
205.8842927502677
 20
135.7231417460961
 30
0.0
 10
205.8844302458921
 20
135.6957854993059
 30
0.0
 10
205.8845050611781
 20
135.6747452699165
 30
0.0
 10
205.8845405990887
 20
135.656257280751
 30
0.0
 10
205.8845500182412
 20
135.643909750518
 30
0.0
 10
205.8845423418495
 20
135.6317454400072
 30
0.0
 10
205.884504578553
 20
135.6153854981435
 30
0.0
 10
205.8842844621347
 20
135.5795010016039
 30
0.0
 10
205.8828249033031
 20
135.5053751469444
 30
0.0
 10
205.8677857061664
 20
135.2428218931422
 30
0.0
 10
205.7690171391679
 20
134.6866756300693
 30
0.0
 10
205.4790548697925
 20
134.2018023276505
 30
0.0
 10
205.2985443335585
 20
133.899953607768
 30
0.0
  0
SPLINE
  5
11E
330
1F
100
AcDbEntity
  8
0
  6
Continuous
 62
     7
370
    25
100
AcDbSpline
210
0.0
220
0.0
230
1.0
 70
     8
 71
     3
 72
    14
 73
    10
 74
     0
 42
0.00000001
 43
0.00000001
 40
0.0
 40
0.0
 40
0.0
 40
0.0
 40
0.0000175135370872
 40
0.0069938626184595
 40
0.0168446849316849
 40
0.0428841124694368
 40
0.1584568887180177
 40
0.6173384070249809
 40
1.0
 40
1.0
 40
1.0
 40
1.0
 10
205.8845467169494
 20
132.4409026819767
 30
0.0
 10
205.884546925891
 20
132.4408491954715
 30
0.0
 10
205.8846303646961
 20
132.4194898739953
 30
0.0
 10
205.8842743235252
 20
132.3616331081765
 30
0.0
 10
205.8827801829161
 20
132.2298990383034
 30
0.0
 10
205.8733595638465
 20
131.8501909457987
 30
0.0
 10
205.8105408214956
 20
130.7197391226351
 30
0.0
 10
205.5822212620891
 20
128.9975238522779
 30
0.0
 10
205.1454233158755
 20
127.5542287239825
 30
0.0
 10
204.9468050922034
 20
126.8979419508839
 30
0.0
  0
LINE
  5
11F
330
1F
100
AcDbEntity
  8
0
  6
Continuous
 62
     7
370
    25
100
AcDbLine
 10
204.946285057
 20
126.9079586445
 30
0.0
 11
204.9461015573
 21
126.9355079953
 31
0.0
  0
LINE
  5
120
330
1F
100
AcDbEntity
  8
0
  6
Continuous
 62
     7
370
    25
100
AcDbLine
 10
204.9468050922
 20
126.9449802518
 30
0.0
 11
204.9461015573
 21
126.9355079953
 31
0.0
  0
LINE
  5
121
330
1F
100
AcDbEntity
  8
0
  6
Continuous
 62
     7
370
    25
100
AcDbLine
 10
177.8534338986
 20
136.4926081695
 30
0.0
 11
177.8534338986
 21
128.6282700323
 31
0.0
  0
LWPOLYLINE
  5
122
330
1F
100
AcDbEntity
  8
0
  6
Continuous
 62
     7
370
    25
100
AcDbPolyline
 90
        9
 70
   128
 43
0.0
 10
177.8534338986
 20
136.4926081695
 10
180.1499163756
 20
136.6772644988
 10
182.3023465974
 20
136.913165477
 10
184.2768893834
 20
137.1966028527
 10
186.0425058587
 20
137.5231211251
 10
187.571441371
 20
137.887587582
 10
188.8396617802
 20
138.2842729837
 10
189.827231264
 20
138.7069416243
 10
190.5186256991
 20
139.1489493534
  0
LINE
  5
123
330
1F
100
AcDbEntity
  8
0
  6
Continuous
 62
     7
370
    25
100
AcDbLine
 10
177.1968050922
 20
128.4560404052
 30
0.0
 11
177.1968050922
 21
136.3203785424
 31
0.0
  0
ARC
  5
124
330
1F
100
AcDbEntity
  8
0
  6
Continuous
 62
     7
370
    25
100
AcDbCircle
 10
177.7404660795
 20
135.5854803119
 30
0.0
 40
0.9141349343743453
100
AcDbArc
 50
82.9013016817
 51
126.4931932787
  0
SPLINE
  5
125
330
1F
100
AcDbEntity
  8
0
  6
Continuous
 62
     7
370
    25
100
AcDbSpline
210
0.0
220
0.0
230
1.0
 70
     8
 71
     3
 72
    11
 73
     7
 74
     0
 42
0.00000001
 43
0.00000001
 40
0.0
 40
0.0
 40
0.0
 40
0.0
 40
0.0366078403521587
 40
0.1830392019359816
 40
0.9173822561535678
 40
1.0
 40
1.0
 40
1.0
 40
1.0
 10
204.4726995002782
 20
126.5608975018842
 30
0.0
 10
204.1398678572083
 20
126.5640307061932
 30
0.0
 10
202.4757096402656
 20
126.5796967277536
 30
0.0
 10
194.1350093547136
 20
126.6582255291941
 30
0.0
 10
185.3758604111098
 20
126.7407434056899
 30
0.0
 10
177.9479736292031
 20
126.8107599731511
 30
0.0
 10
177.1968050922034
 20
126.8178406199204
 30
0.0
  0
LINE
  5
126
330
1F
100
AcDbEntity
  8
0
  6
Continuous
 62
     7
370
    25
100
AcDbLine
 10
177.1968050922
 20
126.8178406199
 30
0.0
 11
177.1968050922
 21
114.5374853998
 31
0.0
  0
LINE
  5
127
330
1F
100
AcDbEntity
  8
0
  6
Continuous
 62
     7
370
    25
100
AcDbLine
 10
177.1968050922
 20
142.7256269927
 30
0.0
 11
177.1968050922
 21
136.3203785424
 31
0.0
  0
LINE
  5
128
330
1F
100
AcDbEntity
  8
0
  6
Continuous
 62
     7
370
    25
100
AcDbLine
 10
205.9123304676
 20
126.9451779284
 30
0.0
 11
205.9123304676
 21
117.1315561963
 31
0.0
  0
LINE
  5
129
330
1F
100
AcDbEntity
  8
0
  6
Continuous
 62
     7
370
    25
100
AcDbLine
 10
205.9123304676
 20
140.1315561963
 30
0.0
 11
205.9123304676
 21
126.9451779284
 31
0.0
  0
LINE
  5
12A
330
1F
100
AcDbEntity
  8
0
  6
Continuous
 62
     7
370
    25
100
AcDbLine
 10
204.9353135507
 20
116.3447179754
 30
0.0
 11
204.9353135507
 21
126.8297947218
 31
0.0
  0
SPLINE
  5
12B
330
1F
100
AcDbEntity
  8
0
  6
Continuous
 62
     7
370
    25
100
AcDbSpline
210
0.0
220
0.0
230
1.0
 70
     8
 71
     3
 72
    10
 73
     6
 74
     0
 42
0.00000001
 43
0.00000001
 40
0.0
 40
0.0
 40
0.0
 40
0.0
 40
0.4409747579797749
 40
0.8897048982656922
 40
1.0
 40
1.0
 40
1.0
 40
1.0
 10
204.9468050922034
 20
126.8279997473521
 30
0.0
 10
205.2079134543428
 20
127.4430075615643
 30
0.0
 10
205.7347222672506
 20
128.6838392755675
 30
0.0
 10
205.9626630848499
 20
130.2363636054521
 30
0.0
 10
205.8491245514352
 20
131.0827476896986
 30
0.0
 10
205.8267235162897
 20
131.2497383936262
 30
0.0
  0
ARC
  5
12C
330
1F
100
AcDbEntity
  8
0
  6
Continuous
 62
     7
370
    25
100
AcDbCircle
 10
207.2615137031
 20
126.5905609075
 30
0.0
 40
2.78897195671408
100
AcDbArc
 50
172.162526437
 51
180.6094073438
  0
SPLINE
  5
12D
330
1F
100
AcDbEntity
  8
0
  6
Continuous
 62
     7
370
    25
100
AcDbSpline
210
0.0
220
0.0
230
1.0
 70
    24
 71
     3
 72
    11
 73
     7
 74
     0
 42
0.00000001
 43
0.00000001
 40
0.0
 40
0.0
 40
0.0
 40
0.0
 40
0.2678294908269627
 40
0.5356481876059336
 40
0.8037407732521105
 40
1.0
 40
1.0
 40
1.0
 40
1.0
 10
177.1968050922034
 20
126.8178406199204
 30
0.0
 10
177.1968050922034
 20
126.8729251486071
 30
0.0
 10
177.1968050922034
 20
126.983091985967
 30
0.0
 10
177.1968050922034
 20
127.1197070069124
 30
0.0
 10
177.1968050922034
 20
127.2101386193674
 30
0.0
 10
177.1968050922034
 20
127.2348988059243
 30
0.0
 10
177.1968050922034
 20
127.2453637485349
 30
0.0
  0
SPLINE
  5
12E
330
1F
100
AcDbEntity
  8
0
  6
Continuous
 62
     7
370
    25
100
AcDbSpline
210
0.0
220
0.0
230
1.0
 70
     8
 71
     3
 72
    10
 73
     6
 74
     0
 42
0.00000001
 43
0.00000001
 40
0.0
 40
0.0
 40
0.0
 40
0.0
 40
0.2086586666312913
 40
0.6113278836561391
 40
1.0
 40
1.0
 40
1.0
 40
1.0
 10
204.8217309042141
 20
126.4706159954006
 30
0.0
 10
204.8038013412304
 20
126.480648551467
 30
0.0
 10
204.7512713314749
 20
126.5100419208714
 30
0.0
 10
204.6360044846777
 20
126.5479456808073
 30
0.0
 10
204.5264887972659
 20
126.5566314388917
 30
0.0
 10
204.4726995002782
 20
126.5608975018842
 30
0.0
  0
LINE
  5
12F
330
1F
100
AcDbEntity
  8
0
  6
Continuous
 62
     7
370
    25
100
AcDbLine
 10
208.0668050922
 20
130.6854023202
 30
0.0
 11
208.0668050922
 21
117.4315561963
 31
0.0
  0
LINE
  5
130
330
1F
100
AcDbEntity
  8
0
  6
Continuous
 62
     7
370
    25
100
AcDbLine
 10
208.0668050922
 20
139.8315561963
 30
0.0
 11
208.0668050922
 21
130.6854023202
 31
0.0
  0
LINE
  5
131
330
1F
100
AcDbEntity
  8
0
  6
Continuous
 62
     7
370
    25
100
AcDbLine
 10
204.9461015573
 20
126.9355079953
 30
0.0
 11
204.9466415248
 21
126.8607445539
 31
0.0
  0
SPLINE
  5
132
330
1F
100
AcDbEntity
  8
0
  6
Continuous
 62
     7
370
    25
100
AcDbSpline
210
0.0
220
0.0
230
1.0
 70
     8
 71
     3
 72
    12
 73
     8
 74
     0
 42
0.00000001
 43
0.00000001
 40
0.0
 40
0.0
 40
0.0
 40
0.0
 40
0.1037874894511033
 40
0.3668584250859558
 40
0.6320463796789789
 40
0.8639469897218305
 40
1.0
 40
1.0
 40
1.0
 40
1.0
 10
204.9466415248096
 20
126.860744553903
 30
0.0
 10
204.9456524313903
 20
126.8520303083275
 30
0.0
 10
204.9421562753894
 20
126.8212279984867
 30
0.0
 10
204.924904368925
 20
126.753760650522
 30
0.0
 10
204.884739644446
 20
126.6488786589095
 30
0.0
 10
204.846163377701
 20
126.5500118029709
 30
0.0
 10
204.8283262769023
 20
126.4920483297543
 30
0.0
 10
204.8217309042133
 20
126.4706159954007
 30
0.0
  0
LINE
  5
133
330
1F
100
AcDbEntity
  8
0
  6
Continuous
 62
     7
370
    25
100
AcDbLine
 10
173.7235716298
 20
116.4315561963
 30
0.0
 11
173.7235716298
 21
140.8315561963
 31
0.0
  0
LINE
  5
134
330
1F
100
AcDbEntity
  8
0
  6
Continuous
 62
     7
370
    25
100
AcDbLine
 10
176.3435716298
 20
116.4315561963
 30
0.0
 11
176.3435716298
 21
140.8315561963
 31
0.0
  0
SPLINE
  5
135
330
1F
100
AcDbEntity
  8
0
  6
Continuous
 62
     7
370
    25
100
AcDbSpline
210
0.0
220
0.0
230
1.0
 70
     8
 71
     3
 72
    13
 73
     9
 74
     0
 42
0.00000001
 43
0.00000001
 40
0.0
 40
0.0
 40
0.0
 40
0.0
 40
0.0372722211997084
 40
0.2424160493757463
 40
0.4440837867603277
 40
0.64569240579523
 40
0.8508362298461565
 40
1.0
 40
1.0
 40
1.0
 40
1.0
 10
173.4146104383473
 20
137.1181065152392
 30
0.0
 10
173.4183781730071
 20
137.1258244851105
 30
0.0
 10
173.4428832688113
 20
137.1760216481761
 30
0.0
 10
173.4911571177003
 20
136.6975537931081
 30
0.0
 10
173.5520481149894
 20
135.6855827217453
 30
0.0
 10
173.613054332445
 20
134.1395369983993
 30
0.0
 10
173.6729617820482
 20
132.4118518852435
 30
0.0
 10
173.7085774191208
 20
131.148745566617
 30
0.0
 10
173.7235716297702
 20
130.6169768332531
 30
0.0
  0
SPLINE
  5
136
330
1F
100
AcDbEntity
  8
0
  6
Continuous
 62
     7
370
    25
100
AcDbSpline
210
0.0
220
0.0
230
1.0
 70
     8
 71
     3
 72
     9
 73
     5
 74
     0
 42
0.00000001
 43
0.00000001
 40
0.0
 40
0.0
 40
0.0
 40
0.0
 40
0.1739687524188555
 40
1.0
 40
1.0
 40
1.0
 40
1.0
 10
173.6377097735852
 20
119.5094703264267
 30
0.0
 10
173.6404893001042
 20
119.4747883501394
 30
0.0
 10
173.6564664596822
 20
119.2754308459608
 30
0.0
 10
173.6724422701711
 20
119.3184363898716
 30
0.0
 10
173.6856387888404
 20
119.3539603129611
 30
0.0
  0
LINE
  5
137
330
1F
100
AcDbEntity
  8
0
  6
Continuous
 62
     7
370
    25
100
AcDbLine
 10
97.3112027382
 20
140.8315561963
 30
0.0
 11
97.3112027382
 21
116.4315561963
 31
0.0
  0
LINE
  5
138
330
1F
100
AcDbEntity
  8
0
  6
Continuous
 62
     7
370
    25
100
AcDbLine
 10
94.6912027382
 20
140.8315561963
 30
0.0
 11
94.6912027382
 21
116.4315561963
 31
0.0
  0
SPLINE
  5
139
330
1F
100
AcDbEntity
  8
0
  6
Continuous
 62
     7
370
    25
100
AcDbSpline
210
0.0
220
0.0
230
1.0
 70
     8
 71
     3
 72
     9
 73
     5
 74
     0
 42
0.00000001
 43
0.00000001
 40
0.0
 40
0.0
 40
0.0
 40
0.0
 40
0.537202515671013
 40
0.9999999999999999
 40
0.9999999999999999
 40
0.9999999999999999
 40
0.9999999999999999
 10
97.41119956111302
 20
120.1327930045746
 30
0.0
 10
97.39284145987668
 20
120.1466714732075
 30
0.0
 10
97.35866793927542
 20
120.172506178422
 30
0.0
 10
97.32621970113526
 20
120.6504969728436
 30
0.0
 10
97.31120273815309
 20
120.8717099100343
 30
0.0
  0
SPLINE
  5
13A
330
1F
100
AcDbEntity
  8
0
  6
Continuous
 62
     7
370
    25
100
AcDbSpline
210
0.0
220
0.0
230
1.0
 70
     8
 71
     3
 72
    15
 73
    11
 74
     0
 42
0.00000001
 43
0.00000001
 40
0.0
 40
0.0
 40
0.0
 40
0.0
 40
0.0892759544599006
 40
0.2237285618126907
 40
0.358142982541746
 40
0.4949137380995894
 40
0.6293669607920174
 40
0.7637807688872575
 40
0.9005515216948619
 40
1.0
 40
1.0
 40
1.0
 40
1.0
 10
97.77384584271462
 20
120.1717534547443
 30
0.0
 10
97.75967756722959
 20
120.1942983686222
 30
0.0
 10
97.72417138959413
 20
120.2507966854267
 30
0.0
 10
97.67016709893494
 20
121.0000160774288
 30
0.0
 10
97.60919491579575
 20
122.279308847183
 30
0.0
 10
97.54376565278037
 20
124.0161442988464
 30
0.0
 10
97.48268679545765
 20
126.0631926197054
 30
0.0
 10
97.42173087515566
 20
128.2783660128089
 30
0.0
 10
97.36181070528896
 20
130.3509051644793
 30
0.0
 10
97.32619639164005
 20
131.5519276940525
 30
0.0
 10
97.31120273815309
 20
132.0575591043894
 30
0.0
  0
LINE
  5
13B
330
1F
100
AcDbEntity
  8
0
  6
Continuous
 62
     7
370
    25
100
AcDbLine
 10
173.6377097736
 20
143.0065561963
 30
0.0
 11
173.6377097736
 21
114.2565561963
 31
0.0
  0
LINE
  5
13C
330
1F
100
AcDbEntity
  8
0
  6
Continuous
 62
     7
370
    25
100
AcDbLine
 10
97.4877097736
 20
143.0065561963
 30
0.0
 11
97.4877097736
 21
114.2565561963
 31
0.0
  0
ARC
  5
13D
330
1F
100
AcDbEntity
  8
0
  6
Continuous
 62
     7
370
    25
100
AcDbCircle
 10
135.5627097736
 20
128.6315561963
 30
0.0
 40
28.55000000000002
100
AcDbArc
 50
289.4357479522
 51
329.2171815583
  0
ARC
  5
13E
330
1F
100
AcDbEntity
  8
0
  6
Continuous
 62
     7
370
    25
100
AcDbCircle
 10
135.5627097736
 20
128.6315561963
 30
0.0
 40
28.55000000000002
100
AcDbArc
 50
210.7828184417
 51
250.5642520478
  0
ARC
  5
13F
330
1F
100
AcDbEntity
  8
0
  6
Continuous
 62
     7
370
    25
100
AcDbCircle
 10
135.5627097736
 20
128.6315561963
 30
0.0
 40
28.54999999999997
100
AcDbArc
 50
30.7828184417
 51
149.2171815583
  0
ARC
  5
140
330
1F
100
AcDbEntity
  8
0
  6
Continuous
 62
     7
370
    25
100
AcDbCircle
 10
135.5627097736
 20
128.6315561963
 30
0.0
 40
16.60000000000001
100
AcDbArc
 50
304.9100103678
 51
193.5230734136
  0
ARC
  5
141
330
1F
100
AcDbEntity
  8
0
  6
Continuous
 62
     7
370
    25
100
AcDbCircle
 10
135.5627097736
 20
128.6315561963
 30
0.0
 40
16.60000000000003
100
AcDbArc
 50
193.5230734136
 51
235.0899896322
  0
LWPOLYLINE
  5
142
330
1F
100
AcDbEntity
  8
0
  6
Continuous
 62
     7
370
    25
100
AcDbPolyline
 90
        3
 70
   128
 43
0.0
 10
124.7218342528
 20
126.0242744811
 10
125.3615997093
 20
124.130461501
 10
126.0627097736
 20
122.7943907883
  0
ARC
  5
143
330
1F
100
AcDbEntity
  8
0
  6
Continuous
 62
     7
370
    25
100
AcDbCircle
 10
135.5627097736
 20
128.6315561963
 30
0.0
 40
11.15000000000001
100
AcDbArc
 50
328.4318344088
 51
193.5230734136
  0
ARC
  5
144
330
1F
100
AcDbEntity
  8
0
  6
Continuous
 62
     7
370
    25
100
AcDbCircle
 10
135.5627097736
 20
128.6315561963
 30
0.0
 40
17.85000000000001
100
AcDbArc
 50
214.8732823079
 51
232.1728645193
  0
SPLINE
  5
145
330
1F
100
AcDbEntity
  8
0
  6
Continuous
 62
     7
370
    25
100
AcDbSpline
210
0.0
220
0.0
230
1.0
 70
    24
 71
     3
 72
    12
 73
     8
 74
     0
 42
0.00000001
 43
0.00000001
 40
0.0
 40
0.0
 40
0.0
 40
0.0
 40
0.2393723162992713
 40
0.4867740897682196
 40
0.7352575849600321
 40
0.9946662042473905
 40
0.9999999999999999
 40
0.9999999999999999
 40
0.9999999999999999
 40
0.9999999999999999
 10
117.8790101197983
 20
131.062454498259
 30
0.0
 10
118.1137166376553
 20
130.0865629675423
 30
0.0
 10
118.5910026219279
 20
128.1020447955109
 30
0.0
 10
119.3584755418853
 20
124.9109518106227
 30
0.0
 10
120.1458449893707
 20
121.6371306046254
 30
0.0
 10
120.6579458683808
 20
119.5078547955767
 30
0.0
 10
120.913097462826
 20
118.4469542192263
 30
0.0
 10
120.9182380312178
 20
118.4255801338262
 30
0.0
  0
ARC
  5
146
330
1F
100
AcDbEntity
  8
0
  6
Continuous
 62
     7
370
    25
100
AcDbCircle
 10
135.5627097736
 20
128.6315561963
 30
0.0
 40
17.84999999999999
100
AcDbArc
 50
154.8732823079
 51
172.1728645193
  0
SPLINE
  5
147
330
1F
100
AcDbEntity
  8
0
  6
Continuous
 62
     7
370
    25
100
AcDbSpline
210
0.0
220
0.0
230
1.0
 70
    24
 71
     3
 72
    12
 73
     8
 74
     0
 42
0.00000001
 43
0.00000001
 40
0.0
 40
0.0
 40
0.0
 40
0.0
 40
0.2009878446144203
 40
0.4063457791314797
 40
0.6297568067889986
 40
0.8620630290152727
 40
1.0
 40
1.0
 40
1.0
 40
1.0
 10
128.8260796302382
 20
145.1615384803338
 30
0.0
 10
128.2166157380606
 20
144.5827122053547
 30
0.0
 10
126.9844363463441
 20
143.4124742034527
 30
0.0
 10
124.9678849887255
 20
141.4972944436412
 30
0.0
 10
122.8221952264846
 20
139.4594680386984
 30
0.0
 10
120.9354591655998
 20
137.6675777889106
 30
0.0
 10
119.8181147013863
 20
136.606401987702
 30
0.0
 10
119.4018393619168
 20
136.2110527189375
 30
0.0
  0
ARC
  5
148
330
1F
100
AcDbEntity
  8
0
  6
Continuous
 62
     7
370
    25
100
AcDbCircle
 10
135.5627097736
 20
128.6315561963
 30
0.0
 40
17.84999999999998
100
AcDbArc
 50
94.8732823079
 51
112.1728645193
  0
SPLINE
  5
149
330
1F
100
AcDbEntity
  8
0
  6
Continuous
 62
     7
370
    25
100
AcDbSpline
210
0.0
220
0.0
230
1.0
 70
    24
 71
     3
 72
    12
 73
     8
 74
     0
 42
0.00000001
 43
0.00000001
 40
0.0
 40
0.0
 40
0.0
 40
0.0
 40
0.2009878446144209
 40
0.4063457791314803
 40
0.629756806788999
 40
0.862063029015272
 40
1.0
 40
1.0
 40
1.0
 40
1.0
 10
146.5097792840252
 20
142.7306401783362
 30
0.0
 10
145.7037690794265
 20
142.9690382541618
 30
0.0
 10
144.0742235454472
 20
143.4510179084569
 30
0.0
 10
141.4073535418273
 20
144.2398127322849
 30
0.0
 10
138.5696992255238
 20
145.0791213725543
 30
0.0
 10
136.0745087179715
 20
145.8171376066228
 30
0.0
 10
134.5968312841368
 20
146.2541983968054
 30
0.0
 10
134.0463111042844
 20
146.4170287813726
 30
0.0
  0
ARC
  5
14A
330
1F
100
AcDbEntity
  8
0
  6
Continuous
 62
     7
370
    25
100
AcDbCircle
 10
135.5627097736
 20
128.6315561963
 30
0.0
 40
17.84999999999999
100
AcDbArc
 50
34.8732823079
 51
52.1728645193
  0
SPLINE
  5
14B
330
1F
100
AcDbEntity
  8
0
  6
Continuous
 62
     7
370
    25
100
AcDbSpline
210
0.0
220
0.0
230
1.0
 70
    24
 71
     3
 72
    12
 73
     8
 74
     0
 42
0.00000001
 43
0.00000001
 40
0.0
 40
0.0
 40
0.0
 40
0.0
 40
0.2393723162992727
 40
0.486774089768222
 40
0.7352575849600334
 40
0.9946662042473928
 40
1.0
 40
1.0
 40
1.0
 40
1.0
 10
153.2464094273722
 20
126.2006578942637
 30
0.0
 10
153.0117029095153
 20
127.1765494249804
 30
0.0
 10
152.5344169252427
 20
129.1610675970119
 30
0.0
 10
151.7669440052852
 20
132.3521605819
 30
0.0
 10
150.9795745578001
 20
135.6259817878974
 30
0.0
 10
150.4674736787893
 20
137.755257596946
 30
0.0
 10
150.2123220843447
 20
138.8161581732965
 30
0.0
 10
150.2071815159529
 20
138.8375322586965
 30
0.0
  0
ARC
  5
14C
330
1F
100
AcDbEntity
  8
0
  6
Continuous
 62
     7
370
    25
100
AcDbCircle
 10
135.5627097736
 20
128.6315561963
 30
0.0
 40
17.85
100
AcDbArc
 50
334.8732823079
 51
352.1728645193
  0
SPLINE
  5
14D
330
1F
100
AcDbEntity
  8
0
  6
Continuous
 62
     7
370
    25
100
AcDbSpline
210
0.0
220
0.0
230
1.0
 70
    24
 71
     3
 72
    11
 73
     7
 74
     0
 42
0.00000001
 43
0.00000001
 40
0.0
 40
0.0
 40
0.0
 40
0.0
 40
0.1552889499815666
 40
0.4731806740262222
 40
0.803729377302488
 40
1.0
 40
1.0
 40
1.0
 40
1.0
 10
145.0627097735853
 20
114.7260297676475
 30
0.0
 10
145.4087179125865
 20
115.0546441528164
 30
0.0
 10
146.4630386768818
 20
116.0559644417833
 30
0.0
 10
148.3056845413224
 20
117.8059808997051
 30
0.0
 10
150.1896205081595
 20
119.5952118155633
 30
0.0
 10
151.3072125928547
 20
120.6566227894259
 30
0.0
 10
151.7235801852537
 20
121.0520596735852
 30
0.0
  0
LINE
  5
14E
330
1F
100
AcDbEntity
  8
0
  6
Continuous
 62
     7
370
    25
100
AcDbLine
 10
124.6156402631
 20
114.5324722142
 30
0.0
 11
126.0627097736
 21
114.104464498
 31
0.0
  0
LINE
  5
14F
330
1F
100
AcDbEntity
  8
0
  6
Continuous
 62
     7
370
    25
100
AcDbLine
 10
126.0627097736
 20
-124.2743358578
 30
0.0
 11
125.8195998729
 21
-125.4265185239
 31
0.0
  0
SPLINE
  5
150
330
1F
100
AcDbEntity
  8
0
  6
Continuous
 62
     7
370
    25
100
AcDbSpline
210
0.0
220
0.0
230
1.0
 70
     8
 71
     3
 72
    10
 73
     6
 74
     0
 42
0.00000001
 43
0.00000001
 40
0.0
 40
0.0
 40
0.0
 40
0.0
 40
0.276353461450868
 40
0.891993781518832
 40
1.0
 40
1.0
 40
1.0
 40
1.0
 10
145.0058320528336
 20
-124.924422211015
 30
0.0
 10
145.0440632733232
 20
-125.3950082368641
 30
0.0
 10
145.1674632508649
 20
-126.9139318882029
 30
0.0
 10
144.9481111751008
 20
-128.7184469233798
 30
0.0
 10
144.289819151163
 20
-129.7772179404211
 30
0.0
 10
144.1915672721388
 20
-129.9352424008397
 30
0.0
  0
SPLINE
  5
151
330
1F
100
AcDbEntity
  8
0
  6
Continuous
 62
     7
370
    25
100
AcDbSpline
210
0.0
220
0.0
230
1.0
 70
     8
 71
     3
 72
    10
 73
     6
 74
     0
 42
0.00000001
 43
0.00000001
 40
0.0
 40
0.0
 40
0.0
 40
0.0
 40
0.1811753902417082
 40
0.906878291384711
 40
1.0
 40
1.0
 40
1.0
 40
1.0
 10
125.8195998729394
 20
-125.4265185239148
 30
0.0
 10
125.8279615141721
 20
-125.3395789205737
 30
0.0
 10
125.8698159343786
 20
-124.9044003964569
 30
0.0
 10
125.8913377316853
 20
-124.4087805352351
 30
0.0
 10
126.0452104350508
 20
-124.0434197894938
 30
0.0
 10
126.0627097735854
 20
-124.0018687460849
 30
0.0
  0
ARC
  5
152
330
1F
100
AcDbEntity
  8
0
  6
Continuous
 62
     7
370
    25
100
AcDbCircle
 10
135.5627097736
 20
-126.1413411874
 30
0.0
 40
9.786249580635602
100
AcDbArc
 50
166.1079531771
 51
13.8920468229
  0
LINE
  5
153
330
1F
100
AcDbEntity
  8
0
  6
Continuous
 62
     7
370
    25
100
AcDbLine
 10
125.8195998729
 20
-125.4265185239
 30
0.0
 11
126.0627097736
 21
-124.0532432074
 31
0.0
  0
ARC
  5
154
330
1F
100
AcDbEntity
  8
0
  6
Continuous
 62
     7
370
    25
100
AcDbCircle
 10
135.5678036841
 20
-126.148806005
 30
0.0
 40
10.14922472213813
100
AcDbArc
 50
233.5482785197
 51
20.6860303884
  0
ARC
  5
155
330
1F
100
AcDbEntity
  8
0
  6
Continuous
 62
     7
370
    25
100
AcDbCircle
 10
135.4418182428
 20
-126.1778313502
 30
0.0
 40
10.05137608368505
100
AcDbArc
 50
158.9260092114
 51
234.0276336437
  0
ARC
  5
156
330
1F
100
AcDbEntity
  8
0
  6
Continuous
 62
     7
370
    25
100
AcDbCircle
 10
135.5627097736
 20
128.6315561963
 30
0.0
 40
10.87500000000001
100
AcDbArc
 50
123.8794677128
 51
209.1246136008
  0
ARC
  5
157
330
1F
100
AcDbEntity
  8
0
  6
Continuous
 62
     7
370
    25
100
AcDbCircle
 10
135.5627097736
 20
128.6315561963
 30
0.0
 40
10.875
100
AcDbArc
 50
330.8753863992
 51
123.8794677128
  0
ARC
  5
158
330
1F
100
AcDbEntity
  8
0
  6
Continuous
 62
     7
370
    25
100
AcDbCircle
 10
135.5627097736
 20
128.6315561963
 30
0.0
 40
9.525000000000016
100
AcDbArc
 50
123.8794677128
 51
184.1521226929
  0
ARC
  5
159
330
1F
100
AcDbEntity
  8
0
  6
Continuous
 62
     7
370
    25
100
AcDbCircle
 10
135.5627097736
 20
128.6315561963
 30
0.0
 40
9.524999999999986
100
AcDbArc
 50
355.8478773071
 51
123.8794677128
  0
LWPOLYLINE
  5
15A
330
1F
100
AcDbEntity
  8
0
  6
Continuous
 62
     7
370
    25
100
AcDbPolyline
 90
       18
 70
   128
 43
0.0
 10
145.0627097736
 20
128.6315561963
 10
144.8801699374
 20
130.4849142554
 10
144.3395653324
 20
132.2670488037
 10
143.4616710905
 20
133.9094734099
 10
142.2802241949
 20
135.3490706175
 10
140.8406269873
 20
136.5305175131
 10
139.1982023811
 20
137.4084117551
 10
137.4160678327
 20
137.9490163601
 10
135.5627097736
 20
138.1315561963
 10
133.7093517144
 20
137.9490163601
 10
131.9272171661
 20
137.4084117551
 10
130.2847925599
 20
136.5305175131
 10
128.8451953523
 20
135.3490706175
 10
127.6637484567
 20
133.9094734099
 10
126.7858542147
 20
132.2670488037
 10
126.2452496098
 20
130.4849142554
 10
126.0627097736
 20
128.6315561963
 10
126.0627097736
 20
128.6315561963
  0
LINE
  5
15B
330
1F
100
AcDbEntity
  8
0
  6
Continuous
 62
     7
370
    25
100
AcDbLine
 10
141.8080638974
 20
-133.2624240512
 30
0.0
 11
141.8080638974
 21
-133.3178634031
 31
0.0
  0
LINE
  5
15C
330
1F
100
AcDbEntity
  8
0
  6
Continuous
 62
     7
370
    25
100
AcDbLine
 10
144.8553823312
 20
-127.5316876788
 30
0.0
 11
145.0073430374
 21
-126.2701668205
 31
0.0
  0
SPLINE
  5
15D
330
1F
100
AcDbEntity
  8
0
  6
Continuous
 62
     7
370
    25
100
AcDbSpline
210
0.0
220
0.0
230
1.0
 70
     8
 71
     3
 72
    15
 73
    11
 74
     0
 42
0.00000001
 43
0.00000001
 40
0.0
 40
0.0
 40
0.0
 40
0.0
 40
0.1141871441337228
 40
0.2575181428671605
 40
0.3977393833220605
 40
0.5407196260672282
 40
0.6823507190389515
 40
0.8236791642610344
 40
0.9667891565201225
 40
1.0
 40
1.0
 40
1.0
 40
1.0
 10
126.137572707174
 20
-126.2024041905358
 30
0.0
 10
126.1701405665887
 20
-127.0235454191879
 30
0.0
 10
126.2435885430422
 20
-128.875406816006
 30
0.0
 10
127.5300393617088
 20
-131.5073087032133
 30
0.0
 10
129.6402733810386
 20
-133.7746886275969
 30
0.0
 10
132.3892700241469
 20
-135.243719978856
 30
0.0
 10
135.4709849640038
 20
-135.7668844789769
 30
0.0
 10
138.5582607277248
 20
-135.2859875505995
 30
0.0
 10
140.6453882302326
 20
-134.224769126395
 30
0.0
 10
141.6237794028677
 20
-133.4149560777919
 30
0.0
 10
141.8080638974386
 20
-133.262424051203
 30
0.0
  0
LINE
  5
15E
330
1F
100
AcDbEntity
  8
0
  6
Continuous
 62
     8
370
    25
100
AcDbLine
 10
66.6764794197
 20
126.815589786
 30
0.0
 11
66.6764794197
 21
115.9519698355
 31
0.0
  0
LINE
  5
15F
330
1F
100
AcDbEntity
  8
0
  6
Continuous
 62
     8
370
    25
100
AcDbLine
 10
63.3823738277
 20
130.9697647049
 30
0.0
 11
63.3823738277
 21
117.1315561963
 31
0.0
  0
LINE
  5
160
330
1F
100
AcDbEntity
  8
0
  6
Continuous
 62
     8
370
    25
100
AcDbLine
 10
63.3823738277
 20
140.1315561963
 30
0.0
 11
63.3823738277
 21
130.9697647049
 31
0.0
  0
LINE
  5
161
330
1F
100
AcDbEntity
  8
0
  6
Continuous
 62
     8
370
    25
100
AcDbLine
 10
204.4726995003
 20
141.2173633287
 30
0.0
 11
204.4726995003
 21
141.311142557
 31
0.0
  0
LINE
  5
162
330
1F
100
AcDbEntity
  8
0
  6
Continuous
 62
     8
370
    25
100
AcDbLine
 10
204.4726995003
 20
115.9519698355
 30
0.0
 11
204.4726995003
 21
126.5608975019
 31
0.0
  0
LINE
  5
163
330
1F
100
AcDbEntity
  8
0
  6
Continuous
 62
     8
370
    25
100
AcDbLine
 10
207.7668050922
 20
130.7404160556
 30
0.0
 11
207.7668050922
 21
140.1315561963
 31
0.0
  0
LINE
  5
164
330
1F
100
AcDbEntity
  8
0
  6
Continuous
 62
     8
370
    25
100
AcDbLine
 10
207.7668050922
 20
117.1315561963
 30
0.0
 11
207.7668050922
 21
130.7404160556
 31
0.0
  0
SPLINE
  5
165
330
1F
100
AcDbEntity
  8
0
  6
Continuous
 62
     8
370
    25
100
AcDbSpline
210
0.0
220
0.0
230
1.0
 70
     8
 71
     3
 72
    20
 73
    16
 74
     0
 42
0.00000001
 43
0.00000001
 40
0.0
 40
0.0
 40
0.0
 40
0.0
 40
0.0135968302310719
 40
0.1169748320013748
 40
0.2121493632002321
 40
0.3233572149964596
 40
0.4292681977559587
 40
0.5301189986401286
 40
0.6052870749382516
 40
0.6739192667513171
 40
0.7363222327101586
 40
0.8429501678773893
 40
0.8902804482512384
 40
0.9345764459424336
 40
1.0
 40
1.0
 40
1.0
 40
1.0
 10
146.9421557892041
 20
142.3507660312597
 30
0.0
 10
147.0526169121706
 20
142.3303057785552
 30
0.0
 10
148.0029245266735
 20
142.1542842660299
 30
0.0
 10
149.7276798523613
 20
141.7435477507324
 30
0.0
 10
152.22101008462
 20
141.071207027797
 30
0.0
 10
154.6828559448077
 20
140.232109445897
 30
0.0
 10
157.1242204849349
 20
139.1975426496573
 30
0.0
 10
159.2209169726759
 20
138.10398538927
 30
0.0
 10
160.9724296057684
 20
137.0060417737616
 30
0.0
 10
162.3784091432863
 20
135.9535215262055
 30
0.0
 10
163.891494970648
 20
134.586153060939
 30
0.0
 10
165.1032741874798
 20
133.1158049992073
 30
0.0
 10
165.9170375836465
 20
131.5550670297561
 30
0.0
 10
166.4009409185837
 20
130.2225000485351
 30
0.0
 10
166.4754356059747
 20
129.2258429562565
 30
0.0
 10
166.519855284417
 20
128.6315564493006
 30
0.0
  0
SPLINE
  5
166
330
1F
100
AcDbEntity
  8
0
  6
Continuous
 62
     8
370
    25
100
AcDbSpline
210
0.0
220
0.0
230
1.0
 70
    24
 71
     3
 72
    13
 73
     9
 74
     0
 42
0.00000001
 43
0.00000001
 40
0.0
 40
0.0
 40
0.0
 40
0.0
 40
0.1230004269009398
 40
0.2967458038208121
 40
0.4704911665689356
 40
0.6442400873076128
 40
0.8179889436174688
 40
1.0
 40
1.0
 40
1.0
 40
1.0
 10
152.6617669156094
 20
128.6315561962614
 30
0.0
 10
153.0366778266151
 20
128.6315561962614
 30
0.0
 10
153.9411725706634
 20
128.6315561962614
 30
0.0
 10
155.8207998666339
 20
128.6315561962614
 30
0.0
 10
158.1555425070739
 20
128.6315561962614
 30
0.0
 10
160.7557545324232
 20
128.6315561962614
 30
0.0
 10
163.5639233864656
 20
128.6315561962614
 30
0.0
 10
165.5197753812819
 20
128.6315561962614
 30
0.0
 10
166.5204128196327
 20
128.6315561962614
 30
0.0
  0
SPLINE
  5
167
330
1F
100
AcDbEntity
  8
0
  6
Continuous
 62
     8
370
    25
100
AcDbSpline
210
0.0
220
0.0
230
1.0
 70
     8
 71
     3
 72
    20
 73
    16
 74
     0
 42
0.00000001
 43
0.00000001
 40
0.0
 40
0.0
 40
0.0
 40
0.0
 40
0.0842152597197835
 40
0.1801922389138816
 40
0.2685530491854607
 40
0.3717993249432592
 40
0.4701279443271074
 40
0.5637586496262363
 40
0.6335453041502339
 40
0.6972639902622357
 40
0.755199412333842
 40
0.8541936561749408
 40
0.8981354741333207
 40
0.9392602393250091
 40
0.9999999999999999
 40
0.9999999999999999
 40
0.9999999999999999
 40
0.9999999999999999
 10
145.0627097735852
 20
114.5603683655189
 30
0.0
 10
145.7995773238347
 20
114.6926068927365
 30
0.0
 10
147.3762252390018
 20
114.9755527195297
 30
0.0
 10
149.7276238832848
 20
115.5154562860836
 30
0.0
 10
152.2210273277489
 20
116.193171079861
 30
0.0
 10
154.6828512720097
 20
117.0306599444244
 30
0.0
 10
157.1242216578189
 20
118.0656558372808
 30
0.0
 10
159.2209167500791
 20
119.1591106637478
 30
0.0
 10
160.9724296529138
 20
120.2570740794252
 30
0.0
 10
162.3784091325493
 20
121.3095900781783
 30
0.0
 10
163.8914949757449
 20
122.6769597057133
 30
0.0
 10
165.1032741867953
 20
124.1473073430757
 30
0.0
 10
165.9170375837558
 20
125.7080453707853
 30
0.0
 10
166.4009409185419
 20
127.0406123409211
 30
0.0
 10
166.475435605959
 20
128.0372694351208
 30
0.0
 10
166.519855284417
 20
128.6315559432222
 30
0.0
  0
SPLINE
  5
168
330
1F
100
AcDbEntity
  8
0
  6
Continuous
 62
     8
370
    25
100
AcDbSpline
210
0.0
220
0.0
230
1.0
 70
     8
 71
     3
 72
    13
 73
     9
 74
     0
 42
0.00000001
 43
0.00000001
 40
0.0
 40
0.0
 40
0.0
 40
0.0
 40
0.1728533408689629
 40
0.3457067575938249
 40
0.519551777564593
 40
0.6933968389655444
 40
0.8672552670184179
 40
1.0
 40
1.0
 40
1.0
 40
1.0
 10
104.6049883857501
 20
128.6315562012997
 30
0.0
 10
105.5542995563498
 20
128.6315562005201
 30
0.0
 10
107.4529223141501
 20
128.6315561989609
 30
0.0
 10
110.2164915937897
 20
128.6315561955334
 30
0.0
 10
112.8192446512402
 20
128.631556196457
 30
0.0
 10
115.1771820918104
 20
128.6315561962088
 30
0.0
 10
117.1040173404729
 20
128.631556196271
 30
0.0
 10
118.0528519286875
 20
128.6315561962643
 30
0.0
 10
118.4636526315611
 20
128.6315561962614
 30
0.0
  0
SPLINE
  5
169
330
1F
100
AcDbEntity
  8
0
  6
Continuous
 62
     8
370
    25
100
AcDbSpline
210
0.0
220
0.0
230
1.0
 70
     8
 71
     3
 72
    26
 73
    22
 74
     0
 42
0.00000001
 43
0.00000001
 40
0.0
 40
0.0
 40
0.0
 40
0.0
 40
0.0245257953277683
 40
0.067048539142138
 40
0.1117216861455726
 40
0.1969415287585771
 40
0.2285744279404701
 40
0.2619883930874897
 40
0.2972772166834048
 40
0.339467312229692
 40
0.3845480633692862
 40
0.4325976687427017
 40
0.4836809009413414
 40
0.5402418018784485
 40
0.6016555899098761
 40
0.6679658370702268
 40
0.7392080108481629
 40
0.815411563377804
 40
0.8868696496285707
 40
0.9637256545650892
 40
0.9999999999999999
 40
0.9999999999999999
 40
0.9999999999999999
 40
0.9999999999999999
 10
104.6055567696094
 20
128.6315559354526
 30
0.0
 10
104.6134620263483
 20
128.874741361406
 30
0.0
 10
104.6350733913949
 20
129.5395608843991
 30
0.0
 10
104.8624180842995
 20
130.6282322446904
 30
0.0
 10
105.472897097034
 20
132.2074398347841
 30
0.0
 10
106.3492998165278
 20
133.5139032246285
 30
0.0
 10
107.2931993780764
 20
134.5826597145429
 30
0.0
 10
107.9657994935831
 20
135.2495816024677
 30
0.0
 10
108.7479743179359
 20
135.9354538862905
 30
0.0
 10
109.6519458419037
 20
136.6358030064418
 30
0.0
 10
110.6878338684976
 20
137.3454808272169
 30
0.0
 10
111.8255320325604
 20
138.0376451578366
 30
0.0
 10
113.0841886284927
 20
138.7193988527483
 30
0.0
 10
114.4803108600668
 20
139.3895880295891
 30
0.0
 10
116.0287882786421
 20
140.0465274772402
 30
0.0
 10
117.7238989924018
 20
140.679712280167
 30
0.0
 10
119.5656965425483
 20
141.2800622861332
 30
0.0
 10
121.4698304111638
 20
141.815172451908
 30
0.0
 10
123.4364557022434
 20
142.2847779320407
 30
0.0
 10
125.0585802920609
 20
142.6237463896953
 30
0.0
 10
126.0586979612713
 20
142.7858534183699
 30
0.0
 10
126.3793777230628
 20
142.8378317454612
 30
0.0
  0
SPLINE
  5
16A
330
1F
100
AcDbEntity
  8
0
  6
Continuous
 62
     8
370
    25
100
AcDbSpline
210
0.0
220
0.0
230
1.0
 70
     8
 71
     3
 72
    25
 73
    21
 74
     0
 42
0.00000001
 43
0.00000001
 40
0.0
 40
0.0
 40
0.0
 40
0.0
 40
0.0266527095731408
 40
0.0728630903575819
 40
0.1214103605638479
 40
0.2140205974462175
 40
0.2483967497211592
 40
0.2847084247086052
 40
0.3230575487190633
 40
0.3689064334720515
 40
0.4178966558646462
 40
0.4701131960423127
 40
0.5256264437740233
 40
0.587092392002217
 40
0.6538320770690161
 40
0.7258928496420862
 40
0.8033132530046093
 40
0.8861252934245388
 40
0.9637803335176836
 40
1.0
 40
1.0
 40
1.0
 40
1.0
 10
104.6055567696094
 20
128.6315564570703
 30
0.0
 10
104.6134620263483
 20
128.3883710311165
 30
0.0
 10
104.6350733913947
 20
127.7235515081221
 30
0.0
 10
104.862418084301
 20
126.6348801478445
 30
0.0
 10
105.4728970970259
 20
125.055672557674
 30
0.0
 10
106.3492998165716
 20
123.7492091682485
 30
0.0
 10
107.2931993780209
 20
122.6804526775315
 30
0.0
 10
107.9657994938155
 20
122.0135307919335
 30
0.0
 10
108.7479743169374
 20
121.3276584981616
 30
0.0
 10
109.6519458465744
 20
120.6273094238349
 30
0.0
 10
110.6878338493267
 20
119.9176314103462
 30
0.0
 10
111.8255321112187
 20
119.2254678704867
 30
0.0
 10
113.084188300685
 20
118.5437108900842
 30
0.0
 10
114.4803122772387
 20
117.8735358180248
 30
0.0
 10
116.0287823074347
 20
117.216536649633
 30
0.0
 10
117.7239239545033
 20
116.5836018826109
 30
0.0
 10
119.5655929454062
 20
115.9822127240967
 30
0.0
 10
121.4702349911304
 20
115.4512101862332
 30
0.0
 10
123.0541027447991
 20
115.0605817833792
 30
0.0
 10
123.9762288129935
 20
114.8776963713942
 30
0.0
 10
124.2695257149049
 20
114.8195267494844
 30
0.0
  0
LINE
  5
16B
330
1F
100
AcDbEntity
  8
0
  6
Continuous
 62
     8
370
    25
100
AcDbLine
 10
126.0267497176
 20
143.5047069915
 30
0.0
 11
128.169575157
 21
144.6779486041
 31
0.0
  0
ARC
  5
16C
330
1F
100
AcDbEntity
  8
0
  6
Continuous
 62
     8
370
    25
100
AcDbCircle
 10
135.5627097736
 20
128.6315561963
 30
0.0
 40
17.66762997024708
100
AcDbArc
 50
57.3339298439
 51
91.7539120998
  0
ARC
  5
16D
330
1F
100
AcDbEntity
  8
0
  6
Continuous
 62
     8
370
    25
100
AcDbCircle
 10
135.5627097736
 20
128.6315561963
 30
0.0
 40
27.74252533988581
100
AcDbArc
 50
211.8220106369
 51
249.9747285952
  0
ARC
  5
16E
330
1F
100
AcDbEntity
  8
0
  6
Continuous
 62
     8
370
    25
100
AcDbCircle
 10
135.5627097736
 20
128.6315561963
 30
0.0
 40
27.74252533988581
100
AcDbArc
 50
290.0252714048
 51
328.1779893631
  0
ARC
  5
16F
330
1F
100
AcDbEntity
  8
0
  6
Continuous
 62
     8
370
    25
100
AcDbCircle
 10
135.5627097736
 20
128.6315561963
 30
0.0
 40
27.74252533988578
100
AcDbArc
 50
31.8220106369
 51
148.1779893631
  0
ARC
  5
170
330
1F
100
AcDbEntity
  8
0
  6
Continuous
 62
     8
370
    25
100
AcDbCircle
 10
135.5627097736
 20
128.6315561963
 30
0.0
 40
14.60000000000002
100
AcDbArc
 50
193.5230734136
 51
229.4067373011
  0
ARC
  5
171
330
1F
100
AcDbEntity
  8
0
  6
Continuous
 62
     8
370
    25
100
AcDbCircle
 10
135.5627097736
 20
128.6315561963
 30
0.0
 40
14.60000000000001
100
AcDbArc
 50
310.5932626989
 51
193.5230734136
  0
ARC
  5
172
330
1F
100
AcDbEntity
  8
0
  6
Continuous
 62
     8
370
    25
100
AcDbCircle
 10
135.5609307271
 20
-127.7890519815
 30
0.0
 40
10.17701616139616
100
AcDbArc
 50
233.711785154
 51
359.6088820936
  0
ARC
  5
173
330
1F
100
AcDbEntity
  8
0
  6
Continuous
 62
     8
370
    25
100
AcDbCircle
 10
135.4578653468
 20
-127.8460890176
 30
0.0
 40
10.07016324927165
100
AcDbArc
 50
180.0707437468
 51
233.9923924003
  0
LWPOLYLINE
  5
174
330
1F
100
AcDbEntity
  8
0
  6
Continuous
 62
     8
370
    25
100
AcDbPolyline
 90
       18
 70
   128
 43
0.0
 10
145.0627097736
 20
-90.6545674043
 10
144.8801699374
 20
-90.4204837787
 10
144.3395653324
 20
-90.1953958554
 10
143.4616710905
 20
-89.9879536373
 10
142.2802241949
 20
-89.8061290125
 10
140.8406269873
 20
-89.6569093992
 10
139.1982023811
 20
-89.5460292235
 10
137.4160678327
 20
-89.4777495485
 10
135.5627097736
 20
-89.4546943237
 10
133.7093517144
 20
-89.4777495485
 10
131.9272171661
 20
-89.5460292235
 10
130.2847925599
 20
-89.6569093992
 10
128.8451953523
 20
-89.8061290125
 10
127.6637484567
 20
-89.9879536373
 10
126.7858542147
 20
-90.1953958554
 10
126.2452496098
 20
-90.4204837787
 10
126.0627097736
 20
-90.6545674043
 10
126.0627097736
 20
-90.6545674043
  0
ARC
  5
175
330
1F
100
AcDbEntity
  8
0
  6
Continuous
 62
     8
370
    25
100
AcDbCircle
 10
135.5627097736
 20
-124.7054184652
 30
0.0
 40
9.50017173365097
100
AcDbArc
 50
180.3445087508
 51
359.6554912492
  0
LWPOLYLINE
  5
176
330
1F
100
AcDbEntity
  8
0
  6
Continuous
 62
     8
370
    25
100
AcDbPolyline
 90
       18
 70
   128
 43
0.0
 10
145.0627097736
 20
101.9837802972
 10
144.8801699374
 20
102.2178639229
 10
144.3395653324
 20
102.4429518461
 10
143.4616710905
 20
102.6503940642
 10
142.2802241949
 20
102.8322186891
 10
140.8406269873
 20
102.9814383024
 10
139.1982023811
 20
103.092318478
 10
137.4160678327
 20
103.1605981531
 10
135.5627097736
 20
103.1836533779
 10
133.7093517144
 20
103.1605981531
 10
131.9272171661
 20
103.092318478
 10
130.2847925599
 20
102.9814383024
 10
128.8451953523
 20
102.8322186891
 10
127.6637484567
 20
102.6503940642
 10
126.7858542147
 20
102.4429518461
 10
126.2452496098
 20
102.2178639229
 10
126.0627097736
 20
101.9837802972
 10
126.0627097736
 20
101.9837802972
  0
ENDSEC
  0
SECTION
  2
OBJECTS
  0
DICTIONARY
  5
C
330
0
100
AcDbDictionary
281
     1
  3
ACAD_GROUP
350
D
  3
ACAD_LAYOUT
350
1A
  3
ACAD_MLINESTYLE
350
17
  3
ACAD_PLOTSETTINGS
350
19
  3
ACAD_PLOTSTYLENAME
350
E
  3
ACAD_SCALELIST
350
47
  3
DWGPROPS
350
177
  0
DICTIONARY
  5
D
102
{ACAD_REACTORS
330
C
102
}
330
C
100
AcDbDictionary
281
     1
  0
DICTIONARY
  5
1A
102
{ACAD_REACTORS
330
C
102
}
330
C
100
AcDbDictionary
281
     1
  3
Layout1
350
1E
  3
Layout2
350
26
  3
Model
350
22
  0
DICTIONARY
  5
17
102
{ACAD_REACTORS
330
C
102
}
330
C
100
AcDbDictionary
281
     1
  3
Standard
350
18
  0
DICTIONARY
  5
19
102
{ACAD_REACTORS
330
C
102
}
330
C
100
AcDbDictionary
281
     1
  0
ACDBDICTIONARYWDFLT
  5
E
102
{ACAD_REACTORS
330
C
102
}
330
C
100
AcDbDictionary
281
     1
  3
Normal
350
F
100
AcDbDictionaryWithDefault
340
F
  0
DICTIONARY
  5
47
102
{ACAD_REACTORS
330
C
102
}
330
C
100
AcDbDictionary
281
     1
  3
A0
350
48
  3
A1
350
49
  3
A2
350
4A
  3
A3
350
4B
  3
A4
350
4C
  3
A5
350
4D
  3
A6
350
4E
  3
A7
350
4F
  3
A8
350
50
  3
A9
350
51
  3
B0
350
52
  3
B1
350
53
  3
B2
350
54
  3
B3
350
55
  3
B4
350
56
  3
B5
350
57
  3
B6
350
58
  3
B7
350
59
  3
B8
350
5A
  3
B9
350
5B
  3
C0
350
5C
  3
C1
350
5D
  3
C2
350
5E
  3
C3
350
5F
  3
C4
350
60
  3
C5
350
61
  3
C6
350
62
  3
C7
350
63
  3
C8
350
64
  3
C9
350
65
  3
D0
350
66
  3
D1
350
67
  3
D2
350
68
  0
XRECORD
  5
177
102
{ACAD_REACTORS
330
C
102
}
330
C
100
AcDbXrecord
280
     1
  1
DWGPROPS COOKIE
  2

  3

  4

  6

  7

  8
DS-1
  9

300
=
301
=
302
=
303
=
304
=
305
=
306
=
307
=
308
=
309
=
 40
0.0
 41
2460383.486534248
 42
2460383.486534629
  1

 90
        0
  0
LAYOUT
  5
1E
102
{ACAD_REACTORS
330
1A
102
}
330
1A
100
AcDbPlotSettings
  1

  2
none_device
  4

  6

 40
0.0
 41
0.0
 42
0.0
 43
0.0
 44
0.0
 45
0.0
 46
0.0
 47
0.0
 48
0.0
 49
0.0
140
0.0
141
0.0
142
1.0
143
1.0
 70
   688
 72
     1
 73
     0
 74
     5
  7

 75
    16
147
1.0
148
0.0
149
0.0
100
AcDbLayout
  1
Layout1
 70
     1
 71
     1
 10
0.0
 20
0.0
 11
420.0
 21
297.0
 12
0.0
 22
0.0
 32
0.0
 14
1.0000000000E+20
 24
1.0000000000E+20
 34
1.0000000000E+20
 15
-1.0000000000E+20
 25
-1.0000000000E+20
 35
-1.0000000000E+20
146
0.0
 13
0.0
 23
0.0
 33
0.0
 16
1.0
 26
0.0
 36
0.0
 17
0.0
 27
1.0
 37
0.0
 76
     0
330
1B
  0
LAYOUT
  5
26
102
{ACAD_REACTORS
330
1A
102
}
330
1A
100
AcDbPlotSettings
  1

  2
none_device
  4

  6

 40
0.0
 41
0.0
 42
0.0
 43
0.0
 44
0.0
 45
0.0
 46
0.0
 47
0.0
 48
0.0
 49
0.0
140
0.0
141
0.0
142
1.0
143
1.0
 70
   688
 72
     1
 73
     0
 74
     5
  7

 75
    16
147
1.0
148
0.0
149
0.0
100
AcDbLayout
  1
Layout2
 70
     1
 71
     2
 10
0.0
 20
0.0
 11
0.0
 21
0.0
 12
0.0
 22
0.0
 32
0.0
 14
0.0
 24
0.0
 34
0.0
 15
0.0
 25
0.0
 35
0.0
146
0.0
 13
0.0
 23
0.0
 33
0.0
 16
1.0
 26
0.0
 36
0.0
 17
0.0
 27
1.0
 37
0.0
 76
     0
330
23
  0
LAYOUT
  5
22
102
{ACAD_REACTORS
330
1A
102
}
330
1A
100
AcDbPlotSettings
  1

  2
none_device
  4
Letter_(8.50_x_11.00_Inches)
  6

 40
6.35
 41
6.35
 42
6.35000508
 43
6.35000508
 44
215.9
 45
279.4
 46
0.0
 47
0.0
 48
0.0
 49
0.0
140
0.0
141
0.0
142
1.0
143
1.0
 70
  1712
 72
     1
 73
     0
 74
     0
  7

 75
     0
147
1.0
148
0.0
149
0.0
100
AcDbLayout
  1
Model
 70
     1
 71
     0
 10
0.0
 20
0.0
 11
279.4
 21
215.9
 12
0.0
 22
0.0
 32
0.0
 14
0.0
 24
0.0
 34
0.0
 15
279.4
 25
215.9
 35
0.0
146
0.0
 13
0.0
 23
0.0
 33
0.0
 16
1.0
 26
0.0
 36
0.0
 17
0.0
 27
1.0
 37
0.0
 76
     0
330
1F
331
29
  0
MLINESTYLE
  5
18
102
{ACAD_REACTORS
330
17
102
}
330
17
100
AcDbMlineStyle
  2
Standard
 70
     0
  3

 62
   256
 51
90.0
 52
90.0
 71
     2
 49
0.5
 62
   256
  6
BYLAYER
 49
-0.5
 62
   256
  6
BYLAYER
  0
ACDBPLACEHOLDER
  5
F
102
{ACAD_REACTORS
330
E
102
}
330
E
  0
SCALE
  5
48
102
{ACAD_REACTORS
330
47
102
}
330
47
100
AcDbScale
 70
     0
300
1:1
140
1.0
141
1.0
290
     1
  0
SCALE
  5
49
102
{ACAD_REACTORS
330
47
102
}
330
47
100
AcDbScale
 70
     0
300
1:2
140
1.0
141
2.0
290
     0
  0
SCALE
  5
4A
102
{ACAD_REACTORS
330
47
102
}
330
47
100
AcDbScale
 70
     0
300
1:4
140
1.0
141
4.0
290
     0
  0
SCALE
  5
4B
102
{ACAD_REACTORS
330
47
102
}
330
47
100
AcDbScale
 70
     0
300
1:5
140
1.0
141
5.0
290
     0
  0
SCALE
  5
4C
102
{ACAD_REACTORS
330
47
102
}
330
47
100
AcDbScale
 70
     0
300
1:8
140
1.0
141
8.0
290
     0
  0
SCALE
  5
4D
102
{ACAD_REACTORS
330
47
102
}
330
47
100
AcDbScale
 70
     0
300
1:10
140
1.0
141
10.0
290
     0
  0
SCALE
  5
4E
102
{ACAD_REACTORS
330
47
102
}
330
47
100
AcDbScale
 70
     0
300
1:16
140
1.0
141
16.0
290
     0
  0
SCALE
  5
4F
102
{ACAD_REACTORS
330
47
102
}
330
47
100
AcDbScale
 70
     0
300
1:20
140
1.0
141
20.0
290
     0
  0
SCALE
  5
50
102
{ACAD_REACTORS
330
47
102
}
330
47
100
AcDbScale
 70
     0
300
1:30
140
1.0
141
30.0
290
     0
  0
SCALE
  5
51
102
{ACAD_REACTORS
330
47
102
}
330
47
100
AcDbScale
 70
     0
300
1:40
140
1.0
141
40.0
290
     0
  0
SCALE
  5
52
102
{ACAD_REACTORS
330
47
102
}
330
47
100
AcDbScale
 70
     0
300
1:50
140
1.0
141
50.0
290
     0
  0
SCALE
  5
53
102
{ACAD_REACTORS
330
47
102
}
330
47
100
AcDbScale
 70
     0
300
1:100
140
1.0
141
100.0
290
     0
  0
SCALE
  5
54
102
{ACAD_REACTORS
330
47
102
}
330
47
100
AcDbScale
 70
     0
300
2:1
140
2.0
141
1.0
290
     0
  0
SCALE
  5
55
102
{ACAD_REACTORS
330
47
102
}
330
47
100
AcDbScale
 70
     0
300
4:1
140
4.0
141
1.0
290
     0
  0
SCALE
  5
56
102
{ACAD_REACTORS
330
47
102
}
330
47
100
AcDbScale
 70
     0
300
8:1
140
8.0
141
1.0
290
     0
  0
SCALE
  5
57
102
{ACAD_REACTORS
330
47
102
}
330
47
100
AcDbScale
 70
     0
300
10:1
140
10.0
141
1.0
290
     0
  0
SCALE
  5
58
102
{ACAD_REACTORS
330
47
102
}
330
47
100
AcDbScale
 70
     0
300
100:1
140
100.0
141
1.0
290
     0
  0
SCALE
  5
59
102
{ACAD_REACTORS
330
47
102
}
330
47
100
AcDbScale
 70
     0
300
1/128" = 1'-0"
140
0.0078125
141
12.0
290
     0
  0
SCALE
  5
5A
102
{ACAD_REACTORS
330
47
102
}
330
47
100
AcDbScale
 70
     0
300
1/64" = 1'-0"
140
0.015625
141
12.0
290
     0
  0
SCALE
  5
5B
102
{ACAD_REACTORS
330
47
102
}
330
47
100
AcDbScale
 70
     0
300
1/32" = 1'-0"
140
0.03125
141
12.0
290
     0
  0
SCALE
  5
5C
102
{ACAD_REACTORS
330
47
102
}
330
47
100
AcDbScale
 70
     0
300
1/16" = 1'-0"
140
0.0625
141
12.0
290
     0
  0
SCALE
  5
5D
102
{ACAD_REACTORS
330
47
102
}
330
47
100
AcDbScale
 70
     0
300
3/32" = 1'-0"
140
0.09375
141
12.0
290
     0
  0
SCALE
  5
5E
102
{ACAD_REACTORS
330
47
102
}
330
47
100
AcDbScale
 70
     0
300
1/8" = 1'-0"
140
0.125
141
12.0
290
     0
  0
SCALE
  5
5F
102
{ACAD_REACTORS
330
47
102
}
330
47
100
AcDbScale
 70
     0
300
3/16" = 1'-0"
140
0.1875
141
12.0
290
     0
  0
SCALE
  5
60
102
{ACAD_REACTORS
330
47
102
}
330
47
100
AcDbScale
 70
     0
300
1/4" = 1'-0"
140
0.25
141
12.0
290
     0
  0
SCALE
  5
61
102
{ACAD_REACTORS
330
47
102
}
330
47
100
AcDbScale
 70
     0
300
3/8" = 1'-0"
140
0.375
141
12.0
290
     0
  0
SCALE
  5
62
102
{ACAD_REACTORS
330
47
102
}
330
47
100
AcDbScale
 70
     0
300
1/2" = 1'-0"
140
0.5
141
12.0
290
     0
  0
SCALE
  5
63
102
{ACAD_REACTORS
330
47
102
}
330
47
100
AcDbScale
 70
     0
300
3/4" = 1'-0"
140
0.75
141
12.0
290
     0
  0
SCALE
  5
64
102
{ACAD_REACTORS
330
47
102
}
330
47
100
AcDbScale
 70
     0
300
1" = 1'-0"
140
1.0
141
12.0
290
     0
  0
SCALE
  5
65
102
{ACAD_REACTORS
330
47
102
}
330
47
100
AcDbScale
 70
     0
300
1-1/2" = 1'-0"
140
1.5
141
12.0
290
     0
  0
SCALE
  5
66
102
{ACAD_REACTORS
330
47
102
}
330
47
100
AcDbScale
 70
     0
300
3" = 1'-0"
140
3.0
141
12.0
290
     0
  0
SCALE
  5
67
102
{ACAD_REACTORS
330
47
102
}
330
47
100
AcDbScale
 70
     0
300
6" = 1'-0"
140
6.0
141
12.0
290
     0
  0
SCALE
  5
68
102
{ACAD_REACTORS
330
47
102
}
330
47
100
AcDbScale
 70
     0
300
1'-0" = 1'-0"
140
12.0
141
12.0
290
     0
  0
ENDSEC
  0
EOF
