  0
SECTION
  2
HEADER
  9
$ACADVER
  1
AC1015
  9
$ACADMAINTVER
 70
     6
  9
$DWGCODEPAGE
  3
ANSI_1252
  9
$INSBASE
 10
0.0
 20
0.0
 30
0.0
  9
$EXTMIN
 10
0.0
 20
0.0
 30
0.0
  9
$EXTMAX
 10
279.4
 20
215.9
 30
0.0
  9
$LIMMIN
 10
0.0
 20
0.0
  9
$LIMMAX
 10
279.4
 20
215.9
  9
$ORTHOMODE
 70
     0
  9
$REGENMODE
 70
     1
  9
$FILLMODE
 70
     1
  9
$QTEXTMODE
 70
     0
  9
$MIRRTEXT
 70
     1
  9
$LTSCALE
 40
1.0
  9
$ATTMODE
 70
     1
  9
$TEXTSIZE
 40
3.5
  9
$TRACEWID
 40
1.0
  9
$TEXTSTYLE
  7
Standard
  9
$CLAYER
  8
0
  9
$CELTYPE
  6
ByLayer
  9
$CECOLOR
 62
   256
  9
$CELTSCALE
 40
1.0
  9
$DISPSILH
 70
     0
  9
$DIMSCALE
 40
1.0
  9
$DIMASZ
 40
3.302
  9
$DIMEXO
 40
1.0
  9
$DIMDLI
 40
3.75
  9
$DIMRND
 40
0.0
  9
$DIMDLE
 40
0.0
  9
$DIMEXE
 40
1.0
  9
$DIMTP
 40
0.0
  9
$DIMTM
 40
0.0
  9
$DIMTXT
 40
3.5
  9
$DIMCEN
 40
2.5
  9
$DIMTSZ
 40
0.0
  9
$DIMTOL
 70
     0
  9
$DIMLIM
 70
     0
  9
$DIMTIH
 70
     1
  9
$DIMTOH
 70
     1
  9
$DIMSE1
 70
     0
  9
$DIMSE2
 70
     0
  9
$DIMTAD
 70
     1
  9
$DIMZIN
 70
     1
  9
$DIMBLK
  1

  9
$DIMASO
 70
     1
  9
$DIMSHO
 70
     1
  9
$DIMPOST
  1

  9
$DIMAPOST
  1

  9
$DIMALT
 70
     0
  9
$DIMALTD
 70
     3
  9
$DIMALTF
 40
0.0393700787
  9
$DIMLFAC
 40
2.0
  9
$DIMTOFL
 70
     1
  9
$DIMTVP
 40
0.0
  9
$DIMTIX
 70
     0
  9
$DIMSOXD
 70
     0
  9
$DIMSAH
 70
     0
  9
$DIMBLK1
  1

  9
$DIMBLK2
  1

  9
$DIMSTYLE
  2
ISO-25
  9
$DIMCLRD
 70
     0
  9
$DIMCLRE
 70
     0
  9
$DIMCLRT
 70
     0
  9
$DIMTFAC
 40
1.0
  9
$DIMGAP
 40
1.524
  9
$DIMJUST
 70
     0
  9
$DIMSD1
 70
     0
  9
$DIMSD2
 70
     0
  9
$DIMTOLJ
 70
     0
  9
$DIMTZIN
 70
     1
  9
$DIMALTZ
 70
     0
  9
$DIMALTTZ
 70
     0
  9
$DIMUPT
 70
     0
  9
$DIMDEC
 70
     2
  9
$DIMTDEC
 70
     2
  9
$DIMALTU
 70
     2
  9
$DIMALTTD
 70
     3
  9
$DIMTXSTY
  7
Standard
  9
$DIMAUNIT
 70
     0
  9
$DIMADEC
 70
     2
  9
$DIMALTRND
 40
0.0
  9
$DIMAZIN
 70
     0
  9
$DIMDSEP
 70
    44
  9
$DIMATFIT
 70
     3
  9
$DIMFRAC
 70
     0
  9
$DIMLDRBLK
  1

  9
$DIMLUNIT
 70
     2
  9
$DIMLWD
 70
    -2
  9
$DIMLWE
 70
    -2
  9
$DIMTMOVE
 70
     0
  9
$LUNITS
 70
     2
  9
$LUPREC
 70
     2
  9
$SKETCHINC
 40
1.0
  9
$FILLETRAD
 40
10.0
  9
$AUNITS
 70
     0
  9
$AUPREC
 70
     2
  9
$MENU
  1
.
  9
$ELEVATION
 40
0.0
  9
$PELEVATION
 40
0.0
  9
$THICKNESS
 40
0.0
  9
$LIMCHECK
 70
     0
  9
$CHAMFERA
 40
0.0
  9
$CHAMFERB
 40
0.0
  9
$CHAMFERC
 40
0.0
  9
$CHAMFERD
 40
0.0
  9
$SKPOLY
 70
     0
  9
$TDCREATE
 40
2460383.711777639
  9
$TDUCREATE
 40
2460383.482610972
  9
$TDUPDATE
 40
2460383.711778229
  9
$TDUUPDATE
 40
2460383.482611563
  9
$TDINDWG
 40
0.0000000116
  9
$TDUSRTIMER
 40
0.0000000116
  9
$USRTIMER
 70
     1
  9
$ANGBASE
 50
0.0
  9
$ANGDIR
 70
     0
  9
$PDMODE
 70
     0
  9
$PDSIZE
 40
-1.0
  9
$PLINEWID
 40
0.0
  9
$SPLFRAME
 70
     0
  9
$SPLINETYPE
 70
     6
  9
$SPLINESEGS
 70
     8
  9
$HANDSEED
  5
F8
  9
$SURFTAB1
 70
     6
  9
$SURFTAB2
 70
     6
  9
$SURFTYPE
 70
     6
  9
$SURFU
 70
     6
  9
$SURFV
 70
     6
  9
$UCSBASE
  2

  9
$UCSNAME
  2

  9
$UCSORG
 10
0.0
 20
0.0
 30
0.0
  9
$UCSXDIR
 10
1.0
 20
0.0
 30
0.0
  9
$UCSYDIR
 10
0.0
 20
1.0
 30
0.0
  9
$UCSORTHOREF
  2

  9
$UCSORTHOVIEW
 70
     0
  9
$UCSORGTOP
 10
0.0
 20
0.0
 30
0.0
  9
$UCSORGBOTTOM
 10
0.0
 20
0.0
 30
0.0
  9
$UCSORGLEFT
 10
0.0
 20
0.0
 30
0.0
  9
$UCSORGRIGHT
 10
0.0
 20
0.0
 30
0.0
  9
$UCSORGFRONT
 10
0.0
 20
0.0
 30
0.0
  9
$UCSORGBACK
 10
0.0
 20
0.0
 30
0.0
  9
$PUCSBASE
  2

  9
$PUCSNAME
  2

  9
$PUCSORG
 10
0.0
 20
0.0
 30
0.0
  9
$PUCSXDIR
 10
1.0
 20
0.0
 30
0.0
  9
$PUCSYDIR
 10
0.0
 20
1.0
 30
0.0
  9
$PUCSORTHOREF
  2

  9
$PUCSORTHOVIEW
 70
     0
  9
$PUCSORGTOP
 10
0.0
 20
0.0
 30
0.0
  9
$PUCSORGBOTTOM
 10
0.0
 20
0.0
 30
0.0
  9
$PUCSORGLEFT
 10
0.0
 20
0.0
 30
0.0
  9
$PUCSORGRIGHT
 10
0.0
 20
0.0
 30
0.0
  9
$PUCSORGFRONT
 10
0.0
 20
0.0
 30
0.0
  9
$PUCSORGBACK
 10
0.0
 20
0.0
 30
0.0
  9
$USERI1
 70
     0
  9
$USERI2
 70
     0
  9
$USERI3
 70
     0
  9
$USERI4
 70
     0
  9
$USERI5
 70
     0
  9
$USERR1
 40
0.0
  9
$USERR2
 40
0.0
  9
$USERR3
 40
0.0
  9
$USERR4
 40
0.0
  9
$USERR5
 40
0.0
  9
$WORLDVIEW
 70
     1
  9
$SHADEDGE
 70
     3
  9
$SHADEDIF
 70
    70
  9
$TILEMODE
 70
     1
  9
$MAXACTVP
 70
    64
  9
$PINSBASE
 10
0.0
 20
0.0
 30
0.0
  9
$PLIMCHECK
 70
     0
  9
$PEXTMIN
 10
1.0000000000E+20
 20
1.0000000000E+20
 30
1.0000000000E+20
  9
$PEXTMAX
 10
-1.0000000000E+20
 20
-1.0000000000E+20
 30
-1.0000000000E+20
  9
$PLIMMIN
 10
0.0
 20
0.0
  9
$PLIMMAX
 10
420.0
 20
297.0
  9
$UNITMODE
 70
     0
  9
$VISRETAIN
 70
     1
  9
$PLINEGEN
 70
     0
  9
$PSLTSCALE
 70
     1
  9
$TREEDEPTH
 70
  3020
  9
$CMLSTYLE
  2
Standard
  9
$CMLJUST
 70
     0
  9
$CMLSCALE
 40
20.0
  9
$PROXYGRAPHICS
 70
     1
  9
$MEASUREMENT
 70
     1
  9
$CELWEIGHT
370
    -1
  9
$ENDCAPS
280
     0
  9
$JOINSTYLE
280
     0
  9
$LWDISPLAY
290
     1
  9
$INSUNITS
 70
     4
  9
$HYPERLINKBASE
  1

  9
$STYLESHEET
  1

  9
$XEDIT
290
     1
  9
$CEPSNTYPE
380
     0
  9
$PSTYLEMODE
290
     1
  9
$FINGERPRINTGUID
  2
{ec31f0a8-e402-44ce-b89f-6b1580db3f58}
  9
$VERSIONGUID
  2
{FAEB1C32-E019-11D5-929B-00C0DF256EC4}
  9
$EXTNAMES
290
     1
  9
$PSVPSCALE
 40
0.0
  9
$OLESTARTUP
290
     0
  0
ENDSEC
  0
SECTION
  2
CLASSES
  0
CLASS
  1
ACDBDICTIONARYWDFLT
  2
AcDbDictionaryWithDefault
  3
ObjectDBX Classes
 90
        0
280
     0
281
     0
  0
CLASS
  1
VISUALSTYLE
  2
AcDbVisualStyle
  3
ObjectDBX Classes
 90
     4095
280
     0
281
     0
  0
CLASS
  1
MATERIAL
  2
AcDbMaterial
  3
ObjectDBX Classes
 90
     1153
280
     0
281
     0
  0
CLASS
  1
SCALE
  2
AcDbScale
  3
ObjectDBX Classes
 90
     1153
280
     0
281
     0
  0
CLASS
  1
TABLESTYLE
  2
AcDbTableStyle
  3
ObjectDBX Classes
 90
     4095
280
     0
281
     0
  0
CLASS
  1
MLEADERSTYLE
  2
AcDbMLeaderStyle
  3
ACDB_MLEADERSTYLE_CLASS
 90
     4095
280
     0
281
     0
  0
CLASS
  1
SUN
  2
AcDbSun
  3
SCENEOE
 90
     1153
280
     0
281
     0
  0
CLASS
  1
ACDBPLACEHOLDER
  2
AcDbPlaceHolder
  3
ObjectDBX Classes
 90
        0
280
     0
281
     0
  0
CLASS
  1
LAYOUT
  2
AcDbLayout
  3
ObjectDBX Classes
 90
        0
280
     0
281
     0
  0
ENDSEC
  0
SECTION
  2
TABLES
  0
TABLE
  2
VPORT
  5
8
330
0
100
AcDbSymbolTable
 70
     1
  0
VPORT
  5
29
330
8
100
AcDbSymbolTableRecord
100
AcDbViewportTableRecord
  2
*Active
 70
     0
 10
0.0
 20
0.0
 11
1.0
 21
1.0
 12
139.7
 22
107.95
 13
0.0
 23
0.0
 14
10.0
 24
10.0
 15
10.0
 25
10.0
 16
0.0
 26
0.0
 36
1.0
 17
0.0
 27
0.0
 37
0.0
 40
215.9
 41
1.2941176471
 42
50.0
 43
0.0
 44
0.0
 50
0.0
 51
0.0
 71
     0
 72
  2000
 73
     1
 74
     3
 75
     0
 76
     0
 77
     0
 78
     0
281
     0
 65
     1
110
0.0
120
0.0
130
0.0
111
1.0
121
0.0
131
0.0
112
0.0
122
1.0
132
0.0
 79
     0
146
0.0
  0
ENDTAB
  0
TABLE
  2
LTYPE
  5
5
330
0
100
AcDbSymbolTable
 70
     6
  0
LTYPE
  5
14
330
5
100
AcDbSymbolTableRecord
100
AcDbLinetypeTableRecord
  2
ByBlock
 70
     0
  3

 72
    65
 73
     0
 40
0.0
  0
LTYPE
  5
15
330
5
100
AcDbSymbolTableRecord
100
AcDbLinetypeTableRecord
  2
ByLayer
 70
     0
  3

 72
    65
 73
     0
 40
0.0
  0
LTYPE
  5
16
330
5
100
AcDbSymbolTableRecord
100
AcDbLinetypeTableRecord
  2
Continuous
 70
     0
  3
Solid line
 72
    65
 73
     0
 40
0.0
  0
LTYPE
  5
6E
330
5
100
AcDbSymbolTableRecord
100
AcDbLinetypeTableRecord
  2
HIDDEN
 70
     0
  3
Hidden __ __ __ __ __ __ __ __ __ __ __ __ __ __
 72
    65
 73
     2
 40
1.905
 49
1.27
 74
     0
 49
-0.635
 74
     0
  0
LTYPE
  5
6F
330
5
100
AcDbSymbolTableRecord
100
AcDbLinetypeTableRecord
  2
PHANTOM
 70
     0
  3
Phantom ______  __  __  ______  __  __  ______
 72
    65
 73
     6
 40
12.7
 49
6.35
 74
     0
 49
-1.27
 74
     0
 49
1.27
 74
     0
 49
-1.27
 74
     0
 49
1.27
 74
     0
 49
-1.27
 74
     0
  0
LTYPE
  5
70
330
5
100
AcDbSymbolTableRecord
100
AcDbLinetypeTableRecord
  2
CENTER
 70
     0
  3
Center ____ _ ____ _ ____ _ ____ _ ____ _ ____
 72
    65
 73
     4
 40
10.16
 49
6.35
 74
     0
 49
-1.27
 74
     0
 49
1.27
 74
     0
 49
-1.27
 74
     0
  0
LTYPE
  5
71
330
5
100
AcDbSymbolTableRecord
100
AcDbLinetypeTableRecord
  2
CENTERX2
 70
     0
  3
Center (2x) ________  __  ________  __  _____
 72
    65
 73
     4
 40
20.32
 49
12.7
 74
     0
 49
-2.54
 74
     0
 49
2.54
 74
     0
 49
-2.54
 74
     0
  0
LTYPE
  5
72
330
5
100
AcDbSymbolTableRecord
100
AcDbLinetypeTableRecord
  2
DOT2
 70
     0
  3
Dot (.5x) ........................................
 72
    65
 73
     2
 40
0.635
 49
0.0
 74
     0
 49
-0.635
 74
     0
  0
ENDTAB
  0
TABLE
  2
LAYER
  5
2
330
0
100
AcDbSymbolTable
 70
     5
  0
LAYER
  5
10
330
2
100
AcDbSymbolTableRecord
100
AcDbLayerTableRecord
  2
0
 70
     0
 62
     7
  6
Continuous
370
    -3
390
F
  0
LAYER
  5
73
330
2
100
AcDbSymbolTableRecord
100
AcDbLayerTableRecord
  2
FORMAT
 70
     0
 62
     7
  6
Continuous
370
    -3
390
F
  0
LAYER
  5
74
330
2
100
AcDbSymbolTableRecord
100
AcDbLayerTableRecord
  2
OUT_LINE
 70
     0
 62
     7
  6
Continuous
370
    50
390
F
  0
LAYER
  5
75
330
2
100
AcDbSymbolTableRecord
100
AcDbLayerTableRecord
  2
WATERMARK
 70
     0
 62
   254
  6
Continuous
370
    -3
390
F
  0
LAYER
  5
76
330
2
100
AcDbSymbolTableRecord
100
AcDbLayerTableRecord
  2
LAYER3
 70
     0
 62
     7
  6
Continuous
370
    35
390
F
  0
ENDTAB
  0
TABLE
  2
STYLE
  5
3
330
0
100
AcDbSymbolTable
 70
     1
  0
STYLE
  5
11
330
3
100
AcDbSymbolTableRecord
100
AcDbTextStyleTableRecord
  2
Standard
 70
     0
 40
0.0
 41
1.0
 50
0.0
 71
     0
 42
3.5
  3
txt
  4

  0
ENDTAB
  0
TABLE
  2
VIEW
  5
6
330
0
100
AcDbSymbolTable
 70
     0
  0
ENDTAB
  0
TABLE
  2
UCS
  5
7
330
0
100
AcDbSymbolTable
 70
     0
  0
ENDTAB
  0
TABLE
  2
APPID
  5
9
330
0
100
AcDbSymbolTable
 70
     1
  0
APPID
  5
12
330
9
100
AcDbSymbolTableRecord
100
AcDbRegAppTableRecord
  2
ACAD
 70
     0
  0
ENDTAB
  0
TABLE
  2
DIMSTYLE
  5
A
330
0
100
AcDbSymbolTable
 70
     1
100
AcDbDimStyleTable
  0
DIMSTYLE
105
27
330
A
100
AcDbSymbolTableRecord
100
AcDbDimStyleTableRecord
  2
ISO-25
 70
     0
 41
2.5
 42
0.625
 43
3.75
 44
1.25
 73
     0
 74
     0
 77
     1
 78
     8
140
2.5
141
2.5
143
0.0393700787
147
0.625
171
     3
172
     1
178
     0
271
     2
272
     2
274
     3
278
    44
283
     0
284
     8
340
11
  0
ENDTAB
  0
TABLE
  2
BLOCK_RECORD
  5
1
330
0
100
AcDbSymbolTable
 70
     4
  0
BLOCK_RECORD
  5
1F
330
1
100
AcDbSymbolTableRecord
100
AcDbBlockTableRecord
  2
*Model_Space
340
22
  0
BLOCK_RECORD
  5
1B
330
1
100
AcDbSymbolTableRecord
100
AcDbBlockTableRecord
  2
*Paper_Space
340
1E
  0
BLOCK_RECORD
  5
23
330
1
100
AcDbSymbolTableRecord
100
AcDbBlockTableRecord
  2
*Paper_Space0
340
26
  0
BLOCK_RECORD
  5
77
330
1
100
AcDbSymbolTableRecord
100
AcDbBlockTableRecord
  2
Block5
340
0
  0
BLOCK_RECORD
  5
85
330
1
100
AcDbSymbolTableRecord
100
AcDbBlockTableRecord
  2
Block2
340
0
  0
BLOCK_RECORD
  5
90
330
1
100
AcDbSymbolTableRecord
100
AcDbBlockTableRecord
  2
Block7
340
0
  0
ENDTAB
  0
ENDSEC
  0
SECTION
  2
BLOCKS
  0
BLOCK
  5
20
330
1F
100
AcDbEntity
  8
0
100
AcDbBlockBegin
  2
*Model_Space
 70
     0
 10
0.0
 20
0.0
 30
0.0
  3
*Model_Space
  1

  0
ENDBLK
  5
21
330
1F
100
AcDbEntity
  8
0
100
AcDbBlockEnd
  0
BLOCK
  5
1C
330
1B
100
AcDbEntity
 67
     1
  8
0
100
AcDbBlockBegin
  2
*Paper_Space
 70
     0
 10
0.0
 20
0.0
 30
0.0
  3
*Paper_Space
  1

  0
ENDBLK
  5
1D
330
1B
100
AcDbEntity
 67
     1
  8
0
100
AcDbBlockEnd
  0
BLOCK
  5
24
330
23
100
AcDbEntity
  8
0
100
AcDbBlockBegin
  2
*Paper_Space0
 70
     0
 10
0.0
 20
0.0
 30
0.0
  3
*Paper_Space0
  1

  0
ENDBLK
  5
25
330
23
100
AcDbEntity
  8
0
100
AcDbBlockEnd
  0
BLOCK
  5
78
330
77
100
AcDbEntity
  8
0
100
AcDbBlockBegin
  2
Block5
 70
     0
 10
0.0
 20
0.0
 30
0.0
  3
Block5
  1

  0
LINE
  5
7A
330
77
100
AcDbEntity
  8
LAYER3
100
AcDbLine
 10
251.0883122991
 20
64.4632252413
 30
0.0
 11
250.3611798328
 21
64.9733337839
 31
0.0
  0
LINE
  5
7B
330
77
100
AcDbEntity
  8
LAYER3
100
AcDbLine
 10
250.3611798328
 20
64.9733337839
 30
0.0
 11
251.0883122991
 21
65.4834423266
 31
0.0
  0
LINE
  5
7C
330
77
100
AcDbEntity
  8
LAYER3
100
AcDbLine
 10
250.3611798328
 20
65.6106440044
 30
0.0
 11
250.3611798328
 21
64.3360235634
 31
0.0
  0
LINE
  5
7D
330
77
100
AcDbEntity
  8
LAYER3
100
AcDbLine
 10
251.0883122991
 20
65.4834423266
 30
0.0
 11
251.0883122991
 21
64.4632252413
 31
0.0
  0
LINE
  5
7E
330
77
100
AcDbEntity
  8
LAYER3
  6
Continuous
 62
     7
370
    18
100
AcDbLine
 10
254.0738326611
 20
65.4834423266
 30
0.0
 11
254.0738326611
 21
64.4632252413
 31
0.0
  0
LINE
  5
7F
330
77
100
AcDbEntity
  8
LAYER3
100
AcDbLine
 10
251.0883122991
 20
64.9733337839
 30
0.0
 11
254.0738326611
 21
64.9733337839
 31
0.0
  0
LINE
  5
80
330
77
100
AcDbEntity
  8
LAYER3
100
AcDbLine
 10
254.0738326611
 20
64.9733337839
 30
0.0
 11
254.0738326611
 21
64.4632252413
 31
0.0
  0
LINE
  5
81
330
77
100
AcDbEntity
  8
LAYER3
100
AcDbLine
 10
254.0738326611
 20
65.4834423266
 30
0.0
 11
254.8009651274
 21
64.9733337839
 31
0.0
  0
LINE
  5
82
330
77
100
AcDbEntity
  8
LAYER3
100
AcDbLine
 10
254.8009651274
 20
64.9733337839
 30
0.0
 11
254.0738326611
 21
64.4632252413
 31
0.0
  0
LINE
  5
83
330
77
100
AcDbEntity
  8
LAYER3
100
AcDbLine
 10
254.0738326611
 20
65.4834423266
 30
0.0
 11
254.0738326611
 21
64.9733337839
 31
0.0
  0
LINE
  5
84
330
77
100
AcDbEntity
  8
LAYER3
100
AcDbLine
 10
254.8009651274
 20
65.6106440044
 30
0.0
 11
254.8009651274
 21
64.3360235634
 31
0.0
  0
ENDBLK
  5
79
330
77
100
AcDbEntity
  8
0
100
AcDbBlockEnd
  0
BLOCK
  5
86
330
85
100
AcDbEntity
  8
0
100
AcDbBlockBegin
  2
Block2
 70
     0
 10
0.0
 20
0.0
 30
0.0
  3
Block2
  1

  0
CIRCLE
  5
88
330
85
100
AcDbEntity
  8
FORMAT
100
AcDbCircle
 10
44.9757425281
 20
71.5551333392
 30
0.0
 40
3.500000000000012
  0
CIRCLE
  5
89
330
85
100
AcDbEntity
  8
FORMAT
100
AcDbCircle
 10
44.9757425281
 20
71.5551333392
 30
0.0
 40
1.664444312410222
  0
LINE
  5
8A
330
85
100
AcDbEntity
  8
FORMAT
100
AcDbLine
 10
50.8419693267
 20
74.6444962432
 30
0.0
 11
58.8419693267
 21
73.6204905773
 31
0.0
  0
LINE
  5
8B
330
85
100
AcDbEntity
  8
FORMAT
100
AcDbLine
 10
58.8419693267
 20
73.6204905773
 30
0.0
 11
58.8419693267
 21
69.4897761011
 31
0.0
  0
LINE
  5
8C
330
85
100
AcDbEntity
  8
FORMAT
100
AcDbLine
 10
58.8419693267
 20
69.4897761011
 30
0.0
 11
50.8419693267
 21
68.4657704351
 31
0.0
  0
LINE
  5
8D
330
85
100
AcDbEntity
  8
FORMAT
100
AcDbLine
 10
50.8419693267
 20
68.4657704351
 30
0.0
 11
50.8419693267
 21
74.6444962432
 31
0.0
  0
LINE
  5
8E
330
85
100
AcDbEntity
  8
FORMAT
  6
CENTERX2
100
AcDbLine
 10
58.8419693267
 20
71.5551333392
 30
0.0
 11
40.5246830005
 21
71.5551333392
 31
0.0
  0
LINE
  5
8F
330
85
100
AcDbEntity
  8
FORMAT
100
AcDbLine
 10
44.9757425281
 20
77.2283416432
 30
0.0
 11
44.9757425281
 21
65.8819250352
 31
0.0
  0
ENDBLK
  5
87
330
85
100
AcDbEntity
  8
0
100
AcDbBlockEnd
  0
BLOCK
  5
91
330
90
100
AcDbEntity
  8
0
100
AcDbBlockBegin
  2
Block7
 70
     0
 10
0.0
 20
0.0
 30
0.0
  3
Block7
  1

  0
LINE
  5
93
330
90
100
AcDbEntity
  8
FORMAT
100
AcDbLine
 10
221.8284763776
 20
80.2705155621
 30
0.0
 11
222.3963943455
 21
79.286852787
 31
0.0
  0
LINE
  5
94
330
90
100
AcDbEntity
  8
FORMAT
100
AcDbLine
 10
222.3963943455
 20
79.286852787
 30
0.0
 11
222.9643123135
 21
80.2705155621
 31
0.0
  0
LINE
  5
95
330
90
100
AcDbEntity
  8
FORMAT
100
AcDbLine
 10
221.8284763776
 20
80.2705155621
 30
0.0
 11
222.9643123135
 21
80.2705155621
 31
0.0
  0
LINE
  5
96
330
90
100
AcDbEntity
  8
FORMAT
100
AcDbLine
 10
222.9643123135
 20
80.2705155621
 30
0.0
 11
223.3725273771
 21
80.9775647926
 31
0.0
  0
LINE
  5
97
330
90
100
AcDbEntity
  8
FORMAT
100
AcDbLine
 10
223.3725273771
 20
80.9775647926
 30
0.0
 11
224.1023154201
 21
80.9775647926
 31
0.0
  0
ENDBLK
  5
92
330
90
100
AcDbEntity
  8
0
100
AcDbBlockEnd
  0
ENDSEC
  0
SECTION
  2
ENTITIES
  0
LINE
  5
98
330
1F
100
AcDbEntity
  8
0
  6
Continuous
 62
     7
370
    25
100
AcDbLine
 10
127.4937027324
 20
140.1443533219
 30
0.0
 11
128.9081871681
 21
112.8684589138
 31
0.0
  0
LINE
  5
99
330
1F
100
AcDbEntity
  8
0
  6
Continuous
 62
     7
370
    25
100
AcDbLine
 10
154.2673598896
 20
112.8684589138
 30
0.0
 11
155.6818443253
 21
140.1443533219
 31
0.0
  0
ARC
  5
9A
330
1F
100
AcDbEntity
  8
0
  6
Continuous
 62
     7
370
    25
100
AcDbCircle
 10
153.7680308602
 20
112.8943533219
 30
0.0
 40
0.5000000000000018
100
AcDbArc
 50
282.3077052325
 51
357.0313913905
  0
ARC
  5
9B
330
1F
100
AcDbEntity
  8
0
  6
Continuous
 62
     7
370
    25
100
AcDbCircle
 10
129.4075161975
 20
112.8943533219
 30
0.0
 40
0.4999999999999917
100
AcDbArc
 50
182.9686086096
 51
257.6922947676
  0
LINE
  5
9C
330
1F
100
AcDbEntity
  8
0
  6
Continuous
 62
     7
370
    25
100
AcDbLine
 10
129.300935308
 20
112.4058448634
 30
0.0
 11
130.0877735288
 21
111.4288279465
 31
0.0
  0
LINE
  5
9D
330
1F
100
AcDbEntity
  8
0
  6
Continuous
 62
     7
370
    25
100
AcDbLine
 10
153.0877735288
 20
111.4288279465
 30
0.0
 11
153.8746117497
 21
112.4058448635
 31
0.0
  0
LINE
  5
9E
330
1F
100
AcDbEntity
  8
0
  6
Continuous
 62
     7
370
    25
100
AcDbLine
 10
130.0877735288
 20
111.4288279465
 30
0.0
 11
130.0877735288
 21
109.5743533219
 31
0.0
  0
LINE
  5
9F
330
1F
100
AcDbEntity
  8
0
  6
Continuous
 62
     7
370
    25
100
AcDbLine
 10
153.0877735288
 20
109.5743533219
 30
0.0
 11
153.0877735288
 21
111.4288279465
 31
0.0
  0
ARC
  5
A0
330
1F
100
AcDbEntity
  8
0
  6
Continuous
 62
     7
370
    25
100
AcDbCircle
 10
152.7877735288
 20
109.5743533219
 30
0.0
 40
0.3000000000000114
100
AcDbArc
 50
270.0
 51
0.0
  0
ARC
  5
A1
330
1F
100
AcDbEntity
  8
0
  6
Continuous
 62
     7
370
    25
100
AcDbCircle
 10
130.3877735288
 20
109.5743533219
 30
0.0
 40
0.2999999999999972
100
AcDbArc
 50
180.0
 51
270.0
  0
LINE
  5
A2
330
1F
100
AcDbEntity
  8
0
  6
Continuous
 62
     7
370
    25
100
AcDbLine
 10
129.3877735288
 20
142.2743533219
 30
0.0
 11
129.3877735288
 21
140.1443533219
 31
0.0
  0
LINE
  5
A3
330
1F
100
AcDbEntity
  8
0
  6
Continuous
 62
     7
370
    25
100
AcDbLine
 10
153.7877735288
 20
140.1443533219
 30
0.0
 11
153.7877735288
 21
142.2743533219
 31
0.0
  0
LINE
  5
A4
330
1F
100
AcDbEntity
  8
0
  6
Continuous
 62
     7
370
    25
100
AcDbLine
 10
123.9877735288
 20
160.7657629449
 30
0.0
 11
123.9877735288
 21
144.2743533219
 31
0.0
  0
LINE
  5
A5
330
1F
100
AcDbEntity
  8
0
  6
Continuous
 62
     7
370
    25
100
AcDbLine
 10
159.1877735288
 20
144.2743533219
 30
0.0
 11
159.1877735288
 21
160.7667921149
 31
0.0
  0
LINE
  5
A6
330
1F
100
AcDbEntity
  8
0
  6
Continuous
 62
     7
370
    25
100
AcDbLine
 10
123.9877735288
 20
144.2743533219
 30
0.0
 11
125.9877735288
 21
142.2743533219
 31
0.0
  0
LINE
  5
A7
330
1F
100
AcDbEntity
  8
0
  6
Continuous
 62
     7
370
    25
100
AcDbLine
 10
157.1877735288
 20
142.2743533219
 30
0.0
 11
159.1877735288
 21
144.2743533219
 31
0.0
  0
SPLINE
  5
A8
330
1F
100
AcDbEntity
  8
0
  6
Continuous
 62
     7
370
    25
100
AcDbSpline
210
0.0
220
0.0
230
1.0
 70
     8
 71
     3
 72
     9
 73
     5
 74
     0
 42
0.00000001
 43
0.00000001
 40
0.0
 40
0.0
 40
0.0
 40
0.0
 40
0.4185823882253079
 40
1.0
 40
1.0
 40
1.0
 40
1.0
 10
123.639445857462
 20
162.5454288442788
 30
0.0
 10
123.7306037209736
 20
162.3059469326705
 30
0.0
 10
123.9483813104657
 20
161.7338208271654
 30
0.0
 10
123.9710817472337
 20
161.1202287229573
 30
0.0
 10
123.9842801809657
 20
160.7634754671248
 30
0.0
  0
SPLINE
  5
A9
330
1F
100
AcDbEntity
  8
0
  6
Continuous
 62
     7
370
    25
100
AcDbSpline
210
0.0
220
0.0
230
1.0
 70
     8
 71
     3
 72
    10
 73
     6
 74
     0
 42
0.00000001
 43
0.00000001
 40
0.0
 40
0.0
 40
0.0
 40
0.0
 40
0.2926617118453609
 40
0.8610102942299541
 40
1.0
 40
1.0
 40
1.0
 40
1.0
 10
159.2204420384301
 20
160.7674021501181
 30
0.0
 10
159.2139930762601
 20
160.94492831045
 30
0.0
 10
159.1950202397369
 20
161.4672099938896
 30
0.0
 10
159.320985354272
 20
162.0762465911946
 30
0.0
 10
159.497054683099
 20
162.4676111000302
 30
0.0
 10
159.5316517417039
 20
162.5445129712322
 30
0.0
  0
ARC
  5
AA
330
1F
100
AcDbEntity
  8
0
  6
Continuous
 62
     7
370
    25
100
AcDbCircle
 10
141.5877735288
 20
169.4243533219
 30
0.0
 40
19.2
100
AcDbArc
 50
339.0289550054
 51
200.9802606618
  0
LINE
  5
AB
330
1F
100
AcDbEntity
  8
0
  6
Continuous
 62
     7
370
    25
100
AcDbLine
 10
131.4127735288
 20
30.147500987
 30
0.0
 11
131.4127735288
 21
29.3355554112
 31
0.0
  0
LINE
  5
AC
330
1F
100
AcDbEntity
  8
0
  6
Continuous
 62
     7
370
    25
100
AcDbLine
 10
151.7627735288
 20
29.3355554112
 30
0.0
 11
151.7627735288
 21
30.147500987
 31
0.0
  0
SPLINE
  5
AD
330
1F
100
AcDbEntity
  8
0
  6
Continuous
 62
     7
370
    25
100
AcDbSpline
210
0.0
220
0.0
230
1.0
 70
     8
 71
     3
 72
    26
 73
    22
 74
     0
 42
0.00000001
 43
0.00000001
 40
0.0
 40
0.0
 40
0.0
 40
0.0
 40
0.0170274498095602
 40
0.0717230376491585
 40
0.1264025581525302
 40
0.1810648180781612
 40
0.2357109496984647
 40
0.2903438810601426
 40
0.3449680182615675
 40
0.3995887652225895
 40
0.4542119274283311
 40
0.5088430616967505
 40
0.5634868438771165
 40
0.6181463169909625
 40
0.6728222410533298
 40
0.7275142202342664
 40
0.7822200356907252
 40
0.8369359022891137
 40
0.8916569077395444
 40
0.9463775770905389
 40
1.0
 40
1.0
 40
1.0
 40
1.0
 10
131.4531183120829
 20
29.77233986996937
 30
0.0
 10
131.4366932651719
 20
29.59515290265703
 30
0.0
 10
131.367507669492
 20
28.84880581782541
 30
0.0
 10
131.5386821555316
 20
27.52578957311229
 30
0.0
 10
131.9677466122045
 20
25.86480615464425
 30
0.0
 10
132.6896535173813
 20
24.30113898055246
 30
0.0
 10
133.657500979783
 20
22.88050251226061
 30
0.0
 10
134.8509157204119
 20
21.64246347964959
 30
0.0
 10
136.2343051984709
 20
20.6219844127787
 30
0.0
 10
137.7691822162965
 20
19.84778682045728
 30
0.0
 10
139.4121748757026
 20
19.34175965554845
 30
0.0
 10
141.1170148295951
 20
19.11829926309168
 30
0.0
 10
142.8355701083477
 20
19.18389789460646
 30
0.0
 10
144.5192401365935
 20
19.53691040479837
 30
0.0
 10
146.1202526947571
 20
20.1675507022442
 30
0.0
 10
147.5932679406878
 20
21.05809496607112
 30
0.0
 10
148.8958552499392
 20
22.18344410368038
 30
0.0
 10
149.9929025366349
 20
23.51148032253229
 30
0.0
 10
150.8458481352586
 20
25.00525086865187
 30
0.0
 10
151.4538292964847
 20
26.60859579091522
 30
0.0
 10
151.6222294253908
 20
27.72977275559492
 30
0.0
 10
151.7055759751506
 20
28.28467869470054
 30
0.0
  0
SPLINE
  5
AE
330
1F
100
AcDbEntity
  8
0
  6
Continuous
 62
     7
370
    25
100
AcDbSpline
210
0.0
220
0.0
230
1.0
 70
    24
 71
     3
 72
    41
 73
    37
 74
     0
 42
0.00000001
 43
0.00000001
 40
0.0
 40
0.0
 40
0.0
 40
0.0
 40
0.0373020409584441
 40
0.0720319609308875
 40
0.1041861953194276
 40
0.1337648444895718
 40
0.1607672204218736
 40
0.1851940397860272
 40
0.2111043178787914
 40
0.2333046364218714
 40
0.2530516994219908
 40
0.2729138078359857
 40
0.2929658527978249
 40
0.326800745397734
 40
0.3611643836300096
 40
0.39586848736272
 40
0.4305794161811264
 40
0.4652910581024999
 40
0.5000027525041478
 40
0.5347136572276343
 40
0.5694244651824045
 40
0.6041362978124283
 40
0.6388410817334093
 40
0.6732038533345432
 40
0.7070381420845944
 40
0.7270907669867526
 40
0.7469531863461565
 40
0.7667006327743383
 40
0.7889004529633673
 40
0.8148101814901346
 40
0.8392367031886411
 40
0.8662398160346196
 40
0.8958183544663767
 40
0.927971093280769
 40
0.9626985679175133
 40
1.0
 40
1.0
 40
1.0
 40
1.0
 10
151.0877735287804
 20
32.80051757088996
 30
0.0
 10
151.0877735287804
 20
33.0307211313625
 30
0.0
 10
151.0877735287804
 20
33.47525482035245
 30
0.0
 10
151.0877735287804
 20
35.04569305557338
 30
0.0
 10
151.0877735287804
 20
37.05998348163002
 30
0.0
 10
151.0877735287804
 20
39.42320697662392
 30
0.0
 10
151.0877735287804
 20
41.98401226102295
 30
0.0
 10
151.0877735287804
 20
44.76479227519063
 30
0.0
 10
151.0877735287804
 20
47.66517431765209
 30
0.0
 10
151.0877735287804
 20
50.62516432376111
 30
0.0
 10
151.0877735287804
 20
53.50739259842562
 30
0.0
 10
151.0877735287804
 20
56.45136217469321
 30
0.0
 10
151.0877735287805
 20
60.27976791866925
 30
0.0
 10
151.0877735287804
 20
65.14492678861637
 30
0.0
 10
151.0877735287804
 20
71.17510351151364
 30
0.0
 10
151.0877735287804
 20
77.56263011348186
 30
0.0
 10
151.0877735287804
 20
84.21719089917144
 30
0.0
 10
151.0877735287804
 20
91.0455475380656
 30
0.0
 10
151.0877735287804
 20
97.97669824800411
 30
0.0
 10
151.0877735287804
 20
104.9404130698155
 30
0.0
 10
151.0877735287804
 20
111.8636947737741
 30
0.0
 10
151.0877735287805
 20
118.674844265317
 30
0.0
 10
151.0877735287804
 20
125.2836381391691
 30
0.0
 10
151.0877735287804
 20
131.590535972336
 30
0.0
 10
151.0877735287804
 20
136.7344364446785
 30
0.0
 10
151.0877735287804
 20
140.8250599277191
 30
0.0
 10
151.0877735287805
 20
144.0002090184738
 30
0.0
 10
151.0877735287804
 20
147.1402046979996
 30
0.0
 10
151.0877735287804
 20
150.401271065946
 30
0.0
 10
151.0877735287804
 20
153.6401683951972
 30
0.0
 10
151.0877735287805
 20
156.7987527312555
 30
0.0
 10
151.0877735287804
 20
159.7769198297024
 30
0.0
 10
151.0877735287804
 20
162.6246312997239
 30
0.0
 10
151.0877735287804
 20
165.1864779756321
 30
0.0
 10
151.0877735287804
 20
167.3631346972606
 30
0.0
 10
151.0877735287804
 20
168.2392077136246
 30
0.0
 10
151.0877735287804
 20
168.6928974835746
 30
0.0
  0
LINE
  5
AF
330
1F
100
AcDbEntity
  8
0
  6
Continuous
 62
     7
370
    25
100
AcDbLine
 10
151.0877735288
 20
169.4123811442
 30
0.0
 11
151.0877735288
 21
169.3968064664
 31
0.0
  0
LINE
  5
B0
330
1F
100
AcDbEntity
  8
0
  6
Continuous
 62
     7
370
    25
100
AcDbLine
 10
132.0877735288
 20
169.3968064664
 30
0.0
 11
132.0877735288
 21
169.4123811442
 31
0.0
  0
SPLINE
  5
B1
330
1F
100
AcDbEntity
  8
0
  6
Continuous
 62
     7
370
    25
100
AcDbSpline
210
0.0
220
0.0
230
1.0
 70
    24
 71
     3
 72
    41
 73
    37
 74
     0
 42
0.00000001
 43
0.00000001
 40
0.0
 40
0.0
 40
0.0
 40
0.0
 40
0.0373014320824865
 40
0.072028906719231
 40
0.1041816455336231
 40
0.1337601839653807
 40
0.1607632968113595
 40
0.1851898185098664
 40
0.2110995470366345
 40
0.2332993672256645
 40
0.2530468136538489
 40
0.2729092330132554
 40
0.2929618579154156
 40
0.3267961466654594
 40
0.3611589182665666
 40
0.3958637021875297
 40
0.4305755348175599
 40
0.4652863427723695
 40
0.499997247495889
 40
0.5347089418975304
 40
0.5694205838188824
 40
0.6041315126372773
 40
0.6388356163699924
 40
0.6731992546022748
 40
0.707034147202183
 40
0.7270861921640147
 40
0.7469483005779999
 40
0.766695363578115
 40
0.788895682121195
 40
0.814805960213963
 40
0.8392327795781207
 40
0.866235155510425
 40
0.8958138046805643
 40
0.9279680390691072
 40
0.9626979590415556
 40
1.0
 40
1.0
 40
1.0
 40
1.0
 10
132.0877735287804
 20
168.6928974835746
 30
0.0
 10
132.0877735287804
 20
168.2392077136246
 30
0.0
 10
132.0877735287804
 20
167.3631346972606
 30
0.0
 10
132.0877735287804
 20
165.1864779756321
 30
0.0
 10
132.0877735287804
 20
162.6246312997239
 30
0.0
 10
132.0877735287804
 20
159.7769198297023
 30
0.0
 10
132.0877735287804
 20
156.7987527312554
 30
0.0
 10
132.0877735287804
 20
153.640168395197
 30
0.0
 10
132.0877735287804
 20
150.4012710659458
 30
0.0
 10
132.0877735287804
 20
147.1402046979972
 30
0.0
 10
132.0877735287804
 20
144.0002090184688
 30
0.0
 10
132.0877735287804
 20
140.8250599277119
 30
0.0
 10
132.0877735287804
 20
136.7344364446707
 30
0.0
 10
132.0877735287804
 20
131.5905359723331
 30
0.0
 10
132.0877735287804
 20
125.2836381391755
 30
0.0
 10
132.0877735287804
 20
118.6748442653251
 30
0.0
 10
132.0877735287804
 20
111.8636947737794
 30
0.0
 10
132.0877735287804
 20
104.9404130698151
 30
0.0
 10
132.0877735287804
 20
97.97669824799945
 30
0.0
 10
132.0877735287804
 20
91.04554753806053
 30
0.0
 10
132.0877735287804
 20
84.21719089916915
 30
0.0
 10
132.0877735287804
 20
77.56263011348156
 30
0.0
 10
132.0877735287804
 20
71.17510351151307
 30
0.0
 10
132.0877735287804
 20
65.14492678861463
 30
0.0
 10
132.0877735287804
 20
60.27976791866736
 30
0.0
 10
132.0877735287804
 20
56.45136217469303
 30
0.0
 10
132.0877735287804
 20
53.50739259842813
 30
0.0
 10
132.0877735287804
 20
50.62516432376495
 30
0.0
 10
132.0877735287804
 20
47.66517431765589
 30
0.0
 10
132.0877735287804
 20
44.76479227519329
 30
0.0
 10
132.0877735287804
 20
41.98401226102398
 30
0.0
 10
132.0877735287804
 20
39.42320697662436
 30
0.0
 10
132.0877735287804
 20
37.05998348162985
 30
0.0
 10
132.0877735287804
 20
35.04569305557347
 30
0.0
 10
132.0877735287804
 20
33.47525482035253
 30
0.0
 10
132.0877735287804
 20
33.03072113136259
 30
0.0
 10
132.0877735287804
 20
32.80051757088996
 30
0.0
  0
SPLINE
  5
B2
330
1F
100
AcDbEntity
  8
0
  6
Continuous
 62
     7
370
    25
100
AcDbSpline
210
0.0
220
0.0
230
1.0
 70
     8
 71
     3
 72
    22
 73
    18
 74
     0
 42
0.00000001
 43
0.00000001
 40
0.0
 40
0.0
 40
0.0
 40
0.0
 40
0.0642931289853305
 40
0.1218637181125071
 40
0.1722969343755107
 40
0.2154312078717979
 40
0.2803677679606295
 40
0.3240586057958641
 40
0.4094027134972663
 40
0.492036218275989
 40
0.5674358142951756
 40
0.610248409530539
 40
0.6575974136005138
 40
0.7174266542770601
 40
0.7942587727107377
 40
0.8889822489761775
 40
1.0
 40
1.0
 40
1.0
 40
1.0
 10
151.0877735287804
 20
168.6928974835749
 30
0.0
 10
151.062899117638
 20
169.2846972670669
 30
0.0
 10
151.0157511832394
 20
170.4064177857709
 30
0.0
 10
150.6542545407919
 20
171.9599089852722
 30
0.0
 10
150.1620872129478
 20
173.27860864716
 30
0.0
 10
149.4545897575909
 20
174.6062450005112
 30
0.0
 10
148.5486976657352
 20
175.8289764936305
 30
0.0
 10
146.8919964435205
 20
177.2762199353213
 30
0.0
 10
144.7849018568272
 20
178.3751208770657
 30
0.0
 10
142.0888175617298
 20
178.894268966604
 30
0.0
 10
139.8363140630826
 20
178.6909140299333
 30
0.0
 10
138.0739564827422
 20
178.1544591899273
 30
0.0
 10
136.5570998387184
 20
177.4094412141134
 30
0.0
 10
134.9972300024877
 20
176.1836232578166
 30
0.0
 10
133.5273123296202
 20
174.3500351447149
 30
0.0
 10
132.3347981270781
 20
171.783607042844
 30
0.0
 10
132.1743507601398
 20
169.7761299973467
 30
0.0
 10
132.0877735287804
 20
168.6928974835749
 30
0.0
  0
LINE
  5
B3
330
1F
100
AcDbEntity
  8
0
  6
Continuous
 62
     7
370
    25
100
AcDbLine
 10
132.0877735288
 20
32.8005175709
 30
0.0
 11
132.0877735288
 21
30.1291864252
 31
0.0
  0
LINE
  5
B4
330
1F
100
AcDbEntity
  8
0
  6
Continuous
 62
     7
370
    25
100
AcDbLine
 10
151.0877735288
 20
30.1291864252
 30
0.0
 11
151.0877735288
 21
32.8005175709
 31
0.0
  0
SPLINE
  5
B5
330
1F
100
AcDbEntity
  8
0
  6
Continuous
 62
     7
370
    25
100
AcDbSpline
210
0.0
220
0.0
230
1.0
 70
     8
 71
     3
 72
     9
 73
     5
 74
     0
 42
0.00000001
 43
0.00000001
 40
0.0
 40
0.0
 40
0.0
 40
0.0
 40
0.5018309505214729
 40
1.0
 40
1.0
 40
1.0
 40
1.0
 10
150.5967650280007
 20
30.08599569928148
 30
0.0
 10
150.5967534065169
 20
30.10288101521606
 30
0.0
 10
150.5967302483524
 20
30.13652843356891
 30
0.0
 10
150.5967534631213
 20
30.11204001041286
 30
0.0
 10
150.5967650280007
 20
30.09984063592598
 30
0.0
  0
SPLINE
  5
B6
330
1F
100
AcDbEntity
  8
0
  6
Continuous
 62
     7
370
    25
100
AcDbSpline
210
0.0
220
0.0
230
1.0
 70
     8
 71
     3
 72
     9
 73
     5
 74
     0
 42
0.00000001
 43
0.00000001
 40
0.0
 40
0.0
 40
0.0
 40
0.0
 40
0.4985021126759152
 40
0.9999999999999999
 40
0.9999999999999999
 40
0.9999999999999999
 40
0.9999999999999999
 10
132.5787820334422
 20
30.08690178407191
 30
0.0
 10
132.5787875246629
 20
30.07299907114881
 30
0.0
 10
132.5787985401043
 20
30.04511009621848
 30
0.0
 10
132.5787875466409
 20
30.06372267732486
 30
0.0
 10
132.5787820334422
 20
30.07305684742738
 30
0.0
  0
LINE
  5
B7
330
1F
100
AcDbEntity
  8
0
  6
Continuous
 62
     7
370
    25
100
AcDbLine
 10
155.6818443253
 20
140.1443533219
 30
0.0
 11
151.1222350124
 21
140.1443533219
 31
0.0
  0
LINE
  5
B8
330
1F
100
AcDbEntity
  8
0
  6
Continuous
 62
     7
370
    25
100
AcDbLine
 10
132.0389186789
 20
140.1443533219
 30
0.0
 11
127.4937027324
 21
140.1443533219
 31
0.0
  0
LINE
  5
B9
330
1F
100
AcDbEntity
  8
0
  6
Continuous
 62
     7
370
    25
100
AcDbLine
 10
129.300935308
 20
112.4058448634
 30
0.0
 11
132.0671996071
 21
112.4058448634
 31
0.0
  0
LINE
  5
BA
330
1F
100
AcDbEntity
  8
0
  6
Continuous
 62
     7
370
    25
100
AcDbLine
 10
151.2129245027
 20
112.4058448634
 30
0.0
 11
153.8746117497
 21
112.4058448635
 31
0.0
  0
LINE
  5
BB
330
1F
100
AcDbEntity
  8
0
  6
Continuous
 62
     7
370
    25
100
AcDbLine
 10
153.0877735288
 20
111.4288279465
 30
0.0
 11
151.2189442132
 21
111.4288279465
 31
0.0
  0
LINE
  5
BC
330
1F
100
AcDbEntity
  8
0
  6
Continuous
 62
     7
370
    25
100
AcDbLine
 10
131.9578827482
 20
111.4288279465
 30
0.0
 11
130.0877735288
 21
111.4288279465
 31
0.0
  0
LINE
  5
BD
330
1F
100
AcDbEntity
  8
0
  6
Continuous
 62
     7
370
    25
100
AcDbLine
 10
152.7877735288
 20
109.2743533219
 30
0.0
 11
151.1860335867
 21
109.2743533219
 31
0.0
  0
LINE
  5
BE
330
1F
100
AcDbEntity
  8
0
  6
Continuous
 62
     7
370
    25
100
AcDbLine
 10
131.9601329805
 20
109.2743533219
 30
0.0
 11
130.3877735288
 21
109.2743533219
 31
0.0
  0
LINE
  5
BF
330
1F
100
AcDbEntity
  8
0
  6
Continuous
 62
     7
370
    25
100
AcDbLine
 10
123.9877735288
 20
144.2743533219
 30
0.0
 11
132.0098480123
 21
144.2743533219
 31
0.0
  0
LINE
  5
C0
330
1F
100
AcDbEntity
  8
0
  6
Continuous
 62
     7
370
    25
100
AcDbLine
 10
151.1032400633
 20
144.2743533219
 30
0.0
 11
159.1877735288
 21
144.2743533219
 31
0.0
  0
LINE
  5
C1
330
1F
100
AcDbEntity
  8
0
  6
Continuous
 62
     7
370
    25
100
AcDbLine
 10
157.1877735288
 20
142.2743533219
 30
0.0
 11
151.195973152
 21
142.2743533219
 31
0.0
  0
LINE
  5
C2
330
1F
100
AcDbEntity
  8
0
  6
Continuous
 62
     7
370
    25
100
AcDbLine
 10
131.9795739056
 20
142.2743533219
 30
0.0
 11
125.9877735288
 21
142.2743533219
 31
0.0
  0
ARC
  5
C3
330
1F
100
AcDbEntity
  8
0
  6
Continuous
 62
     7
370
    25
100
AcDbCircle
 10
141.5877735288
 20
169.4243533219
 30
0.0
 40
28.79999999999998
100
AcDbArc
 50
307.6698869644
 51
0.0
  0
ARC
  5
C4
330
1F
100
AcDbEntity
  8
0
  6
Continuous
 62
     7
370
    25
100
AcDbCircle
 10
141.5877735288
 20
169.4243533219
 30
0.0
 40
28.79999999999998
100
AcDbArc
 50
0.0
 51
232.3301130357
  0
LWPOLYLINE
  5
C5
330
1F
100
AcDbEntity
  8
0
  6
Continuous
 62
     7
370
    25
100
AcDbPolyline
 90
        3
 70
   128
 43
0.0
 10
149.526308471
 20
174.6879346095
 10
148.4239593043
 20
176.0570141034
 10
148.1561893806
 20
176.3222905641
  0
ARC
  5
C6
330
1F
100
AcDbEntity
  8
0
  6
Continuous
 62
     7
370
    25
100
AcDbCircle
 10
141.5877735288
 20
169.4243533219
 30
0.0
 40
9.525000000000041
100
AcDbArc
 50
354.5182163415
 51
33.546045752
  0
ARC
  5
C7
330
1F
100
AcDbEntity
  8
0
  6
Continuous
 62
     7
370
    25
100
AcDbCircle
 10
141.5877735288
 20
169.4243533219
 30
0.0
 40
10.87499999999999
100
AcDbArc
 50
33.546045752
 51
208.561982385
  0
ARC
  5
C8
330
1F
100
AcDbEntity
  8
0
  6
Continuous
 62
     7
370
    25
100
AcDbCircle
 10
141.5877735288
 20
169.4243533219
 30
0.0
 40
10.875
100
AcDbArc
 50
331.7819667399
 51
33.546045752
  0
SPLINE
  5
C9
330
1F
100
AcDbEntity
  8
0
  6
Continuous
 62
     7
370
    25
100
AcDbSpline
210
0.0
220
0.0
230
1.0
 70
     8
 71
     3
 72
    12
 73
     8
 74
     0
 42
0.00000001
 43
0.00000001
 40
0.0
 40
0.0
 40
0.0
 40
0.0
 40
0.118021183349938
 40
0.3329217794964011
 40
0.5477803536570979
 40
0.7706342354409849
 40
1.0
 40
1.0
 40
1.0
 40
1.0
 10
140.7912437539393
 20
20.73866186000804
 30
0.0
 10
141.074295124651
 20
20.69837528376982
 30
0.0
 10
141.8727447194735
 20
20.58473230654866
 30
0.0
 10
143.207288559898
 20
20.68241143778195
 30
0.0
 10
144.7550294352044
 20
21.00910582010469
 30
0.0
 10
146.274506358225
 20
21.59400086168027
 30
0.0
 10
147.1924824528433
 20
22.1958854689331
 30
0.0
 10
147.658079846702
 20
22.5011612884055
 30
0.0
  0
SPLINE
  5
CA
330
1F
100
AcDbEntity
  8
0
  6
Continuous
 62
     7
370
    25
100
AcDbSpline
210
0.0
220
0.0
230
1.0
 70
     8
 71
     3
 72
    14
 73
    10
 74
     0
 42
0.00000001
 43
0.00000001
 40
0.0
 40
0.0
 40
0.0
 40
0.0
 40
0.096008074968795
 40
0.2895861638385093
 40
0.5127906875184437
 40
0.6225683382955859
 40
0.7320067742086223
 40
0.9532739581090882
 40
0.9999999999999999
 40
0.9999999999999999
 40
0.9999999999999999
 40
0.9999999999999999
 10
140.4644207021929
 20
20.45588803552005
 30
0.0
 10
140.0008597286034
 20
20.53499990826475
 30
0.0
 10
138.6026352137315
 20
20.77362258401023
 30
0.0
 10
136.2767985442208
 20
21.82643190652879
 30
0.0
 10
134.3236395674899
 20
23.57106050221351
 30
0.0
 10
133.1169593694193
 20
25.38103901091686
 30
0.0
 10
132.2698387435064
 20
27.34738241416405
 30
0.0
 10
131.7815146395234
 20
29.22541578638978
 30
0.0
 10
132.0423035904628
 20
30.51082324347203
 30
0.0
 10
132.0877735287804
 20
30.73494085879293
 30
0.0
  0
SPLINE
  5
CB
330
1F
100
AcDbEntity
  8
0
  6
Continuous
 62
     7
370
    25
100
AcDbSpline
210
0.0
220
0.0
230
1.0
 70
     8
 71
     3
 72
    11
 73
     7
 74
     0
 42
0.00000001
 43
0.00000001
 40
0.0
 40
0.0
 40
0.0
 40
0.0
 40
0.0346026914732732
 40
0.1732047033470294
 40
0.6023180641889962
 40
1.0
 40
1.0
 40
1.0
 40
1.0
 10
147.658079846702
 20
22.5011612884055
 30
0.0
 10
147.5884810066114
 20
22.44704970969212
 30
0.0
 10
147.2401021395941
 20
22.17619274626979
 30
0.0
 10
145.9604549974341
 20
21.3301330195229
 30
0.0
 10
143.6089719079137
 20
20.37727713469829
 30
0.0
 10
141.4856983361032
 20
20.43035702980937
 30
0.0
 10
140.4644207021929
 20
20.45588803552005
 30
0.0
  0
LWPOLYLINE
  5
CC
330
1F
100
AcDbEntity
  8
0
  6
Continuous
 62
     7
370
    25
100
AcDbPolyline
 90
        3
 70
   128
 43
0.0
 10
131.8519511205
 20
29.0298743236
 10
131.8119748778
 20
30.8345199571
 10
132.0877735288
 20
32.549254744
  0
ARC
  5
CD
330
1F
100
AcDbEntity
  8
0
  6
Continuous
 62
     7
370
    25
100
AcDbCircle
 10
141.5851833539
 20
30.1592561913
 30
0.0
 40
9.798536273989653
100
AcDbArc
 50
186.6186368414
 51
14.1176538023
  0
LWPOLYLINE
  5
CE
330
1F
100
AcDbEntity
  8
0
  6
Continuous
 62
     7
370
    25
100
AcDbPolyline
 90
        3
 70
   128
 43
0.0
 10
151.7085429776
 20
28.2883931878
 10
151.7412779053
 20
28.6757483878
 10
151.7627735288
 20
29.3355554112
  0
LWPOLYLINE
  5
CF
330
1F
100
AcDbEntity
  8
0
  6
Continuous
 62
     7
370
    25
100
AcDbPolyline
 90
        3
 70
   128
 43
0.0
 10
151.6961401618
 20
31.3078939769
 10
151.3261111976
 20
33.0907980047
 10
151.2353603927
 20
33.3748418206
  0
ARC
  5
D0
330
1F
100
AcDbEntity
  8
0
  6
Continuous
 62
     7
370
    25
100
AcDbCircle
 10
141.5895989829
 20
30.1565574708
 30
0.0
 40
10.17190986749169
100
AcDbArc
 50
161.451389431
 51
6.4991134469
  0
ARC
  5
D1
330
1F
100
AcDbEntity
  8
0
  6
Continuous
 62
     7
370
    25
100
AcDbCircle
 10
141.5877735288
 20
169.4243533219
 30
0.0
 40
16.59999999999999
100
AcDbArc
 50
305.2996093504
 51
64.6545685119
  0
ARC
  5
D2
330
1F
100
AcDbEntity
  8
0
  6
Continuous
 62
     7
370
    25
100
AcDbCircle
 10
141.5877735288
 20
169.4243533219
 30
0.0
 40
16.59999999999999
100
AcDbArc
 50
64.6545685119
 51
234.9947424984
  0
ARC
  5
D3
330
1F
100
AcDbEntity
  8
0
  6
Continuous
 62
     7
370
    25
100
AcDbCircle
 10
141.5877735288
 20
169.4243533219
 30
0.0
 40
11.15000000000001
100
AcDbArc
 50
64.6545685119
 51
210.1872301746
  0
ARC
  5
D4
330
1F
100
AcDbEntity
  8
0
  6
Continuous
 62
     7
370
    25
100
AcDbCircle
 10
141.5877735288
 20
169.4243533219
 30
0.0
 40
11.15000000000001
100
AcDbArc
 50
329.6589080309
 51
64.6545685119
  0
ARC
  5
D5
330
1F
100
AcDbEntity
  8
0
  6
Continuous
 62
     7
370
    25
100
AcDbCircle
 10
141.5877735288
 20
169.4243533219
 30
0.0
 40
17.85000000000003
100
AcDbArc
 50
86.0047774062
 51
103.3043596176
  0
SPLINE
  5
D6
330
1F
100
AcDbEntity
  8
0
  6
Continuous
 62
     7
370
    25
100
AcDbSpline
210
0.0
220
0.0
230
1.0
 70
    24
 71
     3
 72
    12
 73
     8
 74
     0
 42
0.00000001
 43
0.00000001
 40
0.0
 40
0.0
 40
0.0
 40
0.0
 40
0.239372316299272
 40
0.48677408976822
 40
0.7352575849600316
 40
0.9946662042473907
 40
1.0
 40
1.0
 40
1.0
 40
1.0
 10
154.5775857363243
 20
181.6671993477643
 30
0.0
 10
153.6704814944496
 20
182.0968658738309
 30
0.0
 10
151.8258452871808
 20
182.9706115741
 30
0.0
 10
148.8596816391751
 20
184.3755892729693
 30
0.0
 10
145.8166210021814
 20
185.8169906380481
 30
0.0
 10
143.8374306334625
 20
186.7544703795106
 30
0.0
 10
142.8513093456712
 20
187.2215647755524
 30
0.0
 10
142.831441847161
 20
187.2309753798384
 30
0.0
  0
ARC
  5
D7
330
1F
100
AcDbEntity
  8
0
  6
Continuous
 62
     7
370
    25
100
AcDbCircle
 10
141.5877735288
 20
169.4243533219
 30
0.0
 40
17.85000000000002
100
AcDbArc
 50
26.0047774062
 51
43.3043596176
  0
SPLINE
  5
D8
330
1F
100
AcDbEntity
  8
0
  6
Continuous
 62
     7
370
    25
100
AcDbSpline
210
0.0
220
0.0
230
1.0
 70
    24
 71
     3
 72
    12
 73
     8
 74
     0
 42
0.00000001
 43
0.00000001
 40
0.0
 40
0.0
 40
0.0
 40
0.0
 40
0.2009878446144206
 40
0.4063457791314798
 40
0.6297568067889986
 40
0.8620630290152725
 40
1.0
 40
1.0
 40
1.0
 40
1.0
 10
158.6852953055624
 20
164.2962689727156
 30
0.0
 10
158.6170880135177
 20
165.1340242220494
 30
0.0
 10
158.4791903944775
 20
166.8277500797754
 30
0.0
 10
158.2535108929719
 20
169.5996558597227
 30
0.0
 10
158.0133790490203
 20
172.5490723630311
 30
0.0
 10
157.8022276433869
 20
175.1425369790663
 30
0.0
 10
157.6771816133213
 20
176.6784133488123
 30
0.0
 10
157.630594745724
 20
177.2506159932754
 30
0.0
  0
ARC
  5
D9
330
1F
100
AcDbEntity
  8
0
  6
Continuous
 62
     7
370
    25
100
AcDbCircle
 10
141.5877735288
 20
169.4243533219
 30
0.0
 40
17.84999999999999
100
AcDbArc
 50
326.0047774062
 51
343.3043596176
  0
SPLINE
  5
DA
330
1F
100
AcDbEntity
  8
0
  6
Continuous
 62
     7
370
    25
100
AcDbSpline
210
0.0
220
0.0
230
1.0
 70
    24
 71
     3
 72
    10
 73
     6
 74
     0
 42
0.00000001
 43
0.00000001
 40
0.0
 40
0.0
 40
0.0
 40
0.0
 40
0.253065903612737
 40
0.7217239137137705
 40
0.9999999999999999
 40
0.9999999999999999
 40
0.9999999999999999
 40
0.9999999999999999
 10
151.0877735287804
 20
155.7808995832275
 30
0.0
 10
151.547960335309
 20
156.0990084817974
 30
0.0
 10
152.8603766596966
 20
157.0062298655773
 30
0.0
 10
154.647011155631
 20
158.2412594743919
 30
0.0
 10
155.914655647688
 20
159.1175318651377
 30
0.0
 10
156.3869264273433
 20
159.4439939353482
 30
0.0
  0
SPLINE
  5
DB
330
1F
100
AcDbEntity
  8
0
  6
Continuous
 62
     7
370
    25
100
AcDbSpline
210
0.0
220
0.0
230
1.0
 70
    24
 71
     3
 72
     9
 73
     5
 74
     0
 42
0.00000001
 43
0.00000001
 40
0.0
 40
0.0
 40
0.0
 40
0.0
 40
0.7948885021407429
 40
1.0
 40
1.0
 40
1.0
 40
1.0
 10
128.5979613212365
 20
157.1815072960584
 30
0.0
 10
129.4992299790375
 20
156.7546049011917
 30
0.0
 10
130.633060265139
 20
156.2175454347168
 30
0.0
 10
131.8401794953725
 20
155.645771318513
 30
0.0
 10
132.0877735287804
 20
155.5284938731012
 30
0.0
  0
ARC
  5
DC
330
1F
100
AcDbEntity
  8
0
  6
Continuous
 62
     7
370
    25
100
AcDbCircle
 10
141.5877735288
 20
169.4243533219
 30
0.0
 40
17.85
100
AcDbArc
 50
206.0047774062
 51
223.3043596176
  0
SPLINE
  5
DD
330
1F
100
AcDbEntity
  8
0
  6
Continuous
 62
     7
370
    25
100
AcDbSpline
210
0.0
220
0.0
230
1.0
 70
    24
 71
     3
 72
    12
 73
     8
 74
     0
 42
0.00000001
 43
0.00000001
 40
0.0
 40
0.0
 40
0.0
 40
0.0
 40
0.200987844614421
 40
0.4063457791314806
 40
0.6297568067889993
 40
0.8620630290152728
 40
1.0
 40
1.0
 40
1.0
 40
1.0
 10
124.4902517519985
 20
174.5524376711072
 30
0.0
 10
124.5584590440432
 20
173.7146824217733
 30
0.0
 10
124.6963566630835
 20
172.0209565640473
 30
0.0
 10
124.922036164589
 20
169.2490507841
 30
0.0
 10
125.1621680085406
 20
166.2996342807917
 30
0.0
 10
125.3733194141739
 20
163.7061696647565
 30
0.0
 10
125.4983654442396
 20
162.1702932950104
 30
0.0
 10
125.5449523118369
 20
161.5980906505474
 30
0.0
  0
ARC
  5
DE
330
1F
100
AcDbEntity
  8
0
  6
Continuous
 62
     7
370
    25
100
AcDbCircle
 10
141.5877735288
 20
169.4243533219
 30
0.0
 40
17.85
100
AcDbArc
 50
146.0047774062
 51
163.3043596176
  0
SPLINE
  5
DF
330
1F
100
AcDbEntity
  8
0
  6
Continuous
 62
     7
370
    25
100
AcDbSpline
210
0.0
220
0.0
230
1.0
 70
    24
 71
     3
 72
    12
 73
     8
 74
     0
 42
0.00000001
 43
0.00000001
 40
0.0
 40
0.0
 40
0.0
 40
0.0
 40
0.2009878446144262
 40
0.4063457791314918
 40
0.6297568067890134
 40
0.8620630290152903
 40
1.0
 40
1.0
 40
1.0
 40
1.0
 10
137.4800639595422
 20
186.79528369696
 30
0.0
 10
136.7886502774877
 20
186.317336824659
 30
0.0
 10
135.3907894671705
 20
185.3510510545858
 30
0.0
 10
133.103088395592
 20
183.7696539831949
 30
0.0
 10
130.6688846993617
 20
182.0869854544211
 30
0.0
 10
128.528454160876
 20
180.6073906650803
 30
0.0
 10
127.2608692226366
 20
179.731159441528
 30
0.0
 10
126.7886206302177
 20
179.4047127084746
 30
0.0
  0
SPLINE
  5
E0
330
1F
100
AcDbEntity
  8
0
  6
Continuous
 62
     7
370
    25
100
AcDbSpline
210
0.0
220
0.0
230
1.0
 70
     8
 71
     3
 72
     9
 73
     5
 74
     0
 42
0.00000001
 43
0.00000001
 40
0.0
 40
0.0
 40
0.0
 40
0.0
 40
0.1205401204533636
 40
1.0
 40
1.0
 40
1.0
 40
1.0
 10
132.0877735287804
 20
169.4243533219113
 30
0.0
 10
132.0878496509071
 20
169.3915527578761
 30
0.0
 10
132.0884811595394
 20
169.1194395070194
 30
0.0
 10
132.108465084669
 20
168.8478854596291
 30
0.0
 10
132.1260401450564
 20
168.6090645698208
 30
0.0
  0
SPLINE
  5
E1
330
1F
100
AcDbEntity
  8
0
  6
Continuous
 62
     7
370
    25
100
AcDbSpline
210
0.0
220
0.0
230
1.0
 70
     8
 71
     3
 72
     9
 73
     5
 74
     0
 42
0.00000001
 43
0.00000001
 40
0.0
 40
0.0
 40
0.0
 40
0.0
 40
0.9248760049064754
 40
1.0
 40
1.0
 40
1.0
 40
1.0
 10
150.8715035081477
 20
168.1339504054122
 30
0.0
 10
150.9757152714166
 20
168.5283047554603
 30
0.0
 10
151.0883917412527
 20
168.9546909390742
 30
0.0
 10
151.0878167262078
 20
169.3915357913707
 30
0.0
 10
151.0877735287804
 20
169.4243533219113
 30
0.0
  0
SPLINE
  5
E2
330
1F
100
AcDbEntity
  8
0
  6
Continuous
 62
     7
370
    25
100
AcDbSpline
210
0.0
220
0.0
230
1.0
 70
     8
 71
     3
 72
    12
 73
     8
 74
     0
 42
0.00000001
 43
0.00000001
 40
0.0
 40
0.0
 40
0.0
 40
0.0
 40
0.0929721148219368
 40
0.3485051794456061
 40
0.6054381044056766
 40
0.7250739734739109
 40
1.0
 40
1.0
 40
1.0
 40
1.0
 10
132.1575075578579
 20
29.76102099808332
 30
0.0
 10
132.1460570747135
 20
29.53667950117912
 30
0.0
 10
132.1031350363082
 20
28.69573731345505
 30
0.0
 10
132.4809941547606
 20
27.25766097731809
 30
0.0
 10
133.0611142412995
 20
25.84915883828277
 30
0.0
 10
133.8677360859435
 20
24.49272988318844
 30
0.0
 10
134.539016506168
 20
23.81026234195697
 30
0.0
 10
135.0067567027704
 20
23.33472709276317
 30
0.0
  0
SPLINE
  5
E3
330
1F
100
AcDbEntity
  8
0
  6
Continuous
 62
     7
370
    25
100
AcDbSpline
210
0.0
220
0.0
230
1.0
 70
     8
 71
     3
 72
    11
 73
     7
 74
     0
 42
0.00000001
 43
0.00000001
 40
0.0
 40
0.0
 40
0.0
 40
0.0
 40
0.2202711966155667
 40
0.5113856606211296
 40
0.8044674992863162
 40
1.0
 40
1.0
 40
1.0
 40
1.0
 10
147.3901139259176
 20
22.68053658731343
 30
0.0
 10
147.8832652439984
 20
23.0817318390187
 30
0.0
 10
149.028174412595
 20
24.01315411294146
 30
0.0
 10
150.2464251477898
 20
26.01498172068099
 30
0.0
 10
151.0144787024877
 20
28.15599896939132
 30
0.0
 10
151.0171116257252
 20
29.56426266643721
 30
0.0
 10
151.0181652625577
 20
30.12781821557999
 30
0.0
  0
LINE
  5
E4
330
1F
100
AcDbEntity
  8
0
  6
Continuous
 62
     8
370
    25
100
AcDbLine
 10
128.9081871681
 20
112.8684589138
 30
0.0
 11
132.0444331669
 21
112.8684589138
 31
0.0
  0
LINE
  5
E5
330
1F
100
AcDbEntity
  8
0
  6
Continuous
 62
     8
370
    25
100
AcDbLine
 10
151.2088342143
 20
112.8684589138
 30
0.0
 11
154.2673598896
 21
112.8684589138
 31
0.0
  0
LINE
  5
E6
330
1F
100
AcDbEntity
  8
0
  6
Continuous
 62
     8
370
    25
100
AcDbLine
 10
130.0877735288
 20
109.5743533219
 30
0.0
 11
131.9570742644
 21
109.5743533219
 31
0.0
  0
LINE
  5
E7
330
1F
100
AcDbEntity
  8
0
  6
Continuous
 62
     8
370
    25
100
AcDbLine
 10
151.2170307496
 20
109.5743533219
 30
0.0
 11
153.0877735288
 21
109.5743533219
 31
0.0
  0
SPLINE
  5
E8
330
1F
100
AcDbEntity
  8
0
  6
Continuous
 62
     8
370
    25
100
AcDbSpline
210
0.0
220
0.0
230
1.0
 70
     8
 71
     3
 72
     9
 73
     5
 74
     0
 42
0.00000001
 43
0.00000001
 40
0.0
 40
0.0
 40
0.0
 40
0.0
 40
0.3114512443562701
 40
1.0
 40
1.0
 40
1.0
 40
1.0
 10
153.292472301906
 20
157.3049204557246
 30
0.0
 10
153.1110511670684
 20
156.9679848636913
 30
0.0
 10
152.5285486466093
 20
155.8861603465676
 30
0.0
 10
151.6752862738094
 20
154.9833232614165
 30
0.0
 10
151.0877735287804
 20
154.3616759098867
 30
0.0
  0
SPLINE
  5
E9
330
1F
100
AcDbEntity
  8
0
  6
Continuous
 62
     8
370
    25
100
AcDbSpline
210
0.0
220
0.0
230
1.0
 70
     8
 71
     3
 72
    10
 73
     6
 74
     0
 42
0.00000001
 43
0.00000001
 40
0.0
 40
0.0
 40
0.0
 40
0.0
 40
0.7332845554863076
 40
0.9024110097067747
 40
1.0
 40
1.0
 40
1.0
 40
1.0
 10
132.0877735287804
 20
154.4395850158517
 30
0.0
 10
131.6698939322472
 20
154.8663452747166
 30
0.0
 10
131.1556336143093
 20
155.3915345115873
 30
0.0
 10
130.6502579788524
 20
156.0207959013166
 30
0.0
 10
130.5457192085361
 20
156.2083934698139
 30
0.0
 10
130.5074693311799
 20
156.2770338791629
 30
0.0
  0
SPLINE
  5
EA
330
1F
100
AcDbEntity
  8
0
  6
Continuous
 62
     8
370
    25
100
AcDbSpline
210
0.0
220
0.0
230
1.0
 70
     8
 71
     3
 72
    11
 73
     7
 74
     0
 42
0.00000001
 43
0.00000001
 40
0.0
 40
0.0
 40
0.0
 40
0.0
 40
0.1034680018898669
 40
0.4067207596279943
 40
0.7187028906974218
 40
1.0
 40
1.0
 40
1.0
 40
1.0
 10
126.5250114160524
 20
160.1270732932632
 30
0.0
 10
126.3342171735038
 20
160.1727993948178
 30
0.0
 10
125.5842270524556
 20
160.3525434163453
 30
0.0
 10
124.8223959849221
 20
160.561585890002
 30
0.0
 10
124.096436814162
 20
160.7520624029378
 30
0.0
 10
124.0352561175214
 20
160.7613563280813
 30
0.0
 10
124.0062479339563
 20
160.7657629448969
 30
0.0
  0
SPLINE
  5
EB
330
1F
100
AcDbEntity
  8
0
  6
Continuous
 62
     8
370
    25
100
AcDbSpline
210
0.0
220
0.0
230
1.0
 70
     8
 71
     3
 72
    11
 73
     7
 74
     0
 42
0.00000001
 43
0.00000001
 40
0.0
 40
0.0
 40
0.0
 40
0.0
 40
0.2916399416315149
 40
0.6136079124710965
 40
0.9313460057994233
 40
0.9999999999999999
 40
0.9999999999999999
 40
0.9999999999999999
 40
0.9999999999999999
 10
159.1728601617949
 20
160.7667921148721
 30
0.0
 10
159.1396462502452
 20
160.7613501021186
 30
0.0
 10
159.069764467877
 20
160.7499001543965
 30
0.0
 10
158.3140614644089
 20
160.5503664548911
 30
0.0
 10
157.5207607138512
 20
160.3364295157306
 30
0.0
 10
156.8521899497191
 20
160.1732085168175
 30
0.0
 10
156.7333985591994
 20
160.1442074739016
 30
0.0
  0
SPLINE
  5
EC
330
1F
100
AcDbEntity
  8
0
  6
Continuous
 62
     8
370
    25
100
AcDbSpline
210
0.0
220
0.0
230
1.0
 70
     8
 71
     3
 72
    10
 73
     6
 74
     0
 42
0.00000001
 43
0.00000001
 40
0.0
 40
0.0
 40
0.0
 40
0.0
 40
0.2489742650058795
 40
0.629132908178616
 40
1.0
 40
1.0
 40
1.0
 40
1.0
 10
157.7645302616453
 20
162.2281048835332
 30
0.0
 10
158.0453035888485
 20
162.2812624742545
 30
0.0
 10
158.7547895265945
 20
162.4155863556463
 30
0.0
 10
159.3769191585462
 20
162.5399276034525
 30
0.0
 10
159.4626803320794
 20
162.5506718747889
 30
0.0
 10
159.5050304081653
 20
162.5559775473892
 30
0.0
  0
SPLINE
  5
ED
330
1F
100
AcDbEntity
  8
0
  6
Continuous
 62
     8
370
    25
100
AcDbSpline
210
0.0
220
0.0
230
1.0
 70
     8
 71
     3
 72
    10
 73
     6
 74
     0
 42
0.00000001
 43
0.00000001
 40
0.0
 40
0.0
 40
0.0
 40
0.0
 40
0.2685899129446038
 40
0.6394215535324747
 40
1.0
 40
1.0
 40
1.0
 40
1.0
 10
125.4949580784016
 20
162.2121442251913
 30
0.0
 10
125.1833909859942
 20
162.271117840478
 30
0.0
 10
124.4416553337779
 20
162.4115140314243
 30
0.0
 10
123.7979968648875
 20
162.540027885975
 30
0.0
 10
123.7130957761254
 20
162.5506314717
 30
0.0
 10
123.671240320163
 20
162.555858941946
 30
0.0
  0
ARC
  5
EE
330
1F
100
AcDbEntity
  8
0
  6
Continuous
 62
     8
370
    25
100
AcDbCircle
 10
141.5877735288
 20
169.4243533219
 30
0.0
 40
19.8577416392786
100
AcDbArc
 50
332.4124474852
 51
0.0
  0
ARC
  5
EF
330
1F
100
AcDbEntity
  8
0
  6
Continuous
 62
     8
370
    25
100
AcDbCircle
 10
141.5877735288
 20
169.4243533219
 30
0.0
 40
19.8577416392786
100
AcDbArc
 50
0.0
 51
207.5875525149
  0
ARC
  5
F0
330
1F
100
AcDbEntity
  8
0
  6
Continuous
 62
     8
370
    25
100
AcDbCircle
 10
141.5877735288
 20
169.4243533219
 30
0.0
 40
27.79999999999998
100
AcDbArc
 50
0.0
 51
230.7212722149
  0
ARC
  5
F1
330
1F
100
AcDbEntity
  8
0
  6
Continuous
 62
     8
370
    25
100
AcDbCircle
 10
141.5877735288
 20
169.4243533219
 30
0.0
 40
27.79999999999998
100
AcDbArc
 50
309.2787277851
 51
0.0
  0
ARC
  5
F2
330
1F
100
AcDbEntity
  8
0
  6
Continuous
 62
     8
370
    25
100
AcDbCircle
 10
141.588446572
 20
29.3505587707
 30
0.0
 40
10.1756841039602
100
AcDbArc
 50
180.0844787908
 51
354.0083964162
  0
ARC
  5
F3
330
1F
100
AcDbEntity
  8
0
  6
Continuous
 62
     8
370
    25
100
AcDbCircle
 10
141.5877735288
 20
169.4243533219
 30
0.0
 40
14.60000000000002
100
AcDbArc
 50
64.6545685119
 51
228.9174182248
  0
ARC
  5
F4
330
1F
100
AcDbEntity
  8
0
  6
Continuous
 62
     8
370
    25
100
AcDbCircle
 10
141.5877735288
 20
169.4243533219
 30
0.0
 40
14.60000000000002
100
AcDbArc
 50
311.1320840673
 51
64.6545685119
  0
ARC
  5
F5
330
1F
100
AcDbEntity
  8
0
  6
Continuous
 62
     8
370
    25
100
AcDbCircle
 10
141.5975494136
 20
32.8084556296
 30
0.0
 40
9.490223678818072
100
AcDbArc
 50
269.9409795744
 51
359.9791664124
  0
ARC
  5
F6
330
1F
100
AcDbEntity
  8
0
  6
Continuous
 62
     8
370
    25
100
AcDbCircle
 10
141.578766853
 20
32.8092257002
 30
0.0
 40
9.49099298782023
100
AcDbArc
 50
180.024092733
 51
270.0543720331
  0
ENDSEC
  0
SECTION
  2
OBJECTS
  0
DICTIONARY
  5
C
330
0
100
AcDbDictionary
281
     1
  3
ACAD_GROUP
350
D
  3
ACAD_LAYOUT
350
1A
  3
ACAD_MLINESTYLE
350
17
  3
ACAD_PLOTSETTINGS
350
19
  3
ACAD_PLOTSTYLENAME
350
E
  3
ACAD_SCALELIST
350
47
  3
DWGPROPS
350
F7
  0
DICTIONARY
  5
D
102
{ACAD_REACTORS
330
C
102
}
330
C
100
AcDbDictionary
281
     1
  0
DICTIONARY
  5
1A
102
{ACAD_REACTORS
330
C
102
}
330
C
100
AcDbDictionary
281
     1
  3
Layout1
350
1E
  3
Layout2
350
26
  3
Model
350
22
  0
DICTIONARY
  5
17
102
{ACAD_REACTORS
330
C
102
}
330
C
100
AcDbDictionary
281
     1
  3
Standard
350
18
  0
DICTIONARY
  5
19
102
{ACAD_REACTORS
330
C
102
}
330
C
100
AcDbDictionary
281
     1
  0
ACDBDICTIONARYWDFLT
  5
E
102
{ACAD_REACTORS
330
C
102
}
330
C
100
AcDbDictionary
281
     1
  3
Normal
350
F
100
AcDbDictionaryWithDefault
340
F
  0
DICTIONARY
  5
47
102
{ACAD_REACTORS
330
C
102
}
330
C
100
AcDbDictionary
281
     1
  3
A0
350
48
  3
A1
350
49
  3
A2
350
4A
  3
A3
350
4B
  3
A4
350
4C
  3
A5
350
4D
  3
A6
350
4E
  3
A7
350
4F
  3
A8
350
50
  3
A9
350
51
  3
B0
350
52
  3
B1
350
53
  3
B2
350
54
  3
B3
350
55
  3
B4
350
56
  3
B5
350
57
  3
B6
350
58
  3
B7
350
59
  3
B8
350
5A
  3
B9
350
5B
  3
C0
350
5C
  3
C1
350
5D
  3
C2
350
5E
  3
C3
350
5F
  3
C4
350
60
  3
C5
350
61
  3
C6
350
62
  3
C7
350
63
  3
C8
350
64
  3
C9
350
65
  3
D0
350
66
  3
D1
350
67
  3
D2
350
68
  0
XRECORD
  5
F7
102
{ACAD_REACTORS
330
C
102
}
330
C
100
AcDbXrecord
280
     1
  1
DWGPROPS COOKIE
  2

  3

  4

  6

  7

  8
DS-1
  9

300
=
301
=
302
=
303
=
304
=
305
=
306
=
307
=
308
=
309
=
 40
0.0
 41
2460383.482610972
 42
2460383.482611563
  1

 90
        0
  0
LAYOUT
  5
1E
102
{ACAD_REACTORS
330
1A
102
}
330
1A
100
AcDbPlotSettings
  1

  2
none_device
  4

  6

 40
0.0
 41
0.0
 42
0.0
 43
0.0
 44
0.0
 45
0.0
 46
0.0
 47
0.0
 48
0.0
 49
0.0
140
0.0
141
0.0
142
1.0
143
1.0
 70
   688
 72
     1
 73
     0
 74
     5
  7

 75
    16
147
1.0
148
0.0
149
0.0
100
AcDbLayout
  1
Layout1
 70
     1
 71
     1
 10
0.0
 20
0.0
 11
420.0
 21
297.0
 12
0.0
 22
0.0
 32
0.0
 14
1.0000000000E+20
 24
1.0000000000E+20
 34
1.0000000000E+20
 15
-1.0000000000E+20
 25
-1.0000000000E+20
 35
-1.0000000000E+20
146
0.0
 13
0.0
 23
0.0
 33
0.0
 16
1.0
 26
0.0
 36
0.0
 17
0.0
 27
1.0
 37
0.0
 76
     0
330
1B
  0
LAYOUT
  5
26
102
{ACAD_REACTORS
330
1A
102
}
330
1A
100
AcDbPlotSettings
  1

  2
none_device
  4

  6

 40
0.0
 41
0.0
 42
0.0
 43
0.0
 44
0.0
 45
0.0
 46
0.0
 47
0.0
 48
0.0
 49
0.0
140
0.0
141
0.0
142
1.0
143
1.0
 70
   688
 72
     1
 73
     0
 74
     5
  7

 75
    16
147
1.0
148
0.0
149
0.0
100
AcDbLayout
  1
Layout2
 70
     1
 71
     2
 10
0.0
 20
0.0
 11
0.0
 21
0.0
 12
0.0
 22
0.0
 32
0.0
 14
0.0
 24
0.0
 34
0.0
 15
0.0
 25
0.0
 35
0.0
146
0.0
 13
0.0
 23
0.0
 33
0.0
 16
1.0
 26
0.0
 36
0.0
 17
0.0
 27
1.0
 37
0.0
 76
     0
330
23
  0
LAYOUT
  5
22
102
{ACAD_REACTORS
330
1A
102
}
330
1A
100
AcDbPlotSettings
  1

  2
none_device
  4
Letter_(8.50_x_11.00_Inches)
  6

 40
6.35
 41
6.35
 42
6.35000508
 43
6.35000508
 44
215.9
 45
279.4
 46
0.0
 47
0.0
 48
0.0
 49
0.0
140
0.0
141
0.0
142
1.0
143
1.0
 70
  1712
 72
     1
 73
     0
 74
     0
  7

 75
     0
147
1.0
148
0.0
149
0.0
100
AcDbLayout
  1
Model
 70
     1
 71
     0
 10
0.0
 20
0.0
 11
279.4
 21
215.9
 12
0.0
 22
0.0
 32
0.0
 14
0.0
 24
0.0
 34
0.0
 15
279.4
 25
215.9
 35
0.0
146
0.0
 13
0.0
 23
0.0
 33
0.0
 16
1.0
 26
0.0
 36
0.0
 17
0.0
 27
1.0
 37
0.0
 76
     0
330
1F
331
29
  0
MLINESTYLE
  5
18
102
{ACAD_REACTORS
330
17
102
}
330
17
100
AcDbMlineStyle
  2
Standard
 70
     0
  3

 62
   256
 51
90.0
 52
90.0
 71
     2
 49
0.5
 62
   256
  6
BYLAYER
 49
-0.5
 62
   256
  6
BYLAYER
  0
ACDBPLACEHOLDER
  5
F
102
{ACAD_REACTORS
330
E
102
}
330
E
  0
SCALE
  5
48
102
{ACAD_REACTORS
330
47
102
}
330
47
100
AcDbScale
 70
     0
300
1:1
140
1.0
141
1.0
290
     1
  0
SCALE
  5
49
102
{ACAD_REACTORS
330
47
102
}
330
47
100
AcDbScale
 70
     0
300
1:2
140
1.0
141
2.0
290
     0
  0
SCALE
  5
4A
102
{ACAD_REACTORS
330
47
102
}
330
47
100
AcDbScale
 70
     0
300
1:4
140
1.0
141
4.0
290
     0
  0
SCALE
  5
4B
102
{ACAD_REACTORS
330
47
102
}
330
47
100
AcDbScale
 70
     0
300
1:5
140
1.0
141
5.0
290
     0
  0
SCALE
  5
4C
102
{ACAD_REACTORS
330
47
102
}
330
47
100
AcDbScale
 70
     0
300
1:8
140
1.0
141
8.0
290
     0
  0
SCALE
  5
4D
102
{ACAD_REACTORS
330
47
102
}
330
47
100
AcDbScale
 70
     0
300
1:10
140
1.0
141
10.0
290
     0
  0
SCALE
  5
4E
102
{ACAD_REACTORS
330
47
102
}
330
47
100
AcDbScale
 70
     0
300
1:16
140
1.0
141
16.0
290
     0
  0
SCALE
  5
4F
102
{ACAD_REACTORS
330
47
102
}
330
47
100
AcDbScale
 70
     0
300
1:20
140
1.0
141
20.0
290
     0
  0
SCALE
  5
50
102
{ACAD_REACTORS
330
47
102
}
330
47
100
AcDbScale
 70
     0
300
1:30
140
1.0
141
30.0
290
     0
  0
SCALE
  5
51
102
{ACAD_REACTORS
330
47
102
}
330
47
100
AcDbScale
 70
     0
300
1:40
140
1.0
141
40.0
290
     0
  0
SCALE
  5
52
102
{ACAD_REACTORS
330
47
102
}
330
47
100
AcDbScale
 70
     0
300
1:50
140
1.0
141
50.0
290
     0
  0
SCALE
  5
53
102
{ACAD_REACTORS
330
47
102
}
330
47
100
AcDbScale
 70
     0
300
1:100
140
1.0
141
100.0
290
     0
  0
SCALE
  5
54
102
{ACAD_REACTORS
330
47
102
}
330
47
100
AcDbScale
 70
     0
300
2:1
140
2.0
141
1.0
290
     0
  0
SCALE
  5
55
102
{ACAD_REACTORS
330
47
102
}
330
47
100
AcDbScale
 70
     0
300
4:1
140
4.0
141
1.0
290
     0
  0
SCALE
  5
56
102
{ACAD_REACTORS
330
47
102
}
330
47
100
AcDbScale
 70
     0
300
8:1
140
8.0
141
1.0
290
     0
  0
SCALE
  5
57
102
{ACAD_REACTORS
330
47
102
}
330
47
100
AcDbScale
 70
     0
300
10:1
140
10.0
141
1.0
290
     0
  0
SCALE
  5
58
102
{ACAD_REACTORS
330
47
102
}
330
47
100
AcDbScale
 70
     0
300
100:1
140
100.0
141
1.0
290
     0
  0
SCALE
  5
59
102
{ACAD_REACTORS
330
47
102
}
330
47
100
AcDbScale
 70
     0
300
1/128" = 1'-0"
140
0.0078125
141
12.0
290
     0
  0
SCALE
  5
5A
102
{ACAD_REACTORS
330
47
102
}
330
47
100
AcDbScale
 70
     0
300
1/64" = 1'-0"
140
0.015625
141
12.0
290
     0
  0
SCALE
  5
5B
102
{ACAD_REACTORS
330
47
102
}
330
47
100
AcDbScale
 70
     0
300
1/32" = 1'-0"
140
0.03125
141
12.0
290
     0
  0
SCALE
  5
5C
102
{ACAD_REACTORS
330
47
102
}
330
47
100
AcDbScale
 70
     0
300
1/16" = 1'-0"
140
0.0625
141
12.0
290
     0
  0
SCALE
  5
5D
102
{ACAD_REACTORS
330
47
102
}
330
47
100
AcDbScale
 70
     0
300
3/32" = 1'-0"
140
0.09375
141
12.0
290
     0
  0
SCALE
  5
5E
102
{ACAD_REACTORS
330
47
102
}
330
47
100
AcDbScale
 70
     0
300
1/8" = 1'-0"
140
0.125
141
12.0
290
     0
  0
SCALE
  5
5F
102
{ACAD_REACTORS
330
47
102
}
330
47
100
AcDbScale
 70
     0
300
3/16" = 1'-0"
140
0.1875
141
12.0
290
     0
  0
SCALE
  5
60
102
{ACAD_REACTORS
330
47
102
}
330
47
100
AcDbScale
 70
     0
300
1/4" = 1'-0"
140
0.25
141
12.0
290
     0
  0
SCALE
  5
61
102
{ACAD_REACTORS
330
47
102
}
330
47
100
AcDbScale
 70
     0
300
3/8" = 1'-0"
140
0.375
141
12.0
290
     0
  0
SCALE
  5
62
102
{ACAD_REACTORS
330
47
102
}
330
47
100
AcDbScale
 70
     0
300
1/2" = 1'-0"
140
0.5
141
12.0
290
     0
  0
SCALE
  5
63
102
{ACAD_REACTORS
330
47
102
}
330
47
100
AcDbScale
 70
     0
300
3/4" = 1'-0"
140
0.75
141
12.0
290
     0
  0
SCALE
  5
64
102
{ACAD_REACTORS
330
47
102
}
330
47
100
AcDbScale
 70
     0
300
1" = 1'-0"
140
1.0
141
12.0
290
     0
  0
SCALE
  5
65
102
{ACAD_REACTORS
330
47
102
}
330
47
100
AcDbScale
 70
     0
300
1-1/2" = 1'-0"
140
1.5
141
12.0
290
     0
  0
SCALE
  5
66
102
{ACAD_REACTORS
330
47
102
}
330
47
100
AcDbScale
 70
     0
300
3" = 1'-0"
140
3.0
141
12.0
290
     0
  0
SCALE
  5
67
102
{ACAD_REACTORS
330
47
102
}
330
47
100
AcDbScale
 70
     0
300
6" = 1'-0"
140
6.0
141
12.0
290
     0
  0
SCALE
  5
68
102
{ACAD_REACTORS
330
47
102
}
330
47
100
AcDbScale
 70
     0
300
1'-0" = 1'-0"
140
12.0
141
12.0
290
     0
  0
ENDSEC
  0
EOF
