  0
SECTION
  2
HEADER
  9
$ACADVER
  1
AC1015
  9
$ACADMAINTVER
 70
     6
  9
$DWGCODEPAGE
  3
ANSI_1252
  9
$INSBASE
 10
0.0
 20
0.0
 30
0.0
  9
$EXTMIN
 10
0.0
 20
0.0
 30
0.0
  9
$EXTMAX
 10
279.4
 20
215.9
 30
0.0
  9
$LIMMIN
 10
0.0
 20
0.0
  9
$LIMMAX
 10
279.4
 20
215.9
  9
$ORTHOMODE
 70
     0
  9
$REGENMODE
 70
     1
  9
$FILLMODE
 70
     1
  9
$QTEXTMODE
 70
     0
  9
$MIRRTEXT
 70
     1
  9
$LTSCALE
 40
1.0
  9
$ATTMODE
 70
     1
  9
$TEXTSIZE
 40
3.5
  9
$TRACEWID
 40
1.0
  9
$TEXTSTYLE
  7
Standard
  9
$CLAYER
  8
0
  9
$CELTYPE
  6
ByLayer
  9
$CECOLOR
 62
   256
  9
$CELTSCALE
 40
1.0
  9
$DISPSILH
 70
     0
  9
$DIMSCALE
 40
1.0
  9
$DIMASZ
 40
3.556
  9
$DIMEXO
 40
1.0
  9
$DIMDLI
 40
3.75
  9
$DIMRND
 40
0.0
  9
$DIMDLE
 40
0.0
  9
$DIMEXE
 40
1.0
  9
$DIMTP
 40
0.0
  9
$DIMTM
 40
0.0
  9
$DIMTXT
 40
3.5
  9
$DIMCEN
 40
2.5
  9
$DIMTSZ
 40
0.0
  9
$DIMTOL
 70
     0
  9
$DIMLIM
 70
     0
  9
$DIMTIH
 70
     1
  9
$DIMTOH
 70
     1
  9
$DIMSE1
 70
     0
  9
$DIMSE2
 70
     0
  9
$DIMTAD
 70
     1
  9
$DIMZIN
 70
     1
  9
$DIMBLK
  1

  9
$DIMASO
 70
     1
  9
$DIMSHO
 70
     1
  9
$DIMPOST
  1

  9
$DIMAPOST
  1

  9
$DIMALT
 70
     0
  9
$DIMALTD
 70
     3
  9
$DIMALTF
 40
0.0393700787
  9
$DIMLFAC
 40
10.0
  9
$DIMTOFL
 70
     1
  9
$DIMTVP
 40
0.0
  9
$DIMTIX
 70
     0
  9
$DIMSOXD
 70
     0
  9
$DIMSAH
 70
     0
  9
$DIMBLK1
  1

  9
$DIMBLK2
  1

  9
$DIMSTYLE
  2
ISO-25
  9
$DIMCLRD
 70
     0
  9
$DIMCLRE
 70
     0
  9
$DIMCLRT
 70
     0
  9
$DIMTFAC
 40
1.0
  9
$DIMGAP
 40
1.524
  9
$DIMJUST
 70
     0
  9
$DIMSD1
 70
     0
  9
$DIMSD2
 70
     0
  9
$DIMTOLJ
 70
     0
  9
$DIMTZIN
 70
     1
  9
$DIMALTZ
 70
     0
  9
$DIMALTTZ
 70
     0
  9
$DIMUPT
 70
     0
  9
$DIMDEC
 70
     2
  9
$DIMTDEC
 70
     2
  9
$DIMALTU
 70
     2
  9
$DIMALTTD
 70
     3
  9
$DIMTXSTY
  7
Standard
  9
$DIMAUNIT
 70
     0
  9
$DIMADEC
 70
     2
  9
$DIMALTRND
 40
0.0
  9
$DIMAZIN
 70
     0
  9
$DIMDSEP
 70
    44
  9
$DIMATFIT
 70
     3
  9
$DIMFRAC
 70
     0
  9
$DIMLDRBLK
  1

  9
$DIMLUNIT
 70
     2
  9
$DIMLWD
 70
    -2
  9
$DIMLWE
 70
    -2
  9
$DIMTMOVE
 70
     0
  9
$LUNITS
 70
     2
  9
$LUPREC
 70
     2
  9
$SKETCHINC
 40
1.0
  9
$FILLETRAD
 40
10.0
  9
$AUNITS
 70
     0
  9
$AUPREC
 70
     2
  9
$MENU
  1
.
  9
$ELEVATION
 40
0.0
  9
$PELEVATION
 40
0.0
  9
$THICKNESS
 40
0.0
  9
$LIMCHECK
 70
     0
  9
$CHAMFERA
 40
0.0
  9
$CHAMFERB
 40
0.0
  9
$CHAMFERC
 40
0.0
  9
$CHAMFERD
 40
0.0
  9
$SKPOLY
 70
     0
  9
$TDCREATE
 40
2460383.672543588
  9
$TDUCREATE
 40
2460383.443376921
  9
$TDUPDATE
 40
2460383.672544051
  9
$TDUUPDATE
 40
2460383.443377384
  9
$TDINDWG
 40
0.0000000116
  9
$TDUSRTIMER
 40
0.0000000116
  9
$USRTIMER
 70
     1
  9
$ANGBASE
 50
0.0
  9
$ANGDIR
 70
     0
  9
$PDMODE
 70
     0
  9
$PDSIZE
 40
-1.0
  9
$PLINEWID
 40
0.0
  9
$SPLFRAME
 70
     0
  9
$SPLINETYPE
 70
     6
  9
$SPLINESEGS
 70
     8
  9
$HANDSEED
  5
2A9
  9
$SURFTAB1
 70
     6
  9
$SURFTAB2
 70
     6
  9
$SURFTYPE
 70
     6
  9
$SURFU
 70
     6
  9
$SURFV
 70
     6
  9
$UCSBASE
  2

  9
$UCSNAME
  2

  9
$UCSORG
 10
0.0
 20
0.0
 30
0.0
  9
$UCSXDIR
 10
1.0
 20
0.0
 30
0.0
  9
$UCSYDIR
 10
0.0
 20
1.0
 30
0.0
  9
$UCSORTHOREF
  2

  9
$UCSORTHOVIEW
 70
     0
  9
$UCSORGTOP
 10
0.0
 20
0.0
 30
0.0
  9
$UCSORGBOTTOM
 10
0.0
 20
0.0
 30
0.0
  9
$UCSORGLEFT
 10
0.0
 20
0.0
 30
0.0
  9
$UCSORGRIGHT
 10
0.0
 20
0.0
 30
0.0
  9
$UCSORGFRONT
 10
0.0
 20
0.0
 30
0.0
  9
$UCSORGBACK
 10
0.0
 20
0.0
 30
0.0
  9
$PUCSBASE
  2

  9
$PUCSNAME
  2

  9
$PUCSORG
 10
0.0
 20
0.0
 30
0.0
  9
$PUCSXDIR
 10
1.0
 20
0.0
 30
0.0
  9
$PUCSYDIR
 10
0.0
 20
1.0
 30
0.0
  9
$PUCSORTHOREF
  2

  9
$PUCSORTHOVIEW
 70
     0
  9
$PUCSORGTOP
 10
0.0
 20
0.0
 30
0.0
  9
$PUCSORGBOTTOM
 10
0.0
 20
0.0
 30
0.0
  9
$PUCSORGLEFT
 10
0.0
 20
0.0
 30
0.0
  9
$PUCSORGRIGHT
 10
0.0
 20
0.0
 30
0.0
  9
$PUCSORGFRONT
 10
0.0
 20
0.0
 30
0.0
  9
$PUCSORGBACK
 10
0.0
 20
0.0
 30
0.0
  9
$USERI1
 70
     0
  9
$USERI2
 70
     0
  9
$USERI3
 70
     0
  9
$USERI4
 70
     0
  9
$USERI5
 70
     0
  9
$USERR1
 40
0.0
  9
$USERR2
 40
0.0
  9
$USERR3
 40
0.0
  9
$USERR4
 40
0.0
  9
$USERR5
 40
0.0
  9
$WORLDVIEW
 70
     1
  9
$SHADEDGE
 70
     3
  9
$SHADEDIF
 70
    70
  9
$TILEMODE
 70
     1
  9
$MAXACTVP
 70
    64
  9
$PINSBASE
 10
0.0
 20
0.0
 30
0.0
  9
$PLIMCHECK
 70
     0
  9
$PEXTMIN
 10
1.0000000000E+20
 20
1.0000000000E+20
 30
1.0000000000E+20
  9
$PEXTMAX
 10
-1.0000000000E+20
 20
-1.0000000000E+20
 30
-1.0000000000E+20
  9
$PLIMMIN
 10
0.0
 20
0.0
  9
$PLIMMAX
 10
420.0
 20
297.0
  9
$UNITMODE
 70
     0
  9
$VISRETAIN
 70
     1
  9
$PLINEGEN
 70
     0
  9
$PSLTSCALE
 70
     1
  9
$TREEDEPTH
 70
  3020
  9
$CMLSTYLE
  2
Standard
  9
$CMLJUST
 70
     0
  9
$CMLSCALE
 40
20.0
  9
$PROXYGRAPHICS
 70
     1
  9
$MEASUREMENT
 70
     1
  9
$CELWEIGHT
370
    -1
  9
$ENDCAPS
280
     0
  9
$JOINSTYLE
280
     0
  9
$LWDISPLAY
290
     1
  9
$INSUNITS
 70
     4
  9
$HYPERLINKBASE
  1

  9
$STYLESHEET
  1

  9
$XEDIT
290
     1
  9
$CEPSNTYPE
380
     0
  9
$PSTYLEMODE
290
     1
  9
$FINGERPRINTGUID
  2
{0309049e-4185-4a82-bbc0-9aed312f4da4}
  9
$VERSIONGUID
  2
{FAEB1C32-E019-11D5-929B-00C0DF256EC4}
  9
$EXTNAMES
290
     1
  9
$PSVPSCALE
 40
0.0
  9
$OLESTARTUP
290
     0
  0
ENDSEC
  0
SECTION
  2
CLASSES
  0
CLASS
  1
ACDBDICTIONARYWDFLT
  2
AcDbDictionaryWithDefault
  3
ObjectDBX Classes
 90
        0
280
     0
281
     0
  0
CLASS
  1
VISUALSTYLE
  2
AcDbVisualStyle
  3
ObjectDBX Classes
 90
     4095
280
     0
281
     0
  0
CLASS
  1
MATERIAL
  2
AcDbMaterial
  3
ObjectDBX Classes
 90
     1153
280
     0
281
     0
  0
CLASS
  1
SCALE
  2
AcDbScale
  3
ObjectDBX Classes
 90
     1153
280
     0
281
     0
  0
CLASS
  1
TABLESTYLE
  2
AcDbTableStyle
  3
ObjectDBX Classes
 90
     4095
280
     0
281
     0
  0
CLASS
  1
MLEADERSTYLE
  2
AcDbMLeaderStyle
  3
ACDB_MLEADERSTYLE_CLASS
 90
     4095
280
     0
281
     0
  0
CLASS
  1
SUN
  2
AcDbSun
  3
SCENEOE
 90
     1153
280
     0
281
     0
  0
CLASS
  1
ACDBPLACEHOLDER
  2
AcDbPlaceHolder
  3
ObjectDBX Classes
 90
        0
280
     0
281
     0
  0
CLASS
  1
LAYOUT
  2
AcDbLayout
  3
ObjectDBX Classes
 90
        0
280
     0
281
     0
  0
ENDSEC
  0
SECTION
  2
TABLES
  0
TABLE
  2
VPORT
  5
8
330
0
100
AcDbSymbolTable
 70
     1
  0
VPORT
  5
29
330
8
100
AcDbSymbolTableRecord
100
AcDbViewportTableRecord
  2
*Active
 70
     0
 10
0.0
 20
0.0
 11
1.0
 21
1.0
 12
139.7
 22
107.95
 13
0.0
 23
0.0
 14
10.0
 24
10.0
 15
10.0
 25
10.0
 16
0.0
 26
0.0
 36
1.0
 17
0.0
 27
0.0
 37
0.0
 40
215.9
 41
1.2941176471
 42
50.0
 43
0.0
 44
0.0
 50
0.0
 51
0.0
 71
     0
 72
  2000
 73
     1
 74
     3
 75
     0
 76
     0
 77
     0
 78
     0
281
     0
 65
     1
110
0.0
120
0.0
130
0.0
111
1.0
121
0.0
131
0.0
112
0.0
122
1.0
132
0.0
 79
     0
146
0.0
  0
ENDTAB
  0
TABLE
  2
LTYPE
  5
5
330
0
100
AcDbSymbolTable
 70
     6
  0
LTYPE
  5
14
330
5
100
AcDbSymbolTableRecord
100
AcDbLinetypeTableRecord
  2
ByBlock
 70
     0
  3

 72
    65
 73
     0
 40
0.0
  0
LTYPE
  5
15
330
5
100
AcDbSymbolTableRecord
100
AcDbLinetypeTableRecord
  2
ByLayer
 70
     0
  3

 72
    65
 73
     0
 40
0.0
  0
LTYPE
  5
16
330
5
100
AcDbSymbolTableRecord
100
AcDbLinetypeTableRecord
  2
Continuous
 70
     0
  3
Solid line
 72
    65
 73
     0
 40
0.0
  0
LTYPE
  5
6E
330
5
100
AcDbSymbolTableRecord
100
AcDbLinetypeTableRecord
  2
HIDDEN
 70
     0
  3
Hidden __ __ __ __ __ __ __ __ __ __ __ __ __ __
 72
    65
 73
     2
 40
1.905
 49
1.27
 74
     0
 49
-0.635
 74
     0
  0
LTYPE
  5
6F
330
5
100
AcDbSymbolTableRecord
100
AcDbLinetypeTableRecord
  2
PHANTOM
 70
     0
  3
Phantom ______  __  __  ______  __  __  ______
 72
    65
 73
     6
 40
12.7
 49
6.35
 74
     0
 49
-1.27
 74
     0
 49
1.27
 74
     0
 49
-1.27
 74
     0
 49
1.27
 74
     0
 49
-1.27
 74
     0
  0
LTYPE
  5
70
330
5
100
AcDbSymbolTableRecord
100
AcDbLinetypeTableRecord
  2
CENTER
 70
     0
  3
Center ____ _ ____ _ ____ _ ____ _ ____ _ ____
 72
    65
 73
     4
 40
10.16
 49
6.35
 74
     0
 49
-1.27
 74
     0
 49
1.27
 74
     0
 49
-1.27
 74
     0
  0
LTYPE
  5
71
330
5
100
AcDbSymbolTableRecord
100
AcDbLinetypeTableRecord
  2
CENTERX2
 70
     0
  3
Center (2x) ________  __  ________  __  _____
 72
    65
 73
     4
 40
20.32
 49
12.7
 74
     0
 49
-2.54
 74
     0
 49
2.54
 74
     0
 49
-2.54
 74
     0
  0
LTYPE
  5
72
330
5
100
AcDbSymbolTableRecord
100
AcDbLinetypeTableRecord
  2
DOT2
 70
     0
  3
Dot (.5x) ........................................
 72
    65
 73
     2
 40
0.635
 49
0.0
 74
     0
 49
-0.635
 74
     0
  0
ENDTAB
  0
TABLE
  2
LAYER
  5
2
330
0
100
AcDbSymbolTable
 70
     1
  0
LAYER
  5
10
330
2
100
AcDbSymbolTableRecord
100
AcDbLayerTableRecord
  2
0
 70
     0
 62
     7
  6
Continuous
370
    -3
390
F
  0
ENDTAB
  0
TABLE
  2
STYLE
  5
3
330
0
100
AcDbSymbolTable
 70
     1
  0
STYLE
  5
11
330
3
100
AcDbSymbolTableRecord
100
AcDbTextStyleTableRecord
  2
Standard
 70
     0
 40
0.0
 41
1.0
 50
0.0
 71
     0
 42
3.5
  3
txt
  4

  0
ENDTAB
  0
TABLE
  2
VIEW
  5
6
330
0
100
AcDbSymbolTable
 70
     0
  0
ENDTAB
  0
TABLE
  2
UCS
  5
7
330
0
100
AcDbSymbolTable
 70
     0
  0
ENDTAB
  0
TABLE
  2
APPID
  5
9
330
0
100
AcDbSymbolTable
 70
     1
  0
APPID
  5
12
330
9
100
AcDbSymbolTableRecord
100
AcDbRegAppTableRecord
  2
ACAD
 70
     0
  0
ENDTAB
  0
TABLE
  2
DIMSTYLE
  5
A
330
0
100
AcDbSymbolTable
 70
     1
100
AcDbDimStyleTable
  0
DIMSTYLE
105
27
330
A
100
AcDbSymbolTableRecord
100
AcDbDimStyleTableRecord
  2
ISO-25
 70
     0
 41
2.5
 42
0.625
 43
3.75
 44
1.25
 73
     0
 74
     0
 77
     1
 78
     8
140
2.5
141
2.5
143
0.0393700787
147
0.625
171
     3
172
     1
178
     0
271
     2
272
     2
274
     3
278
    44
283
     0
284
     8
340
11
  0
ENDTAB
  0
TABLE
  2
BLOCK_RECORD
  5
1
330
0
100
AcDbSymbolTable
 70
     1
  0
BLOCK_RECORD
  5
1F
330
1
100
AcDbSymbolTableRecord
100
AcDbBlockTableRecord
  2
*Model_Space
340
22
  0
BLOCK_RECORD
  5
1B
330
1
100
AcDbSymbolTableRecord
100
AcDbBlockTableRecord
  2
*Paper_Space
340
1E
  0
BLOCK_RECORD
  5
23
330
1
100
AcDbSymbolTableRecord
100
AcDbBlockTableRecord
  2
*Paper_Space0
340
26
  0
ENDTAB
  0
ENDSEC
  0
SECTION
  2
BLOCKS
  0
BLOCK
  5
20
330
1F
100
AcDbEntity
  8
0
100
AcDbBlockBegin
  2
*Model_Space
 70
     0
 10
0.0
 20
0.0
 30
0.0
  3
*Model_Space
  1

  0
ENDBLK
  5
21
330
1F
100
AcDbEntity
  8
0
100
AcDbBlockEnd
  0
BLOCK
  5
1C
330
1B
100
AcDbEntity
 67
     1
  8
0
100
AcDbBlockBegin
  2
*Paper_Space
 70
     0
 10
0.0
 20
0.0
 30
0.0
  3
*Paper_Space
  1

  0
ENDBLK
  5
1D
330
1B
100
AcDbEntity
 67
     1
  8
0
100
AcDbBlockEnd
  0
BLOCK
  5
24
330
23
100
AcDbEntity
  8
0
100
AcDbBlockBegin
  2
*Paper_Space0
 70
     0
 10
0.0
 20
0.0
 30
0.0
  3
*Paper_Space0
  1

  0
ENDBLK
  5
25
330
23
100
AcDbEntity
  8
0
100
AcDbBlockEnd
  0
ENDSEC
  0
SECTION
  2
ENTITIES
  0
LINE
  5
73
330
1F
100
AcDbEntity
  8
0
  6
Continuous
 62
     7
370
    25
100
AcDbLine
 10
117.4347833488
 20
-80.6084284387
 30
0.0
 11
117.4343403614
 21
-82.2882506931
 31
0.0
  0
LINE
  5
74
330
1F
100
AcDbEntity
  8
0
  6
Continuous
 62
     7
370
    25
100
AcDbLine
 10
137.8343396521
 20
-82.2936303949
 30
0.0
 11
137.8347826395
 21
-80.6138081405
 31
0.0
  0
SPLINE
  5
75
330
1F
100
AcDbEntity
  8
0
  6
Continuous
 62
     7
370
    25
100
AcDbSpline
210
0.0
220
0.0
230
1.0
 70
     8
 71
     3
 72
    13
 73
     9
 74
     0
 42
0.00000001
 43
0.00000001
 40
0.0
 40
0.0
 40
0.0
 40
0.0
 40
0.123099570059137
 40
0.308982480529627
 40
0.4946166903284924
 40
0.6800166276183504
 40
0.8652242590851931
 40
1.0
 40
1.0
 40
1.0
 40
1.0
 10
117.4699885777857
 20
-82.2283823657769
 30
0.0
 10
117.4669383022554
 20
-82.62574186642712
 30
0.0
 10
117.459282047248
 20
-83.62312247558715
 30
0.0
 10
117.807368348062
 20
-85.19306283859775
 30
0.0
 10
118.4557132579861
 20
-86.87288335001375
 30
0.0
 10
119.4014827199574
 20
-88.40566947433825
 30
0.0
 10
120.4784970723928
 20
-89.6420973636057
 30
0.0
 10
121.2891195450392
 20
-90.28146641345586
 30
0.0
 10
121.6305505498441
 20
-90.55076614853321
 30
0.0
  0
SPLINE
  5
76
330
1F
100
AcDbEntity
  8
0
  6
Continuous
 62
     7
370
    25
100
AcDbSpline
210
0.0
220
0.0
230
1.0
 70
     8
 71
     3
 72
    20
 73
    16
 74
     0
 42
0.00000001
 43
0.00000001
 40
0.0
 40
0.0
 40
0.0
 40
0.0
 40
0.0758599435396156
 40
0.1556372110669713
 40
0.2354611520662185
 40
0.3153606479961936
 40
0.3953591527865115
 40
0.4754632219791039
 40
0.555669679030873
 40
0.6359629108716556
 40
0.7163163258475772
 40
0.7966960037633468
 40
0.8770652125106178
 40
0.9573890642747686
 40
1.0
 40
1.0
 40
1.0
 40
1.0
 10
121.6305505498441
 20
-90.55076614853321
 30
0.0
 10
122.1053852491317
 20
-90.86302597450211
 30
0.0
 10
123.0795745889424
 20
-91.50367038015838
 30
0.0
 10
124.7357386703283
 20
-92.13828736037915
 30
0.0
 10
126.4968668878941
 20
-92.49844604308596
 30
0.0
 10
128.2983799456647
 20
-92.53933597083567
 30
0.0
 10
130.080463993062
 20
-92.26469398376614
 30
0.0
 10
131.7890216267498
 20
-91.6803405658546
 30
0.0
 10
133.3700780339688
 20
-90.8039764012197
 30
0.0
 10
134.7741996615112
 20
-89.6622357211953
 30
0.0
 10
135.9554591698287
 20
-88.29065436933558
 30
0.0
 10
136.881861945213
 20
-86.73235632620782
 30
0.0
 10
137.5044745756474
 20
-85.03647584146675
 30
0.0
 10
137.8201397910839
 20
-83.5347444379043
 30
0.0
 10
137.8013860703242
 20
-82.61475013068778
 30
0.0
 10
137.7948857655186
 20
-82.29586709446204
 30
0.0
  0
LINE
  5
77
330
1F
100
AcDbEntity
  8
0
  6
Continuous
 62
     7
370
    25
100
AcDbLine
 10
118.1441514245
 20
-45.0844812299
 30
0.0
 11
118.1351567811
 21
-79.1924535072
 31
0.0
  0
LINE
  5
78
330
1F
100
AcDbEntity
  8
0
  6
Continuous
 62
     7
370
    25
100
AcDbLine
 10
137.1351561205
 20
-79.1974640137
 30
0.0
 11
137.1441507639
 21
-45.0894917364
 31
0.0
  0
LINE
  5
79
330
1F
100
AcDbEntity
  8
0
  6
Continuous
 62
     7
370
    25
100
AcDbLine
 10
137.1441507639
 20
-45.0894917364
 30
0.0
 11
137.2083193002
 21
198.2396275833
 31
0.0
  0
LINE
  5
7A
330
1F
100
AcDbEntity
  8
0
  6
Continuous
 62
     7
370
    25
100
AcDbLine
 10
118.2083199609
 20
198.2446380899
 30
0.0
 11
118.1441514245
 21
-45.0844812299
 31
0.0
  0
LINE
  5
7B
330
1F
100
AcDbEntity
  8
0
  6
Continuous
 62
     7
370
    25
100
AcDbLine
 10
118.2153472691
 20
224.8924130623
 30
0.0
 11
118.2083199609
 21
198.2446380899
 31
0.0
  0
LINE
  5
7C
330
1F
100
AcDbEntity
  8
0
  6
Continuous
 62
     7
370
    25
100
AcDbLine
 10
137.2083193002
 20
198.2396275833
 30
0.0
 11
137.2153466084
 21
224.8874025558
 31
0.0
  0
LINE
  5
7D
330
1F
100
AcDbEntity
  8
0
  6
Continuous
 62
     7
370
    25
100
AcDbLine
 10
137.1347726716
 20
-80.6515142704
 30
0.0
 11
137.1351561205
 21
-79.1974640137
 31
0.0
  0
LINE
  5
7E
330
1F
100
AcDbEntity
  8
0
  6
Continuous
 62
     7
370
    25
100
AcDbLine
 10
118.1351567811
 20
-79.1924535072
 30
0.0
 11
118.1347751066
 21
-80.6397755989
 31
0.0
  0
LINE
  5
7F
330
1F
100
AcDbEntity
  8
0
  6
Continuous
 62
     7
370
    25
100
AcDbLine
 10
-22.0334762213
 20
231.5979802971
 30
0.0
 11
-22.4901452558
 21
223.6110250954
 31
0.0
  0
LINE
  5
80
330
1F
100
AcDbEntity
  8
0
  6
Continuous
 62
     7
370
    25
100
AcDbLine
 10
277.9208391333
 20
223.6110250954
 30
0.0
 11
277.4641700989
 21
231.5979802971
 31
0.0
  0
LINE
  5
81
330
1F
100
AcDbEntity
  8
0
  6
Continuous
 62
     7
370
    25
100
AcDbLine
 10
9.6271516843
 20
243.7199191336
 30
0.0
 11
10.0252900108
 21
243.4899078091
 31
0.0
  0
LINE
  5
82
330
1F
100
AcDbEntity
  8
0
  6
Continuous
 62
     7
370
    25
100
AcDbLine
 10
213.7153469388
 20
243.4899078091
 30
0.0
 11
213.7153469388
 21
240.4443943378
 31
0.0
  0
LINE
  5
83
330
1F
100
AcDbEntity
  8
0
  6
Continuous
 62
     7
370
    25
100
AcDbLine
 10
246.7153469388
 20
229.8398590821
 30
0.0
 11
246.7153469388
 21
243.4899078091
 31
0.0
  0
LINE
  5
84
330
1F
100
AcDbEntity
  8
0
  6
Continuous
 62
     7
370
    25
100
AcDbLine
 10
8.7153469388
 20
243.4899078091
 30
0.0
 11
8.7153469388
 21
229.8398590821
 31
0.0
  0
LINE
  5
85
330
1F
100
AcDbEntity
  8
0
  6
Continuous
 62
     7
370
    25
100
AcDbLine
 10
41.7153469388
 20
240.4443943378
 30
0.0
 11
41.7153469388
 21
243.4899078091
 31
0.0
  0
LINE
  5
86
330
1F
100
AcDbEntity
  8
0
  6
Continuous
 62
     7
370
    25
100
AcDbLine
 10
42.9544504066
 20
259.1363913037
 30
0.0
 11
42.5153469388
 21
259.3899078091
 31
0.0
  0
LINE
  5
87
330
1F
100
AcDbEntity
  8
0
  6
Continuous
 62
     7
370
    25
100
AcDbLine
 10
7.9153469388
 20
259.3899078091
 30
0.0
 11
7.476243471
 21
259.1363913037
 31
0.0
  0
LINE
  5
88
330
1F
100
AcDbEntity
  8
0
  6
Continuous
 62
     7
370
    25
100
AcDbLine
 10
7.470169117
 20
243.7469313443
 30
0.0
 11
7.9153469388
 21
243.4899078091
 31
0.0
  0
LINE
  5
89
330
1F
100
AcDbEntity
  8
0
  6
Continuous
 62
     7
370
    25
100
AcDbLine
 10
42.5153469388
 20
243.4899078091
 30
0.0
 11
42.9605247606
 21
243.7469313443
 31
0.0
  0
LINE
  5
8A
330
1F
100
AcDbEntity
  8
0
  6
Continuous
 62
     7
370
    25
100
AcDbLine
 10
212.5134235917
 20
243.7219583617
 30
0.0
 11
212.9153469388
 21
243.4899078091
 31
0.0
  0
LINE
  5
8B
330
1F
100
AcDbEntity
  8
0
  6
Continuous
 62
     7
370
    25
100
AcDbLine
 10
247.5153469388
 20
243.4899078091
 30
0.0
 11
247.9172702858
 21
243.7219583617
 31
0.0
  0
LINE
  5
8C
330
1F
100
AcDbEntity
  8
0
  6
Continuous
 62
     7
370
    25
100
AcDbLine
 10
247.9172702858
 20
259.1578572564
 30
0.0
 11
247.5153469388
 21
259.3899078091
 31
0.0
  0
LINE
  5
8D
330
1F
100
AcDbEntity
  8
0
  6
Continuous
 62
     7
370
    25
100
AcDbLine
 10
212.9153469388
 20
259.3899078091
 30
0.0
 11
212.5134235917
 21
259.1578572564
 31
0.0
  0
ARC
  5
8E
330
1F
100
AcDbEntity
  8
0
  6
Continuous
 62
     7
370
    25
100
AcDbCircle
 10
255.0153469388
 20
280.5899078091
 30
0.0
 40
1.0
100
AcDbArc
 50
270.0
 51
0.0
  0
ARC
  5
8F
330
1F
100
AcDbEntity
  8
0
  6
Continuous
 62
     7
370
    25
100
AcDbCircle
 10
205.4153469388
 20
280.5899078091
 30
0.0
 40
1.0
100
AcDbArc
 50
180.0
 51
270.0
  0
ARC
  5
90
330
1F
100
AcDbEntity
  8
0
  6
Continuous
 62
     7
370
    25
100
AcDbCircle
 10
204.9153469388
 20
283.0899078091
 30
0.0
 40
0.5000000000000568
100
AcDbArc
 50
90.0
 51
180.0
  0
ARC
  5
91
330
1F
100
AcDbEntity
  8
0
  6
Continuous
 62
     7
370
    25
100
AcDbCircle
 10
255.5153469388
 20
283.0899078091
 30
0.0
 40
0.5000000000000568
100
AcDbArc
 50
0.0
 51
90.0
  0
LINE
  5
92
330
1F
100
AcDbEntity
  8
0
  6
Continuous
 62
     7
370
    25
100
AcDbLine
 10
204.4153469388
 20
283.0899078091
 30
0.0
 11
204.4153469388
 21
280.5899078091
 31
0.0
  0
LINE
  5
93
330
1F
100
AcDbEntity
  8
0
  6
Continuous
 62
     7
370
    25
100
AcDbLine
 10
256.0153469388
 20
280.5899078091
 30
0.0
 11
256.0153469388
 21
283.0899078091
 31
0.0
  0
LINE
  5
94
330
1F
100
AcDbEntity
  8
0
  6
Continuous
 62
     7
370
    25
100
AcDbLine
 10
213.5520237329
 20
264.8987390446
 30
0.0
 11
216.4181838221
 21
264.3050344546
 31
0.0
  0
LINE
  5
95
330
1F
100
AcDbEntity
  8
0
  6
Continuous
 62
     7
370
    25
100
AcDbLine
 10
244.0125100555
 20
264.3050344546
 30
0.0
 11
246.8786701447
 21
264.8987390446
 31
0.0
  0
ARC
  5
96
330
1F
100
AcDbEntity
  8
0
  6
Continuous
 62
     7
370
    25
100
AcDbCircle
 10
216.2153469388
 20
263.3258219145
 30
0.0
 40
1.00000000000001
100
AcDbArc
 50
0.0
 51
78.2970985198
  0
ARC
  5
97
330
1F
100
AcDbEntity
  8
0
  6
Continuous
 62
     7
370
    25
100
AcDbCircle
 10
244.2153469388
 20
263.3258219145
 30
0.0
 40
1.0
100
AcDbArc
 50
101.7029014802
 51
180.0
  0
LINE
  5
98
330
1F
100
AcDbEntity
  8
0
  6
Continuous
 62
     7
370
    25
100
AcDbLine
 10
217.2153469388
 20
263.3258219145
 30
0.0
 11
217.2153469388
 21
259.3899078091
 31
0.0
  0
LINE
  5
99
330
1F
100
AcDbEntity
  8
0
  6
Continuous
 62
     7
370
    25
100
AcDbLine
 10
243.2153469388
 20
259.3899078091
 30
0.0
 11
243.2153469388
 21
263.3258219145
 31
0.0
  0
SPLINE
  5
9A
330
1F
100
AcDbEntity
  8
0
  6
Continuous
 62
     7
370
    25
100
AcDbSpline
210
0.0
220
0.0
230
1.0
 70
     8
 71
     3
 72
    12
 73
     8
 74
     0
 42
0.00000001
 43
0.00000001
 40
0.0
 40
0.0
 40
0.0
 40
0.0
 40
0.1484386447246614
 40
0.5128349367579611
 40
0.7534316132173506
 40
0.9020073584227578
 40
1.0
 40
1.0
 40
1.0
 40
1.0
 10
210.3446248085529
 20
279.5899078090504
 30
0.0
 10
210.4366854487048
 20
279.5857513725496
 30
0.0
 10
210.7547421963789
 20
279.5713914607221
 30
0.0
 10
211.2116202612847
 20
279.409281397129
 30
0.0
 10
211.5714128296428
 20
279.0972339775496
 30
0.0
 10
211.7291661594078
 20
278.8194089769125
 30
0.0
 10
211.7448150453664
 20
278.6551775982396
 30
0.0
 10
211.751034316591
 20
278.5899078090504
 30
0.0
  0
SPLINE
  5
9B
330
1F
100
AcDbEntity
  8
0
  6
Continuous
 62
     7
370
    25
100
AcDbSpline
210
0.0
220
0.0
230
1.0
 70
     8
 71
     3
 72
    15
 73
    11
 74
     0
 42
0.00000001
 43
0.00000001
 40
0.0
 40
0.0
 40
0.0
 40
0.0
 40
0.1272495806563879
 40
0.331085550079013
 40
0.5015411229923271
 40
0.6462928577531816
 40
0.7659231073086241
 40
0.8558161203132325
 40
0.9288081397194955
 40
1.0
 40
1.0
 40
1.0
 40
1.0
 10
211.7688396698467
 20
266.1376953133719
 30
0.0
 10
211.7652525573891
 20
266.0761716525577
 30
0.0
 10
211.7559193942064
 20
265.9160957216313
 30
0.0
 10
211.8495052364988
 20
265.6853990725348
 30
0.0
 10
211.9890806773154
 20
265.478334213493
 30
0.0
 10
212.1441349863271
 20
265.3371660227454
 30
0.0
 10
212.2867992095095
 20
265.2490316451338
 30
0.0
 10
212.3980374171631
 20
265.2003230861595
 30
0.0
 10
212.4707609339344
 20
265.1747041068345
 30
0.0
 10
212.5073570488918
 20
265.1639957147021
 30
0.0
 10
212.5254266521548
 20
265.1587083666421
 30
0.0
  0
LINE
  5
9C
330
1F
100
AcDbEntity
  8
0
  6
Continuous
 62
     7
370
    25
100
AcDbLine
 10
211.7510343166
 20
278.5899078091
 30
0.0
 11
211.7510343166
 21
266.1376902548
 31
0.0
  0
SPLINE
  5
9D
330
1F
100
AcDbEntity
  8
0
  6
Continuous
 62
     7
370
    25
100
AcDbSpline
210
0.0
220
0.0
230
1.0
 70
     8
 71
     3
 72
    13
 73
     9
 74
     0
 42
0.00000001
 43
0.00000001
 40
0.0
 40
0.0
 40
0.0
 40
0.0
 40
0.1984026728815252
 40
0.280133894780678
 40
0.3969756900985334
 40
0.552366098071944
 40
0.781450625801371
 40
1.0
 40
1.0
 40
1.0
 40
1.0
 10
247.810432506877
 20
265.1321489793965
 30
0.0
 10
247.8638714081073
 20
265.145965067745
 30
0.0
 10
247.9393242602137
 20
265.1654726408208
 30
0.0
 10
248.0946733308789
 20
265.2248163402973
 30
0.0
 10
248.2594903830234
 20
265.3144942685467
 30
0.0
 10
248.4607522500866
 20
265.4914019748715
 30
0.0
 10
248.6399417575312
 20
265.7741064299377
 30
0.0
 10
248.666520544287
 20
266.0149176070331
 30
0.0
 10
248.6794971691302
 20
266.1324894259403
 30
0.0
  0
LINE
  5
9E
330
1F
100
AcDbEntity
  8
0
  6
Continuous
 62
     7
370
    25
100
AcDbLine
 10
248.679659561
 20
266.1376902548
 30
0.0
 11
248.679659561
 21
278.5899078091
 31
0.0
  0
SPLINE
  5
9F
330
1F
100
AcDbEntity
  8
0
  6
Continuous
 62
     7
370
    25
100
AcDbSpline
210
0.0
220
0.0
230
1.0
 70
     8
 71
     3
 72
    12
 73
     8
 74
     0
 42
0.00000001
 43
0.00000001
 40
0.0
 40
0.0
 40
0.0
 40
0.0
 40
0.0578866487804582
 40
0.1699046119916362
 40
0.3384997265558459
 40
0.6017910683630362
 40
1.0
 40
1.0
 40
1.0
 40
1.0
 10
248.6796595609604
 20
278.5899078090504
 30
0.0
 10
248.6817903091807
 20
278.6284307600838
 30
0.0
 10
248.6880443238323
 20
278.7415004779897
 30
0.0
 10
248.7666612583485
 20
278.9513508135159
 30
0.0
 10
248.9793999344451
 20
279.2232406157714
 30
0.0
 10
249.4233775000206
 20
279.5167922070067
 30
0.0
 10
249.8370482051406
 20
279.5624330210272
 30
0.0
 10
250.0860690689987
 20
279.5899078090504
 30
0.0
  0
ARC
  5
A0
330
1F
100
AcDbEntity
  8
0
  6
Continuous
 62
     7
370
    25
100
AcDbCircle
 10
-0.0846530612
 20
283.0899078091
 30
0.0
 40
0.5000000000000568
100
AcDbArc
 50
90.0
 51
180.0
  0
ARC
  5
A1
330
1F
100
AcDbEntity
  8
0
  6
Continuous
 62
     7
370
    25
100
AcDbCircle
 10
50.5153469388
 20
283.0899078091
 30
0.0
 40
0.5000000000000568
100
AcDbArc
 50
0.0
 51
90.0
  0
ARC
  5
A2
330
1F
100
AcDbEntity
  8
0
  6
Continuous
 62
     7
370
    25
100
AcDbCircle
 10
50.0153469388
 20
280.5899078091
 30
0.0
 40
1.000000000000007
100
AcDbArc
 50
270.0
 51
0.0
  0
ARC
  5
A3
330
1F
100
AcDbEntity
  8
0
  6
Continuous
 62
     7
370
    25
100
AcDbCircle
 10
0.4153469388
 20
280.5899078091
 30
0.0
 40
1.000000000000001
100
AcDbArc
 50
180.0
 51
270.0
  0
LINE
  5
A4
330
1F
100
AcDbEntity
  8
0
  6
Continuous
 62
     7
370
    25
100
AcDbLine
 10
-0.5846530612
 20
283.0899078091
 30
0.0
 11
-0.5846530612
 21
280.5899078091
 31
0.0
  0
LINE
  5
A5
330
1F
100
AcDbEntity
  8
0
  6
Continuous
 62
     7
370
    25
100
AcDbLine
 10
51.0153469388
 20
280.5899078091
 30
0.0
 11
51.0153469388
 21
283.0899078091
 31
0.0
  0
LINE
  5
A6
330
1F
100
AcDbEntity
  8
0
  6
Continuous
 62
     7
370
    25
100
AcDbLine
 10
8.5617777815
 20
264.8967185631
 30
0.0
 11
11.4181838221
 21
264.3050344546
 31
0.0
  0
LINE
  5
A7
330
1F
100
AcDbEntity
  8
0
  6
Continuous
 62
     7
370
    25
100
AcDbLine
 10
39.0125100555
 20
264.3050344546
 30
0.0
 11
41.8689160961
 21
264.8967185631
 31
0.0
  0
ARC
  5
A8
330
1F
100
AcDbEntity
  8
0
  6
Continuous
 62
     7
370
    25
100
AcDbCircle
 10
11.2153469388
 20
263.3258219145
 30
0.0
 40
1.0
100
AcDbArc
 50
0.0
 51
78.2970985198
  0
ARC
  5
A9
330
1F
100
AcDbEntity
  8
0
  6
Continuous
 62
     7
370
    25
100
AcDbCircle
 10
39.2153469388
 20
263.3258219145
 30
0.0
 40
1.000000000000008
100
AcDbArc
 50
101.7029014802
 51
180.0
  0
LINE
  5
AA
330
1F
100
AcDbEntity
  8
0
  6
Continuous
 62
     7
370
    25
100
AcDbLine
 10
12.2153469388
 20
263.3258219145
 30
0.0
 11
12.2153469388
 21
259.3899078091
 31
0.0
  0
LINE
  5
AB
330
1F
100
AcDbEntity
  8
0
  6
Continuous
 62
     7
370
    25
100
AcDbLine
 10
38.2153469388
 20
259.3899078091
 30
0.0
 11
38.2153469388
 21
263.3258219145
 31
0.0
  0
SPLINE
  5
AC
330
1F
100
AcDbEntity
  8
0
  6
Continuous
 62
     7
370
    25
100
AcDbSpline
210
0.0
220
0.0
230
1.0
 70
     8
 71
     3
 72
    12
 73
     8
 74
     0
 42
0.00000001
 43
0.00000001
 40
0.0
 40
0.0
 40
0.0
 40
0.0
 40
0.0578866487804455
 40
0.1699046119916318
 40
0.3384997265558307
 40
0.6017910683630328
 40
1.0
 40
1.0
 40
1.0
 40
1.0
 10
43.67965956096048
 20
278.5899078090504
 30
0.0
 10
43.68179030918073
 20
278.6284307600838
 30
0.0
 10
43.68804432383233
 20
278.7415004779896
 30
0.0
 10
43.76666125834855
 20
278.9513508135159
 30
0.0
 10
43.97939993444505
 20
279.2232406157715
 30
0.0
 10
44.42337750002079
 20
279.5167922070066
 30
0.0
 10
44.83704820514068
 20
279.5624330210272
 30
0.0
 10
45.0860690689987
 20
279.5899078090504
 30
0.0
  0
LINE
  5
AD
330
1F
100
AcDbEntity
  8
0
  6
Continuous
 62
     7
370
    25
100
AcDbLine
 10
43.679659561
 20
266.1377839323
 30
0.0
 11
43.679659561
 21
278.5899078091
 31
0.0
  0
LINE
  5
AE
330
1F
100
AcDbEntity
  8
0
  6
Continuous
 62
     7
370
    25
100
AcDbLine
 10
42.4910705165
 20
265.1129666222
 30
0.0
 11
42.5820204876
 21
265.1269315097
 31
0.0
  0
SPLINE
  5
AF
330
1F
100
AcDbEntity
  8
0
  6
Continuous
 62
     7
370
    25
100
AcDbSpline
210
0.0
220
0.0
230
1.0
 70
     8
 71
     3
 72
    14
 73
    10
 74
     0
 42
0.00000001
 43
0.00000001
 40
0.0
 40
0.0
 40
0.0
 40
0.0
 40
0.0674517755863489
 40
0.1628526653232681
 40
0.2816206006965202
 40
0.4382577004069502
 40
0.692241120608656
 40
0.9354771989808781
 40
1.0
 40
1.0
 40
1.0
 40
1.0
 10
42.92082486808923
 20
265.1637371990564
 30
0.0
 10
42.93769458164282
 20
265.1686571993928
 30
0.0
 10
42.97842409234226
 20
265.1805358365556
 30
0.0
 10
43.07262243054405
 20
265.215524514818
 30
0.0
 10
43.2230507593217
 20
265.2922195448464
 30
0.0
 10
43.42045113559051
 20
265.4459546507508
 30
0.0
 10
43.59572377240539
 20
265.7023867399258
 30
0.0
 10
43.68864602502553
 20
265.9641182065598
 30
0.0
 10
43.67087508855671
 20
266.1087447101753
 30
0.0
 10
43.66714934520866
 20
266.1390661980016
 30
0.0
  0
SPLINE
  5
B0
330
1F
100
AcDbEntity
  8
0
  6
Continuous
 62
     7
370
    25
100
AcDbSpline
210
0.0
220
0.0
230
1.0
 70
     8
 71
     3
 72
    15
 73
    11
 74
     0
 42
0.00000001
 43
0.00000001
 40
0.0
 40
0.0
 40
0.0
 40
0.0
 40
0.1640149469837322
 40
0.3598446905653103
 40
0.5248283951248642
 40
0.66462765687543
 40
0.779046132092365
 40
0.8633773349869208
 40
0.9357912898723915
 40
1.0
 40
1.0
 40
1.0
 40
1.0
 10
6.765381924134395
 20
266.1369663924444
 30
0.0
 10
6.765368161132656
 20
266.0570557559893
 30
0.0
 10
6.765337965451201
 20
265.8817338187091
 30
0.0
 10
6.871395338681141
 20
265.6441186470191
 30
0.0
 10
7.015951029005763
 20
265.449476329092
 30
0.0
 10
7.170334586625304
 20
265.318343597577
 30
0.0
 10
7.309185392130102
 20
265.2380363492368
 30
0.0
 10
7.412952073240109
 20
265.1948025744618
 30
0.0
 10
7.478759772668209
 20
265.1720945864905
 30
0.0
 10
7.513800353338707
 20
265.1621450956767
 30
0.0
 10
7.530268415111396
 20
265.1574691220999
 30
0.0
  0
LINE
  5
B1
330
1F
100
AcDbEntity
  8
0
  6
Continuous
 62
     7
370
    25
100
AcDbLine
 10
6.7510343166
 20
278.5899078091
 30
0.0
 11
6.7510343166
 21
266.1377839323
 31
0.0
  0
SPLINE
  5
B2
330
1F
100
AcDbEntity
  8
0
  6
Continuous
 62
     7
370
    25
100
AcDbSpline
210
0.0
220
0.0
230
1.0
 70
     8
 71
     3
 72
    12
 73
     8
 74
     0
 42
0.00000001
 43
0.00000001
 40
0.0
 40
0.0
 40
0.0
 40
0.0
 40
0.1484386447246605
 40
0.5128349367579506
 40
0.7534316132173488
 40
0.9020073584227545
 40
1.0
 40
1.0
 40
1.0
 40
1.0
 10
5.344624808552911
 20
279.5899078090504
 30
0.0
 10
5.436685448705014
 20
279.5857513725495
 30
0.0
 10
5.754742196378837
 20
279.5713914607223
 30
0.0
 10
6.21162026128469
 20
279.409281397129
 30
0.0
 10
6.571412829642909
 20
279.0972339775496
 30
0.0
 10
6.729166159407828
 20
278.8194089769125
 30
0.0
 10
6.744815045366503
 20
278.6551775982396
 30
0.0
 10
6.751034316591131
 20
278.5899078090504
 30
0.0
  0
ARC
  5
B3
330
1F
100
AcDbEntity
  8
0
  6
Continuous
 62
     7
370
    25
100
AcDbCircle
 10
127.7153469388
 20
224.8899078091
 30
0.0
 40
16.60000000000002
100
AcDbArc
 50
304.8949008477
 51
193.5079638935
  0
ARC
  5
B4
330
1F
100
AcDbEntity
  8
0
  6
Continuous
 62
     7
370
    25
100
AcDbCircle
 10
127.7153469388
 20
224.8899078091
 30
0.0
 40
16.60000000000002
100
AcDbArc
 50
193.5079638935
 51
235.0748801121
  0
ARC
  5
B5
330
1F
100
AcDbEntity
  8
0
  6
Continuous
 62
     7
370
    25
100
AcDbCircle
 10
127.7153469388
 20
224.8899078091
 30
0.0
 40
17.85000000000001
100
AcDbArc
 50
214.8581727878
 51
232.1577549992
  0
SPLINE
  5
B6
330
1F
100
AcDbEntity
  8
0
  6
Continuous
 62
     7
370
    25
100
AcDbSpline
210
0.0
220
0.0
230
1.0
 70
    24
 71
     3
 72
    12
 73
     8
 74
     0
 42
0.00000001
 43
0.00000001
 40
0.0
 40
0.0
 40
0.0
 40
0.0
 40
0.2393723162992724
 40
0.4867740897682189
 40
0.7352575849600317
 40
0.9946662042473912
 40
1.0
 40
1.0
 40
1.0
 40
1.0
 10
110.032288954192
 20
227.3254694103705
 30
0.0
 10
110.2667381106817
 20
226.3495160189268
 30
0.0
 10
110.7435007393416
 20
224.3648720503976
 30
0.0
 10
111.5101321067006
 20
221.1735767855167
 30
0.0
 10
112.2966381845634
 20
217.8995480554724
 30
0.0
 10
112.8081775325904
 20
215.7701372738935
 30
0.0
 10
113.0630493471458
 20
214.7091694481828
 30
0.0
 10
113.0681842787802
 20
214.6877940079022
 30
0.0
  0
ARC
  5
B7
330
1F
100
AcDbEntity
  8
0
  6
Continuous
 62
     7
370
    25
100
AcDbCircle
 10
127.7153469388
 20
224.8899078091
 30
0.0
 40
17.85000000000002
100
AcDbArc
 50
154.8581727878
 51
172.1577549992
  0
SPLINE
  5
B8
330
1F
100
AcDbEntity
  8
0
  6
Continuous
 62
     7
370
    25
100
AcDbSpline
210
0.0
220
0.0
230
1.0
 70
    24
 71
     3
 72
    12
 73
     8
 74
     0
 42
0.00000001
 43
0.00000001
 40
0.0
 40
0.0
 40
0.0
 40
0.0
 40
0.2009878446144207
 40
0.4063457791314781
 40
0.6297568067889969
 40
0.8620630290152732
 40
1.0
 40
1.0
 40
1.0
 40
1.0
 10
120.9830761657082
 20
241.4216660409547
 30
0.0
 10
120.3734596519413
 20
240.8430005083565
 30
0.0
 10
119.1409716985863
 20
239.673087486247
 30
0.0
 10
117.1239153573633
 20
237.7584395795455
 30
0.0
 10
114.9776882727543
 20
235.7211790871788
 30
0.0
 10
113.0904797365351
 20
233.929786452509
 30
0.0
 10
111.9728554675781
 20
232.8689053440818
 30
0.0
 10
111.556475884683
 20
232.4736658653968
 30
0.0
  0
ARC
  5
B9
330
1F
100
AcDbEntity
  8
0
  6
Continuous
 62
     7
370
    25
100
AcDbCircle
 10
127.7153469388
 20
224.8899078091
 30
0.0
 40
17.85000000000003
100
AcDbArc
 50
94.8581727878
 51
112.1577549992
  0
SPLINE
  5
BA
330
1F
100
AcDbEntity
  8
0
  6
Continuous
 62
     7
370
    25
100
AcDbSpline
210
0.0
220
0.0
230
1.0
 70
    24
 71
     3
 72
    12
 73
     8
 74
     0
 42
0.00000001
 43
0.00000001
 40
0.0
 40
0.0
 40
0.0
 40
0.0
 40
0.2009878446144214
 40
0.4063457791314812
 40
0.629756806789
 40
0.8620630290152728
 40
1.0
 40
1.0
 40
1.0
 40
1.0
 10
138.6661341502929
 20
238.9861044396359
 30
0.0
 10
137.8601868418849
 20
239.2247150608256
 30
0.0
 10
136.2307684678424
 20
239.7071244272344
 30
0.0
 10
133.5641065707246
 20
240.4966225062475
 30
0.0
 10
130.7266736879041
 20
241.3366794376256
 30
0.0
 10
128.2316778900182
 20
242.0753536548954
 30
0.0
 10
126.7541157652468
 20
242.5128041094846
 30
0.0
 10
126.2036385446795
 20
242.6757796665464
 30
0.0
  0
ARC
  5
BB
330
1F
100
AcDbEntity
  8
0
  6
Continuous
 62
     7
370
    25
100
AcDbCircle
 10
127.7153469388
 20
224.8899078091
 30
0.0
 40
17.85000000000002
100
AcDbArc
 50
34.8581727878
 51
52.1577549992
  0
SPLINE
  5
BC
330
1F
100
AcDbEntity
  8
0
  6
Continuous
 62
     7
370
    25
100
AcDbSpline
210
0.0
220
0.0
230
1.0
 70
    24
 71
     3
 72
    12
 73
     8
 74
     0
 42
0.00000001
 43
0.00000001
 40
0.0
 40
0.0
 40
0.0
 40
0.0
 40
0.2393723162992727
 40
0.4867740897682217
 40
0.7352575849600337
 40
0.994666204247393
 40
0.9999999999999999
 40
0.9999999999999999
 40
0.9999999999999999
 40
0.9999999999999999
 10
145.3984049233612
 20
222.454346207733
 30
0.0
 10
145.1639557668715
 20
223.4302995991767
 30
0.0
 10
144.6871931382117
 20
225.4149435677058
 30
0.0
 10
143.9205617708527
 20
228.6062388325868
 30
0.0
 10
143.1340556929896
 20
231.8802675626312
 30
0.0
 10
142.6225163449639
 20
234.0096783442098
 30
0.0
 10
142.3676445304075
 20
235.0706461699207
 30
0.0
 10
142.3625095987731
 20
235.0920216102013
 30
0.0
  0
ARC
  5
BD
330
1F
100
AcDbEntity
  8
0
  6
Continuous
 62
     7
370
    25
100
AcDbCircle
 10
127.7153469388
 20
224.8899078091
 30
0.0
 40
17.85000000000001
100
AcDbArc
 50
334.8581727878
 51
352.1577549992
  0
SPLINE
  5
BE
330
1F
100
AcDbEntity
  8
0
  6
Continuous
 62
     7
370
    25
100
AcDbSpline
210
0.0
220
0.0
230
1.0
 70
    24
 71
     3
 72
    11
 73
     7
 74
     0
 42
0.00000001
 43
0.00000001
 40
0.0
 40
0.0
 40
0.0
 40
0.0
 40
0.1552889499815745
 40
0.4731806740262245
 40
0.8037293773024873
 40
1.0
 40
1.0
 40
1.0
 40
1.0
 10
137.2116795699517
 20
210.9818766106772
 30
0.0
 10
137.5577743561076
 20
211.3103997383118
 30
0.0
 10
138.6123591427884
 20
212.3114419566135
 30
0.0
 10
140.4554664415225
 20
214.0609724279373
 30
0.0
 10
142.3398741824959
 20
215.8497064671853
 30
0.0
 10
143.4577461339436
 20
216.9108226829581
 30
0.0
 10
143.8742179928701
 20
217.3061497527067
 30
0.0
  0
LINE
  5
BF
330
1F
100
AcDbEntity
  8
0
  6
Continuous
 62
     7
370
    25
100
AcDbLine
 10
116.7645597273
 20
210.7937111785
 30
0.0
 11
118.2115163171
 21
210.3653218692
 31
0.0
  0
LINE
  5
C0
330
1F
100
AcDbEntity
  8
0
  6
Continuous
 62
     7
370
    25
100
AcDbLine
 10
118.1352855261
 20
-78.7042485143
 30
0.0
 11
117.8918717908
 21
-79.8563670297
 31
0.0
  0
SPLINE
  5
C1
330
1F
100
AcDbEntity
  8
0
  6
Continuous
 62
     7
370
    25
100
AcDbSpline
210
0.0
220
0.0
230
1.0
 70
     8
 71
     3
 72
    10
 73
     6
 74
     0
 42
0.00000001
 43
0.00000001
 40
0.0
 40
0.0
 40
0.0
 40
0.0
 40
0.1811753902416731
 40
0.9068782913847316
 40
0.9999999999999999
 40
0.9999999999999999
 40
0.9999999999999999
 40
0.9999999999999999
 10
117.8918717908179
 20
-79.85636702965846
 30
0.0
 10
117.9002563586785
 20
-79.76942963439609
 30
0.0
 10
117.9422255387374
 20
-79.33426216287695
 30
0.0
 10
117.9638780356416
 20
-78.8386479944198
 30
0.0
 10
118.117847083257
 20
-78.47332783928817
 30
0.0
 10
118.1353573786451
 20
-78.43178141208983
 30
0.0
  0
ARC
  5
C2
330
1F
100
AcDbEntity
  8
0
  6
Continuous
 62
     7
370
    25
100
AcDbCircle
 10
127.6347928462
 20
-80.5737590323
 30
0.0
 40
9.786249580635609
100
AcDbArc
 50
166.092843657
 51
13.8769373027
  0
SPLINE
  5
C3
330
1F
100
AcDbEntity
  8
0
  6
Continuous
 62
     7
370
    25
100
AcDbSpline
210
0.0
220
0.0
230
1.0
 70
     8
 71
     3
 72
    10
 73
     6
 74
     0
 42
0.00000001
 43
0.00000001
 40
0.0
 40
0.0
 40
0.0
 40
0.0
 40
0.1099376413475851
 40
0.8671557667216183
 40
1.0
 40
1.0
 40
1.0
 40
1.0
 10
137.1348599951885
 20
-80.32038046371642
 30
0.0
 10
137.1452989926036
 20
-80.47312351254097
 30
0.0
 10
137.2276387326263
 20
-81.67791573830895
 30
0.0
 10
137.0178508181605
 20
-83.15381208230457
 30
0.0
 10
136.3607270633439
 20
-84.2119984390923
 30
0.0
 10
136.2626495516628
 20
-84.36993563738696
 30
0.0
  0
LINE
  5
C4
330
1F
100
AcDbEntity
  8
0
  6
Continuous
 62
     7
370
    25
100
AcDbLine
 10
117.8918717908
 20
-79.8563670296
 30
0.0
 11
118.1353438306
 21
-78.4831558716
 31
0.0
  0
ARC
  5
C5
330
1F
100
AcDbEntity
  8
0
  6
Continuous
 62
     7
370
    25
100
AcDbCircle
 10
127.6398927131
 20
-80.5815863401
 30
0.0
 40
10.17380915405421
100
AcDbArc
 50
233.5317351868
 51
21.0346662236
  0
ARC
  5
C6
330
1F
100
AcDbEntity
  8
0
  6
Continuous
 62
     7
370
    25
100
AcDbCircle
 10
127.5134904428
 20
-80.6103101598
 30
0.0
 40
10.07593417931792
100
AcDbArc
 50
158.5451871676
 51
234.012686038
  0
LWPOLYLINE
  5
C7
330
1F
100
AcDbEntity
  8
0
  6
Continuous
 62
     7
370
    25
100
AcDbPolyline
 90
       18
 70
   128
 43
0.0
 10
137.2153466084
 20
224.8874025558
 10
137.0332955293
 20
226.7408086882
 10
136.4931609114
 20
228.5230857379
 10
135.6156998251
 20
230.1657417972
 10
134.4346326081
 20
231.6056505152
 10
132.9953470109
 20
232.7874770071
 10
131.3531539721
 20
233.6658043438
 10
129.571162049
 20
234.2068788982
 10
127.7178521921
 20
234.3899074787
 10
125.8644460596
 20
234.2078563996
 10
124.0821690099
 20
233.6677217816
 10
122.4395129506
 20
232.7902606954
 10
120.9996042327
 20
231.6091934783
 10
119.8177777407
 20
230.1699078812
 10
118.939450404
 20
228.5277148423
 10
118.3983758496
 20
226.7457229193
 10
118.2153472691
 20
224.8924130623
 10
118.2153472691
 20
224.8924130623
  0
LINE
  5
C8
330
1F
100
AcDbEntity
  8
0
  6
Continuous
 62
     7
370
    25
100
AcDbLine
 10
133.8782688462
 20
-87.696488616
 30
0.0
 11
133.8782542262
 21
-87.751927966
 31
0.0
  0
LINE
  5
C9
330
1F
100
AcDbEntity
  8
0
  6
Continuous
 62
     7
370
    25
100
AcDbLine
 10
137.0133304863
 20
-81.2522762974
 30
0.0
 11
137.0793918088
 21
-80.7050753134
 31
0.0
  0
SPLINE
  5
CA
330
1F
100
AcDbEntity
  8
0
  6
Continuous
 62
     7
370
    25
100
AcDbSpline
210
0.0
220
0.0
230
1.0
 70
     8
 71
     3
 72
    15
 73
    11
 74
     0
 42
0.00000001
 43
0.00000001
 40
0.0
 40
0.0
 40
0.0
 40
0.0
 40
0.1141871441353429
 40
0.2575181428661641
 40
0.397739383318496
 40
0.5407196260611474
 40
0.6823507190301557
 40
0.8236791642498378
 40
0.9667891565062741
 40
1.0
 40
1.0
 40
1.0
 40
1.0
 10
118.2096400045031
 20
-80.63233652219459
 30
0.0
 10
118.2419913189235
 20
-81.45348631082008
 30
0.0
 10
118.3149509368551
 20
-83.30536701230382
 30
0.0
 10
119.6007076496816
 20
-85.93760805907827
 30
0.0
 10
121.7103436629238
 20
-88.20554439625674
 30
0.0
 10
124.458952810923
 20
-89.67530063671076
 30
0.0
 10
127.5405296794665
 20
-90.19927780034395
 30
0.0
 10
130.6279321535825
 20
-89.7191950368375
 30
0.0
 10
132.7153394384431
 20
-88.65852704767849
 30
0.0
 10
133.6939441336162
 20
-87.84897203952296
 30
0.0
 10
133.8782688462082
 20
-87.69648861598978
 30
0.0
  0
LINE
  5
CB
330
1F
100
AcDbEntity
  8
0
  6
Continuous
 62
     7
370
    25
100
AcDbLine
 10
27.2044952245
 20
226.4072606851
 30
0.0
 11
27.6954159263
 21
225.2190407161
 31
0.0
  0
LINE
  5
CC
330
1F
100
AcDbEntity
  8
0
  6
Continuous
 62
     7
370
    25
100
AcDbLine
 10
27.6954159263
 20
225.2190407161
 30
0.0
 11
27.4381695835
 21
225.325867791
 31
0.0
  0
LINE
  5
CD
330
1F
100
AcDbEntity
  8
0
  6
Continuous
 62
     7
370
    25
100
AcDbLine
 10
27.4381695835
 20
225.325867791
 30
0.0
 11
27.0976681496
 21
226.1500143423
 31
0.0
  0
LINE
  5
CE
330
1F
100
AcDbEntity
  8
0
  6
Continuous
 62
     7
370
    25
100
AcDbLine
 10
27.2044952245
 20
226.4072606851
 30
0.0
 11
27.0976681496
 21
226.1500143423
 31
0.0
  0
CIRCLE
  5
CF
330
1F
100
AcDbEntity
  8
0
  6
Continuous
 62
     7
370
    25
100
AcDbCircle
 10
25.2153469388
 20
224.8899078091
 30
0.0
 40
3.350000000000016
  0
CIRCLE
  5
D0
330
1F
100
AcDbEntity
  8
0
  6
Continuous
 62
     7
370
    25
100
AcDbCircle
 10
25.2153469388
 20
224.8899078091
 30
0.0
 40
3.249999999999981
  0
LINE
  5
D1
330
1F
100
AcDbEntity
  8
0
  6
Continuous
 62
     7
370
    25
100
AcDbLine
 10
27.0976681496
 20
226.1500143423
 30
0.0
 11
25.7613702812
 21
225.5979143067
 31
0.0
  0
LINE
  5
D2
330
1F
100
AcDbEntity
  8
0
  6
Continuous
 62
     7
370
    25
100
AcDbLine
 10
25.7613702812
 20
225.5979143067
 30
0.0
 11
25.6861606473
 21
225.7799510156
 31
0.0
  0
LINE
  5
D3
330
1F
100
AcDbEntity
  8
0
  6
Continuous
 62
     7
370
    25
100
AcDbLine
 10
25.6861606473
 20
225.7799510156
 30
0.0
 11
27.2044952245
 21
226.4072606851
 31
0.0
  0
LINE
  5
D4
330
1F
100
AcDbEntity
  8
0
  6
Continuous
 62
     7
370
    25
100
AcDbLine
 10
27.6954159263
 20
225.2190407161
 30
0.0
 11
26.177081349
 21
224.5917310465
 31
0.0
  0
ARC
  5
D5
330
1F
100
AcDbEntity
  8
0
  6
Continuous
 62
     7
370
    25
100
AcDbCircle
 10
25.6356877762
 20
225.9021150904
 30
0.0
 40
0.1321800737645641
100
AcDbArc
 50
202.4482808468
 51
292.4482808468
  0
LINE
  5
D6
330
1F
100
AcDbEntity
  8
0
  6
Continuous
 62
     7
370
    25
100
AcDbLine
 10
24.8862140318
 20
227.3699767966
 30
0.0
 11
25.5135237013
 21
225.8516422193
 31
0.0
  0
LINE
  5
D7
330
1F
100
AcDbEntity
  8
0
  6
Continuous
 62
     7
370
    25
100
AcDbLine
 10
23.6979940627
 20
226.8790560948
 30
0.0
 11
24.8862140318
 21
227.3699767966
 31
0.0
  0
LINE
  5
D8
330
1F
100
AcDbEntity
  8
0
  6
Continuous
 62
     7
370
    25
100
AcDbLine
 10
24.3253037323
 20
225.3607215175
 30
0.0
 11
23.6979940627
 21
226.8790560948
 31
0.0
  0
ARC
  5
D9
330
1F
100
AcDbEntity
  8
0
  6
Continuous
 62
     7
370
    25
100
AcDbCircle
 10
24.2031396574
 20
225.3102486464
 30
0.0
 40
0.1321800737645904
100
AcDbArc
 50
292.4482808468
 51
22.4482808468
  0
LINE
  5
DA
330
1F
100
AcDbEntity
  8
0
  6
Continuous
 62
     7
370
    25
100
AcDbLine
 10
22.7352779513
 20
224.560774902
 30
0.0
 11
24.2536125285
 21
225.1880845716
 31
0.0
  0
LINE
  5
DB
330
1F
100
AcDbEntity
  8
0
  6
Continuous
 62
     7
370
    25
100
AcDbLine
 10
23.226198653
 20
223.372554933
 30
0.0
 11
22.7352779513
 21
224.560774902
 31
0.0
  0
LINE
  5
DC
330
1F
100
AcDbEntity
  8
0
  6
Continuous
 62
     7
370
    25
100
AcDbLine
 10
24.7445332303
 20
223.9998646025
 30
0.0
 11
23.226198653
 21
223.372554933
 31
0.0
  0
ARC
  5
DD
330
1F
100
AcDbEntity
  8
0
  6
Continuous
 62
     7
370
    25
100
AcDbCircle
 10
24.7950061014
 20
223.8777005277
 30
0.0
 40
0.1321800737645485
100
AcDbArc
 50
22.4482808468
 51
112.4482808468
  0
LINE
  5
DE
330
1F
100
AcDbEntity
  8
0
  6
Continuous
 62
     7
370
    25
100
AcDbLine
 10
25.5444798458
 20
222.4098388215
 30
0.0
 11
24.9171701762
 21
223.9281733988
 31
0.0
  0
LINE
  5
DF
330
1F
100
AcDbEntity
  8
0
  6
Continuous
 62
     7
370
    25
100
AcDbLine
 10
26.7326998148
 20
222.9007595233
 30
0.0
 11
25.5444798458
 21
222.4098388215
 31
0.0
  0
LINE
  5
E0
330
1F
100
AcDbEntity
  8
0
  6
Continuous
 62
     7
370
    25
100
AcDbLine
 10
26.1053901453
 20
224.4190941006
 30
0.0
 11
26.7326998148
 21
222.9007595233
 31
0.0
  0
ARC
  5
E1
330
1F
100
AcDbEntity
  8
0
  6
Continuous
 62
     7
370
    25
100
AcDbCircle
 10
26.2275542201
 20
224.4695669717
 30
0.0
 40
0.132180073764589
100
AcDbArc
 50
112.4482808468
 51
202.4482808468
  0
LINE
  5
E2
330
1F
100
AcDbEntity
  8
0
  6
Continuous
 62
     7
370
    25
100
AcDbLine
 10
26.177081349
 20
224.5917310465
 30
0.0
 11
26.1018717151
 21
224.7737677554
 31
0.0
  0
LINE
  5
E3
330
1F
100
AcDbEntity
  8
0
  6
Continuous
 62
     7
370
    25
100
AcDbLine
 10
26.1018717151
 20
224.7737677554
 30
0.0
 11
27.4381695835
 21
225.325867791
 31
0.0
  0
LINE
  5
E4
330
1F
100
AcDbEntity
  8
0
  6
Continuous
 62
     7
370
    25
100
AcDbLine
 10
25.5444798458
 20
222.4098388215
 30
0.0
 11
25.6513069208
 21
222.6670851643
 31
0.0
  0
LINE
  5
E5
330
1F
100
AcDbEntity
  8
0
  6
Continuous
 62
     7
370
    25
100
AcDbLine
 10
25.6513069208
 20
222.6670851643
 30
0.0
 11
26.475453472
 21
223.0075865983
 31
0.0
  0
LINE
  5
E6
330
1F
100
AcDbEntity
  8
0
  6
Continuous
 62
     7
370
    25
100
AcDbLine
 10
26.7326998148
 20
222.9007595233
 30
0.0
 11
26.475453472
 21
223.0075865983
 31
0.0
  0
LINE
  5
E7
330
1F
100
AcDbEntity
  8
0
  6
Continuous
 62
     7
370
    25
100
AcDbLine
 10
23.333025728
 20
223.6298012758
 30
0.0
 11
24.6693235964
 21
224.1819013114
 31
0.0
  0
LINE
  5
E8
330
1F
100
AcDbEntity
  8
0
  6
Continuous
 62
     7
370
    25
100
AcDbLine
 10
24.7445332303
 20
223.9998646025
 30
0.0
 11
24.6693235964
 21
224.1819013114
 31
0.0
  0
LINE
  5
E9
330
1F
100
AcDbEntity
  8
0
  6
Continuous
 62
     7
370
    25
100
AcDbLine
 10
23.333025728
 20
223.6298012758
 30
0.0
 11
23.226198653
 21
223.372554933
 31
0.0
  0
LINE
  5
EA
330
1F
100
AcDbEntity
  8
0
  6
Continuous
 62
     7
370
    25
100
AcDbLine
 10
24.9171701762
 20
223.9281733988
 30
0.0
 11
25.0992068851
 21
224.0033830327
 31
0.0
  0
LINE
  5
EB
330
1F
100
AcDbEntity
  8
0
  6
Continuous
 62
     7
370
    25
100
AcDbLine
 10
25.0992068851
 20
224.0033830327
 30
0.0
 11
25.6513069208
 21
222.6670851643
 31
0.0
  0
ARC
  5
EC
330
1F
100
AcDbEntity
  8
0
  6
Continuous
 62
     7
370
    25
100
AcDbCircle
 10
24.2031396574
 20
225.3102486464
 30
0.0
 40
0.3291416243670076
100
AcDbArc
 50
292.4482808468
 51
22.4482808468
  0
LINE
  5
ED
330
1F
100
AcDbEntity
  8
0
  6
Continuous
 62
     7
370
    25
100
AcDbLine
 10
24.3288221624
 20
225.0060478627
 30
0.0
 11
24.2536125285
 21
225.1880845716
 31
0.0
  0
LINE
  5
EE
330
1F
100
AcDbEntity
  8
0
  6
Continuous
 62
     7
370
    25
100
AcDbLine
 10
24.5073404412
 20
225.4359311515
 30
0.0
 11
24.3253037323
 21
225.3607215175
 31
0.0
  0
LINE
  5
EF
330
1F
100
AcDbEntity
  8
0
  6
Continuous
 62
     7
370
    25
100
AcDbLine
 10
22.9925242941
 20
224.4539478271
 30
0.0
 11
23.333025728
 21
223.6298012758
 31
0.0
  0
LINE
  5
F0
330
1F
100
AcDbEntity
  8
0
  6
Continuous
 62
     7
370
    25
100
AcDbLine
 10
22.9925242941
 20
224.4539478271
 30
0.0
 11
22.7352779513
 21
224.560774902
 31
0.0
  0
LINE
  5
F1
330
1F
100
AcDbEntity
  8
0
  6
Continuous
 62
     7
370
    25
100
AcDbLine
 10
23.9552404055
 20
226.7722290198
 30
0.0
 11
24.5073404412
 21
225.4359311515
 31
0.0
  0
LINE
  5
F2
330
1F
100
AcDbEntity
  8
0
  6
Continuous
 62
     7
370
    25
100
AcDbLine
 10
23.9552404055
 20
226.7722290198
 30
0.0
 11
23.6979940627
 21
226.8790560948
 31
0.0
  0
LINE
  5
F3
330
1F
100
AcDbEntity
  8
0
  6
Continuous
 62
     7
370
    25
100
AcDbLine
 10
26.475453472
 20
223.0075865983
 30
0.0
 11
25.9233534364
 21
224.3438844666
 31
0.0
  0
LINE
  5
F4
330
1F
100
AcDbEntity
  8
0
  6
Continuous
 62
     7
370
    25
100
AcDbLine
 10
26.1053901453
 20
224.4190941006
 30
0.0
 11
25.9233534364
 21
224.3438844666
 31
0.0
  0
LINE
  5
F5
330
1F
100
AcDbEntity
  8
0
  6
Continuous
 62
     7
370
    25
100
AcDbLine
 10
25.3314869924
 20
225.7764325854
 30
0.0
 11
24.7793869568
 21
227.1127304538
 31
0.0
  0
LINE
  5
F6
330
1F
100
AcDbEntity
  8
0
  6
Continuous
 62
     7
370
    25
100
AcDbLine
 10
24.7793869568
 20
227.1127304538
 30
0.0
 11
24.8862140318
 21
227.3699767966
 31
0.0
  0
LINE
  5
F7
330
1F
100
AcDbEntity
  8
0
  6
Continuous
 62
     7
370
    25
100
AcDbLine
 10
25.3314869924
 20
225.7764325854
 30
0.0
 11
25.5135237013
 21
225.8516422193
 31
0.0
  0
ARC
  5
F8
330
1F
100
AcDbEntity
  8
0
  6
Continuous
 62
     7
370
    25
100
AcDbCircle
 10
25.6356877762
 20
225.9021150904
 30
0.0
 40
0.3291416243669813
100
AcDbArc
 50
202.4482808468
 51
292.4482808468
  0
ARC
  5
F9
330
1F
100
AcDbEntity
  8
0
  6
Continuous
 62
     7
370
    25
100
AcDbCircle
 10
24.7950061014
 20
223.8777005277
 30
0.0
 40
0.32914162436698
100
AcDbArc
 50
22.4482808468
 51
112.4482808468
  0
ARC
  5
FA
330
1F
100
AcDbEntity
  8
0
  6
Continuous
 62
     7
370
    25
100
AcDbCircle
 10
26.2275542201
 20
224.4695669717
 30
0.0
 40
0.3291416243670076
100
AcDbArc
 50
112.4482808468
 51
202.4482808468
  0
LINE
  5
FB
330
1F
100
AcDbEntity
  8
0
  6
Continuous
 62
     7
370
    25
100
AcDbLine
 10
24.7793869568
 20
227.1127304538
 30
0.0
 11
23.9552404055
 21
226.7722290198
 31
0.0
  0
LINE
  5
FC
330
1F
100
AcDbEntity
  8
0
  6
Continuous
 62
     7
370
    25
100
AcDbLine
 10
24.3288221624
 20
225.0060478627
 30
0.0
 11
22.9925242941
 21
224.4539478271
 31
0.0
  0
LINE
  5
FD
330
1F
100
AcDbEntity
  8
0
  6
Continuous
 62
     7
370
    25
100
AcDbLine
 10
27.2459346294
 20
225.405697489
 30
0.0
 11
27.0178384516
 21
225.9577793883
 31
0.0
  0
LINE
  5
FE
330
1F
100
AcDbEntity
  8
0
  6
Continuous
 62
     7
370
    25
100
AcDbLine
 10
27.0178384516
 20
225.9577793883
 30
0.0
 11
27.0976681496
 21
226.1500143423
 31
0.0
  0
LINE
  5
FF
330
1F
100
AcDbEntity
  8
0
  6
Continuous
 62
     7
370
    25
100
AcDbLine
 10
27.2459346294
 20
225.405697489
 30
0.0
 11
27.4381695835
 21
225.325867791
 31
0.0
  0
LINE
  5
100
330
1F
100
AcDbEntity
  8
0
  6
Continuous
 62
     7
370
    25
100
AcDbLine
 10
26.0456690871
 20
224.9098000814
 30
0.0
 11
27.2459346294
 21
225.405697489
 31
0.0
  0
LINE
  5
101
330
1F
100
AcDbEntity
  8
0
  6
Continuous
 62
     7
370
    25
100
AcDbLine
 10
26.0456690871
 20
224.9098000814
 30
0.0
 11
26.1018717151
 21
224.7737677554
 31
0.0
  0
LINE
  5
102
330
1F
100
AcDbEntity
  8
0
  6
Continuous
 62
     7
370
    25
100
AcDbLine
 10
24.6995572588
 20
226.9204954997
 30
0.0
 11
24.1474753596
 21
226.6923993218
 31
0.0
  0
LINE
  5
103
330
1F
100
AcDbEntity
  8
0
  6
Continuous
 62
     7
370
    25
100
AcDbLine
 10
24.1474753596
 20
226.6923993218
 30
0.0
 11
23.9552404055
 21
226.7722290198
 31
0.0
  0
LINE
  5
104
330
1F
100
AcDbEntity
  8
0
  6
Continuous
 62
     7
370
    25
100
AcDbLine
 10
24.6995572588
 20
226.9204954997
 30
0.0
 11
24.7793869568
 21
227.1127304538
 31
0.0
  0
ARC
  5
105
330
1F
100
AcDbEntity
  8
0
  6
Continuous
 62
     7
370
    25
100
AcDbCircle
 10
25.6356877762
 20
225.9021150904
 30
0.0
 40
0.4763269807084797
100
AcDbArc
 50
202.4482808468
 51
292.4482808468
  0
LINE
  5
106
330
1F
100
AcDbEntity
  8
0
  6
Continuous
 62
     7
370
    25
100
AcDbLine
 10
25.1954546664
 20
225.7202299573
 30
0.0
 11
25.3314869924
 21
225.7764325854
 31
0.0
  0
LINE
  5
107
330
1F
100
AcDbEntity
  8
0
  6
Continuous
 62
     7
370
    25
100
AcDbLine
 10
25.8175729092
 20
225.4618819806
 30
0.0
 11
25.7613702812
 21
225.5979143067
 31
0.0
  0
ARC
  5
108
330
1F
100
AcDbEntity
  8
0
  6
Continuous
 62
     7
370
    25
100
AcDbCircle
 10
26.2275542201
 20
224.4695669717
 30
0.0
 40
0.4763269807084808
100
AcDbArc
 50
112.4482808468
 51
202.4482808468
  0
LINE
  5
109
330
1F
100
AcDbEntity
  8
0
  6
Continuous
 62
     7
370
    25
100
AcDbLine
 10
25.7873211104
 20
224.2876818386
 30
0.0
 11
25.9233534364
 21
224.3438844666
 31
0.0
  0
LINE
  5
10A
330
1F
100
AcDbEntity
  8
0
  6
Continuous
 62
     7
370
    25
100
AcDbLine
 10
23.412855426
 20
223.8220362298
 30
0.0
 11
24.6131209683
 21
224.3179336375
 31
0.0
  0
LINE
  5
10B
330
1F
100
AcDbEntity
  8
0
  6
Continuous
 62
     7
370
    25
100
AcDbLine
 10
24.6131209683
 20
224.3179336375
 30
0.0
 11
24.6693235964
 21
224.1819013114
 31
0.0
  0
LINE
  5
10C
330
1F
100
AcDbEntity
  8
0
  6
Continuous
 62
     7
370
    25
100
AcDbLine
 10
23.412855426
 20
223.8220362298
 30
0.0
 11
23.333025728
 21
223.6298012758
 31
0.0
  0
LINE
  5
10D
330
1F
100
AcDbEntity
  8
0
  6
Continuous
 62
     7
370
    25
100
AcDbLine
 10
25.1954546664
 20
225.7202299573
 30
0.0
 11
24.6995572588
 21
226.9204954997
 31
0.0
  0
LINE
  5
10E
330
1F
100
AcDbEntity
  8
0
  6
Continuous
 62
     7
370
    25
100
AcDbLine
 10
26.283218518
 20
223.0874162963
 30
0.0
 11
25.7873211104
 21
224.2876818386
 31
0.0
  0
LINE
  5
10F
330
1F
100
AcDbEntity
  8
0
  6
Continuous
 62
     7
370
    25
100
AcDbLine
 10
26.283218518
 20
223.0874162963
 30
0.0
 11
26.475453472
 21
223.0075865983
 31
0.0
  0
LINE
  5
110
330
1F
100
AcDbEntity
  8
0
  6
Continuous
 62
     7
370
    25
100
AcDbLine
 10
24.1474753596
 20
226.6923993218
 30
0.0
 11
24.6433727672
 21
225.4921337795
 31
0.0
  0
LINE
  5
111
330
1F
100
AcDbEntity
  8
0
  6
Continuous
 62
     7
370
    25
100
AcDbLine
 10
24.6433727672
 20
225.4921337795
 30
0.0
 11
24.5073404412
 21
225.4359311515
 31
0.0
  0
LINE
  5
112
330
1F
100
AcDbEntity
  8
0
  6
Continuous
 62
     7
370
    25
100
AcDbLine
 10
25.7311366188
 20
222.8593201184
 30
0.0
 11
26.283218518
 21
223.0874162963
 31
0.0
  0
LINE
  5
113
330
1F
100
AcDbEntity
  8
0
  6
Continuous
 62
     7
370
    25
100
AcDbLine
 10
25.7311366188
 20
222.8593201184
 30
0.0
 11
25.6513069208
 21
222.6670851643
 31
0.0
  0
ARC
  5
114
330
1F
100
AcDbEntity
  8
0
  6
Continuous
 62
     7
370
    25
100
AcDbCircle
 10
24.2031396574
 20
225.3102486464
 30
0.0
 40
0.4763269807084808
100
AcDbArc
 50
292.4482808468
 51
22.4482808468
  0
LINE
  5
115
330
1F
100
AcDbEntity
  8
0
  6
Continuous
 62
     7
370
    25
100
AcDbLine
 10
24.3850247905
 20
224.8700155367
 30
0.0
 11
24.3288221624
 21
225.0060478627
 31
0.0
  0
LINE
  5
116
330
1F
100
AcDbEntity
  8
0
  6
Continuous
 62
     7
370
    25
100
AcDbLine
 10
24.3850247905
 20
224.8700155367
 30
0.0
 11
23.1847592481
 21
224.3741181291
 31
0.0
  0
LINE
  5
117
330
1F
100
AcDbEntity
  8
0
  6
Continuous
 62
     7
370
    25
100
AcDbLine
 10
23.1847592481
 20
224.3741181291
 30
0.0
 11
22.9925242941
 21
224.4539478271
 31
0.0
  0
LINE
  5
118
330
1F
100
AcDbEntity
  8
0
  6
Continuous
 62
     7
370
    25
100
AcDbLine
 10
23.1847592481
 20
224.3741181291
 30
0.0
 11
23.412855426
 21
223.8220362298
 31
0.0
  0
LINE
  5
119
330
1F
100
AcDbEntity
  8
0
  6
Continuous
 62
     7
370
    25
100
AcDbLine
 10
27.0178384516
 20
225.9577793883
 30
0.0
 11
25.8175729092
 21
225.4618819806
 31
0.0
  0
ARC
  5
11A
330
1F
100
AcDbEntity
  8
0
  6
Continuous
 62
     7
370
    25
100
AcDbCircle
 10
24.7950061014
 20
223.8777005277
 30
0.0
 40
0.4763269807084797
100
AcDbArc
 50
22.4482808468
 51
112.4482808468
  0
LINE
  5
11B
330
1F
100
AcDbEntity
  8
0
  6
Continuous
 62
     7
370
    25
100
AcDbLine
 10
25.2352392111
 20
224.0595856608
 30
0.0
 11
25.0992068851
 21
224.0033830327
 31
0.0
  0
LINE
  5
11C
330
1F
100
AcDbEntity
  8
0
  6
Continuous
 62
     7
370
    25
100
AcDbLine
 10
25.2352392111
 20
224.0595856608
 30
0.0
 11
25.7311366188
 21
222.8593201184
 31
0.0
  0
CIRCLE
  5
11D
330
1F
100
AcDbEntity
  8
0
  6
Continuous
 62
     7
370
    25
100
AcDbCircle
 10
230.2153469388
 20
224.8899078091
 30
0.0
 40
3.349999999999991
  0
CIRCLE
  5
11E
330
1F
100
AcDbEntity
  8
0
  6
Continuous
 62
     7
370
    25
100
AcDbCircle
 10
230.2153469388
 20
224.8899078091
 30
0.0
 40
3.249999999999996
  0
LINE
  5
11F
330
1F
100
AcDbEntity
  8
0
  6
Continuous
 62
     7
370
    25
100
AcDbLine
 10
232.7031711034
 20
225.1541076941
 30
0.0
 11
231.1689594736
 21
224.566696437
 31
0.0
  0
LINE
  5
120
330
1F
100
AcDbEntity
  8
0
  6
Continuous
 62
     7
370
    25
100
AcDbLine
 10
232.2434741458
 20
226.3547527447
 30
0.0
 11
232.7031711034
 21
225.1541076941
 31
0.0
  0
LINE
  5
121
330
1F
100
AcDbEntity
  8
0
  6
Continuous
 62
     7
370
    25
100
AcDbLine
 10
230.709262516
 20
225.7673414875
 30
0.0
 11
232.2434741458
 21
226.3547527447
 31
0.0
  0
ARC
  5
122
330
1F
100
AcDbEntity
  8
0
  6
Continuous
 62
     7
370
    25
100
AcDbCircle
 10
230.6619998416
 20
225.8907830183
 30
0.0
 40
0.1321800737645705
100
AcDbArc
 50
200.9505931339
 51
290.9505931339
  0
LINE
  5
123
330
1F
100
AcDbEntity
  8
0
  6
Continuous
 62
     7
370
    25
100
AcDbLine
 10
229.9511470537
 20
227.3777319737
 30
0.0
 11
230.5385583108
 21
225.8435203439
 31
0.0
  0
LINE
  5
124
330
1F
100
AcDbEntity
  8
0
  6
Continuous
 62
     7
370
    25
100
AcDbLine
 10
228.7505020031
 20
226.918035016
 30
0.0
 11
229.9511470537
 21
227.3777319737
 31
0.0
  0
LINE
  5
125
330
1F
100
AcDbEntity
  8
0
  6
Continuous
 62
     7
370
    25
100
AcDbLine
 10
229.3379132603
 20
225.3838233863
 30
0.0
 11
228.7505020031
 21
226.918035016
 31
0.0
  0
ARC
  5
126
330
1F
100
AcDbEntity
  8
0
  6
Continuous
 62
     7
370
    25
100
AcDbCircle
 10
229.2144717296
 20
225.3365607118
 30
0.0
 40
0.1321800737645439
100
AcDbArc
 50
290.9505931339
 51
20.9505931339
  0
LINE
  5
127
330
1F
100
AcDbEntity
  8
0
  6
Continuous
 62
     7
370
    25
100
AcDbLine
 10
227.7275227742
 20
224.625707924
 30
0.0
 11
229.261734404
 21
225.2131191811
 31
0.0
  0
LINE
  5
128
330
1F
100
AcDbEntity
  8
0
  6
Continuous
 62
     7
370
    25
100
AcDbLine
 10
228.1872197318
 20
223.4250628734
 30
0.0
 11
227.7275227742
 21
224.625707924
 31
0.0
  0
LINE
  5
129
330
1F
100
AcDbEntity
  8
0
  6
Continuous
 62
     7
370
    25
100
AcDbLine
 10
229.7214313616
 20
224.0124741306
 30
0.0
 11
228.1872197318
 21
223.4250628734
 31
0.0
  0
ARC
  5
12A
330
1F
100
AcDbEntity
  8
0
  6
Continuous
 62
     7
370
    25
100
AcDbCircle
 10
229.768694036
 20
223.8890325998
 30
0.0
 40
0.1321800737645705
100
AcDbArc
 50
20.9505931339
 51
110.9505931339
  0
LINE
  5
12B
330
1F
100
AcDbEntity
  8
0
  6
Continuous
 62
     7
370
    25
100
AcDbLine
 10
230.4795468239
 20
222.4020836444
 30
0.0
 11
229.8921355667
 21
223.9362952742
 31
0.0
  0
LINE
  5
12C
330
1F
100
AcDbEntity
  8
0
  6
Continuous
 62
     7
370
    25
100
AcDbLine
 10
231.6801918744
 20
222.8617806021
 30
0.0
 11
230.4795468239
 21
222.4020836444
 31
0.0
  0
LINE
  5
12D
330
1F
100
AcDbEntity
  8
0
  6
Continuous
 62
     7
370
    25
100
AcDbLine
 10
231.0927806173
 20
224.3959922318
 30
0.0
 11
231.6801918744
 21
222.8617806021
 31
0.0
  0
ARC
  5
12E
330
1F
100
AcDbEntity
  8
0
  6
Continuous
 62
     7
370
    25
100
AcDbCircle
 10
231.216222148
 20
224.4432549063
 30
0.0
 40
0.1321800737645439
100
AcDbArc
 50
110.9505931339
 51
200.9505931339
  0
ARC
  5
12F
330
1F
100
AcDbEntity
  8
0
  6
Continuous
 62
     7
370
    25
100
AcDbCircle
 10
230.6619998416
 20
225.8907830183
 30
0.0
 40
0.3291416243670024
100
AcDbArc
 50
200.9505931339
 51
290.9505931339
  0
LINE
  5
130
330
1F
100
AcDbEntity
  8
0
  6
Continuous
 62
     7
370
    25
100
AcDbLine
 10
230.3546180647
 20
225.7730942246
 30
0.0
 11
230.5385583108
 21
225.8435203439
 31
0.0
  0
LINE
  5
131
330
1F
100
AcDbEntity
  8
0
  6
Continuous
 62
     7
370
    25
100
AcDbLine
 10
230.7796886352
 20
225.5834012414
 30
0.0
 11
230.709262516
 21
225.7673414875
 31
0.0
  0
LINE
  5
132
330
1F
100
AcDbEntity
  8
0
  6
Continuous
 62
     7
370
    25
100
AcDbLine
 10
231.6801918744
 20
222.8617806021
 30
0.0
 11
231.425825509
 21
222.9752947289
 31
0.0
  0
LINE
  5
133
330
1F
100
AcDbEntity
  8
0
  6
Continuous
 62
     7
370
    25
100
AcDbLine
 10
231.425825509
 20
222.9752947289
 30
0.0
 11
230.9088403712
 21
224.3255661126
 31
0.0
  0
LINE
  5
134
330
1F
100
AcDbEntity
  8
0
  6
Continuous
 62
     7
370
    25
100
AcDbLine
 10
231.0927806173
 20
224.3959922318
 30
0.0
 11
230.9088403712
 21
224.3255661126
 31
0.0
  0
LINE
  5
135
330
1F
100
AcDbEntity
  8
0
  6
Continuous
 62
     7
370
    25
100
AcDbLine
 10
231.1689594736
 20
224.566696437
 30
0.0
 11
231.0985333543
 21
224.7506366831
 31
0.0
  0
LINE
  5
136
330
1F
100
AcDbEntity
  8
0
  6
Continuous
 62
     7
370
    25
100
AcDbLine
 10
231.0985333543
 20
224.7506366831
 30
0.0
 11
232.448804738
 21
225.267621821
 31
0.0
  0
LINE
  5
137
330
1F
100
AcDbEntity
  8
0
  6
Continuous
 62
     7
370
    25
100
AcDbLine
 10
232.7031711034
 20
225.1541076941
 30
0.0
 11
232.448804738
 21
225.267621821
 31
0.0
  0
LINE
  5
138
330
1F
100
AcDbEntity
  8
0
  6
Continuous
 62
     7
370
    25
100
AcDbLine
 10
230.3546180647
 20
225.7730942246
 30
0.0
 11
229.8376329268
 21
227.1233656083
 31
0.0
  0
LINE
  5
139
330
1F
100
AcDbEntity
  8
0
  6
Continuous
 62
     7
370
    25
100
AcDbLine
 10
229.8376329268
 20
227.1233656083
 30
0.0
 11
229.9511470537
 21
227.3777319737
 31
0.0
  0
LINE
  5
13A
330
1F
100
AcDbEntity
  8
0
  6
Continuous
 62
     7
370
    25
100
AcDbLine
 10
230.4795468239
 20
222.4020836444
 30
0.0
 11
230.5930609507
 21
222.6564500098
 31
0.0
  0
LINE
  5
13B
330
1F
100
AcDbEntity
  8
0
  6
Continuous
 62
     7
370
    25
100
AcDbLine
 10
230.5930609507
 20
222.6564500098
 30
0.0
 11
231.425825509
 21
222.9752947289
 31
0.0
  0
LINE
  5
13C
330
1F
100
AcDbEntity
  8
0
  6
Continuous
 62
     7
370
    25
100
AcDbLine
 10
229.8921355667
 20
223.9362952742
 30
0.0
 11
230.0760758128
 21
224.0067213935
 31
0.0
  0
LINE
  5
13D
330
1F
100
AcDbEntity
  8
0
  6
Continuous
 62
     7
370
    25
100
AcDbLine
 10
230.0760758128
 20
224.0067213935
 30
0.0
 11
230.5930609507
 21
222.6564500098
 31
0.0
  0
LINE
  5
13E
330
1F
100
AcDbEntity
  8
0
  6
Continuous
 62
     7
370
    25
100
AcDbLine
 10
232.448804738
 20
225.267621821
 30
0.0
 11
232.1299600189
 21
226.1003863793
 31
0.0
  0
LINE
  5
13F
330
1F
100
AcDbEntity
  8
0
  6
Continuous
 62
     7
370
    25
100
AcDbLine
 10
232.2434741458
 20
226.3547527447
 30
0.0
 11
232.1299600189
 21
226.1003863793
 31
0.0
  0
ARC
  5
140
330
1F
100
AcDbEntity
  8
0
  6
Continuous
 62
     7
370
    25
100
AcDbCircle
 10
231.216222148
 20
224.4432549063
 30
0.0
 40
0.3291416243670024
100
AcDbArc
 50
110.9505931339
 51
200.9505931339
  0
LINE
  5
141
330
1F
100
AcDbEntity
  8
0
  6
Continuous
 62
     7
370
    25
100
AcDbLine
 10
232.1299600189
 20
226.1003863793
 30
0.0
 11
230.7796886352
 21
225.5834012414
 31
0.0
  0
LINE
  5
142
330
1F
100
AcDbEntity
  8
0
  6
Continuous
 62
     7
370
    25
100
AcDbLine
 10
229.0048683685
 20
226.8045208892
 30
0.0
 11
229.5218535064
 21
225.4542495055
 31
0.0
  0
LINE
  5
143
330
1F
100
AcDbEntity
  8
0
  6
Continuous
 62
     7
370
    25
100
AcDbLine
 10
229.5218535064
 20
225.4542495055
 30
0.0
 11
229.3379132603
 21
225.3838233863
 31
0.0
  0
LINE
  5
144
330
1F
100
AcDbEntity
  8
0
  6
Continuous
 62
     7
370
    25
100
AcDbLine
 10
229.0048683685
 20
226.8045208892
 30
0.0
 11
228.7505020031
 21
226.918035016
 31
0.0
  0
LINE
  5
145
330
1F
100
AcDbEntity
  8
0
  6
Continuous
 62
     7
370
    25
100
AcDbLine
 10
229.3321605232
 20
225.029178935
 30
0.0
 11
227.9818891396
 21
224.5121937971
 31
0.0
  0
LINE
  5
146
330
1F
100
AcDbEntity
  8
0
  6
Continuous
 62
     7
370
    25
100
AcDbLine
 10
227.9818891396
 20
224.5121937971
 30
0.0
 11
227.7275227742
 21
224.625707924
 31
0.0
  0
LINE
  5
147
330
1F
100
AcDbEntity
  8
0
  6
Continuous
 62
     7
370
    25
100
AcDbLine
 10
229.3321605232
 20
225.029178935
 30
0.0
 11
229.261734404
 21
225.2131191811
 31
0.0
  0
LINE
  5
148
330
1F
100
AcDbEntity
  8
0
  6
Continuous
 62
     7
370
    25
100
AcDbLine
 10
229.8376329268
 20
227.1233656083
 30
0.0
 11
229.0048683685
 21
226.8045208892
 31
0.0
  0
ARC
  5
149
330
1F
100
AcDbEntity
  8
0
  6
Continuous
 62
     7
370
    25
100
AcDbCircle
 10
229.2144717296
 20
225.3365607118
 30
0.0
 40
0.3291416243670024
100
AcDbArc
 50
290.9505931339
 51
20.9505931339
  0
LINE
  5
14A
330
1F
100
AcDbEntity
  8
0
  6
Continuous
 62
     7
370
    25
100
AcDbLine
 10
229.7214313616
 20
224.0124741306
 30
0.0
 11
229.6510052423
 21
224.1964143767
 31
0.0
  0
ARC
  5
14B
330
1F
100
AcDbEntity
  8
0
  6
Continuous
 62
     7
370
    25
100
AcDbCircle
 10
229.768694036
 20
223.8890325998
 30
0.0
 40
0.3291416243670024
100
AcDbArc
 50
20.9505931339
 51
110.9505931339
  0
LINE
  5
14C
330
1F
100
AcDbEntity
  8
0
  6
Continuous
 62
     7
370
    25
100
AcDbLine
 10
228.3007338586
 20
223.6794292388
 30
0.0
 11
229.6510052423
 21
224.1964143767
 31
0.0
  0
LINE
  5
14D
330
1F
100
AcDbEntity
  8
0
  6
Continuous
 62
     7
370
    25
100
AcDbLine
 10
228.3007338586
 20
223.6794292388
 30
0.0
 11
228.1872197318
 21
223.4250628734
 31
0.0
  0
LINE
  5
14E
330
1F
100
AcDbEntity
  8
0
  6
Continuous
 62
     7
370
    25
100
AcDbLine
 10
227.9818891396
 20
224.5121937971
 30
0.0
 11
228.3007338586
 21
223.6794292388
 31
0.0
  0
ARC
  5
14F
330
1F
100
AcDbEntity
  8
0
  6
Continuous
 62
     7
370
    25
100
AcDbCircle
 10
231.216222148
 20
224.4432549063
 30
0.0
 40
0.4763269807084857
100
AcDbArc
 50
110.9505931339
 51
200.9505931339
  0
LINE
  5
150
330
1F
100
AcDbEntity
  8
0
  6
Continuous
 62
     7
370
    25
100
AcDbLine
 10
231.0459053494
 20
224.8880914837
 30
0.0
 11
231.0985333543
 21
224.7506366831
 31
0.0
  0
LINE
  5
151
330
1F
100
AcDbEntity
  8
0
  6
Continuous
 62
     7
370
    25
100
AcDbLine
 10
230.7713855705
 20
224.2729381076
 30
0.0
 11
230.9088403712
 21
224.3255661126
 31
0.0
  0
LINE
  5
152
330
1F
100
AcDbEntity
  8
0
  6
Continuous
 62
     7
370
    25
100
AcDbLine
 10
232.0451332232
 20
225.9103035737
 30
0.0
 11
230.8323166402
 21
225.4459464408
 31
0.0
  0
LINE
  5
153
330
1F
100
AcDbEntity
  8
0
  6
Continuous
 62
     7
370
    25
100
AcDbLine
 10
230.8323166402
 20
225.4459464408
 30
0.0
 11
230.7796886352
 21
225.5834012414
 31
0.0
  0
LINE
  5
154
330
1F
100
AcDbEntity
  8
0
  6
Continuous
 62
     7
370
    25
100
AcDbLine
 10
232.0451332232
 20
225.9103035737
 30
0.0
 11
232.1299600189
 21
226.1003863793
 31
0.0
  0
LINE
  5
155
330
1F
100
AcDbEntity
  8
0
  6
Continuous
 62
     7
370
    25
100
AcDbLine
 10
230.2135306135
 20
224.0593493985
 30
0.0
 11
230.6778877464
 21
222.8465328154
 31
0.0
  0
LINE
  5
156
330
1F
100
AcDbEntity
  8
0
  6
Continuous
 62
     7
370
    25
100
AcDbLine
 10
230.6778877464
 20
222.8465328154
 30
0.0
 11
230.5930609507
 21
222.6564500098
 31
0.0
  0
LINE
  5
157
330
1F
100
AcDbEntity
  8
0
  6
Continuous
 62
     7
370
    25
100
AcDbLine
 10
230.2135306135
 20
224.0593493985
 30
0.0
 11
230.0760758128
 21
224.0067213935
 31
0.0
  0
LINE
  5
158
330
1F
100
AcDbEntity
  8
0
  6
Continuous
 62
     7
370
    25
100
AcDbLine
 10
232.2587219324
 20
225.3524486167
 30
0.0
 11
232.0451332232
 21
225.9103035737
 31
0.0
  0
LINE
  5
159
330
1F
100
AcDbEntity
  8
0
  6
Continuous
 62
     7
370
    25
100
AcDbLine
 10
232.2587219324
 20
225.3524486167
 30
0.0
 11
232.448804738
 21
225.267621821
 31
0.0
  0
LINE
  5
15A
330
1F
100
AcDbEntity
  8
0
  6
Continuous
 62
     7
370
    25
100
AcDbLine
 10
230.2171632641
 20
225.7204662196
 30
0.0
 11
229.7528061311
 21
226.9332828027
 31
0.0
  0
LINE
  5
15B
330
1F
100
AcDbEntity
  8
0
  6
Continuous
 62
     7
370
    25
100
AcDbLine
 10
229.7528061311
 20
226.9332828027
 30
0.0
 11
229.8376329268
 21
227.1233656083
 31
0.0
  0
LINE
  5
15C
330
1F
100
AcDbEntity
  8
0
  6
Continuous
 62
     7
370
    25
100
AcDbLine
 10
230.2171632641
 20
225.7204662196
 30
0.0
 11
230.3546180647
 21
225.7730942246
 31
0.0
  0
ARC
  5
15D
330
1F
100
AcDbEntity
  8
0
  6
Continuous
 62
     7
370
    25
100
AcDbCircle
 10
230.6619998416
 20
225.8907830183
 30
0.0
 40
0.4763269807084959
100
AcDbArc
 50
200.9505931339
 51
290.9505931339
  0
LINE
  5
15E
330
1F
100
AcDbEntity
  8
0
  6
Continuous
 62
     7
370
    25
100
AcDbLine
 10
231.2357427035
 20
223.0601215246
 30
0.0
 11
230.7713855705
 21
224.2729381076
 31
0.0
  0
LINE
  5
15F
330
1F
100
AcDbEntity
  8
0
  6
Continuous
 62
     7
370
    25
100
AcDbLine
 10
231.2357427035
 20
223.0601215246
 30
0.0
 11
231.425825509
 21
222.9752947289
 31
0.0
  0
LINE
  5
160
330
1F
100
AcDbEntity
  8
0
  6
Continuous
 62
     7
370
    25
100
AcDbLine
 10
231.0459053494
 20
224.8880914837
 30
0.0
 11
232.2587219324
 21
225.3524486167
 31
0.0
  0
LINE
  5
161
330
1F
100
AcDbEntity
  8
0
  6
Continuous
 62
     7
370
    25
100
AcDbLine
 10
230.6778877464
 20
222.8465328154
 30
0.0
 11
231.2357427035
 21
223.0601215246
 31
0.0
  0
ARC
  5
162
330
1F
100
AcDbEntity
  8
0
  6
Continuous
 62
     7
370
    25
100
AcDbCircle
 10
229.768694036
 20
223.8890325998
 30
0.0
 40
0.4763269807084959
100
AcDbArc
 50
20.9505931339
 51
110.9505931339
  0
LINE
  5
163
330
1F
100
AcDbEntity
  8
0
  6
Continuous
 62
     7
370
    25
100
AcDbLine
 10
229.5983772374
 20
224.3338691773
 30
0.0
 11
229.6510052423
 21
224.1964143767
 31
0.0
  0
LINE
  5
164
330
1F
100
AcDbEntity
  8
0
  6
Continuous
 62
     7
370
    25
100
AcDbLine
 10
229.7528061311
 20
226.9332828027
 30
0.0
 11
229.1949511741
 21
226.7196940935
 31
0.0
  0
LINE
  5
165
330
1F
100
AcDbEntity
  8
0
  6
Continuous
 62
     7
370
    25
100
AcDbLine
 10
229.1949511741
 20
226.7196940935
 30
0.0
 11
229.0048683685
 21
226.8045208892
 31
0.0
  0
LINE
  5
166
330
1F
100
AcDbEntity
  8
0
  6
Continuous
 62
     7
370
    25
100
AcDbLine
 10
229.3847885282
 20
224.8917241344
 30
0.0
 11
228.1719719451
 21
224.4273670014
 31
0.0
  0
LINE
  5
167
330
1F
100
AcDbEntity
  8
0
  6
Continuous
 62
     7
370
    25
100
AcDbLine
 10
228.1719719451
 20
224.4273670014
 30
0.0
 11
227.9818891396
 21
224.5121937971
 31
0.0
  0
LINE
  5
168
330
1F
100
AcDbEntity
  8
0
  6
Continuous
 62
     7
370
    25
100
AcDbLine
 10
229.3847885282
 20
224.8917241344
 30
0.0
 11
229.3321605232
 21
225.029178935
 31
0.0
  0
LINE
  5
169
330
1F
100
AcDbEntity
  8
0
  6
Continuous
 62
     7
370
    25
100
AcDbLine
 10
228.1719719451
 20
224.4273670014
 30
0.0
 11
228.3855606543
 21
223.8695120444
 31
0.0
  0
LINE
  5
16A
330
1F
100
AcDbEntity
  8
0
  6
Continuous
 62
     7
370
    25
100
AcDbLine
 10
228.3855606543
 20
223.8695120444
 30
0.0
 11
228.3007338586
 21
223.6794292388
 31
0.0
  0
ARC
  5
16B
330
1F
100
AcDbEntity
  8
0
  6
Continuous
 62
     7
370
    25
100
AcDbCircle
 10
229.2144717296
 20
225.3365607118
 30
0.0
 40
0.4763269807084857
100
AcDbArc
 50
290.9505931339
 51
20.9505931339
  0
LINE
  5
16C
330
1F
100
AcDbEntity
  8
0
  6
Continuous
 62
     7
370
    25
100
AcDbLine
 10
229.659308307
 20
225.5068775105
 30
0.0
 11
229.5218535064
 21
225.4542495055
 31
0.0
  0
LINE
  5
16D
330
1F
100
AcDbEntity
  8
0
  6
Continuous
 62
     7
370
    25
100
AcDbLine
 10
228.3855606543
 20
223.8695120444
 30
0.0
 11
229.5983772374
 21
224.3338691773
 31
0.0
  0
LINE
  5
16E
330
1F
100
AcDbEntity
  8
0
  6
Continuous
 62
     7
370
    25
100
AcDbLine
 10
229.1949511741
 20
226.7196940935
 30
0.0
 11
229.659308307
 21
225.5068775105
 31
0.0
  0
CIRCLE
  5
16F
330
1F
100
AcDbEntity
  8
0
  6
Continuous
 62
     7
370
    25
100
AcDbCircle
 10
25.2153469388
 20
224.8899078091
 30
0.0
 40
11.20000000000001
  0
CIRCLE
  5
170
330
1F
100
AcDbEntity
  8
0
  6
Continuous
 62
     7
370
    25
100
AcDbCircle
 10
25.2153469388
 20
224.8899078091
 30
0.0
 40
11.49999999999998
  0
CIRCLE
  5
171
330
1F
100
AcDbEntity
  8
0
  6
Continuous
 62
     7
370
    25
100
AcDbCircle
 10
25.2153469388
 20
224.8899078091
 30
0.0
 40
4.700000000000005
  0
ARC
  5
172
330
1F
100
AcDbEntity
  8
0
  6
Continuous
 62
     7
370
    25
100
AcDbCircle
 10
25.2153469388
 20
224.8899078091
 30
0.0
 40
12.28683822089316
100
AcDbArc
 50
195.7265677233
 51
157.7285724639
  0
SPLINE
  5
173
330
1F
100
AcDbEntity
  8
0
  6
Continuous
 62
     7
370
    25
100
AcDbSpline
210
0.0
220
0.0
230
1.0
 70
     8
 71
     3
 72
    11
 73
     7
 74
     0
 42
0.00000001
 43
0.00000001
 40
0.0
 40
0.0
 40
0.0
 40
0.0
 40
0.24802758649819
 40
0.5004172112331616
 40
0.7523848740678375
 40
1.0
 40
1.0
 40
1.0
 40
1.0
 10
13.39822453126621
 20
221.5590407328491
 30
0.0
 10
13.46879624858377
 20
222.1890892082227
 30
0.0
 10
13.61118082148788
 20
223.4602667632663
 30
0.0
 10
13.70249448278349
 20
225.5505168343008
 30
0.0
 10
13.84979876243864
 20
227.6361700940151
 30
0.0
 10
13.85320519061195
 20
228.9130956590798
 30
0.0
 10
13.85489356571229
 20
229.5459959344875
 30
0.0
  0
SPLINE
  5
174
330
1F
100
AcDbEntity
  8
0
  6
Continuous
 62
     7
370
    25
100
AcDbSpline
210
0.0
220
0.0
230
1.0
 70
     8
 71
     3
 72
    11
 73
     7
 74
     0
 42
0.00000001
 43
0.00000001
 40
0.0
 40
0.0
 40
0.0
 40
0.0
 40
0.1400227070564465
 40
0.27912396045988
 40
0.536563212697028
 40
1.0
 40
1.0
 40
1.0
 40
1.0
 10
13.40299269143014
 20
221.5376754884341
 30
0.0
 10
13.38616147468197
 20
221.5284928100912
 30
0.0
 10
13.35260980312192
 20
221.5101878822649
 30
0.0
 10
13.30976208820928
 20
221.4511686573687
 30
0.0
 10
13.27458838298756
 20
221.3407438238179
 30
0.0
 10
13.26961069207971
 20
221.2440387220782
 30
0.0
 10
13.26641063415573
 20
221.1818689464055
 30
0.0
  0
SPLINE
  5
175
330
1F
100
AcDbEntity
  8
0
  6
Continuous
 62
     7
370
    25
100
AcDbSpline
210
0.0
220
0.0
230
1.0
 70
     8
 71
     3
 72
    12
 73
     8
 74
     0
 42
0.00000001
 43
0.00000001
 40
0.0
 40
0.0
 40
0.0
 40
0.0
 40
0.1037874894677977
 40
0.3668584250989647
 40
0.6320463796880732
 40
0.8639469897299498
 40
1.0
 40
1.0
 40
1.0
 40
1.0
 10
13.0016116831434
 20
221.5412861119678
 30
0.0
 10
13.01738226282989
 20
221.5345194086966
 30
0.0
 10
13.0731266502927
 20
221.5106010913934
 30
0.0
 10
13.16177395967849
 20
221.4539301802465
 30
0.0
 10
13.23806876228883
 20
221.357958243037
 30
0.0
 10
13.26552624935723
 20
221.2617993239416
 30
0.0
 10
13.26617190076057
 20
221.203445584124
 30
0.0
 10
13.26641063415568
 20
221.1818689464055
 30
0.0
  0
SPLINE
  5
176
330
1F
100
AcDbEntity
  8
0
  6
Continuous
 62
     7
370
    25
100
AcDbSpline
210
0.0
220
0.0
230
1.0
 70
     8
 71
     3
 72
    11
 73
     7
 74
     0
 42
0.00000001
 43
0.00000001
 40
0.0
 40
0.0
 40
0.0
 40
0.0
 40
0.184012479168421
 40
0.3676962300295543
 40
0.6838480061606689
 40
1.0
 40
1.0
 40
1.0
 40
1.0
 10
13.01967039638796
 20
221.5808173571869
 30
0.0
 10
13.04654098711955
 20
222.0707653773829
 30
0.0
 10
13.1002341657307
 20
223.0497861522273
 30
0.0
 10
13.20632899493951
 20
224.8702343041762
 30
0.0
 10
13.32936885607705
 20
227.0426488332085
 30
0.0
 10
13.42733949933633
 20
228.7258888727615
 30
0.0
 10
13.47632483783218
 20
229.5675091823158
 30
0.0
  0
SPLINE
  5
177
330
1F
100
AcDbEntity
  8
0
  6
Continuous
 62
     7
370
    25
100
AcDbSpline
210
0.0
220
0.0
230
1.0
 70
     8
 71
     3
 72
    11
 73
     7
 74
     0
 42
0.00000001
 43
0.00000001
 40
0.0
 40
0.0
 40
0.0
 40
0.0
 40
0.2532502248898462
 40
0.5081816079111796
 40
0.7376638860099082
 40
1.0
 40
1.0
 40
1.0
 40
1.0
 10
13.76692730476709
 20
229.9357335485687
 30
0.0
 10
13.76065546139149
 20
229.8959591523593
 30
0.0
 10
13.74807014008489
 20
229.816146324441
 30
0.0
 10
13.68098819684621
 20
229.7193881548936
 30
0.0
 10
13.5818872286686
 20
229.6482353413666
 30
0.0
 10
13.5042832477309
 20
229.6225447193772
 30
0.0
 10
13.46288925532069
 20
229.608841332015
 30
0.0
  0
SPLINE
  5
178
330
1F
100
AcDbEntity
  8
0
  6
Continuous
 62
     7
370
    25
100
AcDbSpline
210
0.0
220
0.0
230
1.0
 70
     8
 71
     3
 72
    11
 73
     7
 74
     0
 42
0.00000001
 43
0.00000001
 40
0.0
 40
0.0
 40
0.0
 40
0.0
 40
0.6161020211265457
 40
0.7860441573024682
 40
0.9576997850653373
 40
1.0
 40
1.0
 40
1.0
 40
1.0
 10
13.76692730476709
 20
229.9357335485687
 30
0.0
 10
13.7612119081984
 20
229.8538070651052
 30
0.0
 10
13.75392000860143
 20
229.7492824385878
 30
0.0
 10
13.79454139889569
 20
229.630296859962
 30
0.0
 10
13.82670200547714
 20
229.5896204875848
 30
0.0
 10
13.85037933160777
 20
229.5738650514313
 30
0.0
 10
13.85506046567625
 20
229.5707501173996
 30
0.0
  0
SPLINE
  5
179
330
1F
100
AcDbEntity
  8
0
  6
Continuous
 62
     7
370
    25
100
AcDbSpline
210
0.0
220
0.0
230
1.0
 70
     8
 71
     3
 72
     9
 73
     5
 74
     0
 42
0.00000001
 43
0.00000001
 40
0.0
 40
0.0
 40
0.0
 40
0.0
 40
0.394634861455598
 40
1.0
 40
1.0
 40
1.0
 40
1.0
 10
-20.74641436026625
 20
224.3181671566842
 30
0.0
 10
-20.89159716491817
 20
224.244586361649
 30
0.0
 10
-21.25948864849508
 20
224.0581335106166
 30
0.0
 10
-21.50675200878582
 20
223.7499311917756
 30
0.0
 10
-21.65643662714539
 20
223.5633562523307
 30
0.0
  0
SPLINE
  5
17A
330
1F
100
AcDbEntity
  8
0
  6
Continuous
 62
     7
370
    25
100
AcDbSpline
210
0.0
220
0.0
230
1.0
 70
     8
 71
     3
 72
    25
 73
    21
 74
     0
 42
0.00000001
 43
0.00000001
 40
0.0
 40
0.0
 40
0.0
 40
0.0
 40
0.4148573598990565
 40
0.4496769257725299
 40
0.467815569717395
 40
0.4791961299301046
 40
0.4864992489565672
 40
0.4912224174974595
 40
0.4943031976304216
 40
0.4963408991486037
 40
0.4983987690570054
 40
0.4991520515016167
 40
0.4999138975343531
 40
0.5005698425296747
 40
0.5014559077305886
 40
0.5038278152241059
 40
0.5143812730596798
 40
0.5562638582030331
 40
0.7237604427820141
 40
1.0
 40
1.0
 40
1.0
 40
1.0
 10
-20.38171019035789
 20
230.6966943770422
 30
0.0
 10
-18.31765257255075
 20
229.7193757850141
 30
0.0
 10
-16.08035567508537
 20
228.6600294591579
 30
0.0
 10
-13.75510753310155
 20
227.5248374608989
 30
0.0
 10
-13.43608690100806
 20
227.3671463157059
 30
0.0
 10
-13.25430527683102
 20
227.275279823059
 30
0.0
 10
-13.1396859783432
 20
227.2150108529211
 30
0.0
 10
-13.06687533006462
 20
227.1740245235215
 30
0.0
 10
-13.02063315456853
 20
227.1451329748599
 30
0.0
 10
-12.98872417599989
 20
227.1216378954681
 30
0.0
 10
-12.96888782666888
 20
227.1029650635598
 30
0.0
 10
-12.95913283002803
 20
227.0855748782948
 30
0.0
 10
-12.95688804034151
 20
227.0734139413676
 30
0.0
 10
-12.96000907146178
 20
227.0607508920518
 30
0.0
 10
-12.97254446518559
 20
227.0426529384879
 30
0.0
 10
-13.0361665094505
 20
226.9983320247453
 30
0.0
 10
-13.31913312086186
 20
226.8873815687206
 30
0.0
 10
-14.46282800172449
 20
226.4762928569047
 30
0.0
 10
-17.00035958144508
 20
225.5908041908311
 30
0.0
 10
-19.30913180360266
 20
224.8064512630685
 30
0.0
 10
-20.74641436026625
 20
224.3181671566842
 30
0.0
  0
SPLINE
  5
17B
330
1F
100
AcDbEntity
  8
0
  6
Continuous
 62
     7
370
    25
100
AcDbSpline
210
0.0
220
0.0
230
1.0
 70
     8
 71
     3
 72
    10
 73
     6
 74
     0
 42
0.00000001
 43
0.00000001
 40
0.0
 40
0.0
 40
0.0
 40
0.0
 40
0.6754403570339783
 40
0.9255657459021986
 40
1.0
 40
1.0
 40
1.0
 40
1.0
 10
-21.19976759269926
 20
231.5503114539691
 30
0.0
 10
-21.05254576853316
 20
231.3293722034643
 30
0.0
 10
-20.85080556145424
 20
231.0266159348125
 30
0.0
 10
-20.52828865003908
 20
230.7706117177545
 30
0.0
 10
-20.40905511566476
 20
230.7104840168369
 30
0.0
 10
-20.38171019035784
 20
230.6966943770422
 30
0.0
  0
LINE
  5
17C
330
1F
100
AcDbEntity
  8
0
  6
Continuous
 62
     7
370
    25
100
AcDbLine
 10
13.2180175835
 20
229.5824105046
 30
0.0
 11
-21.1997675927
 21
231.550311454
 31
0.0
  0
LINE
  5
17D
330
1F
100
AcDbEntity
  8
0
  6
Continuous
 62
     7
370
    25
100
AcDbLine
 10
13.2621489003
 20
229.5813116457
 30
0.0
 11
13.2180175835
 21
229.5824105046
 31
0.0
  0
LINE
  5
17E
330
1F
100
AcDbEntity
  8
0
  6
Continuous
 62
     7
370
    25
100
AcDbLine
 10
13.4742534338
 20
229.5686629067
 30
0.0
 11
13.2621489003
 21
229.5813116457
 31
0.0
  0
SPLINE
  5
17F
330
1F
100
AcDbEntity
  8
0
  6
Continuous
 62
     7
370
    25
100
AcDbSpline
210
0.0
220
0.0
230
1.0
 70
     8
 71
     3
 72
    20
 73
    16
 74
     0
 42
0.00000001
 43
0.00000001
 40
0.0
 40
0.0
 40
0.0
 40
0.0
 40
0.2280682053568721
 40
0.4556717919522009
 40
0.4714254232881254
 40
0.481884529182585
 40
0.4924055459911816
 40
0.4966083594411117
 40
0.5000892813312147
 40
0.503576894094603
 40
0.5085015120041662
 40
0.5215191289228033
 40
0.579296210436838
 40
0.8087000177095816
 40
1.0
 40
1.0
 40
1.0
 40
1.0
 10
13.47410781173824
 20
229.5677680689502
 30
0.0
 10
12.07309585010691
 20
229.1275658076032
 30
0.0
 10
9.273926057438542
 20
228.2480580615079
 30
0.0
 10
6.379496668550921
 20
227.1990188716543
 30
0.0
 10
4.889470896873249
 20
226.4765709237306
 30
0.0
 10
4.684736571238357
 20
226.3532258851099
 30
0.0
 10
4.55426795491265
 20
226.2491985806939
 30
0.0
 10
4.489567428853536
 20
226.1479183172428
 30
0.0
 10
4.47186700932134
 20
226.0757377111231
 30
0.0
 10
4.482005767993402
 20
225.9972661743744
 30
0.0
 10
4.548282689709304
 20
225.8715920331918
 30
0.0
 10
4.922122729006273
 20
225.5383572076952
 30
0.0
 10
6.653584087612852
 20
224.6173498047174
 30
0.0
 10
9.443932009117695
 20
223.2406672229747
 30
0.0
 10
11.90043294676274
 20
222.0996497167667
 30
0.0
 10
13.01743877729211
 20
221.5808128673119
 30
0.0
  0
LINE
  5
180
330
1F
100
AcDbEntity
  8
0
  6
Continuous
 62
     7
370
    25
100
AcDbLine
 10
13.0174814128
 20
221.5799075242
 30
0.0
 11
12.8052498253
 21
221.5915251434
 31
0.0
  0
LINE
  5
181
330
1F
100
AcDbEntity
  8
0
  6
Continuous
 62
     7
370
    25
100
AcDbLine
 10
12.7613485491
 20
221.5954553029
 30
0.0
 11
12.8052498253
 21
221.5915251434
 31
0.0
  0
LINE
  5
182
330
1F
100
AcDbEntity
  8
0
  6
Continuous
 62
     7
370
    25
100
AcDbLine
 10
12.7613485491
 20
221.5954553029
 30
0.0
 11
-21.6564366271
 21
223.5633562523
 31
0.0
  0
LINE
  5
183
330
1F
100
AcDbEntity
  8
0
  6
Continuous
 62
     7
370
    25
100
AcDbLine
 10
-20.3817101904
 20
230.696694377
 30
0.0
 11
-20.7464143603
 21
224.3181671567
 31
0.0
  0
LINE
  5
184
330
1F
100
AcDbEntity
  8
0
  6
Continuous
 62
     7
370
    25
100
AcDbLine
 10
-21.6564366271
 20
223.5633562523
 30
0.0
 11
-22.4901452558
 21
223.6110250954
 31
0.0
  0
LINE
  5
185
330
1F
100
AcDbEntity
  8
0
  6
Continuous
 62
     7
370
    25
100
AcDbLine
 10
-22.0334762213
 20
231.5979802971
 30
0.0
 11
-21.1997675927
 21
231.550311454
 31
0.0
  0
SPLINE
  5
186
330
1F
100
AcDbEntity
  8
0
  6
Continuous
 62
     7
370
    25
100
AcDbSpline
210
0.0
220
0.0
230
1.0
 70
     8
 71
     3
 72
    10
 73
     6
 74
     0
 42
0.00000001
 43
0.00000001
 40
0.0
 40
0.0
 40
0.0
 40
0.0
 40
0.3886742854978817
 40
0.7913457497936581
 40
1.0
 40
1.0
 40
1.0
 40
1.0
 10
13.56440160515315
 20
229.8926453709793
 30
0.0
 10
13.57408723218884
 20
229.8946529498998
 30
0.0
 10
13.59380729105242
 20
229.8987404059147
 30
0.0
 10
13.67930197431022
 20
229.9167158034758
 30
0.0
 10
13.74462993359643
 20
229.930894243325
 30
0.0
 10
13.76692730476703
 20
229.9357335485687
 30
0.0
  0
ARC
  5
187
330
1F
100
AcDbEntity
  8
0
  6
Continuous
 62
     7
370
    25
100
AcDbCircle
 10
25.2153469388
 20
224.8899078091
 30
0.0
 40
12.67958636078477
100
AcDbArc
 50
196.693085119
 51
156.7620550681
  0
SPLINE
  5
188
330
1F
100
AcDbEntity
  8
0
  6
Continuous
 62
     7
370
    25
100
AcDbSpline
210
0.0
220
0.0
230
1.0
 70
     8
 71
     3
 72
    10
 73
     6
 74
     0
 42
0.00000001
 43
0.00000001
 40
0.0
 40
0.0
 40
0.0
 40
0.0
 40
0.2086586666294453
 40
0.6113278836552551
 40
1.0
 40
1.0
 40
1.0
 40
1.0
 10
13.26641063415512
 20
221.1818689464053
 30
0.0
 10
13.24480953757751
 20
221.1892184077282
 30
0.0
 10
13.18152267358691
 20
221.2107508497258
 30
0.0
 10
13.09863357995789
 20
221.2383540241983
 30
0.0
 10
13.07950792781432
 20
221.2446625570956
 30
0.0
 10
13.07011424726007
 20
221.2477610314565
 30
0.0
  0
SPLINE
  5
189
330
1F
100
AcDbEntity
  8
0
  6
Continuous
 62
     7
370
    25
100
AcDbSpline
210
0.0
220
0.0
230
1.0
 70
     8
 71
     3
 72
     9
 73
     5
 74
     0
 42
0.00000001
 43
0.00000001
 40
0.0
 40
0.0
 40
0.0
 40
0.0
 40
0.1857380603346191
 40
1.0
 40
1.0
 40
1.0
 40
1.0
 10
13.46288925532069
 20
229.608841332015
 30
0.0
 10
13.45072892424776
 20
229.6056713900788
 30
0.0
 10
13.38525859979767
 20
229.5886046567958
 30
0.0
 10
13.31740197069731
 20
229.5845848342486
 30
0.0
 10
13.26214890026684
 20
229.5813116457443
 30
0.0
  0
ARC
  5
18A
330
1F
100
AcDbEntity
  8
0
  6
Continuous
 62
     7
370
    25
100
AcDbCircle
 10
13.1053275748
 20
230.0889551834
 30
0.0
 40
0.4992859979870548
100
AcDbArc
 50
266.7520167616
 51
336.8474185654
  0
LINE
  5
18B
330
1F
100
AcDbEntity
  8
0
  6
Continuous
 62
     7
370
    25
100
AcDbLine
 10
12.8052498253
 20
221.5915251434
 30
0.0
 11
13.0016116831
 21
221.541286112
 31
0.0
  0
ARC
  5
18C
330
1F
100
AcDbEntity
  8
0
  6
Continuous
 62
     7
370
    25
100
AcDbCircle
 10
12.5916564319
 20
221.1050563479
 30
0.0
 40
0.4992859979871874
100
AcDbArc
 50
16.6077216217
 51
86.7031234255
  0
SPLINE
  5
18D
330
1F
100
AcDbEntity
  8
0
  6
Continuous
 62
     7
370
    25
100
AcDbSpline
210
0.0
220
0.0
230
1.0
 70
     8
 71
     3
 72
    10
 73
     6
 74
     0
 42
0.00000001
 43
0.00000001
 40
0.0
 40
0.0
 40
0.0
 40
0.0
 40
0.0359488647479479
 40
0.9008685069681079
 40
1.0
 40
1.0
 40
1.0
 40
1.0
 10
13.07011424726007
 20
221.2477610314565
 30
0.0
 10
13.05185149664573
 20
221.2485821633559
 30
0.0
 10
12.59419206861045
 20
221.26915949934
 30
0.0
 10
12.08910798562007
 20
221.2924355555314
 30
0.0
 10
11.60454154438567
 20
221.3152360219747
 30
0.0
 10
11.55471452480533
 20
221.3175805493526
 30
0.0
  0
SPLINE
  5
18E
330
1F
100
AcDbEntity
  8
0
  6
Continuous
 62
     7
370
    25
100
AcDbSpline
210
0.0
220
0.0
230
1.0
 70
     8
 71
     3
 72
    11
 73
     7
 74
     0
 42
0.00000001
 43
0.00000001
 40
0.0
 40
0.0
 40
0.0
 40
0.0
 40
0.2677073200183255
 40
0.5354038599095823
 40
0.8033739780070643
 40
1.0
 40
1.0
 40
1.0
 40
1.0
 10
11.55471452480533
 20
221.3175805493526
 30
0.0
 10
11.53513930443872
 20
221.3706161680518
 30
0.0
 10
11.49598965196708
 20
221.4766852697943
 30
0.0
 10
11.37470581091199
 20
221.598950007817
 30
0.0
 10
11.23657003068051
 20
221.6725718964939
 30
0.0
 10
11.13974232557358
 20
221.6851805175367
 30
0.0
 10
11.09876297849982
 20
221.6905167284616
 30
0.0
  0
SPLINE
  5
18F
330
1F
100
AcDbEntity
  8
0
  6
Continuous
 62
     7
370
    25
100
AcDbSpline
210
0.0
220
0.0
230
1.0
 70
     8
 71
     3
 72
    11
 73
     7
 74
     0
 42
0.00000001
 43
0.00000001
 40
0.0
 40
0.0
 40
0.0
 40
0.0
 40
0.0359488644913433
 40
0.1797443225555915
 40
0.7549261625273526
 40
1.0
 40
1.0
 40
1.0
 40
1.0
 10
12.05091976087147
 20
229.9960077960907
 30
0.0
 10
12.06896455095924
 20
229.9947938884442
 30
0.0
 10
12.15918850144759
 20
229.9887243502085
 30
0.0
 10
12.53849280974623
 20
229.9631333190447
 30
0.0
 10
13.02437762544945
 20
229.9300425485107
 30
0.0
 10
13.44017173338097
 20
229.9012484085184
 30
0.0
 10
13.56440160515315
 20
229.8926453709793
 30
0.0
  0
SPLINE
  5
190
330
1F
100
AcDbEntity
  8
0
  6
Continuous
 62
     7
370
    25
100
AcDbSpline
210
0.0
220
0.0
230
1.0
 70
     8
 71
     3
 72
    11
 73
     7
 74
     0
 42
0.00000001
 43
0.00000001
 40
0.0
 40
0.0
 40
0.0
 40
0.0
 40
0.268440168481679
 40
0.5368865665098032
 40
0.805152319773041
 40
1.0
 40
1.0
 40
1.0
 40
1.0
 10
11.55543201294595
 20
229.6774719301
 30
0.0
 10
11.61207193082553
 20
229.6797697123685
 30
0.0
 10
11.72535308099681
 20
229.6843653302287
 30
0.0
 10
11.87937336285627
 20
229.7622764307204
 30
0.0
 10
11.99176532357876
 20
229.8710253571435
 30
0.0
 10
12.03340184888335
 20
229.9589956721365
 30
0.0
 10
12.05091976087147
 20
229.9960077960907
 30
0.0
  0
ARC
  5
191
330
1F
100
AcDbEntity
  8
0
  6
Continuous
 62
     7
370
    25
100
AcDbCircle
 10
25.2153469388
 20
224.8899078091
 30
0.0
 40
14.12000000000002
100
AcDbArc
 50
194.6549706968
 51
158.8001694903
  0
CIRCLE
  5
192
330
1F
100
AcDbEntity
  8
0
  6
Continuous
 62
     7
370
    25
100
AcDbCircle
 10
230.2153469388
 20
224.8899078091
 30
0.0
 40
11.20000000000001
  0
CIRCLE
  5
193
330
1F
100
AcDbEntity
  8
0
  6
Continuous
 62
     7
370
    25
100
AcDbCircle
 10
230.2153469388
 20
224.8899078091
 30
0.0
 40
11.49999999999998
  0
CIRCLE
  5
194
330
1F
100
AcDbEntity
  8
0
  6
Continuous
 62
     7
370
    25
100
AcDbCircle
 10
230.2153469388
 20
224.8899078091
 30
0.0
 40
4.699999999999976
  0
ARC
  5
195
330
1F
100
AcDbEntity
  8
0
  6
Continuous
 62
     7
370
    25
100
AcDbCircle
 10
230.2153469388
 20
224.8899078091
 30
0.0
 40
12.28683822089315
100
AcDbArc
 50
22.2714275362
 51
344.2734322768
  0
SPLINE
  5
196
330
1F
100
AcDbEntity
  8
0
  6
Continuous
 62
     7
370
    25
100
AcDbSpline
210
0.0
220
0.0
230
1.0
 70
     8
 71
     3
 72
    11
 73
     7
 74
     0
 42
0.00000001
 43
0.00000001
 40
0.0
 40
0.0
 40
0.0
 40
0.0
 40
0.2480275864981942
 40
0.5004172112331652
 40
0.7523848740678389
 40
1.0
 40
1.0
 40
1.0
 40
1.0
 10
241.5758003118393
 20
229.5459959344875
 30
0.0
 10
241.577502132856
 20
228.9120096945651
 30
0.0
 10
241.5809357046585
 20
227.6328873573227
 30
0.0
 10
241.7284661390853
 20
225.545851584961
 30
0.0
 10
241.8198469009743
 20
223.4570007939954
 30
0.0
 10
241.9620080501067
 20
222.1880087884469
 30
0.0
 10
242.0324693462854
 20
221.5590407328491
 30
0.0
  0
SPLINE
  5
197
330
1F
100
AcDbEntity
  8
0
  6
Continuous
 62
     7
370
    25
100
AcDbSpline
210
0.0
220
0.0
230
1.0
 70
     8
 71
     3
 72
    11
 73
     7
 74
     0
 42
0.00000001
 43
0.00000001
 40
0.0
 40
0.0
 40
0.0
 40
0.0
 40
0.1400227070564808
 40
0.2791239604599841
 40
0.5365632126970513
 40
0.9999999999999999
 40
0.9999999999999999
 40
0.9999999999999999
 40
0.9999999999999999
 10
241.5686279921567
 20
229.5666784597354
 30
0.0
 10
241.5843028667386
 20
229.5777197343727
 30
0.0
 10
241.6155494635583
 20
229.5997296238406
 30
0.0
 10
241.6513908603944
 20
229.6632480452113
 30
0.0
 10
241.6737489919941
 20
229.7769623686497
 30
0.0
 10
241.6676716892543
 20
229.8736045980357
 30
0.0
 10
241.6637647128774
 20
229.9357339543297
 30
0.0
  0
SPLINE
  5
198
330
1F
100
AcDbEntity
  8
0
  6
Continuous
 62
     7
370
    25
100
AcDbSpline
210
0.0
220
0.0
230
1.0
 70
     8
 71
     3
 72
    12
 73
     8
 74
     0
 42
0.00000001
 43
0.00000001
 40
0.0
 40
0.0
 40
0.0
 40
0.0
 40
0.1037874894678111
 40
0.3668584250989609
 40
0.6320463796880829
 40
0.8639469897300184
 40
1.0
 40
1.0
 40
1.0
 40
1.0
 10
241.9678047105452
 20
229.6088412147709
 30
0.0
 10
241.951365632746
 20
229.6137662709046
 30
0.0
 10
241.8932582999412
 20
229.6311749041227
 30
0.0
 10
241.7987292996436
 20
229.6773723687103
 30
0.0
 10
241.711992729745
 20
229.7640226836508
 30
0.0
 10
241.6737538862236
 20
229.8564252927258
 30
0.0
 10
241.6664612192751
 20
229.9143251444113
 30
0.0
 10
241.6637647128774
 20
229.9357339543296
 30
0.0
  0
SPLINE
  5
199
330
1F
100
AcDbEntity
  8
0
  6
Continuous
 62
     7
370
    25
100
AcDbSpline
210
0.0
220
0.0
230
1.0
 70
     8
 71
     3
 72
    11
 73
     7
 74
     0
 42
0.00000001
 43
0.00000001
 40
0.0
 40
0.0
 40
0.0
 40
0.0
 40
0.1840124791684254
 40
0.3676962300295559
 40
0.6838480061606694
 40
1.0
 40
1.0
 40
1.0
 40
1.0
 10
241.9543695021218
 20
229.5675092459424
 30
0.0
 10
241.9835188422805
 20
229.0776915174877
 30
0.0
 10
242.0417654488838
 20
228.0989310933667
 30
0.0
 10
242.1438587266268
 20
226.2782541452622
 30
0.0
 10
242.2692349185392
 20
224.1059732002919
 30
0.0
 10
242.3637603050127
 20
222.4225361717675
 30
0.0
 10
242.4110230145224
 20
221.5808173676936
 30
0.0
  0
SPLINE
  5
19A
330
1F
100
AcDbEntity
  8
0
  6
Continuous
 62
     7
370
    25
100
AcDbSpline
210
0.0
220
0.0
230
1.0
 70
     8
 71
     3
 72
    11
 73
     7
 74
     0
 42
0.00000001
 43
0.00000001
 40
0.0
 40
0.0
 40
0.0
 40
0.0
 40
0.253250224889787
 40
0.5081816079111172
 40
0.7376638860098992
 40
1.0
 40
1.0
 40
1.0
 40
1.0
 10
242.1642850449327
 20
221.1818695615164
 30
0.0
 10
242.1659824848616
 20
221.2220996163366
 30
0.0
 10
242.169388632883
 20
221.3028267862879
 30
0.0
 10
242.2250047952748
 20
221.4066004484746
 30
0.0
 10
242.3153498385932
 20
221.4885851904355
 30
0.0
 10
242.3895198227747
 20
221.5229537714663
 30
0.0
 10
242.429082120033
 20
221.5412859854216
 30
0.0
  0
SPLINE
  5
19B
330
1F
100
AcDbEntity
  8
0
  6
Continuous
 62
     7
370
    25
100
AcDbSpline
210
0.0
220
0.0
230
1.0
 70
     8
 71
     3
 72
    11
 73
     7
 74
     0
 42
0.00000001
 43
0.00000001
 40
0.0
 40
0.0
 40
0.0
 40
0.0
 40
0.6161020211265701
 40
0.7860441573024503
 40
0.9576997850652841
 40
1.0
 40
1.0
 40
1.0
 40
1.0
 10
242.1642850449327
 20
221.1818695615164
 30
0.0
 10
242.1606251232966
 20
221.2639135705862
 30
0.0
 10
242.1559556693432
 20
221.3685881403159
 30
0.0
 10
242.1020369051202
 20
221.4821682095843
 30
0.0
 10
242.0654495542658
 20
221.5189137894943
 30
0.0
 10
242.0401307132941
 20
221.5318677785686
 30
0.0
 10
242.0351250429582
 20
221.5344288515226
 30
0.0
  0
SPLINE
  5
19C
330
1F
100
AcDbEntity
  8
0
  6
Continuous
 62
     7
370
    25
100
AcDbSpline
210
0.0
220
0.0
230
1.0
 70
     8
 71
     3
 72
     9
 73
     5
 74
     0
 42
0.00000001
 43
0.00000001
 40
0.0
 40
0.0
 40
0.0
 40
0.0
 40
0.394634861455581
 40
1.0
 40
1.0
 40
1.0
 40
1.0
 10
275.8124040679094
 20
230.6966943770422
 30
0.0
 10
275.9482538846223
 20
230.7863437354543
 30
0.0
 10
276.2924956888353
 20
231.0135141331265
 30
0.0
 10
276.5030183751084
 20
231.3478912215247
 30
0.0
 10
276.6304614702509
 20
231.550311453969
 30
0.0
  0
SPLINE
  5
19D
330
1F
100
AcDbEntity
  8
0
  6
Continuous
 62
     7
370
    25
100
AcDbSpline
210
0.0
220
0.0
230
1.0
 70
     8
 71
     3
 72
    25
 73
    21
 74
     0
 42
0.00000001
 43
0.00000001
 40
0.0
 40
0.0
 40
0.0
 40
0.0
 40
0.4148573598990564
 40
0.4496769257725281
 40
0.4678155697173952
 40
0.4791961299301031
 40
0.486499248956567
 40
0.4912224174974594
 40
0.4943031976304203
 40
0.4963408991486049
 40
0.498398769057006
 40
0.4991520515016161
 40
0.4999138975343528
 40
0.5005698425296738
 40
0.501455907730589
 40
0.5038278152241047
 40
0.5143812730596812
 40
0.5562638582030329
 40
0.7237604427820116
 40
1.0
 40
1.0
 40
1.0
 40
1.0
 10
276.1771082378178
 20
224.3181671566842
 30
0.0
 10
274.015106405934
 20
225.0538529312393
 30
0.0
 10
271.6716446977636
 20
225.8512858549727
 30
0.0
 10
269.2321599575199
 20
226.714045379305
 30
0.0
 10
268.8972445990806
 20
226.8343465166857
 30
0.0
 10
268.7061766169022
 20
226.9048946388861
 30
0.0
 10
268.5854347783591
 20
226.9517063977989
 30
0.0
 10
268.5084269761994
 20
226.98412657835
 30
0.0
 10
268.4591930743035
 20
227.0075591045211
 30
0.0
 10
268.4248140542127
 20
227.027264044169
 30
0.0
 10
268.4029786301119
 20
227.0435542148432
 30
0.0
 10
268.3913050551768
 20
227.0597191816309
 30
0.0
 10
268.3876887780299
 20
227.0715450011492
 30
0.0
 10
268.3893461208772
 20
227.0844812628935
 30
0.0
 10
268.3997369958092
 20
227.1038900685537
 30
0.0
 10
268.4578926636376
 20
227.1551738497216
 30
0.0
 10
268.7263689038431
 20
227.2976540775102
 30
0.0
 10
269.8157538894473
 20
227.8364232884301
 30
0.0
 10
272.2358191991457
 20
229.0053717871311
 30
0.0
 10
274.4401435571011
 20
230.0477694147288
 30
0.0
 10
275.8124040679094
 20
230.6966943770421
 30
0.0
  0
SPLINE
  5
19E
330
1F
100
AcDbEntity
  8
0
  6
Continuous
 62
     7
370
    25
100
AcDbSpline
210
0.0
220
0.0
230
1.0
 70
     8
 71
     3
 72
    10
 73
     6
 74
     0
 42
0.00000001
 43
0.00000001
 40
0.0
 40
0.0
 40
0.0
 40
0.0
 40
0.6754403570339823
 40
0.9255657459022202
 40
1.0
 40
1.0
 40
1.0
 40
1.0
 10
277.087130504697
 20
223.5633562523307
 30
0.0
 10
276.915685238899
 20
223.7660751186452
 30
0.0
 10
276.6807512974086
 20
224.0438637298155
 30
0.0
 10
276.3311566133544
 20
224.261438715008
 30
0.0
 10
276.2058467122968
 20
224.307584189693
 30
0.0
 10
276.1771082378178
 20
224.3181671566842
 30
0.0
  0
LINE
  5
19F
330
1F
100
AcDbEntity
  8
0
  6
Continuous
 62
     7
370
    25
100
AcDbLine
 10
242.6693453285
 20
221.5954553029
 30
0.0
 11
277.0871305047
 21
223.5633562523
 31
0.0
  0
LINE
  5
1A0
330
1F
100
AcDbEntity
  8
0
  6
Continuous
 62
     7
370
    25
100
AcDbLine
 10
242.62537637
 20
221.5915168645
 30
0.0
 11
242.6693453285
 21
221.5954553029
 31
0.0
  0
LINE
  5
1A1
330
1F
100
AcDbEntity
  8
0
  6
Continuous
 62
     7
370
    25
100
AcDbLine
 10
242.4132124219
 20
221.5799072631
 30
0.0
 11
242.62537637
 21
221.5915168645
 31
0.0
  0
SPLINE
  5
1A2
330
1F
100
AcDbEntity
  8
0
  6
Continuous
 62
     7
370
    25
100
AcDbSpline
210
0.0
220
0.0
230
1.0
 70
     8
 71
     3
 72
    20
 73
    16
 74
     0
 42
0.00000001
 43
0.00000001
 40
0.0
 40
0.0
 40
0.0
 40
0.0
 40
0.228068205356871
 40
0.4556717919521997
 40
0.4714254232881243
 40
0.4818845291825863
 40
0.4924055459911814
 40
0.4966083594411132
 40
0.500089281331216
 40
0.5035768940946038
 40
0.5085015120041658
 40
0.5215191289228042
 40
0.5792962104368373
 40
0.8087000177095817
 40
1.0
 40
1.0
 40
1.0
 40
1.0
 10
242.4132551002594
 20
221.5808128673119
 30
0.0
 10
243.7549618159256
 20
222.1778351756603
 30
0.0
 10
246.4356419328459
 20
223.3706635431869
 30
0.0
 10
249.1916374514155
 20
224.742776297566
 30
0.0
 10
250.5896071937545
 20
225.6303507661192
 30
0.0
 10
250.7789482462361
 20
225.7762277982068
 30
0.0
 10
250.8967094416321
 20
225.8944481042836
 30
0.0
 10
250.9494442735085
 20
226.0024429529756
 30
0.0
 10
250.9588021132604
 20
226.0761706654493
 30
0.0
 10
250.9397851578233
 20
226.1529751699591
 30
0.0
 10
250.8596156916661
 20
226.2702759662489
 30
0.0
 10
250.4502295272256
 20
226.5587283752694
 30
0.0
 10
248.625074808754
 20
227.2763796320304
 30
0.0
 10
245.6959960204015
 20
228.3260433427217
 30
0.0
 10
243.1254498718692
 20
229.1796300719936
 30
0.0
 10
241.9565860658134
 20
229.5677680689502
 30
0.0
  0
LINE
  5
1A3
330
1F
100
AcDbEntity
  8
0
  6
Continuous
 62
     7
370
    25
100
AcDbLine
 10
241.9564405162
 20
229.5686626523
 30
0.0
 11
242.1686131621
 21
229.5813111352
 31
0.0
  0
LINE
  5
1A4
330
1F
100
AcDbEntity
  8
0
  6
Continuous
 62
     7
370
    25
100
AcDbLine
 10
242.212676294
 20
229.5824105046
 30
0.0
 11
242.1686131621
 21
229.5813111352
 31
0.0
  0
LINE
  5
1A5
330
1F
100
AcDbEntity
  8
0
  6
Continuous
 62
     7
370
    25
100
AcDbLine
 10
242.212676294
 20
229.5824105046
 30
0.0
 11
276.6304614703
 21
231.550311454
 31
0.0
  0
LINE
  5
1A6
330
1F
100
AcDbEntity
  8
0
  6
Continuous
 62
     7
370
    25
100
AcDbLine
 10
276.1771082378
 20
224.3181671567
 30
0.0
 11
275.8124040679
 21
230.696694377
 31
0.0
  0
LINE
  5
1A7
330
1F
100
AcDbEntity
  8
0
  6
Continuous
 62
     7
370
    25
100
AcDbLine
 10
276.6304614703
 20
231.550311454
 30
0.0
 11
277.4641700989
 21
231.5979802971
 31
0.0
  0
LINE
  5
1A8
330
1F
100
AcDbEntity
  8
0
  6
Continuous
 62
     7
370
    25
100
AcDbLine
 10
277.9208391333
 20
223.6110250954
 30
0.0
 11
277.0871305047
 21
223.5633562523
 31
0.0
  0
SPLINE
  5
1A9
330
1F
100
AcDbEntity
  8
0
  6
Continuous
 62
     7
370
    25
100
AcDbSpline
210
0.0
220
0.0
230
1.0
 70
     8
 71
     3
 72
    10
 73
     6
 74
     0
 42
0.00000001
 43
0.00000001
 40
0.0
 40
0.0
 40
0.0
 40
0.0
 40
0.3886742854978823
 40
0.7913457497936606
 40
0.9999999999999999
 40
0.9999999999999999
 40
0.9999999999999999
 40
0.9999999999999999
 10
242.3605796302915
 20
221.2477610314565
 30
0.0
 10
242.351185951325
 20
221.2446625576919
 30
0.0
 10
242.3320603024141
 20
221.2383540260088
 30
0.0
 10
242.2491716505144
 20
221.2107509977496
 30
0.0
 10
242.185885512996
 20
221.189218807451
 30
0.0
 10
242.1642850449326
 20
221.1818695615164
 30
0.0
  0
ARC
  5
1AA
330
1F
100
AcDbEntity
  8
0
  6
Continuous
 62
     7
370
    25
100
AcDbCircle
 10
230.2153469388
 20
224.8899078091
 30
0.0
 40
12.67958636078479
100
AcDbArc
 50
23.2379449319
 51
343.306914881
  0
SPLINE
  5
1AB
330
1F
100
AcDbEntity
  8
0
  6
Continuous
 62
     7
370
    25
100
AcDbSpline
210
0.0
220
0.0
230
1.0
 70
     8
 71
     3
 72
    10
 73
     6
 74
     0
 42
0.00000001
 43
0.00000001
 40
0.0
 40
0.0
 40
0.0
 40
0.0
 40
0.2086586666294435
 40
0.6113278836552246
 40
1.0
 40
1.0
 40
1.0
 40
1.0
 10
241.663764712878
 20
229.9357339543299
 30
0.0
 10
241.6860627330171
 20
229.9308945067405
 30
0.0
 10
241.7513914427298
 20
229.9167158996367
 30
0.0
 10
241.8368865815038
 20
229.8987404071639
 30
0.0
 10
241.8566066437174
 20
229.8946529503112
 30
0.0
 10
241.8662922723985
 20
229.8926453709793
 30
0.0
  0
SPLINE
  5
1AC
330
1F
100
AcDbEntity
  8
0
  6
Continuous
 62
     7
370
    25
100
AcDbSpline
210
0.0
220
0.0
230
1.0
 70
     8
 71
     3
 72
     9
 73
     5
 74
     0
 42
0.00000001
 43
0.00000001
 40
0.0
 40
0.0
 40
0.0
 40
0.0
 40
0.1857380603344731
 40
1.0
 40
1.0
 40
1.0
 40
1.0
 10
242.429082120033
 20
221.5412859854216
 30
0.0
 10
242.4408018877767
 20
221.5458213164697
 30
0.0
 10
242.5039002517983
 20
221.570239203896
 30
0.0
 10
242.5708564699329
 20
221.5819672019899
 30
0.0
 10
242.6253763699837
 20
221.5915168644663
 30
0.0
  0
ARC
  5
1AD
330
1F
100
AcDbEntity
  8
0
  6
Continuous
 62
     7
370
    25
100
AcDbCircle
 10
242.8390374456
 20
221.1050563479
 30
0.0
 40
0.4992859979870785
100
AcDbArc
 50
93.2968765745
 51
163.3922783783
  0
LINE
  5
1AE
330
1F
100
AcDbEntity
  8
0
  6
Continuous
 62
     7
370
    25
100
AcDbLine
 10
242.1686131621
 20
229.5813111352
 30
0.0
 11
241.9678047105
 21
229.6088412148
 31
0.0
  0
ARC
  5
1AF
330
1F
100
AcDbEntity
  8
0
  6
Continuous
 62
     7
370
    25
100
AcDbCircle
 10
242.3253663027
 20
230.0889551834
 30
0.0
 40
0.4992859979869816
100
AcDbArc
 50
203.1525814346
 51
273.2479832384
  0
SPLINE
  5
1B0
330
1F
100
AcDbEntity
  8
0
  6
Continuous
 62
     7
370
    25
100
AcDbSpline
210
0.0
220
0.0
230
1.0
 70
     8
 71
     3
 72
    11
 73
     7
 74
     0
 42
0.00000001
 43
0.00000001
 40
0.0
 40
0.0
 40
0.0
 40
0.0
 40
0.0359488644913433
 40
0.1797443225555914
 40
0.7549261625273526
 40
0.9999999999999999
 40
0.9999999999999999
 40
0.9999999999999999
 40
0.9999999999999999
 10
243.8759793527462
 20
221.3175805493526
 30
0.0
 10
243.8579137994998
 20
221.3167297808857
 30
0.0
 10
243.7675860332179
 20
221.3124759385484
 30
0.0
 10
243.3878367881795
 20
221.2946666695298
 30
0.0
 10
242.9013468010625
 20
221.2721601002624
 30
0.0
 10
242.4849804695289
 20
221.2533739177412
 30
0.0
 10
242.3605796302915
 20
221.2477610314565
 30
0.0
  0
SPLINE
  5
1B1
330
1F
100
AcDbEntity
  8
0
  6
Continuous
 62
     7
370
    25
100
AcDbSpline
210
0.0
220
0.0
230
1.0
 70
     8
 71
     3
 72
    11
 73
     7
 74
     0
 42
0.00000001
 43
0.00000001
 40
0.0
 40
0.0
 40
0.0
 40
0.0
 40
0.268440168481718
 40
0.5368865665098602
 40
0.8051523197730466
 40
1.0
 40
1.0
 40
1.0
 40
1.0
 10
244.3319308990517
 20
221.6905167284616
 30
0.0
 10
244.2759220118762
 20
221.681778041025
 30
0.0
 10
244.1639029377569
 20
221.6643004633577
 30
0.0
 10
244.0197668113639
 20
221.5693417150913
 30
0.0
 10
243.9205026401921
 20
221.4484909552477
 30
0.0
 10
243.8891644165655
 20
221.356348173114
 30
0.0
 10
243.8759793527462
 20
221.3175805493526
 30
0.0
  0
SPLINE
  5
1B2
330
1F
100
AcDbEntity
  8
0
  6
Continuous
 62
     7
370
    25
100
AcDbSpline
210
0.0
220
0.0
230
1.0
 70
     8
 71
     3
 72
    10
 73
     6
 74
     0
 42
0.00000001
 43
0.00000001
 40
0.0
 40
0.0
 40
0.0
 40
0.0
 40
0.0359488647479479
 40
0.9008685069681078
 40
1.0
 40
1.0
 40
1.0
 40
1.0
 10
241.8662922723985
 20
229.8926453709793
 30
0.0
 10
241.8845295966943
 20
229.8939111988219
 30
0.0
 10
242.3415518482912
 20
229.9256324909031
 30
0.0
 10
242.8459972875938
 20
229.9600781647763
 30
0.0
 10
243.330004592042
 20
229.9926577056156
 30
0.0
 10
243.37977411668
 20
229.9960077960907
 30
0.0
  0
SPLINE
  5
1B3
330
1F
100
AcDbEntity
  8
0
  6
Continuous
 62
     7
370
    25
100
AcDbSpline
210
0.0
220
0.0
230
1.0
 70
     8
 71
     3
 72
    11
 73
     7
 74
     0
 42
0.00000001
 43
0.00000001
 40
0.0
 40
0.0
 40
0.0
 40
0.0
 40
0.2677073200183481
 40
0.5354038599095715
 40
0.8033739780070744
 40
1.0
 40
1.0
 40
1.0
 40
1.0
 10
243.3797741166801
 20
229.9960077960907
 30
0.0
 10
243.4052668217668
 20
229.9455490199406
 30
0.0
 10
243.4562512053916
 20
229.8446334995312
 30
0.0
 10
243.5906804987993
 20
229.7369896360798
 30
0.0
 10
243.7363075405689
 20
229.6795924150845
 30
0.0
 10
243.8339413560976
 20
229.6781024935491
 30
0.0
 10
243.8752618646056
 20
229.6774719301
 30
0.0
  0
ARC
  5
1B4
330
1F
100
AcDbEntity
  8
0
  6
Continuous
 62
     7
370
    25
100
AcDbCircle
 10
230.2153469388
 20
224.8899078091
 30
0.0
 40
14.11999999999998
100
AcDbArc
 50
21.1998305097
 51
345.3450293032
  0
ARC
  5
1B5
330
1F
100
AcDbEntity
  8
0
  6
Continuous
 62
     7
370
    25
100
AcDbCircle
 10
230.2153469388
 20
224.8899078091
 30
0.0
 40
15.50000000000003
100
AcDbArc
 50
270.0
 51
348.3171815898
  0
ARC
  5
1B6
330
1F
100
AcDbEntity
  8
0
  6
Continuous
 62
     7
370
    25
100
AcDbCircle
 10
230.2153469388
 20
224.8899078091
 30
0.0
 40
15.50000000000001
100
AcDbArc
 50
18.2276782231
 51
90.0
  0
LINE
  5
1B7
330
1F
100
AcDbEntity
  8
0
  6
Continuous
 62
     7
370
    25
100
AcDbLine
 10
230.2153469388
 20
240.3899078091
 30
0.0
 11
230.2153469388
 21
241.3899078091
 31
0.0
  0
ARC
  5
1B8
330
1F
100
AcDbEntity
  8
0
  6
Continuous
 62
     7
370
    25
100
AcDbCircle
 10
230.2153469388
 20
224.8899078091
 30
0.0
 40
16.5
100
AcDbArc
 50
17.3020953077
 51
90.0
  0
ARC
  5
1B9
330
1F
100
AcDbEntity
  8
0
  6
Continuous
 62
     7
370
    25
100
AcDbCircle
 10
230.2153469388
 20
224.8899078091
 30
0.0
 40
16.5
100
AcDbArc
 50
270.0
 51
349.2427645052
  0
LINE
  5
1BA
330
1F
100
AcDbEntity
  8
0
  6
Continuous
 62
     7
370
    25
100
AcDbLine
 10
230.2153469388
 20
208.3899078091
 30
0.0
 11
230.2153469388
 21
209.3899078091
 31
0.0
  0
ARC
  5
1BB
330
1F
100
AcDbEntity
  8
0
  6
Continuous
 62
     7
370
    25
100
AcDbCircle
 10
230.2153469388
 20
224.8899078091
 30
0.0
 40
15.50000000000003
100
AcDbArc
 50
90.0
 51
270.0
  0
ARC
  5
1BC
330
1F
100
AcDbEntity
  8
0
  6
Continuous
 62
     7
370
    25
100
AcDbCircle
 10
230.2153469388
 20
224.8899078091
 30
0.0
 40
16.5
100
AcDbArc
 50
90.0
 51
270.0
  0
ARC
  5
1BD
330
1F
100
AcDbEntity
  8
0
  6
Continuous
 62
     7
370
    25
100
AcDbCircle
 10
25.2153469388
 20
224.8899078091
 30
0.0
 40
16.5
100
AcDbArc
 50
270.0
 51
90.0
  0
LINE
  5
1BE
330
1F
100
AcDbEntity
  8
0
  6
Continuous
 62
     7
370
    25
100
AcDbLine
 10
25.2153469388
 20
208.3899078091
 30
0.0
 11
25.2153469388
 21
209.3899078091
 31
0.0
  0
ARC
  5
1BF
330
1F
100
AcDbEntity
  8
0
  6
Continuous
 62
     7
370
    25
100
AcDbCircle
 10
25.2153469388
 20
224.8899078091
 30
0.0
 40
15.50000000000003
100
AcDbArc
 50
270.0
 51
90.0
  0
LINE
  5
1C0
330
1F
100
AcDbEntity
  8
0
  6
Continuous
 62
     7
370
    25
100
AcDbLine
 10
25.2153469388
 20
240.3899078091
 30
0.0
 11
25.2153469388
 21
241.3899078091
 31
0.0
  0
ARC
  5
1C1
330
1F
100
AcDbEntity
  8
0
  6
Continuous
 62
     7
370
    25
100
AcDbCircle
 10
25.2153469388
 20
224.8899078091
 30
0.0
 40
15.50000000000003
100
AcDbArc
 50
191.6828184102
 51
270.0
  0
ARC
  5
1C2
330
1F
100
AcDbEntity
  8
0
  6
Continuous
 62
     7
370
    25
100
AcDbCircle
 10
25.2153469388
 20
224.8899078091
 30
0.0
 40
15.50000000000001
100
AcDbArc
 50
90.0
 51
161.7723217769
  0
ARC
  5
1C3
330
1F
100
AcDbEntity
  8
0
  6
Continuous
 62
     7
370
    25
100
AcDbCircle
 10
25.2153469388
 20
224.8899078091
 30
0.0
 40
16.5
100
AcDbArc
 50
90.0
 51
162.6979046923
  0
ARC
  5
1C4
330
1F
100
AcDbEntity
  8
0
  6
Continuous
 62
     7
370
    25
100
AcDbCircle
 10
25.2153469388
 20
224.8899078091
 30
0.0
 40
16.5
100
AcDbArc
 50
190.7572354948
 51
270.0
  0
LWPOLYLINE
  5
1C5
330
1F
100
AcDbEntity
  8
0
  6
Continuous
 62
     7
370
    25
100
AcDbPolyline
 90
        9
 70
   128
 43
0.0
 10
194.0890384884
 20
224.3549233523
 10
194.1357116112
 20
222.2138993545
 10
194.271018828
 20
220.156160943
 10
194.4897813259
 20
218.2604669801
 10
194.7836260845
 20
216.5993741616
 10
195.1413063492
 20
215.236459947
 10
195.5491320949
 20
214.2238891655
 10
195.9914940043
 20
213.6004174346
 10
196.4514609065
 20
213.3899078091
  0
SPLINE
  5
1C6
330
1F
100
AcDbEntity
  8
0
  6
Continuous
 62
     7
370
    25
100
AcDbSpline
210
0.0
220
0.0
230
1.0
 70
     8
 71
     3
 72
    18
 73
    14
 74
     0
 42
0.00000001
 43
0.00000001
 40
0.0
 40
0.0
 40
0.0
 40
0.0
 40
0.092418978305705
 40
0.1879844295216201
 40
0.2853291469184734
 40
0.3855241017269431
 40
0.4715195564598007
 40
0.5575968455893415
 40
0.7314223358949952
 40
0.8460905254321716
 40
0.9630576198532818
 40
0.9992306778998258
 40
1.0
 40
1.0
 40
1.0
 40
1.0
 10
194.0890384884051
 20
224.3549233523464
 30
0.0
 10
195.3921564014093
 20
224.3132922868785
 30
0.0
 10
198.0427578467661
 20
224.22861279533
 30
0.0
 10
201.7475327744671
 20
223.6538318262085
 30
0.0
 10
205.1567634276328
 20
222.6951647279554
 30
0.0
 10
208.0005154193385
 20
221.361363439736
 30
0.0
 10
210.3799754746471
 20
219.716539091858
 30
0.0
 10
213.167767994401
 20
217.2844064040908
 30
0.0
 10
216.1981360623891
 20
214.2565300476257
 30
0.0
 10
220.1676574911998
 20
211.3303726548106
 30
0.0
 10
223.166660614283
 20
209.8492922319419
 30
0.0
 10
224.9837673505608
 20
209.2344142314969
 30
0.0
 10
225.4241660612678
 20
209.1008439067751
 30
0.0
 10
225.4333373290553
 20
209.0980623154881
 30
0.0
  0
SPLINE
  5
1C7
330
1F
100
AcDbEntity
  8
0
  6
Continuous
 62
     7
370
    25
100
AcDbSpline
210
0.0
220
0.0
230
1.0
 70
     8
 71
     3
 72
    17
 73
    13
 74
     0
 42
0.00000001
 43
0.00000001
 40
0.0
 40
0.0
 40
0.0
 40
0.0
 40
0.0007905019493121
 40
0.0236238604797935
 40
0.2027052369473313
 40
0.3162321660109185
 40
0.4299017622963702
 40
0.5431186620158748
 40
0.6593694386108921
 40
0.7755130795450701
 40
0.8877940216187236
 40
1.0
 40
1.0
 40
1.0
 40
1.0
 10
225.4333373290553
 20
209.0980623154881
 30
0.0
 10
225.4294020901275
 20
209.099253791838
 30
0.0
 10
225.311798919804
 20
209.1348606250398
 30
0.0
 10
224.3020330146731
 20
209.438486023894
 30
0.0
 10
222.6936391801778
 20
209.8961039725258
 30
0.0
 10
220.1311765776537
 20
210.5586555940972
 30
0.0
 10
217.5575250564457
 20
211.1544007324475
 30
0.0
 10
214.4435024859993
 20
211.777352315478
 30
0.0
 10
210.7065437971525
 20
212.3978088586973
 30
0.0
 10
206.3962568589316
 20
212.9263830228124
 30
0.0
 10
201.6219726524059
 20
213.3075814179259
 30
0.0
 10
198.1745810886847
 20
213.3624717885858
 30
0.0
 10
196.4514609065075
 20
213.3899078090503
 30
0.0
  0
SPLINE
  5
1C8
330
1F
100
AcDbEntity
  8
0
  6
Continuous
 62
     7
370
    25
100
AcDbSpline
210
0.0
220
0.0
230
1.0
 70
     8
 71
     3
 72
    18
 73
    14
 74
     0
 42
0.00000001
 43
0.00000001
 40
0.0
 40
0.0
 40
0.0
 40
0.0
 40
0.092418978305705
 40
0.18798442952162
 40
0.2853291469184734
 40
0.385524101726943
 40
0.4715195564598006
 40
0.5575968455893414
 40
0.7314223358949951
 40
0.8460905254321714
 40
0.9630576198532815
 40
0.9992306778998257
 40
1.0
 40
1.0
 40
1.0
 40
1.0
 10
194.0890384884051
 20
225.4248922657542
 30
0.0
 10
195.3921564014093
 20
225.4665233312221
 30
0.0
 10
198.0427578467661
 20
225.5512028227706
 30
0.0
 10
201.7475327744672
 20
226.1259837918922
 30
0.0
 10
205.1567634276328
 20
227.0846508901451
 30
0.0
 10
208.0005154193386
 20
228.4184521783647
 30
0.0
 10
210.379975474647
 20
230.0632765262426
 30
0.0
 10
213.1677679944011
 20
232.4954092140098
 30
0.0
 10
216.1981360623891
 20
235.5232855704753
 30
0.0
 10
220.1676574911999
 20
238.4494429632894
 30
0.0
 10
223.1666606142828
 20
239.9305233861602
 30
0.0
 10
224.983767350561
 20
240.5454013866027
 30
0.0
 10
225.4241660612678
 20
240.6789717113255
 30
0.0
 10
225.4333373290553
 20
240.6817533026125
 30
0.0
  0
LWPOLYLINE
  5
1C9
330
1F
100
AcDbEntity
  8
0
  6
Continuous
 62
     7
370
    25
100
AcDbPolyline
 90
        9
 70
   128
 43
0.0
 10
194.0890384884
 20
225.4248922658
 10
194.1357116112
 20
227.5659162636
 10
194.271018828
 20
229.6236546751
 10
194.4897813259
 20
231.519348638
 10
194.7836260845
 20
233.1804414565
 10
195.1413063492
 20
234.5433556711
 10
195.5491320949
 20
235.5559264526
 10
195.9914940043
 20
236.1793981835
 10
196.4514609065
 20
236.3899078091
  0
SPLINE
  5
1CA
330
1F
100
AcDbEntity
  8
0
  6
Continuous
 62
     7
370
    25
100
AcDbSpline
210
0.0
220
0.0
230
1.0
 70
     8
 71
     3
 72
    17
 73
    13
 74
     0
 42
0.00000001
 43
0.00000001
 40
0.0
 40
0.0
 40
0.0
 40
0.0
 40
0.0007905019493121
 40
0.0236238604797935
 40
0.2027052369473313
 40
0.3162321660109186
 40
0.4299017622963702
 40
0.5431186620158748
 40
0.6593694386108921
 40
0.7755130795450701
 40
0.8877940216187236
 40
1.0
 40
1.0
 40
1.0
 40
1.0
 10
225.4333373290553
 20
240.6817533026126
 30
0.0
 10
225.4294020901275
 20
240.6805618262627
 30
0.0
 10
225.311798919804
 20
240.6449549930605
 30
0.0
 10
224.3020330146731
 20
240.3413295942077
 30
0.0
 10
222.6936391801777
 20
239.8837116455745
 30
0.0
 10
220.1311765776537
 20
239.2211600240034
 30
0.0
 10
217.5575250564457
 20
238.6254148856531
 30
0.0
 10
214.4435024859993
 20
238.0024633026225
 30
0.0
 10
210.7065437971525
 20
237.3820067594033
 30
0.0
 10
206.3962568589316
 20
236.8534325952882
 30
0.0
 10
201.6219726524059
 20
236.4722342001746
 30
0.0
 10
198.1745810886847
 20
236.4173438295147
 30
0.0
 10
196.4514609065075
 20
236.3899078090503
 30
0.0
  0
ARC
  5
1CB
330
1F
100
AcDbEntity
  8
0
  6
Continuous
 62
     7
370
    25
100
AcDbCircle
 10
230.2153469388
 20
224.8899078091
 30
0.0
 40
41.50000000000001
100
AcDbArc
 50
179.3096727016
 51
180.6903272984
  0
LINE
  5
1CC
330
1F
100
AcDbEntity
  8
0
  6
Continuous
 62
     7
370
    25
100
AcDbLine
 10
188.7183590963
 20
225.3899078091
 30
0.0
 11
194.0890384884
 21
225.4248922658
 31
0.0
  0
LINE
  5
1CD
330
1F
100
AcDbEntity
  8
0
  6
Continuous
 62
     7
370
    25
100
AcDbLine
 10
188.7183590963
 20
224.3899078091
 30
0.0
 11
194.0890384884
 21
224.3549233523
 31
0.0
  0
SPLINE
  5
1CE
330
1F
100
AcDbEntity
  8
0
  6
Continuous
 62
     7
370
    25
100
AcDbSpline
210
0.0
220
0.0
230
1.0
 70
     8
 71
     3
 72
    18
 73
    14
 74
     0
 42
0.00000001
 43
0.00000001
 40
0.0
 40
0.0
 40
0.0
 40
0.0
 40
0.0924189783057056
 40
0.1879844295216205
 40
0.2853291469184739
 40
0.3855241017269433
 40
0.471519556459801
 40
0.5575968455893414
 40
0.7314223358949953
 40
0.8460905254321717
 40
0.9630576198532818
 40
0.9992306778998258
 40
1.0
 40
1.0
 40
1.0
 40
1.0
 10
61.34165538914637
 20
224.3549233523464
 30
0.0
 10
60.03853747614224
 20
224.3132922868785
 30
0.0
 10
57.38793603078546
 20
224.22861279533
 30
0.0
 10
53.68316110308425
 20
223.6538318262084
 30
0.0
 10
50.27393044991884
 20
222.6951647279554
 30
0.0
 10
47.43017845821279
 20
221.361363439736
 30
0.0
 10
45.05071840290442
 20
219.716539091858
 30
0.0
 10
42.2629258831505
 20
217.2844064040908
 30
0.0
 10
39.23255781516183
 20
214.2565300476257
 30
0.0
 10
35.2630363863527
 20
211.3303726548106
 30
0.0
 10
32.26403326326594
 20
209.8492922319419
 30
0.0
 10
30.44692652699232
 20
209.2344142314969
 30
0.0
 10
30.0065278162836
 20
209.1008439067751
 30
0.0
 10
29.99735654849611
 20
209.0980623154881
 30
0.0
  0
SPLINE
  5
1CF
330
1F
100
AcDbEntity
  8
0
  6
Continuous
 62
     7
370
    25
100
AcDbSpline
210
0.0
220
0.0
230
1.0
 70
     8
 71
     3
 72
    18
 73
    14
 74
     0
 42
0.00000001
 43
0.00000001
 40
0.0
 40
0.0
 40
0.0
 40
0.0
 40
0.0924189783057055
 40
0.1879844295216205
 40
0.2853291469184738
 40
0.3855241017269433
 40
0.4715195564598009
 40
0.5575968455893413
 40
0.7314223358949952
 40
0.8460905254321716
 40
0.9630576198532816
 40
0.9992306778998257
 40
1.0
 40
1.0
 40
1.0
 40
1.0
 10
61.34165538914637
 20
225.4248922657542
 30
0.0
 10
60.03853747614218
 20
225.4665233312221
 30
0.0
 10
57.3879360307854
 20
225.5512028227706
 30
0.0
 10
53.6831611030843
 20
226.1259837918922
 30
0.0
 10
50.27393044991874
 20
227.0846508901451
 30
0.0
 10
47.4301784582129
 20
228.4184521783647
 30
0.0
 10
45.05071840290437
 20
230.0632765262426
 30
0.0
 10
42.26292588315045
 20
232.4954092140098
 30
0.0
 10
39.23255781516244
 20
235.5232855704754
 30
0.0
 10
35.26303638635109
 20
238.4494429632892
 30
0.0
 10
32.26403326327032
 20
239.930523386161
 30
0.0
 10
30.44692652698949
 20
240.5454013866022
 30
0.0
 10
30.00652781628371
 20
240.6789717113256
 30
0.0
 10
29.99735654849611
 20
240.6817533026125
 30
0.0
  0
LINE
  5
1D0
330
1F
100
AcDbEntity
  8
0
  6
Continuous
 62
     7
370
    25
100
AcDbLine
 10
66.7123347813
 20
225.3899078091
 30
0.0
 11
61.3416553891
 21
225.4248922658
 31
0.0
  0
ARC
  5
1D1
330
1F
100
AcDbEntity
  8
0
  6
Continuous
 62
     7
370
    25
100
AcDbCircle
 10
25.2153469388
 20
224.8899078091
 30
0.0
 40
41.50000000000004
100
AcDbArc
 50
359.3096727016
 51
0.6903272984
  0
LINE
  5
1D2
330
1F
100
AcDbEntity
  8
0
  6
Continuous
 62
     7
370
    25
100
AcDbLine
 10
66.7123347813
 20
224.3899078091
 30
0.0
 11
61.3416553891
 21
224.3549233523
 31
0.0
  0
LWPOLYLINE
  5
1D3
330
1F
100
AcDbEntity
  8
0
  6
Continuous
 62
     7
370
    25
100
AcDbPolyline
 90
        9
 70
   128
 43
0.0
 10
61.3416553891
 20
224.3549233523
 10
61.2949822663
 20
222.2138993545
 10
61.1596750495
 20
220.156160943
 10
60.9409125517
 20
218.2604669801
 10
60.6470677931
 20
216.5993741616
 10
60.2893875284
 20
215.236459947
 10
59.8815617826
 20
214.2238891655
 10
59.4391998732
 20
213.6004174346
 10
58.979232971
 20
213.3899078091
  0
SPLINE
  5
1D4
330
1F
100
AcDbEntity
  8
0
  6
Continuous
 62
     7
370
    25
100
AcDbSpline
210
0.0
220
0.0
230
1.0
 70
     8
 71
     3
 72
    17
 73
    13
 74
     0
 42
0.00000001
 43
0.00000001
 40
0.0
 40
0.0
 40
0.0
 40
0.0
 40
0.0007905019493119
 40
0.0236238604797936
 40
0.2027052369473312
 40
0.3162321660109184
 40
0.4299017622963696
 40
0.5431186620158744
 40
0.6593694386108916
 40
0.7755130795450695
 40
0.8877940216187229
 40
0.9999999999999999
 40
0.9999999999999999
 40
0.9999999999999999
 40
0.9999999999999999
 10
29.99735654849606
 20
209.0980623154881
 30
0.0
 10
30.00129178742383
 20
209.099253791838
 30
0.0
 10
30.11889495774861
 20
209.1348606250396
 30
0.0
 10
31.12866086287391
 20
209.4384860238947
 30
0.0
 10
32.73705469737509
 20
209.8961039725256
 30
0.0
 10
35.29951729989745
 20
210.5586555940972
 30
0.0
 10
37.87316882110581
 20
211.1544007324475
 30
0.0
 10
40.98719139155222
 20
211.7773523154781
 30
0.0
 10
44.72415008039893
 20
212.3978088586973
 30
0.0
 10
49.03443701861987
 20
212.9263830228124
 30
0.0
 10
53.80872122514558
 20
213.3075814179259
 30
0.0
 10
57.25611278886689
 20
213.3624717885858
 30
0.0
 10
58.97923297104401
 20
213.3899078090503
 30
0.0
  0
LWPOLYLINE
  5
1D5
330
1F
100
AcDbEntity
  8
0
  6
Continuous
 62
     7
370
    25
100
AcDbPolyline
 90
        9
 70
   128
 43
0.0
 10
61.3416553891
 20
225.4248922658
 10
61.2949822663
 20
227.5659162636
 10
61.1596750495
 20
229.6236546751
 10
60.9409125517
 20
231.519348638
 10
60.6470677931
 20
233.1804414565
 10
60.2893875284
 20
234.5433556711
 10
59.8815617826
 20
235.5559264526
 10
59.4391998732
 20
236.1793981835
 10
58.979232971
 20
236.3899078091
  0
SPLINE
  5
1D6
330
1F
100
AcDbEntity
  8
0
  6
Continuous
 62
     7
370
    25
100
AcDbSpline
210
0.0
220
0.0
230
1.0
 70
     8
 71
     3
 72
    17
 73
    13
 74
     0
 42
0.00000001
 43
0.00000001
 40
0.0
 40
0.0
 40
0.0
 40
0.0
 40
0.0007905019493119
 40
0.0236238604797936
 40
0.2027052369473312
 40
0.3162321660109184
 40
0.4299017622963697
 40
0.5431186620158746
 40
0.6593694386108917
 40
0.7755130795450698
 40
0.887794021618723
 40
1.0
 40
1.0
 40
1.0
 40
1.0
 10
29.99735654849606
 20
240.6817533026126
 30
0.0
 10
30.00129178742383
 20
240.6805618262627
 30
0.0
 10
30.11889495774861
 20
240.6449549930603
 30
0.0
 10
31.12866086287397
 20
240.3413295942084
 30
0.0
 10
32.73705469737498
 20
239.8837116455743
 30
0.0
 10
35.29951729989761
 20
239.2211600240035
 30
0.0
 10
37.87316882110581
 20
238.625414885653
 30
0.0
 10
40.98719139155222
 20
238.0024633026226
 30
0.0
 10
44.72415008039887
 20
237.3820067594033
 30
0.0
 10
49.03443701861981
 20
236.8534325952882
 30
0.0
 10
53.80872122514558
 20
236.4722342001747
 30
0.0
 10
57.25611278886677
 20
236.4173438295147
 30
0.0
 10
58.97923297104401
 20
236.3899078090503
 30
0.0
  0
LWPOLYLINE
  5
1D7
330
1F
100
AcDbEntity
  8
0
  6
Continuous
 62
     7
370
    25
100
AcDbPolyline
 90
        9
 70
   128
 43
0.0
 10
225.4333373291
 20
240.6817533026
 10
225.5615069175
 20
240.7730832597
 10
225.6562465518
 20
240.9575667949
 10
225.7143815531
 20
241.2290219553
 10
225.7339638461
 20
241.5783524117
 10
225.7143372378
 20
241.9938522717
 10
225.6561594061
 20
242.4615983386
 10
225.5613798616
 20
242.9659166711
 10
225.4331746206
 20
243.4899078091
  0
LINE
  5
1D8
330
1F
100
AcDbEntity
  8
0
  6
Continuous
 62
     7
370
    25
100
AcDbLine
 10
230.2153469388
 20
241.3899078091
 30
0.0
 11
230.2153469388
 21
243.4899078091
 31
0.0
  0
LWPOLYLINE
  5
1D9
330
1F
100
AcDbEntity
  8
0
  6
Continuous
 62
     7
370
    25
100
AcDbPolyline
 90
        9
 70
   128
 43
0.0
 10
29.9973565485
 20
240.6817533026
 10
29.86918696
 20
240.7730832597
 10
29.7744473258
 20
240.9575667949
 10
29.7163123244
 20
241.2290219553
 10
29.6967300314
 20
241.5783524117
 10
29.7163566398
 20
241.9938522717
 10
29.7745344715
 20
242.4615983386
 10
29.8693140159
 20
242.9659166711
 10
29.997519257
 20
243.4899078091
  0
LINE
  5
1DA
330
1F
100
AcDbEntity
  8
0
  6
Continuous
 62
     7
370
    25
100
AcDbLine
 10
25.2153469388
 20
241.3899078091
 30
0.0
 11
25.2153469388
 21
243.4899078091
 31
0.0
  0
LWPOLYLINE
  5
1DB
330
1F
100
AcDbEntity
  8
0
  6
Continuous
 62
     7
370
    25
100
AcDbPolyline
 90
        9
 70
   128
 43
0.0
 10
235.1702261908
 20
240.6283693475
 10
235.0341707203
 20
240.7249072973
 10
234.93352717
 20
240.915870895
 10
234.8717325492
 20
241.1947386729
 10
234.850897164
 20
241.5519872077
 10
234.8717325492
 20
241.9754163482
 10
234.93352717
 20
242.4505658542
 10
235.0341707203
 20
242.961209219
 10
235.1702261908
 20
243.4899078091
  0
LWPOLYLINE
  5
1DC
330
1F
100
AcDbEntity
  8
0
  6
Continuous
 62
     7
370
    25
100
AcDbPolyline
 90
        9
 70
   128
 43
0.0
 10
20.2604676867
 20
240.6283693475
 10
20.3965231573
 20
240.7249072973
 10
20.4971667075
 20
240.915870895
 10
20.5589613283
 20
241.1947386729
 10
20.5797967136
 20
241.5519872077
 10
20.5589613283
 20
241.9754163482
 10
20.4971667075
 20
242.4505658542
 10
20.3965231573
 20
242.961209219
 10
20.2604676867
 20
243.4899078091
  0
LINE
  5
1DD
330
1F
100
AcDbEntity
  8
0
  6
Continuous
 62
     7
370
    25
100
AcDbLine
 10
148.1896723964
 20
224.8899078091
 30
0.0
 11
148.072679018
 21
224.9778665568
 31
0.0
  0
SPLINE
  5
1DE
330
1F
100
AcDbEntity
  8
0
  6
Continuous
 62
     7
370
    25
100
AcDbSpline
210
0.0
220
0.0
230
1.0
 70
    24
 71
     3
 72
     9
 73
     5
 74
     0
 42
0.00000001
 43
0.00000001
 40
0.0
 40
0.0
 40
0.0
 40
0.0
 40
0.1521703392585368
 40
1.0
 40
1.0
 40
1.0
 40
1.0
 10
148.1896723963977
 20
224.8899078090503
 30
0.0
 10
148.0076528076645
 20
224.8899078090503
 30
0.0
 10
146.8114959901135
 20
224.8899078090502
 30
0.0
 10
145.7851509025512
 20
224.8899078090503
 30
0.0
 10
144.9149850951596
 20
224.8899078090503
 30
0.0
  0
LINE
  5
1DF
330
1F
100
AcDbEntity
  8
0
  6
Continuous
 62
     7
370
    25
100
AcDbLine
 10
148.072679018
 20
224.8019490613
 30
0.0
 11
148.1896723964
 21
224.8899078091
 31
0.0
  0
SPLINE
  5
1E0
330
1F
100
AcDbEntity
  8
0
  6
Continuous
 62
     7
370
    25
100
AcDbSpline
210
0.0
220
0.0
230
1.0
 70
     8
 71
     3
 72
    15
 73
    11
 74
     0
 42
0.00000001
 43
0.00000001
 40
0.0
 40
0.0
 40
0.0
 40
0.0
 40
0.1337721986078061
 40
0.2647153451198113
 40
0.3958410738271394
 40
0.5814127374275254
 40
0.6658468206796417
 40
0.8199073891878107
 40
0.9731311264948181
 40
0.9999999999999999
 40
0.9999999999999999
 40
0.9999999999999999
 40
0.9999999999999999
 10
142.0074283834879
 20
214.7487689671791
 30
0.0
 10
142.4069577468305
 20
214.9923839652151
 30
0.0
 10
143.1975671141236
 20
215.4744619227623
 30
0.0
 10
143.9733693685948
 20
216.5292517682756
 30
0.0
 10
144.6410886512995
 20
217.9487393031594
 30
0.0
 10
145.0540749079055
 20
219.486874240517
 30
0.0
 10
145.602628334507
 20
221.2886084589315
 30
0.0
 10
146.3750493727731
 20
222.9829372787576
 30
0.0
 10
147.3289096672144
 20
224.2182625526837
 30
0.0
 10
147.9761188069274
 20
224.726171681638
 30
0.0
 10
148.072679017965
 20
224.8019490612676
 30
0.0
  0
LINE
  5
1E1
330
1F
100
AcDbEntity
  8
0
  6
Continuous
 62
     7
370
    25
100
AcDbLine
 10
107.3580148596
 20
224.8019490613
 30
0.0
 11
107.2410214812
 21
224.8899078091
 31
0.0
  0
SPLINE
  5
1E2
330
1F
100
AcDbEntity
  8
0
  6
Continuous
 62
     7
370
    25
100
AcDbSpline
210
0.0
220
0.0
230
1.0
 70
    24
 71
     3
 72
     9
 73
     5
 74
     0
 42
0.00000001
 43
0.00000001
 40
0.0
 40
0.0
 40
0.0
 40
0.0
 40
0.1521703392585248
 40
1.0
 40
1.0
 40
1.0
 40
1.0
 10
107.2410214811538
 20
224.8899078090503
 30
0.0
 10
107.423041069887
 20
224.8899078090503
 30
0.0
 10
108.6191978874381
 20
224.8899078090503
 30
0.0
 10
109.6455429750003
 20
224.8899078090503
 30
0.0
 10
110.5157087823919
 20
224.8899078090503
 30
0.0
  0
LINE
  5
1E3
330
1F
100
AcDbEntity
  8
0
  6
Continuous
 62
     7
370
    25
100
AcDbLine
 10
107.2410214812
 20
224.8899078091
 30
0.0
 11
107.3580148596
 21
224.9778665568
 31
0.0
  0
SPLINE
  5
1E4
330
1F
100
AcDbEntity
  8
0
  6
Continuous
 62
     7
370
    25
100
AcDbSpline
210
0.0
220
0.0
230
1.0
 70
     8
 71
     3
 72
    16
 73
    12
 74
     0
 42
0.00000001
 43
0.00000001
 40
0.0
 40
0.0
 40
0.0
 40
0.0
 40
0.1555522018779091
 40
0.3106557404375554
 40
0.3340025359475315
 40
0.4333284922663077
 40
0.5330348354699053
 40
0.6042696890957019
 40
0.7353587266410153
 40
0.8662652330805469
 40
1.0
 40
1.0
 40
1.0
 40
1.0
 10
107.3580148595861
 20
224.9778665568325
 30
0.0
 10
107.8735369907474
 20
225.473090178187
 30
0.0
 10
108.903094318991
 20
226.4621090343442
 30
0.0
 10
109.5790518640177
 20
227.9213053819168
 30
0.0
 10
110.0198052846355
 20
229.1100631371461
 30
0.0
 10
110.3029519781276
 20
230.053319661822
 30
0.0
 10
110.5967904258842
 20
231.1098703277972
 30
0.0
 10
110.9609882420483
 20
232.1924912406245
 30
0.0
 10
111.4570399932496
 20
233.250922730462
 30
0.0
 10
112.2331996457187
 20
234.3052617635314
 30
0.0
 10
113.0237605972932
 20
234.787400791394
 30
0.0
 10
113.4232654940635
 20
235.0310466509214
 30
0.0
  0
LWPOLYLINE
  5
1E5
330
1F
100
AcDbEntity
  8
0
  6
Continuous
 62
     7
370
    25
100
AcDbPolyline
 90
        9
 70
   128
 43
0.0
 10
225.2176728859
 20
240.6167119328
 10
225.3559956941
 20
240.7120140058
 10
225.4599511625
 20
240.9026600774
 10
225.5259712896
 20
241.1821067159
 10
225.5517901056
 20
241.5407626402
 10
225.5365214466
 20
241.9663179161
 10
225.4806893698
 20
242.4441664628
 10
225.3862101664
 20
242.9579073684
 10
225.2563265899
 20
243.4899078091
  0
LWPOLYLINE
  5
1E6
330
1F
100
AcDbEntity
  8
0
  6
Continuous
 62
     7
370
    25
100
AcDbPolyline
 90
        9
 70
   128
 43
0.0
 10
30.2130209917
 20
240.6167119328
 10
30.0746981835
 20
240.7120140058
 10
29.970742715
 20
240.9026600774
 10
29.904722588
 20
241.1821067159
 10
29.878903772
 20
241.5407626402
 10
29.8941724309
 20
241.9663179161
 10
29.9500045077
 20
242.4441664628
 10
30.0444837112
 20
242.9579073684
 10
30.1743672876
 20
243.4899078091
  0
SPLINE
  5
1E7
330
1F
100
AcDbEntity
  8
0
  6
Continuous
 62
     7
370
    25
100
AcDbSpline
210
0.0
220
0.0
230
1.0
 70
     8
 71
     3
 72
    14
 73
    10
 74
     0
 42
0.00000001
 43
0.00000001
 40
0.0
 40
0.0
 40
0.0
 40
0.0
 40
0.2134361512049043
 40
0.3419772730642933
 40
0.4743229238153987
 40
0.6056680303389563
 40
0.7410438407951863
 40
0.8687922352956758
 40
0.9999999999999999
 40
0.9999999999999999
 40
0.9999999999999999
 40
0.9999999999999999
 10
213.7153469387758
 20
240.4443943378178
 30
0.0
 10
213.8322618566748
 20
240.4643597537282
 30
0.0
 10
214.0195883455472
 20
240.4963492665175
 30
0.0
 10
215.231085545781
 20
240.7242088403025
 30
0.0
 10
216.6069009601612
 20
241.0088384874756
 30
0.0
 10
218.3954631530665
 20
241.4209995646405
 30
0.0
 10
220.4781186000649
 20
241.9663072506049
 30
0.0
 10
222.7905617880193
 20
242.6444309836001
 30
0.0
 10
224.4271174598152
 20
243.2055834069755
 30
0.0
 10
225.2563265899239
 20
243.4899078090503
 30
0.0
  0
ARC
  5
1E8
330
1F
100
AcDbEntity
  8
0
  6
Continuous
 62
     7
370
    25
100
AcDbCircle
 10
210.7153469388
 20
240.4443943378
 30
0.0
 40
3.000000000000021
100
AcDbArc
 50
278.4560297451
 51
0.0
  0
SPLINE
  5
1E9
330
1F
100
AcDbEntity
  8
0
  6
Continuous
 62
     7
370
    25
100
AcDbSpline
210
0.0
220
0.0
230
1.0
 70
     8
 71
     3
 72
    14
 73
    10
 74
     0
 42
0.00000001
 43
0.00000001
 40
0.0
 40
0.0
 40
0.0
 40
0.0
 40
0.2134361512049042
 40
0.3419772730642934
 40
0.4743229238153995
 40
0.6056680303389572
 40
0.7410438407951874
 40
0.868792235295677
 40
1.0
 40
1.0
 40
1.0
 40
1.0
 10
41.71534693877565
 20
240.4443943378178
 30
0.0
 10
41.59843202087659
 20
240.4643597537282
 30
0.0
 10
41.41110553200422
 20
240.4963492665174
 30
0.0
 10
40.19960833177056
 20
240.7242088403025
 30
0.0
 10
38.8237929173903
 20
241.0088384874755
 30
0.0
 10
37.03523072448511
 20
241.4209995646406
 30
0.0
 10
34.95257527748652
 20
241.9663072506048
 30
0.0
 10
32.64013208953214
 20
242.6444309836001
 30
0.0
 10
31.00357641773632
 20
243.2055834069755
 30
0.0
 10
30.17436728762757
 20
243.4899078090503
 30
0.0
  0
ARC
  5
1EA
330
1F
100
AcDbEntity
  8
0
  6
Continuous
 62
     7
370
    25
100
AcDbCircle
 10
44.7153469388
 20
240.4443943378
 30
0.0
 40
3.000000000000021
100
AcDbArc
 50
180.0
 51
261.5439702549
  0
LINE
  5
1EB
330
1F
100
AcDbEntity
  8
0
  6
Continuous
 62
     7
370
    25
100
AcDbLine
 10
148.072679018
 20
224.8019490613
 30
0.0
 11
149.7539168254
 21
224.3899078091
 31
0.0
  0
SPLINE
  5
1EC
330
1F
100
AcDbEntity
  8
0
  6
Continuous
 62
     7
370
    25
100
AcDbSpline
210
0.0
220
0.0
230
1.0
 70
     8
 71
     3
 72
    12
 73
     8
 74
     0
 42
0.00000001
 43
0.00000001
 40
0.0
 40
0.0
 40
0.0
 40
0.0
 40
0.125376774739246
 40
0.2504928039872519
 40
0.4997087580962526
 40
0.749265730072235
 40
1.0
 40
1.0
 40
1.0
 40
1.0
 10
149.7539168253683
 20
224.3899078090503
 30
0.0
 10
149.600829362417
 20
223.8261535521444
 30
0.0
 10
149.2949728117943
 20
222.6998174754205
 30
0.0
 10
148.7869395198929
 20
220.4807664273471
 30
0.0
 10
147.7656571834193
 20
218.0042211508631
 30
0.0
 10
146.0668489313209
 20
215.7219535782106
 30
0.0
 10
144.3963685012463
 20
214.9154185145287
 30
0.0
 10
143.559162777897
 20
214.5112020033744
 30
0.0
  0
ARC
  5
1ED
330
1F
100
AcDbEntity
  8
0
  6
Continuous
 62
     7
370
    25
100
AcDbCircle
 10
142.1749041964
 20
210.6561087257
 30
0.0
 40
4.09608544829374
100
AcDbArc
 50
70.2481744644
 51
92.3432940895
  0
SPLINE
  5
1EE
330
1F
100
AcDbEntity
  8
0
  6
Continuous
 62
     7
370
    25
100
AcDbSpline
210
0.0
220
0.0
230
1.0
 70
     8
 71
     3
 72
    12
 73
     8
 74
     0
 42
0.00000001
 43
0.00000001
 40
0.0
 40
0.0
 40
0.0
 40
0.0
 40
0.1253767747392465
 40
0.2504928039872516
 40
0.499708758096253
 40
0.7492657300722342
 40
1.0
 40
1.0
 40
1.0
 40
1.0
 10
105.6767770521832
 20
224.3899078090503
 30
0.0
 10
105.8298645151344
 20
223.8261535521445
 30
0.0
 10
106.1357210657573
 20
222.6998174754205
 30
0.0
 10
106.6437543576584
 20
220.4807664273471
 30
0.0
 10
107.6650366941322
 20
218.0042211508631
 30
0.0
 10
109.3638449462305
 20
215.7219535782106
 30
0.0
 10
111.0343253763051
 20
214.9154185145287
 30
0.0
 10
111.8715310996544
 20
214.5112020033744
 30
0.0
  0
LINE
  5
1EF
330
1F
100
AcDbEntity
  8
0
  6
Continuous
 62
     7
370
    25
100
AcDbLine
 10
107.3580148596
 20
224.8019490613
 30
0.0
 11
105.6767770522
 21
224.3899078091
 31
0.0
  0
SPLINE
  5
1F0
330
1F
100
AcDbEntity
  8
0
  6
Continuous
 62
     7
370
    25
100
AcDbSpline
210
0.0
220
0.0
230
1.0
 70
     8
 71
     3
 72
    15
 73
    11
 74
     0
 42
0.00000001
 43
0.00000001
 40
0.0
 40
0.0
 40
0.0
 40
0.0
 40
0.1256768351945647
 40
0.2510565948888037
 40
0.5001760313458654
 40
0.6245301654636047
 40
0.7497798651821259
 40
0.8326912096307973
 40
0.9166927865420119
 40
1.0
 40
1.0
 40
1.0
 40
1.0
 10
143.5591627778975
 20
235.2686136147263
 30
0.0
 10
143.9958080676312
 20
235.0858796613931
 30
0.0
 10
144.8680665028874
 20
234.7208437021142
 30
0.0
 10
146.3178198066463
 20
233.6449012771153
 30
0.0
 10
147.4886393416263
 20
232.1537499700805
 30
0.0
 10
148.3780819576081
 20
230.2977703486939
 30
0.0
 10
148.846865863073
 20
228.9213730035812
 30
0.0
 10
149.183595547505
 20
227.6427602295495
 30
0.0
 10
149.423406252078
 20
226.5117294505319
 30
0.0
 10
149.6440518747715
 20
225.7628123064547
 30
0.0
 10
149.7539168253682
 20
225.3899078090503
 30
0.0
  0
LINE
  5
1F1
330
1F
100
AcDbEntity
  8
0
  6
Continuous
 62
     7
370
    25
100
AcDbLine
 10
148.072679018
 20
224.9778665568
 30
0.0
 11
149.7539168254
 21
225.3899078091
 31
0.0
  0
SPLINE
  5
1F2
330
1F
100
AcDbEntity
  8
0
  6
Continuous
 62
     7
370
    25
100
AcDbSpline
210
0.0
220
0.0
230
1.0
 70
     8
 71
     3
 72
    15
 73
    11
 74
     0
 42
0.00000001
 43
0.00000001
 40
0.0
 40
0.0
 40
0.0
 40
0.0
 40
0.1256768351945648
 40
0.2510565948888039
 40
0.5001760313458661
 40
0.6245301654636051
 40
0.7497798651821262
 40
0.8326912096307983
 40
0.916692786542013
 40
1.0
 40
1.0
 40
1.0
 40
1.0
 10
111.8715310996539
 20
235.2686136147263
 30
0.0
 10
111.4348858099203
 20
235.0858796613931
 30
0.0
 10
110.562627374664
 20
234.7208437021142
 30
0.0
 10
109.1128740709051
 20
233.6449012771153
 30
0.0
 10
107.9420545359252
 20
232.1537499700804
 30
0.0
 10
107.0526119199434
 20
230.2977703486939
 30
0.0
 10
106.5838280144782
 20
228.9213730035812
 30
0.0
 10
106.2470983300466
 20
227.6427602295495
 30
0.0
 10
106.0072876254733
 20
226.5117294505319
 30
0.0
 10
105.7866420027799
 20
225.7628123064547
 30
0.0
 10
105.6767770521833
 20
225.3899078090503
 30
0.0
  0
ARC
  5
1F3
330
1F
100
AcDbEntity
  8
0
  6
Continuous
 62
     7
370
    25
100
AcDbCircle
 10
113.2557896812
 20
239.1237068924
 30
0.0
 40
4.096085448295043
100
AcDbArc
 50
250.2481744644
 51
272.3432940895
  0
LINE
  5
1F4
330
1F
100
AcDbEntity
  8
0
  6
Continuous
 62
     7
370
    25
100
AcDbLine
 10
107.3580148596
 20
224.9778665568
 30
0.0
 11
105.6767770522
 21
225.3899078091
 31
0.0
  0
SPLINE
  5
1F5
330
1F
100
AcDbEntity
  8
0
  6
Continuous
 62
     7
370
    25
100
AcDbSpline
210
0.0
220
0.0
230
1.0
 70
    24
 71
     3
 72
     9
 73
     5
 74
     0
 42
0.00000001
 43
0.00000001
 40
0.0
 40
0.0
 40
0.0
 40
0.0
 40
0.4970661551074155
 40
1.0
 40
1.0
 40
1.0
 40
1.0
 10
196.4514609065075
 20
236.3899078090503
 30
0.0
 10
195.1815396323441
 20
236.3899078090503
 30
0.0
 10
192.6267061134758
 20
236.3899078090503
 30
0.0
 10
190.0262277022173
 20
236.3899078090503
 30
0.0
 10
188.7183590962829
 20
236.3899078090503
 30
0.0
  0
LINE
  5
1F6
330
1F
100
AcDbEntity
  8
0
  6
Continuous
 62
     7
370
    25
100
AcDbLine
 10
188.7183590963
 20
225.3899078091
 30
0.0
 11
188.7183590963
 21
236.3899078091
 31
0.0
  0
SPLINE
  5
1F7
330
1F
100
AcDbEntity
  8
0
  6
Continuous
 62
     7
370
    25
100
AcDbSpline
210
0.0
220
0.0
230
1.0
 70
    24
 71
     3
 72
     9
 73
     5
 74
     0
 42
0.00000001
 43
0.00000001
 40
0.0
 40
0.0
 40
0.0
 40
0.0
 40
0.4970661551074155
 40
1.0
 40
1.0
 40
1.0
 40
1.0
 10
196.4514609065075
 20
213.3899078090503
 30
0.0
 10
195.1815396323441
 20
213.3899078090503
 30
0.0
 10
192.6267061134758
 20
213.3899078090503
 30
0.0
 10
190.0262277022173
 20
213.3899078090503
 30
0.0
 10
188.7183590962829
 20
213.3899078090503
 30
0.0
  0
LINE
  5
1F8
330
1F
100
AcDbEntity
  8
0
  6
Continuous
 62
     7
370
    25
100
AcDbLine
 10
188.7183590963
 20
224.3899078091
 30
0.0
 11
188.7183590963
 21
213.3899078091
 31
0.0
  0
SPLINE
  5
1F9
330
1F
100
AcDbEntity
  8
0
  6
Continuous
 62
     7
370
    25
100
AcDbSpline
210
0.0
220
0.0
230
1.0
 70
    24
 71
     3
 72
     9
 73
     5
 74
     0
 42
0.00000001
 43
0.00000001
 40
0.0
 40
0.0
 40
0.0
 40
0.0
 40
0.4970661551074138
 40
1.0
 40
1.0
 40
1.0
 40
1.0
 10
58.97923297104401
 20
236.3899078090503
 30
0.0
 10
60.24915424520738
 20
236.3899078090503
 30
0.0
 10
62.80398776407564
 20
236.3899078090503
 30
0.0
 10
65.40446617533414
 20
236.3899078090503
 30
0.0
 10
66.7123347812686
 20
236.3899078090503
 30
0.0
  0
LINE
  5
1FA
330
1F
100
AcDbEntity
  8
0
  6
Continuous
 62
     7
370
    25
100
AcDbLine
 10
66.7123347813
 20
225.3899078091
 30
0.0
 11
66.7123347813
 21
236.3899078091
 31
0.0
  0
SPLINE
  5
1FB
330
1F
100
AcDbEntity
  8
0
  6
Continuous
 62
     7
370
    25
100
AcDbSpline
210
0.0
220
0.0
230
1.0
 70
    24
 71
     3
 72
     9
 73
     5
 74
     0
 42
0.00000001
 43
0.00000001
 40
0.0
 40
0.0
 40
0.0
 40
0.0
 40
0.4970661551074138
 40
1.0
 40
1.0
 40
1.0
 40
1.0
 10
58.97923297104401
 20
213.3899078090503
 30
0.0
 10
60.24915424520738
 20
213.3899078090503
 30
0.0
 10
62.80398776407564
 20
213.3899078090503
 30
0.0
 10
65.40446617533414
 20
213.3899078090503
 30
0.0
 10
66.7123347812686
 20
213.3899078090503
 30
0.0
  0
LINE
  5
1FC
330
1F
100
AcDbEntity
  8
0
  6
Continuous
 62
     7
370
    25
100
AcDbLine
 10
66.7123347813
 20
224.3899078091
 30
0.0
 11
66.7123347813
 21
213.3899078091
 31
0.0
  0
LINE
  5
1FD
330
1F
100
AcDbEntity
  8
0
  6
Continuous
 62
     7
370
    25
100
AcDbLine
 10
149.7539168254
 20
225.3899078091
 30
0.0
 11
149.869728874
 21
224.8899078091
 31
0.0
  0
SPLINE
  5
1FE
330
1F
100
AcDbEntity
  8
0
  6
Continuous
 62
     7
370
    25
100
AcDbSpline
210
0.0
220
0.0
230
1.0
 70
    24
 71
     3
 72
     9
 73
     5
 74
     0
 42
0.00000001
 43
0.00000001
 40
0.0
 40
0.0
 40
0.0
 40
0.0
 40
0.9858205535231019
 40
1.0
 40
1.0
 40
1.0
 40
1.0
 10
148.1896723963977
 20
224.8899078090503
 30
0.0
 10
148.7391136048273
 20
224.8899078090251
 30
0.0
 10
149.2964576432184
 20
224.8899078089996
 30
0.0
 10
149.8617138537817
 20
224.88990780905
 30
0.0
 10
149.869728873965
 20
224.8899078090508
 30
0.0
  0
LINE
  5
1FF
330
1F
100
AcDbEntity
  8
0
  6
Continuous
 62
     7
370
    25
100
AcDbLine
 10
149.869728874
 20
224.8899078091
 30
0.0
 11
149.7539168254
 21
224.3899078091
 31
0.0
  0
LINE
  5
200
330
1F
100
AcDbEntity
  8
0
  6
Continuous
 62
     7
370
    25
100
AcDbLine
 10
105.5609650036
 20
224.8899078091
 30
0.0
 11
105.6767770522
 21
224.3899078091
 31
0.0
  0
SPLINE
  5
201
330
1F
100
AcDbEntity
  8
0
  6
Continuous
 62
     7
370
    25
100
AcDbSpline
210
0.0
220
0.0
230
1.0
 70
    24
 71
     3
 72
     9
 73
     5
 74
     0
 42
0.00000001
 43
0.00000001
 40
0.0
 40
0.0
 40
0.0
 40
0.0
 40
0.9858205535230696
 40
1.0
 40
1.0
 40
1.0
 40
1.0
 10
107.2410214811538
 20
224.8899078090503
 30
0.0
 10
106.6915802727241
 20
224.8899078090255
 30
0.0
 10
106.1342362343327
 20
224.8899078090003
 30
0.0
 10
105.5689800237698
 20
224.88990780905
 30
0.0
 10
105.5609650035864
 20
224.8899078090508
 30
0.0
  0
LINE
  5
202
330
1F
100
AcDbEntity
  8
0
  6
Continuous
 62
     7
370
    25
100
AcDbLine
 10
105.6767770522
 20
225.3899078091
 30
0.0
 11
105.5609650036
 21
224.8899078091
 31
0.0
  0
LINE
  5
203
330
1F
100
AcDbEntity
  8
0
  6
Continuous
 62
     7
370
    25
100
AcDbLine
 10
149.7539168254
 20
224.3899078091
 30
0.0
 11
188.7183590963
 21
224.3899078091
 31
0.0
  0
LINE
  5
204
330
1F
100
AcDbEntity
  8
0
  6
Continuous
 62
     7
370
    25
100
AcDbLine
 10
149.7539168254
 20
225.3899078091
 30
0.0
 11
188.7183590963
 21
225.3899078091
 31
0.0
  0
LINE
  5
205
330
1F
100
AcDbEntity
  8
0
  6
Continuous
 62
     7
370
    25
100
AcDbLine
 10
188.7183590963
 20
213.3899078091
 30
0.0
 11
139.7485087079
 21
213.3899078091
 31
0.0
  0
LINE
  5
206
330
1F
100
AcDbEntity
  8
0
  6
Continuous
 62
     7
370
    25
100
AcDbLine
 10
188.7183590963
 20
236.3899078091
 30
0.0
 11
141.1569560741
 21
236.3899078091
 31
0.0
  0
LINE
  5
207
330
1F
100
AcDbEntity
  8
0
  6
Continuous
 62
     7
370
    25
100
AcDbLine
 10
105.6767770522
 20
225.3899078091
 30
0.0
 11
66.7123347813
 21
225.3899078091
 31
0.0
  0
LINE
  5
208
330
1F
100
AcDbEntity
  8
0
  6
Continuous
 62
     7
370
    25
100
AcDbLine
 10
66.7123347813
 20
236.3899078091
 30
0.0
 11
115.6821851697
 21
236.3899078091
 31
0.0
  0
LINE
  5
209
330
1F
100
AcDbEntity
  8
0
  6
Continuous
 62
     7
370
    25
100
AcDbLine
 10
66.7123347813
 20
213.3899078091
 30
0.0
 11
114.2737378035
 21
213.3899078091
 31
0.0
  0
LINE
  5
20A
330
1F
100
AcDbEntity
  8
0
  6
Continuous
 62
     7
370
    25
100
AcDbLine
 10
105.6767770522
 20
224.3899078091
 30
0.0
 11
66.7123347813
 21
224.3899078091
 31
0.0
  0
SPLINE
  5
20B
330
1F
100
AcDbEntity
  8
0
  6
Continuous
 62
     7
370
    25
100
AcDbSpline
210
0.0
220
0.0
230
1.0
 70
     8
 71
     3
 72
    11
 73
     7
 74
     0
 42
0.00000001
 43
0.00000001
 40
0.0
 40
0.0
 40
0.0
 40
0.0
 40
0.2646093757676105
 40
0.5349569643242567
 40
0.7653478824379779
 40
1.0
 40
1.0
 40
1.0
 40
1.0
 10
40.50601902594314
 20
257.7733270553194
 30
0.0
 10
40.8230853263325
 20
258.2223915423884
 30
0.0
 10
41.46409369972736
 20
259.1302587488751
 30
0.0
 10
42.41382205654936
 20
259.462352340182
 30
0.0
 10
43.32168685556987
 20
258.9748488613609
 30
0.0
 10
43.87825593858158
 20
258.1762734453007
 30
0.0
 10
44.15909040739246
 20
257.7733270553194
 30
0.0
  0
SPLINE
  5
20C
330
1F
100
AcDbEntity
  8
0
  6
Continuous
 62
     7
370
    25
100
AcDbSpline
210
0.0
220
0.0
230
1.0
 70
     8
 71
     3
 72
    12
 73
     8
 74
     0
 42
0.00000001
 43
0.00000001
 40
0.0
 40
0.0
 40
0.0
 40
0.0
 40
0.182049903306238
 40
0.3656406087374402
 40
0.6149613348991657
 40
0.8710066969717196
 40
1.0
 40
1.0
 40
1.0
 40
1.0
 10
21.56227555732643
 20
257.7733270553194
 30
0.0
 10
22.68996222412384
 20
258.0922909402073
 30
0.0
 10
24.95487987485889
 20
258.7329183007145
 30
0.0
 10
28.86270017069042
 20
259.3429192819894
 30
0.0
 10
33.29643221521117
 20
259.3764731561768
 30
0.0
 10
37.32819300675833
 20
258.6915912177802
 30
0.0
 10
39.70856225266939
 20
258.0037600530947
 30
0.0
 10
40.50601902594314
 20
257.7733270553194
 30
0.0
  0
SPLINE
  5
20D
330
1F
100
AcDbEntity
  8
0
  6
Continuous
 62
     7
370
    25
100
AcDbSpline
210
0.0
220
0.0
230
1.0
 70
     8
 71
     3
 72
    11
 73
     7
 74
     0
 42
0.00000001
 43
0.00000001
 40
0.0
 40
0.0
 40
0.0
 40
0.0
 40
0.2646093757676091
 40
0.5349569643242568
 40
0.7653478824379774
 40
1.0
 40
1.0
 40
1.0
 40
1.0
 10
6.271603470159148
 20
257.7733270553194
 30
0.0
 10
7.598748856303128
 20
258.2223915423884
 30
0.0
 10
10.28181957112179
 20
259.1302587488751
 30
0.0
 10
14.25710046757345
 20
259.462352340182
 30
0.0
 10
18.05715294171872
 20
258.9748488613609
 30
0.0
 10
20.38678585976184
 20
258.1762734453008
 30
0.0
 10
21.56227555732648
 20
257.7733270553194
 30
0.0
  0
SPLINE
  5
20E
330
1F
100
AcDbEntity
  8
0
  6
Continuous
 62
     7
370
    25
100
AcDbSpline
210
0.0
220
0.0
230
1.0
 70
     8
 71
     3
 72
     9
 73
     5
 74
     0
 42
0.00000001
 43
0.00000001
 40
0.0
 40
0.0
 40
0.0
 40
0.0
 40
0.3132808442927669
 40
0.9999999999999999
 40
0.9999999999999999
 40
0.9999999999999999
 40
0.9999999999999999
 10
7.513350505816085
 20
259.0721200340462
 30
0.0
 10
7.38131999277436
 20
259.0151320234086
 30
0.0
 10
6.959875415338546
 20
258.8332249209611
 30
0.0
 10
6.55182174330271
 20
258.2048465320306
 30
0.0
 10
6.271603470159148
 20
257.7733270553194
 30
0.0
  0
LINE
  5
20F
330
1F
100
AcDbEntity
  8
0
  6
Continuous
 62
     7
370
    25
100
AcDbLine
 10
7.9153469388
 20
259.3899078091
 30
0.0
 11
42.5153469388
 21
259.3899078091
 31
0.0
  0
LINE
  5
210
330
1F
100
AcDbEntity
  8
0
  6
Continuous
 62
     7
370
    25
100
AcDbLine
 10
21.5622755573
 20
245.1064885628
 30
0.0
 11
21.5622755573
 21
257.7733270553
 31
0.0
  0
SPLINE
  5
211
330
1F
100
AcDbEntity
  8
0
  6
Continuous
 62
     7
370
    25
100
AcDbSpline
210
0.0
220
0.0
230
1.0
 70
     8
 71
     3
 72
    11
 73
     7
 74
     0
 42
0.00000001
 43
0.00000001
 40
0.0
 40
0.0
 40
0.0
 40
0.0
 40
0.2646093757676107
 40
0.5349569643242558
 40
0.7653478824379782
 40
1.0
 40
1.0
 40
1.0
 40
1.0
 10
21.56227555732648
 20
245.1064885627813
 30
0.0
 10
20.23513017118245
 20
244.6574240757122
 30
0.0
 10
17.55205945636379
 20
243.7495568692257
 30
0.0
 10
13.57677855991213
 20
243.4174632779186
 30
0.0
 10
9.776726085766796
 20
243.9049667567398
 30
0.0
 10
7.447093167723573
 20
244.7035421728
 30
0.0
 10
6.271603470159093
 20
245.1064885627813
 30
0.0
  0
LINE
  5
212
330
1F
100
AcDbEntity
  8
0
  6
Continuous
 62
     7
370
    25
100
AcDbLine
 10
6.2716034702
 20
245.1064885628
 30
0.0
 11
6.2716034702
 21
257.7733270553
 31
0.0
  0
SPLINE
  5
213
330
1F
100
AcDbEntity
  8
0
  6
Continuous
 62
     7
370
    25
100
AcDbSpline
210
0.0
220
0.0
230
1.0
 70
     8
 71
     3
 72
    12
 73
     8
 74
     0
 42
0.00000001
 43
0.00000001
 40
0.0
 40
0.0
 40
0.0
 40
0.0
 40
0.1289937508738278
 40
0.3786272441489026
 40
0.6343574588057714
 40
0.8162656302547759
 40
1.0
 40
1.0
 40
1.0
 40
1.0
 10
40.50601902594314
 20
245.1064885627813
 30
0.0
 10
39.70854939306412
 20
244.8760501241303
 30
0.0
 10
37.36778693485194
 20
244.1996586680996
 30
0.0
 10
33.33837893470309
 20
243.5075231838868
 30
0.0
 10
28.91417403452623
 20
243.5303255591405
 30
0.0
 10
24.9655467713224
 20
244.1445607041971
 30
0.0
 10
22.70047026322758
 20
244.7847800866549
 30
0.0
 10
21.56227555732648
 20
245.1064885627813
 30
0.0
  0
SPLINE
  5
214
330
1F
100
AcDbEntity
  8
0
  6
Continuous
 62
     7
370
    25
100
AcDbSpline
210
0.0
220
0.0
230
1.0
 70
     8
 71
     3
 72
    11
 73
     7
 74
     0
 42
0.00000001
 43
0.00000001
 40
0.0
 40
0.0
 40
0.0
 40
0.0
 40
0.2646093757676102
 40
0.5349569643242565
 40
0.7653478824379778
 40
1.0
 40
1.0
 40
1.0
 40
1.0
 10
44.15909040739252
 20
245.1064885627813
 30
0.0
 10
43.84202410700322
 20
244.6574240757122
 30
0.0
 10
43.20101573360829
 20
243.7495568692256
 30
0.0
 10
42.25128737678635
 20
243.4174632779186
 30
0.0
 10
41.34342257776569
 20
243.9049667567398
 30
0.0
 10
40.78685349475403
 20
244.7035421728
 30
0.0
 10
40.50601902594314
 20
245.1064885627813
 30
0.0
  0
SPLINE
  5
215
330
1F
100
AcDbEntity
  8
0
  6
Continuous
 62
     7
370
    25
100
AcDbSpline
210
0.0
220
0.0
230
1.0
 70
     8
 71
     3
 72
     9
 73
     5
 74
     0
 42
0.00000001
 43
0.00000001
 40
0.0
 40
0.0
 40
0.0
 40
0.0
 40
0.7747350881605435
 40
1.0
 40
1.0
 40
1.0
 40
1.0
 10
6.271603470159038
 20
245.1064885627813
 30
0.0
 10
6.587733266122053
 20
244.6059838140629
 30
0.0
 10
6.995782160245989
 20
243.9599504068156
 30
0.0
 10
7.417816238790009
 20
243.8464796343247
 30
0.0
 10
7.512885708286454
 20
243.8209186507631
 30
0.0
  0
LINE
  5
216
330
1F
100
AcDbEntity
  8
0
  6
Continuous
 62
     7
370
    25
100
AcDbLine
 10
30.9983426538
 20
243.4899078091
 30
0.0
 11
7.9153469388
 21
243.4899078091
 31
0.0
  0
LINE
  5
217
330
1F
100
AcDbEntity
  8
0
  6
Continuous
 62
     7
370
    25
100
AcDbLine
 10
42.5153469388
 20
243.4899078091
 30
0.0
 11
30.9983426538
 21
243.4899078091
 31
0.0
  0
LINE
  5
218
330
1F
100
AcDbEntity
  8
0
  6
Continuous
 62
     7
370
    25
100
AcDbLine
 10
9.9943789279
 20
243.4899078091
 30
0.0
 11
10.2893194771
 21
243.8028504462
 31
0.0
  0
LINE
  5
219
330
1F
100
AcDbEntity
  8
0
  6
Continuous
 62
     7
370
    25
100
AcDbLine
 10
40.5060190259
 20
245.1064885628
 30
0.0
 11
40.5060190259
 21
257.7733270553
 31
0.0
  0
LINE
  5
21A
330
1F
100
AcDbEntity
  8
0
  6
Continuous
 62
     7
370
    25
100
AcDbLine
 10
44.1590904074
 20
245.1064885628
 30
0.0
 11
44.1590904074
 21
257.7733270553
 31
0.0
  0
SPLINE
  5
21B
330
1F
100
AcDbEntity
  8
0
  6
Continuous
 62
     7
370
    25
100
AcDbSpline
210
0.0
220
0.0
230
1.0
 70
     8
 71
     3
 72
     9
 73
     5
 74
     0
 42
0.00000001
 43
0.00000001
 40
0.0
 40
0.0
 40
0.0
 40
0.0
 40
0.4645127357049674
 40
0.9999999999999999
 40
0.9999999999999999
 40
0.9999999999999999
 40
0.9999999999999999
 10
247.9132404401334
 20
243.7419362370159
 30
0.0
 10
248.1089304584972
 20
243.874827308164
 30
0.0
 10
248.5302106588493
 20
244.1609143428853
 30
0.0
 10
248.9397742958566
 20
244.7767281251834
 30
0.0
 10
249.1590904073924
 20
245.1064885627813
 30
0.0
  0
SPLINE
  5
21C
330
1F
100
AcDbEntity
  8
0
  6
Continuous
 62
     7
370
    25
100
AcDbSpline
210
0.0
220
0.0
230
1.0
 70
     8
 71
     3
 72
    12
 73
     8
 74
     0
 42
0.00000001
 43
0.00000001
 40
0.0
 40
0.0
 40
0.0
 40
0.0
 40
0.1820499033062394
 40
0.3656406087374416
 40
0.6149613348991656
 40
0.8710066969717196
 40
1.0
 40
1.0
 40
1.0
 40
1.0
 10
214.9246748516084
 20
245.1064885627813
 30
0.0
 10
214.7072141424014
 20
244.7875246778934
 30
0.0
 10
214.2704522180781
 20
244.1468973173862
 30
0.0
 10
213.5168764261446
 20
243.5368963361112
 30
0.0
 10
212.6618849260915
 20
243.5033424619239
 30
0.0
 10
211.8844087113797
 20
244.1882244003205
 30
0.0
 10
211.4253833458851
 20
244.876055565006
 30
0.0
 10
211.2716034701591
 20
245.1064885627813
 30
0.0
  0
SPLINE
  5
21D
330
1F
100
AcDbEntity
  8
0
  6
Continuous
 62
     7
370
    25
100
AcDbSpline
210
0.0
220
0.0
230
1.0
 70
     8
 71
     3
 72
    11
 73
     7
 74
     0
 42
0.00000001
 43
0.00000001
 40
0.0
 40
0.0
 40
0.0
 40
0.0
 40
0.2646093757676103
 40
0.5349569643242565
 40
0.7653478824379786
 40
1.0
 40
1.0
 40
1.0
 40
1.0
 10
233.8684183202251
 20
245.1064885627813
 30
0.0
 10
232.2242066336917
 20
244.6574240757122
 30
0.0
 10
228.9001275454781
 20
243.7495568692257
 30
0.0
 10
223.9751182922047
 20
243.4174632779186
 30
0.0
 10
219.2672010190385
 20
243.9049667567398
 30
0.0
 10
216.3809990179839
 20
244.7035421728
 30
0.0
 10
214.9246748516084
 20
245.1064885627813
 30
0.0
  0
SPLINE
  5
21E
330
1F
100
AcDbEntity
  8
0
  6
Continuous
 62
     7
370
    25
100
AcDbSpline
210
0.0
220
0.0
230
1.0
 70
     8
 71
     3
 72
    11
 73
     7
 74
     0
 42
0.00000001
 43
0.00000001
 40
0.0
 40
0.0
 40
0.0
 40
0.0
 40
0.2646093757676102
 40
0.5349569643242563
 40
0.7653478824379776
 40
1.0
 40
1.0
 40
1.0
 40
1.0
 10
249.1590904073924
 20
245.1064885627813
 30
0.0
 10
247.8319450212484
 20
244.6574240757122
 30
0.0
 10
245.1488743064297
 20
243.7495568692257
 30
0.0
 10
241.1735934099782
 20
243.4174632779186
 30
0.0
 10
237.3735409358328
 20
243.9049667567398
 30
0.0
 10
235.0439080177896
 20
244.7035421728
 30
0.0
 10
233.8684183202251
 20
245.1064885627813
 30
0.0
  0
LINE
  5
21F
330
1F
100
AcDbEntity
  8
0
  6
Continuous
 62
     7
370
    25
100
AcDbLine
 10
247.5153469388
 20
243.4899078091
 30
0.0
 11
212.9153469388
 21
243.4899078091
 31
0.0
  0
SPLINE
  5
220
330
1F
100
AcDbEntity
  8
0
  6
Continuous
 62
     7
370
    25
100
AcDbSpline
210
0.0
220
0.0
230
1.0
 70
     8
 71
     3
 72
    11
 73
     7
 74
     0
 42
0.00000001
 43
0.00000001
 40
0.0
 40
0.0
 40
0.0
 40
0.0
 40
0.2646093757676103
 40
0.5349569643242565
 40
0.7653478824379774
 40
1.0
 40
1.0
 40
1.0
 40
1.0
 10
214.9246748516084
 20
257.7733270553194
 30
0.0
 10
216.5688865381417
 20
258.2223915423884
 30
0.0
 10
219.8929656263553
 20
259.1302587488751
 30
0.0
 10
224.8179748796288
 20
259.462352340182
 30
0.0
 10
229.5258921527949
 20
258.9748488613608
 30
0.0
 10
232.4120941538496
 20
258.1762734453007
 30
0.0
 10
233.8684183202251
 20
257.7733270553194
 30
0.0
  0
LINE
  5
221
330
1F
100
AcDbEntity
  8
0
  6
Continuous
 62
     7
370
    25
100
AcDbLine
 10
233.8684183202
 20
245.1064885628
 30
0.0
 11
233.8684183202
 21
257.7733270553
 31
0.0
  0
LINE
  5
222
330
1F
100
AcDbEntity
  8
0
  6
Continuous
 62
     7
370
    25
100
AcDbLine
 10
214.9246748516
 20
245.1064885628
 30
0.0
 11
214.9246748516
 21
257.7733270553
 31
0.0
  0
SPLINE
  5
223
330
1F
100
AcDbEntity
  8
0
  6
Continuous
 62
     7
370
    25
100
AcDbSpline
210
0.0
220
0.0
230
1.0
 70
     8
 71
     3
 72
     9
 73
     5
 74
     0
 42
0.00000001
 43
0.00000001
 40
0.0
 40
0.0
 40
0.0
 40
0.0
 40
0.5305796391697212
 40
1.0
 40
1.0
 40
1.0
 40
1.0
 10
249.1590904073924
 20
257.7733270553194
 30
0.0
 10
248.941797414922
 20
258.1002383036021
 30
0.0
 10
248.5322585324829
 20
258.7163781328542
 30
0.0
 10
248.1109858301758
 20
259.0030797074455
 30
0.0
 10
247.9132318462509
 20
259.1376632640407
 30
0.0
  0
SPLINE
  5
224
330
1F
100
AcDbEntity
  8
0
  6
Continuous
 62
     7
370
    25
100
AcDbSpline
210
0.0
220
0.0
230
1.0
 70
     8
 71
     3
 72
    11
 73
     7
 74
     0
 42
0.00000001
 43
0.00000001
 40
0.0
 40
0.0
 40
0.0
 40
0.0
 40
0.2646093757676101
 40
0.5349569643242564
 40
0.7653478824379781
 40
1.0
 40
1.0
 40
1.0
 40
1.0
 10
233.8684183202251
 20
257.7733270553194
 30
0.0
 10
235.195563706369
 20
258.2223915423884
 30
0.0
 10
237.8786344211877
 20
259.1302587488751
 30
0.0
 10
241.8539153176393
 20
259.4623523401821
 30
0.0
 10
245.6539677917848
 20
258.9748488613608
 30
0.0
 10
247.9836007098278
 20
258.1762734453007
 30
0.0
 10
249.1590904073924
 20
257.7733270553194
 30
0.0
  0
SPLINE
  5
225
330
1F
100
AcDbEntity
  8
0
  6
Continuous
 62
     7
370
    25
100
AcDbSpline
210
0.0
220
0.0
230
1.0
 70
     8
 71
     3
 72
    12
 73
     8
 74
     0
 42
0.00000001
 43
0.00000001
 40
0.0
 40
0.0
 40
0.0
 40
0.0
 40
0.1289937508738279
 40
0.3786272441489032
 40
0.6343574588057702
 40
0.8162656302547754
 40
1.0
 40
1.0
 40
1.0
 40
1.0
 10
211.2716034701591
 20
257.7733270553194
 30
0.0
 10
211.4253858257042
 20
258.0037654939703
 30
0.0
 10
211.8767735021173
 20
258.6801569500009
 30
0.0
 10
212.6537960095172
 20
259.372292434214
 30
0.0
 10
213.5069503152267
 20
259.34949005896
 30
0.0
 10
214.2683952363488
 20
258.7352549139036
 30
0.0
 10
214.705187794389
 20
258.0950355314458
 30
0.0
 10
214.9246748516084
 20
257.7733270553194
 30
0.0
  0
LINE
  5
226
330
1F
100
AcDbEntity
  8
0
  6
Continuous
 62
     7
370
    25
100
AcDbLine
 10
213.2034659271
 20
259.3899078091
 30
0.0
 11
247.5153469388
 21
259.3899078091
 31
0.0
  0
LINE
  5
227
330
1F
100
AcDbEntity
  8
0
  6
Continuous
 62
     7
370
    25
100
AcDbLine
 10
212.9153469388
 20
259.3899078091
 30
0.0
 11
213.2034659271
 21
259.3899078091
 31
0.0
  0
LINE
  5
228
330
1F
100
AcDbEntity
  8
0
  6
Continuous
 62
     7
370
    25
100
AcDbLine
 10
249.1590904074
 20
245.1064885628
 30
0.0
 11
249.1590904074
 21
257.7733270553
 31
0.0
  0
LINE
  5
229
330
1F
100
AcDbEntity
  8
0
  6
Continuous
 62
     7
370
    25
100
AcDbLine
 10
211.2716034702
 20
245.1064885628
 30
0.0
 11
211.2716034702
 21
257.7733270553
 31
0.0
  0
LINE
  5
22A
330
1F
100
AcDbEntity
  8
0
  6
Continuous
 62
     7
370
    25
100
AcDbLine
 10
255.0153469388
 20
279.5899078091
 30
0.0
 11
205.4153469388
 21
279.5899078091
 31
0.0
  0
LINE
  5
22B
330
1F
100
AcDbEntity
  8
0
  6
Continuous
 62
     7
370
    25
100
AcDbLine
 10
246.6367803494
 20
283.5899078091
 30
0.0
 11
255.5153469388
 21
283.5899078091
 31
0.0
  0
LINE
  5
22C
330
1F
100
AcDbEntity
  8
0
  6
Continuous
 62
     7
370
    25
100
AcDbLine
 10
204.9153469388
 20
283.5899078091
 30
0.0
 11
246.6367803494
 21
283.5899078091
 31
0.0
  0
ELLIPSE
  5
22D
330
1F
100
AcDbEntity
  8
0
  6
Continuous
 62
     7
370
    25
100
AcDbEllipse
 10
243.3312427887
 20
278.5899078091
 30
0.0
 11
1.884949598867308
 21
0.0
 31
0.0
210
0.0
220
0.0
230
1.0
 40
0.5305181638
 41
1.570796326794897
 42
3.141592653589793
  0
LINE
  5
22E
330
1F
100
AcDbEntity
  8
0
  6
Continuous
 62
     7
370
    25
100
AcDbLine
 10
241.4462931899
 20
278.5899078091
 30
0.0
 11
224.9819805677
 21
278.5899078091
 31
0.0
  0
ELLIPSE
  5
22F
330
1F
100
AcDbEntity
  8
0
  6
Continuous
 62
     7
370
    25
100
AcDbEllipse
 10
223.4605206585
 20
278.5899078091
 30
0.0
 11
1.521459909170886
 21
0.0
 31
0.0
210
0.0
220
0.0
230
1.0
 40
0.6572634573
 41
0.0
 42
1.570796326794897
  0
LINE
  5
230
330
1F
100
AcDbEntity
  8
0
  6
Continuous
 62
     7
370
    25
100
AcDbLine
 10
212.6081347715
 20
265.1381535215
 30
0.0
 11
213.5704923072
 21
264.9878976795
 31
0.0
  0
SPLINE
  5
231
330
1F
100
AcDbEntity
  8
0
  6
Continuous
 62
     7
370
    25
100
AcDbSpline
210
0.0
220
0.0
230
1.0
 70
     8
 71
     3
 72
    11
 73
     7
 74
     0
 42
0.00000001
 43
0.00000001
 40
0.0
 40
0.0
 40
0.0
 40
0.0
 40
0.1755702971684404
 40
0.4954273686126057
 40
0.8115831191424621
 40
1.0
 40
1.0
 40
1.0
 40
1.0
 10
212.6081347714573
 20
265.1381535214512
 30
0.0
 10
212.5909622411567
 20
265.1435883396133
 30
0.0
 10
212.5425044915463
 20
265.1589244055904
 30
0.0
 10
212.550251513139
 20
265.16776781328
 30
0.0
 10
212.6456374533197
 20
265.1594532910979
 30
0.0
 10
212.7521852956995
 20
265.1439447146639
 30
0.0
 10
212.7919722577234
 20
265.1381535214512
 30
0.0
  0
SPLINE
  5
232
330
1F
100
AcDbEntity
  8
0
  6
Continuous
 62
     7
370
    25
100
AcDbSpline
210
0.0
220
0.0
230
1.0
 70
     8
 71
     3
 72
    10
 73
     6
 74
     0
 42
0.00000001
 43
0.00000001
 40
0.0
 40
0.0
 40
0.0
 40
0.0
 40
0.5005066582626873
 40
0.8819976404752601
 40
1.0
 40
1.0
 40
1.0
 40
1.0
 10
223.7845585840146
 20
265.1381535214512
 30
0.0
 10
221.9422396918815
 20
264.9270744916019
 30
0.0
 10
218.6956876449923
 20
264.555108997822
 30
0.0
 10
215.0358530385981
 20
264.8194701140553
 30
0.0
 10
213.2207739904225
 20
265.077253673991
 30
0.0
 10
212.7919722577234
 20
265.1381535214512
 30
0.0
  0
SPLINE
  5
233
330
1F
100
AcDbEntity
  8
0
  6
Continuous
 62
     7
370
    25
100
AcDbSpline
210
0.0
220
0.0
230
1.0
 70
     8
 71
     3
 72
    11
 73
     7
 74
     0
 42
0.00000001
 43
0.00000001
 40
0.0
 40
0.0
 40
0.0
 40
0.0
 40
0.1755702971684397
 40
0.4954273686126029
 40
0.8115831191424596
 40
1.0
 40
1.0
 40
1.0
 40
1.0
 10
223.7845585840146
 20
265.1381535214512
 30
0.0
 10
223.8273409458437
 20
265.1435883396133
 30
0.0
 10
223.9480649708405
 20
265.1589244055903
 30
0.0
 10
224.204801333944
 20
265.16776781328
 30
0.0
 10
224.4957706139425
 20
265.1594532910978
 30
0.0
 10
224.6720566786836
 20
265.1439447146639
 30
0.0
 10
224.7378852004682
 20
265.1381535214512
 30
0.0
  0
SPLINE
  5
234
330
1F
100
AcDbEntity
  8
0
  6
Continuous
 62
     7
370
    25
100
AcDbSpline
210
0.0
220
0.0
230
1.0
 70
     8
 71
     3
 72
    10
 73
     6
 74
     0
 42
0.00000001
 43
0.00000001
 40
0.0
 40
0.0
 40
0.0
 40
0.0
 40
0.4999493505749383
 40
0.8818990399724886
 40
1.0
 40
1.0
 40
1.0
 40
1.0
 10
241.391770751333
 20
265.1381535214512
 30
0.0
 10
238.619744076902
 20
264.9272347950798
 30
0.0
 10
233.7299534208134
 20
264.5551790616634
 30
0.0
 10
228.1626367755065
 20
264.8191454377493
 30
0.0
 10
225.3922011363694
 20
265.0772054298089
 30
0.0
 10
224.7378852004682
 20
265.1381535214512
 30
0.0
  0
SPLINE
  5
235
330
1F
100
AcDbEntity
  8
0
  6
Continuous
 62
     7
370
    25
100
AcDbSpline
210
0.0
220
0.0
230
1.0
 70
     8
 71
     3
 72
    11
 73
     7
 74
     0
 42
0.00000001
 43
0.00000001
 40
0.0
 40
0.0
 40
0.0
 40
0.0
 40
0.1755702971684344
 40
0.4954273686125843
 40
0.8115831191424521
 40
1.0
 40
1.0
 40
1.0
 40
1.0
 10
241.391770751333
 20
265.1381535214512
 30
0.0
 10
241.4517256434627
 20
265.1435883396134
 30
0.0
 10
241.6209074180699
 20
265.1589244055904
 30
0.0
 10
241.8698967595808
 20
265.16776781328
 30
0.0
 10
242.0654800993985
 20
265.1594532910978
 30
0.0
 10
242.1352183217599
 20
265.143944714664
 30
0.0
 10
242.1612598815206
 20
265.1381535214512
 30
0.0
  0
LINE
  5
236
330
1F
100
AcDbEntity
  8
0
  6
Continuous
 62
     7
370
    25
100
AcDbLine
 10
247.8225591061
 20
265.1381535215
 30
0.0
 11
245.8285412922
 21
264.8268213872
 31
0.0
  0
ARC
  5
237
330
1F
100
AcDbEntity
  8
0
  6
Continuous
 62
     7
370
    25
100
AcDbCircle
 10
239.4650286516
 20
265.7365584654
 30
0.0
 40
2.017529081771706
100
AcDbArc
 50
342.7463217763
 51
10.8798151753
  0
ARC
  5
238
330
1F
100
AcDbEntity
  8
0
  6
Continuous
 62
     7
370
    25
100
AcDbCircle
 10
222.766220319
 20
266.1496746124
 30
0.0
 40
2.215995785712936
100
AcDbArc
 50
332.8408649514
 51
359.1646152028
  0
SPLINE
  5
239
330
1F
100
AcDbEntity
  8
0
  6
Continuous
 62
     7
370
    25
100
AcDbSpline
210
0.0
220
0.0
230
1.0
 70
     8
 71
     3
 72
     9
 73
     5
 74
     0
 42
0.00000001
 43
0.00000001
 40
0.0
 40
0.0
 40
0.0
 40
0.0
 40
0.4999999999994119
 40
1.0
 40
1.0
 40
1.0
 40
1.0
 10
224.9819805676984
 20
266.1173660615891
 30
0.0
 10
227.7260326713895
 20
265.8981798825901
 30
0.0
 10
233.214136878778
 20
265.4598075245917
 30
0.0
 10
238.7022410861664
 20
265.898179882591
 30
0.0
 10
241.4462931898638
 20
266.117366061591
 30
0.0
  0
LINE
  5
23A
330
1F
100
AcDbEntity
  8
0
  6
Continuous
 62
     7
370
    25
100
AcDbLine
 10
241.4462931899
 20
266.1173660616
 30
0.0
 11
241.4462931899
 21
278.5899078091
 31
0.0
  0
LINE
  5
23B
330
1F
100
AcDbEntity
  8
0
  6
Continuous
 62
     7
370
    25
100
AcDbLine
 10
224.9819805677
 20
278.5899078091
 30
0.0
 11
224.9819805677
 21
266.1173660616
 31
0.0
  0
LINE
  5
23C
330
1F
100
AcDbEntity
  8
0
  6
Continuous
 62
     7
370
    25
100
AcDbLine
 10
224.9819805677
 20
278.5899078091
 30
0.0
 11
223.0970309688
 21
278.5899078091
 31
0.0
  0
ELLIPSE
  5
23D
330
1F
100
AcDbEntity
  8
0
  6
Continuous
 62
     7
370
    25
100
AcDbEllipse
 10
223.4605206585
 20
278.5899078091
 30
0.0
 11
0.0
 21
1.0
 31
0.0
210
0.0
220
0.0
230
1.0
 40
0.3634896897
 41
0.0
 42
1.570796326794897
  0
LINE
  5
23E
330
1F
100
AcDbEntity
  8
0
  6
Continuous
 62
     7
370
    25
100
AcDbLine
 10
223.0970309688
 20
278.5899078091
 30
0.0
 11
212.2295744074
 21
278.5899078091
 31
0.0
  0
ELLIPSE
  5
23F
330
1F
100
AcDbEntity
  8
0
  6
Continuous
 62
     7
370
    25
100
AcDbEllipse
 10
210.3446248086
 20
278.5899078091
 30
0.0
 11
1.884949598867337
 21
0.0
 31
0.0
210
0.0
220
0.0
230
1.0
 40
0.5305181638
 41
0.0
 42
1.570796326794897
  0
SPLINE
  5
240
330
1F
100
AcDbEntity
  8
0
  6
Continuous
 62
     7
370
    25
100
AcDbSpline
210
0.0
220
0.0
230
1.0
 70
     8
 71
     3
 72
    11
 73
     7
 74
     0
 42
0.00000001
 43
0.00000001
 40
0.0
 40
0.0
 40
0.0
 40
0.0
 40
0.1883467346482277
 40
0.5045742105933783
 40
0.8244987390890834
 40
1.0
 40
1.0
 40
1.0
 40
1.0
 10
224.9819805676984
 20
266.1173660615891
 30
0.0
 10
224.8516072123769
 20
266.1231575067871
 30
0.0
 10
224.5023416253382
 20
266.1386725827157
 30
0.0
 10
223.926877592295
 20
266.1469767388148
 30
0.0
 10
223.4196489872519
 20
266.1381438612609
 30
0.0
 10
223.1814214684879
 20
266.122801123478
 30
0.0
 10
223.0970309687991
 20
266.1173660615891
 30
0.0
  0
LINE
  5
241
330
1F
100
AcDbEntity
  8
0
  6
Continuous
 62
     7
370
    25
100
AcDbLine
 10
223.0970309688
 20
266.1173660616
 30
0.0
 11
223.0970309688
 21
278.5899078091
 31
0.0
  0
ARC
  5
242
330
1F
100
AcDbEntity
  8
0
  6
Continuous
 62
     7
370
    25
100
AcDbCircle
 10
224.1320983618
 20
266.1131399169
 30
0.0
 40
1.035076020598376
100
AcDbArc
 50
179.7660645944
 51
250.3810843153
  0
ARC
  5
243
330
1F
100
AcDbEntity
  8
0
  6
Continuous
 62
     7
370
    25
100
AcDbCircle
 10
213.1098602429
 20
265.9718374832
 30
0.0
 40
0.892234116857917
100
AcDbArc
 50
170.6127845883
 51
249.127893572
  0
SPLINE
  5
244
330
1F
100
AcDbEntity
  8
0
  6
Continuous
 62
     7
370
    25
100
AcDbSpline
210
0.0
220
0.0
230
1.0
 70
     8
 71
     3
 72
     9
 73
     5
 74
     0
 42
0.00000001
 43
0.00000001
 40
0.0
 40
0.0
 40
0.0
 40
0.0
 40
0.4994437068503677
 40
1.0
 40
1.0
 40
1.0
 40
1.0
 10
212.2295744074329
 20
266.1173660615891
 30
0.0
 10
214.0387937214859
 20
265.8983425688219
 30
0.0
 10
217.6612626589011
 20
265.4598076753735
 30
0.0
 10
221.2837647501012
 20
265.8980174174654
 30
0.0
 10
223.0970309687991
 20
266.1173660615891
 30
0.0
  0
LINE
  5
245
330
1F
100
AcDbEntity
  8
0
  6
Continuous
 62
     7
370
    25
100
AcDbLine
 10
212.2295744074
 20
278.5899078091
 30
0.0
 11
212.2295744074
 21
266.1173660616
 31
0.0
  0
LINE
  5
246
330
1F
100
AcDbEntity
  8
0
  6
Continuous
 62
     7
370
    25
100
AcDbLine
 10
242.967753099
 20
278.5899078091
 30
0.0
 11
241.4462931899
 21
278.5899078091
 31
0.0
  0
ELLIPSE
  5
247
330
1F
100
AcDbEntity
  8
0
  6
Continuous
 62
     7
370
    25
100
AcDbEllipse
 10
243.3312427887
 20
278.5899078091
 30
0.0
 11
0.0
 21
1.0
 31
0.0
210
0.0
220
0.0
230
1.0
 40
0.3634896897
 41
0.0
 42
1.570796326794897
  0
ELLIPSE
  5
248
330
1F
100
AcDbEntity
  8
0
  6
Continuous
 62
     7
370
    25
100
AcDbEllipse
 10
250.086069069
 20
278.5899078091
 30
0.0
 11
1.521459909170858
 21
0.0
 31
0.0
210
0.0
220
0.0
230
1.0
 40
0.6572634573
 41
1.570796326794897
 42
3.141592653589793
  0
LINE
  5
249
330
1F
100
AcDbEntity
  8
0
  6
Continuous
 62
     7
370
    25
100
AcDbLine
 10
248.5646091598
 20
278.5899078091
 30
0.0
 11
242.967753099
 21
278.5899078091
 31
0.0
  0
LINE
  5
24A
330
1F
100
AcDbEntity
  8
0
  6
Continuous
 62
     7
370
    25
100
AcDbLine
 10
220.3462541703
 20
264.8274078136
 30
0.0
 11
220.4066459868
 21
264.8556610671
 31
0.0
  0
LINE
  5
24B
330
1F
100
AcDbEntity
  8
0
  6
Continuous
 62
     7
370
    25
100
AcDbLine
 10
242.967753099
 20
278.5899078091
 30
0.0
 11
242.967753099
 21
266.1173660616
 31
0.0
  0
SPLINE
  5
24C
330
1F
100
AcDbEntity
  8
0
  6
Continuous
 62
     7
370
    25
100
AcDbSpline
210
0.0
220
0.0
230
1.0
 70
     8
 71
     3
 72
    11
 73
     7
 74
     0
 42
0.00000001
 43
0.00000001
 40
0.0
 40
0.0
 40
0.0
 40
0.0
 40
0.1883467346499907
 40
0.5045742105980904
 40
0.8244987390967836
 40
1.0
 40
1.0
 40
1.0
 40
1.0
 10
242.9677530990413
 20
266.1173660615891
 30
0.0
 10
242.916676435616
 20
266.123157506787
 30
0.0
 10
242.7798438689369
 20
266.1386725827156
 30
0.0
 10
242.3937524638273
 20
266.1469767388149
 30
0.0
 10
241.9009692005095
 20
266.1381438612606
 30
0.0
 10
241.5652274512481
 20
266.1228011234791
 30
0.0
 10
241.4462931898638
 20
266.1173660615911
 30
0.0
  0
ARC
  5
24D
330
1F
100
AcDbEntity
  8
0
  6
Continuous
 62
     7
370
    25
100
AcDbCircle
 10
241.9459535789
 20
266.1372086673
 30
0.0
 40
1.021992166455222
100
AcDbArc
 50
282.1618030949
 51
358.8874973435
  0
ARC
  5
24E
330
1F
100
AcDbEntity
  8
0
  6
Continuous
 62
     7
370
    25
100
AcDbCircle
 10
247.622523793
 20
266.0605109447
 30
0.0
 40
0.9437994186658483
100
AcDbArc
 50
282.2364670281
 51
3.453627592
  0
SPLINE
  5
24F
330
1F
100
AcDbEntity
  8
0
  6
Continuous
 62
     7
370
    25
100
AcDbSpline
210
0.0
220
0.0
230
1.0
 70
     8
 71
     3
 72
     9
 73
     5
 74
     0
 42
0.00000001
 43
0.00000001
 40
0.0
 40
0.0
 40
0.0
 40
0.0
 40
0.4999999999999595
 40
1.0
 40
1.0
 40
1.0
 40
1.0
 10
242.9677530990413
 20
266.1173660615891
 30
0.0
 10
243.9005624425046
 20
265.8981798825901
 30
0.0
 10
245.7661811294313
 20
265.4598075245921
 30
0.0
 10
247.6317998163582
 20
265.8981798825901
 30
0.0
 10
248.5646091598217
 20
266.1173660615892
 30
0.0
  0
LINE
  5
250
330
1F
100
AcDbEntity
  8
0
  6
Continuous
 62
     7
370
    25
100
AcDbLine
 10
248.5646091598
 20
266.1173660616
 30
0.0
 11
248.5646091598
 21
278.5899078091
 31
0.0
  0
LINE
  5
251
330
1F
100
AcDbEntity
  8
0
  6
Continuous
 62
     7
370
    25
100
AcDbLine
 10
212.6081347715
 20
265.1381535215
 30
0.0
 11
212.5256292204
 21
265.1582256037
 31
0.0
  0
LINE
  5
252
330
1F
100
AcDbEntity
  8
0
  6
Continuous
 62
     7
370
    25
100
AcDbLine
 10
248.679659561
 20
278.5899078091
 30
0.0
 11
248.5646091598
 21
278.5899078091
 31
0.0
  0
LINE
  5
253
330
1F
100
AcDbEntity
  8
0
  6
Continuous
 62
     7
370
    25
100
AcDbLine
 10
8.7939135281
 20
283.5899078091
 30
0.0
 11
50.5153469388
 21
283.5899078091
 31
0.0
  0
LINE
  5
254
330
1F
100
AcDbEntity
  8
0
  6
Continuous
 62
     7
370
    25
100
AcDbLine
 10
-0.0846530612
 20
283.5899078091
 30
0.0
 11
8.7939135281
 21
283.5899078091
 31
0.0
  0
LINE
  5
255
330
1F
100
AcDbEntity
  8
0
  6
Continuous
 62
     7
370
    25
100
AcDbLine
 10
50.0153469388
 20
279.5899078091
 30
0.0
 11
0.4153469388
 21
279.5899078091
 31
0.0
  0
ELLIPSE
  5
256
330
1F
100
AcDbEntity
  8
0
  6
Continuous
 62
     7
370
    25
100
AcDbEllipse
 10
31.970173219
 20
278.5899078091
 30
0.0
 11
1.521459909170879
 21
0.0
 31
0.0
210
0.0
220
0.0
230
1.0
 40
0.6572634573
 41
1.570796326794897
 42
3.141592653589793
  0
LINE
  5
257
330
1F
100
AcDbEntity
  8
0
  6
Continuous
 62
     7
370
    25
100
AcDbLine
 10
30.4487133099
 20
278.5899078091
 30
0.0
 11
13.9844006877
 21
278.5899078091
 31
0.0
  0
ELLIPSE
  5
258
330
1F
100
AcDbEntity
  8
0
  6
Continuous
 62
     7
370
    25
100
AcDbEllipse
 10
12.0994510888
 20
278.5899078091
 30
0.0
 11
1.884949598867328
 21
0.0
 31
0.0
210
0.0
220
0.0
230
1.0
 40
0.5305181638
 41
0.0
 42
1.570796326794897
  0
SPLINE
  5
259
330
1F
100
AcDbEntity
  8
0
  6
Continuous
 62
     7
370
    25
100
AcDbSpline
210
0.0
220
0.0
230
1.0
 70
     8
 71
     3
 72
     9
 73
     5
 74
     0
 42
0.00000001
 43
0.00000001
 40
0.0
 40
0.0
 40
0.0
 40
0.0
 40
0.31184617038616
 40
1.0
 40
1.0
 40
1.0
 40
1.0
 10
8.567750215902393
 20
264.9255510051404
 30
0.0
 10
8.467223598449536
 20
264.9355856106398
 30
0.0
 10
8.144863964119676
 20
264.9677636729419
 30
0.0
 10
7.826925407071805
 20
265.0686963282013
 30
0.0
 10
7.608134771457387
 20
265.1381535214512
 30
0.0
  0
SPLINE
  5
25A
330
1F
100
AcDbEntity
  8
0
  6
Continuous
 62
     7
370
    25
100
AcDbSpline
210
0.0
220
0.0
230
1.0
 70
     8
 71
     3
 72
    11
 73
     7
 74
     0
 42
0.00000001
 43
0.00000001
 40
0.0
 40
0.0
 40
0.0
 40
0.0
 40
0.1755702971684246
 40
0.4954273686125755
 40
0.8115831191424426
 40
1.0
 40
1.0
 40
1.0
 40
1.0
 10
13.26943399603098
 20
265.1381535214512
 30
0.0
 10
13.293473591936
 20
265.1435883396134
 30
0.0
 10
13.36130894867826
 20
265.1589244055903
 30
0.0
 10
13.55130053557424
 20
265.16776781328
 30
0.0
 10
13.80237037777726
 20
265.1594532910979
 30
0.0
 10
13.97460681228879
 20
265.1439447146639
 30
0.0
 10
14.03892312621852
 20
265.1381535214512
 30
0.0
  0
SPLINE
  5
25B
330
1F
100
AcDbEntity
  8
0
  6
Continuous
 62
     7
370
    25
100
AcDbSpline
210
0.0
220
0.0
230
1.0
 70
     8
 71
     3
 72
    10
 73
     6
 74
     0
 42
0.00000001
 43
0.00000001
 40
0.0
 40
0.0
 40
0.0
 40
0.0
 40
0.4999493505749403
 40
0.8818990399724893
 40
1.0
 40
1.0
 40
1.0
 40
1.0
 10
30.69280867708324
 20
265.1381535214512
 30
0.0
 10
27.91642568087516
 20
264.9272347950796
 30
0.0
 10
23.01895057437453
 20
264.5551790616633
 30
0.0
 10
17.45778070831427
 20
264.8191454377493
 30
0.0
 10
14.69211298525724
 20
265.0772054298088
 30
0.0
 10
14.03892312621852
 20
265.1381535214512
 30
0.0
  0
SPLINE
  5
25C
330
1F
100
AcDbEntity
  8
0
  6
Continuous
 62
     7
370
    25
100
AcDbSpline
210
0.0
220
0.0
230
1.0
 70
     8
 71
     3
 72
    11
 73
     7
 74
     0
 42
0.00000001
 43
0.00000001
 40
0.0
 40
0.0
 40
0.0
 40
0.0
 40
0.1755702971684259
 40
0.4954273686125654
 40
0.8115831191424375
 40
1.0
 40
1.0
 40
1.0
 40
1.0
 10
30.6928086770833
 20
265.1381535214512
 30
0.0
 10
30.75408779960481
 20
265.1435883396132
 30
0.0
 10
30.92700631094353
 20
265.1589244055903
 30
0.0
 10
31.21412714704913
 20
265.16776781328
 30
0.0
 10
31.47652028640091
 20
265.1594532910978
 30
0.0
 10
31.6000186784563
 20
265.1439447146639
 30
0.0
 10
31.64613529353694
 20
265.1381535214512
 30
0.0
  0
SPLINE
  5
25D
330
1F
100
AcDbEntity
  8
0
  6
Continuous
 62
     7
370
    25
100
AcDbSpline
210
0.0
220
0.0
230
1.0
 70
     8
 71
     3
 72
    10
 73
     6
 74
     0
 42
0.00000001
 43
0.00000001
 40
0.0
 40
0.0
 40
0.0
 40
0.0
 40
0.4993920432232364
 40
0.8818015523862032
 40
0.9999999999999999
 40
0.9999999999999999
 40
0.9999999999999999
 40
0.9999999999999999
 10
42.63872161982801
 20
265.1381535214512
 30
0.0
 10
40.8187350404059
 20
264.9273952828746
 30
0.0
 10
37.60509354804609
 20
264.5552489011351
 30
0.0
 10
33.91947871740103
 20
264.8188211802342
 30
0.0
 10
32.0803674890785
 20
265.077157729008
 30
0.0
 10
31.64613529353688
 20
265.1381535214512
 30
0.0
  0
SPLINE
  5
25E
330
1F
100
AcDbEntity
  8
0
  6
Continuous
 62
     7
370
    25
100
AcDbSpline
210
0.0
220
0.0
230
1.0
 70
     8
 71
     3
 72
    11
 73
     7
 74
     0
 42
0.00000001
 43
0.00000001
 40
0.0
 40
0.0
 40
0.0
 40
0.0
 40
0.1755702971684214
 40
0.4954273686126062
 40
0.8115831191424577
 40
1.0
 40
1.0
 40
1.0
 40
1.0
 10
42.63872161982807
 20
265.1381535214512
 30
0.0
 10
42.67596114644445
 20
265.1435883396133
 30
0.0
 10
42.78104430104107
 20
265.1589244055903
 30
0.0
 10
42.8781735502507
 20
265.1677678132801
 30
0.0
 10
42.88949684739956
 20
265.1594532910977
 30
0.0
 10
42.84075880494315
 20
265.1439447146639
 30
0.0
 10
42.82255910609423
 20
265.1381535214511
 30
0.0
  0
SPLINE
  5
25F
330
1F
100
AcDbEntity
  8
0
  6
Continuous
 62
     7
370
    25
100
AcDbSpline
210
0.0
220
0.0
230
1.0
 70
     8
 71
     3
 72
     9
 73
     5
 74
     0
 42
0.00000001
 43
0.00000001
 40
0.0
 40
0.0
 40
0.0
 40
0.0
 40
0.3118461703861601
 40
1.0
 40
1.0
 40
1.0
 40
1.0
 10
41.86294366164911
 20
264.9255510051403
 30
0.0
 10
41.96347027910197
 20
264.9355856106398
 30
0.0
 10
42.28582991343177
 20
264.9677636729421
 30
0.0
 10
42.60376847047981
 20
265.0686963282013
 30
0.0
 10
42.82255910609423
 20
265.1381535214511
 30
0.0
  0
ARC
  5
260
330
1F
100
AcDbEntity
  8
0
  6
Continuous
 62
     7
370
    25
100
AcDbCircle
 10
32.6644735593
 20
266.1496746125
 30
0.0
 40
2.215995786425924
100
AcDbArc
 50
180.8353848015
 51
207.1591350442
  0
ARC
  5
261
330
1F
100
AcDbEntity
  8
0
  6
Continuous
 62
     7
370
    25
100
AcDbCircle
 10
15.9656652262
 20
265.7365584654
 30
0.0
 40
2.017529082038285
100
AcDbArc
 50
169.1201848255
 51
197.2536782207
  0
SPLINE
  5
262
330
1F
100
AcDbEntity
  8
0
  6
Continuous
 62
     7
370
    25
100
AcDbSpline
210
0.0
220
0.0
230
1.0
 70
     8
 71
     3
 72
     9
 73
     5
 74
     0
 42
0.00000001
 43
0.00000001
 40
0.0
 40
0.0
 40
0.0
 40
0.0
 40
0.4999999999999596
 40
1.0
 40
1.0
 40
1.0
 40
1.0
 10
13.98440068770701
 20
266.1173660615891
 30
0.0
 10
16.72845279139795
 20
265.8981798825901
 30
0.0
 10
22.2165569987805
 20
265.4598075245921
 30
0.0
 10
27.70466120616305
 20
265.8981798825901
 30
0.0
 10
30.44871330985444
 20
266.1173660615892
 30
0.0
  0
LINE
  5
263
330
1F
100
AcDbEntity
  8
0
  6
Continuous
 62
     7
370
    25
100
AcDbLine
 10
30.4487133099
 20
266.1173660616
 30
0.0
 11
30.4487133099
 21
278.5899078091
 31
0.0
  0
LINE
  5
264
330
1F
100
AcDbEntity
  8
0
  6
Continuous
 62
     7
370
    25
100
AcDbLine
 10
13.9844006877
 20
278.5899078091
 30
0.0
 11
13.9844006877
 21
266.1173660616
 31
0.0
  0
LINE
  5
265
330
1F
100
AcDbEntity
  8
0
  6
Continuous
 62
     7
370
    25
100
AcDbLine
 10
32.3336629087
 20
278.5899078091
 30
0.0
 11
30.4487133099
 21
278.5899078091
 31
0.0
  0
ELLIPSE
  5
266
330
1F
100
AcDbEntity
  8
0
  6
Continuous
 62
     7
370
    25
100
AcDbEllipse
 10
31.970173219
 20
278.5899078091
 30
0.0
 11
0.0
 21
1.0
 31
0.0
210
0.0
220
0.0
230
1.0
 40
0.3634896897
 41
4.712388980384695
 42
6.283185307179586
  0
ELLIPSE
  5
267
330
1F
100
AcDbEntity
  8
0
  6
Continuous
 62
     7
370
    25
100
AcDbEllipse
 10
45.086069069
 20
278.5899078091
 30
0.0
 11
1.884949598867323
 21
0.0
 31
0.0
210
0.0
220
0.0
230
1.0
 40
0.5305181638
 41
1.570796326794897
 42
3.141592653589793
  0
LINE
  5
268
330
1F
100
AcDbEntity
  8
0
  6
Continuous
 62
     7
370
    25
100
AcDbLine
 10
43.2011194701
 20
278.5899078091
 30
0.0
 11
32.3336629087
 21
278.5899078091
 31
0.0
  0
LINE
  5
269
330
1F
100
AcDbEntity
  8
0
  6
Continuous
 62
     7
370
    25
100
AcDbLine
 10
32.3336629087
 20
278.5899078091
 30
0.0
 11
32.3336629088
 21
266.1173660616
 31
0.0
  0
SPLINE
  5
26A
330
1F
100
AcDbEntity
  8
0
  6
Continuous
 62
     7
370
    25
100
AcDbSpline
210
0.0
220
0.0
230
1.0
 70
     8
 71
     3
 72
    11
 73
     7
 74
     0
 42
0.00000001
 43
0.00000001
 40
0.0
 40
0.0
 40
0.0
 40
0.0
 40
0.188346734648324
 40
0.5045742105936609
 40
0.8244987390895718
 40
1.0
 40
1.0
 40
1.0
 40
1.0
 10
32.33366290875244
 20
266.1173660615891
 30
0.0
 10
32.24269176637479
 20
266.1231575067871
 30
0.0
 10
31.99898330794193
 20
266.1386725827157
 30
0.0
 10
31.48056189775961
 20
266.1469767388148
 30
0.0
 10
30.91267741256831
 20
266.1381438612609
 30
0.0
 10
30.57007715262244
 20
266.122801123478
 30
0.0
 10
30.44871330985444
 20
266.1173660615892
 30
0.0
  0
ARC
  5
26B
330
1F
100
AcDbEntity
  8
0
  6
Continuous
 62
     7
370
    25
100
AcDbCircle
 10
31.2985955158
 20
266.1131399168
 30
0.0
 40
1.035076020551942
100
AcDbArc
 50
289.6189156829
 51
0.2339354075
  0
ARC
  5
26C
330
1F
100
AcDbEntity
  8
0
  6
Continuous
 62
     7
370
    25
100
AcDbCircle
 10
42.3208336346
 20
265.9718374832
 30
0.0
 40
0.8922341168590175
100
AcDbArc
 50
290.8721064273
 51
9.3872154115
  0
SPLINE
  5
26D
330
1F
100
AcDbEntity
  8
0
  6
Continuous
 62
     7
370
    25
100
AcDbSpline
210
0.0
220
0.0
230
1.0
 70
     8
 71
     3
 72
     9
 73
     5
 74
     0
 42
0.00000001
 43
0.00000001
 40
0.0
 40
0.0
 40
0.0
 40
0.0
 40
0.5005562931490407
 40
1.0
 40
1.0
 40
1.0
 40
1.0
 10
32.33366290875244
 20
266.1173660615891
 30
0.0
 10
34.14692912745038
 20
265.8980174174654
 30
0.0
 10
37.76943121865478
 20
265.4598076753729
 30
0.0
 10
41.39190015607414
 20
265.8983425688229
 30
0.0
 10
43.20111947013139
 20
266.117366061591
 30
0.0
  0
LINE
  5
26E
330
1F
100
AcDbEntity
  8
0
  6
Continuous
 62
     7
370
    25
100
AcDbLine
 10
43.2011194701
 20
266.1173660616
 30
0.0
 11
43.2011194701
 21
278.5899078091
 31
0.0
  0
LINE
  5
26F
330
1F
100
AcDbEntity
  8
0
  6
Continuous
 62
     7
370
    25
100
AcDbLine
 10
13.9844006877
 20
278.5899078091
 30
0.0
 11
12.4629407785
 21
278.5899078091
 31
0.0
  0
ELLIPSE
  5
270
330
1F
100
AcDbEntity
  8
0
  6
Continuous
 62
     7
370
    25
100
AcDbEllipse
 10
12.0994510888
 20
278.5899078091
 30
0.0
 11
0.0
 21
1.0
 31
0.0
210
0.0
220
0.0
230
1.0
 40
0.3634896897
 41
4.712388980384695
 42
6.283185307179586
  0
LINE
  5
271
330
1F
100
AcDbEntity
  8
0
  6
Continuous
 62
     7
370
    25
100
AcDbLine
 10
12.4629407785
 20
278.5899078091
 30
0.0
 11
6.8660847177
 21
278.5899078091
 31
0.0
  0
ELLIPSE
  5
272
330
1F
100
AcDbEntity
  8
0
  6
Continuous
 62
     7
370
    25
100
AcDbEllipse
 10
5.3446248086
 20
278.5899078091
 30
0.0
 11
1.52145990917088
 21
0.0
 31
0.0
210
0.0
220
0.0
230
1.0
 40
0.6572634573
 41
0.0
 42
1.570796326794897
  0
SPLINE
  5
273
330
1F
100
AcDbEntity
  8
0
  6
Continuous
 62
     7
370
    25
100
AcDbSpline
210
0.0
220
0.0
230
1.0
 70
     8
 71
     3
 72
    18
 73
    14
 74
     0
 42
0.00000001
 43
0.00000001
 40
0.0
 40
0.0
 40
0.0
 40
0.0
 40
0.063260676790846
 40
0.1592729784715411
 40
0.2536452495491705
 40
0.3480175206268001
 40
0.4440298223074946
 40
0.5384020933851261
 40
0.6327743644627536
 40
0.7287866661434499
 40
0.8231589372210792
 40
0.9107705236302631
 40
1.0
 40
1.0
 40
1.0
 40
1.0
 10
34.90853166894592
 20
264.4726513745983
 30
0.0
 10
34.81398041263306
 20
264.4862410134288
 30
0.0
 10
34.57592636428674
 20
264.5204559849196
 30
0.0
 10
33.44951325022316
 20
264.5789140314544
 30
0.0
 10
31.71832345627984
 20
264.6398967137243
 30
0.0
 10
29.52126115457149
 20
264.700946381126
 30
0.0
 10
27.03545738008267
 20
264.7663714854604
 30
0.0
 10
24.42457666723058
 20
264.8274079831639
 30
0.0
 10
21.86861411739643
 20
264.8884434576735
 30
0.0
 10
19.53668866999692
 20
264.9538716671535
 30
0.0
 10
17.65196887116349
 20
265.013460924544
 30
0.0
 10
16.24542507654125
 20
265.0715836140332
 30
0.0
 10
15.7841244459459
 20
265.1116479090846
 30
0.0
 10
15.5513639486371
 20
265.1318633274516
 30
0.0
  0
SPLINE
  5
274
330
1F
100
AcDbEntity
  8
0
  6
Continuous
 62
     7
370
    25
100
AcDbSpline
210
0.0
220
0.0
230
1.0
 70
     8
 71
     3
 72
    11
 73
     7
 74
     0
 42
0.00000001
 43
0.00000001
 40
0.0
 40
0.0
 40
0.0
 40
0.0
 40
0.1883467346499982
 40
0.5045742105980856
 40
0.8244987390967874
 40
1.0
 40
1.0
 40
1.0
 40
1.0
 10
13.98440068770701
 20
266.1173660615891
 30
0.0
 10
13.85681645772313
 20
266.1231575067871
 30
0.0
 10
13.51502283837275
 20
266.1386725827157
 30
0.0
 10
13.0181713530762
 20
266.146976738815
 30
0.0
 10
12.64316405818472
 20
266.1381438612605
 30
0.0
 10
12.51008362781975
 20
266.1228011234791
 30
0.0
 10
12.46294077851678
 20
266.1173660615911
 30
0.0
  0
LINE
  5
275
330
1F
100
AcDbEntity
  8
0
  6
Continuous
 62
     7
370
    25
100
AcDbLine
 10
12.4629407785
 20
266.1173660616
 30
0.0
 11
12.4629407785
 21
278.5899078091
 31
0.0
  0
ARC
  5
276
330
1F
100
AcDbEntity
  8
0
  6
Continuous
 62
     7
370
    25
100
AcDbCircle
 10
13.4847402986
 20
266.1372086673
 30
0.0
 40
1.021992166457723
100
AcDbArc
 50
181.1125026564
 51
257.8381969047
  0
ARC
  5
277
330
1F
100
AcDbEntity
  8
0
  6
Continuous
 62
     7
370
    25
100
AcDbCircle
 10
7.8081700846
 20
266.0605109447
 30
0.0
 40
0.943799418676898
100
AcDbArc
 50
176.5463724086
 51
257.7635329713
  0
SPLINE
  5
278
330
1F
100
AcDbEntity
  8
0
  6
Continuous
 62
     7
370
    25
100
AcDbSpline
210
0.0
220
0.0
230
1.0
 70
     8
 71
     3
 72
     9
 73
     5
 74
     0
 42
0.00000001
 43
0.00000001
 40
0.0
 40
0.0
 40
0.0
 40
0.0
 40
0.4999999999994122
 40
1.0
 40
1.0
 40
1.0
 40
1.0
 10
6.866084717730314
 20
266.1173660615891
 30
0.0
 10
7.798894061193606
 20
265.8981798825901
 30
0.0
 10
9.664512748122467
 20
265.4598075245917
 30
0.0
 10
11.53013143505133
 20
265.8981798825911
 30
0.0
 10
12.46294077851684
 20
266.117366061591
 30
0.0
  0
LINE
  5
279
330
1F
100
AcDbEntity
  8
0
  6
Continuous
 62
     7
370
    25
100
AcDbLine
 10
6.8660847177
 20
278.5899078091
 30
0.0
 11
6.8660847177
 21
266.1173660616
 31
0.0
  0
ARC
  5
27A
330
1F
100
AcDbEntity
  8
0
  6
Continuous
 62
     8
370
    25
100
AcDbCircle
 10
127.7153469388
 20
224.8899078091
 30
0.0
 40
14.60000000000002
100
AcDbArc
 50
193.5079638935
 51
229.3916277809
  0
ARC
  5
27B
330
1F
100
AcDbEntity
  8
0
  6
Continuous
 62
     8
370
    25
100
AcDbCircle
 10
127.7153469388
 20
224.8899078091
 30
0.0
 40
14.6
100
AcDbArc
 50
310.5781531788
 51
193.5079638935
  0
ARC
  5
27C
330
1F
100
AcDbEntity
  8
0
  6
Continuous
 62
     8
370
    25
100
AcDbCircle
 10
127.6325749544
 20
-82.2212986089
 30
0.0
 40
10.20202111510963
100
AcDbArc
 50
233.6966756339
 51
359.5937725734
  0
ARC
  5
27D
330
1F
100
AcDbEntity
  8
0
  6
Continuous
 62
     8
370
    25
100
AcDbCircle
 10
127.5292412676
 20
-82.2784485369
 30
0.0
 40
10.09490566511771
100
AcDbArc
 50
180.0556342266
 51
233.9772828801
  0
LWPOLYLINE
  5
27E
330
1F
100
AcDbEntity
  8
0
  6
Continuous
 62
     8
370
    25
100
AcDbPolyline
 90
       18
 70
   128
 43
0.0
 10
137.1441507639
 20
-45.0894917364
 10
136.9616726645
 20
-44.8553599812
 10
136.4211274364
 20
-44.6301295025
 10
135.5432879297
 20
-44.4224557813
 10
134.3618890243
 20
-44.2403196024
 10
132.9223312176
 20
-44.0907203568
 10
131.2799359088
 20
-43.9794070598
 10
129.4978194286
 20
-43.9106574189
 10
127.6444675138
 20
-43.8871134443
 10
125.7911034392
 20
-43.9096799176
 10
124.0089509467
 20
-43.977489622
 10
122.3664971573
 20
-44.0879366685
 10
120.9268606489
 20
-44.2367766392
 10
119.7453658453
 20
-44.4182896974
 10
118.8674169291
 20
-44.625500398
 10
118.3267529848
 20
-44.8504457501
 10
118.1441514245
 20
-45.0844812299
 10
118.1441514245
 20
-45.0844812299
  0
LWPOLYLINE
  5
27F
330
1F
100
AcDbEntity
  8
0
  6
Continuous
 62
     8
370
    25
100
AcDbPolyline
 90
       18
 70
   128
 43
0.0
 10
137.1351561205
 20
-79.1974640137
 10
136.952131454
 20
-81.0359317765
 10
136.4110606632
 20
-82.8036519788
 10
135.5327367951
 20
-84.4326921244
 10
134.3509133433
 20
-85.8604491142
 10
132.9110071205
 20
-87.0320550478
 10
131.2683529151
 20
-87.9024857661
 10
129.4860770071
 20
-88.4382911048
 10
127.6326712601
 20
-88.6188803653
 10
125.7793610177
 20
-88.4373136035
 10
123.997367953
 20
-87.9005683282
 10
122.3551730601
 20
-87.0292713595
 10
120.9158849679
 20
-85.856906151
 10
119.7348147106
 20
-84.4285260405
 10
118.8573501558
 20
-82.7990228743
 10
118.3172117743
 20
-81.0310175455
 10
118.1351567811
 20
-79.1924535072
 10
118.1351567811
 20
-79.1924535072
  0
LWPOLYLINE
  5
280
330
1F
100
AcDbEntity
  8
0
  6
Continuous
 62
     8
370
    25
100
AcDbPolyline
 90
       17
 70
   128
 43
0.0
 10
137.2083193002
 20
198.2396275833
 10
137.0258412008
 20
198.4737593386
 10
136.4852959728
 20
198.6989898173
 10
135.6074564661
 20
198.9066635385
 10
134.4260575607
 20
199.0887997174
 10
132.986499754
 20
199.2383989629
 10
131.3441044452
 20
199.3497122599
 10
129.5619879649
 20
199.4184619008
 10
127.7086360501
 20
199.4420058755
 10
125.8552719755
 20
199.4194394022
 10
124.0731194831
 20
199.3516296978
 10
122.4306656937
 20
199.2411826512
 10
120.9910291853
 20
199.0923426806
 10
119.8095343817
 20
198.9108296224
 10
118.9315854654
 20
198.7036189218
 10
118.3909215211
 20
198.4786735697
 10
118.2083199609
 20
198.2446380899
  0
ARC
  5
281
330
1F
100
AcDbEntity
  8
0
  6
Continuous
 62
     8
370
    25
100
AcDbCircle
 10
127.7153469388
 20
224.8899078091
 30
0.0
 40
12.90685799625163
100
AcDbArc
 50
109.1076722215
 51
222.5894848782
  0
ARC
  5
282
330
1F
100
AcDbEntity
  8
0
  6
Continuous
 62
     8
370
    25
100
AcDbCircle
 10
127.7153469388
 20
224.8899078091
 30
0.0
 40
12.90685799625163
100
AcDbArc
 50
317.3802960815
 51
109.1076722215
  0
SPLINE
  5
283
330
1F
100
AcDbEntity
  8
0
  6
Continuous
 62
     8
370
    25
100
AcDbSpline
210
0.0
220
0.0
230
1.0
 70
     8
 71
     3
 72
     9
 73
     5
 74
     0
 42
0.00000001
 43
0.00000001
 40
0.0
 40
0.0
 40
0.0
 40
0.0
 40
0.6962409398903084
 40
1.0
 40
1.0
 40
1.0
 40
1.0
 10
142.0074283834879
 20
214.7487689671791
 30
0.0
 10
141.7539131296833
 20
214.7090105934398
 30
0.0
 10
141.3897931257022
 20
214.6519062615033
 30
0.0
 10
141.1101487326224
 20
214.6134617740216
 30
0.0
 10
141.0252042146155
 20
214.6017839126378
 30
0.0
  0
LINE
  5
284
330
1F
100
AcDbEntity
  8
0
  6
Continuous
 62
     8
370
    25
100
AcDbLine
 10
140.5724100808
 20
214.1719786946
 30
0.0
 11
142.0074283835
 21
214.7487689672
 31
0.0
  0
SPLINE
  5
285
330
1F
100
AcDbEntity
  8
0
  6
Continuous
 62
     8
370
    25
100
AcDbSpline
210
0.0
220
0.0
230
1.0
 70
     8
 71
     3
 72
     9
 73
     5
 74
     0
 42
0.00000001
 43
0.00000001
 40
0.0
 40
0.0
 40
0.0
 40
0.0
 40
0.6962409398917053
 40
1.0
 40
1.0
 40
1.0
 40
1.0
 10
113.4232654940635
 20
235.0310466509214
 30
0.0
 10
113.6767807478682
 20
235.0708050246607
 30
0.0
 10
114.0409007518486
 20
235.1279093565972
 30
0.0
 10
114.3205451449279
 20
235.1663538440788
 30
0.0
 10
114.4054896629342
 20
235.1780317054625
 30
0.0
  0
LINE
  5
286
330
1F
100
AcDbEntity
  8
0
  6
Continuous
 62
     8
370
    25
100
AcDbLine
 10
113.4232654941
 20
235.0310466509
 30
0.0
 11
114.8582837968
 21
235.6078369235
 31
0.0
  0
SPLINE
  5
287
330
1F
100
AcDbEntity
  8
0
  6
Continuous
 62
     8
370
    25
100
AcDbSpline
210
0.0
220
0.0
230
1.0
 70
     8
 71
     3
 72
    16
 73
    12
 74
     0
 42
0.00000001
 43
0.00000001
 40
0.0
 40
0.0
 40
0.0
 40
0.0
 40
0.1641896737006087
 40
0.3279057707951823
 40
0.3525489625369909
 40
0.4573902708637035
 40
0.5626330881227536
 40
0.6378234565761061
 40
0.7761915802056627
 40
0.9143670371783857
 40
1.0
 40
1.0
 40
1.0
 40
1.0
 10
148.0726790179654
 20
224.9778665568325
 30
0.0
 10
147.5571565184365
 20
225.4730898757153
 30
0.0
 10
146.52759845452
 20
226.4621081278016
 30
0.0
 10
145.8516448574541
 20
227.9213077170986
 30
0.0
 10
145.410885651378
 20
229.1100607218091
 30
0.0
 10
145.1278023446912
 20
230.053369294255
 30
0.0
 10
144.8337119503921
 20
231.1097130834901
 30
0.0
 10
144.4703649605375
 20
232.1930326213962
 30
0.0
 10
143.9687321088977
 20
233.2468813935997
 30
0.0
 10
143.3157683580942
 20
234.1774970838394
 30
0.0
 10
142.6907508916135
 20
234.5706849467714
 30
0.0
 10
142.4516084253953
 20
234.7211254068725
 30
0.0
  0
SPLINE
  5
288
330
1F
100
AcDbEntity
  8
0
  6
Continuous
 62
     8
370
    25
100
AcDbSpline
210
0.0
220
0.0
230
1.0
 70
     8
 71
     3
 72
    15
 73
    11
 74
     0
 42
0.00000001
 43
0.00000001
 40
0.0
 40
0.0
 40
0.0
 40
0.0
 40
0.0856582623539893
 40
0.2238745420926425
 40
0.3622835454098601
 40
0.5581626398946313
 40
0.6472865473393141
 40
0.8099042879453007
 40
0.9716387162247225
 40
1.0
 40
1.0
 40
1.0
 40
1.0
 10
112.9790854521591
 20
215.058690211226
 30
0.0
 10
112.7399375224536
 20
215.2091211499944
 30
0.0
 10
112.114905776725
 20
215.6022841281803
 30
0.0
 10
111.4621000968064
 20
216.5331752919078
 30
0.0
 10
110.7876872657545
 20
217.9471635467134
 30
0.0
 10
110.376858561875
 20
219.4870710845082
 30
0.0
 10
109.8279807004037
 20
221.2885387539829
 30
0.0
 10
109.0556737389376
 20
222.9829612969347
 30
0.0
 10
108.1017832310029
 20
224.2182617480832
 30
0.0
 10
107.4545749434815
 20
224.7261715771803
 30
0.0
 10
107.3580148595864
 20
224.8019490612676
 30
0.0
  0
ELLIPSE
  5
289
330
1F
100
AcDbEntity
  8
0
  6
Continuous
 62
     8
370
    25
100
AcDbEllipse
 10
230.2153469388
 20
224.8899078091
 30
0.0
 11
0.0
 21
19.5
 31
0.0
210
0.0
220
0.0
230
1.0
 40
0.8461538462
 41
4.967423457643903
 42
5.978182647384894
  0
ELLIPSE
  5
28A
330
1F
100
AcDbEntity
  8
0
  6
Continuous
 62
     8
370
    25
100
AcDbEllipse
 10
25.2153469388
 20
224.8899078091
 30
0.0
 11
0.0
 21
19.5
 31
0.0
210
0.0
220
0.0
230
1.0
 40
0.8461538462
 41
0.3050026597947094
 42
1.315761849535695
  0
ARC
  5
28B
330
1F
100
AcDbEntity
  8
0
  6
Continuous
 62
     8
370
    25
100
AcDbCircle
 10
113.2943746444
 20
210.4898298074
 30
0.0
 40
4.265667367676383
100
AcDbArc
 50
92.9362090552
 51
109.4848184978
  0
ARC
  5
28C
330
1F
100
AcDbEntity
  8
0
  6
Continuous
 62
     8
370
    25
100
AcDbCircle
 10
142.1363192331
 20
239.2899858107
 30
0.0
 40
4.265667367679741
100
AcDbArc
 50
272.9362090552
 51
289.4848184978
  0
SPLINE
  5
28D
330
1F
100
AcDbEntity
  8
0
  6
Continuous
 62
     8
370
    25
100
AcDbSpline
210
0.0
220
0.0
230
1.0
 70
     8
 71
     3
 72
     9
 73
     5
 74
     0
 42
0.00000001
 43
0.00000001
 40
0.0
 40
0.0
 40
0.0
 40
0.0
 40
0.8873075536118757
 40
1.0
 40
1.0
 40
1.0
 40
1.0
 10
143.5591627778974
 20
214.5112020033743
 30
0.0
 10
142.516983987339
 20
214.1669916242255
 30
0.0
 10
141.3424433375768
 20
213.7790648250592
 30
0.0
 10
140.1251508165757
 20
213.6336047001307
 30
0.0
 10
139.987971144414
 20
213.6172124428006
 30
0.0
  0
LINE
  5
28E
330
1F
100
AcDbEntity
  8
0
  6
Continuous
 62
     8
370
    25
100
AcDbLine
 10
141.7511207306
 20
235.7502364118
 30
0.0
 11
143.5591627779
 21
235.2686136147
 31
0.0
  0
SPLINE
  5
28F
330
1F
100
AcDbEntity
  8
0
  6
Continuous
 62
     8
370
    25
100
AcDbSpline
210
0.0
220
0.0
230
1.0
 70
     8
 71
     3
 72
     9
 73
     5
 74
     0
 42
0.00000001
 43
0.00000001
 40
0.0
 40
0.0
 40
0.0
 40
0.0
 40
0.1142093466015661
 40
1.0
 40
1.0
 40
1.0
 40
1.0
 10
115.4468656908323
 20
236.166535789932
 30
0.0
 10
115.3080578944925
 20
236.1487534528307
 30
0.0
 10
114.0926775384167
 20
235.9930539621112
 30
0.0
 10
112.9148445510912
 20
235.6088966082292
 30
0.0
 10
111.8715310996539
 20
235.2686136147263
 30
0.0
  0
LINE
  5
290
330
1F
100
AcDbEntity
  8
0
  6
Continuous
 62
     8
370
    25
100
AcDbLine
 10
111.8715310997
 20
214.5112020034
 30
0.0
 11
113.6795213809
 21
214.029634937
 31
0.0
  0
LINE
  5
291
330
1F
100
AcDbEntity
  8
0
  6
Continuous
 62
     8
370
    25
100
AcDbLine
 10
204.4153469388
 20
280.5899078091
 30
0.0
 11
256.0153469388
 21
280.5899078091
 31
0.0
  0
LINE
  5
292
330
1F
100
AcDbEntity
  8
0
  6
Continuous
 62
     8
370
    25
100
AcDbLine
 10
246.9613146065
 20
283.0899078091
 30
0.0
 11
204.4153469388
 21
283.0899078091
 31
0.0
  0
LINE
  5
293
330
1F
100
AcDbEntity
  8
0
  6
Continuous
 62
     8
370
    25
100
AcDbLine
 10
256.0153469388
 20
283.0899078091
 30
0.0
 11
246.9613146065
 21
283.0899078091
 31
0.0
  0
SPLINE
  5
294
330
1F
100
AcDbEntity
  8
0
  6
Continuous
 62
     8
370
    25
100
AcDbSpline
210
0.0
220
0.0
230
1.0
 70
     8
 71
     3
 72
    10
 73
     6
 74
     0
 42
0.00000001
 43
0.00000001
 40
0.0
 40
0.0
 40
0.0
 40
0.0
 40
0.2246505894849343
 40
0.8168795304158155
 40
1.0
 40
1.0
 40
1.0
 40
1.0
 10
245.8285412922236
 20
264.8268213872121
 30
0.0
 10
245.5579374563542
 20
264.7747761515493
 30
0.0
 10
244.5739616970183
 20
264.585528094083
 30
0.0
 10
243.339385302341
 20
264.8247992908259
 30
0.0
 10
242.3863466419593
 20
265.0782856267476
 30
0.0
 10
242.1612598815206
 20
265.1381535214512
 30
0.0
  0
LINE
  5
295
330
1F
100
AcDbEntity
  8
0
  6
Continuous
 62
     8
370
    25
100
AcDbLine
 10
239.1706511038
 20
264.3050344546
 30
0.0
 11
244.0125100555
 21
264.3050344546
 31
0.0
  0
LINE
  5
296
330
1F
100
AcDbEntity
  8
0
  6
Continuous
 62
     8
370
    25
100
AcDbLine
 10
216.4181838221
 20
264.3050344546
 30
0.0
 11
239.1706511038
 21
264.3050344546
 31
0.0
  0
LINE
  5
297
330
1F
100
AcDbEntity
  8
0
  6
Continuous
 62
     8
370
    25
100
AcDbLine
 10
238.6532376241
 20
263.3258219145
 30
0.0
 11
217.2153469388
 21
263.3258219145
 31
0.0
  0
LINE
  5
298
330
1F
100
AcDbEntity
  8
0
  6
Continuous
 62
     8
370
    25
100
AcDbLine
 10
243.2153469388
 20
263.3258219145
 30
0.0
 11
238.6532376241
 21
263.3258219145
 31
0.0
  0
LINE
  5
299
330
1F
100
AcDbEntity
  8
0
  6
Continuous
 62
     8
370
    25
100
AcDbLine
 10
212.2295744074
 20
278.5899078091
 30
0.0
 11
211.751050134
 21
278.5899078091
 31
0.0
  0
SPLINE
  5
29A
330
1F
100
AcDbEntity
  8
0
  6
Continuous
 62
     8
370
    25
100
AcDbSpline
210
0.0
220
0.0
230
1.0
 70
     8
 71
     3
 72
    10
 73
     6
 74
     0
 42
0.00000001
 43
0.00000001
 40
0.0
 40
0.0
 40
0.0
 40
0.0
 40
0.279243635048542
 40
0.7480837774065001
 40
1.0
 40
1.0
 40
1.0
 40
1.0
 10
212.2295744074329
 20
266.1173660615891
 30
0.0
 10
212.1512899096149
 20
266.1230605278237
 30
0.0
 10
211.9415685212298
 20
266.1383158005551
 30
0.0
 10
211.7611433475665
 20
266.1475529469922
 30
0.0
 10
211.7743752923934
 20
266.1402406639267
 30
0.0
 10
211.7790000750807
 20
266.1376849005399
 30
0.0
  0
SPLINE
  5
29B
330
1F
100
AcDbEntity
  8
0
  6
Continuous
 62
     8
370
    25
100
AcDbSpline
210
0.0
220
0.0
230
1.0
 70
     8
 71
     3
 72
     9
 73
     5
 74
     0
 42
0.00000001
 43
0.00000001
 40
0.0
 40
0.0
 40
0.0
 40
0.0
 40
0.4606812028965021
 40
1.0
 40
1.0
 40
1.0
 40
1.0
 10
248.6516959005301
 20
266.1376814538016
 30
0.0
 10
248.6589302762859
 20
266.1365121539375
 30
0.0
 10
248.6746339249489
 20
266.1339739564667
 30
0.0
 10
248.6031576554885
 20
266.1231848366893
 30
0.0
 10
248.5646091598217
 20
266.1173660615892
 30
0.0
  0
LINE
  5
29C
330
1F
100
AcDbEntity
  8
0
  6
Continuous
 62
     8
370
    25
100
AcDbLine
 10
8.469379271
 20
283.0899078091
 30
0.0
 11
-0.5846530612
 21
283.0899078091
 31
0.0
  0
LINE
  5
29D
330
1F
100
AcDbEntity
  8
0
  6
Continuous
 62
     8
370
    25
100
AcDbLine
 10
51.0153469388
 20
283.0899078091
 30
0.0
 11
8.469379271
 21
283.0899078091
 31
0.0
  0
LINE
  5
29E
330
1F
100
AcDbEntity
  8
0
  6
Continuous
 62
     8
370
    25
100
AcDbLine
 10
-0.5846530612
 20
280.5899078091
 30
0.0
 11
51.0153469388
 21
280.5899078091
 31
0.0
  0
SPLINE
  5
29F
330
1F
100
AcDbEntity
  8
0
  6
Continuous
 62
     8
370
    25
100
AcDbSpline
210
0.0
220
0.0
230
1.0
 70
     8
 71
     3
 72
     9
 73
     5
 74
     0
 42
0.00000001
 43
0.00000001
 40
0.0
 40
0.0
 40
0.0
 40
0.0
 40
0.6035265824742837
 40
1.0
 40
1.0
 40
1.0
 40
1.0
 10
13.26943399603098
 20
265.1381535214512
 30
0.0
 10
12.31416358600579
 20
264.9133649820626
 30
0.0
 10
10.73134944365434
 20
264.540906591801
 30
0.0
 10
9.182018679030456
 20
264.8163464308356
 30
0.0
 10
8.567750215902393
 20
264.9255510051404
 30
0.0
  0
LINE
  5
2A0
330
1F
100
AcDbEntity
  8
0
  6
Continuous
 62
     8
370
    25
100
AcDbLine
 10
16.2600427737
 20
264.3050344546
 30
0.0
 11
39.0125100555
 21
264.3050344546
 31
0.0
  0
LINE
  5
2A1
330
1F
100
AcDbEntity
  8
0
  6
Continuous
 62
     8
370
    25
100
AcDbLine
 10
11.4181838221
 20
264.3050344546
 30
0.0
 11
16.2600427737
 21
264.3050344546
 31
0.0
  0
LINE
  5
2A2
330
1F
100
AcDbEntity
  8
0
  6
Continuous
 62
     8
370
    25
100
AcDbLine
 10
16.7774562535
 20
263.3258219145
 30
0.0
 11
12.2153469388
 21
263.3258219145
 31
0.0
  0
LINE
  5
2A3
330
1F
100
AcDbEntity
  8
0
  6
Continuous
 62
     8
370
    25
100
AcDbLine
 10
38.2153469388
 20
263.3258219145
 30
0.0
 11
16.7774562535
 21
263.3258219145
 31
0.0
  0
LINE
  5
2A4
330
1F
100
AcDbEntity
  8
0
  6
Continuous
 62
     8
370
    25
100
AcDbLine
 10
43.6796519912
 20
278.5899078091
 30
0.0
 11
43.2011194701
 21
278.5899078091
 31
0.0
  0
SPLINE
  5
2A5
330
1F
100
AcDbEntity
  8
0
  6
Continuous
 62
     8
370
    25
100
AcDbSpline
210
0.0
220
0.0
230
1.0
 70
     8
 71
     3
 72
    10
 73
     6
 74
     0
 42
0.00000001
 43
0.00000001
 40
0.0
 40
0.0
 40
0.0
 40
0.0
 40
0.2653449146967823
 40
0.7397533665832706
 40
1.0
 40
1.0
 40
1.0
 40
1.0
 10
43.65271202219917
 20
266.1377839322761
 30
0.0
 10
43.65629185042258
 20
266.1403519404762
 30
0.0
 10
43.66627203030716
 20
266.1475112738802
 30
0.0
 10
43.48160857850453
 20
266.137832108656
 30
0.0
 10
43.27448987927901
 20
266.122719575157
 30
0.0
 10
43.20111947013139
 20
266.117366061591
 30
0.0
  0
SPLINE
  5
2A6
330
1F
100
AcDbEntity
  8
0
  6
Continuous
 62
     8
370
    25
100
AcDbSpline
210
0.0
220
0.0
230
1.0
 70
     8
 71
     3
 72
     9
 73
     5
 74
     0
 42
0.00000001
 43
0.00000001
 40
0.0
 40
0.0
 40
0.0
 40
0.0
 40
0.5787523842792195
 40
1.0
 40
1.0
 40
1.0
 40
1.0
 10
6.866084717730314
 20
266.1173660615891
 30
0.0
 10
6.824716640048023
 20
266.1236134831357
 30
0.0
 10
6.753238614546908
 20
266.134408119523
 30
0.0
 10
6.770641779792252
 20
266.1367787773868
 30
0.0
 10
6.777972821657707
 20
266.1377774113598
 30
0.0
  0
LINE
  5
2A7
330
1F
100
AcDbEntity
  8
0
  6
Continuous
 62
     8
370
    25
100
AcDbLine
 10
6.8660847177
 20
278.5899078091
 30
0.0
 11
6.7510343166
 21
278.5899078091
 31
0.0
  0
ENDSEC
  0
SECTION
  2
OBJECTS
  0
DICTIONARY
  5
C
330
0
100
AcDbDictionary
281
     1
  3
ACAD_GROUP
350
D
  3
ACAD_LAYOUT
350
1A
  3
ACAD_MLINESTYLE
350
17
  3
ACAD_PLOTSETTINGS
350
19
  3
ACAD_PLOTSTYLENAME
350
E
  3
ACAD_SCALELIST
350
47
  3
DWGPROPS
350
2A8
  0
DICTIONARY
  5
D
102
{ACAD_REACTORS
330
C
102
}
330
C
100
AcDbDictionary
281
     1
  0
DICTIONARY
  5
1A
102
{ACAD_REACTORS
330
C
102
}
330
C
100
AcDbDictionary
281
     1
  3
Layout1
350
1E
  3
Layout2
350
26
  3
Model
350
22
  0
DICTIONARY
  5
17
102
{ACAD_REACTORS
330
C
102
}
330
C
100
AcDbDictionary
281
     1
  3
Standard
350
18
  0
DICTIONARY
  5
19
102
{ACAD_REACTORS
330
C
102
}
330
C
100
AcDbDictionary
281
     1
  0
ACDBDICTIONARYWDFLT
  5
E
102
{ACAD_REACTORS
330
C
102
}
330
C
100
AcDbDictionary
281
     1
  3
Normal
350
F
100
AcDbDictionaryWithDefault
340
F
  0
DICTIONARY
  5
47
102
{ACAD_REACTORS
330
C
102
}
330
C
100
AcDbDictionary
281
     1
  3
A0
350
48
  3
A1
350
49
  3
A2
350
4A
  3
A3
350
4B
  3
A4
350
4C
  3
A5
350
4D
  3
A6
350
4E
  3
A7
350
4F
  3
A8
350
50
  3
A9
350
51
  3
B0
350
52
  3
B1
350
53
  3
B2
350
54
  3
B3
350
55
  3
B4
350
56
  3
B5
350
57
  3
B6
350
58
  3
B7
350
59
  3
B8
350
5A
  3
B9
350
5B
  3
C0
350
5C
  3
C1
350
5D
  3
C2
350
5E
  3
C3
350
5F
  3
C4
350
60
  3
C5
350
61
  3
C6
350
62
  3
C7
350
63
  3
C8
350
64
  3
C9
350
65
  3
D0
350
66
  3
D1
350
67
  3
D2
350
68
  0
XRECORD
  5
2A8
102
{ACAD_REACTORS
330
C
102
}
330
C
100
AcDbXrecord
280
     1
  1
DWGPROPS COOKIE
  2

  3

  4

  6

  7

  8
vishesh
  9

300
=
301
=
302
=
303
=
304
=
305
=
306
=
307
=
308
=
309
=
 40
0.0
 41
2460383.443376921
 42
2460383.443377384
  1

 90
        0
  0
LAYOUT
  5
1E
102
{ACAD_REACTORS
330
1A
102
}
330
1A
100
AcDbPlotSettings
  1

  2
none_device
  4

  6

 40
0.0
 41
0.0
 42
0.0
 43
0.0
 44
0.0
 45
0.0
 46
0.0
 47
0.0
 48
0.0
 49
0.0
140
0.0
141
0.0
142
1.0
143
1.0
 70
   688
 72
     1
 73
     0
 74
     5
  7

 75
    16
147
1.0
148
0.0
149
0.0
100
AcDbLayout
  1
Layout1
 70
     1
 71
     1
 10
0.0
 20
0.0
 11
420.0
 21
297.0
 12
0.0
 22
0.0
 32
0.0
 14
1.0000000000E+20
 24
1.0000000000E+20
 34
1.0000000000E+20
 15
-1.0000000000E+20
 25
-1.0000000000E+20
 35
-1.0000000000E+20
146
0.0
 13
0.0
 23
0.0
 33
0.0
 16
1.0
 26
0.0
 36
0.0
 17
0.0
 27
1.0
 37
0.0
 76
     0
330
1B
  0
LAYOUT
  5
26
102
{ACAD_REACTORS
330
1A
102
}
330
1A
100
AcDbPlotSettings
  1

  2
none_device
  4

  6

 40
0.0
 41
0.0
 42
0.0
 43
0.0
 44
0.0
 45
0.0
 46
0.0
 47
0.0
 48
0.0
 49
0.0
140
0.0
141
0.0
142
1.0
143
1.0
 70
   688
 72
     1
 73
     0
 74
     5
  7

 75
    16
147
1.0
148
0.0
149
0.0
100
AcDbLayout
  1
Layout2
 70
     1
 71
     2
 10
0.0
 20
0.0
 11
0.0
 21
0.0
 12
0.0
 22
0.0
 32
0.0
 14
0.0
 24
0.0
 34
0.0
 15
0.0
 25
0.0
 35
0.0
146
0.0
 13
0.0
 23
0.0
 33
0.0
 16
1.0
 26
0.0
 36
0.0
 17
0.0
 27
1.0
 37
0.0
 76
     0
330
23
  0
LAYOUT
  5
22
102
{ACAD_REACTORS
330
1A
102
}
330
1A
100
AcDbPlotSettings
  1

  2
none_device
  4
Letter_(8.50_x_11.00_Inches)
  6

 40
6.35
 41
6.35
 42
6.35000508
 43
6.35000508
 44
215.9
 45
279.4
 46
0.0
 47
0.0
 48
0.0
 49
0.0
140
0.0
141
0.0
142
1.0
143
1.0
 70
  1712
 72
     1
 73
     0
 74
     0
  7

 75
     0
147
1.0
148
0.0
149
0.0
100
AcDbLayout
  1
Model
 70
     1
 71
     0
 10
0.0
 20
0.0
 11
279.4
 21
215.9
 12
0.0
 22
0.0
 32
0.0
 14
0.0
 24
0.0
 34
0.0
 15
279.4
 25
215.9
 35
0.0
146
0.0
 13
0.0
 23
0.0
 33
0.0
 16
1.0
 26
0.0
 36
0.0
 17
0.0
 27
1.0
 37
0.0
 76
     0
330
1F
331
29
  0
MLINESTYLE
  5
18
102
{ACAD_REACTORS
330
17
102
}
330
17
100
AcDbMlineStyle
  2
Standard
 70
     0
  3

 62
   256
 51
90.0
 52
90.0
 71
     2
 49
0.5
 62
   256
  6
BYLAYER
 49
-0.5
 62
   256
  6
BYLAYER
  0
ACDBPLACEHOLDER
  5
F
102
{ACAD_REACTORS
330
E
102
}
330
E
  0
SCALE
  5
48
102
{ACAD_REACTORS
330
47
102
}
330
47
100
AcDbScale
 70
     0
300
1:1
140
1.0
141
1.0
290
     1
  0
SCALE
  5
49
102
{ACAD_REACTORS
330
47
102
}
330
47
100
AcDbScale
 70
     0
300
1:2
140
1.0
141
2.0
290
     0
  0
SCALE
  5
4A
102
{ACAD_REACTORS
330
47
102
}
330
47
100
AcDbScale
 70
     0
300
1:4
140
1.0
141
4.0
290
     0
  0
SCALE
  5
4B
102
{ACAD_REACTORS
330
47
102
}
330
47
100
AcDbScale
 70
     0
300
1:5
140
1.0
141
5.0
290
     0
  0
SCALE
  5
4C
102
{ACAD_REACTORS
330
47
102
}
330
47
100
AcDbScale
 70
     0
300
1:8
140
1.0
141
8.0
290
     0
  0
SCALE
  5
4D
102
{ACAD_REACTORS
330
47
102
}
330
47
100
AcDbScale
 70
     0
300
1:10
140
1.0
141
10.0
290
     0
  0
SCALE
  5
4E
102
{ACAD_REACTORS
330
47
102
}
330
47
100
AcDbScale
 70
     0
300
1:16
140
1.0
141
16.0
290
     0
  0
SCALE
  5
4F
102
{ACAD_REACTORS
330
47
102
}
330
47
100
AcDbScale
 70
     0
300
1:20
140
1.0
141
20.0
290
     0
  0
SCALE
  5
50
102
{ACAD_REACTORS
330
47
102
}
330
47
100
AcDbScale
 70
     0
300
1:30
140
1.0
141
30.0
290
     0
  0
SCALE
  5
51
102
{ACAD_REACTORS
330
47
102
}
330
47
100
AcDbScale
 70
     0
300
1:40
140
1.0
141
40.0
290
     0
  0
SCALE
  5
52
102
{ACAD_REACTORS
330
47
102
}
330
47
100
AcDbScale
 70
     0
300
1:50
140
1.0
141
50.0
290
     0
  0
SCALE
  5
53
102
{ACAD_REACTORS
330
47
102
}
330
47
100
AcDbScale
 70
     0
300
1:100
140
1.0
141
100.0
290
     0
  0
SCALE
  5
54
102
{ACAD_REACTORS
330
47
102
}
330
47
100
AcDbScale
 70
     0
300
2:1
140
2.0
141
1.0
290
     0
  0
SCALE
  5
55
102
{ACAD_REACTORS
330
47
102
}
330
47
100
AcDbScale
 70
     0
300
4:1
140
4.0
141
1.0
290
     0
  0
SCALE
  5
56
102
{ACAD_REACTORS
330
47
102
}
330
47
100
AcDbScale
 70
     0
300
8:1
140
8.0
141
1.0
290
     0
  0
SCALE
  5
57
102
{ACAD_REACTORS
330
47
102
}
330
47
100
AcDbScale
 70
     0
300
10:1
140
10.0
141
1.0
290
     0
  0
SCALE
  5
58
102
{ACAD_REACTORS
330
47
102
}
330
47
100
AcDbScale
 70
     0
300
100:1
140
100.0
141
1.0
290
     0
  0
SCALE
  5
59
102
{ACAD_REACTORS
330
47
102
}
330
47
100
AcDbScale
 70
     0
300
1/128" = 1'-0"
140
0.0078125
141
12.0
290
     0
  0
SCALE
  5
5A
102
{ACAD_REACTORS
330
47
102
}
330
47
100
AcDbScale
 70
     0
300
1/64" = 1'-0"
140
0.015625
141
12.0
290
     0
  0
SCALE
  5
5B
102
{ACAD_REACTORS
330
47
102
}
330
47
100
AcDbScale
 70
     0
300
1/32" = 1'-0"
140
0.03125
141
12.0
290
     0
  0
SCALE
  5
5C
102
{ACAD_REACTORS
330
47
102
}
330
47
100
AcDbScale
 70
     0
300
1/16" = 1'-0"
140
0.0625
141
12.0
290
     0
  0
SCALE
  5
5D
102
{ACAD_REACTORS
330
47
102
}
330
47
100
AcDbScale
 70
     0
300
3/32" = 1'-0"
140
0.09375
141
12.0
290
     0
  0
SCALE
  5
5E
102
{ACAD_REACTORS
330
47
102
}
330
47
100
AcDbScale
 70
     0
300
1/8" = 1'-0"
140
0.125
141
12.0
290
     0
  0
SCALE
  5
5F
102
{ACAD_REACTORS
330
47
102
}
330
47
100
AcDbScale
 70
     0
300
3/16" = 1'-0"
140
0.1875
141
12.0
290
     0
  0
SCALE
  5
60
102
{ACAD_REACTORS
330
47
102
}
330
47
100
AcDbScale
 70
     0
300
1/4" = 1'-0"
140
0.25
141
12.0
290
     0
  0
SCALE
  5
61
102
{ACAD_REACTORS
330
47
102
}
330
47
100
AcDbScale
 70
     0
300
3/8" = 1'-0"
140
0.375
141
12.0
290
     0
  0
SCALE
  5
62
102
{ACAD_REACTORS
330
47
102
}
330
47
100
AcDbScale
 70
     0
300
1/2" = 1'-0"
140
0.5
141
12.0
290
     0
  0
SCALE
  5
63
102
{ACAD_REACTORS
330
47
102
}
330
47
100
AcDbScale
 70
     0
300
3/4" = 1'-0"
140
0.75
141
12.0
290
     0
  0
SCALE
  5
64
102
{ACAD_REACTORS
330
47
102
}
330
47
100
AcDbScale
 70
     0
300
1" = 1'-0"
140
1.0
141
12.0
290
     0
  0
SCALE
  5
65
102
{ACAD_REACTORS
330
47
102
}
330
47
100
AcDbScale
 70
     0
300
1-1/2" = 1'-0"
140
1.5
141
12.0
290
     0
  0
SCALE
  5
66
102
{ACAD_REACTORS
330
47
102
}
330
47
100
AcDbScale
 70
     0
300
3" = 1'-0"
140
3.0
141
12.0
290
     0
  0
SCALE
  5
67
102
{ACAD_REACTORS
330
47
102
}
330
47
100
AcDbScale
 70
     0
300
6" = 1'-0"
140
6.0
141
12.0
290
     0
  0
SCALE
  5
68
102
{ACAD_REACTORS
330
47
102
}
330
47
100
AcDbScale
 70
     0
300
1'-0" = 1'-0"
140
12.0
141
12.0
290
     0
  0
ENDSEC
  0
EOF
