  0
SECTION
  2
HEADER
  9
$ACADVER
  1
AC1015
  9
$ACADMAINTVER
 70
     6
  9
$DWGCODEPAGE
  3
ANSI_1252
  9
$INSBASE
 10
0.0
 20
0.0
 30
0.0
  9
$EXTMIN
 10
0.0
 20
0.0
 30
0.0
  9
$EXTMAX
 10
279.4
 20
215.9
 30
0.0
  9
$LIMMIN
 10
0.0
 20
0.0
  9
$LIMMAX
 10
279.4
 20
215.9
  9
$ORTHOMODE
 70
     0
  9
$REGENMODE
 70
     1
  9
$FILLMODE
 70
     1
  9
$QTEXTMODE
 70
     0
  9
$MIRRTEXT
 70
     1
  9
$LTSCALE
 40
1.0
  9
$ATTMODE
 70
     1
  9
$TEXTSIZE
 40
3.5
  9
$TRACEWID
 40
1.0
  9
$TEXTSTYLE
  7
Standard
  9
$CLAYER
  8
0
  9
$CELTYPE
  6
ByLayer
  9
$CECOLOR
 62
   256
  9
$CELTSCALE
 40
1.0
  9
$DISPSILH
 70
     0
  9
$DIMSCALE
 40
1.0
  9
$DIMASZ
 40
3.556
  9
$DIMEXO
 40
1.0
  9
$DIMDLI
 40
3.75
  9
$DIMRND
 40
0.0
  9
$DIMDLE
 40
0.0
  9
$DIMEXE
 40
1.0
  9
$DIMTP
 40
0.0
  9
$DIMTM
 40
0.0
  9
$DIMTXT
 40
3.5
  9
$DIMCEN
 40
2.5
  9
$DIMTSZ
 40
0.0
  9
$DIMTOL
 70
     0
  9
$DIMLIM
 70
     0
  9
$DIMTIH
 70
     1
  9
$DIMTOH
 70
     1
  9
$DIMSE1
 70
     0
  9
$DIMSE2
 70
     0
  9
$DIMTAD
 70
     1
  9
$DIMZIN
 70
     1
  9
$DIMBLK
  1

  9
$DIMASO
 70
     1
  9
$DIMSHO
 70
     1
  9
$DIMPOST
  1

  9
$DIMAPOST
  1

  9
$DIMALT
 70
     0
  9
$DIMALTD
 70
     3
  9
$DIMALTF
 40
0.0393700787
  9
$DIMLFAC
 40
10.0
  9
$DIMTOFL
 70
     1
  9
$DIMTVP
 40
0.0
  9
$DIMTIX
 70
     0
  9
$DIMSOXD
 70
     0
  9
$DIMSAH
 70
     0
  9
$DIMBLK1
  1

  9
$DIMBLK2
  1

  9
$DIMSTYLE
  2
ISO-25
  9
$DIMCLRD
 70
     0
  9
$DIMCLRE
 70
     0
  9
$DIMCLRT
 70
     0
  9
$DIMTFAC
 40
1.0
  9
$DIMGAP
 40
1.524
  9
$DIMJUST
 70
     0
  9
$DIMSD1
 70
     0
  9
$DIMSD2
 70
     0
  9
$DIMTOLJ
 70
     0
  9
$DIMTZIN
 70
     1
  9
$DIMALTZ
 70
     0
  9
$DIMALTTZ
 70
     0
  9
$DIMUPT
 70
     0
  9
$DIMDEC
 70
     2
  9
$DIMTDEC
 70
     2
  9
$DIMALTU
 70
     2
  9
$DIMALTTD
 70
     3
  9
$DIMTXSTY
  7
Standard
  9
$DIMAUNIT
 70
     0
  9
$DIMADEC
 70
     2
  9
$DIMALTRND
 40
0.0
  9
$DIMAZIN
 70
     0
  9
$DIMDSEP
 70
    44
  9
$DIMATFIT
 70
     3
  9
$DIMFRAC
 70
     0
  9
$DIMLDRBLK
  1

  9
$DIMLUNIT
 70
     2
  9
$DIMLWD
 70
    -2
  9
$DIMLWE
 70
    -2
  9
$DIMTMOVE
 70
     0
  9
$LUNITS
 70
     2
  9
$LUPREC
 70
     2
  9
$SKETCHINC
 40
1.0
  9
$FILLETRAD
 40
10.0
  9
$AUNITS
 70
     0
  9
$AUPREC
 70
     2
  9
$MENU
  1
.
  9
$ELEVATION
 40
0.0
  9
$PELEVATION
 40
0.0
  9
$THICKNESS
 40
0.0
  9
$LIMCHECK
 70
     0
  9
$CHAMFERA
 40
0.0
  9
$CHAMFERB
 40
0.0
  9
$CHAMFERC
 40
0.0
  9
$CHAMFERD
 40
0.0
  9
$SKPOLY
 70
     0
  9
$TDCREATE
 40
2460383.652308484
  9
$TDUCREATE
 40
2460383.423141817
  9
$TDUPDATE
 40
2460383.652308762
  9
$TDUUPDATE
 40
2460383.423142095
  9
$TDINDWG
 40
0.0000000116
  9
$TDUSRTIMER
 40
0.0000000116
  9
$USRTIMER
 70
     1
  9
$ANGBASE
 50
0.0
  9
$ANGDIR
 70
     0
  9
$PDMODE
 70
     0
  9
$PDSIZE
 40
-1.0
  9
$PLINEWID
 40
0.0
  9
$SPLFRAME
 70
     0
  9
$SPLINETYPE
 70
     6
  9
$SPLINESEGS
 70
     8
  9
$HANDSEED
  5
394
  9
$SURFTAB1
 70
     6
  9
$SURFTAB2
 70
     6
  9
$SURFTYPE
 70
     6
  9
$SURFU
 70
     6
  9
$SURFV
 70
     6
  9
$UCSBASE
  2

  9
$UCSNAME
  2

  9
$UCSORG
 10
0.0
 20
0.0
 30
0.0
  9
$UCSXDIR
 10
1.0
 20
0.0
 30
0.0
  9
$UCSYDIR
 10
0.0
 20
1.0
 30
0.0
  9
$UCSORTHOREF
  2

  9
$UCSORTHOVIEW
 70
     0
  9
$UCSORGTOP
 10
0.0
 20
0.0
 30
0.0
  9
$UCSORGBOTTOM
 10
0.0
 20
0.0
 30
0.0
  9
$UCSORGLEFT
 10
0.0
 20
0.0
 30
0.0
  9
$UCSORGRIGHT
 10
0.0
 20
0.0
 30
0.0
  9
$UCSORGFRONT
 10
0.0
 20
0.0
 30
0.0
  9
$UCSORGBACK
 10
0.0
 20
0.0
 30
0.0
  9
$PUCSBASE
  2

  9
$PUCSNAME
  2

  9
$PUCSORG
 10
0.0
 20
0.0
 30
0.0
  9
$PUCSXDIR
 10
1.0
 20
0.0
 30
0.0
  9
$PUCSYDIR
 10
0.0
 20
1.0
 30
0.0
  9
$PUCSORTHOREF
  2

  9
$PUCSORTHOVIEW
 70
     0
  9
$PUCSORGTOP
 10
0.0
 20
0.0
 30
0.0
  9
$PUCSORGBOTTOM
 10
0.0
 20
0.0
 30
0.0
  9
$PUCSORGLEFT
 10
0.0
 20
0.0
 30
0.0
  9
$PUCSORGRIGHT
 10
0.0
 20
0.0
 30
0.0
  9
$PUCSORGFRONT
 10
0.0
 20
0.0
 30
0.0
  9
$PUCSORGBACK
 10
0.0
 20
0.0
 30
0.0
  9
$USERI1
 70
     0
  9
$USERI2
 70
     0
  9
$USERI3
 70
     0
  9
$USERI4
 70
     0
  9
$USERI5
 70
     0
  9
$USERR1
 40
0.0
  9
$USERR2
 40
0.0
  9
$USERR3
 40
0.0
  9
$USERR4
 40
0.0
  9
$USERR5
 40
0.0
  9
$WORLDVIEW
 70
     1
  9
$SHADEDGE
 70
     3
  9
$SHADEDIF
 70
    70
  9
$TILEMODE
 70
     1
  9
$MAXACTVP
 70
    64
  9
$PINSBASE
 10
0.0
 20
0.0
 30
0.0
  9
$PLIMCHECK
 70
     0
  9
$PEXTMIN
 10
1.0000000000E+20
 20
1.0000000000E+20
 30
1.0000000000E+20
  9
$PEXTMAX
 10
-1.0000000000E+20
 20
-1.0000000000E+20
 30
-1.0000000000E+20
  9
$PLIMMIN
 10
0.0
 20
0.0
  9
$PLIMMAX
 10
420.0
 20
297.0
  9
$UNITMODE
 70
     0
  9
$VISRETAIN
 70
     1
  9
$PLINEGEN
 70
     0
  9
$PSLTSCALE
 70
     1
  9
$TREEDEPTH
 70
  3020
  9
$CMLSTYLE
  2
Standard
  9
$CMLJUST
 70
     0
  9
$CMLSCALE
 40
20.0
  9
$PROXYGRAPHICS
 70
     1
  9
$MEASUREMENT
 70
     1
  9
$CELWEIGHT
370
    -1
  9
$ENDCAPS
280
     0
  9
$JOINSTYLE
280
     0
  9
$LWDISPLAY
290
     1
  9
$INSUNITS
 70
     4
  9
$HYPERLINKBASE
  1

  9
$STYLESHEET
  1

  9
$XEDIT
290
     1
  9
$CEPSNTYPE
380
     0
  9
$PSTYLEMODE
290
     1
  9
$FINGERPRINTGUID
  2
{f1a4086d-1787-4c16-bf91-45812e735dd5}
  9
$VERSIONGUID
  2
{FAEB1C32-E019-11D5-929B-00C0DF256EC4}
  9
$EXTNAMES
290
     1
  9
$PSVPSCALE
 40
0.0
  9
$OLESTARTUP
290
     0
  0
ENDSEC
  0
SECTION
  2
CLASSES
  0
CLASS
  1
ACDBDICTIONARYWDFLT
  2
AcDbDictionaryWithDefault
  3
ObjectDBX Classes
 90
        0
280
     0
281
     0
  0
CLASS
  1
VISUALSTYLE
  2
AcDbVisualStyle
  3
ObjectDBX Classes
 90
     4095
280
     0
281
     0
  0
CLASS
  1
MATERIAL
  2
AcDbMaterial
  3
ObjectDBX Classes
 90
     1153
280
     0
281
     0
  0
CLASS
  1
SCALE
  2
AcDbScale
  3
ObjectDBX Classes
 90
     1153
280
     0
281
     0
  0
CLASS
  1
TABLESTYLE
  2
AcDbTableStyle
  3
ObjectDBX Classes
 90
     4095
280
     0
281
     0
  0
CLASS
  1
MLEADERSTYLE
  2
AcDbMLeaderStyle
  3
ACDB_MLEADERSTYLE_CLASS
 90
     4095
280
     0
281
     0
  0
CLASS
  1
SUN
  2
AcDbSun
  3
SCENEOE
 90
     1153
280
     0
281
     0
  0
CLASS
  1
ACDBPLACEHOLDER
  2
AcDbPlaceHolder
  3
ObjectDBX Classes
 90
        0
280
     0
281
     0
  0
CLASS
  1
LAYOUT
  2
AcDbLayout
  3
ObjectDBX Classes
 90
        0
280
     0
281
     0
  0
ENDSEC
  0
SECTION
  2
TABLES
  0
TABLE
  2
VPORT
  5
8
330
0
100
AcDbSymbolTable
 70
     1
  0
VPORT
  5
29
330
8
100
AcDbSymbolTableRecord
100
AcDbViewportTableRecord
  2
*Active
 70
     0
 10
0.0
 20
0.0
 11
1.0
 21
1.0
 12
139.7
 22
107.95
 13
0.0
 23
0.0
 14
10.0
 24
10.0
 15
10.0
 25
10.0
 16
0.0
 26
0.0
 36
1.0
 17
0.0
 27
0.0
 37
0.0
 40
215.9
 41
1.2941176471
 42
50.0
 43
0.0
 44
0.0
 50
0.0
 51
0.0
 71
     0
 72
  2000
 73
     1
 74
     3
 75
     0
 76
     0
 77
     0
 78
     0
281
     0
 65
     1
110
0.0
120
0.0
130
0.0
111
1.0
121
0.0
131
0.0
112
0.0
122
1.0
132
0.0
 79
     0
146
0.0
  0
ENDTAB
  0
TABLE
  2
LTYPE
  5
5
330
0
100
AcDbSymbolTable
 70
     6
  0
LTYPE
  5
14
330
5
100
AcDbSymbolTableRecord
100
AcDbLinetypeTableRecord
  2
ByBlock
 70
     0
  3

 72
    65
 73
     0
 40
0.0
  0
LTYPE
  5
15
330
5
100
AcDbSymbolTableRecord
100
AcDbLinetypeTableRecord
  2
ByLayer
 70
     0
  3

 72
    65
 73
     0
 40
0.0
  0
LTYPE
  5
16
330
5
100
AcDbSymbolTableRecord
100
AcDbLinetypeTableRecord
  2
Continuous
 70
     0
  3
Solid line
 72
    65
 73
     0
 40
0.0
  0
LTYPE
  5
6E
330
5
100
AcDbSymbolTableRecord
100
AcDbLinetypeTableRecord
  2
HIDDEN
 70
     0
  3
Hidden __ __ __ __ __ __ __ __ __ __ __ __ __ __
 72
    65
 73
     2
 40
1.905
 49
1.27
 74
     0
 49
-0.635
 74
     0
  0
LTYPE
  5
6F
330
5
100
AcDbSymbolTableRecord
100
AcDbLinetypeTableRecord
  2
PHANTOM
 70
     0
  3
Phantom ______  __  __  ______  __  __  ______
 72
    65
 73
     6
 40
12.7
 49
6.35
 74
     0
 49
-1.27
 74
     0
 49
1.27
 74
     0
 49
-1.27
 74
     0
 49
1.27
 74
     0
 49
-1.27
 74
     0
  0
LTYPE
  5
70
330
5
100
AcDbSymbolTableRecord
100
AcDbLinetypeTableRecord
  2
CENTER
 70
     0
  3
Center ____ _ ____ _ ____ _ ____ _ ____ _ ____
 72
    65
 73
     4
 40
10.16
 49
6.35
 74
     0
 49
-1.27
 74
     0
 49
1.27
 74
     0
 49
-1.27
 74
     0
  0
LTYPE
  5
71
330
5
100
AcDbSymbolTableRecord
100
AcDbLinetypeTableRecord
  2
CENTERX2
 70
     0
  3
Center (2x) ________  __  ________  __  _____
 72
    65
 73
     4
 40
20.32
 49
12.7
 74
     0
 49
-2.54
 74
     0
 49
2.54
 74
     0
 49
-2.54
 74
     0
  0
LTYPE
  5
72
330
5
100
AcDbSymbolTableRecord
100
AcDbLinetypeTableRecord
  2
DOT2
 70
     0
  3
Dot (.5x) ........................................
 72
    65
 73
     2
 40
0.635
 49
0.0
 74
     0
 49
-0.635
 74
     0
  0
ENDTAB
  0
TABLE
  2
LAYER
  5
2
330
0
100
AcDbSymbolTable
 70
     1
  0
LAYER
  5
10
330
2
100
AcDbSymbolTableRecord
100
AcDbLayerTableRecord
  2
0
 70
     0
 62
     7
  6
Continuous
370
    -3
390
F
  0
ENDTAB
  0
TABLE
  2
STYLE
  5
3
330
0
100
AcDbSymbolTable
 70
     1
  0
STYLE
  5
11
330
3
100
AcDbSymbolTableRecord
100
AcDbTextStyleTableRecord
  2
Standard
 70
     0
 40
0.0
 41
1.0
 50
0.0
 71
     0
 42
3.5
  3
txt
  4

  0
ENDTAB
  0
TABLE
  2
VIEW
  5
6
330
0
100
AcDbSymbolTable
 70
     0
  0
ENDTAB
  0
TABLE
  2
UCS
  5
7
330
0
100
AcDbSymbolTable
 70
     0
  0
ENDTAB
  0
TABLE
  2
APPID
  5
9
330
0
100
AcDbSymbolTable
 70
     1
  0
APPID
  5
12
330
9
100
AcDbSymbolTableRecord
100
AcDbRegAppTableRecord
  2
ACAD
 70
     0
  0
ENDTAB
  0
TABLE
  2
DIMSTYLE
  5
A
330
0
100
AcDbSymbolTable
 70
     1
100
AcDbDimStyleTable
  0
DIMSTYLE
105
27
330
A
100
AcDbSymbolTableRecord
100
AcDbDimStyleTableRecord
  2
ISO-25
 70
     0
 41
2.5
 42
0.625
 43
3.75
 44
1.25
 73
     0
 74
     0
 77
     1
 78
     8
140
2.5
141
2.5
143
0.0393700787
147
0.625
171
     3
172
     1
178
     0
271
     2
272
     2
274
     3
278
    44
283
     0
284
     8
340
11
  0
ENDTAB
  0
TABLE
  2
BLOCK_RECORD
  5
1
330
0
100
AcDbSymbolTable
 70
     1
  0
BLOCK_RECORD
  5
1F
330
1
100
AcDbSymbolTableRecord
100
AcDbBlockTableRecord
  2
*Model_Space
340
22
  0
BLOCK_RECORD
  5
1B
330
1
100
AcDbSymbolTableRecord
100
AcDbBlockTableRecord
  2
*Paper_Space
340
1E
  0
BLOCK_RECORD
  5
23
330
1
100
AcDbSymbolTableRecord
100
AcDbBlockTableRecord
  2
*Paper_Space0
340
26
  0
ENDTAB
  0
ENDSEC
  0
SECTION
  2
BLOCKS
  0
BLOCK
  5
20
330
1F
100
AcDbEntity
  8
0
100
AcDbBlockBegin
  2
*Model_Space
 70
     0
 10
0.0
 20
0.0
 30
0.0
  3
*Model_Space
  1

  0
ENDBLK
  5
21
330
1F
100
AcDbEntity
  8
0
100
AcDbBlockEnd
  0
BLOCK
  5
1C
330
1B
100
AcDbEntity
 67
     1
  8
0
100
AcDbBlockBegin
  2
*Paper_Space
 70
     0
 10
0.0
 20
0.0
 30
0.0
  3
*Paper_Space
  1

  0
ENDBLK
  5
1D
330
1B
100
AcDbEntity
 67
     1
  8
0
100
AcDbBlockEnd
  0
BLOCK
  5
24
330
23
100
AcDbEntity
  8
0
100
AcDbBlockBegin
  2
*Paper_Space0
 70
     0
 10
0.0
 20
0.0
 30
0.0
  3
*Paper_Space0
  1

  0
ENDBLK
  5
25
330
23
100
AcDbEntity
  8
0
100
AcDbBlockEnd
  0
ENDSEC
  0
SECTION
  2
ENTITIES
  0
SPLINE
  5
73
330
1F
100
AcDbEntity
  8
0
  6
Continuous
 62
     7
370
    25
100
AcDbSpline
210
0.0
220
0.0
230
1.0
 70
     8
 71
     3
 72
    14
 73
    10
 74
     0
 42
0.00000001
 43
0.00000001
 40
0.0
 40
0.0
 40
0.0
 40
0.0
 40
0.0145931239485655
 40
0.4104089129718219
 40
0.6401429027638522
 40
0.786416731608822
 40
0.8909042202510172
 40
0.9579031393124496
 40
1.0
 40
1.0
 40
1.0
 40
1.0
 10
145.8573648809314
 20
150.20064689052
 30
0.0
 10
145.8590727686035
 20
150.2180809103298
 30
0.0
 10
145.9071044529385
 20
150.7083856006832
 30
0.0
 10
145.9491269595143
 20
151.2590881880238
 30
0.0
 10
145.9953212377627
 20
151.9547099451888
 30
0.0
 10
146.0189199198414
 20
152.4456980562178
 30
0.0
 10
146.0281475716529
 20
152.9156688483898
 30
0.0
 10
146.0302271913374
 20
153.3509555697334
 30
0.0
 10
146.0143255208972
 20
153.7094221384717
 30
0.0
 10
146.008189532807
 20
153.84774387044
 30
0.0
  0
SPLINE
  5
74
330
1F
100
AcDbEntity
  8
0
  6
Continuous
 62
     7
370
    25
100
AcDbSpline
210
0.0
220
0.0
230
1.0
 70
     8
 71
     3
 72
     9
 73
     5
 74
     0
 42
0.00000001
 43
0.00000001
 40
0.0
 40
0.0
 40
0.0
 40
0.0
 40
0.2668457266950525
 40
1.0
 40
1.0
 40
1.0
 40
1.0
 10
117.1745678050949
 20
152.4921122151301
 30
0.0
 10
117.1760112214732
 20
152.4539821827527
 30
0.0
 10
117.1814204007626
 20
152.3110905095387
 30
0.0
 10
117.1864460858964
 20
152.2395684509072
 30
0.0
 10
117.1901306884285
 20
152.187131747986
 30
0.0
  0
LINE
  5
75
330
1F
100
AcDbEntity
  8
0
  6
Continuous
 62
     7
370
    25
100
AcDbLine
 10
120.1326716435
 20
2.7698511255
 30
0.0
 11
120.1299390595
 21
2.7317486644
 31
0.0
  0
LINE
  5
76
330
1F
100
AcDbEntity
  8
0
  6
Continuous
 62
     7
370
    25
100
AcDbLine
 10
143.0798435553
 20
2.7317451935
 30
0.0
 11
143.0771134909
 21
2.7698481811
 31
0.0
  0
SPLINE
  5
77
330
1F
100
AcDbEntity
  8
0
  6
Continuous
 62
     7
370
    25
100
AcDbSpline
210
0.0
220
0.0
230
1.0
 70
     8
 71
     3
 72
    10
 73
     6
 74
     0
 42
0.00000001
 43
0.00000001
 40
0.0
 40
0.0
 40
0.0
 40
0.0
 40
0.2705197672748416
 40
0.6900585277324663
 40
1.0
 40
1.0
 40
1.0
 40
1.0
 10
-28.35145001619174
 20
152.3728506825968
 30
0.0
 10
-28.35077981085982
 20
152.3403314485974
 30
0.0
 10
-28.34907020971206
 20
152.257379378356
 30
0.0
 10
-28.29425634628002
 20
152.1457213628009
 30
0.0
 10
-28.23580553237704
 20
152.081722157592
 30
0.0
 10
-28.21097095769823
 20
152.0545301830921
 30
0.0
  0
SPLINE
  5
78
330
1F
100
AcDbEntity
  8
0
  6
Continuous
 62
     7
370
    25
100
AcDbSpline
210
0.0
220
0.0
230
1.0
 70
     8
 71
     3
 72
    17
 73
    13
 74
     0
 42
0.00000001
 43
0.00000001
 40
0.0
 40
0.0
 40
0.0
 40
0.0
 40
0.1727939157605195
 40
0.4670908646424569
 40
0.5836036464445707
 40
0.6237329378319865
 40
0.6617158152047109
 40
0.7176264960717884
 40
0.7837734229449022
 40
0.8640117675634426
 40
0.9541263261861151
 40
1.0
 40
1.0
 40
1.0
 40
1.0
 10
-27.25907191772964
 20
158.4670435387595
 30
0.0
 10
-27.34294299134615
 20
158.4622751580886
 30
0.0
 10
-27.56966053589396
 20
158.4493854273323
 30
0.0
 10
-27.74848819592982
 20
158.4351882138917
 30
0.0
 10
-27.83059064955662
 20
158.426453800105
 30
0.0
 10
-27.89259584783971
 20
158.4148142147579
 30
0.0
 10
-27.96151362381952
 20
158.3951846962288
 30
0.0
 10
-28.05528823514697
 20
158.3504356809246
 30
0.0
 10
-28.15875946750906
 20
158.2658051309964
 30
0.0
 10
-28.24534728165107
 20
158.1354031852293
 30
0.0
 10
-28.29057919064865
 20
157.9942522174071
 30
0.0
 10
-28.27680257274232
 20
157.9053064856864
 30
0.0
 10
-28.27215522888932
 20
157.8753019227108
 30
0.0
  0
LINE
  5
79
330
1F
100
AcDbEntity
  8
0
  6
Continuous
 62
     7
370
    25
100
AcDbLine
 10
-23.7726216553
 20
158.6589620502
 30
0.0
 11
-27.2590719177
 21
158.4670435388
 31
0.0
  0
LINE
  5
7A
330
1F
100
AcDbEntity
  8
0
  6
Continuous
 62
     7
370
    25
100
AcDbLine
 10
-27.3544275045
 20
151.8542569104
 30
0.0
 11
-23.8749605693
 21
151.5618907118
 31
0.0
  0
ARC
  5
7B
330
1F
100
AcDbEntity
  8
0
  6
Continuous
 62
     7
370
    25
100
AcDbCircle
 10
21.0396050245
 20
157.4357050487
 30
0.0
 40
8.999995138923044
100
AcDbArc
 50
76.3157780851
 51
89.173859017
  0
ARC
  5
7C
330
1F
100
AcDbEntity
  8
0
  6
Continuous
 62
     7
370
    25
100
AcDbCircle
 10
21.0396050245
 20
157.4357050487
 30
0.0
 40
8.999995138923044
100
AcDbArc
 50
89.173859017
 51
124.3457884339
  0
SPLINE
  5
7D
330
1F
100
AcDbEntity
  8
0
  6
Continuous
 62
     7
370
    25
100
AcDbSpline
210
0.0
220
0.0
230
1.0
 70
     8
 71
     3
 72
    17
 73
    13
 74
     0
 42
0.00000001
 43
0.00000001
 40
0.0
 40
0.0
 40
0.0
 40
0.0
 40
0.1727939157605221
 40
0.4670908646424627
 40
0.5836036464445759
 40
0.623732937831987
 40
0.6617158152047138
 40
0.7176264960718091
 40
0.7837734229449167
 40
0.8640117675634519
 40
0.9541263261861194
 40
1.0
 40
1.0
 40
1.0
 40
1.0
 10
290.379573074694
 20
149.1474144329768
 30
0.0
 10
290.4635201572769
 20
149.150573826848
 30
0.0
 10
290.6904431667779
 20
149.1591141970837
 30
0.0
 10
290.8695101645268
 20
149.1698800310295
 30
0.0
 10
290.9517649953697
 20
149.1770386397477
 30
0.0
 10
291.0139819679443
 20
149.1874872226571
 30
0.0
 10
291.083263443239
 20
149.2057917309725
 30
0.0
 10
291.1778788155678
 20
149.248734523376
 30
0.0
 10
291.2829536988999
 20
149.3313655998572
 30
0.0
 10
291.3720258700274
 20
149.460083373876
 30
0.0
 10
291.4199558359047
 20
149.6003411354427
 30
0.0
 10
291.4078871602382
 20
149.6895346635707
 30
0.0
 10
291.4038159661285
 20
149.7196228170993
 30
0.0
  0
SPLINE
  5
7E
330
1F
100
AcDbEntity
  8
0
  6
Continuous
 62
     7
370
    25
100
AcDbSpline
210
0.0
220
0.0
230
1.0
 70
     8
 71
     3
 72
    10
 73
     6
 74
     0
 42
0.00000001
 43
0.00000001
 40
0.0
 40
0.0
 40
0.0
 40
0.0
 40
0.2705197672748295
 40
0.6900585277324128
 40
1.0
 40
1.0
 40
1.0
 40
1.0
 10
291.5885979632477
 20
155.2195421734777
 30
0.0
 10
291.588551391831
 20
155.2520682797034
 30
0.0
 10
291.5884325945853
 20
155.3350378800437
 30
0.0
 10
291.5357696934771
 20
155.4477263484374
 30
0.0
 10
291.4785567196216
 20
155.5128345010445
 30
0.0
 10
291.4542480782711
 20
155.5404976449796
 30
0.0
  0
LINE
  5
7F
330
1F
100
AcDbEntity
  8
0
  6
Continuous
 62
     7
370
    25
100
AcDbLine
 10
286.8900839592
 20
149.0223789968
 30
0.0
 11
290.3795730747
 21
149.147414433
 31
0.0
  0
LINE
  5
80
330
1F
100
AcDbEntity
  8
0
  6
Continuous
 62
     7
370
    25
100
AcDbLine
 10
290.6017020429
 20
155.757157121
 30
0.0
 11
287.1284804511
 21
156.1161834731
 31
0.0
  0
ARC
  5
81
330
1F
100
AcDbEntity
  8
0
  6
Continuous
 62
     7
370
    25
100
AcDbCircle
 10
242.1095493631
 20
151.1046227343
 30
0.0
 40
8.999995138923058
100
AcDbArc
 50
255.2171445356
 51
268.0752254675
  0
ARC
  5
82
330
1F
100
AcDbEntity
  8
0
  6
Continuous
 62
     7
370
    25
100
AcDbCircle
 10
242.1095493631
 20
151.1046227343
 30
0.0
 40
8.999995138923058
100
AcDbArc
 50
268.0752254675
 51
303.2471548844
  0
LINE
  5
83
330
1F
100
AcDbEntity
  8
0
  6
Continuous
 62
     7
370
    25
100
AcDbLine
 10
11.6544178804
 20
172.2840973402
 30
0.0
 11
11.8049273898
 21
172.1972006344
 31
0.0
  0
LINE
  5
84
330
1F
100
AcDbEntity
  8
0
  6
Continuous
 62
     7
370
    25
100
AcDbLine
 10
46.4049273898
 20
172.1972006344
 30
0.0
 11
46.5554368993
 21
172.2840973402
 31
0.0
  0
ARC
  5
85
330
1F
100
AcDbEntity
  8
0
  6
Continuous
 62
     7
370
    25
100
AcDbCircle
 10
53.9049273898
 20
209.2972006344
 30
0.0
 40
1.0
100
AcDbArc
 50
270.0
 51
0.0
  0
ARC
  5
86
330
1F
100
AcDbEntity
  8
0
  6
Continuous
 62
     7
370
    25
100
AcDbCircle
 10
4.3049273898
 20
209.2972006344
 30
0.0
 40
1.000000000000001
100
AcDbArc
 50
180.0
 51
270.0
  0
ARC
  5
87
330
1F
100
AcDbEntity
  8
0
  6
Continuous
 62
     7
370
    25
100
AcDbCircle
 10
3.8049273898
 20
211.7972006344
 30
0.0
 40
0.5
100
AcDbArc
 50
90.0
 51
180.0
  0
ARC
  5
88
330
1F
100
AcDbEntity
  8
0
  6
Continuous
 62
     7
370
    25
100
AcDbCircle
 10
54.4049273898
 20
211.7972006344
 30
0.0
 40
0.5
100
AcDbArc
 50
0.0
 51
90.0
  0
LINE
  5
89
330
1F
100
AcDbEntity
  8
0
  6
Continuous
 62
     7
370
    25
100
AcDbLine
 10
3.3049273898
 20
211.7972006344
 30
0.0
 11
3.3049273898
 21
209.2972006344
 31
0.0
  0
LINE
  5
8A
330
1F
100
AcDbEntity
  8
0
  6
Continuous
 62
     7
370
    25
100
AcDbLine
 10
54.9049273898
 20
209.2972006344
 30
0.0
 11
54.9049273898
 21
211.7972006344
 31
0.0
  0
LINE
  5
8B
330
1F
100
AcDbEntity
  8
0
  6
Continuous
 62
     7
370
    25
100
AcDbLine
 10
11.2853060359
 20
193.845550772
 30
0.0
 11
15.3077642731
 21
193.01232728
 31
0.0
  0
LINE
  5
8C
330
1F
100
AcDbEntity
  8
0
  6
Continuous
 62
     7
370
    25
100
AcDbLine
 10
42.9020905065
 20
193.01232728
 30
0.0
 11
47.114980547
 21
193.8849973598
 31
0.0
  0
ARC
  5
8D
330
1F
100
AcDbEntity
  8
0
  6
Continuous
 62
     7
370
    25
100
AcDbCircle
 10
15.1049273898
 20
192.0331147399
 30
0.0
 40
1.000000000000009
100
AcDbArc
 50
0.0
 51
78.2970985198
  0
ARC
  5
8E
330
1F
100
AcDbEntity
  8
0
  6
Continuous
 62
     7
370
    25
100
AcDbCircle
 10
43.1049273898
 20
192.0331147399
 30
0.0
 40
1.00000000000001
100
AcDbArc
 50
101.7029014802
 51
180.0
  0
LINE
  5
8F
330
1F
100
AcDbEntity
  8
0
  6
Continuous
 62
     7
370
    25
100
AcDbLine
 10
16.1049273898
 20
192.0331147399
 30
0.0
 11
16.1049273898
 21
188.0972006344
 31
0.0
  0
LINE
  5
90
330
1F
100
AcDbEntity
  8
0
  6
Continuous
 62
     7
370
    25
100
AcDbLine
 10
42.1049273898
 20
188.0972006344
 30
0.0
 11
42.1049273898
 21
192.0331147399
 31
0.0
  0
SPLINE
  5
91
330
1F
100
AcDbEntity
  8
0
  6
Continuous
 62
     7
370
    25
100
AcDbSpline
210
0.0
220
0.0
230
1.0
 70
     8
 71
     3
 72
    12
 73
     8
 74
     0
 42
0.00000001
 43
0.00000001
 40
0.0
 40
0.0
 40
0.0
 40
0.0
 40
0.0566097830231886
 40
0.1918936113675777
 40
0.3862454124936125
 40
0.6619627093660326
 40
1.0
 40
1.0
 40
1.0
 40
1.0
 10
47.84137221217663
 20
207.2972006344124
 30
0.0
 10
47.84343508545808
 20
207.3337377244355
 30
0.0
 10
47.85042773200468
 20
207.4575897121834
 30
0.0
 10
47.95071636100176
 20
207.6935584688379
 30
0.0
 10
48.2193642913048
 20
207.9831263214546
 30
0.0
 10
48.68837238640725
 20
208.2403743764841
 30
0.0
 10
49.08540918549714
 20
208.2770182870862
 30
0.0
 10
49.30408493404287
 20
208.2972006344124
 30
0.0
  0
LINE
  5
92
330
1F
100
AcDbEntity
  8
0
  6
Continuous
 62
     7
370
    25
100
AcDbLine
 10
46.7881512998
 20
193.8249042518
 30
0.0
 11
46.8690120633
 21
193.8401303901
 31
0.0
  0
SPLINE
  5
93
330
1F
100
AcDbEntity
  8
0
  6
Continuous
 62
     7
370
    25
100
AcDbSpline
210
0.0
220
0.0
230
1.0
 70
     8
 71
     3
 72
    16
 73
    12
 74
     0
 42
0.00000001
 43
0.00000001
 40
0.0
 40
0.0
 40
0.0
 40
0.0
 40
0.0816802095580578
 40
0.1377948324238633
 40
0.1655871203214124
 40
0.2186074287540605
 40
0.300042674627275
 40
0.4222185401456641
 40
0.6032166429687603
 40
0.8418455350762923
 40
0.9999999999999999
 40
0.9999999999999999
 40
0.9999999999999999
 40
0.9999999999999999
 10
47.00195809675789
 20
193.8621429012923
 30
0.0
 10
47.01923038629663
 20
193.8657329130192
 30
0.0
 10
47.0483688061838
 20
193.8717892768189
 30
0.0
 10
47.07702000052358
 20
193.8784782876072
 30
0.0
 10
47.12945422781075
 20
193.8925941440062
 30
0.0
 10
47.20847262793351
 20
193.9186034500022
 30
0.0
 10
47.32802990367585
 20
193.9725775777133
 30
0.0
 10
47.49513402402084
 20
194.0815321170216
 30
0.0
 10
47.6860571965092
 20
194.286585435189
 30
0.0
 10
47.82604188425302
 20
194.5624927976647
 30
0.0
 10
47.82700096973208
 20
194.7681773904362
 30
0.0
 10
47.82738325303115
 20
194.8501615163739
 30
0.0
  0
LINE
  5
94
330
1F
100
AcDbEntity
  8
0
  6
Continuous
 62
     7
370
    25
100
AcDbLine
 10
47.8413722122
 20
194.8499113326
 30
0.0
 11
47.8413722122
 21
207.2972006344
 31
0.0
  0
LINE
  5
95
330
1F
100
AcDbEntity
  8
0
  6
Continuous
 62
     7
370
    25
100
AcDbLine
 10
11.2131756784
 20
193.8607894059
 30
0.0
 11
11.3022408342
 21
193.8422596264
 31
0.0
  0
SPLINE
  5
96
330
1F
100
AcDbEntity
  8
0
  6
Continuous
 62
     7
370
    25
100
AcDbSpline
210
0.0
220
0.0
230
1.0
 70
     8
 71
     3
 72
    19
 73
    15
 74
     0
 42
0.00000001
 43
0.00000001
 40
0.0
 40
0.0
 40
0.0
 40
0.0
 40
0.0202304595946275
 40
0.225828575362077
 40
0.3934222233931912
 40
0.5351273996786565
 40
0.6530591297161223
 40
0.7463787804940105
 40
0.8115545777986848
 40
0.8426498525382053
 40
0.8647642966506014
 40
0.8964064352340265
 40
0.9691251614047953
 40
1.0
 40
1.0
 40
1.0
 40
1.0
 10
10.37374008870359
 20
194.8505941649158
 30
0.0
 10
10.37200863365506
 20
194.8401343037516
 30
0.0
 10
10.35268074715359
 20
194.7233729650308
 30
0.0
 10
10.41695827097233
 20
194.5155410658272
 30
0.0
 10
10.53729132148262
 20
194.2755310940074
 30
0.0
 10
10.68920754204558
 20
194.107637498432
 30
0.0
 10
10.83865006360799
 20
193.99735860153
 30
0.0
 10
10.96714392688725
 20
193.931939851257
 30
0.0
 10
11.06147879743602
 20
193.8981653343012
 30
0.0
 10
11.11232510482177
 20
193.8838928469562
 30
0.0
 10
11.13696046037996
 20
193.8776474456602
 30
0.0
 10
11.16299818205008
 20
193.8715303812251
 30
0.0
 10
11.17809668982067
 20
193.8680503371372
 30
0.0
 10
11.20512130964088
 20
193.8624565639133
 30
0.0
 10
11.21317567843228
 20
193.8607894058634
 30
0.0
  0
LINE
  5
97
330
1F
100
AcDbEntity
  8
0
  6
Continuous
 62
     7
370
    25
100
AcDbLine
 10
10.3684825675
 20
207.2972006344
 30
0.0
 11
10.3684825675
 21
194.8499113326
 31
0.0
  0
SPLINE
  5
98
330
1F
100
AcDbEntity
  8
0
  6
Continuous
 62
     7
370
    25
100
AcDbSpline
210
0.0
220
0.0
230
1.0
 70
     8
 71
     3
 72
    12
 73
     8
 74
     0
 42
0.00000001
 43
0.00000001
 40
0.0
 40
0.0
 40
0.0
 40
0.0
 40
0.1504796672482145
 40
0.5021884440835042
 40
0.7384085835496759
 40
0.8953160249745646
 40
1.0
 40
1.0
 40
1.0
 40
1.0
 10
8.905769845603373
 20
208.297200634412
 30
0.0
 10
9.002562194023845
 20
208.2929159457912
 30
0.0
 10
9.325582571071022
 20
208.278616863721
 30
0.0
 10
9.790761812252303
 20
208.1206783234821
 30
0.0
 10
10.16832383451513
 20
207.8157102286303
 30
0.0
 10
10.34360140034812
 20
207.5340175729152
 30
0.0
 10
10.36137136224491
 20
207.3648845112239
 30
0.0
 10
10.36848256746964
 20
207.297200634412
 30
0.0
  0
ARC
  5
99
330
1F
100
AcDbEntity
  8
0
  6
Continuous
 62
     7
370
    25
100
AcDbCircle
 10
258.9049273898
 20
209.2972006344
 30
0.0
 40
1.0
100
AcDbArc
 50
270.0
 51
0.0
  0
ARC
  5
9A
330
1F
100
AcDbEntity
  8
0
  6
Continuous
 62
     7
370
    25
100
AcDbCircle
 10
209.3049273898
 20
209.2972006344
 30
0.0
 40
1.0
100
AcDbArc
 50
180.0
 51
270.0
  0
LINE
  5
9B
330
1F
100
AcDbEntity
  8
0
  6
Continuous
 62
     7
370
    25
100
AcDbLine
 10
208.3049273898
 20
211.7972006344
 30
0.0
 11
208.3049273898
 21
209.2972006344
 31
0.0
  0
LINE
  5
9C
330
1F
100
AcDbEntity
  8
0
  6
Continuous
 62
     7
370
    25
100
AcDbLine
 10
259.9049273898
 20
209.2972006344
 30
0.0
 11
259.9049273898
 21
211.7972006344
 31
0.0
  0
ARC
  5
9D
330
1F
100
AcDbEntity
  8
0
  6
Continuous
 62
     7
370
    25
100
AcDbCircle
 10
208.8049273898
 20
211.7972006344
 30
0.0
 40
0.5
100
AcDbArc
 50
90.0
 51
180.0
  0
ARC
  5
9E
330
1F
100
AcDbEntity
  8
0
  6
Continuous
 62
     7
370
    25
100
AcDbCircle
 10
259.4049273898
 20
211.7972006344
 30
0.0
 40
0.5
100
AcDbArc
 50
0.0
 51
90.0
  0
LINE
  5
9F
330
1F
100
AcDbEntity
  8
0
  6
Continuous
 62
     7
370
    25
100
AcDbLine
 10
216.1628258522
 20
193.8709216672
 30
0.0
 11
220.3077642731
 21
193.01232728
 31
0.0
  0
LINE
  5
A0
330
1F
100
AcDbEntity
  8
0
  6
Continuous
 62
     7
370
    25
100
AcDbLine
 10
247.9020905065
 20
193.01232728
 30
0.0
 11
252.0470289275
 21
193.8709216672
 31
0.0
  0
ARC
  5
A1
330
1F
100
AcDbEntity
  8
0
  6
Continuous
 62
     7
370
    25
100
AcDbCircle
 10
220.1049273898
 20
192.0331147399
 30
0.0
 40
1.0
100
AcDbArc
 50
0.0
 51
78.2970985198
  0
ARC
  5
A2
330
1F
100
AcDbEntity
  8
0
  6
Continuous
 62
     7
370
    25
100
AcDbCircle
 10
248.1049273898
 20
192.0331147399
 30
0.0
 40
1.000000000000028
100
AcDbArc
 50
101.7029014802
 51
180.0
  0
LINE
  5
A3
330
1F
100
AcDbEntity
  8
0
  6
Continuous
 62
     7
370
    25
100
AcDbLine
 10
221.1049273898
 20
192.0331147399
 30
0.0
 11
221.1049273898
 21
187.5447563426
 31
0.0
  0
LINE
  5
A4
330
1F
100
AcDbEntity
  8
0
  6
Continuous
 62
     7
370
    25
100
AcDbLine
 10
247.1049273898
 20
187.6054597661
 30
0.0
 11
247.1049273898
 21
192.0331147399
 31
0.0
  0
SPLINE
  5
A5
330
1F
100
AcDbEntity
  8
0
  6
Continuous
 62
     7
370
    25
100
AcDbSpline
210
0.0
220
0.0
230
1.0
 70
     8
 71
     3
 72
    12
 73
     8
 74
     0
 42
0.00000001
 43
0.00000001
 40
0.0
 40
0.0
 40
0.0
 40
0.0
 40
0.0565776078946177
 40
0.1927698728562006
 40
0.3879360830157709
 40
0.664030466970947
 40
1.0
 40
1.0
 40
1.0
 40
1.0
 10
252.8480753659986
 20
207.2972006344147
 30
0.0
 10
252.8501365275031
 20
207.3336886974591
 30
0.0
 10
252.8571592676991
 20
207.4580099534399
 30
0.0
 10
252.958302904848
 20
207.6949372629363
 30
0.0
 10
253.2289107510977
 20
207.9849858399963
 30
0.0
 10
253.6984302785381
 20
208.2409133928024
 30
0.0
 10
254.0946725904215
 20
208.2772532388036
 30
0.0
 10
254.3121749472762
 20
208.2972006344147
 30
0.0
  0
LINE
  5
A6
330
1F
100
AcDbEntity
  8
0
  6
Continuous
 62
     7
370
    25
100
AcDbLine
 10
252.848075366
 20
194.8507568789
 30
0.0
 11
252.848075366
 21
207.2972006344
 31
0.0
  0
LINE
  5
A7
330
1F
100
AcDbEntity
  8
0
  6
Continuous
 62
     7
370
    25
100
AcDbLine
 10
251.8183050529
 20
193.8260707368
 30
0.0
 11
251.8982461973
 21
193.84179592
 31
0.0
  0
SPLINE
  5
A8
330
1F
100
AcDbEntity
  8
0
  6
Continuous
 62
     7
370
    25
100
AcDbSpline
210
0.0
220
0.0
230
1.0
 70
     8
 71
     3
 72
    21
 73
    17
 74
     0
 42
0.00000001
 43
0.00000001
 40
0.0
 40
0.0
 40
0.0
 40
0.0
 40
0.0077062925165932
 40
0.0702103931984371
 40
0.1043473977272656
 40
0.1192276099003713
 40
0.1258550442278663
 40
0.1306468196189087
 40
0.1371460580317103
 40
0.1597510275861646
 40
0.1972793149414356
 40
0.3209261678668833
 40
0.4452680297072164
 40
0.6310187696541875
 40
0.8576692115823166
 40
1.0
 40
1.0
 40
1.0
 40
1.0
 10
252.0161459267412
 20
193.8648181851653
 30
0.0
 10
252.0177194862369
 20
193.8651281215239
 30
0.0
 10
252.032055852353
 20
193.8679518858123
 30
0.0
 10
252.0339402545797
 20
193.8683206017452
 30
0.0
 10
252.0410318159201
 20
193.8697238938662
 30
0.0
 10
252.0446261713218
 20
193.8704407052184
 30
0.0
 10
252.0490082840393
 20
193.87133029745
 30
0.0
 10
252.054862344647
 20
193.8725452216257
 30
0.0
 10
252.0709605208186
 20
193.8760038313937
 30
0.0
 10
252.1052408368602
 20
193.8841737298244
 30
0.0
 10
252.196845037906
 20
193.9106716199801
 30
0.0
 10
252.3347071712853
 20
193.9701472660765
 30
0.0
 10
252.5225630832729
 20
194.0988036500156
 30
0.0
 10
252.7080093388013
 20
194.3110398141937
 30
0.0
 10
252.8370230930902
 20
194.5826683374949
 30
0.0
 10
252.8340120903868
 20
194.7765150155881
 30
0.0
 10
252.83285062646
 20
194.8512894167122
 30
0.0
  0
SPLINE
  5
A9
330
1F
100
AcDbEntity
  8
0
  6
Continuous
 62
     7
370
    25
100
AcDbSpline
210
0.0
220
0.0
230
1.0
 70
     8
 71
     3
 72
    21
 73
    17
 74
     0
 42
0.00000001
 43
0.00000001
 40
0.0
 40
0.0
 40
0.0
 40
0.0
 40
0.2197999422672973
 40
0.4049956819152198
 40
0.5613983015153002
 40
0.6920265007930672
 40
0.7962984483346505
 40
0.872345210447221
 40
0.9191630779164982
 40
0.933807404595332
 40
0.9393539000843716
 40
0.9435414401311659
 40
0.9490025417377571
 40
0.9592278766709142
 40
0.988507743041325
 40
1.0
 40
1.0
 40
1.0
 40
1.0
 10
215.3638936577176
 20
194.8507864621448
 30
0.0
 10
215.3728896316293
 20
194.7438103679476
 30
0.0
 10
215.3894652983528
 20
194.5466999603147
 30
0.0
 10
215.5157783553487
 20
194.2999533548756
 30
0.0
 10
215.663952175208
 20
194.1243203219223
 30
0.0
 10
215.8149877918223
 20
194.0078813044157
 30
0.0
 10
215.9482931113052
 20
193.9372334044958
 30
0.0
 10
216.0518518354553
 20
193.8987869247214
 30
0.0
 10
216.1154970303441
 20
193.8813499822664
 30
0.0
 10
216.1476490993729
 20
193.8741029034034
 30
0.0
 10
216.1572324610115
 20
193.8720786241906
 30
0.0
 10
216.1611660876503
 20
193.871266337736
 30
0.0
 10
216.1642882989167
 20
193.8706310304383
 30
0.0
 10
216.1682395512093
 20
193.8698398586844
 30
0.0
 10
216.1681046421381
 20
193.8698622505837
 30
0.0
 10
216.1741821583814
 20
193.8686664061647
 30
0.0
 10
216.1758952008387
 20
193.8683293388201
 30
0.0
  0
LINE
  5
AA
330
1F
100
AcDbEntity
  8
0
  6
Continuous
 62
     7
370
    25
100
AcDbLine
 10
215.3617794136
 20
207.2972006344
 30
0.0
 11
215.3617794136
 21
194.8507568789
 31
0.0
  0
SPLINE
  5
AB
330
1F
100
AcDbEntity
  8
0
  6
Continuous
 62
     7
370
    25
100
AcDbSpline
210
0.0
220
0.0
230
1.0
 70
     8
 71
     3
 72
    12
 73
     8
 74
     0
 42
0.00000001
 43
0.00000001
 40
0.0
 40
0.0
 40
0.0
 40
0.0
 40
0.1505332491701153
 40
0.5019526335369142
 40
0.7380327738150914
 40
0.8950809731961792
 40
1.0
 40
1.0
 40
1.0
 40
1.0
 10
213.8976798323699
 20
208.2972006344143
 30
0.0
 10
213.9945880150949
 20
208.2929129129111
 30
0.0
 10
214.3177280376365
 20
208.2786155193969
 30
0.0
 10
214.7830836279853
 20
208.120783762672
 30
0.0
 10
215.1610437459328
 20
207.8160294080814
 30
0.0
 10
215.3368009671223
 20
207.534239719198
 30
0.0
 10
215.3546362888258
 20
207.3649870665506
 30
0.0
 10
215.3617794136476
 20
207.2972006344143
 30
0.0
  0
LINE
  5
AC
330
1F
100
AcDbEntity
  8
0
  6
Continuous
 62
     7
370
    25
100
AcDbLine
 10
11.6049273898
 20
172.1972006344
 30
0.0
 11
11.6049273898
 21
162.3735120196
 31
0.0
  0
LINE
  5
AD
330
1F
100
AcDbEntity
  8
0
  6
Continuous
 62
     7
370
    25
100
AcDbLine
 10
46.6049273898
 20
170.4759664104
 30
0.0
 11
46.6049273898
 21
172.1972006344
 31
0.0
  0
LINE
  5
AE
330
1F
100
AcDbEntity
  8
0
  6
Continuous
 62
     7
370
    25
100
AcDbLine
 10
216.6049273898
 20
172.1972006344
 30
0.0
 11
216.6049273898
 21
170.4759664104
 31
0.0
  0
LINE
  5
AF
330
1F
100
AcDbEntity
  8
0
  6
Continuous
 62
     7
370
    25
100
AcDbLine
 10
251.6049273898
 20
161.7212179538
 30
0.0
 11
251.6049273898
 21
172.1972006344
 31
0.0
  0
LINE
  5
B0
330
1F
100
AcDbEntity
  8
0
  6
Continuous
 62
     7
370
    25
100
AcDbLine
 10
249.9049273898
 20
172.6952946933
 30
0.0
 11
249.9049273898
 21
173.6900808065
 31
0.0
  0
LWPOLYLINE
  5
B1
330
1F
100
AcDbEntity
  8
0
  6
Continuous
 62
     7
370
    25
100
AcDbPolyline
 90
        3
 70
   128
 43
0.0
 10
15.4253217768
 20
144.3830634596
 10
16.0300309184
 20
143.6654732364
 10
17.4871063743
 20
142.2099459623
  0
LWPOLYLINE
  5
B2
330
1F
100
AcDbEntity
  8
0
  6
Continuous
 62
     7
370
    25
100
AcDbPolyline
 90
        3
 70
   128
 43
0.0
 10
224.074156475
 20
140.9572691543
 10
226.2578821111
 20
139.6551457696
 10
227.6158895127
 20
139.0447427455
  0
SPLINE
  5
B3
330
1F
100
AcDbEntity
  8
0
  6
Continuous
 62
     7
370
    25
100
AcDbSpline
210
0.0
220
0.0
230
1.0
 70
     8
 71
     3
 72
    13
 73
     9
 74
     0
 42
0.00000001
 43
0.00000001
 40
0.0
 40
0.0
 40
0.0
 40
0.0
 40
0.167496538880593
 40
0.3349957006346763
 40
0.5032497132695324
 40
0.671503720020224
 40
0.8356574437189662
 40
1.0
 40
1.0
 40
1.0
 40
1.0
 10
145.2490784185868
 20
145.2931867382406
 30
0.0
 10
144.4569247598183
 20
137.8205846176977
 30
0.0
 10
142.8726050377333
 20
122.8752633611193
 30
0.0
 10
141.4048158034848
 20
100.3419544505667
 30
0.0
 10
140.6038210434865
 20
77.74594936481259
 30
0.0
 10
140.5558445181284
 20
55.28974479083403
 30
0.0
 10
141.1613499531796
 20
33.01794162624982
 30
0.0
 10
142.1451915075048
 20
18.33171450505797
 30
0.0
 10
142.6373950600785
 20
10.98437983396483
 30
0.0
  0
ARC
  5
B4
330
1F
100
AcDbEntity
  8
0
  6
Continuous
 62
     7
370
    25
100
AcDbCircle
 10
140.5515126121
 20
17.8994150853
 30
0.0
 40
7.222784650942043
100
AcDbArc
 50
271.4178625931
 51
286.7856488342
  0
SPLINE
  5
B5
330
1F
100
AcDbEntity
  8
0
  6
Continuous
 62
     7
370
    25
100
AcDbSpline
210
0.0
220
0.0
230
1.0
 70
     8
 71
     3
 72
    13
 73
     9
 74
     0
 42
0.00000001
 43
0.00000001
 40
0.0
 40
0.0
 40
0.0
 40
0.0
 40
0.1641690360829144
 40
0.3286101633217165
 40
0.4960135075866848
 40
0.6634183606082488
 40
0.8317101834736546
 40
1.0
 40
1.0
 40
1.0
 40
1.0
 10
140.7302320757082
 20
10.67884187625287
 30
0.0
 10
140.1464627723839
 20
18.04448157017663
 30
0.0
 10
138.9779566357534
 20
32.78796865239813
 30
0.0
 10
138.2464451855134
 20
55.12714266543895
 30
0.0
 10
138.25153005908
 20
77.62388853134959
 30
0.0
 10
139.0887633201557
 20
100.283074608707
 30
0.0
 10
140.6578153991162
 20
122.9485962723871
 30
0.0
 10
142.3622845824967
 20
138.0224466610102
 30
0.0
 10
143.2145140940775
 20
145.5593269282501
 30
0.0
  0
ARC
  5
B6
330
1F
100
AcDbEntity
  8
0
  6
Continuous
 62
     7
370
    25
100
AcDbCircle
 10
138.9807464409
 20
105.2835086812
 30
0.0
 40
40.49773233174821
100
AcDbArc
 50
81.0958296646
 51
83.9991437087
  0
LINE
  5
B7
330
1F
100
AcDbEntity
  8
0
  6
Continuous
 62
     7
370
    25
100
AcDbLine
 10
145.2421951464
 20
145.0753925026
 30
0.0
 11
145.2490784186
 21
145.2931867382
 31
0.0
  0
ELLIPSE
  5
B8
330
1F
100
AcDbEntity
  8
0
  6
Continuous
 62
     7
370
    25
100
AcDbEllipse
 10
845.6049273898
 20
64.3446063231
 30
0.0
 11
-1.307398633798585E-11
 21
-705.0225305360213
 31
3.694822225952521E-13
210
9.718418168412238E-30
220
5.240715106144744E-16
230
1.0
 40
0.9999680428
 41
4.597629157922761
 42
4.601394429271432
  0
LWPOLYLINE
  5
B9
330
1F
100
AcDbEntity
  8
0
  6
Continuous
 62
     7
370
    25
100
AcDbPolyline
 90
        9
 70
   128
 43
0.0
 10
145.9022287556
 20
151.9237300147
 10
145.8664709238
 20
151.9269359564
 10
145.7604805352
 20
151.935873853
 10
145.5867773186
 20
151.9503312223
 10
145.3494907518
 20
151.9699643667
 10
145.0542618915
 20
151.9943065439
 10
144.7081092664
 20
152.0227790629
 10
144.3192620257
 20
152.0547050413
 10
143.8969643051
 20
152.0893254971
  0
SPLINE
  5
BA
330
1F
100
AcDbEntity
  8
0
  6
Continuous
 62
     7
370
    25
100
AcDbSpline
210
0.0
220
0.0
230
1.0
 70
     8
 71
     3
 72
    16
 73
    12
 74
     0
 42
0.00000001
 43
0.00000001
 40
0.0
 40
0.0
 40
0.0
 40
0.0
 40
0.1011114183972974
 40
0.2058198974052867
 40
0.3085551739473932
 40
0.4143883541457383
 40
0.5236167436258541
 40
0.6358828171146559
 40
0.7506471644410553
 40
0.8687206501406433
 40
1.0
 40
1.0
 40
1.0
 40
1.0
 10
143.8969643050719
 20
152.0893254971332
 30
0.0
 10
143.9195588595235
 20
152.7353853327161
 30
0.0
 10
143.9655517745956
 20
154.0504887224725
 30
0.0
 10
143.594248065412
 20
155.9918631085513
 30
0.0
 10
142.9116556417586
 20
157.8570318633991
 30
0.0
 10
141.9091679355026
 20
159.5960818393024
 30
0.0
 10
140.5976888115162
 20
161.1848288277973
 30
0.0
 10
138.9966100519211
 20
162.5734742459459
 30
0.0
 10
137.1334887477865
 20
163.7068130662504
 30
0.0
 10
134.9884931868889
 20
164.5968197689176
 30
0.0
 10
133.4191194078456
 20
164.8704195511684
 30
0.0
 10
132.5928750664195
 20
165.0144644402311
 30
0.0
  0
ARC
  5
BB
330
1F
100
AcDbEntity
  8
0
  6
Continuous
 62
     7
370
    25
100
AcDbCircle
 10
106.1725813505
 20
169.2783945205
 30
0.0
 40
26.76215648572689
100
AcDbArc
 50
350.8321736663
 51
357.3810719072
  0
SPLINE
  5
BC
330
1F
100
AcDbEntity
  8
0
  6
Continuous
 62
     7
370
    25
100
AcDbSpline
210
0.0
220
0.0
230
1.0
 70
     8
 71
     3
 72
    16
 73
    12
 74
     0
 42
0.00000001
 43
0.00000001
 40
0.0
 40
0.0
 40
0.0
 40
0.0
 40
0.1265652235786989
 40
0.2399180908748048
 40
0.3532935642782803
 40
0.4634120317902187
 40
0.5735332456088027
 40
0.6798831241162326
 40
0.7862170680527379
 40
0.8931143231863431
 40
1.0
 40
1.0
 40
1.0
 40
1.0
 10
132.9067855471805
 20
168.0555512210078
 30
0.0
 10
133.860758448513
 20
167.8756794988409
 30
0.0
 10
135.6691174176075
 20
167.5347131657168
 30
0.0
 10
138.1411086260446
 20
166.420862004715
 30
0.0
 10
140.2868900645024
 20
165.0133456980572
 30
0.0
 10
142.1331768469845
 20
163.2705954258838
 30
0.0
 10
143.6387904883876
 20
161.2955385304275
 30
0.0
 10
144.786665364677
 20
159.1190886987031
 30
0.0
 10
145.5650186223067
 20
156.8060699557446
 30
0.0
 10
145.9837527623015
 20
154.3807652360427
 30
0.0
 10
145.9294024433015
 20
152.7427121832666
 30
0.0
 10
145.9022287555874
 20
151.9237300147282
 30
0.0
  0
LWPOLYLINE
  5
BD
330
1F
100
AcDbEntity
  8
0
  6
Continuous
 62
     7
370
    25
100
AcDbPolyline
 90
        9
 70
   128
 43
0.0
 10
119.3128904746
 20
152.0893254971
 10
118.8905927539
 20
152.0547050413
 10
118.5017455132
 20
152.0227790629
 10
118.1555928882
 20
151.9943065439
 10
117.8603640278
 20
151.9699643667
 10
117.6230774611
 20
151.9503312223
 10
117.4493742444
 20
151.935873853
 10
117.3433838559
 20
151.9269359564
 10
117.3076260241
 20
151.9237300147
  0
SPLINE
  5
BE
330
1F
100
AcDbEntity
  8
0
  6
Continuous
 62
     7
370
    25
100
AcDbSpline
210
0.0
220
0.0
230
1.0
 70
     8
 71
     3
 72
    16
 73
    12
 74
     0
 42
0.00000001
 43
0.00000001
 40
0.0
 40
0.0
 40
0.0
 40
0.0
 40
0.1068856768136897
 40
0.213782931947293
 40
0.320116875883791
 40
0.4264667543912142
 40
0.5365879682097919
 40
0.6467064357217236
 40
0.7600819091250802
 40
0.8734347764210856
 40
1.0
 40
1.0
 40
1.0
 40
1.0
 10
117.30762602406
 20
151.9237300147279
 30
0.0
 10
117.2804523363458
 20
152.7427121832666
 30
0.0
 10
117.2261020173458
 20
154.3807652360431
 30
0.0
 10
117.6448361573408
 20
156.8060699557452
 30
0.0
 10
118.4231894149706
 20
159.1190886987037
 30
0.0
 10
119.5710642912603
 20
161.2955385304281
 30
0.0
 10
121.0766779326635
 20
163.2705954258842
 30
0.0
 10
122.9229647151446
 20
165.0133456980576
 30
0.0
 10
125.0687461536029
 20
166.4208620047123
 30
0.0
 10
127.5407373620414
 20
167.5347131657101
 30
0.0
 10
129.3490963311359
 20
167.8756794988387
 30
0.0
 10
130.3030692324695
 20
168.0555512210082
 30
0.0
  0
ARC
  5
BF
330
1F
100
AcDbEntity
  8
0
  6
Continuous
 62
     7
370
    25
100
AcDbCircle
 10
157.0372734279
 20
169.2783945204
 30
0.0
 40
26.76215648447783
100
AcDbArc
 50
182.6189280927
 51
189.1678263338
  0
SPLINE
  5
C0
330
1F
100
AcDbEntity
  8
0
  6
Continuous
 62
     7
370
    25
100
AcDbSpline
210
0.0
220
0.0
230
1.0
 70
     8
 71
     3
 72
    16
 73
    12
 74
     0
 42
0.00000001
 43
0.00000001
 40
0.0
 40
0.0
 40
0.0
 40
0.0
 40
0.1312858888381211
 40
0.2477037353016333
 40
0.3641242697899623
 40
0.4748881263150849
 40
0.5856211994970286
 40
0.6899344443378583
 40
0.7941891369142512
 40
0.8971121747277485
 40
1.0
 40
1.0
 40
1.0
 40
1.0
 10
130.6169797132302
 20
165.0144644402313
 30
0.0
 10
129.7906154686259
 20
164.870639725342
 30
0.0
 10
128.2314721980145
 20
164.5992783519145
 30
0.0
 10
126.0871142092215
 20
163.7097208250945
 30
0.0
 10
124.2285306861837
 20
162.5859998392957
 30
0.0
 10
122.6204347520714
 20
161.1903644997965
 30
0.0
 10
121.3106040903318
 20
159.6122323945578
 30
0.0
 10
120.3044813774763
 20
157.8648900280255
 30
0.0
 10
119.6200826096719
 20
156.0123632698737
 30
0.0
 10
119.2484100252709
 20
154.0617290710505
 30
0.0
 10
119.2913994431855
 20
152.7467183592768
 30
0.0
 10
119.3128904745755
 20
152.0893254971336
 30
0.0
  0
SPLINE
  5
C1
330
1F
100
AcDbEntity
  8
0
  6
Continuous
 62
     7
370
    25
100
AcDbSpline
210
0.0
220
0.0
230
1.0
 70
     8
 71
     3
 72
     9
 73
     5
 74
     0
 42
0.00000001
 43
0.00000001
 40
0.0
 40
0.0
 40
0.0
 40
0.0
 40
0.0585870904816309
 40
1.0
 40
1.0
 40
1.0
 40
1.0
 10
130.6169797132302
 20
165.0144644402313
 30
0.0
 10
130.6553124944722
 20
165.0189840728829
 30
0.0
 10
131.309599657853
 20
165.0961279046444
 30
0.0
 10
131.970600417802
 20
165.0540639706853
 30
0.0
 10
132.5928750664195
 20
165.0144644402311
 30
0.0
  0
LINE
  5
C2
330
1F
100
AcDbEntity
  8
0
  6
Continuous
 62
     7
370
    25
100
AcDbLine
 10
132.9067855472
 20
168.055551221
 30
0.0
 11
130.3030692325
 21
168.055551221
 31
0.0
  0
SPLINE
  5
C3
330
1F
100
AcDbEntity
  8
0
  6
Continuous
 62
     7
370
    25
100
AcDbSpline
210
0.0
220
0.0
230
1.0
 70
     8
 71
     3
 72
    12
 73
     8
 74
     0
 42
0.00000001
 43
0.00000001
 40
0.0
 40
0.0
 40
0.0
 40
0.0
 40
0.2009897579944066
 40
0.4068972700638508
 40
0.6328775308763376
 40
0.8779805115755421
 40
0.9999999999999999
 40
0.9999999999999999
 40
0.9999999999999999
 40
0.9999999999999999
 10
121.8508052744059
 20
0.242064106324158
 30
0.0
 10
121.9255461009657
 20
-0.7042424735564656
 30
0.0
 10
122.076856489082
 20
-2.620009564572118
 30
0.0
 10
123.5952185522096
 20
-5.210058139147461
 30
0.0
 10
125.9226348262065
 20
-7.282904998244022
 30
0.0
 10
128.4865701039396
 20
-8.409577044737299
 30
0.0
 10
130.1819333384474
 20
-8.649789620186754
 30
0.0
 10
130.7454165680685
 20
-8.72962841523356
 30
0.0
  0
LINE
  5
C4
330
1F
100
AcDbEntity
  8
0
  6
Continuous
 62
     7
370
    25
100
AcDbLine
 10
122.4796227039
 20
10.6788418763
 30
0.0
 11
121.8508052744
 21
0.2420641063
 31
0.0
  0
SPLINE
  5
C5
330
1F
100
AcDbEntity
  8
0
  6
Continuous
 62
     7
370
    25
100
AcDbSpline
210
0.0
220
0.0
230
1.0
 70
     8
 71
     3
 72
    15
 73
    11
 74
     0
 42
0.00000001
 43
0.00000001
 40
0.0
 40
0.0
 40
0.0
 40
0.0
 40
0.1228706801416188
 40
0.2457421073061568
 40
0.368963376726601
 40
0.4921845652253976
 40
0.6189240972439433
 40
0.745662684214279
 40
0.8728336965048737
 40
1.0
 40
1.0
 40
1.0
 40
1.0
 10
119.9953406855717
 20
145.5593269282352
 30
0.0
 10
120.6320555659168
 20
140.0584305266384
 30
0.0
 10
121.9054891976736
 20
129.0566042793743
 30
0.0
 10
123.294372292117
 20
112.4832946168073
 30
0.0
 10
124.2940574656835
 20
95.86841279444539
 30
0.0
 10
124.8650292019321
 20
79.05987115798679
 30
0.0
 10
124.9986186820369
 20
62.08511744081034
 30
0.0
 10
124.6580109798012
 20
44.93930880084297
 30
0.0
 10
123.877373835037
 20
27.78977060384755
 30
0.0
 10
122.9455339969537
 20
16.3824143869459
 30
0.0
 10
122.4796227039431
 20
10.67884187626608
 30
0.0
  0
LINE
  5
C6
330
1F
100
AcDbEntity
  8
0
  6
Continuous
 62
     7
370
    25
100
AcDbLine
 10
119.3128904746
 20
152.0893254971
 30
0.0
 11
119.9953406856
 21
145.5593269282
 31
0.0
  0
LINE
  5
C7
330
1F
100
AcDbEntity
  8
0
  6
Continuous
 62
     7
370
    25
100
AcDbLine
 10
143.2145140941
 20
145.5593269283
 30
0.0
 11
143.8969643051
 21
152.0893254971
 31
0.0
  0
LINE
  5
C8
330
1F
100
AcDbEntity
  8
0
  6
Continuous
 62
     7
370
    25
100
AcDbLine
 10
141.3590495052
 20
0.2420641063
 30
0.0
 11
140.7302320757
 21
10.6788418763
 31
0.0
  0
SPLINE
  5
C9
330
1F
100
AcDbEntity
  8
0
  6
Continuous
 62
     7
370
    25
100
AcDbSpline
210
0.0
220
0.0
230
1.0
 70
     8
 71
     3
 72
    12
 73
     8
 74
     0
 42
0.00000001
 43
0.00000001
 40
0.0
 40
0.0
 40
0.0
 40
0.0
 40
0.1220194884244418
 40
0.3671224691236516
 40
0.5931027299361281
 40
0.7990102420055758
 40
0.9999999999999999
 40
0.9999999999999999
 40
0.9999999999999999
 40
0.9999999999999999
 10
132.4644382115822
 20
-8.729628415233586
 30
0.0
 10
133.0279214412032
 20
-8.649789620186727
 30
0.0
 10
134.7232846757109
 20
-8.409577044737187
 30
0.0
 10
137.2872199534439
 20
-7.282904998243994
 30
0.0
 10
139.6146362274408
 20
-5.210058139147517
 30
0.0
 10
141.1329982905684
 20
-2.62000956457209
 30
0.0
 10
141.2843086786847
 20
-0.7042424735563824
 30
0.0
 10
141.3590495052445
 20
0.2420641063243245
 30
0.0
  0
LINE
  5
CA
330
1F
100
AcDbEntity
  8
0
  6
Continuous
 62
     7
370
    25
100
AcDbLine
 10
132.4644382116
 20
-8.7296284152
 30
0.0
 11
130.7454165681
 21
-8.7296284152
 31
0.0
  0
ARC
  5
CB
330
1F
100
AcDbEntity
  8
0
  6
Continuous
 62
     7
370
    25
100
AcDbCircle
 10
122.6583421679
 20
17.8994150879
 30
0.0
 40
7.222784653527052
100
AcDbArc
 50
253.2143511688
 51
268.5821374044
  0
SPLINE
  5
CC
330
1F
100
AcDbEntity
  8
0
  6
Continuous
 62
     7
370
    25
100
AcDbSpline
210
0.0
220
0.0
230
1.0
 70
     8
 71
     3
 72
    15
 73
    11
 74
     0
 42
0.00000001
 43
0.00000001
 40
0.0
 40
0.0
 40
0.0
 40
0.0
 40
0.1267660483230548
 40
0.2535350382149456
 40
0.3806484971794478
 40
0.5077622670030952
 40
0.6306734929835315
 40
0.7535844718700745
 40
0.8767926958342646
 40
1.0
 40
1.0
 40
1.0
 40
1.0
 10
120.5724597195721
 20
10.98437983396744
 30
0.0
 10
120.9637149319823
 20
16.65035774030177
 30
0.0
 10
121.7462344357647
 20
27.98244503031994
 30
0.0
 10
122.4005253902386
 20
45.0388843103474
 30
0.0
 10
122.6713841389331
 20
62.12270836092991
 30
0.0
 10
122.521244315688
 20
79.03847259951205
 30
0.0
 10
121.9777023259127
 20
95.75900225720704
 30
0.0
 10
121.0440722470267
 20
112.2878615294751
 30
0.0
 10
119.7490564486853
 20
128.8079009321703
 30
0.0
 10
118.5568682402369
 20
139.7981051439789
 30
0.0
 10
117.9607763610609
 20
145.2931867382439
 30
0.0
  0
ARC
  5
CD
330
1F
100
AcDbEntity
  8
0
  6
Continuous
 62
     7
370
    25
100
AcDbCircle
 10
124.2291083389
 20
105.2835086769
 30
0.0
 40
40.49773233595603
100
AcDbArc
 50
96.000856291
 51
98.9041703348
  0
ELLIPSE
  5
CE
330
1F
100
AcDbEntity
  8
0
  6
Continuous
 62
     7
370
    25
100
AcDbEllipse
 10
-582.3950726102
 20
64.3446063231
 30
0.0
 11
-1.307398633798585E-11
 21
-705.0225305360212
 31
3.979039320256561E-13
210
1.046598879675164E-29
220
5.643847037386648E-16
230
1.0
 40
0.9999680428
 41
1.681790877908227
 42
1.685556149256898
  0
LINE
  5
CF
330
1F
100
AcDbEntity
  8
0
  6
Continuous
 62
     7
370
    25
100
AcDbLine
 10
117.9607763611
 20
145.2931867383
 30
0.0
 11
117.9676596333
 21
145.0753925027
 31
0.0
  0
LINE
  5
D0
330
1F
100
AcDbEntity
  8
0
  6
Continuous
 62
     7
370
    25
100
AcDbLine
 10
117.9607763611
 20
145.2931867382
 30
0.0
 11
117.3076260241
 21
151.9237300147
 31
0.0
  0
LINE
  5
D1
330
1F
100
AcDbEntity
  8
0
  6
Continuous
 62
     7
370
    25
100
AcDbLine
 10
145.9022287556
 20
151.9237300147
 30
0.0
 11
145.2490784186
 21
145.2931867382
 31
0.0
  0
SPLINE
  5
D2
330
1F
100
AcDbEntity
  8
0
  6
Continuous
 62
     7
370
    25
100
AcDbSpline
210
0.0
220
0.0
230
1.0
 70
     8
 71
     3
 72
     9
 73
     5
 74
     0
 42
0.00000001
 43
0.00000001
 40
0.0
 40
0.0
 40
0.0
 40
0.0
 40
0.3743559746592335
 40
1.0
 40
1.0
 40
1.0
 40
1.0
 10
145.7405245851578
 20
149.9156874409275
 30
0.0
 10
145.7445839162204
 20
149.9621301909271
 30
0.0
 10
145.7554274217001
 20
150.0861905856943
 30
0.0
 10
145.7616286511302
 20
150.163701677576
 30
0.0
 10
145.7655084132728
 20
150.2121960291094
 30
0.0
  0
SPLINE
  5
D3
330
1F
100
AcDbEntity
  8
0
  6
Continuous
 62
     7
370
    25
100
AcDbSpline
210
0.0
220
0.0
230
1.0
 70
     8
 71
     3
 72
     9
 73
     5
 74
     0
 42
0.00000001
 43
0.00000001
 40
0.0
 40
0.0
 40
0.0
 40
0.0
 40
0.3901077254562839
 40
0.9999999999999999
 40
0.9999999999999999
 40
0.9999999999999999
 40
0.9999999999999999
 10
117.30762602406
 20
151.9237300147279
 30
0.0
 10
117.3146553477189
 20
151.8186797047139
 30
0.0
 10
117.3326742773639
 20
151.5493943172197
 30
0.0
 10
117.4175594086777
 20
150.5346016493342
 30
0.0
 10
117.4693301944896
 20
149.9156874409272
 30
0.0
  0
ARC
  5
D4
330
1F
100
AcDbEntity
  8
0
  6
Continuous
 62
     7
370
    25
100
AcDbCircle
 10
121.7316383952
 20
9.7802538066
 30
0.0
 40
9.53893408630152
100
AcDbArc
 50
259.8375580373
 51
270.7157966276
  0
ARC
  5
D5
330
1F
100
AcDbEntity
  8
0
  6
Continuous
 62
     7
370
    25
100
AcDbCircle
 10
150.2512330252
 20
-11.6230760301
 30
0.0
 40
19.71925238846918
100
AcDbArc
 50
171.5624049586
 51
180.0588010564
  0
SPLINE
  5
D6
330
1F
100
AcDbEntity
  8
0
  6
Continuous
 62
     7
370
    25
100
AcDbSpline
210
0.0
220
0.0
230
1.0
 70
     8
 71
     3
 72
    13
 73
     9
 74
     0
 42
0.00000001
 43
0.00000001
 40
0.0
 40
0.0
 40
0.0
 40
0.0
 40
0.1146095628004858
 40
0.2319378800033343
 40
0.3492973733354273
 40
0.5727407440188753
 40
0.7855101700503442
 40
0.9999999999999999
 40
0.9999999999999999
 40
0.9999999999999999
 40
0.9999999999999999
 10
130.531991021256
 20
-11.64331334384719
 30
0.0
 10
129.8689387425468
 20
-11.53732350649137
 30
0.0
 10
128.5271053379216
 20
-11.3228295534778
 30
0.0
 10
126.6247772502406
 20
-10.56041810312025
 30
0.0
 10
124.3367408689816
 20
-9.18606099041505
 30
0.0
 10
122.0737394989251
 20
-6.846212882964858
 30
0.0
 10
120.3167743177176
 20
-3.38756241628041
 30
0.0
 10
120.1382265191564
 20
-0.8719163081201131
 30
0.0
 10
120.0485931492173
 20
0.3909715015630311
 30
0.0
  0
ARC
  5
D7
330
1F
100
AcDbEntity
  8
0
  6
Continuous
 62
     7
370
    25
100
AcDbCircle
 10
141.4782163845
 20
9.7802538065
 30
0.0
 40
9.538934086230354
100
AcDbArc
 50
269.2842033724
 51
280.1624419627
  0
SPLINE
  5
D8
330
1F
100
AcDbEntity
  8
0
  6
Continuous
 62
     7
370
    25
100
AcDbSpline
210
0.0
220
0.0
230
1.0
 70
     8
 71
     3
 72
    13
 73
     9
 74
     0
 42
0.00000001
 43
0.00000001
 40
0.0
 40
0.0
 40
0.0
 40
0.0
 40
0.2144868287324745
 40
0.4272532776191841
 40
0.6506935218042597
 40
0.766214112153384
 40
0.8853920408589249
 40
1.0
 40
1.0
 40
1.0
 40
1.0
 10
143.1612616304331
 20
0.3909715015641135
 30
0.0
 10
143.0716092089349
 20
-0.8718890996624873
 30
0.0
 10
142.8930234600663
 20
-3.387481009146098
 30
0.0
 10
141.1363458738212
 20
-6.846542204164585
 30
0.0
 10
138.8798983531494
 20
-9.177257743115119
 30
0.0
 10
136.5960774700965
 20
-10.55761048379047
 30
0.0
 10
134.6931792198467
 20
-11.32052661487903
 30
0.0
 10
133.3408237792691
 20
-11.537129125711
 30
0.0
 10
132.6778637584333
 20
-11.64331334384303
 30
0.0
  0
ARC
  5
D9
330
1F
100
AcDbEntity
  8
0
  6
Continuous
 62
     7
370
    25
100
AcDbCircle
 10
112.9586217546
 20
-11.6230760303
 30
0.0
 40
19.71925238836219
100
AcDbArc
 50
359.9411989443
 51
8.4375950421
  0
LINE
  5
DA
330
1F
100
AcDbEntity
  8
0
  6
Continuous
 62
     7
370
    25
100
AcDbLine
 10
130.5319910213
 20
-11.6433133438
 30
0.0
 11
132.6778637584
 21
-11.6433133438
 31
0.0
  0
LINE
  5
DB
330
1F
100
AcDbEntity
  8
0
  6
Continuous
 62
     7
370
    25
100
AcDbLine
 10
120.0485931492
 20
0.3909715016
 30
0.0
 11
120.5724597196
 21
10.984379834
 31
0.0
  0
LINE
  5
DC
330
1F
100
AcDbEntity
  8
0
  6
Continuous
 62
     7
370
    25
100
AcDbLine
 10
142.6373950601
 20
10.984379834
 30
0.0
 11
143.1612616304
 21
0.3909715016
 31
0.0
  0
LINE
  5
DD
330
1F
100
AcDbEntity
  8
0
  6
Continuous
 62
     7
370
    25
100
AcDbLine
 10
117.9676596333
 20
145.0753925026
 30
0.0
 11
117.4693301945
 21
149.9156874409
 31
0.0
  0
LINE
  5
DE
330
1F
100
AcDbEntity
  8
0
  6
Continuous
 62
     7
370
    25
100
AcDbLine
 10
145.7405245852
 20
149.9156874409
 30
0.0
 11
145.2421951464
 21
145.0753925026
 31
0.0
  0
LINE
  5
DF
330
1F
100
AcDbEntity
  8
0
  6
Continuous
 62
     7
370
    25
100
AcDbLine
 10
143.0468916849
 20
2.7275348403
 30
0.0
 11
143.1029966426
 21
2.2883965195
 31
0.0
  0
LINE
  5
E0
330
1F
100
AcDbEntity
  8
0
  6
Continuous
 62
     7
370
    25
100
AcDbLine
 10
120.1068581371
 20
2.2883965195
 30
0.0
 11
120.162962372
 21
2.7275291833
 31
0.0
  0
LINE
  5
E1
330
1F
100
AcDbEntity
  8
0
  6
Continuous
 62
     7
370
    25
100
AcDbLine
 10
143.0315632354
 20
3.0039716643
 30
0.0
 11
143.0881253584
 21
2.5999443636
 31
0.0
  0
ARC
  5
E2
330
1F
100
AcDbEntity
  8
0
  6
Continuous
 62
     7
370
    25
100
AcDbCircle
 10
131.6049273898
 20
154.3472006344
 30
0.0
 40
14.22500000000002
100
AcDbArc
 50
358.3509776603
 51
217.7168354678
  0
SPLINE
  5
E3
330
1F
100
AcDbEntity
  8
0
  6
Continuous
 62
     7
370
    25
100
AcDbSpline
210
0.0
220
0.0
230
1.0
 70
     8
 71
     3
 72
    11
 73
     7
 74
     0
 42
0.00000001
 43
0.00000001
 40
0.0
 40
0.0
 40
0.0
 40
0.0
 40
0.1446702591042532
 40
0.3907520209323642
 40
0.5962314811354595
 40
0.9999999999999999
 40
0.9999999999999999
 40
0.9999999999999999
 40
0.9999999999999999
 10
141.9147638885536
 20
164.4969716195595
 30
0.0
 10
141.6527378229115
 20
164.7032370704681
 30
0.0
 10
140.9450096739434
 20
165.2603567043865
 30
0.0
 10
139.8122963141776
 20
166.041623021651
 30
0.0
 10
138.1384939489698
 20
167.0877115779792
 30
0.0
 10
136.8761581458481
 20
167.7075576457912
 30
0.0
 10
136.0395670121094
 20
168.1183498639409
 30
0.0
  0
LINE
  5
E4
330
1F
100
AcDbEntity
  8
0
  6
Continuous
 62
     7
370
    25
100
AcDbLine
 10
141.741904429
 20
164.3267958921
 30
0.0
 11
141.9147638886
 21
164.4969716196
 31
0.0
  0
LINE
  5
E5
330
1F
100
AcDbEntity
  8
0
  6
Continuous
 62
     7
370
    25
100
AcDbLine
 10
117.8938558576
 20
158.1362826391
 30
0.0
 11
117.6600496247
 21
158.2008954586
 31
0.0
  0
LINE
  5
E6
330
1F
100
AcDbEntity
  8
0
  6
Continuous
 62
     7
370
    25
100
AcDbLine
 10
145.5112761019
 20
157.3412097357
 30
0.0
 11
145.748412273
 21
157.3922646796
 31
0.0
  0
LINE
  5
E7
330
1F
100
AcDbEntity
  8
0
  6
Continuous
 62
     7
370
    25
100
AcDbLine
 10
122.058865093
 20
164.8934473423
 30
0.0
 11
121.8960821289
 21
165.0732858187
 31
0.0
  0
SPLINE
  5
E8
330
1F
100
AcDbEntity
  8
0
  6
Continuous
 62
     7
370
    25
100
AcDbSpline
210
0.0
220
0.0
230
1.0
 70
     8
 71
     3
 72
    11
 73
     7
 74
     0
 42
0.00000001
 43
0.00000001
 40
0.0
 40
0.0
 40
0.0
 40
0.0
 40
0.1446702591042548
 40
0.3907520209323577
 40
0.596231481135475
 40
1.0
 40
1.0
 40
1.0
 40
1.0
 10
127.9698861234578
 20
168.3506664437506
 30
0.0
 10
127.6602419702268
 20
168.2268779399051
 30
0.0
 10
126.8238981398224
 20
167.8925272008846
 30
0.0
 10
125.5809449820674
 20
167.3022018147537
 30
0.0
 10
123.838104535075
 20
166.3756907237334
 30
0.0
 10
122.6701341923531
 20
165.5923988840293
 30
0.0
 10
121.8960821288892
 20
165.0732858187057
 30
0.0
  0
LINE
  5
E9
330
1F
100
AcDbEntity
  8
0
  6
Continuous
 62
     7
370
    25
100
AcDbLine
 10
128.0308328968
 20
168.1158778968
 30
0.0
 11
127.9698861235
 21
168.3506664438
 31
0.0
  0
SPLINE
  5
EA
330
1F
100
AcDbEntity
  8
0
  6
Continuous
 62
     7
370
    25
100
AcDbSpline
210
0.0
220
0.0
230
1.0
 70
     8
 71
     3
 72
     9
 73
     5
 74
     0
 42
0.00000001
 43
0.00000001
 40
0.0
 40
0.0
 40
0.0
 40
0.0
 40
0.5862283062032868
 40
1.0
 40
1.0
 40
1.0
 40
1.0
 10
121.8960821288892
 20
165.0732858187057
 30
0.0
 10
121.6259899588361
 20
164.8788856247832
 30
0.0
 10
121.1652613191661
 20
164.5472738758018
 30
0.0
 10
120.7167210314151
 20
164.1974432493502
 30
0.0
 10
120.5311277568163
 20
164.0526932385013
 30
0.0
  0
SPLINE
  5
EB
330
1F
100
AcDbEntity
  8
0
  6
Continuous
 62
     7
370
    25
100
AcDbSpline
210
0.0
220
0.0
230
1.0
 70
     8
 71
     3
 72
     9
 73
     5
 74
     0
 42
0.00000001
 43
0.00000001
 40
0.0
 40
0.0
 40
0.0
 40
0.0
 40
0.586384789828362
 40
1.0
 40
1.0
 40
1.0
 40
1.0
 10
117.9584606390786
 20
159.8788884619043
 30
0.0
 10
117.8940629827771
 20
159.5516036518304
 30
0.0
 10
117.7842414843027
 20
158.9934636458973
 30
0.0
 10
117.6963874072658
 20
158.4327960882833
 30
0.0
 10
117.6600496247278
 20
158.2008954586044
 30
0.0
  0
ARC
  5
EC
330
1F
100
AcDbEntity
  8
0
  6
Continuous
 62
     7
370
    25
100
AcDbCircle
 10
131.6049273898
 20
154.3472006344
 30
0.0
 40
14.725
100
AcDbArc
 50
138.7674620976
 51
157.934493223
  0
SPLINE
  5
ED
330
1F
100
AcDbEntity
  8
0
  6
Continuous
 62
     7
370
    25
100
AcDbSpline
210
0.0
220
0.0
230
1.0
 70
     8
 71
     3
 72
     9
 73
     5
 74
     0
 42
0.00000001
 43
0.00000001
 40
0.0
 40
0.0
 40
0.0
 40
0.0
 40
0.5863847898283642
 40
1.0
 40
1.0
 40
1.0
 40
1.0
 10
143.2187429496085
 20
163.3995435987127
 30
0.0
 10
142.9675048179625
 20
163.6189560100509
 30
0.0
 10
142.5390521431932
 20
163.993134220578
 30
0.0
 10
142.0974268337401
 20
164.349551861925
 30
0.0
 10
141.9147638885536
 20
164.4969716195595
 30
0.0
  0
ARC
  5
EE
330
1F
100
AcDbEntity
  8
0
  6
Continuous
 62
     7
370
    25
100
AcDbCircle
 10
131.6049273898
 20
154.3472006344
 30
0.0
 40
14.72500000000002
100
AcDbArc
 50
18.7674620976
 51
37.934493223
  0
SPLINE
  5
EF
330
1F
100
AcDbEntity
  8
0
  6
Continuous
 62
     7
370
    25
100
AcDbSpline
210
0.0
220
0.0
230
1.0
 70
     8
 71
     3
 72
     9
 73
     5
 74
     0
 42
0.00000001
 43
0.00000001
 40
0.0
 40
0.0
 40
0.0
 40
0.0
 40
0.58622830620329
 40
1.0
 40
1.0
 40
1.0
 40
1.0
 10
145.7484122730439
 20
157.3922646796485
 30
0.0
 10
145.7151028516329
 20
157.723371457239
 30
0.0
 10
145.6582829726567
 20
158.288180037935
 30
0.0
 10
145.5795909070033
 20
158.8515426349739
 30
0.0
 10
145.5470303577095
 20
159.0846461309725
 30
0.0
  0
SPLINE
  5
F0
330
1F
100
AcDbEntity
  8
0
  6
Continuous
 62
     7
370
    25
100
AcDbSpline
210
0.0
220
0.0
230
1.0
 70
     8
 71
     3
 72
     9
 73
     5
 74
     0
 42
0.00000001
 43
0.00000001
 40
0.0
 40
0.0
 40
0.0
 40
0.0
 40
0.5862283062032932
 40
1.0
 40
1.0
 40
1.0
 40
1.0
 10
136.0395670121094
 20
168.1183498639409
 30
0.0
 10
135.7361654206454
 20
168.2550564476089
 30
0.0
 10
135.2186169019992
 20
168.4882532793235
 30
0.0
 10
134.6913845485948
 20
168.7017852499108
 30
0.0
 10
134.4732307247022
 20
168.7901387350605
 30
0.0
  0
SPLINE
  5
F1
330
1F
100
AcDbEntity
  8
0
  6
Continuous
 62
     7
370
    25
100
AcDbSpline
210
0.0
220
0.0
230
1.0
 70
     8
 71
     3
 72
     9
 73
     5
 74
     0
 42
0.00000001
 43
0.00000001
 40
0.0
 40
0.0
 40
0.0
 40
0.0
 40
0.5863847898283566
 40
1.0
 40
1.0
 40
1.0
 40
1.0
 10
129.5722761988635
 20
168.9312314262037
 30
0.0
 10
129.2566404109159
 20
168.823359027468
 30
0.0
 10
128.7183662376723
 20
168.639397232062
 30
0.0
 10
128.1888868511824
 20
168.4351473157949
 30
0.0
 10
127.9698861234578
 20
168.3506664437506
 30
0.0
  0
ARC
  5
F2
330
1F
100
AcDbEntity
  8
0
  6
Continuous
 62
     7
370
    25
100
AcDbCircle
 10
131.6049273898
 20
154.3472006344
 30
0.0
 40
14.725
100
AcDbArc
 50
78.7674620976
 51
97.934493223
  0
SPLINE
  5
F3
330
1F
100
AcDbEntity
  8
0
  6
Continuous
 62
     7
370
    25
100
AcDbSpline
210
0.0
220
0.0
230
1.0
 70
    24
 71
     3
 72
    12
 73
     8
 74
     0
 42
0.00000001
 43
0.00000001
 40
0.0
 40
0.0
 40
0.0
 40
0.0
 40
0.3013828945620924
 40
0.410844249379568
 40
0.6247185195336458
 40
0.6986171054378635
 40
1.0
 40
1.0
 40
1.0
 40
1.0
 10
136.2230160601295
 20
168.2989507711499
 30
0.0
 10
136.801149056233
 20
167.9425987546171
 30
0.0
 10
137.5892582061262
 20
167.4568207645954
 30
0.0
 10
138.7933917198259
 20
166.7146119498873
 30
0.0
 10
139.5604903320644
 20
166.2417845223004
 30
0.0
 10
140.6956788316562
 20
165.5420723216462
 30
0.0
 10
141.4155524365462
 20
165.0983536401659
 30
0.0
 10
141.9936720668862
 20
164.7420098620779
 30
0.0
  0
ARC
  5
F4
330
1F
100
AcDbEntity
  8
0
  6
Continuous
 62
     7
370
    25
100
AcDbCircle
 10
141.6046186611
 20
164.7320700874
 30
0.0
 40
0.3891803587965487
100
AcDbArc
 50
322.8368888502
 51
1.4635092994
  0
ARC
  5
F5
330
1F
100
AcDbEntity
  8
0
  6
Continuous
 62
     7
370
    25
100
AcDbCircle
 10
136.3889572502
 20
167.9469211231
 30
0.0
 40
0.389180358798551
100
AcDbArc
 50
115.2384460213
 51
153.8650664702
  0
ARC
  5
F6
330
1F
100
AcDbEntity
  8
0
  6
Continuous
 62
     7
370
    25
100
AcDbCircle
 10
145.7746457476
 20
157.0039694871
 30
0.0
 40
0.3891803588382521
100
AcDbArc
 50
55.2384460233
 51
93.8650664682
  0
SPLINE
  5
F7
330
1F
100
AcDbEntity
  8
0
  6
Continuous
 62
     7
370
    25
100
AcDbSpline
210
0.0
220
0.0
230
1.0
 70
    24
 71
     3
 72
    12
 73
     8
 74
     0
 42
0.00000001
 43
0.00000001
 40
0.0
 40
0.0
 40
0.0
 40
0.0
 40
0.3013828945620989
 40
0.4108442493795569
 40
0.6247185195336495
 40
0.6986171054378604
 40
0.9999999999999999
 40
0.9999999999999999
 40
0.9999999999999999
 40
0.9999999999999999
 10
121.8314016793097
 20
165.3224578081957
 30
0.0
 10
122.4290780763687
 20
165.6449596613209
 30
0.0
 10
123.2438287312734
 20
166.0845932110725
 30
0.0
 10
124.4886671765732
 20
166.7562990161306
 30
0.0
 10
125.2816970465887
 20
167.1842121877434
 30
0.0
 10
126.4552598374891
 20
167.8174581661468
 30
0.0
 10
127.1994682902298
 20
168.2190276547553
 30
0.0
 10
127.7971308697045
 20
168.5415220520121
 30
0.0
  0
ARC
  5
F8
330
1F
100
AcDbEntity
  8
0
  6
Continuous
 62
     7
370
    25
100
AcDbCircle
 10
127.6112122642
 20
168.1996220318
 30
0.0
 40
0.3891803587960791
100
AcDbArc
 50
22.8368888502
 51
61.4635092994
  0
ARC
  5
F9
330
1F
100
AcDbEntity
  8
0
  6
Continuous
 62
     7
370
    25
100
AcDbCircle
 10
122.2192388925
 20
165.2901522703
 30
0.0
 40
0.3891803587983886
100
AcDbArc
 50
175.2384460212
 51
213.8650664702
  0
SPLINE
  5
FA
330
1F
100
AcDbEntity
  8
0
  6
Continuous
 62
     7
370
    25
100
AcDbSpline
210
0.0
220
0.0
230
1.0
 70
    24
 71
     3
 72
    12
 73
     8
 74
     0
 42
0.00000001
 43
0.00000001
 40
0.0
 40
0.0
 40
0.0
 40
0.0
 40
0.1705528289519433
 40
0.3005130179963817
 40
0.554439535051956
 40
0.64217711339866
 40
1.0
 40
1.0
 40
1.0
 40
1.0
 10
117.2440337316093
 20
152.4378137225993
 30
0.0
 10
117.2533512397967
 20
152.761463966639
 30
0.0
 10
117.2697686309524
 20
153.3317336725672
 30
0.0
 10
117.3002062303754
 20
154.3890052395012
 30
0.0
 10
117.3261337725383
 20
155.2896167742133
 30
0.0
 10
117.3645086357819
 20
156.6225948198396
 30
0.0
 10
117.3888433504578
 20
157.4678783640089
 30
0.0
 10
117.4083861926419
 20
158.1467128243476
 30
0.0
  0
ARC
  5
FB
330
1F
100
AcDbEntity
  8
0
  6
Continuous
 62
     7
370
    25
100
AcDbCircle
 10
117.6115209929
 20
157.8147525789
 30
0.0
 40
0.389180358795918
100
AcDbArc
 50
82.8368888502
 51
121.4635092994
  0
LINE
  5
FC
330
1F
100
AcDbEntity
  8
0
  6
Continuous
 62
     7
370
    25
100
AcDbLine
 10
117.4083861926
 20
158.1467128243
 30
0.0
 11
117.4586677094
 21
159.8932769099
 31
0.0
  0
LINE
  5
FD
330
1F
100
AcDbEntity
  8
0
  6
Continuous
 62
     7
370
    25
100
AcDbLine
 10
117.4586677094
 20
159.8932769099
 30
0.0
 11
117.9584606391
 21
159.8788884619
 31
0.0
  0
LINE
  5
FE
330
1F
100
AcDbEntity
  8
0
  6
Continuous
 62
     7
370
    25
100
AcDbLine
 10
127.7971308697
 20
168.541522052
 30
0.0
 11
129.3348404955
 21
169.371259024
 31
0.0
  0
LINE
  5
FF
330
1F
100
AcDbEntity
  8
0
  6
Continuous
 62
     7
370
    25
100
AcDbLine
 10
129.3348404955
 20
169.371259024
 30
0.0
 11
129.5722761989
 21
168.9312314262
 31
0.0
  0
LINE
  5
100
330
1F
100
AcDbEntity
  8
0
  6
Continuous
 62
     7
370
    25
100
AcDbLine
 10
141.9936720669
 20
164.7420098621
 30
0.0
 11
143.481100176
 21
163.8251827484
 31
0.0
  0
LINE
  5
101
330
1F
100
AcDbEntity
  8
0
  6
Continuous
 62
     7
370
    25
100
AcDbLine
 10
143.481100176
 20
163.8251827484
 30
0.0
 11
143.2187429496
 21
163.3995435987
 31
0.0
  0
LINE
  5
102
330
1F
100
AcDbEntity
  8
0
  6
Continuous
 62
     7
370
    25
100
AcDbLine
 10
117.1630314923
 20
149.6241435859
 30
0.0
 11
117.213313009
 21
151.3707076715
 31
0.0
  0
LINE
  5
103
330
1F
100
AcDbEntity
  8
0
  6
Continuous
 62
     7
370
    25
100
AcDbLine
 10
117.6628244219
 20
149.6097551379
 30
0.0
 11
117.1630314923
 21
149.6241435859
 31
0.0
  0
LINE
  5
104
330
1F
100
AcDbEntity
  8
0
  6
Continuous
 62
     7
370
    25
100
AcDbLine
 10
120.2936920535
 20
164.4927208363
 30
0.0
 11
121.8314016793
 21
165.3224578082
 31
0.0
  0
LINE
  5
105
330
1F
100
AcDbEntity
  8
0
  6
Continuous
 62
     7
370
    25
100
AcDbLine
 10
120.5311277568
 20
164.0526932385
 30
0.0
 11
120.2936920535
 21
164.4927208363
 31
0.0
  0
LINE
  5
106
330
1F
100
AcDbEntity
  8
0
  6
Continuous
 62
     7
370
    25
100
AcDbLine
 10
145.5470303577
 20
159.084646131
 30
0.0
 11
146.0468232874
 21
159.0702576829
 31
0.0
  0
LINE
  5
107
330
1F
100
AcDbEntity
  8
0
  6
Continuous
 62
     7
370
    25
100
AcDbLine
 10
146.0468232874
 20
159.0702576829
 30
0.0
 11
145.9965417706
 21
157.3236935974
 31
0.0
  0
LINE
  5
108
330
1F
100
AcDbEntity
  8
0
  6
Continuous
 62
     7
370
    25
100
AcDbLine
 10
134.7355879511
 20
169.2157778848
 30
0.0
 11
136.2230160601
 21
168.2989507711
 31
0.0
  0
LINE
  5
109
330
1F
100
AcDbEntity
  8
0
  6
Continuous
 62
     7
370
    25
100
AcDbLine
 10
134.7355879511
 20
169.2157778848
 30
0.0
 11
134.4732307247
 21
168.7901387351
 31
0.0
  0
ARC
  5
10A
330
1F
100
AcDbEntity
  8
0
  6
Continuous
 62
     7
370
    25
100
AcDbCircle
 10
131.6049273898
 20
154.3472006344
 30
0.0
 40
16.00000000000001
100
AcDbArc
 50
205.4371674189
 51
211.2647879017
  0
LINE
  5
10B
330
1F
100
AcDbEntity
  8
0
  6
Continuous
 62
     7
370
    25
100
AcDbLine
 10
117.1560177059
 20
147.4748641361
 30
0.0
 11
117.6075461336
 21
147.6896246516
 31
0.0
  0
LINE
  5
10C
330
1F
100
AcDbEntity
  8
0
  6
Continuous
 62
     7
370
    25
100
AcDbLine
 10
117.6075461336
 20
147.6896246516
 30
0.0
 11
117.1077532039
 21
147.7040130997
 31
0.0
  0
LINE
  5
10D
330
1F
100
AcDbEntity
  8
0
  6
Continuous
 62
     7
370
    25
100
AcDbLine
 10
117.1077532039
 20
147.7040130997
 30
0.0
 11
117.1630314923
 21
149.6241435859
 31
0.0
  0
ARC
  5
10E
330
1F
100
AcDbEntity
  8
0
  6
Continuous
 62
     7
370
    25
100
AcDbCircle
 10
117.6075461336
 20
147.6896246516
 30
0.0
 40
0.4999999999999998
100
AcDbArc
 50
178.3509776603
 51
205.4371674189
  0
ARC
  5
10F
330
1F
100
AcDbEntity
  8
0
  6
Continuous
 62
     7
370
    25
100
AcDbCircle
 10
131.6049273898
 20
154.3472006344
 30
0.0
 40
16.00000000000003
100
AcDbArc
 50
329.3818616168
 51
331.2647879017
  0
LINE
  5
110
330
1F
100
AcDbEntity
  8
0
  6
Continuous
 62
     7
370
    25
100
AcDbLine
 10
145.7511870703
 20
148.8011243589
 30
0.0
 11
145.6959087819
 21
146.8809938727
 31
0.0
  0
LINE
  5
111
330
1F
100
AcDbEntity
  8
0
  6
Continuous
 62
     7
370
    25
100
AcDbLine
 10
120.5311277568
 20
164.0526932385
 30
0.0
 11
118.840606833
 21
163.1405003974
 31
0.0
  0
LINE
  5
112
330
1F
100
AcDbEntity
  8
0
  6
Continuous
 62
     7
370
    25
100
AcDbLine
 10
118.0137389275
 20
161.7990189481
 30
0.0
 11
117.9584606391
 21
159.8788884619
 31
0.0
  0
ARC
  5
113
330
1F
100
AcDbEntity
  8
0
  6
Continuous
 62
     7
370
    25
100
AcDbCircle
 10
131.6049273898
 20
154.3472006344
 30
0.0
 40
15.5
100
AcDbArc
 50
145.4371674189
 51
151.2647879017
  0
LINE
  5
114
330
1F
100
AcDbEntity
  8
0
  6
Continuous
 62
     7
370
    25
100
AcDbLine
 10
117.4586677094
 20
159.8932769099
 30
0.0
 11
117.5139459978
 21
161.8134073962
 31
0.0
  0
LINE
  5
115
330
1F
100
AcDbEntity
  8
0
  6
Continuous
 62
     7
370
    25
100
AcDbLine
 10
117.5139459978
 20
161.8134073962
 30
0.0
 11
118.0137389275
 21
161.7990189481
 31
0.0
  0
ARC
  5
116
330
1F
100
AcDbEntity
  8
0
  6
Continuous
 62
     7
370
    25
100
AcDbCircle
 10
145.1961158522
 20
146.8953823207
 30
0.0
 40
0.5000000000000132
100
AcDbArc
 50
331.2647879017
 51
358.3509776603
  0
ARC
  5
117
330
1F
100
AcDbEntity
  8
0
  6
Continuous
 62
     7
370
    25
100
AcDbCircle
 10
131.6049273898
 20
154.3472006344
 30
0.0
 40
16.00000000000002
100
AcDbArc
 50
145.4371674189
 51
151.2647879017
  0
LINE
  5
118
330
1F
100
AcDbEntity
  8
0
  6
Continuous
 62
     7
370
    25
100
AcDbLine
 10
118.4288545569
 20
163.4241552285
 30
0.0
 11
118.840606833
 21
163.1405003974
 31
0.0
  0
LINE
  5
119
330
1F
100
AcDbEntity
  8
0
  6
Continuous
 62
     7
370
    25
100
AcDbLine
 10
117.5753134932
 20
162.0394001841
 30
0.0
 11
118.0137389275
 21
161.7990189481
 31
0.0
  0
ARC
  5
11A
330
1F
100
AcDbEntity
  8
0
  6
Continuous
 62
     7
370
    25
100
AcDbCircle
 10
118.840606833
 20
163.1405003974
 30
0.0
 40
0.5000000000000243
100
AcDbArc
 50
118.3509776603
 51
145.4371674189
  0
LINE
  5
11B
330
1F
100
AcDbEntity
  8
0
  6
Continuous
 62
     7
370
    25
100
AcDbLine
 10
118.840606833
 20
163.1405003974
 30
0.0
 11
118.6031711296
 21
163.5805279952
 31
0.0
  0
ARC
  5
11C
330
1F
100
AcDbEntity
  8
0
  6
Continuous
 62
     7
370
    25
100
AcDbCircle
 10
118.0137389275
 20
161.7990189481
 30
0.0
 40
0.5000000000000132
100
AcDbArc
 50
151.2647879017
 51
178.3509776603
  0
LINE
  5
11D
330
1F
100
AcDbEntity
  8
0
  6
Continuous
 62
     7
370
    25
100
AcDbLine
 10
118.6031711296
 20
163.5805279952
 30
0.0
 11
120.2936920535
 21
164.4927208363
 31
0.0
  0
LINE
  5
11E
330
1F
100
AcDbEntity
  8
0
  6
Continuous
 62
     7
370
    25
100
AcDbLine
 10
144.8539855851
 20
162.3916059536
 30
0.0
 11
143.2187429496
 21
163.3995435987
 31
0.0
  0
ARC
  5
11F
330
1F
100
AcDbEntity
  8
0
  6
Continuous
 62
     7
370
    25
100
AcDbCircle
 10
131.6049273898
 20
154.3472006344
 30
0.0
 40
15.50000000000003
100
AcDbArc
 50
25.4371674189
 51
31.2647879017
  0
LINE
  5
120
330
1F
100
AcDbEntity
  8
0
  6
Continuous
 62
     7
370
    25
100
AcDbLine
 10
145.5470303577
 20
159.084646131
 30
0.0
 11
145.6023086461
 21
161.0047766172
 31
0.0
  0
LINE
  5
121
330
1F
100
AcDbEntity
  8
0
  6
Continuous
 62
     7
370
    25
100
AcDbLine
 10
145.6023086461
 20
161.0047766172
 30
0.0
 11
146.1021015758
 21
160.9903881692
 31
0.0
  0
LINE
  5
122
330
1F
100
AcDbEntity
  8
0
  6
Continuous
 62
     7
370
    25
100
AcDbLine
 10
146.1021015758
 20
160.9903881692
 30
0.0
 11
146.0468232874
 21
159.0702576829
 31
0.0
  0
LINE
  5
123
330
1F
100
AcDbEntity
  8
0
  6
Continuous
 62
     7
370
    25
100
AcDbLine
 10
143.481100176
 20
163.8251827484
 30
0.0
 11
145.1163428114
 21
162.8172451033
 31
0.0
  0
LINE
  5
124
330
1F
100
AcDbEntity
  8
0
  6
Continuous
 62
     7
370
    25
100
AcDbLine
 10
145.1163428114
 20
162.8172451033
 30
0.0
 11
144.8539855851
 21
162.3916059536
 31
0.0
  0
LINE
  5
125
330
1F
100
AcDbEntity
  8
0
  6
Continuous
 62
     7
370
    25
100
AcDbLine
 10
133.1003453156
 20
170.2237155299
 30
0.0
 11
134.7355879511
 21
169.2157778848
 31
0.0
  0
LINE
  5
126
330
1F
100
AcDbEntity
  8
0
  6
Continuous
 62
     7
370
    25
100
AcDbLine
 10
134.4732307247
 20
168.7901387351
 30
0.0
 11
132.8379880892
 21
169.7980763802
 31
0.0
  0
LINE
  5
127
330
1F
100
AcDbEntity
  8
0
  6
Continuous
 62
     7
370
    25
100
AcDbLine
 10
133.1003453156
 20
170.2237155299
 30
0.0
 11
132.8379880892
 21
169.7980763802
 31
0.0
  0
LINE
  5
128
330
1F
100
AcDbEntity
  8
0
  6
Continuous
 62
     7
370
    25
100
AcDbLine
 10
132.8777642408
 20
170.2964917268
 30
0.0
 11
132.8379880892
 21
169.7980763802
 31
0.0
  0
ARC
  5
129
330
1F
100
AcDbEntity
  8
0
  6
Continuous
 62
     7
370
    25
100
AcDbCircle
 10
132.8379880892
 20
169.7980763802
 30
0.0
 40
0.5000000000000148
100
AcDbArc
 50
58.3509776603
 51
85.4371674189
  0
LINE
  5
12A
330
1F
100
AcDbEntity
  8
0
  6
Continuous
 62
     7
370
    25
100
AcDbLine
 10
145.6023086461
 20
161.0047766172
 30
0.0
 11
146.0538370737
 21
161.2195371328
 31
0.0
  0
ARC
  5
12B
330
1F
100
AcDbEntity
  8
0
  6
Continuous
 62
     7
370
    25
100
AcDbCircle
 10
145.6023086461
 20
161.0047766172
 30
0.0
 40
0.5000000000000213
100
AcDbArc
 50
358.3509776603
 51
25.4371674189
  0
LINE
  5
12C
330
1F
100
AcDbEntity
  8
0
  6
Continuous
 62
     7
370
    25
100
AcDbLine
 10
131.2627971227
 20
169.8434242673
 30
0.0
 11
129.5722761989
 21
168.9312314262
 31
0.0
  0
ARC
  5
12D
330
1F
100
AcDbEntity
  8
0
  6
Continuous
 62
     7
370
    25
100
AcDbCircle
 10
131.6049273898
 20
154.3472006344
 30
0.0
 40
15.49999999999999
100
AcDbArc
 50
85.4371674189
 51
91.2647879017
  0
ARC
  5
12E
330
1F
100
AcDbEntity
  8
0
  6
Continuous
 62
     7
370
    25
100
AcDbCircle
 10
131.6049273898
 20
154.3472006344
 30
0.0
 40
16.00000000000001
100
AcDbArc
 50
85.4371674189
 51
91.2647879017
  0
LINE
  5
12F
330
1F
100
AcDbEntity
  8
0
  6
Continuous
 62
     7
370
    25
100
AcDbLine
 10
131.2517606625
 20
170.343302449
 30
0.0
 11
131.2627971227
 21
169.8434242673
 31
0.0
  0
LINE
  5
130
330
1F
100
AcDbEntity
  8
0
  6
Continuous
 62
     7
370
    25
100
AcDbLine
 10
145.2813745591
 20
162.6511028994
 30
0.0
 11
144.8539855851
 21
162.3916059536
 31
0.0
  0
ARC
  5
131
330
1F
100
AcDbEntity
  8
0
  6
Continuous
 62
     7
370
    25
100
AcDbCircle
 10
144.8539855851
 20
162.3916059536
 30
0.0
 40
0.4999999999999704
100
AcDbArc
 50
31.2647879017
 51
58.3509776603
  0
LINE
  5
132
330
1F
100
AcDbEntity
  8
0
  6
Continuous
 62
     7
370
    25
100
AcDbLine
 10
129.3348404955
 20
169.371259024
 30
0.0
 11
131.0253614194
 21
170.283451865
 31
0.0
  0
LINE
  5
133
330
1F
100
AcDbEntity
  8
0
  6
Continuous
 62
     7
370
    25
100
AcDbLine
 10
131.0253614194
 20
170.283451865
 30
0.0
 11
131.2627971227
 21
169.8434242673
 31
0.0
  0
ARC
  5
134
330
1F
100
AcDbEntity
  8
0
  6
Continuous
 62
     7
370
    25
100
AcDbCircle
 10
131.6049273898
 20
154.3472006344
 30
0.0
 40
16.00000000000002
100
AcDbArc
 50
25.4371674189
 51
31.2647879017
  0
ARC
  5
135
330
1F
100
AcDbEntity
  8
0
  6
Continuous
 62
     7
370
    25
100
AcDbCircle
 10
131.2627971227
 20
169.8434242673
 30
0.0
 40
0.5000000000000172
100
AcDbArc
 50
91.2647879017
 51
118.3509776603
  0
CIRCLE
  5
136
330
1F
100
AcDbEntity
  8
0
  6
Continuous
 62
     7
370
    25
100
AcDbCircle
 10
234.1049273898
 20
154.3472006344
 30
0.0
 40
5.328914336627577
  0
CIRCLE
  5
137
330
1F
100
AcDbEntity
  8
0
  6
Continuous
 62
     7
370
    25
100
AcDbCircle
 10
234.1049273898
 20
154.3472006344
 30
0.0
 40
5.925127771161414
  0
CIRCLE
  5
138
330
1F
100
AcDbEntity
  8
0
  6
Continuous
 62
     7
370
    25
100
AcDbCircle
 10
234.1049273898
 20
154.3472006344
 30
0.0
 40
5.074569253689134
  0
CIRCLE
  5
139
330
1F
100
AcDbEntity
  8
0
  6
Continuous
 62
     7
370
    25
100
AcDbCircle
 10
234.1049273898
 20
154.3472006344
 30
0.0
 40
7.150000000000034
  0
LINE
  5
13A
330
1F
100
AcDbEntity
  8
0
  6
Continuous
 62
     7
370
    25
100
AcDbLine
 10
232.0448649193
 20
152.6512812325
 30
0.0
 11
231.5100301504
 21
153.725502704
 31
0.0
  0
LINE
  5
13B
330
1F
100
AcDbEntity
  8
0
  6
Continuous
 62
     7
370
    25
100
AcDbLine
 10
233.1638456188
 20
153.2084007835
 30
0.0
 11
232.0448649193
 21
152.6512812325
 31
0.0
  0
LINE
  5
13C
330
1F
100
AcDbEntity
  8
0
  6
Continuous
 62
     7
370
    25
100
AcDbLine
 10
234.7266253202
 20
151.752303395
 30
0.0
 11
234.1695057692
 21
152.8712840945
 31
0.0
  0
LINE
  5
13D
330
1F
100
AcDbEntity
  8
0
  6
Continuous
 62
     7
370
    25
100
AcDbLine
 10
235.8008467917
 20
152.2871381639
 30
0.0
 11
234.7266253202
 21
151.752303395
 31
0.0
  0
LINE
  5
13E
330
1F
100
AcDbEntity
  8
0
  6
Continuous
 62
     7
370
    25
100
AcDbLine
 10
235.2437272407
 20
153.4061188634
 30
0.0
 11
235.8008467917
 21
152.2871381639
 31
0.0
  0
LINE
  5
13F
330
1F
100
AcDbEntity
  8
0
  6
Continuous
 62
     7
370
    25
100
AcDbLine
 10
236.6998246293
 20
154.9688985648
 30
0.0
 11
235.5808439298
 21
154.4117790138
 31
0.0
  0
LINE
  5
140
330
1F
100
AcDbEntity
  8
0
  6
Continuous
 62
     7
370
    25
100
AcDbLine
 10
236.1649898603
 20
156.0431200363
 30
0.0
 11
236.6998246293
 21
154.9688985648
 31
0.0
  0
LINE
  5
141
330
1F
100
AcDbEntity
  8
0
  6
Continuous
 62
     7
370
    25
100
AcDbLine
 10
235.0460091608
 20
155.4860004853
 30
0.0
 11
236.1649898603
 21
156.0431200363
 31
0.0
  0
LINE
  5
142
330
1F
100
AcDbEntity
  8
0
  6
Continuous
 62
     7
370
    25
100
AcDbLine
 10
233.4832294595
 20
156.9420978739
 30
0.0
 11
234.0403490105
 21
155.8231171744
 31
0.0
  0
LINE
  5
143
330
1F
100
AcDbEntity
  8
0
  6
Continuous
 62
     7
370
    25
100
AcDbLine
 10
232.4090079879
 20
156.4072631049
 30
0.0
 11
233.4832294595
 21
156.9420978739
 31
0.0
  0
LINE
  5
144
330
1F
100
AcDbEntity
  8
0
  6
Continuous
 62
     7
370
    25
100
AcDbLine
 10
232.966127539
 20
155.2882824054
 30
0.0
 11
232.4090079879
 21
156.4072631049
 31
0.0
  0
LINE
  5
145
330
1F
100
AcDbEntity
  8
0
  6
Continuous
 62
     7
370
    25
100
AcDbLine
 10
231.5100301504
 20
153.725502704
 30
0.0
 11
232.6290108499
 21
154.2826222551
 31
0.0
  0
CIRCLE
  5
146
330
1F
100
AcDbEntity
  8
0
  6
Continuous
 62
     7
370
    25
100
AcDbCircle
 10
234.1049273898
 20
154.3472006344
 30
0.0
 40
4.197433366238903
  0
SPLINE
  5
147
330
1F
100
AcDbEntity
  8
0
  6
Continuous
 62
     7
370
    25
100
AcDbSpline
210
0.0
220
0.0
230
1.0
 70
     8
 71
     3
 72
    12
 73
     8
 74
     0
 42
0.00000001
 43
0.00000001
 40
0.0
 40
0.0
 40
0.0
 40
0.0
 40
0.2133534395476081
 40
0.4267919313634426
 40
0.6383539739091502
 40
0.8490950351927573
 40
1.0
 40
1.0
 40
1.0
 40
1.0
 10
232.6290108498657
 20
154.2826222550716
 30
0.0
 10
232.7001423698193
 20
154.3270874640132
 30
0.0
 10
232.8424337659468
 20
154.416035607727
 30
0.0
 10
232.9860268527459
 20
154.6298461966166
 30
0.0
 10
233.0538690833201
 20
154.8729591949375
 30
0.0
 10
233.0427872097741
 20
155.1031205402702
 30
0.0
 10
232.9886976346772
 20
155.233767156691
 30
0.0
 10
232.966127538955
 20
155.2882824053895
 30
0.0
  0
SPLINE
  5
148
330
1F
100
AcDbEntity
  8
0
  6
Continuous
 62
     7
370
    25
100
AcDbSpline
210
0.0
220
0.0
230
1.0
 70
     8
 71
     3
 72
    12
 73
     8
 74
     0
 42
0.00000001
 43
0.00000001
 40
0.0
 40
0.0
 40
0.0
 40
0.0
 40
0.2133534395476155
 40
0.4267919313634491
 40
0.638353973909153
 40
0.8490950351927589
 40
1.0
 40
1.0
 40
1.0
 40
1.0
 10
235.5808439297816
 20
154.4117790137572
 30
0.0
 10
235.509712409828
 20
154.3673138048156
 30
0.0
 10
235.3674210137004
 20
154.2783656611019
 30
0.0
 10
235.2238279269013
 20
154.0645550722122
 30
0.0
 10
235.1559856963272
 20
153.8214420738914
 30
0.0
 10
235.1670675698732
 20
153.5912807285586
 30
0.0
 10
235.2211571449701
 20
153.4606341121378
 30
0.0
 10
235.2437272406923
 20
153.4061188634394
 30
0.0
  0
SPLINE
  5
149
330
1F
100
AcDbEntity
  8
0
  6
Continuous
 62
     7
370
    25
100
AcDbSpline
210
0.0
220
0.0
230
1.0
 70
     8
 71
     3
 72
    12
 73
     8
 74
     0
 42
0.00000001
 43
0.00000001
 40
0.0
 40
0.0
 40
0.0
 40
0.0
 40
0.213353439547614
 40
0.4267919313634506
 40
0.6383539739091527
 40
0.8490950351927626
 40
1.0
 40
1.0
 40
1.0
 40
1.0
 10
234.1695057691664
 20
152.8712840944565
 30
0.0
 10
234.1250405602248
 20
152.9424156144101
 30
0.0
 10
234.0360924165111
 20
153.0847070105376
 30
0.0
 10
233.8222818276214
 20
153.2283000973367
 30
0.0
 10
233.5791688293006
 20
153.2961423279109
 30
0.0
 10
233.3490074839678
 20
153.2850604543649
 30
0.0
 10
233.218360867547
 20
153.230970879268
 30
0.0
 10
233.1638456188486
 20
153.2084007835458
 30
0.0
  0
SPLINE
  5
14A
330
1F
100
AcDbEntity
  8
0
  6
Continuous
 62
     7
370
    25
100
AcDbSpline
210
0.0
220
0.0
230
1.0
 70
     8
 71
     3
 72
    12
 73
     8
 74
     0
 42
0.00000001
 43
0.00000001
 40
0.0
 40
0.0
 40
0.0
 40
0.0
 40
0.2133534395476105
 40
0.4267919313634449
 40
0.6383539739091452
 40
0.849095035192753
 40
1.0
 40
1.0
 40
1.0
 40
1.0
 10
234.0403490104808
 20
155.8231171743724
 30
0.0
 10
234.0848142194224
 20
155.7519856544187
 30
0.0
 10
234.1737623631362
 20
155.6096942582913
 30
0.0
 10
234.3875729520258
 20
155.4661011714922
 30
0.0
 10
234.6306859503467
 20
155.398258940918
 30
0.0
 10
234.8608472956794
 20
155.4093408144639
 30
0.0
 10
234.9914939121002
 20
155.4634303895608
 30
0.0
 10
235.0460091607987
 20
155.4860004852831
 30
0.0
  0
CIRCLE
  5
14B
330
1F
100
AcDbEntity
  8
0
  6
Continuous
 62
     7
370
    25
100
AcDbCircle
 10
234.1049273898
 20
154.3472006344
 30
0.0
 40
4.499999999999976
  0
LINE
  5
14C
330
1F
100
AcDbEntity
  8
0
  6
Continuous
 62
     7
370
    25
100
AcDbLine
 10
27.0448649193
 20
152.6512812325
 30
0.0
 11
26.5100301504
 21
153.725502704
 31
0.0
  0
LINE
  5
14D
330
1F
100
AcDbEntity
  8
0
  6
Continuous
 62
     7
370
    25
100
AcDbLine
 10
28.1638456188
 20
153.2084007835
 30
0.0
 11
27.0448649193
 21
152.6512812325
 31
0.0
  0
SPLINE
  5
14E
330
1F
100
AcDbEntity
  8
0
  6
Continuous
 62
     7
370
    25
100
AcDbSpline
210
0.0
220
0.0
230
1.0
 70
     8
 71
     3
 72
    12
 73
     8
 74
     0
 42
0.00000001
 43
0.00000001
 40
0.0
 40
0.0
 40
0.0
 40
0.0
 40
0.2133534395476116
 40
0.4267919313634488
 40
0.6383539739091517
 40
0.8490950351927626
 40
1.0
 40
1.0
 40
1.0
 40
1.0
 10
29.16950576916641
 20
152.8712840944543
 30
0.0
 10
29.12504056022472
 20
152.942415614408
 30
0.0
 10
29.03609241651101
 20
153.0847070105355
 30
0.0
 10
28.82228182762142
 20
153.2283000973346
 30
0.0
 10
28.57916882930053
 20
153.2961423279087
 30
0.0
 10
28.34900748396774
 20
153.2850604543628
 30
0.0
 10
28.21836086754701
 20
153.2309708792659
 30
0.0
 10
28.16384561884852
 20
153.2084007835437
 30
0.0
  0
LINE
  5
14F
330
1F
100
AcDbEntity
  8
0
  6
Continuous
 62
     7
370
    25
100
AcDbLine
 10
29.7266253202
 20
151.7523033949
 30
0.0
 11
29.1695057692
 21
152.8712840945
 31
0.0
  0
LINE
  5
150
330
1F
100
AcDbEntity
  8
0
  6
Continuous
 62
     7
370
    25
100
AcDbLine
 10
30.8008467917
 20
152.2871381639
 30
0.0
 11
29.7266253202
 21
151.7523033949
 31
0.0
  0
LINE
  5
151
330
1F
100
AcDbEntity
  8
0
  6
Continuous
 62
     7
370
    25
100
AcDbLine
 10
30.2437272407
 20
153.4061188634
 30
0.0
 11
30.8008467917
 21
152.2871381639
 31
0.0
  0
SPLINE
  5
152
330
1F
100
AcDbEntity
  8
0
  6
Continuous
 62
     7
370
    25
100
AcDbSpline
210
0.0
220
0.0
230
1.0
 70
     8
 71
     3
 72
    12
 73
     8
 74
     0
 42
0.00000001
 43
0.00000001
 40
0.0
 40
0.0
 40
0.0
 40
0.0
 40
0.2133534395476149
 40
0.4267919313634485
 40
0.6383539739091518
 40
0.8490950351927578
 40
1.0
 40
1.0
 40
1.0
 40
1.0
 10
30.58084392978155
 20
154.4117790137551
 30
0.0
 10
30.50971240982789
 20
154.3673138048134
 30
0.0
 10
30.36742101370041
 20
154.2783656610998
 30
0.0
 10
30.22382792690134
 20
154.0645550722101
 30
0.0
 10
30.15598569632713
 20
153.8214420738893
 30
0.0
 10
30.16706756987311
 20
153.5912807285565
 30
0.0
 10
30.22115714496998
 20
153.4606341121357
 30
0.0
 10
30.24372724069221
 20
153.4061188634372
 30
0.0
  0
LINE
  5
153
330
1F
100
AcDbEntity
  8
0
  6
Continuous
 62
     7
370
    25
100
AcDbLine
 10
31.6998246293
 20
154.9688985648
 30
0.0
 11
30.5808439298
 21
154.4117790138
 31
0.0
  0
LINE
  5
154
330
1F
100
AcDbEntity
  8
0
  6
Continuous
 62
     7
370
    25
100
AcDbLine
 10
31.1649898603
 20
156.0431200363
 30
0.0
 11
31.6998246293
 21
154.9688985648
 31
0.0
  0
LINE
  5
155
330
1F
100
AcDbEntity
  8
0
  6
Continuous
 62
     7
370
    25
100
AcDbLine
 10
30.0460091608
 20
155.4860004853
 30
0.0
 11
31.1649898603
 21
156.0431200363
 31
0.0
  0
SPLINE
  5
156
330
1F
100
AcDbEntity
  8
0
  6
Continuous
 62
     7
370
    25
100
AcDbSpline
210
0.0
220
0.0
230
1.0
 70
     8
 71
     3
 72
    12
 73
     8
 74
     0
 42
0.00000001
 43
0.00000001
 40
0.0
 40
0.0
 40
0.0
 40
0.0
 40
0.2133534395476102
 40
0.4267919313634449
 40
0.638353973909145
 40
0.8490950351927532
 40
1.0
 40
1.0
 40
1.0
 40
1.0
 10
29.04034901048075
 20
155.8231171743703
 30
0.0
 10
29.08481421942244
 20
155.7519856544166
 30
0.0
 10
29.17376236313612
 20
155.6096942582891
 30
0.0
 10
29.38757295202576
 20
155.46610117149
 30
0.0
 10
29.63068595034665
 20
155.3982589409159
 30
0.0
 10
29.86084729567939
 20
155.4093408144618
 30
0.0
 10
29.99149391210015
 20
155.4634303895587
 30
0.0
 10
30.04600916079866
 20
155.486000485281
 30
0.0
  0
LINE
  5
157
330
1F
100
AcDbEntity
  8
0
  6
Continuous
 62
     7
370
    25
100
AcDbLine
 10
28.4832294595
 20
156.9420978739
 30
0.0
 11
29.0403490105
 21
155.8231171744
 31
0.0
  0
LINE
  5
158
330
1F
100
AcDbEntity
  8
0
  6
Continuous
 62
     7
370
    25
100
AcDbLine
 10
27.4090079879
 20
156.4072631049
 30
0.0
 11
28.4832294595
 21
156.9420978739
 31
0.0
  0
LINE
  5
159
330
1F
100
AcDbEntity
  8
0
  6
Continuous
 62
     7
370
    25
100
AcDbLine
 10
27.966127539
 20
155.2882824054
 30
0.0
 11
27.4090079879
 21
156.4072631049
 31
0.0
  0
SPLINE
  5
15A
330
1F
100
AcDbEntity
  8
0
  6
Continuous
 62
     7
370
    25
100
AcDbSpline
210
0.0
220
0.0
230
1.0
 70
     8
 71
     3
 72
    12
 73
     8
 74
     0
 42
0.00000001
 43
0.00000001
 40
0.0
 40
0.0
 40
0.0
 40
0.0
 40
0.2133534395476078
 40
0.4267919313634426
 40
0.6383539739091497
 40
0.8490950351927575
 40
1.0
 40
1.0
 40
1.0
 40
1.0
 10
27.62901084986563
 20
154.2826222550694
 30
0.0
 10
27.70014236981927
 20
154.3270874640111
 30
0.0
 10
27.84243376594678
 20
154.4160356077248
 30
0.0
 10
27.98602685274587
 20
154.6298461966145
 30
0.0
 10
28.05386908332003
 20
154.8729591949353
 30
0.0
 10
28.04278720977404
 20
155.1031205402681
 30
0.0
 10
27.98869763467721
 20
155.2337671566889
 30
0.0
 10
27.96612753895497
 20
155.2882824053874
 30
0.0
  0
LINE
  5
15B
330
1F
100
AcDbEntity
  8
0
  6
Continuous
 62
     7
370
    25
100
AcDbLine
 10
26.5100301504
 20
153.725502704
 30
0.0
 11
27.6290108499
 21
154.2826222551
 31
0.0
  0
CIRCLE
  5
15C
330
1F
100
AcDbEntity
  8
0
  6
Continuous
 62
     7
370
    25
100
AcDbCircle
 10
29.1049273898
 20
154.3472006344
 30
0.0
 40
4.197433366238876
  0
CIRCLE
  5
15D
330
1F
100
AcDbEntity
  8
0
  6
Continuous
 62
     7
370
    25
100
AcDbCircle
 10
29.1049273898
 20
154.3472006344
 30
0.0
 40
4.500000000000008
  0
CIRCLE
  5
15E
330
1F
100
AcDbEntity
  8
0
  6
Continuous
 62
     7
370
    25
100
AcDbCircle
 10
29.1049273898
 20
154.3472006344
 30
0.0
 40
5.328914336627595
  0
CIRCLE
  5
15F
330
1F
100
AcDbEntity
  8
0
  6
Continuous
 62
     7
370
    25
100
AcDbCircle
 10
29.1049273898
 20
154.3472006344
 30
0.0
 40
5.074569253689151
  0
CIRCLE
  5
160
330
1F
100
AcDbEntity
  8
0
  6
Continuous
 62
     7
370
    25
100
AcDbCircle
 10
29.1049273898
 20
154.3472006344
 30
0.0
 40
5.925127771161409
  0
CIRCLE
  5
161
330
1F
100
AcDbEntity
  8
0
  6
Continuous
 62
     7
370
    25
100
AcDbCircle
 10
29.1049273898
 20
154.3472006344
 30
0.0
 40
7.150000000000018
  0
SPLINE
  5
162
330
1F
100
AcDbEntity
  8
0
  6
Continuous
 62
     7
370
    25
100
AcDbSpline
210
0.0
220
0.0
230
1.0
 70
     8
 71
     3
 72
    11
 73
     7
 74
     0
 42
0.00000001
 43
0.00000001
 40
0.0
 40
0.0
 40
0.0
 40
0.0
 40
0.2200386424382243
 40
0.6637869905998167
 40
0.8890365590789573
 40
1.0
 40
1.0
 40
1.0
 40
1.0
 10
22.34476671916508
 20
148.6691839546241
 30
0.0
 10
22.14438762424478
 20
148.9371195599156
 30
0.0
 10
21.53990727060143
 20
149.7453965386328
 30
0.0
 10
21.03462519800176
 20
151.0159832362122
 30
0.0
 10
20.79984220274797
 20
152.1860598698867
 30
0.0
 10
20.8279190716926
 20
152.6969879566668
 30
0.0
 10
20.83718553640776
 20
152.865614205465
 30
0.0
  0
SPLINE
  5
163
330
1F
100
AcDbEntity
  8
0
  6
Continuous
 62
     7
370
    25
100
AcDbSpline
210
0.0
220
0.0
230
1.0
 70
     8
 71
     3
 72
     9
 73
     5
 74
     0
 42
0.00000001
 43
0.00000001
 40
0.0
 40
0.0
 40
0.0
 40
0.0
 40
0.9209630919903069
 40
1.0
 40
1.0
 40
1.0
 40
1.0
 10
20.70951338164539
 20
149.0131206875986
 30
0.0
 10
21.22306209110433
 20
148.9488824103349
 30
0.0
 10
21.78068347020773
 20
148.8791312141986
 30
0.0
 10
22.30344895187955
 20
148.6845620961118
 30
0.0
 10
22.34476671916508
 20
148.6691839546241
 30
0.0
  0
SPLINE
  5
164
330
1F
100
AcDbEntity
  8
0
  6
Continuous
 62
     7
370
    25
100
AcDbSpline
210
0.0
220
0.0
230
1.0
 70
     8
 71
     3
 72
    10
 73
     6
 74
     0
 42
0.00000001
 43
0.00000001
 40
0.0
 40
0.0
 40
0.0
 40
0.0
 40
0.2596150688488836
 40
0.629760644481066
 40
1.0
 40
1.0
 40
1.0
 40
1.0
 10
-26.42337763896166
 20
152.2845982899746
 30
0.0
 10
-22.35030327992191
 20
151.9260797483803
 30
0.0
 10
-12.47005270455462
 20
151.0564042368089
 30
0.0
 10
3.245977510559689
 20
150.0038482479784
 30
0.0
 10
14.88784322406361
 20
149.3433910930385
 30
0.0
 10
20.70951338164537
 20
149.0131206875986
 30
0.0
  0
SPLINE
  5
165
330
1F
100
AcDbEntity
  8
0
  6
Continuous
 62
     7
370
    25
100
AcDbSpline
210
0.0
220
0.0
230
1.0
 70
     8
 71
     3
 72
    11
 73
     7
 74
     0
 42
0.00000001
 43
0.00000001
 40
0.0
 40
0.0
 40
0.0
 40
0.0
 40
0.0614641195413915
 40
0.4999988937835375
 40
0.9375097801832794
 40
1.0
 40
1.0
 40
1.0
 40
1.0
 10
-26.34081752513903
 20
158.0100354144672
 30
0.0
 10
-26.35416462928022
 20
157.8937587986592
 30
0.0
 10
-26.46274077672342
 20
156.947870698241
 30
0.0
 10
-26.57234825398017
 20
155.1520201830039
 30
0.0
 10
-26.51472853949935
 20
153.3518042428866
 30
0.0
 10
-26.43352630720034
 20
152.4031600019525
 30
0.0
 10
-26.42337763896166
 20
152.2845982899746
 30
0.0
  0
SPLINE
  5
166
330
1F
100
AcDbEntity
  8
0
  6
Continuous
 62
     7
370
    25
100
AcDbSpline
210
0.0
220
0.0
230
1.0
 70
     8
 71
     3
 72
    10
 73
     6
 74
     0
 42
0.00000001
 43
0.00000001
 40
0.0
 40
0.0
 40
0.0
 40
0.0
 40
0.2594618540778873
 40
0.6296073956705972
 40
0.9999999999999999
 40
0.9999999999999999
 40
0.9999999999999999
 40
0.9999999999999999
 10
20.86680562232523
 20
159.9211341639392
 30
0.0
 10
16.78194838873015
 20
159.8126356023337
 30
0.0
 10
6.869676954186388
 20
159.5493541382848
 30
0.0
 10
-8.87132847694766
 20
158.989472388355
 30
0.0
 10
-20.51635948092823
 20
158.3365870122627
 30
0.0
 10
-26.34081752513903
 20
158.0100354144672
 30
0.0
  0
SPLINE
  5
167
330
1F
100
AcDbEntity
  8
0
  6
Continuous
 62
     7
370
    25
100
AcDbSpline
210
0.0
220
0.0
230
1.0
 70
     8
 71
     3
 72
     9
 73
     5
 74
     0
 42
0.00000001
 43
0.00000001
 40
0.0
 40
0.0
 40
0.0
 40
0.0
 40
0.0790369080192128
 40
1.0
 40
1.0
 40
1.0
 40
1.0
 10
22.51129604566329
 20
160.2177773868606
 30
0.0
 10
22.46955204775214
 20
160.2035969860221
 30
0.0
 10
21.9413937612338
 20
160.0241820621103
 30
0.0
 10
21.38199304010879
 20
159.9705381901373
 30
0.0
 10
20.86680562232523
 20
159.9211341639392
 30
0.0
  0
SPLINE
  5
168
330
1F
100
AcDbEntity
  8
0
  6
Continuous
 62
     7
370
    25
100
AcDbSpline
210
0.0
220
0.0
230
1.0
 70
     8
 71
     3
 72
    11
 73
     7
 74
     0
 42
0.00000001
 43
0.00000001
 40
0.0
 40
0.0
 40
0.0
 40
0.0
 40
0.0728838064943291
 40
0.4140719411596029
 40
0.9209668754550558
 40
0.9999999999999999
 40
0.9999999999999999
 40
0.9999999999999999
 40
0.9999999999999999
 10
20.88334280607545
 20
156.0665611647638
 30
0.0
 10
20.87722091765654
 20
156.1771073580248
 30
0.0
 10
20.84244087057727
 20
156.8051491554161
 30
0.0
 10
21.20683727750497
 20
158.1830304108941
 30
0.0
 10
21.86477048710661
 20
159.44360663445
 30
0.0
 10
22.43445406410466
 20
160.1257642964381
 30
0.0
 10
22.51129604566329
 20
160.2177773868606
 30
0.0
  0
SPLINE
  5
169
330
1F
100
AcDbEntity
  8
0
  6
Continuous
 62
     7
370
    25
100
AcDbSpline
210
0.0
220
0.0
230
1.0
 70
     8
 71
     3
 72
    10
 73
     6
 74
     0
 42
0.00000001
 43
0.00000001
 40
0.0
 40
0.0
 40
0.0
 40
0.0
 40
0.3880207377811383
 40
0.9790637766506861
 40
1.0
 40
1.0
 40
1.0
 40
1.0
 10
20.83718553640776
 20
152.865614205465
 30
0.0
 10
20.9164160916053
 20
153.2753542836038
 30
0.0
 10
21.11633263998725
 20
154.3092208512563
 30
0.0
 10
21.0364060453041
 20
155.4042564141148
 30
0.0
 10
20.88840598786845
 20
156.0446527733575
 30
0.0
 10
20.88334280607545
 20
156.0665611647638
 30
0.0
  0
ARC
  5
16A
330
1F
100
AcDbEntity
  8
0
  6
Continuous
 62
     7
370
    25
100
AcDbCircle
 10
29.1049273898
 20
154.3472006344
 30
0.0
 40
8.399443654264568
100
AcDbArc
 50
190.15961701
 51
168.1881010241
  0
SPLINE
  5
16B
330
1F
100
AcDbEntity
  8
0
  6
Continuous
 62
     7
370
    25
100
AcDbSpline
210
0.0
220
0.0
230
1.0
 70
     8
 71
     3
 72
     9
 73
     5
 74
     0
 42
0.00000001
 43
0.00000001
 40
0.0
 40
0.0
 40
0.0
 40
0.0
 40
0.681792342127427
 40
1.0
 40
1.0
 40
1.0
 40
1.0
 10
22.51129604566329
 20
160.2177773868606
 30
0.0
 10
22.65628301775682
 20
160.4056167905707
 30
0.0
 10
22.86893863609538
 20
160.6811250239485
 30
0.0
 10
23.10169872499957
 20
160.910697237426
 30
0.0
 10
23.17576476773595
 20
160.9837488737894
 30
0.0
  0
ARC
  5
16C
330
1F
100
AcDbEntity
  8
0
  6
Continuous
 62
     7
370
    25
100
AcDbCircle
 10
29.1049273898
 20
154.3472006344
 30
0.0
 40
8.899367501836355
100
AcDbArc
 50
226.5697782131
 51
131.7779398209
  0
LINE
  5
16D
330
1F
100
AcDbEntity
  8
0
  6
Continuous
 62
     7
370
    25
100
AcDbLine
 10
22.986873328
 20
147.8843718088
 30
0.0
 11
22.3447667192
 21
148.6691839546
 31
0.0
  0
SPLINE
  5
16E
330
1F
100
AcDbEntity
  8
0
  6
Continuous
 62
     7
370
    25
100
AcDbSpline
210
0.0
220
0.0
230
1.0
 70
     8
 71
     3
 72
    10
 73
     6
 74
     0
 42
0.00000001
 43
0.00000001
 40
0.0
 40
0.0
 40
0.0
 40
0.0
 40
0.370289668858304
 40
0.7405318123903295
 40
1.0
 40
1.0
 40
1.0
 40
1.0
 10
-26.34595047286861
 20
158.4530150519398
 30
0.0
 10
-20.52187498783906
 20
158.6892568867608
 30
0.0
 10
-8.874471516592264
 20
159.1617102356264
 30
0.0
 10
6.855295861284611
 20
159.8042135827542
 30
0.0
 10
16.75935282019842
 20
160.2101963234545
 30
0.0
 10
20.84025729647276
 20
160.3774789623454
 30
0.0
  0
ARC
  5
16F
330
1F
100
AcDbEntity
  8
0
  6
Continuous
 62
     7
370
    25
100
AcDbCircle
 10
13.615055488
 20
159.7282008128
 30
0.0
 40
7.254316183397575
100
AcDbArc
 50
1.5239989619
 51
5.1349767483
  0
ARC
  5
170
330
1F
100
AcDbEntity
  8
0
  6
Continuous
 62
     7
370
    25
100
AcDbCircle
 10
-22.0874677481
 20
158.2808399055
 30
0.0
 40
4.261961918875074
100
AcDbArc
 50
177.6847295556
 51
183.6430203235
  0
SPLINE
  5
171
330
1F
100
AcDbEntity
  8
0
  6
Continuous
 62
     7
370
    25
100
AcDbSpline
210
0.0
220
0.0
230
1.0
 70
     8
 71
     3
 72
    10
 73
     6
 74
     0
 42
0.00000001
 43
0.00000001
 40
0.0
 40
0.0
 40
0.0
 40
0.0
 40
0.3702717503651153
 40
0.7405122151371757
 40
1.0
 40
1.0
 40
1.0
 40
1.0
 10
20.66981795597897
 20
148.5577311161116
 30
0.0
 10
14.85540118915832
 20
148.9641363217316
 30
0.0
 10
3.227058936519756
 20
149.7769123943328
 30
0.0
 10
-12.47791974093437
 20
150.8722811058691
 30
0.0
 10
-22.36654392649329
 20
151.5589853470323
 30
0.0
 10
-26.44128122268316
 20
151.8419508365093
 30
0.0
  0
ARC
  5
172
330
1F
100
AcDbEntity
  8
0
  6
Continuous
 62
     7
370
    25
100
AcDbCircle
 10
-22.1796046269
 20
151.8912663116
 30
0.0
 40
4.261961921813723
100
AcDbArc
 50
174.704697713
 51
180.6629884768
  0
ARC
  5
173
330
1F
100
AcDbEntity
  8
0
  6
Continuous
 62
     7
370
    25
100
AcDbCircle
 10
13.4663413702
 20
149.4150690705
 30
0.0
 40
7.254316183485948
100
AcDbArc
 50
353.2127412857
 51
356.8237190721
  0
SPLINE
  5
174
330
1F
100
AcDbEntity
  8
0
  6
Continuous
 62
     7
370
    25
100
AcDbSpline
210
0.0
220
0.0
230
1.0
 70
     8
 71
     3
 72
    12
 73
     8
 74
     0
 42
0.00000001
 43
0.00000001
 40
0.0
 40
0.0
 40
0.0
 40
0.0
 40
0.1224290494151368
 40
0.3423522449770475
 40
0.5614228816909442
 40
0.7807229538533511
 40
1.0
 40
1.0
 40
1.0
 40
1.0
 10
-28.3573081072668
 20
152.4231712099058
 30
0.0
 10
-28.34833897578873
 20
152.4206829464578
 30
0.0
 10
-28.32325830815574
 20
152.413724936234
 30
0.0
 10
-28.10753830383764
 20
152.3936045438452
 30
0.0
 10
-27.67205331276482
 20
152.361811276417
 30
0.0
 10
-27.08861449316585
 20
152.3238429040662
 30
0.0
 10
-26.64511549555557
 20
152.2976793701291
 30
0.0
 10
-26.42337763896166
 20
152.2845982899746
 30
0.0
  0
SPLINE
  5
175
330
1F
100
AcDbEntity
  8
0
  6
Continuous
 62
     7
370
    25
100
AcDbSpline
210
0.0
220
0.0
230
1.0
 70
     8
 71
     3
 72
    11
 73
     7
 74
     0
 42
0.00000001
 43
0.00000001
 40
0.0
 40
0.0
 40
0.0
 40
0.0
 40
0.0800485240044431
 40
0.5000005853538799
 40
0.9209248322279648
 40
1.0
 40
1.0
 40
1.0
 40
1.0
 10
-28.35730810726677
 20
152.4231712099058
 30
0.0
 10
-28.35491328482312
 20
152.5693963056806
 30
0.0
 10
-28.33995470015788
 20
153.4827502293176
 30
0.0
 10
-28.31428848941631
 20
155.1769658660241
 30
0.0
 10
-28.29112112065418
 20
156.869434614492
 30
0.0
 10
-28.27973949399945
 20
157.7828288330706
 30
0.0
 10
-28.27793948381771
 20
157.9272826043359
 30
0.0
  0
SPLINE
  5
176
330
1F
100
AcDbEntity
  8
0
  6
Continuous
 62
     7
370
    25
100
AcDbSpline
210
0.0
220
0.0
230
1.0
 70
     8
 71
     3
 72
    12
 73
     8
 74
     0
 42
0.00000001
 43
0.00000001
 40
0.0
 40
0.0
 40
0.0
 40
0.0
 40
0.1130367476169281
 40
0.3328594693547962
 40
0.554412793794501
 40
0.7774207483513247
 40
1.0
 40
1.0
 40
1.0
 40
1.0
 10
-26.34081752513903
 20
158.0100354144672
 30
0.0
 10
-26.45494881915464
 20
158.0066654068904
 30
0.0
 10
-26.79103140082603
 20
157.9967417408494
 30
0.0
 10
-27.32541273887185
 20
157.9788525906867
 30
0.0
 10
-27.84228659993851
 20
157.9584276887034
 30
0.0
 10
-28.19948221165278
 20
157.9401340957749
 30
0.0
 10
-28.25180383944412
 20
157.9315636862631
 30
0.0
 10
-28.27793948381771
 20
157.9272826043359
 30
0.0
  0
SPLINE
  5
177
330
1F
100
AcDbEntity
  8
0
  6
Continuous
 62
     7
370
    25
100
AcDbSpline
210
0.0
220
0.0
230
1.0
 70
     8
 71
     3
 72
     9
 73
     5
 74
     0
 42
0.00000001
 43
0.00000001
 40
0.0
 40
0.0
 40
0.0
 40
0.0
 40
0.5000106123815465
 40
1.0
 40
1.0
 40
1.0
 40
1.0
 10
23.48020292883412
 20
147.4453814724156
 30
0.0
 10
23.05467642609404
 20
147.7393879756397
 30
0.0
 10
22.20364148362888
 20
148.3273885019159
 30
0.0
 10
21.1810852306909
 20
148.4809513311579
 30
0.0
 10
20.66981795597897
 20
148.5577311161116
 30
0.0
  0
SPLINE
  5
178
330
1F
100
AcDbEntity
  8
0
  6
Continuous
 62
     7
370
    25
100
AcDbSpline
210
0.0
220
0.0
230
1.0
 70
     8
 71
     3
 72
     9
 73
     5
 74
     0
 42
0.00000001
 43
0.00000001
 40
0.0
 40
0.0
 40
0.0
 40
0.0
 40
0.9838702326459309
 40
1.0
 40
1.0
 40
1.0
 40
1.0
 10
22.98687332801272
 20
147.8843718087741
 30
0.0
 10
23.14610912267112
 20
147.7372281778418
 30
0.0
 10
23.30795546111575
 20
147.5876722444983
 30
0.0
 10
23.47746871941436
 20
147.4476401574026
 30
0.0
 10
23.48020292883412
 20
147.4453814724156
 30
0.0
  0
SPLINE
  5
179
330
1F
100
AcDbEntity
  8
0
  6
Continuous
 62
     7
370
    25
100
AcDbSpline
210
0.0
220
0.0
230
1.0
 70
     8
 71
     3
 72
     9
 73
     5
 74
     0
 42
0.00000001
 43
0.00000001
 40
0.0
 40
0.0
 40
0.0
 40
0.0
 40
0.5055561057107284
 40
1.0
 40
1.0
 40
1.0
 40
1.0
 10
20.84025729647276
 20
160.3774789623454
 30
0.0
 10
21.35928170698326
 20
160.440658072598
 30
0.0
 10
22.38592228089317
 20
160.5656276052352
 30
0.0
 10
23.25288337587569
 20
161.129519321667
 30
0.0
 10
23.68154699587616
 20
161.408332137897
 30
0.0
  0
SPLINE
  5
17A
330
1F
100
AcDbEntity
  8
0
  6
Continuous
 62
     7
370
    25
100
AcDbSpline
210
0.0
220
0.0
230
1.0
 70
     8
 71
     3
 72
     9
 73
     5
 74
     0
 42
0.00000001
 43
0.00000001
 40
0.0
 40
0.0
 40
0.0
 40
0.0
 40
0.0161297673533285
 40
1.0
 40
1.0
 40
1.0
 40
1.0
 10
23.68154699587619
 20
161.408332137897
 30
0.0
 10
23.67874879689533
 20
161.406153229573
 30
0.0
 10
23.50526836661121
 20
161.2710670701571
 30
0.0
 10
23.33917706010691
 20
161.1262399581618
 30
0.0
 10
23.17576476773595
 20
160.9837488737894
 30
0.0
  0
SPLINE
  5
17B
330
1F
100
AcDbEntity
  8
0
  6
Continuous
 62
     7
370
    25
100
AcDbSpline
210
0.0
220
0.0
230
1.0
 70
     8
 71
     3
 72
    12
 73
     8
 74
     0
 42
0.00000001
 43
0.00000001
 40
0.0
 40
0.0
 40
0.0
 40
0.0
 40
0.2230315344150377
 40
0.4461337558340335
 40
0.667509989677695
 40
0.8870667292264965
 40
1.0
 40
1.0
 40
1.0
 40
1.0
 10
-27.79843719692851
 20
158.4195832036755
 30
0.0
 10
-27.77893269564954
 20
158.4174115073091
 30
0.0
 10
-27.73991751138835
 20
158.4130674262848
 30
0.0
 10
-27.47225604083944
 20
158.416151338169
 30
0.0
 10
-27.08454247518441
 20
158.4261509983649
 30
0.0
 10
-26.68358320562203
 20
158.4397085043736
 30
0.0
 10
-26.43155437021372
 20
158.4496412903895
 30
0.0
 10
-26.34595047286861
 20
158.4530150519398
 30
0.0
  0
ARC
  5
17C
330
1F
100
AcDbEntity
  8
0
  6
Continuous
 62
     7
370
    25
100
AcDbCircle
 10
-27.7778939836
 20
157.9199054058
 30
0.0
 40
0.5000999153469721
100
AcDbArc
 50
92.3542709417
 51
179.1547735553
  0
SPLINE
  5
17D
330
1F
100
AcDbEntity
  8
0
  6
Continuous
 62
     7
370
    25
100
AcDbSpline
210
0.0
220
0.0
230
1.0
 70
     8
 71
     3
 72
    12
 73
     8
 74
     0
 42
0.00000001
 43
0.00000001
 40
0.0
 40
0.0
 40
0.0
 40
0.0
 40
0.2190444340109389
 40
0.4380981679380268
 40
0.6571027493691829
 40
0.877279108729004
 40
1.0
 40
1.0
 40
1.0
 40
1.0
 10
-26.44128122268316
 20
151.8419508365093
 30
0.0
 10
-26.6075543671023
 20
151.8531782060301
 30
0.0
 10
-26.9401077153589
 20
151.8756334217493
 30
0.0
 10
-27.37793918631171
 20
151.9014674174045
 30
0.0
 10
-27.7047080137994
 20
151.9174863435377
 30
0.0
 10
-27.86650876987751
 20
151.9216435486426
 30
0.0
 10
-27.88542872647928
 20
151.9184075780734
 30
0.0
 10
-27.89220006667731
 20
151.9172494434088
 30
0.0
  0
ARC
  5
17E
330
1F
100
AcDbEntity
  8
0
  6
Continuous
 62
     7
370
    25
100
AcDbCircle
 10
-27.8572578033
 20
152.4161271474
 30
0.0
 40
0.500099915346942
100
AcDbArc
 50
179.1929444793
 51
265.9934470923
  0
LINE
  5
17F
330
1F
100
AcDbEntity
  8
0
  6
Continuous
 62
     7
370
    25
100
AcDbLine
 10
20.8402572965
 20
160.3774789623
 30
0.0
 11
20.8143018103
 21
160.4491509241
 31
0.0
  0
LINE
  5
180
330
1F
100
AcDbEntity
  8
0
  6
Continuous
 62
     7
370
    25
100
AcDbLine
 10
-27.8030630747
 20
158.4240888228
 30
0.0
 11
-27.7984371969
 21
158.4195832037
 31
0.0
  0
ELLIPSE
  5
181
330
1F
100
AcDbEntity
  8
0
  6
Continuous
 62
     7
370
    25
100
AcDbEllipse
 10
-26.3022464914
 20
158.4857483376
 30
0.0
 11
1.501038268487992
 21
0.0612364579034761
 31
0.0
210
0.0
220
0.0
230
1.0
 40
0.0174284859
 41
2.255125316696467
 42
3.158083049612417
  0
LINE
  5
182
330
1F
100
AcDbEntity
  8
0
  6
Continuous
 62
     7
370
    25
100
AcDbLine
 10
-23.7838833459
 20
158.6582151352
 30
0.0
 11
-27.2519596337
 21
158.4673080553
 31
0.0
  0
LINE
  5
183
330
1F
100
AcDbEntity
  8
0
  6
Continuous
 62
     7
370
    25
100
AcDbLine
 10
-23.7838847646
 20
158.6581167542
 30
0.0
 11
-23.7838833459
 21
158.6582151352
 31
0.0
  0
ELLIPSE
  5
184
330
1F
100
AcDbEntity
  8
0
  6
Continuous
 62
     7
370
    25
100
AcDbEllipse
 10
-14.3306276579
 20
158.851482247
 30
0.0
 11
14.51003659538378
 21
0.5919524264002973
 31
0.0
210
0.0
220
0.0
230
1.0
 40
0.0174284859
 41
1.543516838852418
 42
2.279642175408145
  0
ELLIPSE
  5
185
330
1F
100
AcDbEntity
  8
0
  6
Continuous
 62
     7
370
    25
100
AcDbEllipse
 10
-12.9960535118
 20
159.7826201903
 30
0.0
 11
35.72735421573403
 21
1.457535539475941
 31
0.0
210
0.0
220
0.0
230
1.0
 40
0.0174284859
 41
4.685109492442214
 42
5.167309992307974
  0
ELLIPSE
  5
186
330
1F
100
AcDbEntity
  8
0
  6
Continuous
 62
     7
370
    25
100
AcDbEllipse
 10
6.027566151
 20
159.8807366602
 30
0.0
 11
7.505191342439905
 21
0.3061822895174374
 31
0.0
210
0.0
220
0.0
230
1.0
 40
0.0174284859
 41
1.834826681007979
 42
2.025717338718002
  0
LINE
  5
187
330
1F
100
AcDbEntity
  8
0
  6
Continuous
 62
     7
370
    25
100
AcDbLine
 10
4.0812077044
 20
159.7764447047
 30
0.0
 11
4.0637598744
 21
159.9271024796
 31
0.0
  0
SPLINE
  5
188
330
1F
100
AcDbEntity
  8
0
  6
Continuous
 62
     7
370
    25
100
AcDbSpline
210
0.0
220
0.0
230
1.0
 70
     8
 71
     3
 72
    10
 73
     6
 74
     0
 42
0.00000001
 43
0.00000001
 40
0.0
 40
0.0
 40
0.0
 40
0.0
 40
0.0186368637457652
 40
0.3939469944633239
 40
1.0
 40
1.0
 40
1.0
 40
1.0
 10
4.264966899627076
 20
159.7742813370351
 30
0.0
 10
4.262509682481985
 20
159.7742290102085
 30
0.0
 10
4.210568898761147
 20
159.7731229230269
 30
0.0
 10
4.106542219998566
 20
159.7719427152149
 30
0.0
 10
4.09088006370939
 20
159.7747259088569
 30
0.0
 10
4.081207704374118
 20
159.7764447046924
 30
0.0
  0
LINE
  5
189
330
1F
100
AcDbEntity
  8
0
  6
Continuous
 62
     7
370
    25
100
AcDbLine
 10
20.8143018103
 20
160.4491509241
 30
0.0
 11
4.2649668996
 21
159.774281337
 31
0.0
  0
LINE
  5
18A
330
1F
100
AcDbEntity
  8
0
  6
Continuous
 62
     7
370
    25
100
AcDbLine
 10
4.1165125336
 20
149.6224337701
 30
0.0
 11
20.6355354678
 21
148.4709420499
 31
0.0
  0
SPLINE
  5
18B
330
1F
100
AcDbEntity
  8
0
  6
Continuous
 62
     7
370
    25
100
AcDbSpline
210
0.0
220
0.0
230
1.0
 70
     8
 71
     3
 72
    11
 73
     7
 74
     0
 42
0.00000001
 43
0.00000001
 40
0.0
 40
0.0
 40
0.0
 40
0.0
 40
0.4177469294495101
 40
0.8392770662410695
 40
0.9817832068819569
 40
1.0
 40
1.0
 40
1.0
 40
1.0
 10
3.932845646014621
 20
149.6264318100674
 30
0.0
 10
3.937497809889001
 20
149.6274480302179
 30
0.0
 10
3.946844268648941
 20
149.6294896736305
 30
0.0
 10
4.022315553078304
 20
149.6271990849271
 30
0.0
 10
4.092532829081313
 20
149.6237157760847
 30
0.0
 10
4.114071302010664
 20
149.6225642835291
 30
0.0
 10
4.116512533614975
 20
149.6224337700973
 30
0.0
  0
LINE
  5
18C
330
1F
100
AcDbEntity
  8
0
  6
Continuous
 62
     7
370
    25
100
AcDbLine
 10
3.913281905
 20
149.4916499031
 30
0.0
 11
3.932845646
 21
149.6264318101
 31
0.0
  0
ELLIPSE
  5
18D
330
1F
100
AcDbEntity
  8
0
  6
Continuous
 62
     7
370
    25
100
AcDbEllipse
 10
5.8776085724
 20
149.4813725186
 30
0.0
 11
7.493242450720749
 21
-0.5224578985576329
 31
0.0
210
0.0
220
0.0
230
1.0
 40
0.0174284859
 41
4.257467968461713
 42
4.448358626171725
  0
ELLIPSE
  5
18E
330
1F
100
AcDbEntity
  8
0
  6
Continuous
 62
     7
370
    25
100
AcDbEllipse
 10
-13.135272394
 20
150.1279707469
 30
0.0
 11
35.67047328259635
 21
-2.487083613581632
 31
0.0
210
0.0
220
0.0
230
1.0
 40
0.0174284859
 41
1.115875314871774
 42
1.598075814737373
  0
ELLIPSE
  5
18F
330
1F
100
AcDbEntity
  8
0
  6
Continuous
 62
     7
370
    25
100
AcDbEllipse
 10
-14.4424434403
 20
151.0972023377
 30
0.0
 11
14.48693540472676
 21
-1.010085270544778
 31
0.0
210
0.0
220
0.0
230
1.0
 40
0.0174284859
 41
4.003543131771989
 42
4.739668468327165
  0
LINE
  5
190
330
1F
100
AcDbEntity
  8
0
  6
Continuous
 62
     7
370
    25
100
AcDbLine
 10
-23.8861960412
 20
151.5629620332
 30
0.0
 11
-23.8861946225
 21
151.5630604142
 31
0.0
  0
LINE
  5
191
330
1F
100
AcDbEntity
  8
0
  6
Continuous
 62
     7
370
    25
100
AcDbLine
 10
-27.3473258047
 20
151.8537874299
 30
0.0
 11
-23.8861960412
 21
151.5629620332
 31
0.0
  0
ELLIPSE
  5
192
330
1F
100
AcDbEntity
  8
0
  6
Continuous
 62
     7
370
    25
100
AcDbEllipse
 10
-26.3985392362
 20
151.8079710104
 30
0.0
 11
1.498648490144138
 21
-0.1044915797115494
 31
0.0
210
0.0
220
0.0
230
1.0
 40
0.0174284859
 41
3.125102257571502
 42
4.02805999048466
  0
LINE
  5
193
330
1F
100
AcDbEntity
  8
0
  6
Continuous
 62
     7
370
    25
100
AcDbLine
 10
-27.8922000667
 20
151.9172494434
 30
0.0
 11
-27.8969539351
 21
151.9128790791
 31
0.0
  0
LINE
  5
194
330
1F
100
AcDbEntity
  8
0
  6
Continuous
 62
     7
370
    25
100
AcDbLine
 10
20.6355354678
 20
148.4709420499
 30
0.0
 11
20.669817956
 21
148.5577311161
 31
0.0
  0
SPLINE
  5
195
330
1F
100
AcDbEntity
  8
0
  6
Continuous
 62
     7
370
    25
100
AcDbSpline
210
0.0
220
0.0
230
1.0
 70
     8
 71
     3
 72
     9
 73
     5
 74
     0
 42
0.00000001
 43
0.00000001
 40
0.0
 40
0.0
 40
0.0
 40
0.0
 40
0.50010212767047
 40
1.0
 40
1.0
 40
1.0
 40
1.0
 10
23.64927874721598
 20
161.4744957184692
 30
0.0
 10
23.21624432508862
 20
161.1941846010891
 30
0.0
 10
22.35035234389576
 20
160.63367685303
 30
0.0
 10
21.32624892864868
 20
160.5106511908627
 30
0.0
 10
20.81430181032123
 20
160.4491509241032
 30
0.0
  0
LINE
  5
196
330
1F
100
AcDbEntity
  8
0
  6
Continuous
 62
     7
370
    25
100
AcDbLine
 10
23.6492787472
 20
161.4744957185
 30
0.0
 11
23.6815469959
 21
161.4083321379
 31
0.0
  0
SPLINE
  5
197
330
1F
100
AcDbEntity
  8
0
  6
Continuous
 62
     7
370
    25
100
AcDbSpline
210
0.0
220
0.0
230
1.0
 70
     8
 71
     3
 72
     9
 73
     5
 74
     0
 42
0.00000001
 43
0.00000001
 40
0.0
 40
0.0
 40
0.0
 40
0.0
 40
0.4007227371565282
 40
1.0
 40
1.0
 40
1.0
 40
1.0
 10
20.63553546776695
 20
148.4709420498897
 30
0.0
 10
21.04348115382121
 20
148.4166472276897
 30
0.0
 10
22.06150595807596
 20
148.2811549853846
 30
0.0
 10
22.92241582137222
 20
147.7085752661358
 30
0.0
 10
23.43833952780336
 20
147.3654412592247
 30
0.0
  0
LINE
  5
198
330
1F
100
AcDbEntity
  8
0
  6
Continuous
 62
     7
370
    25
100
AcDbLine
 10
23.4802029288
 20
147.4453814724
 30
0.0
 11
23.4383395278
 21
147.3654412592
 31
0.0
  0
ARC
  5
199
330
1F
100
AcDbEntity
  8
0
  6
Continuous
 62
     7
370
    25
100
AcDbCircle
 10
29.1049273898
 20
154.3472006344
 30
0.0
 40
8.975658044222078
100
AcDbArc
 50
64.3387444117
 51
127.4325569999
  0
LWPOLYLINE
  5
19A
330
1F
100
AcDbEntity
  8
0
  6
Continuous
 62
     7
370
    25
100
AcDbPolyline
 90
        3
 70
   128
 43
0.0
 10
33.1587928895
 20
162.5402618527
 10
33.0532669442
 20
162.4755242252
 10
32.9918330666
 20
162.4375900927
  0
ARC
  5
19B
330
1F
100
AcDbEntity
  8
0
  6
Continuous
 62
     7
370
    25
100
AcDbCircle
 10
29.1049273898
 20
154.3472006344
 30
0.0
 40
9.141120151092165
100
AcDbArc
 50
294.6735754346
 51
63.6741384459
  0
LWPOLYLINE
  5
19C
330
1F
100
AcDbEntity
  8
0
  6
Continuous
 62
     7
370
    25
100
AcDbPolyline
 90
        3
 70
   128
 43
0.0
 10
32.7730817719
 20
146.1374609674
 10
32.8172551446
 20
146.1084111436
 10
32.9208705853
 20
146.0406577223
  0
ARC
  5
19D
330
1F
100
AcDbEntity
  8
0
  6
Continuous
 62
     7
370
    25
100
AcDbCircle
 10
29.1049273898
 20
154.3472006344
 30
0.0
 40
8.991950954660759
100
AcDbArc
 50
230.936266164
 51
294.0753401836
  0
LINE
  5
19E
330
1F
100
AcDbEntity
  8
0
  6
Continuous
 62
     7
370
    25
100
AcDbLine
 10
-28.3620619757
 20
152.4188008456
 30
0.0
 11
-28.3573081073
 21
152.4231712099
 31
0.0
  0
LINE
  5
19F
330
1F
100
AcDbEntity
  8
0
  6
Continuous
 62
     7
370
    25
100
AcDbLine
 10
-28.2825653616
 20
157.9317882234
 30
0.0
 11
-28.3620619757
 21
152.4188008456
 31
0.0
  0
LINE
  5
1A0
330
1F
100
AcDbEntity
  8
0
  6
Continuous
 62
     7
370
    25
100
AcDbLine
 10
-28.2779394838
 20
157.9272826043
 30
0.0
 11
-28.2825653616
 21
157.9317882234
 31
0.0
  0
ARC
  5
1A1
330
1F
100
AcDbEntity
  8
0
  6
Continuous
 62
     7
370
    25
100
AcDbCircle
 10
-27.8620116717
 20
152.4117567831
 30
0.0
 40
0.5000999153469562
100
AcDbArc
 50
179.1929444787
 51
265.9934470923
  0
ARC
  5
1A2
330
1F
100
AcDbEntity
  8
0
  6
Continuous
 62
     7
370
    25
100
AcDbCircle
 10
-27.7825198614
 20
157.9244110249
 30
0.0
 40
0.5000999153469706
100
AcDbArc
 50
92.3542709417
 51
179.1547735553
  0
LINE
  5
1A3
330
1F
100
AcDbEntity
  8
0
  6
Continuous
 62
     7
370
    25
100
AcDbLine
 10
-27.3473258047
 20
151.8537874299
 30
0.0
 11
-27.3544275045
 21
151.8542569104
 31
0.0
  0
LINE
  5
1A4
330
1F
100
AcDbEntity
  8
0
  6
Continuous
 62
     7
370
    25
100
AcDbLine
 10
-27.2519596337
 20
158.4673080553
 30
0.0
 11
-27.2590719177
 21
158.4670435388
 31
0.0
  0
SPLINE
  5
1A5
330
1F
100
AcDbEntity
  8
0
  6
Continuous
 62
     7
370
    25
100
AcDbSpline
210
0.0
220
0.0
230
1.0
 70
     8
 71
     3
 72
    12
 73
     8
 74
     0
 42
0.00000001
 43
0.00000001
 40
0.0
 40
0.0
 40
0.0
 40
0.0
 40
0.1662426524176547
 40
0.3368059756191301
 40
0.6054181071254592
 40
0.8801435087136191
 40
1.0
 40
1.0
 40
1.0
 40
1.0
 10
23.15186306587397
 20
166.110917404693
 30
0.0
 10
23.78723645481398
 20
165.9462540570557
 30
0.0
 10
25.07449667974562
 20
165.612647737359
 30
0.0
 10
27.24889713214687
 20
164.9182591171446
 30
0.0
 10
29.59833867720377
 20
164.0320969411156
 30
0.0
 10
31.55152257996038
 20
163.161215985277
 30
0.0
 10
32.6574267448648
 20
162.6073549714105
 30
0.0
 10
32.99335141677209
 20
162.4391165423768
 30
0.0
  0
LINE
  5
1A6
330
1F
100
AcDbEntity
  8
0
  6
Continuous
 62
     7
370
    25
100
AcDbLine
 10
23.1518630659
 20
166.1109174047
 30
0.0
 11
23.1687211902
 21
166.1801550667
 31
0.0
  0
ARC
  5
1A7
330
1F
100
AcDbEntity
  8
0
  6
Continuous
 62
     7
370
    25
100
AcDbCircle
 10
11.7708025762
 20
119.3679936473
 30
0.0
 40
48.17977797259054
100
AcDbArc
 50
63.6457069293
 51
76.3157780851
  0
LWPOLYLINE
  5
1A8
330
1F
100
AcDbEntity
  8
0
  6
Continuous
 62
     7
370
    25
100
AcDbPolyline
 90
        3
 70
   128
 43
0.0
 10
32.9933514168
 20
162.4391165424
 10
33.0532741248
 20
162.4757800687
 10
33.1587929114
 20
162.5402633916
  0
SPLINE
  5
1A9
330
1F
100
AcDbEntity
  8
0
  6
Continuous
 62
     7
370
    25
100
AcDbSpline
210
0.0
220
0.0
230
1.0
 70
     8
 71
     3
 72
    11
 73
     7
 74
     0
 42
0.00000001
 43
0.00000001
 40
0.0
 40
0.0
 40
0.0
 40
0.0
 40
0.1345990676765945
 40
0.4126978815969499
 40
0.6969472592954593
 40
0.9999999999999999
 40
0.9999999999999999
 40
0.9999999999999999
 40
0.9999999999999999
 10
32.99262322222546
 20
162.4383853996865
 30
0.0
 10
32.56611406495685
 20
162.635439340022
 30
0.0
 10
31.25838267628661
 20
163.239631814313
 30
0.0
 10
28.89179457033406
 20
163.8962903262376
 30
0.0
 10
25.84385117621699
 20
164.3167831270359
 30
0.0
 10
23.6534403599713
 20
164.3755127371897
 30
0.0
 10
22.52317029907472
 20
164.405817700785
 30
0.0
  0
ARC
  5
1AA
330
1F
100
AcDbEntity
  8
0
  6
Continuous
 62
     7
370
    25
100
AcDbCircle
 10
27.0062974334
 20
163.7212830653
 30
0.0
 40
4.535087272518611
100
AcDbArc
 50
148.2023216577
 51
171.3184857153
  0
LINE
  5
1AB
330
1F
100
AcDbEntity
  8
0
  6
Continuous
 62
     7
370
    25
100
AcDbLine
 10
32.9933514168
 20
162.4391165424
 30
0.0
 11
32.9926232222
 21
162.4383853997
 31
0.0
  0
LINE
  5
1AC
330
1F
100
AcDbEntity
  8
0
  6
Continuous
 62
     7
370
    25
100
AcDbLine
 10
23.6492787472
 20
161.4744957185
 30
0.0
 11
21.4918210083
 21
164.2930126252
 31
0.0
  0
ARC
  5
1AD
330
1F
100
AcDbEntity
  8
0
  6
Continuous
 62
     7
370
    25
100
AcDbCircle
 10
29.1049273898
 20
154.3472006344
 30
0.0
 40
12.52511736202727
100
AcDbArc
 50
127.0321658872
 51
127.4325569999
  0
LINE
  5
1AE
330
1F
100
AcDbEntity
  8
0
  6
Continuous
 62
     7
370
    25
100
AcDbLine
 10
22.5231702991
 20
164.4058177008
 30
0.0
 11
21.5615090902
 21
164.3459708233
 31
0.0
  0
LINE
  5
1AF
330
1F
100
AcDbEntity
  8
0
  6
Continuous
 62
     7
370
    25
100
AcDbLine
 10
32.9918330666
 20
162.4375900927
 30
0.0
 11
32.9926232222
 21
162.4383853997
 31
0.0
  0
LINE
  5
1B0
330
1F
100
AcDbEntity
  8
0
  6
Continuous
 62
     7
370
    25
100
AcDbLine
 10
18.568141083
 20
163.9099635325
 30
0.0
 11
20.6696776966
 21
163.9956626349
 31
0.0
  0
LINE
  5
1B1
330
1F
100
AcDbEntity
  8
0
  6
Continuous
 62
     7
370
    25
100
AcDbLine
 10
20.8143018103
 20
160.4491509241
 30
0.0
 11
20.6696776966
 21
163.9956626349
 31
0.0
  0
SPLINE
  5
1B2
330
1F
100
AcDbEntity
  8
0
  6
Continuous
 62
     7
370
    25
100
AcDbSpline
210
0.0
220
0.0
230
1.0
 70
     8
 71
     3
 72
    16
 73
    12
 74
     0
 42
0.00000001
 43
0.00000001
 40
0.0
 40
0.0
 40
0.0
 40
0.0
 40
0.2861254310575656
 40
0.759120362308542
 40
0.852075831385844
 40
0.9266344548631251
 40
0.9604862301433729
 40
0.9835335436569237
 40
0.9930756629548352
 40
0.9972242292023616
 40
1.0
 40
1.0
 40
1.0
 40
1.0
 10
17.12006517564357
 20
163.4066464401623
 30
0.0
 10
15.88440329247334
 20
162.8943421199961
 30
0.0
 10
12.60606451295293
 20
161.53514577139
 30
0.0
 10
8.794202617039948
 20
160.5721945451691
 30
0.0
 10
5.988729805192882
 20
160.0506704896608
 30
0.0
 10
5.121459121005229
 20
159.9086578503435
 30
0.0
 10
4.594651262433358
 20
159.8277244876882
 30
0.0
 10
4.360449398990912
 20
159.7919882008526
 30
0.0
 10
4.282600852819479
 20
159.7787893098243
 30
0.0
 10
4.266467035011823
 20
159.7752878307477
 30
0.0
 10
4.265396176503289
 20
159.7745693540243
 30
0.0
 10
4.264966899627076
 20
159.7742813370351
 30
0.0
  0
LINE
  5
1B3
330
1F
100
AcDbEntity
  8
0
  6
Continuous
 62
     7
370
    25
100
AcDbLine
 10
18.568141083
 20
163.9099635325
 30
0.0
 11
17.1200651756
 21
163.4066464402
 31
0.0
  0
ARC
  5
1B4
330
1F
100
AcDbEntity
  8
0
  6
Continuous
 62
     7
370
    25
100
AcDbCircle
 10
11.265198241
 20
159.8815953293
 30
0.0
 40
6.834138728220882
100
AcDbArc
 50
31.0509661473
 51
46.1226597598
  0
SPLINE
  5
1B5
330
1F
100
AcDbEntity
  8
0
  6
Continuous
 62
     7
370
    25
100
AcDbSpline
210
0.0
220
0.0
230
1.0
 70
     8
 71
     3
 72
    10
 73
     6
 74
     0
 42
0.00000001
 43
0.00000001
 40
0.0
 40
0.0
 40
0.0
 40
0.0
 40
0.5975855365574226
 40
0.9790563563181841
 40
1.0
 40
1.0
 40
1.0
 40
1.0
 10
4.155084612178866
 20
159.7849936725683
 30
0.0
 10
4.152511820072702
 20
159.7812910854529
 30
0.0
 10
4.148296677116719
 20
159.7752249388874
 30
0.0
 10
4.222654643406293
 20
159.7737761079645
 30
0.0
 10
4.262873700506126
 20
159.774256343212
 30
0.0
 10
4.264966899627049
 20
159.7742813370351
 30
0.0
  0
SPLINE
  5
1B6
330
1F
100
AcDbEntity
  8
0
  6
Continuous
 62
     7
370
    25
100
AcDbSpline
210
0.0
220
0.0
230
1.0
 70
     8
 71
     3
 72
    14
 73
    10
 74
     0
 42
0.00000001
 43
0.00000001
 40
0.0
 40
0.0
 40
0.0
 40
0.0
 40
0.0129036569231466
 40
0.0519665716781155
 40
0.1318891824261208
 40
0.2280032005552162
 40
0.4679440229400839
 40
0.707911556449362
 40
1.0
 40
1.0
 40
1.0
 40
1.0
 10
4.155084612178866
 20
159.7849936725683
 30
0.0
 10
4.188662821398237
 20
159.7923552684683
 30
0.0
 10
4.323891495456561
 20
159.8220024377383
 30
0.0
 10
4.764595461190041
 20
159.9180402306661
 30
0.0
 10
5.578856833322959
 20
160.1087212304336
 30
0.0
 10
7.238896250256921
 20
160.5518828978092
 30
0.0
 10
9.595017407590529
 20
161.3554520367809
 30
0.0
 10
12.76061834911216
 20
162.7548949103053
 30
0.0
 10
14.85324375665323
 20
164.0802312925304
 30
0.0
 10
16.00205464230625
 20
164.8078153396158
 30
0.0
  0
LWPOLYLINE
  5
1B7
330
1F
100
AcDbEntity
  8
0
  6
Continuous
 62
     7
370
    25
100
AcDbPolyline
 90
        4
 70
   128
 43
0.0
 10
4.1377383815
 20
159.9363550874
 10
4.1397325074
 20
159.918966381
 10
4.1477055007
 20
159.8494114469
 10
4.1550846122
 20
159.7849936726
  0
LINE
  5
1B8
330
1F
100
AcDbEntity
  8
0
  6
Continuous
 62
     7
370
    25
100
AcDbLine
 10
5.9318698803
 20
160.3400560847
 30
0.0
 11
4.1377383815
 21
159.9363550874
 31
0.0
  0
ARC
  5
1B9
330
1F
100
AcDbEntity
  8
0
  6
Continuous
 62
     7
370
    25
100
AcDbCircle
 10
-1.8141483965
 20
190.8806094166
 30
0.0
 40
31.50755777528336
100
AcDbArc
 50
284.2318562649
 51
304.3457884339
  0
LINE
  5
1BA
330
1F
100
AcDbEntity
  8
0
  6
Continuous
 62
     7
370
    25
100
AcDbLine
 10
16.0020546423
 20
164.8078153396
 30
0.0
 11
15.9619762564
 21
164.866467315
 31
0.0
  0
SPLINE
  5
1BB
330
1F
100
AcDbEntity
  8
0
  6
Continuous
 62
     7
370
    25
100
AcDbSpline
210
0.0
220
0.0
230
1.0
 70
     8
 71
     3
 72
     9
 73
     5
 74
     0
 42
0.00000001
 43
0.00000001
 40
0.0
 40
0.0
 40
0.0
 40
0.0
 40
0.4998978730609703
 40
1.0
 40
1.0
 40
1.0
 40
1.0
 10
20.66967769662228
 20
163.9956626348538
 30
0.0
 10
20.81814508988
 20
164.0134901666468
 30
0.0
 10
21.11514053886776
 20
164.0491525144056
 30
0.0
 10
21.36624375556845
 20
164.2117148536191
 30
0.0
 10
21.49182100832175
 20
164.2930126252199
 30
0.0
  0
ARC
  5
1BC
330
1F
100
AcDbEntity
  8
0
  6
Continuous
 62
     7
370
    25
100
AcDbCircle
 10
4.0608205329
 20
160.2761052989
 30
0.0
 40
0.5000763403793731
100
AcDbArc
 50
272.3364886569
 51
280.8652225787
  0
ARC
  5
1BD
330
1F
100
AcDbEntity
  8
0
  6
Continuous
 62
     7
370
    25
100
AcDbCircle
 10
12.7865919352
 20
189.8116720459
 30
0.0
 40
48.10950076354638
100
AcDbArc
 50
282.0319399489
 51
282.2805223384
  0
SPLINE
  5
1BE
330
1F
100
AcDbEntity
  8
0
  6
Continuous
 62
     7
370
    25
100
AcDbSpline
210
0.0
220
0.0
230
1.0
 70
     8
 71
     3
 72
    12
 73
     8
 74
     0
 42
0.00000001
 43
0.00000001
 40
0.0
 40
0.0
 40
0.0
 40
0.0
 40
0.0460732444350173
 40
0.2494607408078313
 40
0.4779405209378891
 40
0.7057893369168756
 40
1.0
 40
1.0
 40
1.0
 40
1.0
 10
32.77429751628613
 20
146.136168960373
 30
0.0
 10
32.64507240264095
 20
146.0755204754061
 30
0.0
 10
31.94539099369717
 20
145.7471429935456
 30
0.0
 10
30.5773579623603
 20
145.1482634639889
 30
0.0
 10
28.55596630292909
 20
144.3696031648134
 30
0.0
 10
26.04844931944839
 20
143.5335926820522
 30
0.0
 10
24.11116760980209
 20
143.0663398420853
 30
0.0
 10
23.01939749694482
 20
142.8030158849739
 30
0.0
  0
LWPOLYLINE
  5
1BF
330
1F
100
AcDbEntity
  8
0
  6
Continuous
 62
     7
370
    25
100
AcDbPolyline
 90
        3
 70
   128
 43
0.0
 10
32.7742975163
 20
146.1361689604
 10
32.8172549453
 20
146.1081551994
 10
32.9208705628
 20
146.0406561834
  0
ARC
  5
1C0
330
1F
100
AcDbEntity
  8
0
  6
Continuous
 62
     7
370
    25
100
AcDbCircle
 10
12.7865919352
 20
189.8116720459
 30
0.0
 40
48.17977797259051
100
AcDbArc
 50
282.0319399489
 51
294.7020103158
  0
LINE
  5
1C1
330
1F
100
AcDbEntity
  8
0
  6
Continuous
 62
     7
370
    25
100
AcDbLine
 10
22.8153509595
 20
142.7590625948
 30
0.0
 11
22.830000731
 21
142.6903292674
 31
0.0
  0
LINE
  5
1C2
330
1F
100
AcDbEntity
  8
0
  6
Continuous
 62
     7
370
    25
100
AcDbLine
 10
22.5940658309
 20
144.7569541204
 30
0.0
 11
23.0193974969
 21
142.803015885
 31
0.0
  0
SPLINE
  5
1C3
330
1F
100
AcDbEntity
  8
0
  6
Continuous
 62
     7
370
    25
100
AcDbSpline
210
0.0
220
0.0
230
1.0
 70
     8
 71
     3
 72
    13
 73
     9
 74
     0
 42
0.00000001
 43
0.00000001
 40
0.0
 40
0.0
 40
0.0
 40
0.0
 40
0.2574896950994371
 40
0.4890886589321037
 40
0.7206004760683484
 40
0.9447506334961278
 40
0.94600322912933
 40
1.0
 40
1.0
 40
1.0
 40
1.0
 10
22.59406583091048
 20
144.7569541204119
 30
0.0
 10
23.51229128264462
 20
144.7156475384093
 30
0.0
 10
25.25641410904564
 20
144.6371877740722
 30
0.0
 10
27.75309279237342
 20
144.7657671952312
 30
0.0
 10
30.07446206959011
 20
145.1457102996241
 30
0.0
 10
31.55861993103975
 20
145.6239180430566
 30
0.0
 10
32.43518678365934
 20
145.98555981622
 30
0.0
 10
32.60635428585034
 20
146.0620802308252
 30
0.0
 10
32.7736411342103
 20
146.1368657995262
 30
0.0
  0
LINE
  5
1C4
330
1F
100
AcDbEntity
  8
0
  6
Continuous
 62
     7
370
    25
100
AcDbLine
 10
32.7736411342
 20
146.1368657995
 30
0.0
 11
32.7742975163
 21
146.1361689604
 31
0.0
  0
LINE
  5
1C5
330
1F
100
AcDbEntity
  8
0
  6
Continuous
 62
     7
370
    25
100
AcDbLine
 10
16.5082387398
 20
146.1527313907
 30
0.0
 11
15.3550879266
 21
144.5190163433
 31
0.0
  0
SPLINE
  5
1C6
330
1F
100
AcDbEntity
  8
0
  6
Continuous
 62
     7
370
    25
100
AcDbSpline
210
0.0
220
0.0
230
1.0
 70
     8
 71
     3
 72
    14
 73
    10
 74
     0
 42
0.00000001
 43
0.00000001
 40
0.0
 40
0.0
 40
0.0
 40
0.0
 40
0.2256458607195968
 40
0.4518169308148963
 40
0.8157761447763443
 40
0.8946140573305367
 40
0.9637846180221664
 40
0.9940799143125681
 40
1.0
 40
1.0
 40
1.0
 40
1.0
 10
15.35508792662493
 20
144.5190163432881
 30
0.0
 10
14.51728665470309
 20
145.0761777204779
 30
0.0
 10
12.83973405920938
 20
146.1917973139757
 30
0.0
 10
9.682413669447055
 20
147.8029293234768
 30
0.0
 10
7.025159465217534
 20
148.794724557599
 30
0.0
 10
5.082352173740034
 20
149.3442419612012
 30
0.0
 10
4.440582952922211
 20
149.508893024259
 30
0.0
 10
4.113755456807117
 20
149.589163752502
 30
0.0
 10
4.021538038200351
 20
149.6120165280402
 30
0.0
 10
4.006463365776342
 20
149.6157522442468
 30
0.0
  0
SPLINE
  5
1C7
330
1F
100
AcDbEntity
  8
0
  6
Continuous
 62
     7
370
    25
100
AcDbSpline
210
0.0
220
0.0
230
1.0
 70
     8
 71
     3
 72
    11
 73
     7
 74
     0
 42
0.00000001
 43
0.00000001
 40
0.0
 40
0.0
 40
0.0
 40
0.0
 40
0.0195561212296058
 40
0.1681891996744693
 40
0.5898876540792642
 40
1.0
 40
1.0
 40
1.0
 40
1.0
 10
4.116512533614975
 20
149.6224337700973
 30
0.0
 10
4.114554861981396
 20
149.6225201192438
 30
0.0
 10
4.097718229531644
 20
149.6232627508562
 30
0.0
 10
4.045835264817665
 20
149.6248574023671
 30
0.0
 10
3.996525631600773
 20
149.6234789256121
 30
0.0
 10
4.003181691311836
 20
149.6183037768682
 30
0.0
 10
4.006463365776342
 20
149.6157522442468
 30
0.0
  0
SPLINE
  5
1C8
330
1F
100
AcDbEntity
  8
0
  6
Continuous
 62
     7
370
    25
100
AcDbSpline
210
0.0
220
0.0
230
1.0
 70
     8
 71
     3
 72
    17
 73
    13
 74
     0
 42
0.00000001
 43
0.00000001
 40
0.0
 40
0.0
 40
0.0
 40
0.0
 40
0.0068263121770688
 40
0.0088448507297258
 40
0.0223990310416127
 40
0.0309593028397539
 40
0.0563218912149141
 40
0.1198824177066675
 40
0.1957460556357055
 40
0.5558621944880034
 40
0.7780336097977201
 40
1.0
 40
1.0
 40
1.0
 40
1.0
 10
4.116512533614975
 20
149.6224337700973
 30
0.0
 10
4.120117333543311
 20
149.6213434983407
 30
0.0
 10
4.124788071776436
 20
149.6199308335385
 30
0.0
 10
4.168206823906257
 20
149.6117139632236
 30
0.0
 10
4.242561561028452
 20
149.5988890483631
 30
0.0
 10
4.409005639456065
 20
149.5707673758102
 30
0.0
 10
4.78969840611726
 20
149.5067571697018
 30
0.0
 10
5.47095394143729
 20
149.3877252101045
 30
0.0
 10
7.57044041414373
 20
148.9902404639703
 30
0.0
 10
10.37393877544121
 20
148.3155707414757
 30
0.0
 10
13.75776472685653
 20
147.2537307805651
 30
0.0
 10
15.59169626503359
 20
146.5196182257441
 30
0.0
 10
16.50823873981352
 20
146.1527313906818
 30
0.0
  0
LINE
  5
1C9
330
1F
100
AcDbEntity
  8
0
  6
Continuous
 62
     7
370
    25
100
AcDbLine
 10
20.6355354678
 20
148.4709420499
 30
0.0
 11
20.4547635009
 21
145.8776309441
 31
0.0
  0
LINE
  5
1CA
330
1F
100
AcDbEntity
  8
0
  6
Continuous
 62
     7
370
    25
100
AcDbLine
 10
20.4547635009
 20
145.8776309441
 30
0.0
 11
16.5082387398
 21
146.1527313907
 31
0.0
  0
LINE
  5
1CB
330
1F
100
AcDbEntity
  8
0
  6
Continuous
 62
     7
370
    25
100
AcDbLine
 10
23.4383395278
 20
147.3654412592
 30
0.0
 11
21.8001094497
 21
145.3469905646
 31
0.0
  0
LINE
  5
1CC
330
1F
100
AcDbEntity
  8
0
  6
Continuous
 62
     7
370
    25
100
AcDbLine
 10
32.7736411342
 20
146.1368657995
 30
0.0
 11
32.7730817719
 21
146.1374609674
 31
0.0
  0
ARC
  5
1CD
330
1F
100
AcDbEntity
  8
0
  6
Continuous
 62
     7
370
    25
100
AcDbCircle
 10
29.1049273898
 20
154.3472006344
 30
0.0
 40
11.59155496206741
100
AcDbArc
 50
230.936266164
 51
235.8272404542
  0
LWPOLYLINE
  5
1CE
330
1F
100
AcDbEntity
  8
0
  6
Continuous
 62
     7
370
    25
100
AcDbPolyline
 90
        4
 70
   128
 43
0.0
 10
4.0064633658
 20
149.6157522442
 10
4.0039710746
 20
149.5984281232
 10
3.993998415
 20
149.5291318478
 10
3.9869628658
 20
149.4802680636
  0
ARC
  5
1CF
330
1F
100
AcDbEntity
  8
0
  6
Continuous
 62
     7
370
    25
100
AcDbCircle
 10
-2.854688556
 20
118.7204950145
 30
0.0
 40
31.57783498432751
100
AcDbArc
 50
54.0019296001
 51
54.7838070274
  0
LINE
  5
1D0
330
1F
100
AcDbEntity
  8
0
  6
Continuous
 62
     7
370
    25
100
AcDbLine
 10
15.7054367678
 20
144.2681252425
 30
0.0
 11
15.6641307755
 21
144.2112683949
 31
0.0
  0
ARC
  5
1D1
330
1F
100
AcDbEntity
  8
0
  6
Continuous
 62
     7
370
    25
100
AcDbCircle
 10
-2.854688556
 20
118.7204950145
 30
0.0
 40
31.50755777528338
100
AcDbArc
 50
54.0019296001
 51
74.1158617691
  0
LINE
  5
1D2
330
1F
100
AcDbEntity
  8
0
  6
Continuous
 62
     7
370
    25
100
AcDbLine
 10
3.9869628658
 20
149.4802680636
 30
0.0
 11
5.7687081826
 21
149.0250033533
 31
0.0
  0
LINE
  5
1D3
330
1F
100
AcDbEntity
  8
0
  6
Continuous
 62
     7
370
    25
100
AcDbLine
 10
4.0637598744
 20
159.9271024796
 30
0.0
 11
4.1377383815
 21
159.9363550874
 31
0.0
  0
SPLINE
  5
1D4
330
1F
100
AcDbEntity
  8
0
  6
Continuous
 62
     7
370
    25
100
AcDbSpline
210
0.0
220
0.0
230
1.0
 70
     8
 71
     3
 72
    10
 73
     6
 74
     0
 42
0.00000001
 43
0.00000001
 40
0.0
 40
0.0
 40
0.0
 40
0.0
 40
0.049076908576164
 40
0.5995805843665305
 40
0.9999999999999999
 40
0.9999999999999999
 40
0.9999999999999999
 40
0.9999999999999999
 10
21.80010944973612
 20
145.3469905645976
 30
0.0
 10
21.78137471713606
 20
145.3618849729819
 30
0.0
 10
21.5524894379654
 20
145.5438523858031
 30
0.0
 10
21.11003666256575
 20
145.7843088272543
 30
0.0
 10
20.64892900307394
 20
145.8499784523874
 30
0.0
 10
20.45476350091815
 20
145.8776309441166
 30
0.0
  0
ARC
  5
1D5
330
1F
100
AcDbEntity
  8
0
  6
Continuous
 62
     7
370
    25
100
AcDbCircle
 10
3.8980598527
 20
149.1275668034
 30
0.0
 40
0.500076340511228
100
AcDbArc
 50
77.4803793549
 51
86.0112290515
  0
SPLINE
  5
1D6
330
1F
100
AcDbEntity
  8
0
  6
Continuous
 62
     7
370
    25
100
AcDbSpline
210
0.0
220
0.0
230
1.0
 70
     8
 71
     3
 72
     9
 73
     5
 74
     0
 42
0.00000001
 43
0.00000001
 40
0.0
 40
0.0
 40
0.0
 40
0.0
 40
0.8458911907784723
 40
1.0
 40
1.0
 40
1.0
 40
1.0
 10
3.986962865798971
 20
149.4802680635767
 30
0.0
 10
3.966179439412326
 20
149.4843829616659
 30
0.0
 10
3.941609581476407
 20
149.4892475330602
 30
0.0
 10
3.917064515850444
 20
149.4913291132906
 30
0.0
 10
3.913281905014582
 20
149.4916499031411
 30
0.0
  0
LINE
  5
1D7
330
1F
100
AcDbEntity
  8
0
  6
Continuous
 62
     7
370
    25
100
AcDbLine
 10
-14.0648939814
 20
150.8172597367
 30
0.0
 11
-14.0644363709
 21
150.8172280489
 31
0.0
  0
LINE
  5
1D8
330
1F
100
AcDbEntity
  8
0
  6
Continuous
 62
     7
370
    25
100
AcDbLine
 10
16.0020546423
 20
164.8078153396
 30
0.0
 11
17.8549789927
 21
165.778166275
 31
0.0
  0
LINE
  5
1D9
330
1F
100
AcDbEntity
  8
0
  6
Continuous
 62
     7
370
    25
100
AcDbLine
 10
18.568141083
 20
163.9099635325
 30
0.0
 11
17.8549789927
 21
165.778166275
 31
0.0
  0
LINE
  5
1DA
330
1F
100
AcDbEntity
  8
0
  6
Continuous
 62
     7
370
    25
100
AcDbLine
 10
21.5615090902
 20
164.3459708233
 30
0.0
 11
21.7121089789
 21
166.3399872042
 31
0.0
  0
LINE
  5
1DB
330
1F
100
AcDbEntity
  8
0
  6
Continuous
 62
     7
370
    25
100
AcDbLine
 10
21.7121089789
 20
166.3399872042
 30
0.0
 11
23.1518630659
 21
166.1109174047
 31
0.0
  0
ARC
  5
1DC
330
1F
100
AcDbEntity
  8
0
  6
Continuous
 62
     7
370
    25
100
AcDbCircle
 10
12.7865919352
 20
189.8116720459
 30
0.0
 40
46.10980537323358
100
AcDbArc
 50
282.0319399489
 51
282.2805223384
  0
LINE
  5
1DD
330
1F
100
AcDbEntity
  8
0
  6
Continuous
 62
     7
370
    25
100
AcDbLine
 10
22.3985005896
 20
144.7148277707
 30
0.0
 11
22.8153509595
 21
142.7590625948
 31
0.0
  0
ARC
  5
1DE
330
1F
100
AcDbEntity
  8
0
  6
Continuous
 62
     7
370
    25
100
AcDbCircle
 10
-2.854688556
 20
118.7204950145
 30
0.0
 40
33.57753037464031
100
AcDbArc
 50
54.0019296001
 51
54.7838070274
  0
ARC
  5
1DF
330
1F
100
AcDbEntity
  8
0
  6
Continuous
 62
     7
370
    25
100
AcDbCircle
 10
20.9539052131
 20
151.4925339555
 30
0.0
 40
6.929946387144286
100
AcDbArc
 50
234.0019296001
 51
282.0319399489
  0
LINE
  5
1E0
330
1F
100
AcDbEntity
  8
0
  6
Continuous
 62
     7
370
    25
100
AcDbLine
 10
16.880773743
 20
145.8859523806
 30
0.0
 11
15.7054367678
 21
144.2681252425
 31
0.0
  0
ARC
  5
1E1
330
1F
100
AcDbEntity
  8
0
  6
Continuous
 62
     7
370
    25
100
AcDbCircle
 10
20.9539052131
 20
151.4925339555
 30
0.0
 40
8.929641777457086
100
AcDbArc
 50
234.0019296001
 51
282.0319399489
  0
ARC
  5
1E2
330
1F
100
AcDbEntity
  8
0
  6
Continuous
 62
     7
370
    25
100
AcDbCircle
 10
21.0396050245
 20
157.4357050487
 30
0.0
 40
6.929946387144279
100
AcDbArc
 50
85.6808843456
 51
110.8937053005
  0
ARC
  5
1E3
330
1F
100
AcDbEntity
  8
0
  6
Continuous
 62
     7
370
    25
100
AcDbCircle
 10
21.0396050245
 20
157.4357050487
 30
0.0
 40
8.929641777457071
100
AcDbArc
 50
85.6808843456
 51
110.8937053005
  0
ARC
  5
1E4
330
1F
100
AcDbEntity
  8
0
  6
Continuous
 62
     7
370
    25
100
AcDbCircle
 10
21.0396050245
 20
157.4357050487
 30
0.0
 40
8.999918986501259
100
AcDbArc
 50
76.3157780851
 51
124.3457884339
  0
ARC
  5
1E5
330
1F
100
AcDbEntity
  8
0
  6
Continuous
 62
     7
370
    25
100
AcDbCircle
 10
20.9539052131
 20
151.4925339555
 30
0.0
 40
8.999918986501218
100
AcDbArc
 50
234.0019296001
 51
282.0319399489
  0
SPLINE
  5
1E6
330
1F
100
AcDbEntity
  8
0
  6
Continuous
 62
     7
370
    25
100
AcDbSpline
210
0.0
220
0.0
230
1.0
 70
     8
 71
     3
 72
    11
 73
     7
 74
     0
 42
0.00000001
 43
0.00000001
 40
0.0
 40
0.0
 40
0.0
 40
0.0
 40
0.2200386424382246
 40
0.6637869905998163
 40
0.8890365590789573
 40
1.0
 40
1.0
 40
1.0
 40
1.0
 10
240.9727133456896
 20
159.894556921285
 30
0.0
 10
241.1679183153432
 20
159.6228285825226
 30
0.0
 10
241.7567899695248
 20
158.8031101264865
 30
0.0
 10
242.237617437739
 20
157.5230689260686
 30
0.0
 10
242.4499226940727
 20
156.3487057532535
 30
0.0
 10
242.4120546569034
 20
155.8384099251386
 30
0.0
 10
242.3995567237844
 20
155.6699923464248
 30
0.0
  0
SPLINE
  5
1E7
330
1F
100
AcDbEntity
  8
0
  6
Continuous
 62
     7
370
    25
100
AcDbSpline
210
0.0
220
0.0
230
1.0
 70
     8
 71
     3
 72
     9
 73
     5
 74
     0
 42
0.00000001
 43
0.00000001
 40
0.0
 40
0.0
 40
0.0
 40
0.0
 40
0.9209630919903082
 40
1.0
 40
1.0
 40
1.0
 40
1.0
 10
242.6010715694998
 20
159.5193297246317
 30
0.0
 10
242.0888489447523
 20
159.5934027693218
 30
0.0
 10
241.5326674547422
 20
159.6738327510814
 30
0.0
 10
241.013728663218
 20
159.878389396517
 30
0.0
 10
240.9727133456896
 20
159.894556921285
 30
0.0
  0
SPLINE
  5
1E8
330
1F
100
AcDbEntity
  8
0
  6
Continuous
 62
     7
370
    25
100
AcDbSpline
210
0.0
220
0.0
230
1.0
 70
     8
 71
     3
 72
    10
 73
     6
 74
     0
 42
0.00000001
 43
0.00000001
 40
0.0
 40
0.0
 40
0.0
 40
0.0
 40
0.2596150688488839
 40
0.6297606444810661
 40
1.0
 40
1.0
 40
1.0
 40
1.0
 10
289.6625721400578
 20
155.3447464267882
 30
0.0
 10
285.597120625883
 20
155.7812945510854
 30
0.0
 10
275.7353611485717
 20
156.8402501399244
 30
0.0
 10
260.0424013014657
 20
158.1939454782949
 30
0.0
 10
248.4153390556876
 20
159.0774976711926
 30
0.0
 10
242.6010715694998
 20
159.5193297246317
 30
0.0
  0
SPLINE
  5
1E9
330
1F
100
AcDbEntity
  8
0
  6
Continuous
 62
     7
370
    25
100
AcDbSpline
210
0.0
220
0.0
230
1.0
 70
     8
 71
     3
 72
    11
 73
     7
 74
     0
 42
0.00000001
 43
0.00000001
 40
0.0
 40
0.0
 40
0.0
 40
0.0
 40
0.0614641195413922
 40
0.4999988937835379
 40
0.9375097801832795
 40
1.0
 40
1.0
 40
1.0
 40
1.0
 10
289.4702499750381
 20
149.6219447856552
 30
0.0
 10
289.4858240666336
 20
149.7379441142899
 30
0.0
 10
289.6125163324232
 20
150.6815765364201
 30
0.0
 10
289.7565365758632
 20
152.4749953502022
 30
0.0
 10
289.7334440698943
 20
154.2759851332708
 30
0.0
 10
289.6704456880919
 20
155.2260119235657
 30
0.0
 10
289.6625721400578
 20
155.3447464267882
 30
0.0
  0
SPLINE
  5
1EA
330
1F
100
AcDbEntity
  8
0
  6
Continuous
 62
     7
370
    25
100
AcDbSpline
210
0.0
220
0.0
230
1.0
 70
     8
 71
     3
 72
    10
 73
     6
 74
     0
 42
0.00000001
 43
0.00000001
 40
0.0
 40
0.0
 40
0.0
 40
0.0
 40
0.2594618540778875
 40
0.6296073956705974
 40
1.0
 40
1.0
 40
1.0
 40
1.0
 10
242.2346623814821
 20
148.6163373300667
 30
0.0
 10
246.3208490022321
 20
148.6464945369682
 30
0.0
 10
256.2363463136102
 20
148.7196736968313
 30
0.0
 10
271.9851930181005
 20
148.9776408175277
 30
0.0
 10
283.6406014738496
 20
149.4071290334758
 30
0.0
 10
289.4702499750381
 20
149.6219447856552
 30
0.0
  0
SPLINE
  5
1EB
330
1F
100
AcDbEntity
  8
0
  6
Continuous
 62
     7
370
    25
100
AcDbSpline
210
0.0
220
0.0
230
1.0
 70
     8
 71
     3
 72
     9
 73
     5
 74
     0
 42
0.00000001
 43
0.00000001
 40
0.0
 40
0.0
 40
0.0
 40
0.0
 40
0.0790369080192245
 40
1.0
 40
1.0
 40
1.0
 40
1.0
 10
240.5847865475222
 20
148.3512794370111
 30
0.0
 10
240.6267947609221
 20
148.3646568484384
 30
0.0
 10
241.1582959855106
 20
148.5339120959239
 30
0.0
 10
241.7186224178428
 20
148.5768203821304
 30
0.0
 10
242.2346623814821
 20
148.6163373300667
 30
0.0
  0
SPLINE
  5
1EC
330
1F
100
AcDbEntity
  8
0
  6
Continuous
 62
     7
370
    25
100
AcDbSpline
210
0.0
220
0.0
230
1.0
 70
     8
 71
     3
 72
    11
 73
     7
 74
     0
 42
0.00000001
 43
0.00000001
 40
0.0
 40
0.0
 40
0.0
 40
0.0
 40
0.0728838064943295
 40
0.4140719411596028
 40
0.9209668754550561
 40
1.0
 40
1.0
 40
1.0
 40
1.0
 10
242.2920342698721
 20
152.4705188191564
 30
0.0
 10
242.2960354646622
 20
152.3598755690116
 30
0.0
 10
242.3187672973337
 20
151.7312823661143
 30
0.0
 10
241.9280189366036
 20
150.3606411971113
 30
0.0
 10
241.246036893658
 20
149.1129116523818
 30
0.0
 10
240.6633786251762
 20
148.4418022753945
 30
0.0
 10
240.5847865475222
 20
148.3512794370111
 30
0.0
  0
SPLINE
  5
1ED
330
1F
100
AcDbEntity
  8
0
  6
Continuous
 62
     7
370
    25
100
AcDbSpline
210
0.0
220
0.0
230
1.0
 70
     8
 71
     3
 72
    10
 73
     6
 74
     0
 42
0.00000001
 43
0.00000001
 40
0.0
 40
0.0
 40
0.0
 40
0.0
 40
0.3880207377811388
 40
0.9790637766506863
 40
1.0
 40
1.0
 40
1.0
 40
1.0
 10
242.3995567237844
 20
155.6699923464248
 30
0.0
 10
242.3124845421335
 20
155.2618467257296
 30
0.0
 10
242.092781802801
 20
154.2320033335791
 30
0.0
 10
242.1516979331711
 20
153.1356365910861
 30
0.0
 10
242.287392081529
 20
152.4925202625469
 30
0.0
 10
242.2920342698721
 20
152.4705188191564
 30
0.0
  0
ARC
  5
1EE
330
1F
100
AcDbEntity
  8
0
  6
Continuous
 62
     7
370
    25
100
AcDbCircle
 10
234.1049273898
 20
154.3472006344
 30
0.0
 40
8.399443654264529
100
AcDbArc
 50
9.0609834605
 51
347.0894674746
  0
SPLINE
  5
1EF
330
1F
100
AcDbEntity
  8
0
  6
Continuous
 62
     7
370
    25
100
AcDbSpline
210
0.0
220
0.0
230
1.0
 70
     8
 71
     3
 72
     9
 73
     5
 74
     0
 42
0.00000001
 43
0.00000001
 40
0.0
 40
0.0
 40
0.0
 40
0.0
 40
0.6817923421274324
 40
1.0
 40
1.0
 40
1.0
 40
1.0
 10
240.5847865475222
 20
148.3512794370111
 30
0.0
 10
240.4362246712659
 20
148.166254485758
 30
0.0
 10
240.2183256614402
 20
147.8948742724283
 30
0.0
 10
239.981206635627
 20
147.6698071095967
 30
0.0
 10
239.905753545786
 20
147.598189014848
 30
0.0
  0
ARC
  5
1F0
330
1F
100
AcDbEntity
  8
0
  6
Continuous
 62
     7
370
    25
100
AcDbCircle
 10
234.1049273898
 20
154.3472006344
 30
0.0
 40
8.89936750183631
100
AcDbArc
 50
45.4711446636
 51
310.6793062714
  0
LINE
  5
1F1
330
1F
100
AcDbEntity
  8
0
  6
Continuous
 62
     7
370
    25
100
AcDbLine
 10
240.3457724479
 20
160.6915362887
 30
0.0
 11
240.9727133457
 21
159.8945569213
 31
0.0
  0
SPLINE
  5
1F2
330
1F
100
AcDbEntity
  8
0
  6
Continuous
 62
     7
370
    25
100
AcDbSpline
210
0.0
220
0.0
230
1.0
 70
     8
 71
     3
 72
    10
 73
     6
 74
     0
 42
0.00000001
 43
0.00000001
 40
0.0
 40
0.0
 40
0.0
 40
0.0
 40
0.3702896688583044
 40
0.7405318123903297
 40
1.0
 40
1.0
 40
1.0
 40
1.0
 10
289.4668884658051
 20
149.178948164197
 30
0.0
 10
283.6393540165382
 20
149.0544182382835
 30
0.0
 10
271.9850330607619
 20
148.8053743694174
 30
0.0
 10
256.2458381903653
 20
148.4645853659654
 30
0.0
 10
246.3358177476734
 20
148.2485736612212
 30
0.0
 10
242.2524560553568
 20
148.1595673947513
 30
0.0
  0
ARC
  5
1F3
330
1F
100
AcDbEntity
  8
0
  6
Continuous
 62
     7
370
    25
100
AcDbCircle
 10
249.4887786507
 20
148.6701930743
 30
0.0
 40
7.254316183419527
100
AcDbArc
 50
180.4253654123
 51
184.0363431988
  0
ARC
  5
1F4
330
1F
100
AcDbEntity
  8
0
  6
Continuous
 62
     7
370
    25
100
AcDbCircle
 10
285.2124897963
 20
149.4327420943
 30
0.0
 40
4.261961918886325
100
AcDbArc
 50
356.5860960061
 51
2.544386774
  0
SPLINE
  5
1F5
330
1F
100
AcDbEntity
  8
0
  6
Continuous
 62
     7
370
    25
100
AcDbSpline
210
0.0
220
0.0
230
1.0
 70
     8
 71
     3
 72
    10
 73
     6
 74
     0
 42
0.00000001
 43
0.00000001
 40
0.0
 40
0.0
 40
0.0
 40
0.0
 40
0.3702717503651155
 40
0.7405122151371748
 40
1.0
 40
1.0
 40
1.0
 40
1.0
 10
242.6494911543971
 20
159.9738744775838
 30
0.0
 10
248.4550468051852
 20
159.4560606934461
 30
0.0
 10
260.0656675744661
 20
158.4204768771212
 30
0.0
 10
275.7467570415969
 20
157.024188584059
 30
0.0
 10
285.6203968073111
 20
156.1480100777272
 30
0.0
 10
289.6889595767664
 20
155.7869692321176
 30
0.0
  0
ARC
  5
1F6
330
1F
100
AcDbEntity
  8
0
  6
Continuous
 62
     7
370
    25
100
AcDbCircle
 10
285.4271208513
 20
155.8193744954
 30
0.0
 40
4.261961921836459
100
AcDbArc
 50
353.6060641635
 51
359.5643549273
  0
ARC
  5
1F7
330
1F
100
AcDbEntity
  8
0
  6
Continuous
 62
     7
370
    25
100
AcDbCircle
 10
249.8352052696
 20
158.9785775656
 30
0.0
 40
7.254316183412508
100
AcDbArc
 50
172.1141077362
 51
175.7250855226
  0
SPLINE
  5
1F8
330
1F
100
AcDbEntity
  8
0
  6
Continuous
 62
     7
370
    25
100
AcDbSpline
210
0.0
220
0.0
230
1.0
 70
     8
 71
     3
 72
    12
 73
     8
 74
     0
 42
0.00000001
 43
0.00000001
 40
0.0
 40
0.0
 40
0.0
 40
0.0
 40
0.1224290494151381
 40
0.3423522449770499
 40
0.5614228816909456
 40
0.7807229538533608
 40
1.0
 40
1.0
 40
1.0
 40
1.0
 10
291.5934901518797
 20
155.1691185759258
 30
0.0
 10
291.5845703781624
 20
155.1717783524745
 30
0.0
 10
291.5596277312056
 20
155.179215970237
 30
0.0
 10
291.3443331630752
 20
155.2034687924725
 30
0.0
 10
290.9095378186685
 20
155.2436060293701
 30
0.0
 10
290.3269342431134
 20
155.2927540432094
 30
0.0
 10
289.8840184231414
 20
155.3274162388693
 30
0.0
 10
289.6625721400578
 20
155.3447464267882
 30
0.0
  0
SPLINE
  5
1F9
330
1F
100
AcDbEntity
  8
0
  6
Continuous
 62
     7
370
    25
100
AcDbSpline
210
0.0
220
0.0
230
1.0
 70
     8
 71
     3
 72
    11
 73
     7
 74
     0
 42
0.00000001
 43
0.00000001
 40
0.0
 40
0.0
 40
0.0
 40
0.0
 40
0.0800485240044435
 40
0.5000005853538799
 40
0.9209248322279646
 40
1.0
 40
1.0
 40
1.0
 40
1.0
 10
291.5934901518797
 20
155.1691185759258
 30
0.0
 10
291.5882921085128
 20
155.0229662781196
 30
0.0
 10
291.5558239929728
 20
154.1100670665132
 30
0.0
 10
291.497678291374
 20
152.4166549916122
 30
0.0
 10
291.4420644665242
 20
150.7249415720279
 30
0.0
 10
291.4131718788423
 20
149.8119334897335
 30
0.0
 10
291.4086025010563
 20
149.6675407861225
 30
0.0
  0
SPLINE
  5
1FA
330
1F
100
AcDbEntity
  8
0
  6
Continuous
 62
     7
370
    25
100
AcDbSpline
210
0.0
220
0.0
230
1.0
 70
     8
 71
     3
 72
    12
 73
     8
 74
     0
 42
0.00000001
 43
0.00000001
 40
0.0
 40
0.0
 40
0.0
 40
0.0
 40
0.1130367476169337
 40
0.3328594693547999
 40
0.5544127937945007
 40
0.7774207483513254
 40
1.0
 40
1.0
 40
1.0
 40
1.0
 10
289.4702499750381
 20
149.6219447856552
 30
0.0
 10
289.5844249034309
 20
149.6231258662026
 30
0.0
 10
289.9206359753138
 20
149.6266037957482
 30
0.0
 10
290.4552620772352
 20
149.6342436445329
 30
0.0
 10
290.972432540068
 20
149.644754460311
 30
0.0
 10
291.3299132423899
 20
149.6561959653529
 30
0.0
 10
291.3823895774638
 20
149.6637616055197
 30
0.0
 10
291.4086025010563
 20
149.6675407861225
 30
0.0
  0
SPLINE
  5
1FB
330
1F
100
AcDbEntity
  8
0
  6
Continuous
 62
     7
370
    25
100
AcDbSpline
210
0.0
220
0.0
230
1.0
 70
     8
 71
     3
 72
     9
 73
     5
 74
     0
 42
0.00000001
 43
0.00000001
 40
0.0
 40
0.0
 40
0.0
 40
0.0
 40
0.500010612381546
 40
1.0
 40
1.0
 40
1.0
 40
1.0
 10
239.8609505601183
 20
161.1399048286209
 30
0.0
 10
240.2807616757618
 20
160.8377934987202
 30
0.0
 10
241.1203660866443
 20
160.2335836631295
 30
0.0
 10
242.1397900108232
 20
160.0604429811424
 30
0.0
 10
242.6494911543971
 20
159.9738744775838
 30
0.0
  0
SPLINE
  5
1FC
330
1F
100
AcDbEntity
  8
0
  6
Continuous
 62
     7
370
    25
100
AcDbSpline
210
0.0
220
0.0
230
1.0
 70
     8
 71
     3
 72
     9
 73
     5
 74
     0
 42
0.00000001
 43
0.00000001
 40
0.0
 40
0.0
 40
0.0
 40
0.0
 40
0.9838702326459405
 40
0.9999999999999999
 40
0.9999999999999999
 40
0.9999999999999999
 40
0.9999999999999999
 10
240.345772447884
 20
160.691536288683
 30
0.0
 10
240.1893871983802
 20
160.8417059932252
 30
0.0
 10
240.0304381375033
 20
160.9943376102408
 30
0.0
 10
239.8636409597901
 20
161.1375941342172
 30
0.0
 10
239.8609505601183
 20
161.1399048286209
 30
0.0
  0
SPLINE
  5
1FD
330
1F
100
AcDbEntity
  8
0
  6
Continuous
 62
     7
370
    25
100
AcDbSpline
210
0.0
220
0.0
230
1.0
 70
     8
 71
     3
 72
     9
 73
     5
 74
     0
 42
0.00000001
 43
0.00000001
 40
0.0
 40
0.0
 40
0.0
 40
0.0
 40
0.5055561057107293
 40
1.0
 40
1.0
 40
1.0
 40
1.0
 10
242.2524560553568
 20
148.1595673947513
 30
0.0
 10
241.7323156864257
 20
148.1063514639937
 30
0.0
 10
240.7034677246357
 20
148.0010892979226
 30
0.0
 10
239.8258541704564
 20
147.4539240051685
 30
0.0
 10
239.391923507047
 20
147.1833814669993
 30
0.0
  0
SPLINE
  5
1FE
330
1F
100
AcDbEntity
  8
0
  6
Continuous
 62
     7
370
    25
100
AcDbSpline
210
0.0
220
0.0
230
1.0
 70
     8
 71
     3
 72
     9
 73
     5
 74
     0
 42
0.00000001
 43
0.00000001
 40
0.0
 40
0.0
 40
0.0
 40
0.0
 40
0.0161297673533273
 40
1.0
 40
1.0
 40
1.0
 40
1.0
 10
239.391923507047
 20
147.1833814669993
 30
0.0
 10
239.3947629691457
 20
147.1855063232323
 30
0.0
 10
239.570801596146
 20
147.3172414057319
 30
0.0
 10
239.7396392268176
 20
147.4588573262155
 30
0.0
 10
239.905753545786
 20
147.598189014848
 30
0.0
  0
SPLINE
  5
1FF
330
1F
100
AcDbEntity
  8
0
  6
Continuous
 62
     7
370
    25
100
AcDbSpline
210
0.0
220
0.0
230
1.0
 70
     8
 71
     3
 72
    12
 73
     8
 74
     0
 42
0.00000001
 43
0.00000001
 40
0.0
 40
0.0
 40
0.0
 40
0.0
 40
0.2230315344150382
 40
0.446133755834032
 40
0.6675099896776969
 40
0.8870667292264967
 40
1.0
 40
1.0
 40
1.0
 40
1.0
 10
290.9197491875731
 20
149.1845244705196
 30
0.0
 10
290.9002899110454
 20
149.1870697391238
 30
0.0
 10
290.8613651906202
 20
149.1921610830227
 30
0.0
 10
290.5936937946796
 20
149.1942097714188
 30
0.0
 10
290.2058597730721
 20
149.1916458134058
 30
0.0
 10
289.8047142658148
 20
149.1857786314182
 30
0.0
 10
289.552541313705
 20
149.1806799708559
 30
0.0
 10
289.4668884658051
 20
149.178948164197
 30
0.0
  0
ARC
  5
200
330
1F
100
AcDbEntity
  8
0
  6
Continuous
 62
     7
370
    25
100
AcDbCircle
 10
290.9087903718
 20
149.6845042998
 30
0.0
 40
0.5000999153471756
100
AcDbArc
 50
271.2556373922
 51
358.0561400058
  0
SPLINE
  5
201
330
1F
100
AcDbEntity
  8
0
  6
Continuous
 62
     7
370
    25
100
AcDbSpline
210
0.0
220
0.0
230
1.0
 70
     8
 71
     3
 72
    12
 73
     8
 74
     0
 42
0.00000001
 43
0.00000001
 40
0.0
 40
0.0
 40
0.0
 40
0.0
 40
0.2190444340109401
 40
0.4380981679380263
 40
0.65710274936918
 40
0.877279108729003
 40
1.0
 40
1.0
 40
1.0
 40
1.0
 10
289.6889595767664
 20
155.7869692321176
 30
0.0
 10
289.8549868860732
 20
155.7725558721435
 30
0.0
 10
290.1870485536676
 20
155.7437285402508
 30
0.0
 10
290.6243042072798
 20
155.7095044891701
 30
0.0
 10
290.950705824303
 20
155.6872231737524
 30
0.0
 10
291.1123971279178
 20
155.6799644302586
 30
0.0
 10
291.1313756516558
 20
155.6828370423213
 30
0.0
 10
291.1381679526843
 20
155.6838651331327
 30
0.0
  0
ARC
  5
202
330
1F
100
AcDbEntity
  8
0
  6
Continuous
 62
     7
370
    25
100
AcDbCircle
 10
291.0936668323
 20
155.1857491069
 30
0.0
 40
0.500099915346967
100
AcDbArc
 50
358.0943109298
 51
84.8948135427
  0
LINE
  5
203
330
1F
100
AcDbEntity
  8
0
  6
Continuous
 62
     7
370
    25
100
AcDbLine
 10
242.2524560554
 20
148.1595673948
 30
0.0
 11
242.2770325607
 21
148.0874109484
 31
0.0
  0
LINE
  5
204
330
1F
100
AcDbEntity
  8
0
  6
Continuous
 62
     7
370
    25
100
AcDbLine
 10
290.9242878261
 20
149.179930985
 30
0.0
 11
290.9197491876
 21
149.1845244705
 31
0.0
  0
ELLIPSE
  5
205
330
1F
100
AcDbEntity
  8
0
  6
Continuous
 62
     7
370
    25
100
AcDbEllipse
 10
289.4225649036
 20
149.1470588585
 30
0.0
 11
1.501936455350346
 21
0.03244489684945506
 31
0.0
210
0.0
220
0.0
230
1.0
 40
0.0174284859
 41
5.396717970286993
 42
6.299675703201514
  0
LINE
  5
206
330
1F
100
AcDbEntity
  8
0
  6
Continuous
 62
     7
370
    25
100
AcDbLine
 10
286.9013579006
 20
149.0229098474
 30
0.0
 11
290.3724570264
 21
149.1472863332
 31
0.0
  0
LINE
  5
207
330
1F
100
AcDbEntity
  8
0
  6
Continuous
 62
     7
370
    25
100
AcDbLine
 10
286.9013612053
 20
149.0230081831
 30
0.0
 11
286.9013579006
 21
149.0229098474
 31
0.0
  0
ELLIPSE
  5
208
330
1F
100
AcDbEntity
  8
0
  6
Continuous
 62
     7
370
    25
100
AcDbEllipse
 10
277.4461343818
 20
149.0109311858
 30
0.0
 11
14.51871906838676
 21
0.3136340028781603
 31
0.0
210
0.0
220
0.0
230
1.0
 40
0.0174284859
 41
4.685109492442214
 42
5.421234828998126
  0
ELLIPSE
  5
209
330
1F
100
AcDbEntity
  8
0
  6
Continuous
 62
     7
370
    25
100
AcDbEllipse
 10
276.0939523065
 20
148.1055530017
 30
0.0
 11
35.7487326448238
 21
0.7722456825843834
 31
0.0
210
0.0
220
0.0
230
1.0
 40
0.0174284859
 41
1.543516838852419
 42
2.025717338718021
  0
ELLIPSE
  5
20A
330
1F
100
AcDbEntity
  8
0
  6
Continuous
 62
     7
370
    25
100
AcDbEllipse
 10
257.0719485162
 20
148.3722057993
 30
0.0
 11
7.509682276751733
 21
0.1622244842473037
 31
0.0
210
0.0
220
0.0
230
1.0
 40
0.0174284859
 41
4.976419334597717
 42
5.167309992307892
  0
LINE
  5
20B
330
1F
100
AcDbEntity
  8
0
  6
Continuous
 62
     7
370
    25
100
AcDbLine
 10
259.0199488151
 20
148.4391598889
 30
0.0
 11
259.034504786
 21
148.2881952717
 31
0.0
  0
SPLINE
  5
20C
330
1F
100
AcDbEntity
  8
0
  6
Continuous
 62
     7
370
    25
100
AcDbSpline
210
0.0
220
0.0
230
1.0
 70
     8
 71
     3
 72
    10
 73
     6
 74
     0
 42
0.00000001
 43
0.00000001
 40
0.0
 40
0.0
 40
0.0
 40
0.0
 40
0.0186368637457326
 40
0.39394699446331
 40
1.0
 40
1.0
 40
1.0
 40
1.0
 10
258.8362648798549
 20
148.4448461837327
 30
0.0
 10
258.8387226485825
 20
148.4448513872471
 30
0.0
 10
258.8906750916828
 20
148.4449613794035
 30
0.0
 10
258.9947052760178
 20
148.4441468045658
 30
0.0
 10
259.0103111892923
 20
148.4410638226749
 30
0.0
 10
259.0199488150546
 20
148.4391598888792
 30
0.0
  0
LINE
  5
20D
330
1F
100
AcDbEntity
  8
0
  6
Continuous
 62
     7
370
    25
100
AcDbLine
 10
242.2770325607
 20
148.0874109484
 30
0.0
 11
258.8362648799
 21
148.4448461837
 31
0.0
  0
LINE
  5
20E
330
1F
100
AcDbEntity
  8
0
  6
Continuous
 62
     7
370
    25
100
AcDbLine
 10
259.1793393969
 20
158.591981129
 30
0.0
 11
242.6854313991
 21
160.0599902707
 31
0.0
  0
SPLINE
  5
20F
330
1F
100
AcDbEntity
  8
0
  6
Continuous
 62
     7
370
    25
100
AcDbSpline
210
0.0
220
0.0
230
1.0
 70
     8
 71
     3
 72
    11
 73
     7
 74
     0
 42
0.00000001
 43
0.00000001
 40
0.0
 40
0.0
 40
0.0
 40
0.0
 40
0.417746929449528
 40
0.839277066241079
 40
0.9817832068819558
 40
1.0
 40
1.0
 40
1.0
 40
1.0
 10
259.3628958641579
 20
158.5844622689429
 30
0.0
 10
259.3582250708959
 20
158.5835354343231
 30
0.0
 10
259.348841184649
 20
158.5816733714669
 30
0.0
 10
259.2734276929565
 20
158.5854105951385
 30
0.0
 10
259.2032901125805
 20
158.5902395814469
 30
0.0
 10
259.1817776773306
 20
158.5918038323388
 30
0.0
 10
259.1793393969107
 20
158.5919811289711
 30
0.0
  0
LINE
  5
210
330
1F
100
AcDbEntity
  8
0
  6
Continuous
 62
     7
370
    25
100
AcDbLine
 10
259.3850402628
 20
158.7188442916
 30
0.0
 11
259.3628958642
 21
158.5844622689
 31
0.0
  0
ELLIPSE
  5
211
330
1F
100
AcDbEntity
  8
0
  6
Continuous
 62
     7
370
    25
100
AcDbEllipse
 10
257.4212717526
 20
158.7667829961
 30
0.0
 11
7.481847567972751
 21
-0.6660342713922206
 31
0.0
210
0.0
220
0.0
230
1.0
 40
0.0174284859
 41
1.115875314871827
 42
1.306765972581854
  0
ELLIPSE
  5
212
330
1F
100
AcDbEntity
  8
0
  6
Continuous
 62
     7
370
    25
100
AcDbEllipse
 10
276.4182599607
 20
157.7557583009
 30
0.0
 11
35.61622962729029
 21
-3.17055771773471
 31
0.0
210
0.0
220
0.0
230
1.0
 40
0.0174284859
 41
4.257467968461713
 42
4.739668468327167
  0
ELLIPSE
  5
213
330
1F
100
AcDbEntity
  8
0
  6
Continuous
 62
     7
370
    25
100
AcDbEllipse
 10
277.7066070528
 20
156.7616417124
 30
0.0
 11
14.46490529808074
 21
-1.287666258025013
 31
0.0
210
0.0
220
0.0
230
1.0
 40
0.0174284859
 41
0.8619504781817438
 42
1.598075814737376
  0
LINE
  5
214
330
1F
100
AcDbEntity
  8
0
  6
Continuous
 62
     7
370
    25
100
AcDbLine
 10
287.1396933165
 20
156.1148969242
 30
0.0
 11
287.1396900118
 21
156.1147985885
 31
0.0
  0
LINE
  5
215
330
1F
100
AcDbEntity
  8
0
  6
Continuous
 62
     7
370
    25
100
AcDbLine
 10
290.5946106502
 20
155.7577626803
 30
0.0
 11
287.1396933165
 21
156.1148969242
 31
0.0
  0
ELLIPSE
  5
216
330
1F
100
AcDbEntity
  8
0
  6
Continuous
 62
     7
370
    25
100
AcDbEllipse
 10
289.6468769631
 20
155.8217623293
 30
0.0
 11
1.496369513594516
 21
-0.1332068542784555
 31
0.0
210
0.0
220
0.0
230
1.0
 40
0.0174284859
 41
6.266694911158665
 42
7.169652644073913
  0
LINE
  5
217
330
1F
100
AcDbEntity
  8
0
  6
Continuous
 62
     7
370
    25
100
AcDbLine
 10
291.1381679527
 20
155.6838651331
 30
0.0
 11
291.1430047428
 21
155.6881435453
 31
0.0
  0
LINE
  5
218
330
1F
100
AcDbEntity
  8
0
  6
Continuous
 62
     7
370
    25
100
AcDbLine
 10
242.6854313991
 20
160.0599902707
 30
0.0
 11
242.6494911544
 21
159.9738744776
 31
0.0
  0
SPLINE
  5
219
330
1F
100
AcDbEntity
  8
0
  6
Continuous
 62
     7
370
    25
100
AcDbSpline
210
0.0
220
0.0
230
1.0
 70
     8
 71
     3
 72
     9
 73
     5
 74
     0
 42
0.00000001
 43
0.00000001
 40
0.0
 40
0.0
 40
0.0
 40
0.0
 40
0.5001021276704724
 40
1.0
 40
1.0
 40
1.0
 40
1.0
 10
239.4229172299464
 20
147.1166113508802
 30
0.0
 10
239.8612466198203
 20
147.3885681107646
 30
0.0
 10
240.7377263738971
 20
147.9323705559796
 30
0.0
 10
241.7640003724407
 20
148.0357378553828
 30
0.0
 10
242.2770325607397
 20
148.0874109484229
 30
0.0
  0
LINE
  5
21A
330
1F
100
AcDbEntity
  8
0
  6
Continuous
 62
     7
370
    25
100
AcDbLine
 10
239.4229172299
 20
147.1166113509
 30
0.0
 11
239.391923507
 21
147.183381467
 31
0.0
  0
SPLINE
  5
21B
330
1F
100
AcDbEntity
  8
0
  6
Continuous
 62
     7
370
    25
100
AcDbSpline
210
0.0
220
0.0
230
1.0
 70
     8
 71
     3
 72
     9
 73
     5
 74
     0
 42
0.00000001
 43
0.00000001
 40
0.0
 40
0.0
 40
0.0
 40
0.0
 40
0.400722737156529
 40
0.9999999999999999
 40
0.9999999999999999
 40
0.9999999999999999
 40
0.9999999999999999
 10
242.6854313990913
 20
160.0599902707056
 30
0.0
 10
242.2786017329035
 20
160.1220968983507
 30
0.0
 10
241.2633619462253
 20
160.2770834311487
 30
0.0
 10
240.413588757471
 20
160.8660646322834
 30
0.0
 10
239.9043390068767
 20
161.2190276743658
 30
0.0
  0
LINE
  5
21C
330
1F
100
AcDbEntity
  8
0
  6
Continuous
 62
     7
370
    25
100
AcDbLine
 10
239.8609505601
 20
161.1399048286
 30
0.0
 11
239.9043390069
 21
161.2190276744
 31
0.0
  0
ARC
  5
21D
330
1F
100
AcDbEntity
  8
0
  6
Continuous
 62
     7
370
    25
100
AcDbCircle
 10
234.1049273898
 20
154.3472006344
 30
0.0
 40
8.975658044222097
100
AcDbArc
 50
243.2401108622
 51
306.3339234504
  0
LWPOLYLINE
  5
21E
330
1F
100
AcDbEntity
  8
0
  6
Continuous
 62
     7
370
    25
100
AcDbPolyline
 90
        3
 70
   128
 43
0.0
 10
229.8947166536
 20
146.2333727355
 10
230.0014644533
 20
146.2960751502
 10
230.0636143712
 20
146.3328244009
  0
ARC
  5
21F
330
1F
100
AcDbEntity
  8
0
  6
Continuous
 62
     7
370
    25
100
AcDbCircle
 10
234.1049273898
 20
154.3472006344
 30
0.0
 40
9.14112015109214
100
AcDbArc
 50
113.5749418851
 51
242.5755048964
  0
LWPOLYLINE
  5
220
330
1F
100
AcDbEntity
  8
0
  6
Continuous
 62
     7
370
    25
100
AcDbPolyline
 90
        3
 70
   128
 43
0.0
 10
230.5948575716
 20
162.6257628189
 10
230.5512493089
 20
162.6556542649
 10
230.4489519927
 20
162.7253819119
  0
ARC
  5
221
330
1F
100
AcDbEntity
  8
0
  6
Continuous
 62
     7
370
    25
100
AcDbCircle
 10
234.1049273898
 20
154.3472006344
 30
0.0
 40
8.991950954660755
100
AcDbArc
 50
49.8376326145
 51
112.9767066341
  0
LINE
  5
222
330
1F
100
AcDbEntity
  8
0
  6
Continuous
 62
     7
370
    25
100
AcDbLine
 10
291.598326942
 20
155.173396988
 30
0.0
 11
291.5934901519
 21
155.1691185759
 31
0.0
  0
LINE
  5
223
330
1F
100
AcDbEntity
  8
0
  6
Continuous
 62
     7
370
    25
100
AcDbLine
 10
291.4131411395
 20
149.6629473006
 30
0.0
 11
291.598326942
 21
155.173396988
 31
0.0
  0
LINE
  5
224
330
1F
100
AcDbEntity
  8
0
  6
Continuous
 62
     7
370
    25
100
AcDbLine
 10
291.4086025011
 20
149.6675407861
 30
0.0
 11
291.4131411395
 21
149.6629473006
 31
0.0
  0
ARC
  5
225
330
1F
100
AcDbEntity
  8
0
  6
Continuous
 62
     7
370
    25
100
AcDbCircle
 10
291.0985036224
 20
155.190027519
 30
0.0
 40
0.5000999153468566
100
AcDbArc
 50
358.0943109292
 51
84.8948135428
  0
ARC
  5
226
330
1F
100
AcDbEntity
  8
0
  6
Continuous
 62
     7
370
    25
100
AcDbCircle
 10
290.9133290103
 20
149.6799108143
 30
0.0
 40
0.5000999153468974
100
AcDbArc
 50
271.2556373922
 51
358.0561400058
  0
LINE
  5
227
330
1F
100
AcDbEntity
  8
0
  6
Continuous
 62
     7
370
    25
100
AcDbLine
 10
290.3724570264
 20
149.1472863332
 30
0.0
 11
290.3795730747
 21
149.147414433
 31
0.0
  0
LINE
  5
228
330
1F
100
AcDbEntity
  8
0
  6
Continuous
 62
     7
370
    25
100
AcDbLine
 10
290.5946106502
 20
155.7577626803
 30
0.0
 11
290.6017020429
 21
155.757157121
 31
0.0
  0
SPLINE
  5
229
330
1F
100
AcDbEntity
  8
0
  6
Continuous
 62
     7
370
    25
100
AcDbSpline
210
0.0
220
0.0
230
1.0
 70
     8
 71
     3
 72
    11
 73
     7
 74
     0
 42
0.00000001
 43
0.00000001
 40
0.0
 40
0.0
 40
0.0
 40
0.0
 40
0.1345990676765948
 40
0.4126978815969495
 40
0.6969472592954593
 40
1.0
 40
1.0
 40
1.0
 40
1.0
 10
230.0628091119547
 20
146.3320443902232
 30
0.0
 10
230.4854616309248
 20
146.1268489593676
 30
0.0
 10
231.78136807546
 20
145.4976936383892
 30
0.0
 10
234.1349306246065
 20
144.7957798318756
 30
0.0
 10
237.1742513544982
 20
144.3169242898638
 30
0.0
 10
239.3631334488989
 20
144.2162074201405
 30
0.0
 10
240.4926146767054
 20
144.1642366840434
 30
0.0
  0
ARC
  5
22A
330
1F
100
AcDbEntity
  8
0
  6
Continuous
 62
     7
370
    25
100
AcDbCircle
 10
236.0234366689
 20
144.9346031576
 30
0.0
 40
4.535087272520506
100
AcDbArc
 50
327.1036881082
 51
350.2198521658
  0
SPLINE
  5
22B
330
1F
100
AcDbEntity
  8
0
  6
Continuous
 62
     7
370
    25
100
AcDbSpline
210
0.0
220
0.0
230
1.0
 70
     8
 71
     3
 72
    12
 73
     8
 74
     0
 42
0.00000001
 43
0.00000001
 40
0.0
 40
0.0
 40
0.0
 40
0.0
 40
0.1662426524176555
 40
0.3368059756191304
 40
0.6054181071254588
 40
0.8801435087136198
 40
1.0
 40
1.0
 40
1.0
 40
1.0
 10
239.8313445868886
 20
142.4715047313684
 30
0.0
 10
239.1992451876315
 20
142.6483202026569
 30
0.0
 10
237.918618033535
 20
143.0065466051223
 30
0.0
 10
235.7579312299403
 20
143.74249865523
 30
0.0
 10
233.4259125005647
 20
144.6735451748544
 30
0.0
 10
231.4897855733505
 20
145.5817155988095
 30
0.0
 10
230.3947042154424
 20
146.1566789578127
 30
0.0
 10
230.0620670326365
 20
146.3313273440484
 30
0.0
  0
LINE
  5
22C
330
1F
100
AcDbEntity
  8
0
  6
Continuous
 62
     7
370
    25
100
AcDbLine
 10
230.0620670326
 20
146.331327344
 30
0.0
 11
230.062809112
 21
146.3320443902
 31
0.0
  0
LINE
  5
22D
330
1F
100
AcDbEntity
  8
0
  6
Continuous
 62
     7
370
    25
100
AcDbLine
 10
239.8313445869
 20
142.4715047314
 30
0.0
 11
239.8131620265
 21
142.4026030283
 31
0.0
  0
ARC
  5
22E
330
1F
100
AcDbEntity
  8
0
  6
Continuous
 62
     7
370
    25
100
AcDbCircle
 10
252.1065429094
 20
188.9876198465
 30
0.0
 40
48.17977797259052
100
AcDbArc
 50
242.5470733798
 51
255.2171445356
  0
LWPOLYLINE
  5
22F
330
1F
100
AcDbEntity
  8
0
  6
Continuous
 62
     7
370
    25
100
AcDbPolyline
 90
        3
 70
   128
 43
0.0
 10
230.0620670326
 20
146.331327344
 10
230.0014523685
 20
146.2958194915
 10
229.8947166022
 20
146.2333711973
  0
LINE
  5
230
330
1F
100
AcDbEntity
  8
0
  6
Continuous
 62
     7
370
    25
100
AcDbLine
 10
239.4229172299
 20
147.1166113509
 30
0.0
 11
241.5259372533
 21
144.2572463462
 31
0.0
  0
ARC
  5
231
330
1F
100
AcDbEntity
  8
0
  6
Continuous
 62
     7
370
    25
100
AcDbCircle
 10
234.1049273898
 20
154.3472006344
 30
0.0
 40
12.52511736202726
100
AcDbArc
 50
305.9335323377
 51
306.3339234504
  0
LINE
  5
232
330
1F
100
AcDbEntity
  8
0
  6
Continuous
 62
     7
370
    25
100
AcDbLine
 10
240.4926146767
 20
144.164236684
 30
0.0
 11
241.455246583
 21
144.2056340547
 31
0.0
  0
LINE
  5
233
330
1F
100
AcDbEntity
  8
0
  6
Continuous
 62
     7
370
    25
100
AcDbLine
 10
230.0636143712
 20
146.3328244009
 30
0.0
 11
230.062809112
 21
146.3320443902
 31
0.0
  0
LINE
  5
234
330
1F
100
AcDbEntity
  8
0
  6
Continuous
 62
     7
370
    25
100
AcDbLine
 10
244.4564241468
 20
144.5841675601
 30
0.0
 11
242.3536306993
 21
144.5387782295
 31
0.0
  0
LINE
  5
235
330
1F
100
AcDbEntity
  8
0
  6
Continuous
 62
     7
370
    25
100
AcDbLine
 10
242.2770325607
 20
148.0874109484
 30
0.0
 11
242.3536306993
 21
144.5387782295
 31
0.0
  0
SPLINE
  5
236
330
1F
100
AcDbEntity
  8
0
  6
Continuous
 62
     7
370
    25
100
AcDbSpline
210
0.0
220
0.0
230
1.0
 70
     8
 71
     3
 72
    16
 73
    12
 74
     0
 42
0.00000001
 43
0.00000001
 40
0.0
 40
0.0
 40
0.0
 40
0.0
 40
0.2861254310575657
 40
0.7591203623085422
 40
0.8520758313858442
 40
0.9266344548631261
 40
0.9604862301433721
 40
0.9835335436569235
 40
0.993075662954835
 40
0.997224229202362
 40
1.0
 40
1.0
 40
1.0
 40
1.0
 10
245.9138842533972
 20
145.059627302566
 30
0.0
 10
247.1591417013957
 20
145.5481453617869
 30
0.0
 10
250.4629385068669
 20
146.844234299912
 30
0.0
 10
254.2925629064255
 20
147.7339213999074
 30
0.0
 10
257.1075194797494
 20
148.2015585763459
 30
0.0
 10
257.9773536265068
 20
148.326916410213
 30
0.0
 10
258.5056164255591
 20
148.3977340929013
 30
0.0
 10
258.7404604287856
 20
148.4289733180067
 30
0.0
 10
258.8185477342611
 20
148.4406771459705
 30
0.0
 10
258.8347457221349
 20
148.4438686380366
 30
0.0
 10
258.8358301595709
 20
148.444566450472
 30
0.0
 10
258.8362648798549
 20
148.4448461837327
 30
0.0
  0
LINE
  5
237
330
1F
100
AcDbEntity
  8
0
  6
Continuous
 62
     7
370
    25
100
AcDbLine
 10
244.4564241468
 20
144.5841675601
 30
0.0
 11
245.9138842534
 21
145.0596273026
 31
0.0
  0
ARC
  5
238
330
1F
100
AcDbEntity
  8
0
  6
Continuous
 62
     7
370
    25
100
AcDbCircle
 10
251.835262798
 20
148.4717715388
 30
0.0
 40
6.834138728221641
100
AcDbArc
 50
209.9523325978
 51
225.0240262103
  0
SPLINE
  5
239
330
1F
100
AcDbEntity
  8
0
  6
Continuous
 62
     7
370
    25
100
AcDbSpline
210
0.0
220
0.0
230
1.0
 70
     8
 71
     3
 72
    10
 73
     6
 74
     0
 42
0.00000001
 43
0.00000001
 40
0.0
 40
0.0
 40
0.0
 40
0.0
 40
0.5975855365574442
 40
0.9790563563182064
 40
1.0
 40
1.0
 40
1.0
 40
1.0
 10
258.9459215735946
 20
148.4320289786745
 30
0.0
 10
258.9485648846594
 20
148.4356815554613
 30
0.0
 10
258.9528955625981
 20
148.4416657674296
 30
0.0
 10
258.8785790448594
 20
148.4445400417472
 30
0.0
 10
258.8383581734039
 20
148.4448310388033
 30
0.0
 10
258.8362648798549
 20
148.4448461837327
 30
0.0
  0
SPLINE
  5
23A
330
1F
100
AcDbEntity
  8
0
  6
Continuous
 62
     7
370
    25
100
AcDbSpline
210
0.0
220
0.0
230
1.0
 70
     8
 71
     3
 72
    14
 73
    10
 74
     0
 42
0.00000001
 43
0.00000001
 40
0.0
 40
0.0
 40
0.0
 40
0.0
 40
0.012903656923146
 40
0.0519665716781151
 40
0.131889182426121
 40
0.2280032005552165
 40
0.4679440229400843
 40
0.7079115564493625
 40
1.0
 40
1.0
 40
1.0
 40
1.0
 10
258.9459215735946
 20
148.4320289786745
 30
0.0
 10
258.9122083887898
 20
148.4253125511351
 30
0.0
 10
258.7764361309648
 20
148.3982636521117
 30
0.0
 10
258.3339717899745
 20
148.3106933943989
 30
0.0
 10
257.5162040629876
 20
148.1356597675767
 30
0.0
 10
255.8479728080944
 20
147.7244084947481
 30
0.0
 10
253.4768774658529
 20
146.9661623954219
 30
0.0
 10
250.2850261030688
 20
145.6276727409555
 30
0.0
 10
248.1673739168809
 20
144.3427031535061
 30
0.0
 10
247.0048238136695
 20
143.6372796962188
 30
0.0
  0
LWPOLYLINE
  5
23B
330
1F
100
AcDbEntity
  8
0
  6
Continuous
 62
     7
370
    25
100
AcDbPolyline
 90
        4
 70
   128
 43
0.0
 10
258.9603624727
 20
148.280362799
 10
258.9587021174
 20
148.2977865435
 10
258.9520642081
 20
148.3674815622
 10
258.9459215736
 20
148.4320289787
  0
LINE
  5
23C
330
1F
100
AcDbEntity
  8
0
  6
Continuous
 62
     7
370
    25
100
AcDbLine
 10
257.1588203891
 20
147.9111359698
 30
0.0
 11
258.9603624727
 21
148.280362799
 31
0.0
  0
ARC
  5
23D
330
1F
100
AcDbEntity
  8
0
  6
Continuous
 62
     7
370
    25
100
AcDbCircle
 10
264.3178424289
 20
117.2276778792
 30
0.0
 40
31.50755777528338
100
AcDbArc
 50
103.1332227153
 51
123.2471548844
  0
LINE
  5
23E
330
1F
100
AcDbEntity
  8
0
  6
Continuous
 62
     7
370
    25
100
AcDbLine
 10
247.0048238137
 20
143.6372796962
 30
0.0
 11
247.0437702625
 21
143.577870056
 31
0.0
  0
SPLINE
  5
23F
330
1F
100
AcDbEntity
  8
0
  6
Continuous
 62
     7
370
    25
100
AcDbSpline
210
0.0
220
0.0
230
1.0
 70
     8
 71
     3
 72
     9
 73
     5
 74
     0
 42
0.00000001
 43
0.00000001
 40
0.0
 40
0.0
 40
0.0
 40
0.0
 40
0.4998978730609691
 40
1.0
 40
1.0
 40
1.0
 40
1.0
 10
242.3536306992571
 20
144.5387782294832
 30
0.0
 10
242.204848780885
 20
144.5238006290053
 30
0.0
 10
241.9072241531562
 20
144.4938393083337
 30
0.0
 10
241.6530501919426
 20
144.3361214050729
 30
0.0
 10
241.5259372533271
 20
144.2572463461958
 30
0.0
  0
ARC
  5
240
330
1F
100
AcDbEntity
  8
0
  6
Continuous
 62
     7
370
    25
100
AcDbCircle
 10
259.0307519475
 20
147.939200252
 30
0.0
 40
0.5000763403773666
100
AcDbArc
 50
91.2378551074
 51
99.7665890292
  0
ARC
  5
241
330
1F
100
AcDbEntity
  8
0
  6
Continuous
 62
     7
370
    25
100
AcDbCircle
 10
249.7402815311
 20
118.5763674685
 30
0.0
 40
48.10950076354636
100
AcDbArc
 50
100.9333063994
 51
101.1818887889
  0
SPLINE
  5
242
330
1F
100
AcDbEntity
  8
0
  6
Continuous
 62
     7
370
    25
100
AcDbSpline
210
0.0
220
0.0
230
1.0
 70
     8
 71
     3
 72
    12
 73
     8
 74
     0
 42
0.00000001
 43
0.00000001
 40
0.0
 40
0.0
 40
0.0
 40
0.0
 40
0.0460732444350181
 40
0.2494607408078305
 40
0.4779405209378891
 40
0.7057893369168751
 40
1.0
 40
1.0
 40
1.0
 40
1.0
 10
230.5936668231126
 20
162.627077898584
 30
0.0
 10
230.7240310309172
 20
162.6852375241749
 30
0.0
 10
231.429879994943
 20
163.0001392304234
 30
0.0
 10
232.8091442155155
 20
163.5726785527404
 30
0.0
 10
234.8450940012119
 20
164.3124383600111
 30
0.0
 10
237.3681793557327
 20
165.1002170367557
 30
0.0
 10
239.3140638522504
 20
165.5302393212937
 30
0.0
 10
240.4106821322827
 20
165.7725817105205
 30
0.0
  0
LWPOLYLINE
  5
243
330
1F
100
AcDbEntity
  8
0
  6
Continuous
 62
     7
370
    25
100
AcDbPolyline
 90
        3
 70
   128
 43
0.0
 10
230.5936668231
 20
162.6270778986
 10
230.5512544156
 20
162.6559101582
 10
230.4489520447
 20
162.7253834501
  0
ARC
  5
244
330
1F
100
AcDbEntity
  8
0
  6
Continuous
 62
     7
370
    25
100
AcDbCircle
 10
249.7402815311
 20
118.5763674685
 30
0.0
 40
48.17977797259052
100
AcDbArc
 50
100.9333063994
 51
113.6033767663
  0
LINE
  5
245
330
1F
100
AcDbEntity
  8
0
  6
Continuous
 62
     7
370
    25
100
AcDbLine
 10
240.6155339025
 20
165.8126146145
 30
0.0
 11
240.6022046892
 21
165.8816161955
 31
0.0
  0
LINE
  5
246
330
1F
100
AcDbEntity
  8
0
  6
Continuous
 62
     7
370
    25
100
AcDbLine
 10
240.7984715837
 20
163.8108475299
 30
0.0
 11
240.4106821323
 21
165.7725817105
 31
0.0
  0
SPLINE
  5
247
330
1F
100
AcDbEntity
  8
0
  6
Continuous
 62
     7
370
    25
100
AcDbSpline
210
0.0
220
0.0
230
1.0
 70
     8
 71
     3
 72
    13
 73
     9
 74
     0
 42
0.00000001
 43
0.00000001
 40
0.0
 40
0.0
 40
0.0
 40
0.0
 40
0.2574896950994372
 40
0.4890886589321028
 40
0.7206004760683483
 40
0.9447506334961268
 40
0.94600322912933
 40
0.9999999999999999
 40
0.9999999999999999
 40
0.9999999999999999
 40
0.9999999999999999
 10
240.7984715837458
 20
163.8108475299109
 30
0.0
 10
239.8812069254788
 20
163.8697522039476
 30
0.0
 10
238.1389090776974
 20
163.9816386544649
 30
0.0
 10
235.6402240295176
 20
163.9009531828357
 30
0.0
 10
233.3119966141186
 20
163.5655889242084
 30
0.0
 10
231.8189426229823
 20
163.1159257356614
 30
0.0
 10
230.9356029360486
 20
162.7711573834365
 30
0.0
 10
230.7629997279869
 20
162.6979329324351
 30
0.0
 10
230.5943097236119
 20
162.626368602325
 30
0.0
  0
LINE
  5
248
330
1F
100
AcDbEntity
  8
0
  6
Continuous
 62
     7
370
    25
100
AcDbLine
 10
230.5943097236
 20
162.6263686023
 30
0.0
 11
230.5936668231
 21
162.6270778986
 31
0.0
  0
LINE
  5
249
330
1F
100
AcDbEntity
  8
0
  6
Continuous
 62
     7
370
    25
100
AcDbLine
 10
242.6854313991
 20
160.0599902707
 30
0.0
 11
242.9158932385
 21
162.6493585983
 31
0.0
  0
LINE
  5
24A
330
1F
100
AcDbEntity
  8
0
  6
Continuous
 62
     7
370
    25
100
AcDbLine
 10
242.9158932385
 20
162.6493585983
 30
0.0
 11
246.8564178434
 21
162.2986396453
 31
0.0
  0
SPLINE
  5
24B
330
1F
100
AcDbEntity
  8
0
  6
Continuous
 62
     7
370
    25
100
AcDbSpline
210
0.0
220
0.0
230
1.0
 70
     8
 71
     3
 72
    17
 73
    13
 74
     0
 42
0.00000001
 43
0.00000001
 40
0.0
 40
0.0
 40
0.0
 40
0.0
 40
0.0068263121770682
 40
0.0088448507297264
 40
0.0223990310416123
 40
0.0309593028397532
 40
0.0563218912149141
 40
0.1198824177066679
 40
0.1957460556357057
 40
0.5558621944880024
 40
0.778033609797719
 40
1.0
 40
1.0
 40
1.0
 40
1.0
 10
259.1793393969107
 20
158.5919811289711
 30
0.0
 10
259.175756164086
 20
158.5931403172863
 30
0.0
 10
259.1711133703428
 20
158.5946422772539
 30
0.0
 10
259.1278601468621
 20
158.6036901307461
 30
0.0
 10
259.0537649781537
 20
158.6179383358173
 30
0.0
 10
258.8878906908315
 20
158.6492461705583
 30
0.0
 10
258.5084952129866
 20
158.7205438596162
 30
0.0
 10
257.8296471840011
 20
158.8526160571152
 30
0.0
 10
255.7381678731941
 20
159.2902824425664
 30
0.0
 10
252.9481207257618
 20
160.0185812901231
 30
0.0
 10
249.5852761164232
 20
161.1451061702305
 30
0.0
 10
247.765757289285
 20
161.9142468384804
 30
0.0
 10
246.8564178433908
 20
162.298639645331
 30
0.0
  0
LINE
  5
24C
330
1F
100
AcDbEntity
  8
0
  6
Continuous
 62
     7
370
    25
100
AcDbLine
 10
246.8564178434
 20
162.2986396453
 30
0.0
 11
248.0406808676
 21
163.9099443165
 31
0.0
  0
SPLINE
  5
24D
330
1F
100
AcDbEntity
  8
0
  6
Continuous
 62
     7
370
    25
100
AcDbSpline
210
0.0
220
0.0
230
1.0
 70
     8
 71
     3
 72
    14
 73
    10
 74
     0
 42
0.00000001
 43
0.00000001
 40
0.0
 40
0.0
 40
0.0
 40
0.0
 40
0.2256458607195979
 40
0.4518169308148967
 40
0.8157761447763443
 40
0.8946140573305371
 40
0.9637846180221658
 40
0.994079914312568
 40
1.0
 40
1.0
 40
1.0
 40
1.0
 10
248.0406808676173
 20
163.9099443165487
 30
0.0
 10
248.8676453381453
 20
163.3368216979492
 30
0.0
 10
250.523499107301
 20
162.1892424705244
 30
0.0
 10
253.6493478888013
 20
160.5178694448832
 30
0.0
 10
256.2870973262868
 20
159.4753074096216
 30
0.0
 10
258.2190112452327
 20
158.8886404185082
 30
0.0
 10
258.8575055361595
 20
158.7117145984333
 30
0.0
 10
259.182733872818
 20
158.6251921674466
 30
0.0
 10
259.2744961691419
 20
158.6005754532536
 30
0.0
 10
259.2894964432643
 20
158.5965513880799
 30
0.0
  0
SPLINE
  5
24E
330
1F
100
AcDbEntity
  8
0
  6
Continuous
 62
     7
370
    25
100
AcDbSpline
210
0.0
220
0.0
230
1.0
 70
     8
 71
     3
 72
    11
 73
     7
 74
     0
 42
0.00000001
 43
0.00000001
 40
0.0
 40
0.0
 40
0.0
 40
0.0
 40
0.0195561212295964
 40
0.168189199674455
 40
0.5898876540792629
 40
1.0
 40
1.0
 40
1.0
 40
1.0
 10
259.1793393969107
 20
158.5919811289711
 30
0.0
 10
259.1812950530411
 20
158.5918572600898
 30
0.0
 10
259.1981143514874
 20
158.5907919461778
 30
0.0
 10
259.2499572033327
 20
158.5882028047178
 30
0.0
 10
259.2992842023028
 20
158.5886355849956
 30
0.0
 10
259.2927285923974
 20
158.5939374030016
 30
0.0
 10
259.2894964432643
 20
158.5965513880799
 30
0.0
  0
LINE
  5
24F
330
1F
100
AcDbEntity
  8
0
  6
Continuous
 62
     7
370
    25
100
AcDbLine
 10
239.9043390069
 20
161.2190276744
 30
0.0
 11
241.5809688902
 21
163.205696552
 31
0.0
  0
LINE
  5
250
330
1F
100
AcDbEntity
  8
0
  6
Continuous
 62
     7
370
    25
100
AcDbLine
 10
230.5943097236
 20
162.6263686023
 30
0.0
 11
230.5948575716
 21
162.6257628189
 31
0.0
  0
ARC
  5
251
330
1F
100
AcDbEntity
  8
0
  6
Continuous
 62
     7
370
    25
100
AcDbCircle
 10
234.1049273898
 20
154.3472006344
 30
0.0
 40
11.59155496206739
100
AcDbArc
 50
49.8376326145
 51
54.7286069047
  0
LWPOLYLINE
  5
252
330
1F
100
AcDbEntity
  8
0
  6
Continuous
 62
     7
370
    25
100
AcDbPolyline
 90
        4
 70
   128
 43
0.0
 10
259.2894964433
 20
158.5965513881
 10
259.292320442
 20
158.6138245382
 10
259.3036199272
 20
158.6829168631
 10
259.3115910776
 20
158.7316367679
  0
ARC
  5
253
330
1F
100
AcDbEntity
  8
0
  6
Continuous
 62
     7
370
    25
100
AcDbCircle
 10
266.7417603111
 20
189.3545761658
 30
0.0
 40
31.57783498432752
100
AcDbArc
 50
232.9032960505
 51
233.6851734779
  0
LINE
  5
254
330
1F
100
AcDbEntity
  8
0
  6
Continuous
 62
     7
370
    25
100
AcDbLine
 10
247.6952069163
 20
164.1675067437
 30
0.0
 11
247.7375954655
 21
164.2235611548
 31
0.0
  0
ARC
  5
255
330
1F
100
AcDbEntity
  8
0
  6
Continuous
 62
     7
370
    25
100
AcDbCircle
 10
266.7417603111
 20
189.3545761658
 30
0.0
 40
31.50755777528339
100
AcDbArc
 50
232.9032960505
 51
253.0172282196
  0
LINE
  5
256
330
1F
100
AcDbEntity
  8
0
  6
Continuous
 62
     7
370
    25
100
AcDbLine
 10
259.3115910776
 20
158.7316367679
 30
0.0
 11
257.5389023621
 21
159.2209802547
 31
0.0
  0
LINE
  5
257
330
1F
100
AcDbEntity
  8
0
  6
Continuous
 62
     7
370
    25
100
AcDbLine
 10
259.034504786
 20
148.2881952717
 30
0.0
 11
258.9603624727
 21
148.280362799
 31
0.0
  0
SPLINE
  5
258
330
1F
100
AcDbEntity
  8
0
  6
Continuous
 62
     7
370
    25
100
AcDbSpline
210
0.0
220
0.0
230
1.0
 70
     8
 71
     3
 72
    10
 73
     6
 74
     0
 42
0.00000001
 43
0.00000001
 40
0.0
 40
0.0
 40
0.0
 40
0.0
 40
0.049076908576164
 40
0.5995805843665283
 40
1.0
 40
1.0
 40
1.0
 40
1.0
 10
241.5809688902367
 20
163.2056965520474
 30
0.0
 10
241.5994145994301
 20
163.1904456694805
 30
0.0
 10
241.8247688325731
 20
163.0041231535185
 30
0.0
 10
242.2625298566568
 20
162.7552275037225
 30
0.0
 10
242.7222936276038
 20
162.6807288578846
 30
0.0
 10
242.9158932385003
 20
162.6493585982907
 30
0.0
  0
ARC
  5
259
330
1F
100
AcDbEntity
  8
0
  6
Continuous
 62
     7
370
    25
100
AcDbCircle
 10
259.4072402997
 20
159.0825686003
 30
0.0
 40
0.5000763405162769
100
AcDbArc
 50
256.3817458054
 51
264.912595502
  0
SPLINE
  5
25A
330
1F
100
AcDbEntity
  8
0
  6
Continuous
 62
     7
370
    25
100
AcDbSpline
210
0.0
220
0.0
230
1.0
 70
     8
 71
     3
 72
     9
 73
     5
 74
     0
 42
0.00000001
 43
0.00000001
 40
0.0
 40
0.0
 40
0.0
 40
0.0
 40
0.8458911907784005
 40
1.0
 40
1.0
 40
1.0
 40
1.0
 10
259.3115910776372
 20
158.7316367679074
 30
0.0
 10
259.3322917859992
 20
158.7271241332042
 30
0.0
 10
259.3567638559152
 20
158.7217893634934
 30
0.0
 10
259.381264498032
 20
158.719237548706
 30
0.0
 10
259.3850402628137
 20
158.7188442915678
 30
0.0
  0
LINE
  5
25B
330
1F
100
AcDbEntity
  8
0
  6
Continuous
 62
     7
370
    25
100
AcDbLine
 10
277.3344945057
 20
157.048771833
 30
0.0
 11
277.3340375869
 21
157.0488122889
 31
0.0
  0
LINE
  5
25C
330
1F
100
AcDbEntity
  8
0
  6
Continuous
 62
     7
370
    25
100
AcDbLine
 10
247.0048238137
 20
143.6372796962
 30
0.0
 11
245.1336349685
 21
142.7026343669
 31
0.0
  0
LINE
  5
25D
330
1F
100
AcDbEntity
  8
0
  6
Continuous
 62
     7
370
    25
100
AcDbLine
 10
244.4564241468
 20
144.5841675601
 30
0.0
 11
245.1336349685
 21
142.7026343669
 31
0.0
  0
LINE
  5
25E
330
1F
100
AcDbEntity
  8
0
  6
Continuous
 62
     7
370
    25
100
AcDbLine
 10
241.455246583
 20
144.2056340547
 30
0.0
 11
241.2664419112
 21
142.2148717761
 31
0.0
  0
LINE
  5
25F
330
1F
100
AcDbEntity
  8
0
  6
Continuous
 62
     7
370
    25
100
AcDbLine
 10
241.2664419112
 20
142.2148717761
 30
0.0
 11
239.8313445869
 21
142.4715047314
 31
0.0
  0
ARC
  5
260
330
1F
100
AcDbEntity
  8
0
  6
Continuous
 62
     7
370
    25
100
AcDbCircle
 10
242.1095493631
 20
151.1046227343
 30
0.0
 40
6.9299463871443
100
AcDbArc
 50
264.5822507961
 51
289.795071751
  0
ARC
  5
261
330
1F
100
AcDbEntity
  8
0
  6
Continuous
 62
     7
370
    25
100
AcDbCircle
 10
242.1095493631
 20
151.1046227343
 30
0.0
 40
8.92964177745709
100
AcDbArc
 50
264.5822507961
 51
289.795071751
  0
ARC
  5
262
330
1F
100
AcDbEntity
  8
0
  6
Continuous
 62
     7
370
    25
100
AcDbCircle
 10
242.3091853921
 20
157.0450581188
 30
0.0
 40
6.929946387144287
100
AcDbArc
 50
52.9032960505
 51
100.9333063994
  0
LINE
  5
263
330
1F
100
AcDbEntity
  8
0
  6
Continuous
 62
     7
370
    25
100
AcDbLine
 10
240.994808588
 20
163.8492164462
 30
0.0
 11
240.6155339025
 21
165.8126146145
 31
0.0
  0
ARC
  5
264
330
1F
100
AcDbEntity
  8
0
  6
Continuous
 62
     7
370
    25
100
AcDbCircle
 10
242.3091853921
 20
157.0450581188
 30
0.0
 40
8.929641777457082
100
AcDbArc
 50
52.9032960505
 51
100.9333063994
  0
LINE
  5
265
330
1F
100
AcDbEntity
  8
0
  6
Continuous
 62
     7
370
    25
100
AcDbLine
 10
246.4890664369
 20
162.5725124497
 30
0.0
 11
247.6952069163
 21
164.1675067437
 31
0.0
  0
ARC
  5
266
330
1F
100
AcDbEntity
  8
0
  6
Continuous
 62
     7
370
    25
100
AcDbCircle
 10
266.7417603111
 20
189.3545761658
 30
0.0
 40
33.57753037464033
100
AcDbArc
 50
232.9032960505
 51
233.6851734779
  0
ARC
  5
267
330
1F
100
AcDbEntity
  8
0
  6
Continuous
 62
     7
370
    25
100
AcDbCircle
 10
249.7402815311
 20
118.5763674685
 30
0.0
 40
46.10980537323361
100
AcDbArc
 50
100.9333063994
 51
101.1818887889
  0
ARC
  5
268
330
1F
100
AcDbEntity
  8
0
  6
Continuous
 62
     7
370
    25
100
AcDbCircle
 10
242.1095493631
 20
151.1046227343
 30
0.0
 40
8.999918986501262
100
AcDbArc
 50
255.2171445356
 51
303.2471548844
  0
ARC
  5
269
330
1F
100
AcDbEntity
  8
0
  6
Continuous
 62
     7
370
    25
100
AcDbCircle
 10
242.3091853921
 20
157.0450581188
 30
0.0
 40
8.999918986501227
100
AcDbArc
 50
52.9032960505
 51
100.9333063994
  0
LINE
  5
26A
330
1F
100
AcDbEntity
  8
0
  6
Continuous
 62
     7
370
    25
100
AcDbLine
 10
249.9049273898
 20
173.3540868051
 30
0.0
 11
251.5229182456
 21
173.8137813881
 31
0.0
  0
LINE
  5
26B
330
1F
100
AcDbEntity
  8
0
  6
Continuous
 62
     7
370
    25
100
AcDbLine
 10
216.7087174538
 20
173.8137813881
 30
0.0
 11
218.4122320899
 21
173.3724556775
 31
0.0
  0
SPLINE
  5
26C
330
1F
100
AcDbEntity
  8
0
  6
Continuous
 62
     7
370
    25
100
AcDbSpline
210
0.0
220
0.0
230
1.0
 70
     8
 71
     3
 72
    11
 73
     7
 74
     0
 42
0.00000001
 43
0.00000001
 40
0.0
 40
0.0
 40
0.0
 40
0.0
 40
0.2646093757676106
 40
0.534956964324257
 40
0.765347882437978
 40
1.0
 40
1.0
 40
1.0
 40
1.0
 10
216.6869365340282
 20
173.8137813881452
 30
0.0
 10
216.6888269968533
 20
173.3647169010762
 30
0.0
 10
216.6926489183221
 20
172.4568496945896
 30
0.0
 10
216.6983115388854
 20
172.1247561032826
 30
0.0
 10
216.7037245539258
 20
172.6122595821037
 30
0.0
 10
216.7070430181073
 20
173.4108349981639
 30
0.0
 10
216.7087174537779
 20
173.8137813881452
 30
0.0
  0
SPLINE
  5
26D
330
1F
100
AcDbEntity
  8
0
  6
Continuous
 62
     7
370
    25
100
AcDbSpline
210
0.0
220
0.0
230
1.0
 70
     8
 71
     3
 72
    12
 73
     8
 74
     0
 42
0.00000001
 43
0.00000001
 40
0.0
 40
0.0
 40
0.0
 40
0.0
 40
0.1820499033062397
 40
0.3656406087374416
 40
0.6149613348991655
 40
0.8710066969717196
 40
1.0
 40
1.0
 40
1.0
 40
1.0
 10
234.0831464700737
 20
173.8137813881455
 30
0.0
 10
233.047581665779
 20
173.4948175032575
 30
0.0
 10
230.9676874249541
 20
172.8541901427503
 30
0.0
 10
227.3791009150468
 20
172.2441891614753
 30
0.0
 10
223.3075649182445
 20
172.210635287288
 30
0.0
 10
219.6051627368666
 20
172.8955172256844
 30
0.0
 10
217.419248258254
 20
173.58334839037
 30
0.0
 10
216.6869365340282
 20
173.8137813881452
 30
0.0
  0
SPLINE
  5
26E
330
1F
100
AcDbEntity
  8
0
  6
Continuous
 62
     7
370
    25
100
AcDbSpline
210
0.0
220
0.0
230
1.0
 70
     8
 71
     3
 72
    11
 73
     7
 74
     0
 42
0.00000001
 43
0.00000001
 40
0.0
 40
0.0
 40
0.0
 40
0.0
 40
0.2646093757676108
 40
0.5349569643242567
 40
0.7653478824379779
 40
1.0
 40
1.0
 40
1.0
 40
1.0
 10
251.5011373258689
 20
173.8137813881456
 30
0.0
 10
249.9893524894413
 20
173.3647169010765
 30
0.0
 10
246.9329988569947
 20
172.4568496945899
 30
0.0
 10
242.4046559621313
 20
172.1247561032828
 30
0.0
 10
238.0759201898328
 20
172.612259582104
 30
0.0
 10
235.4221764804318
 20
173.4108349981641
 30
0.0
 10
234.0831464700737
 20
173.8137813881455
 30
0.0
  0
SPLINE
  5
26F
330
1F
100
AcDbEntity
  8
0
  6
Continuous
 62
     7
370
    25
100
AcDbSpline
210
0.0
220
0.0
230
1.0
 70
     8
 71
     3
 72
    11
 73
     7
 74
     0
 42
0.00000001
 43
0.00000001
 40
0.0
 40
0.0
 40
0.0
 40
0.0
 40
0.2646093757676103
 40
0.5349569643242567
 40
0.7653478824379781
 40
1.0
 40
1.0
 40
1.0
 40
1.0
 10
251.5229182456186
 20
173.8137813881456
 30
0.0
 10
251.5210277827936
 20
173.3647169010765
 30
0.0
 10
251.5172058613248
 20
172.4568496945899
 30
0.0
 10
251.5115432407614
 20
172.1247561032829
 30
0.0
 10
251.5061302257211
 20
172.6122595821041
 30
0.0
 10
251.5028117615395
 20
173.4108349981643
 30
0.0
 10
251.5011373258689
 20
173.8137813881456
 30
0.0
  0
LINE
  5
270
330
1F
100
AcDbEntity
  8
0
  6
Continuous
 62
     7
370
    25
100
AcDbLine
 10
216.8236405609
 20
172.1972006344
 30
0.0
 11
251.3862142188
 21
172.1972006344
 31
0.0
  0
SPLINE
  5
271
330
1F
100
AcDbEntity
  8
0
  6
Continuous
 62
     7
370
    25
100
AcDbSpline
210
0.0
220
0.0
230
1.0
 70
     8
 71
     3
 72
    11
 73
     7
 74
     0
 42
0.00000001
 43
0.00000001
 40
0.0
 40
0.0
 40
0.0
 40
0.0
 40
0.2646093757676103
 40
0.534956964324257
 40
0.7653478824379784
 40
1.0
 40
1.0
 40
1.0
 40
1.0
 10
234.0831464700736
 20
186.4806198806835
 30
0.0
 10
235.5949313065012
 20
186.9296843677526
 30
0.0
 10
238.6512849389478
 20
187.8375515742392
 30
0.0
 10
243.1796278338112
 20
188.1696451655463
 30
0.0
 10
247.5083636061098
 20
187.6821416867251
 30
0.0
 10
250.1621073155108
 20
186.883566270665
 30
0.0
 10
251.5011373258688
 20
186.4806198806837
 30
0.0
  0
LINE
  5
272
330
1F
100
AcDbEntity
  8
0
  6
Continuous
 62
     7
370
    25
100
AcDbLine
 10
251.5011373259
 20
173.8137813881
 30
0.0
 11
251.5011373259
 21
186.4806198807
 31
0.0
  0
LINE
  5
273
330
1F
100
AcDbEntity
  8
0
  6
Continuous
 62
     7
370
    25
100
AcDbLine
 10
234.0831464701
 20
173.8137813881
 30
0.0
 11
234.0831464701
 21
186.4806198807
 31
0.0
  0
LINE
  5
274
330
1F
100
AcDbEntity
  8
0
  6
Continuous
 62
     7
370
    25
100
AcDbLine
 10
216.686936534
 20
173.8137813881
 30
0.0
 11
216.686936534
 21
186.4806198807
 31
0.0
  0
SPLINE
  5
275
330
1F
100
AcDbEntity
  8
0
  6
Continuous
 62
     7
370
    25
100
AcDbSpline
210
0.0
220
0.0
230
1.0
 70
     8
 71
     3
 72
    12
 73
     8
 74
     0
 42
0.00000001
 43
0.00000001
 40
0.0
 40
0.0
 40
0.0
 40
0.0
 40
0.128993750873828
 40
0.3786272441489033
 40
0.6343574588057702
 40
0.8162656302547753
 40
1.0
 40
1.0
 40
1.0
 40
1.0
 10
216.686936534028
 20
186.4806198806833
 30
0.0
 10
217.4192600673449
 20
186.7110583193343
 30
0.0
 10
219.5688032767392
 20
187.387449775365
 30
0.0
 10
223.2690448686238
 20
188.079585259578
 30
0.0
 10
227.3318320031237
 20
188.0567828843242
 30
0.0
 10
230.9578919180335
 20
187.4425477392677
 30
0.0
 10
233.0379320390001
 20
186.8023283568099
 30
0.0
 10
234.0831464700736
 20
186.4806198806835
 30
0.0
  0
LINE
  5
276
330
1F
100
AcDbEntity
  8
0
  6
Continuous
 62
     7
370
    25
100
AcDbLine
 10
247.4049273898
 20
187.8472006344
 30
0.0
 11
247.1049273898
 21
187.8472006344
 31
0.0
  0
LINE
  5
277
330
1F
100
AcDbEntity
  8
0
  6
Continuous
 62
     7
370
    25
100
AcDbLine
 10
221.1049273898
 20
187.8472006344
 30
0.0
 11
220.8049273898
 21
187.8472006344
 31
0.0
  0
LINE
  5
278
330
1F
100
AcDbEntity
  8
0
  6
Continuous
 62
     7
370
    25
100
AcDbLine
 10
251.5229182456
 20
173.8137813881
 30
0.0
 11
251.5229182456
 21
186.4806198807
 31
0.0
  0
SPLINE
  5
279
330
1F
100
AcDbEntity
  8
0
  6
Continuous
 62
     7
370
    25
100
AcDbSpline
210
0.0
220
0.0
230
1.0
 70
     8
 71
     3
 72
    11
 73
     7
 74
     0
 42
0.00000001
 43
0.00000001
 40
0.0
 40
0.0
 40
0.0
 40
0.0
 40
0.2646093757676104
 40
0.5349569643242568
 40
0.7653478824379782
 40
1.0
 40
1.0
 40
1.0
 40
1.0
 10
251.5011373258688
 20
186.4806198806837
 30
0.0
 10
251.5030277886939
 20
186.9296843677528
 30
0.0
 10
251.5068497101627
 20
187.8375515742393
 30
0.0
 10
251.512512330726
 20
188.1696451655463
 30
0.0
 10
251.5179253457663
 20
187.6821416867251
 30
0.0
 10
251.5212438099479
 20
186.883566270665
 30
0.0
 10
251.5229182456185
 20
186.4806198806837
 30
0.0
  0
SPLINE
  5
27A
330
1F
100
AcDbEntity
  8
0
  6
Continuous
 62
     7
370
    25
100
AcDbSpline
210
0.0
220
0.0
230
1.0
 70
     8
 71
     3
 72
    11
 73
     7
 74
     0
 42
0.00000001
 43
0.00000001
 40
0.0
 40
0.0
 40
0.0
 40
0.0
 40
0.2646093757676103
 40
0.534956964324257
 40
0.7653478824379781
 40
1.0
 40
1.0
 40
1.0
 40
1.0
 10
28.53580372431952
 20
186.4806198806813
 30
0.0
 10
30.0707368477138
 20
186.9296843677504
 30
0.0
 10
33.17388903856008
 20
187.837551574237
 30
0.0
 10
37.7715694332367
 20
188.169645165544
 30
0.0
 10
42.16658634253659
 20
187.6821416867229
 30
0.0
 10
44.86096389045805
 20
186.8835662706628
 30
0.0
 10
46.2204969844493
 20
186.4806198806814
 30
0.0
  0
LINE
  5
27B
330
1F
100
AcDbEntity
  8
0
  6
Continuous
 62
     7
370
    25
100
AcDbLine
 10
46.2204969844
 20
173.8137813881
 30
0.0
 11
46.2204969844
 21
186.4806198807
 31
0.0
  0
SPLINE
  5
27C
330
1F
100
AcDbEntity
  8
0
  6
Continuous
 62
     7
370
    25
100
AcDbSpline
210
0.0
220
0.0
230
1.0
 70
     8
 71
     3
 72
    11
 73
     7
 74
     0
 42
0.00000001
 43
0.00000001
 40
0.0
 40
0.0
 40
0.0
 40
0.0
 40
0.2646093757676102
 40
0.5349569643242568
 40
0.7653478824379779
 40
1.0
 40
1.0
 40
1.0
 40
1.0
 10
46.22049698444944
 20
173.8137813881434
 30
0.0
 10
44.68556386105521
 20
173.3647169010743
 30
0.0
 10
41.5824116702089
 20
172.4568496945877
 30
0.0
 10
36.98473127553223
 20
172.1247561032806
 30
0.0
 10
32.58971436623237
 20
172.6122595821018
 30
0.0
 10
29.89533681831091
 20
173.4108349981619
 30
0.0
 10
28.53580372431963
 20
173.8137813881432
 30
0.0
  0
LINE
  5
27D
330
1F
100
AcDbEntity
  8
0
  6
Continuous
 62
     7
370
    25
100
AcDbLine
 10
28.5358037243
 20
173.8137813881
 30
0.0
 11
28.5358037243
 21
186.4806198807
 31
0.0
  0
SPLINE
  5
27E
330
1F
100
AcDbEntity
  8
0
  6
Continuous
 62
     7
370
    25
100
AcDbSpline
210
0.0
220
0.0
230
1.0
 70
     8
 71
     3
 72
    12
 73
     8
 74
     0
 42
0.00000001
 43
0.00000001
 40
0.0
 40
0.0
 40
0.0
 40
0.0
 40
0.1289937508738282
 40
0.3786272441489029
 40
0.6343574588057698
 40
0.8162656302547747
 40
1.0
 40
1.0
 40
1.0
 40
1.0
 10
28.53580372431966
 20
173.8137813881432
 30
0.0
 10
27.81529423136994
 20
173.5833429494922
 30
0.0
 10
25.70042803164602
 20
172.9069514934615
 30
0.0
 10
22.0598797331569
 20
172.2148160092486
 30
0.0
 10
18.06263457433638
 20
172.2376183845024
 30
0.0
 10
14.49507123404078
 20
172.8518535295588
 30
0.0
 10
12.44858688021311
 20
173.4920729120167
 30
0.0
 10
11.42023412969367
 20
173.813781388143
 30
0.0
  0
SPLINE
  5
27F
330
1F
100
AcDbEntity
  8
0
  6
Continuous
 62
     7
370
    25
100
AcDbSpline
210
0.0
220
0.0
230
1.0
 70
     8
 71
     3
 72
    11
 73
     7
 74
     0
 42
0.00000001
 43
0.00000001
 40
0.0
 40
0.0
 40
0.0
 40
0.0
 40
0.2646093757676104
 40
0.5349569643242568
 40
0.765347882437978
 40
1.0
 40
1.0
 40
1.0
 40
1.0
 10
46.78962064995329
 20
173.8137813881434
 30
0.0
 10
46.74022387769153
 20
173.3647169010743
 30
0.0
 10
46.64035913457765
 20
172.4568496945877
 30
0.0
 10
46.49239791859591
 20
172.1247561032807
 30
0.0
 10
46.35095876007728
 20
172.6122595821019
 30
0.0
 10
46.26424908387492
 20
173.4108349981621
 30
0.0
 10
46.22049698444944
 20
173.8137813881434
 30
0.0
  0
SPLINE
  5
280
330
1F
100
AcDbEntity
  8
0
  6
Continuous
 62
     7
370
    25
100
AcDbSpline
210
0.0
220
0.0
230
1.0
 70
     8
 71
     3
 72
     9
 73
     5
 74
     0
 42
0.00000001
 43
0.00000001
 40
0.0
 40
0.0
 40
0.0
 40
0.0
 40
0.55620292122087
 40
1.0
 40
1.0
 40
1.0
 40
1.0
 10
11.4202341296937
 20
173.813781388143
 30
0.0
 10
11.46960796098687
 20
173.3433317296349
 30
0.0
 10
11.55837741797711
 20
172.4975079474164
 30
0.0
 10
11.65018172087223
 20
172.3934906966762
 30
0.0
 10
11.69092420231646
 20
172.3473281446551
 30
0.0
  0
SPLINE
  5
281
330
1F
100
AcDbEntity
  8
0
  6
Continuous
 62
     7
370
    25
100
AcDbSpline
210
0.0
220
0.0
230
1.0
 70
     8
 71
     3
 72
    11
 73
     7
 74
     0
 42
0.00000001
 43
0.00000001
 40
0.0
 40
0.0
 40
0.0
 40
0.0
 40
0.2646093757676105
 40
0.5349569643242568
 40
0.7653478824379781
 40
1.0
 40
1.0
 40
1.0
 40
1.0
 10
46.2204969844493
 20
186.4806198806814
 30
0.0
 10
46.26989375671103
 20
186.9296843677505
 30
0.0
 10
46.36975849982489
 20
187.8375515742371
 30
0.0
 10
46.51771971580673
 20
188.1696451655441
 30
0.0
 10
46.65915887432526
 20
187.6821416867229
 30
0.0
 10
46.74586855052767
 20
186.8835662706628
 30
0.0
 10
46.78962064995315
 20
186.4806198806814
 30
0.0
  0
SPLINE
  5
282
330
1F
100
AcDbEntity
  8
0
  6
Continuous
 62
     7
370
    25
100
AcDbSpline
210
0.0
220
0.0
230
1.0
 70
     8
 71
     3
 72
    12
 73
     8
 74
     0
 42
0.00000001
 43
0.00000001
 40
0.0
 40
0.0
 40
0.0
 40
0.0
 40
0.1820499033062402
 40
0.365640608737442
 40
0.6149613348991657
 40
0.8710066969717195
 40
1.0
 40
1.0
 40
1.0
 40
1.0
 10
11.42023412969356
 20
186.4806198806811
 30
0.0
 10
12.4390929238109
 20
186.799583765569
 30
0.0
 10
14.4854337508746
 20
187.4402111260762
 30
0.0
 10
18.01612821722431
 20
188.0502121073512
 30
0.0
 10
22.02198109934556
 20
188.0837659815385
 30
0.0
 10
25.66465513211669
 20
187.3988840431421
 30
0.0
 10
27.81530584995343
 20
186.7110528784566
 30
0.0
 10
28.53580372431952
 20
186.4806198806813
 30
0.0
  0
SPLINE
  5
283
330
1F
100
AcDbEntity
  8
0
  6
Continuous
 62
     7
370
    25
100
AcDbSpline
210
0.0
220
0.0
230
1.0
 70
     8
 71
     3
 72
    11
 73
     7
 74
     0
 42
0.00000001
 43
0.00000001
 40
0.0
 40
0.0
 40
0.0
 40
0.0
 40
0.2646093757676103
 40
0.5349569643242568
 40
0.7653478824379782
 40
1.0
 40
1.0
 40
1.0
 40
1.0
 10
11.98935779519741
 20
186.4806198806811
 30
0.0
 10
11.93996102293565
 20
186.9296843677502
 30
0.0
 10
11.84009627982177
 20
187.8375515742368
 30
0.0
 10
11.69213506384001
 20
188.1696451655438
 30
0.0
 10
11.55069590532148
 20
187.6821416867225
 30
0.0
 10
11.46398622911904
 20
186.8835662706624
 30
0.0
 10
11.42023412969356
 20
186.4806198806811
 30
0.0
  0
SPLINE
  5
284
330
1F
100
AcDbEntity
  8
0
  6
Continuous
 62
     7
370
    25
100
AcDbSpline
210
0.0
220
0.0
230
1.0
 70
     8
 71
     3
 72
     9
 73
     5
 74
     0
 42
0.00000001
 43
0.00000001
 40
0.0
 40
0.0
 40
0.0
 40
0.0
 40
0.0036504154713647
 40
0.9999999999999999
 40
0.9999999999999999
 40
0.9999999999999999
 40
0.9999999999999999
 10
16.10492738982333
 20
187.5663548996897
 30
0.0
 10
16.09981100737706
 20
187.5657812844391
 30
0.0
 10
14.69822193172449
 20
187.4086443078268
 30
0.0
 10
13.34131322318952
 20
186.9437836269432
 30
0.0
 10
11.98935779519741
 20
186.4806198806811
 30
0.0
  0
SPLINE
  5
285
330
1F
100
AcDbEntity
  8
0
  6
Continuous
 62
     7
370
    25
100
AcDbSpline
210
0.0
220
0.0
230
1.0
 70
     8
 71
     3
 72
     9
 73
     5
 74
     0
 42
0.00000001
 43
0.00000001
 40
0.0
 40
0.0
 40
0.0
 40
0.0
 40
0.4678925056404757
 40
1.0
 40
1.0
 40
1.0
 40
1.0
 10
46.78962064995315
 20
186.4806198806814
 30
0.0
 10
46.07033320212376
 20
186.7204479143227
 30
0.0
 10
44.53304111225626
 20
187.2330187094309
 30
0.0
 10
42.94822168452547
 20
187.477335578537
 30
0.0
 10
42.10492738982335
 20
187.6073384155868
 30
0.0
  0
LINE
  5
286
330
1F
100
AcDbEntity
  8
0
  6
Continuous
 62
     7
370
    25
100
AcDbLine
 10
46.4017116271
 20
188.0972006344
 30
0.0
 11
11.8081431526
 21
188.0972006344
 31
0.0
  0
LINE
  5
287
330
1F
100
AcDbEntity
  8
0
  6
Continuous
 62
     7
370
    25
100
AcDbLine
 10
11.4202341297
 20
173.8137813881
 30
0.0
 11
11.4202341297
 21
186.4806198807
 31
0.0
  0
LINE
  5
288
330
1F
100
AcDbEntity
  8
0
  6
Continuous
 62
     7
370
    25
100
AcDbLine
 10
46.78962065
 20
173.8137813881
 30
0.0
 11
46.78962065
 21
186.4806198807
 31
0.0
  0
LINE
  5
289
330
1F
100
AcDbEntity
  8
0
  6
Continuous
 62
     7
370
    25
100
AcDbLine
 10
53.9049273898
 20
208.2972006344
 30
0.0
 11
4.3049273898
 21
208.2972006344
 31
0.0
  0
LINE
  5
28A
330
1F
100
AcDbEntity
  8
0
  6
Continuous
 62
     7
370
    25
100
AcDbLine
 10
3.8049273898
 20
212.2972006344
 30
0.0
 11
54.4049273898
 21
212.2972006344
 31
0.0
  0
ELLIPSE
  5
28B
330
1F
100
AcDbEntity
  8
0
  6
Continuous
 62
     7
370
    25
100
AcDbEllipse
 10
49.304084934
 20
207.2972006344
 30
0.0
 11
1.759670971157199
 21
2.842170943040401E-14
 31
0.0
210
0.0
220
0.0
230
1.0
 40
0.5682880586
 41
1.570796326794887
 42
3.141592653589765
  0
LINE
  5
28C
330
1F
100
AcDbEntity
  8
0
  6
Continuous
 62
     7
370
    25
100
AcDbLine
 10
47.5444139629
 20
207.2972006344
 30
0.0
 11
38.7656297035
 21
207.2972006344
 31
0.0
  0
ELLIPSE
  5
28D
330
1F
100
AcDbEntity
  8
0
  6
Continuous
 62
     7
370
    25
100
AcDbEllipse
 10
38.709000483
 20
207.2972006344
 30
0.0
 11
0.0
 21
1.0
 31
0.0
210
0.0
220
0.0
230
1.0
 40
0.0566292204
 41
4.712388980384691
 42
6.283185307179586
  0
ELLIPSE
  5
28E
330
1F
100
AcDbEntity
  8
0
  6
Continuous
 62
     7
370
    25
100
AcDbEllipse
 10
38.709000483
 20
207.2972006344
 30
0.0
 11
1.703041750709041
 21
2.842170943040401E-14
 31
0.0
210
0.0
220
0.0
230
1.0
 40
0.5871846651
 41
1.570796326794903
 42
3.141592653589793
  0
LINE
  5
28F
330
1F
100
AcDbEntity
  8
0
  6
Continuous
 62
     7
370
    25
100
AcDbLine
 10
37.0059587323
 20
207.2972006344
 30
0.0
 11
20.2695139099
 21
207.2972006344
 31
0.0
  0
ELLIPSE
  5
290
330
1F
100
AcDbEntity
  8
0
  6
Continuous
 62
     7
370
    25
100
AcDbEllipse
 10
18.5098429388
 20
207.2972006344
 30
0.0
 11
1.759670971157199
 21
0.0
 31
0.0
210
0.0
220
0.0
230
1.0
 40
0.5682880586
 41
0.0
 42
1.570796326794913
  0
LINE
  5
291
330
1F
100
AcDbEntity
  8
0
  6
Continuous
 62
     7
370
    25
100
AcDbLine
 10
38.7656297035
 20
207.2972006344
 30
0.0
 11
37.0059587323
 21
207.2972006344
 31
0.0
  0
LINE
  5
292
330
1F
100
AcDbEntity
  8
0
  6
Continuous
 62
     7
370
    25
100
AcDbLine
 10
20.2695139099
 20
207.2972006344
 30
0.0
 11
18.5664721592
 21
207.2972006344
 31
0.0
  0
ELLIPSE
  5
293
330
1F
100
AcDbEntity
  8
0
  6
Continuous
 62
     7
370
    25
100
AcDbEllipse
 10
18.5098429388
 20
207.2972006344
 30
0.0
 11
0.0
 21
1.0
 31
0.0
210
0.0
220
0.0
230
1.0
 40
0.0566292204
 41
4.712388980384691
 42
6.283185307179586
  0
LINE
  5
294
330
1F
100
AcDbEntity
  8
0
  6
Continuous
 62
     7
370
    25
100
AcDbLine
 10
18.5664721592
 20
207.2972006344
 30
0.0
 11
10.6088115963
 21
207.2972006344
 31
0.0
  0
ELLIPSE
  5
295
330
1F
100
AcDbEntity
  8
0
  6
Continuous
 62
     7
370
    25
100
AcDbEllipse
 10
8.9057698456
 20
207.2972006344
 30
0.0
 11
1.703041750709039
 21
0.0
 31
0.0
210
0.0
220
0.0
230
1.0
 40
0.5871846651
 41
0.0
 42
1.570796326794912
  0
LINE
  5
296
330
1F
100
AcDbEntity
  8
0
  6
Continuous
 62
     7
370
    25
100
AcDbLine
 10
38.7656297035
 20
207.2972006344
 30
0.0
 11
38.7656297035
 21
194.824658887
 31
0.0
  0
SPLINE
  5
297
330
1F
100
AcDbEntity
  8
0
  6
Continuous
 62
     7
370
    25
100
AcDbSpline
210
0.0
220
0.0
230
1.0
 70
     8
 71
     3
 72
    11
 73
     7
 74
     0
 42
0.00000001
 43
0.00000001
 40
0.0
 40
0.0
 40
0.0
 40
0.0
 40
0.1883467346499955
 40
0.5045742105980937
 40
0.8244987390967916
 40
1.0
 40
1.0
 40
1.0
 40
1.0
 10
38.76562970347033
 20
194.8246588869511
 30
0.0
 10
38.69032422999799
 20
194.8304503321491
 30
0.0
 10
38.48858354199702
 20
194.8459654080777
 30
0.0
 10
38.01854390742179
 20
194.854269564177
 30
0.0
 10
37.47359422177349
 20
194.8454366866225
 30
0.0
 10
37.12828293730827
 20
194.8300939488411
 30
0.0
 10
37.00595873230287
 20
194.824658886953
 30
0.0
  0
LINE
  5
298
330
1F
100
AcDbEntity
  8
0
  6
Continuous
 62
     7
370
    25
100
AcDbLine
 10
37.0059587323
 20
194.824658887
 30
0.0
 11
37.0059587323
 21
207.2972006344
 31
0.0
  0
ARC
  5
299
330
1F
100
AcDbEntity
  8
0
  6
Continuous
 62
     7
370
    25
100
AcDbCircle
 10
37.7381889056
 20
194.8347967145
 30
0.0
 40
1.027490811927434
100
AcDbArc
 50
285.6600875045
 51
359.4346770303
  0
SPLINE
  5
29A
330
1F
100
AcDbEntity
  8
0
  6
Continuous
 62
     7
370
    25
100
AcDbSpline
210
0.0
220
0.0
230
1.0
 70
     8
 71
     3
 72
    11
 73
     7
 74
     0
 42
0.00000001
 43
0.00000001
 40
0.0
 40
0.0
 40
0.0
 40
0.0
 40
0.1755702971684215
 40
0.4954273686125913
 40
0.811583119142455
 40
1.0
 40
1.0
 40
1.0
 40
1.0
 10
37.12557319629342
 20
193.8454463468131
 30
0.0
 10
37.18729527152723
 20
193.8508811649753
 30
0.0
 10
37.36146371466123
 20
193.8662172309523
 30
0.0
 10
37.63691969516123
 20
193.875060638642
 30
0.0
 10
37.87489704811856
 20
193.8667461164598
 30
0.0
 10
37.97730005595867
 20
193.8512375400259
 30
0.0
 10
38.01553925905343
 20
193.8454463468131
 30
0.0
  0
ARC
  5
29B
330
1F
100
AcDbEntity
  8
0
  6
Continuous
 62
     7
370
    25
100
AcDbCircle
 10
49.8708854077
 20
195.8992457167
 30
0.0
 40
12.90972792966965
100
AcDbArc
 50
184.77474132
 51
189.1540389589
  0
SPLINE
  5
29C
330
1F
100
AcDbEntity
  8
0
  6
Continuous
 62
     7
370
    25
100
AcDbSpline
210
0.0
220
0.0
230
1.0
 70
     8
 71
     3
 72
    10
 73
     6
 74
     0
 42
0.00000001
 43
0.00000001
 40
0.0
 40
0.0
 40
0.0
 40
0.0
 40
0.499392043223237
 40
0.8818015523862028
 40
1.0
 40
1.0
 40
1.0
 40
1.0
 10
37.12557319629342
 20
193.8454463468131
 30
0.0
 10
34.30833113659295
 20
193.6346881082365
 30
0.0
 10
29.33378567596162
 20
193.262541726497
 30
0.0
 10
23.67801164893266
 20
193.5261140055962
 30
0.0
 10
20.86144182363686
 20
193.7844505543698
 30
0.0
 10
20.1964220682791
 20
193.8454463468129
 30
0.0
  0
ARC
  5
29D
330
1F
100
AcDbEntity
  8
0
  6
Continuous
 62
     7
370
    25
100
AcDbCircle
 10
32.8960689988
 20
193.3898345602
 30
0.0
 40
12.70781705329401
100
AcDbArc
 50
173.5169777305
 51
177.9453411859
  0
SPLINE
  5
29E
330
1F
100
AcDbEntity
  8
0
  6
Continuous
 62
     7
370
    25
100
AcDbSpline
210
0.0
220
0.0
230
1.0
 70
     8
 71
     3
 72
     9
 73
     5
 74
     0
 42
0.00000001
 43
0.00000001
 40
0.0
 40
0.0
 40
0.0
 40
0.0
 40
0.5005562931490408
 40
1.0
 40
1.0
 40
1.0
 40
1.0
 10
20.26951390996889
 20
194.8246588869509
 30
0.0
 10
23.06203761098741
 20
194.6053102428273
 30
0.0
 10
28.64087807156881
 20
194.1671005007348
 30
0.0
 10
34.21966747360769
 20
194.6056353941848
 30
0.0
 10
37.00595873230287
 20
194.824658886953
 30
0.0
  0
LINE
  5
29F
330
1F
100
AcDbEntity
  8
0
  6
Continuous
 62
     7
370
    25
100
AcDbLine
 10
20.2695139099
 20
207.2972006344
 30
0.0
 11
20.26951391
 21
194.824658887
 31
0.0
  0
SPLINE
  5
2A0
330
1F
100
AcDbEntity
  8
0
  6
Continuous
 62
     7
370
    25
100
AcDbSpline
210
0.0
220
0.0
230
1.0
 70
     8
 71
     3
 72
    10
 73
     6
 74
     0
 42
0.00000001
 43
0.00000001
 40
0.0
 40
0.0
 40
0.0
 40
0.0
 40
0.4890561215100164
 40
0.8793262989674614
 40
1.0
 40
1.0
 40
1.0
 40
1.0
 10
19.16255570049882
 20
193.8267524178203
 30
0.0
 10
17.86883278516271
 20
193.6258659105826
 30
0.0
 10
15.54271000907023
 20
193.2646705770565
 30
0.0
 10
12.92540519942031
 20
193.5266339001161
 30
0.0
 10
11.59906303320665
 20
193.7845356326
 30
0.0
 10
11.28581019904898
 20
193.8454463468128
 30
0.0
  0
SPLINE
  5
2A1
330
1F
100
AcDbEntity
  8
0
  6
Continuous
 62
     7
370
    25
100
AcDbSpline
210
0.0
220
0.0
230
1.0
 70
     8
 71
     3
 72
    11
 73
     7
 74
     0
 42
0.00000001
 43
0.00000001
 40
0.0
 40
0.0
 40
0.0
 40
0.0
 40
0.1755702971684258
 40
0.4954273686125952
 40
0.8115831191424537
 40
1.0
 40
1.0
 40
1.0
 40
1.0
 10
19.33509663503763
 20
193.8454463468129
 30
0.0
 10
19.36759985323788
 20
193.8508811649751
 30
0.0
 10
19.45931800900863
 20
193.8662172309521
 30
0.0
 10
19.6811746890122
 20
193.8750606386418
 30
0.0
 10
19.95356579624139
 20
193.8667461164597
 30
0.0
 10
20.13039188966098
 20
193.8512375400257
 30
0.0
 10
20.1964220682791
 20
193.8454463468129
 30
0.0
  0
SPLINE
  5
2A2
330
1F
100
AcDbEntity
  8
0
  6
Continuous
 62
     7
370
    25
100
AcDbSpline
210
0.0
220
0.0
230
1.0
 70
     8
 71
     3
 72
    10
 73
     6
 74
     0
 42
0.00000001
 43
0.00000001
 40
0.0
 40
0.0
 40
0.0
 40
0.0
 40
0.4999493505749387
 40
0.8818990399724891
 40
1.0
 40
1.0
 40
1.0
 40
1.0
 10
46.89540395107908
 20
193.8454463468132
 30
0.0
 10
45.42640101967066
 20
193.6345276204418
 30
0.0
 10
42.83511397542112
 20
193.2624718870254
 30
0.0
 10
39.85385554305903
 20
193.5264382631114
 30
0.0
 10
38.36675878943291
 20
193.7844982551709
 30
0.0
 10
38.01553925905343
 20
193.8454463468131
 30
0.0
  0
SPLINE
  5
2A3
330
1F
100
AcDbEntity
  8
0
  6
Continuous
 62
     7
370
    25
100
AcDbSpline
210
0.0
220
0.0
230
1.0
 70
     8
 71
     3
 72
     9
 73
     5
 74
     0
 42
0.00000001
 43
0.00000001
 40
0.0
 40
0.0
 40
0.0
 40
0.0
 40
0.0727884863148459
 40
1.0
 40
1.0
 40
1.0
 40
1.0
 10
47.00201666190476
 20
193.8618516005693
 30
0.0
 10
47.00138426530748
 20
193.8616993374781
 30
0.0
 10
46.99269612478824
 20
193.8596074806632
 30
0.0
 10
46.95707390911386
 20
193.8522594891483
 30
0.0
 10
46.9240445805976
 20
193.8454463468132
 30
0.0
  0
SPLINE
  5
2A4
330
1F
100
AcDbEntity
  8
0
  6
Continuous
 62
     7
370
    25
100
AcDbSpline
210
0.0
220
0.0
230
1.0
 70
     8
 71
     3
 72
    11
 73
     7
 74
     0
 42
0.00000001
 43
0.00000001
 40
0.0
 40
0.0
 40
0.0
 40
0.0
 40
0.1883467346483223
 40
0.5045742105936697
 40
0.824498739089572
 40
1.0
 40
1.0
 40
1.0
 40
1.0
 10
20.26951390996889
 20
194.8246588869509
 30
0.0
 10
20.13862054054566
 20
194.8304503321489
 30
0.0
 10
19.78796185420312
 20
194.8459654080775
 30
0.0
 10
19.24906580262845
 20
194.8542695641766
 30
0.0
 10
18.81095637639518
 20
194.8454366866227
 30
0.0
 10
18.63042440018636
 20
194.8300939488398
 30
0.0
 10
18.56647215923163
 20
194.824658886951
 30
0.0
  0
LINE
  5
2A5
330
1F
100
AcDbEntity
  8
0
  6
Continuous
 62
     7
370
    25
100
AcDbLine
 10
18.5664721592
 20
194.824658887
 30
0.0
 11
18.5664721592
 21
207.2972006344
 31
0.0
  0
ARC
  5
2A6
330
1F
100
AcDbEntity
  8
0
  6
Continuous
 62
     7
370
    25
100
AcDbCircle
 10
19.592458162
 20
194.8387289291
 30
0.0
 40
1.026082474205935
100
AcDbArc
 50
180.7856866483
 51
255.4739867895
  0
ARC
  5
2A7
330
1F
100
AcDbEntity
  8
0
  6
Continuous
 62
     7
370
    25
100
AcDbCircle
 10
46.6420064599
 20
194.7180792746
 30
0.0
 40
0.9086795447912609
100
AcDbArc
 50
286.1923821461
 51
6.7357638105
  0
SPLINE
  5
2A8
330
1F
100
AcDbEntity
  8
0
  6
Continuous
 62
     7
370
    25
100
AcDbSpline
210
0.0
220
0.0
230
1.0
 70
     8
 71
     3
 72
     9
 73
     5
 74
     0
 42
0.00000001
 43
0.00000001
 40
0.0
 40
0.0
 40
0.0
 40
0.0
 40
0.5000000000003494
 40
1.0
 40
1.0
 40
1.0
 40
1.0
 10
38.76562970347033
 20
194.8246588869511
 30
0.0
 10
40.22876041337117
 20
194.6054727079521
 30
0.0
 10
43.15502183317086
 20
194.1671003499544
 30
0.0
 10
46.08128325297059
 20
194.6054727079516
 30
0.0
 10
47.54441396286941
 20
194.82465888695
 30
0.0
  0
LINE
  5
2A9
330
1F
100
AcDbEntity
  8
0
  6
Continuous
 62
     7
370
    25
100
AcDbLine
 10
47.5444139629
 20
194.824658887
 30
0.0
 11
47.5444139629
 21
207.2972006344
 31
0.0
  0
ARC
  5
2AA
330
1F
100
AcDbEntity
  8
0
  6
Continuous
 62
     7
370
    25
100
AcDbCircle
 10
11.521459295
 20
194.7320018458
 30
0.0
 40
0.9173391679913343
100
AcDbArc
 50
174.202878985
 51
255.1147928552
  0
SPLINE
  5
2AB
330
1F
100
AcDbEntity
  8
0
  6
Continuous
 62
     7
370
    25
100
AcDbSpline
210
0.0
220
0.0
230
1.0
 70
     8
 71
     3
 72
     9
 73
     5
 74
     0
 42
0.00000001
 43
0.00000001
 40
0.0
 40
0.0
 40
0.0
 40
0.0
 40
0.4999999999999589
 40
1.0
 40
1.0
 40
1.0
 40
1.0
 10
10.6088115963219
 20
194.8246588869508
 30
0.0
 10
11.93508835680676
 20
194.6054727079518
 30
0.0
 10
14.58764187777667
 20
194.1671003499538
 30
0.0
 10
17.24019539874655
 20
194.6054727079519
 30
0.0
 10
18.56647215923163
 20
194.824658886951
 30
0.0
  0
LINE
  5
2AC
330
1F
100
AcDbEntity
  8
0
  6
Continuous
 62
     7
370
    25
100
AcDbLine
 10
10.6088115963
 20
207.2972006344
 30
0.0
 11
10.6088115963
 21
194.824658887
 31
0.0
  0
LINE
  5
2AD
330
1F
100
AcDbEntity
  8
0
  6
Continuous
 62
     7
370
    25
100
AcDbLine
 10
258.9049273898
 20
208.2972006344
 30
0.0
 11
209.3049419505
 21
208.2972006344
 31
0.0
  0
LINE
  5
2AE
330
1F
100
AcDbEntity
  8
0
  6
Continuous
 62
     7
370
    25
100
AcDbLine
 10
208.8049273898
 20
212.2972006344
 30
0.0
 11
259.4049125356
 21
212.2972006344
 31
0.0
  0
ELLIPSE
  5
2AF
330
1F
100
AcDbEntity
  8
0
  6
Continuous
 62
     7
370
    25
100
AcDbEllipse
 10
254.3121749473
 20
207.2972006344
 30
0.0
 11
1.733133418487085
 21
2.842170943040401E-14
 31
0.0
210
0.0
220
0.0
230
1.0
 40
0.5769896243
 41
1.57079632679492
 42
3.141592653589765
  0
LINE
  5
2B0
330
1F
100
AcDbEntity
  8
0
  6
Continuous
 62
     7
370
    25
100
AcDbLine
 10
252.5790415288
 20
207.2972006344
 30
0.0
 11
244.1917549369
 21
207.2972006344
 31
0.0
  0
ELLIPSE
  5
2B1
330
1F
100
AcDbEntity
  8
0
  6
Continuous
 62
     7
370
    25
100
AcDbEllipse
 10
244.1895876812
 20
207.2972006344
 30
0.0
 11
0.0
 21
1.0
 31
0.0
210
0.0
220
0.0
230
1.0
 40
0.0021672557
 41
4.71238898038469
 42
6.283185307179586
  0
LINE
  5
2B2
330
1F
100
AcDbEntity
  8
0
  6
Continuous
 62
     7
370
    25
100
AcDbLine
 10
244.1917549369
 20
207.2972006344
 30
0.0
 11
242.4586215184
 21
207.2972006344
 31
0.0
  0
ELLIPSE
  5
2B3
330
1F
100
AcDbEntity
  8
0
  6
Continuous
 62
     7
370
    25
100
AcDbEllipse
 10
244.1895876812
 20
207.2972006344
 30
0.0
 11
1.730966162790622
 21
0.0
 31
0.0
210
0.0
220
0.0
230
1.0
 40
0.577712044
 41
1.570796326794897
 42
3.141592653589793
  0
LINE
  5
2B4
330
1F
100
AcDbEntity
  8
0
  6
Continuous
 62
     7
370
    25
100
AcDbLine
 10
242.4586215184
 20
207.2972006344
 30
0.0
 11
225.7154735422
 21
207.2972006344
 31
0.0
  0
ELLIPSE
  5
2B5
330
1F
100
AcDbEntity
  8
0
  6
Continuous
 62
     7
370
    25
100
AcDbEllipse
 10
223.9823401238
 20
207.2972006344
 30
0.0
 11
1.733133418487085
 21
2.842170943040401E-14
 31
0.0
210
0.0
220
0.0
230
1.0
 40
0.5769896243
 41
0.0
 42
1.570796326794887
  0
LINE
  5
2B6
330
1F
100
AcDbEntity
  8
0
  6
Continuous
 62
     7
370
    25
100
AcDbLine
 10
225.7154735422
 20
207.2972006344
 30
0.0
 11
223.9845073794
 21
207.2972006344
 31
0.0
  0
ELLIPSE
  5
2B7
330
1F
100
AcDbEntity
  8
0
  6
Continuous
 62
     7
370
    25
100
AcDbEllipse
 10
223.9823401238
 20
207.2972006344
 30
0.0
 11
0.0
 21
1.0
 31
0.0
210
0.0
220
0.0
230
1.0
 40
0.0021672557
 41
4.71238898038469
 42
6.283185307179586
  0
ELLIPSE
  5
2B8
330
1F
100
AcDbEntity
  8
0
  6
Continuous
 62
     7
370
    25
100
AcDbEllipse
 10
213.8976798324
 20
207.2972006344
 30
0.0
 11
1.730966162790622
 21
0.0
 31
0.0
210
0.0
220
0.0
230
1.0
 40
0.577712044
 41
0.0
 42
1.570796326794897
  0
LINE
  5
2B9
330
1F
100
AcDbEntity
  8
0
  6
Continuous
 62
     7
370
    25
100
AcDbLine
 10
223.9845073794
 20
207.2972006344
 30
0.0
 11
215.6286459952
 21
207.2972006344
 31
0.0
  0
SPLINE
  5
2BA
330
1F
100
AcDbEntity
  8
0
  6
Continuous
 62
     7
370
    25
100
AcDbSpline
210
0.0
220
0.0
230
1.0
 70
     8
 71
     3
 72
    11
 73
     7
 74
     0
 42
0.00000001
 43
0.00000001
 40
0.0
 40
0.0
 40
0.0
 40
0.0
 40
0.1755702971684306
 40
0.4954273686125962
 40
0.811583119142462
 40
1.0
 40
1.0
 40
1.0
 40
1.0
 10
242.5559034950254
 20
193.8454463468154
 30
0.0
 10
242.6175510441276
 20
193.8508811649776
 30
0.0
 10
242.7915091881057
 20
193.8662172309546
 30
0.0
 10
243.064217665605
 20
193.8750606386443
 30
0.0
 10
243.2972831629559
 20
193.8667461164621
 30
0.0
 10
243.3956980415981
 20
193.8512375400281
 30
0.0
 10
243.4324480024764
 20
193.8454463468154
 30
0.0
  0
ARC
  5
2BB
330
1F
100
AcDbEntity
  8
0
  6
Continuous
 62
     7
370
    25
100
AcDbCircle
 10
575.1472176844
 20
227.3818846573
 30
0.0
 40
334.277840977772
100
AcDbArc
 50
185.5892231583
 51
185.75788812
  0
SPLINE
  5
2BC
330
1F
100
AcDbEntity
  8
0
  6
Continuous
 62
     7
370
    25
100
AcDbSpline
210
0.0
220
0.0
230
1.0
 70
     8
 71
     3
 72
    11
 73
     7
 74
     0
 42
0.00000001
 43
0.00000001
 40
0.0
 40
0.0
 40
0.0
 40
0.0
 40
0.1883467346482265
 40
0.5045742105933779
 40
0.8244987390890783
 40
1.0
 40
1.0
 40
1.0
 40
1.0
 10
244.1917549369118
 20
194.8246588869533
 30
0.0
 10
244.1194092589162
 20
194.8304503321513
 30
0.0
 10
243.9255977578427
 20
194.84596540808
 30
0.0
 10
243.4652875528316
 20
194.854269564179
 30
0.0
 10
242.9257481906131
 20
194.8454366866251
 30
0.0
 10
242.5808126268632
 20
194.8300939488421
 30
0.0
 10
242.4586215183954
 20
194.8246588869533
 30
0.0
  0
ARC
  5
2BD
330
1F
100
AcDbEntity
  8
0
  6
Continuous
 62
     7
370
    25
100
AcDbCircle
 10
243.165047416
 20
194.8367952006
 30
0.0
 40
1.026779247749874
100
AcDbArc
 50
285.0953741522
 51
359.3227602269
  0
LINE
  5
2BE
330
1F
100
AcDbEntity
  8
0
  6
Continuous
 62
     7
370
    25
100
AcDbLine
 10
244.1917549369
 20
207.2972006344
 30
0.0
 11
244.1917549369
 21
194.824658887
 31
0.0
  0
LINE
  5
2BF
330
1F
100
AcDbEntity
  8
0
  6
Continuous
 62
     7
370
    25
100
AcDbLine
 10
242.4586215184
 20
194.824658887
 30
0.0
 11
242.4586215184
 21
207.2972006344
 31
0.0
  0
SPLINE
  5
2C0
330
1F
100
AcDbEntity
  8
0
  6
Continuous
 62
     7
370
    25
100
AcDbSpline
210
0.0
220
0.0
230
1.0
 70
     8
 71
     3
 72
    10
 73
     6
 74
     0
 42
0.00000001
 43
0.00000001
 40
0.0
 40
0.0
 40
0.0
 40
0.0
 40
0.500506658262687
 40
0.8819976404752595
 40
1.0
 40
1.0
 40
1.0
 40
1.0
 10
242.5559034950254
 20
193.8454463468154
 30
0.0
 10
239.7315455605883
 20
193.6343673169661
 30
0.0
 10
234.7544348810264
 20
193.2624018231861
 30
0.0
 10
229.0960151495421
 20
193.5267629394195
 30
0.0
 10
226.2842378540983
 20
193.7845464993552
 30
0.0
 10
225.6199720319225
 20
193.8454463468152
 30
0.0
  0
ARC
  5
2C1
330
1F
100
AcDbEntity
  8
0
  6
Continuous
 62
     7
370
    25
100
AcDbCircle
 10
558.1656002508
 20
161.9069043039
 30
0.0
 40
334.0758376706308
100
AcDbArc
 50
174.3452548254
 51
174.5139918582
  0
SPLINE
  5
2C2
330
1F
100
AcDbEntity
  8
0
  6
Continuous
 62
     7
370
    25
100
AcDbSpline
210
0.0
220
0.0
230
1.0
 70
     8
 71
     3
 72
     9
 73
     5
 74
     0
 42
0.00000001
 43
0.00000001
 40
0.0
 40
0.0
 40
0.0
 40
0.0
 40
0.4994437068503679
 40
1.0
 40
1.0
 40
1.0
 40
1.0
 10
225.7154735422591
 20
194.8246588869532
 30
0.0
 10
228.5028807451699
 20
194.605635394186
 30
0.0
 10
234.0839045215811
 20
194.1671005007376
 30
0.0
 10
239.6649793769842
 20
194.6053102428297
 30
0.0
 10
242.4586215183954
 20
194.8246588869533
 30
0.0
  0
LINE
  5
2C3
330
1F
100
AcDbEntity
  8
0
  6
Continuous
 62
     7
370
    25
100
AcDbLine
 10
225.7154735422
 20
207.2972006344
 30
0.0
 11
225.7154735423
 21
194.824658887
 31
0.0
  0
SPLINE
  5
2C4
330
1F
100
AcDbEntity
  8
0
  6
Continuous
 62
     7
370
    25
100
AcDbSpline
210
0.0
220
0.0
230
1.0
 70
     8
 71
     3
 72
    11
 73
     7
 74
     0
 42
0.00000001
 43
0.00000001
 40
0.0
 40
0.0
 40
0.0
 40
0.0
 40
0.1883467346500103
 40
0.5045742105981061
 40
0.8244987390967893
 40
1.0
 40
1.0
 40
1.0
 40
1.0
 10
225.7154735422591
 20
194.8246588869532
 30
0.0
 10
225.5843187129075
 20
194.8304503321511
 30
0.0
 10
225.2329595847058
 20
194.8459654080797
 30
0.0
 10
224.6879559540312
 20
194.854269564179
 30
0.0
 10
224.2397615195885
 20
194.8454366866245
 30
0.0
 10
224.051276819472
 20
194.8300939488431
 30
0.0
 10
223.9845073794489
 20
194.824658886955
 30
0.0
  0
SPLINE
  5
2C5
330
1F
100
AcDbEntity
  8
0
  6
Continuous
 62
     7
370
    25
100
AcDbSpline
210
0.0
220
0.0
230
1.0
 70
     8
 71
     3
 72
    11
 73
     7
 74
     0
 42
0.00000001
 43
0.00000001
 40
0.0
 40
0.0
 40
0.0
 40
0.0
 40
0.1755702971684406
 40
0.4954273686126003
 40
0.8115831191424578
 40
1.0
 40
1.0
 40
1.0
 40
1.0
 10
224.7445236293973
 20
193.8454463468152
 30
0.0
 10
224.7784445724479
 20
193.8508811649774
 30
0.0
 10
224.8741632892663
 20
193.8662172309544
 30
0.0
 10
225.1011111208338
 20
193.8750606386441
 30
0.0
 10
225.3766016519831
 20
193.8667461164619
 30
0.0
 10
225.5538020725349
 20
193.851237540028
 30
0.0
 10
225.6199720319225
 20
193.8454463468152
 30
0.0
  0
ARC
  5
2C6
330
1F
100
AcDbEntity
  8
0
  6
Continuous
 62
     7
370
    25
100
AcDbCircle
 10
225.0111597803
 20
194.8369458601
 30
0.0
 40
1.026725923458106
100
AcDbArc
 50
180.6856829997
 51
254.9480022117
  0
LINE
  5
2C7
330
1F
100
AcDbEntity
  8
0
  6
Continuous
 62
     7
370
    25
100
AcDbLine
 10
223.9845073794
 20
194.824658887
 30
0.0
 11
223.9845073794
 21
207.2972006344
 31
0.0
  0
SPLINE
  5
2C8
330
1F
100
AcDbEntity
  8
0
  6
Continuous
 62
     7
370
    25
100
AcDbSpline
210
0.0
220
0.0
230
1.0
 70
     8
 71
     3
 72
    10
 73
     6
 74
     0
 42
0.00000001
 43
0.00000001
 40
0.0
 40
0.0
 40
0.0
 40
0.0
 40
0.4999493505749386
 40
0.8818990399724892
 40
1.0
 40
1.0
 40
1.0
 40
1.0
 10
224.7445236293973
 20
193.8454463468152
 30
0.0
 10
223.326191587673
 20
193.6345276204437
 30
0.0
 10
220.8242868156786
 20
193.2624718870273
 30
0.0
 10
218.0150121355542
 20
193.5264382631133
 30
0.0
 10
216.6215552688558
 20
193.7844982551728
 30
0.0
 10
216.2924514192694
 20
193.8454463468151
 30
0.0
  0
SPLINE
  5
2C9
330
1F
100
AcDbEntity
  8
0
  6
Continuous
 62
     7
370
    25
100
AcDbSpline
210
0.0
220
0.0
230
1.0
 70
     8
 71
     3
 72
    10
 73
     6
 74
     0
 42
0.00000001
 43
0.00000001
 40
0.0
 40
0.0
 40
0.0
 40
0.0
 40
0.4999493505749387
 40
0.8818990399724889
 40
1.0
 40
1.0
 40
1.0
 40
1.0
 10
251.9163072554513
 20
193.8454463468154
 30
0.0
 10
250.5134382569931
 20
193.634527620444
 30
0.0
 10
248.0388099340947
 20
193.2624718870276
 30
0.0
 10
245.1896250938954
 20
193.5264382631137
 30
0.0
 10
243.768165483854
 20
193.7844982551731
 30
0.0
 10
243.4324480024764
 20
193.8454463468154
 30
0.0
  0
SPLINE
  5
2CA
330
1F
100
AcDbEntity
  8
0
  6
Continuous
 62
     7
370
    25
100
AcDbSpline
210
0.0
220
0.0
230
1.0
 70
     8
 71
     3
 72
     9
 73
     5
 74
     0
 42
0.00000001
 43
0.00000001
 40
0.0
 40
0.0
 40
0.0
 40
0.0
 40
0.4835383486997817
 40
1.0
 40
1.0
 40
1.0
 40
1.0
 10
251.9163072554513
 20
193.8454463468154
 30
0.0
 10
251.9455687552382
 20
193.8511820833391
 30
0.0
 10
252.0060841204943
 20
193.863044092917
 30
0.0
 10
252.0198849148546
 20
193.8657072103622
 30
0.0
 10
252.0270124958992
 20
193.8670826083955
 30
0.0
  0
SPLINE
  5
2CB
330
1F
100
AcDbEntity
  8
0
  6
Continuous
 62
     7
370
    25
100
AcDbSpline
210
0.0
220
0.0
230
1.0
 70
     8
 71
     3
 72
     9
 73
     5
 74
     0
 42
0.00000001
 43
0.00000001
 40
0.0
 40
0.0
 40
0.0
 40
0.0
 40
0.6085116260099257
 40
1.0
 40
1.0
 40
1.0
 40
1.0
 10
216.1628343724732
 20
193.8709627996761
 30
0.0
 10
216.1712642609554
 20
193.8693007242983
 30
0.0
 10
216.1851175517093
 20
193.8665693461178
 30
0.0
 10
216.2622535663296
 20
193.851389198229
 30
0.0
 10
216.2924514192694
 20
193.8454463468151
 30
0.0
  0
ARC
  5
2CC
330
1F
100
AcDbEntity
  8
0
  6
Continuous
 62
     7
370
    25
100
AcDbCircle
 10
251.6717913321
 20
194.7248121693
 30
0.0
 40
0.9127279367082493
100
AcDbArc
 50
285.5390892353
 51
6.280368218
  0
SPLINE
  5
2CD
330
1F
100
AcDbEntity
  8
0
  6
Continuous
 62
     7
370
    25
100
AcDbSpline
210
0.0
220
0.0
230
1.0
 70
     8
 71
     3
 72
     9
 73
     5
 74
     0
 42
0.00000001
 43
0.00000001
 40
0.0
 40
0.0
 40
0.0
 40
0.0
 40
0.4999999999994122
 40
1.0
 40
1.0
 40
1.0
 40
1.0
 10
244.1917549369118
 20
194.8246588869533
 30
0.0
 10
245.5896360355565
 20
194.6054727079544
 30
0.0
 10
248.3853982328489
 20
194.1671003499559
 30
0.0
 10
251.1811604301414
 20
194.6054727079554
 30
0.0
 10
252.5790415287893
 20
194.8246588869553
 30
0.0
  0
LINE
  5
2CE
330
1F
100
AcDbEntity
  8
0
  6
Continuous
 62
     7
370
    25
100
AcDbLine
 10
252.5790415288
 20
194.824658887
 30
0.0
 11
252.5790415288
 21
207.2972006344
 31
0.0
  0
ARC
  5
2CF
330
1F
100
AcDbEntity
  8
0
  6
Continuous
 62
     7
370
    25
100
AcDbCircle
 10
216.5362886506
 20
194.7253451035
 30
0.0
 40
0.9130599199662583
100
AcDbArc
 50
173.755567523
 51
254.5109019979
  0
SPLINE
  5
2D0
330
1F
100
AcDbEntity
  8
0
  6
Continuous
 62
     7
370
    25
100
AcDbSpline
210
0.0
220
0.0
230
1.0
 70
     8
 71
     3
 72
     9
 73
     5
 74
     0
 42
0.00000001
 43
0.00000001
 40
0.0
 40
0.0
 40
0.0
 40
0.0
 40
0.499999999999412
 40
1.0
 40
1.0
 40
1.0
 40
1.0
 10
215.6286459951704
 20
194.824658886953
 30
0.0
 10
217.0212895592152
 20
194.605472707954
 30
0.0
 10
219.806576687308
 20
194.1671003499556
 30
0.0
 10
222.5918638154008
 20
194.6054727079551
 30
0.0
 10
223.9845073794489
 20
194.824658886955
 30
0.0
  0
LINE
  5
2D1
330
1F
100
AcDbEntity
  8
0
  6
Continuous
 62
     7
370
    25
100
AcDbLine
 10
215.6286459952
 20
207.2972006344
 30
0.0
 11
215.6286459952
 21
194.824658887
 31
0.0
  0
ARC
  5
2D2
330
1F
100
AcDbEntity
  8
0
  6
Continuous
 62
     7
370
    25
100
AcDbCircle
 10
29.1049273898
 20
154.3472006344
 30
0.0
 40
10.30000000000001
100
AcDbArc
 50
356.7363618434
 51
11.2746399902
  0
SPLINE
  5
2D3
330
1F
100
AcDbEntity
  8
0
  6
Continuous
 62
     7
370
    25
100
AcDbSpline
210
0.0
220
0.0
230
1.0
 70
    24
 71
     3
 72
    13
 73
     9
 74
     0
 42
0.00000001
 43
0.00000001
 40
0.0
 40
0.0
 40
0.0
 40
0.0
 40
0.0295448902054262
 40
0.2606471239688188
 40
0.4913152552054731
 40
0.7308682638478777
 40
0.9709134921287361
 40
1.0
 40
1.0
 40
1.0
 40
1.0
 10
39.38822231059555
 20
153.7608171656601
 30
0.0
 10
39.35526199274908
 20
153.6932220289118
 30
0.0
 10
39.06448372307014
 20
153.0968929220774
 30
0.0
 10
38.49924418282951
 20
151.9376976680734
 30
0.0
 10
37.66468462695766
 20
150.2261799707476
 30
0.0
 10
36.81808848238585
 20
148.4899775946226
 30
0.0
 10
36.23219985018472
 20
147.2884351095849
 30
0.0
 10
35.93196673529073
 20
146.6727159726473
 30
0.0
 10
35.89951893487731
 20
146.6061719084686
 30
0.0
  0
ARC
  5
2D4
330
1F
100
AcDbEntity
  8
0
  6
Continuous
 62
     7
370
    25
100
AcDbCircle
 10
29.1049273898
 20
154.3472006344
 30
0.0
 40
10.30000000000001
100
AcDbArc
 50
296.7363618434
 51
311.2746399902
  0
SPLINE
  5
2D5
330
1F
100
AcDbEntity
  8
0
  6
Continuous
 62
     7
370
    25
100
AcDbSpline
210
0.0
220
0.0
230
1.0
 70
    24
 71
     3
 72
     9
 73
     5
 74
     0
 42
0.00000001
 43
0.00000001
 40
0.0
 40
0.0
 40
0.0
 40
0.0
 40
0.5117775781475443
 40
1.0
 40
1.0
 40
1.0
 40
1.0
 10
33.73875186991093
 20
145.1484142640402
 30
0.0
 10
33.11302417497527
 20
145.104598751469
 30
0.0
 10
31.8903686276171
 20
145.0189843860845
 30
0.0
 10
30.59990805472501
 20
144.9286220896546
 30
0.0
 10
29.96987626852254
 20
144.8845051904475
 30
0.0
  0
SPLINE
  5
2D6
330
1F
100
AcDbEntity
  8
0
  6
Continuous
 62
     7
370
    25
100
AcDbSpline
210
0.0
220
0.0
230
1.0
 70
    24
 71
     3
 72
     9
 73
     5
 74
     0
 42
0.00000001
 43
0.00000001
 40
0.0
 40
0.0
 40
0.0
 40
0.0
 40
0.2427511950105892
 40
1.0
 40
1.0
 40
1.0
 40
1.0
 10
29.73098014893941
 20
163.9143009201861
 30
0.0
 10
29.95474160125167
 20
163.9299694335124
 30
0.0
 10
30.87651441601591
 20
163.9945149997066
 30
0.0
 10
31.75006443637426
 20
164.0556838471275
 30
0.0
 10
32.41155914538907
 20
164.1020038837396
 30
0.0
  0
ARC
  5
2D7
330
1F
100
AcDbEntity
  8
0
  6
Continuous
 62
     7
370
    25
100
AcDbCircle
 10
29.1049273898
 20
154.3472006344
 30
0.0
 40
10.29999999999998
100
AcDbArc
 50
56.7363618434
 51
71.2746399902
  0
SPLINE
  5
2D8
330
1F
100
AcDbEntity
  8
0
  6
Continuous
 62
     7
370
    25
100
AcDbSpline
210
0.0
220
0.0
230
1.0
 70
    24
 71
     3
 72
    11
 73
     7
 74
     0
 42
0.00000001
 43
0.00000001
 40
0.0
 40
0.0
 40
0.0
 40
0.0
 40
0.2431641197380915
 40
0.4936284730588937
 40
0.7421706076863283
 40
1.0
 40
1.0
 40
1.0
 40
1.0
 10
34.75439783050824
 20
162.9596035360322
 30
0.0
 10
35.10535139058418
 20
162.4394012261056
 30
0.0
 10
35.81779478133393
 20
161.3833791772633
 30
0.0
 10
36.94796030269492
 20
159.7081868393249
 30
0.0
 10
38.10197114385561
 20
157.997649681297
 30
0.0
 10
38.83361784688197
 20
156.913163446474
 30
0.0
 10
39.20615069044275
 20
156.3609751577959
 30
0.0
  0
ARC
  5
2D9
330
1F
100
AcDbEntity
  8
0
  6
Continuous
 62
     7
370
    25
100
AcDbCircle
 10
234.1049273898
 20
154.3472006344
 30
0.0
 40
10.30000000000001
100
AcDbArc
 50
199.9280483469
 51
214.4663264937
  0
SPLINE
  5
2DA
330
1F
100
AcDbEntity
  8
0
  6
Continuous
 62
     7
370
    25
100
AcDbSpline
210
0.0
220
0.0
230
1.0
 70
    24
 71
     3
 72
    13
 73
     9
 74
     0
 42
0.00000001
 43
0.00000001
 40
0.0
 40
0.0
 40
0.0
 40
0.0
 40
0.0295448902054257
 40
0.2606471239688189
 40
0.4913152552054729
 40
0.7308682638478777
 40
0.9709134921287363
 40
1.0
 40
1.0
 40
1.0
 40
1.0
 10
224.4216771108872
 20
150.8365505471118
 30
0.0
 10
224.4253544453391
 20
150.9116635438293
 30
0.0
 10
224.4577961515724
 20
151.5743157463247
 30
0.0
 10
224.5208591003145
 20
152.8624354764946
 30
0.0
 10
224.6139696892722
 20
154.7643063708458
 30
0.0
 10
224.7084231828256
 20
156.6936073479931
 30
0.0
 10
224.7737899205544
 20
158.0287841236643
 30
0.0
 10
224.8072864900393
 20
158.7129828950041
 30
0.0
 10
224.8109066436708
 20
158.786927919967
 30
0.0
  0
ARC
  5
2DB
330
1F
100
AcDbEntity
  8
0
  6
Continuous
 62
     7
370
    25
100
AcDbCircle
 10
234.1049273898
 20
154.3472006344
 30
0.0
 40
10.3
100
AcDbArc
 50
139.9280483469
 51
154.4663264937
  0
SPLINE
  5
2DC
330
1F
100
AcDbEntity
  8
0
  6
Continuous
 62
     7
370
    25
100
AcDbSpline
210
0.0
220
0.0
230
1.0
 70
    24
 71
     3
 72
    11
 73
     7
 74
     0
 42
0.00000001
 43
0.00000001
 40
0.0
 40
0.0
 40
0.0
 40
0.0
 40
0.2431641197380924
 40
0.493628473058894
 40
0.742170607686329
 40
0.9999999999999999
 40
0.9999999999999999
 40
0.9999999999999999
 40
0.9999999999999999
 10
226.2229900909533
 20
160.9778163235248
 30
0.0
 10
226.7811289575202
 20
161.2646261040595
 30
0.0
 10
227.9141630447654
 20
161.8468562216287
 30
0.0
 10
229.7115213704337
 20
162.7704613991323
 30
0.0
 10
231.5468020917688
 20
163.7135536875146
 30
0.0
 10
232.7103761597057
 20
164.3114773281197
 30
0.0
 10
233.3028336319107
 20
164.6159223466587
 30
0.0
  0
ARC
  5
2DD
330
1F
100
AcDbEntity
  8
0
  6
Continuous
 62
     7
370
    25
100
AcDbCircle
 10
234.1049273898
 20
154.3472006344
 30
0.0
 40
10.29999999999998
100
AcDbArc
 50
82.8673793139
 51
94.4663264937
  0
ARC
  5
2DE
330
1F
100
AcDbEntity
  8
0
  6
Continuous
 62
     7
370
    25
100
AcDbCircle
 10
234.1049273898
 20
154.3472006344
 30
0.0
 40
10.30000000000001
100
AcDbArc
 50
259.9280483469
 51
273.283071621
  0
SPLINE
  5
2DF
330
1F
100
AcDbEntity
  8
0
  6
Continuous
 62
     7
370
    25
100
AcDbSpline
210
0.0
220
0.0
230
1.0
 70
    24
 71
     3
 72
    11
 73
     7
 74
     0
 42
0.00000001
 43
0.00000001
 40
0.0
 40
0.0
 40
0.0
 40
0.0
 40
0.2431641197380922
 40
0.4936284730588935
 40
0.7421706076863288
 40
1.0
 40
1.0
 40
1.0
 40
1.0
 10
232.3036144097576
 20
144.2059348580014
 30
0.0
 10
231.7761604204772
 20
144.5458924050204
 30
0.0
 10
230.7054173041913
 20
145.2360136491439
 30
0.0
 10
229.0068725945723
 20
146.3307690301243
 30
0.0
 10
227.2724903540523
 20
147.4486226136851
 30
0.0
 10
226.1728862577966
 20
148.1573454954008
 30
0.0
 10
225.6130004015837
 20
148.5182062077228
 30
0.0
  0
LINE
  5
2E0
330
1F
100
AcDbEntity
  8
0
  6
Continuous
 62
     7
370
    25
100
AcDbLine
 10
229.6486482949
 20
163.0192290377
 30
0.0
 11
230.8725831301
 21
163.5458119745
 31
0.0
  0
LWPOLYLINE
  5
2E1
330
1F
100
AcDbEntity
  8
0
  6
Continuous
 62
     7
370
    25
100
AcDbPolyline
 90
        3
 70
   128
 43
0.0
 10
227.8635507118
 20
161.837709106
 10
228.087986897
 20
162.0191578232
 10
229.6486482949
 20
163.0192290377
  0
ARC
  5
2E2
330
1F
100
AcDbEntity
  8
0
  6
Continuous
 62
     7
370
    25
100
AcDbCircle
 10
234.1049273898
 20
154.3472006344
 30
0.0
 40
14.875
100
AcDbArc
 50
51.458972509
 51
304.6909210268
  0
ARC
  5
2E3
330
1F
100
AcDbEntity
  8
0
  6
Continuous
 62
     7
370
    25
100
AcDbCircle
 10
234.1049273898
 20
154.3472006344
 30
0.0
 40
10.575
100
AcDbArc
 50
78.8626668473
 51
276.4243237068
  0
SPLINE
  5
2E4
330
1F
100
AcDbEntity
  8
0
  6
Continuous
 62
     7
370
    25
100
AcDbSpline
210
0.0
220
0.0
230
1.0
 70
     8
 71
     3
 72
     9
 73
     5
 74
     0
 42
0.00000001
 43
0.00000001
 40
0.0
 40
0.0
 40
0.0
 40
0.0
 40
0.5850553834534138
 40
1.0
 40
1.0
 40
1.0
 40
1.0
 10
221.4363288053433
 20
166.1071585384753
 30
0.0
 10
221.0375420088114
 20
165.866596038698
 30
0.0
 10
220.3559197080678
 20
165.4554170177353
 30
0.0
 10
219.8454801620977
 20
164.8077509287002
 30
0.0
 10
219.6336760204249
 20
164.5390053717354
 30
0.0
  0
SPLINE
  5
2E5
330
1F
100
AcDbEntity
  8
0
  6
Continuous
 62
     7
370
    25
100
AcDbSpline
210
0.0
220
0.0
230
1.0
 70
    24
 71
     3
 72
    11
 73
     7
 74
     0
 42
0.00000001
 43
0.00000001
 40
0.0
 40
0.0
 40
0.0
 40
0.0
 40
0.2379053903768483
 40
0.4814905141303174
 40
0.7366519444348064
 40
0.9999999999999999
 40
0.9999999999999999
 40
0.9999999999999999
 40
0.9999999999999999
 10
231.9192623245447
 20
171.4940040747768
 30
0.0
 10
231.1067917938055
 20
171.076501355345
 30
0.0
 10
229.4624538788816
 20
170.2315284915036
 30
0.0
 10
226.8362504313117
 20
168.8820062138846
 30
0.0
 10
224.1107726410035
 20
167.4814700145356
 30
0.0
 10
222.3371445505581
 20
166.5700590488383
 30
0.0
 10
221.4363288053433
 20
166.1071585384753
 30
0.0
  0
SPLINE
  5
2E6
330
1F
100
AcDbEntity
  8
0
  6
Continuous
 62
     7
370
    25
100
AcDbSpline
210
0.0
220
0.0
230
1.0
 70
     8
 71
     3
 72
     9
 73
     5
 74
     0
 42
0.00000001
 43
0.00000001
 40
0.0
 40
0.0
 40
0.0
 40
0.0
 40
0.5841917497409949
 40
1.0
 40
1.0
 40
1.0
 40
1.0
 10
234.243748720416
 20
172.0466562372903
 30
0.0
 10
233.7611930509223
 20
172.0135208434019
 30
0.0
 10
232.9351703114577
 20
171.9568007786234
 30
0.0
 10
232.2176240005592
 20
171.629922683541
 30
0.0
 10
231.9192623245447
 20
171.4940040747768
 30
0.0
  0
ARC
  5
2E7
330
1F
100
AcDbEntity
  8
0
  6
Continuous
 62
     7
370
    25
100
AcDbCircle
 10
234.1049273898
 20
154.3472006344
 30
0.0
 40
17.69999999999999
100
AcDbArc
 50
84.8437509929
 51
89.5506238477
  0
SPLINE
  5
2E8
330
1F
100
AcDbEntity
  8
0
  6
Continuous
 62
     7
370
    25
100
AcDbSpline
210
0.0
220
0.0
230
1.0
 70
     8
 71
     3
 72
     9
 73
     5
 74
     0
 42
0.00000001
 43
0.00000001
 40
0.0
 40
0.0
 40
0.0
 40
0.0
 40
0.5850553834536172
 40
0.9999999999999999
 40
0.9999999999999999
 40
0.9999999999999999
 40
0.9999999999999999
 10
237.9550503899344
 20
171.1985077909533
 30
0.0
 10
237.5473237556634
 20
171.4235860375549
 30
0.0
 10
236.8504211276351
 20
171.808298755303
 30
0.0
 10
236.0343060683766
 20
171.9265193246916
 30
0.0
 10
235.6956635180548
 20
171.9755743135244
 30
0.0
  0
SPLINE
  5
2E9
330
1F
100
AcDbEntity
  8
0
  6
Continuous
 62
     7
370
    25
100
AcDbSpline
210
0.0
220
0.0
230
1.0
 70
    24
 71
     3
 72
    11
 73
     7
 74
     0
 42
0.00000001
 43
0.00000001
 40
0.0
 40
0.0
 40
0.0
 40
0.0
 40
0.2328716322111471
 40
0.471026502431322
 40
0.7311421212560294
 40
1.0
 40
1.0
 40
1.0
 40
1.0
 10
247.8616622302361
 20
164.8134438252914
 30
0.0
 10
247.1103401367395
 20
165.2976900744757
 30
0.0
 10
245.590650449598
 20
166.2771688323776
 30
0.0
 10
243.1298243729493
 20
167.8632339938135
 30
0.0
 10
240.5349942217359
 20
169.5356681986265
 30
0.0
 10
238.8244549364221
 20
170.6381543895232
 30
0.0
 10
237.9550503899344
 20
171.1985077909533
 30
0.0
  0
SPLINE
  5
2EA
330
1F
100
AcDbEntity
  8
0
  6
Continuous
 62
     7
370
    25
100
AcDbSpline
210
0.0
220
0.0
230
1.0
 70
     8
 71
     3
 72
     9
 73
     5
 74
     0
 42
0.00000001
 43
0.00000001
 40
0.0
 40
0.0
 40
0.0
 40
0.0
 40
0.5841917497409242
 40
1.0
 40
1.0
 40
1.0
 40
1.0
 10
249.5025162403651
 20
163.0767056369721
 30
0.0
 10
249.2325423127465
 20
163.4780434085497
 30
0.0
 10
248.7704099260117
 20
164.1650400526405
 30
0.0
 10
248.1285520362803
 20
164.6230143387292
 30
0.0
 10
247.8616622302361
 20
164.8134438252914
 30
0.0
  0
ARC
  5
2EB
330
1F
100
AcDbEntity
  8
0
  6
Continuous
 62
     7
370
    25
100
AcDbCircle
 10
234.1049273898
 20
154.3472006344
 30
0.0
 40
17.70000000000001
100
AcDbArc
 50
324.8437509929
 51
327.1558348381
  0
SPLINE
  5
2EC
330
1F
100
AcDbEntity
  8
0
  6
Continuous
 62
     7
370
    25
100
AcDbSpline
210
0.0
220
0.0
230
1.0
 70
     8
 71
     3
 72
     9
 73
     5
 74
     0
 42
0.00000001
 43
0.00000001
 40
0.0
 40
0.0
 40
0.0
 40
0.0
 40
0.5850553834536202
 40
0.9999999999999999
 40
0.9999999999999999
 40
0.9999999999999999
 40
0.9999999999999999
 10
246.7735259743054
 20
142.5872427303543
 30
0.0
 10
247.1723127708371
 20
142.8278052301316
 30
0.0
 10
247.85393507158
 20
143.2389842510943
 30
0.0
 10
248.3643746175497
 20
143.8866503401289
 30
0.0
 10
248.5761787592223
 20
144.1553958970935
 30
0.0
  0
SPLINE
  5
2ED
330
1F
100
AcDbEntity
  8
0
  6
Continuous
 62
     7
370
    25
100
AcDbSpline
210
0.0
220
0.0
230
1.0
 70
    24
 71
     3
 72
    11
 73
     7
 74
     0
 42
0.00000001
 43
0.00000001
 40
0.0
 40
0.0
 40
0.0
 40
0.0
 40
0.2556279644380978
 40
0.5185037642963867
 40
0.7560467972580099
 40
1.0
 40
1.0
 40
1.0
 40
1.0
 10
236.2905924551027
 20
137.2003971940522
 30
0.0
 10
237.1645427174822
 20
137.6494923887536
 30
0.0
 10
238.9372224078581
 20
138.5604160018723
 30
0.0
 10
241.6414915688446
 20
139.950053762346
 30
0.0
 10
244.2950712830917
 20
141.3136438311688
 30
0.0
 10
245.940074423129
 20
142.1589585330011
 30
0.0
 10
246.7735259743054
 20
142.5872427303543
 30
0.0
  0
SPLINE
  5
2EE
330
1F
100
AcDbEntity
  8
0
  6
Continuous
 62
     7
370
    25
100
AcDbSpline
210
0.0
220
0.0
230
1.0
 70
     8
 71
     3
 72
     9
 73
     5
 74
     0
 42
0.00000001
 43
0.00000001
 40
0.0
 40
0.0
 40
0.0
 40
0.0
 40
0.5841917497409272
 40
1.0
 40
1.0
 40
1.0
 40
1.0
 10
233.9661060592312
 20
136.6477450315386
 30
0.0
 10
234.4486617287249
 20
136.6808804254269
 30
0.0
 10
235.2746844681896
 20
136.7376004902054
 30
0.0
 10
235.9922307790881
 20
137.0644785852879
 30
0.0
 10
236.2905924551027
 20
137.2003971940522
 30
0.0
  0
ARC
  5
2EF
330
1F
100
AcDbEntity
  8
0
  6
Continuous
 62
     7
370
    25
100
AcDbCircle
 10
234.1049273898
 20
154.3472006344
 30
0.0
 40
17.70000000000005
100
AcDbArc
 50
264.8437509929
 51
269.5506238477
  0
SPLINE
  5
2F0
330
1F
100
AcDbEntity
  8
0
  6
Continuous
 62
     7
370
    25
100
AcDbSpline
210
0.0
220
0.0
230
1.0
 70
     8
 71
     3
 72
     9
 73
     5
 74
     0
 42
0.00000001
 43
0.00000001
 40
0.0
 40
0.0
 40
0.0
 40
0.0
 40
0.5850553834536203
 40
1.0
 40
1.0
 40
1.0
 40
1.0
 10
230.2548043897128
 20
137.4958934778755
 30
0.0
 10
230.6625310239837
 20
137.2708152312739
 30
0.0
 10
231.3594336520121
 20
136.8861025135259
 30
0.0
 10
232.1755487112706
 20
136.7678819441372
 30
0.0
 10
232.5141912615924
 20
136.7188269553043
 30
0.0
  0
SPLINE
  5
2F1
330
1F
100
AcDbEntity
  8
0
  6
Continuous
 62
     7
370
    25
100
AcDbSpline
210
0.0
220
0.0
230
1.0
 70
    24
 71
     3
 72
    11
 73
     7
 74
     0
 42
0.00000001
 43
0.00000001
 40
0.0
 40
0.0
 40
0.0
 40
0.0
 40
0.232871632211147
 40
0.471026502431323
 40
0.7311421212560294
 40
1.0
 40
1.0
 40
1.0
 40
1.0
 10
220.3481925494111
 20
143.8809574435374
 30
0.0
 10
221.0995146429076
 20
143.3967111943531
 30
0.0
 10
222.6192043300492
 20
142.4172324364512
 30
0.0
 10
225.0800304066979
 20
140.8311672750153
 30
0.0
 10
227.6748605579113
 20
139.1587330702023
 30
0.0
 10
229.3853998432251
 20
138.0562468793057
 30
0.0
 10
230.2548043897128
 20
137.4958934778755
 30
0.0
  0
SPLINE
  5
2F2
330
1F
100
AcDbEntity
  8
0
  6
Continuous
 62
     7
370
    25
100
AcDbSpline
210
0.0
220
0.0
230
1.0
 70
     8
 71
     3
 72
     9
 73
     5
 74
     0
 42
0.00000001
 43
0.00000001
 40
0.0
 40
0.0
 40
0.0
 40
0.0
 40
0.5841917497409247
 40
1.0
 40
1.0
 40
1.0
 40
1.0
 10
218.7073385392821
 20
145.6176956318567
 30
0.0
 10
218.9773124669007
 20
145.2163578602791
 30
0.0
 10
219.4394448536355
 20
144.5293612161882
 30
0.0
 10
220.0813027433669
 20
144.0713869300996
 30
0.0
 10
220.3481925494111
 20
143.8809574435374
 30
0.0
  0
ARC
  5
2F3
330
1F
100
AcDbEntity
  8
0
  6
Continuous
 62
     7
370
    25
100
AcDbCircle
 10
234.1049273898
 20
154.3472006344
 30
0.0
 40
17.70000000000004
100
AcDbArc
 50
204.8437509929
 51
209.5506238477
  0
SPLINE
  5
2F4
330
1F
100
AcDbEntity
  8
0
  6
Continuous
 62
     7
370
    25
100
AcDbSpline
210
0.0
220
0.0
230
1.0
 70
     8
 71
     3
 72
     9
 73
     5
 74
     0
 42
0.00000001
 43
0.00000001
 40
0.0
 40
0.0
 40
0.0
 40
0.0
 40
0.5850553834536181
 40
1.0
 40
1.0
 40
1.0
 40
1.0
 10
217.586205805231
 20
149.2558513819357
 30
0.0
 10
217.5951456429702
 20
148.7902106355567
 30
0.0
 10
217.6104259702556
 20
147.994318896846
 30
0.0
 10
217.9161014835445
 20
147.2284322384228
 30
0.0
 10
218.0429398921937
 20
146.9106316926253
 30
0.0
  0
SPLINE
  5
2F5
330
1F
100
AcDbEntity
  8
0
  6
Continuous
 62
     7
370
    25
100
AcDbSpline
210
0.0
220
0.0
230
1.0
 70
    24
 71
     3
 72
    11
 73
     7
 74
     0
 42
0.00000001
 43
0.00000001
 40
0.0
 40
0.0
 40
0.0
 40
0.0
 40
0.2328716322111485
 40
0.4710265024313257
 40
0.7311421212560311
 40
1.0
 40
1.0
 40
1.0
 40
1.0
 10
218.1625274841319
 20
161.0277608838996
 30
0.0
 10
218.1188189773993
 20
160.1349737399149
 30
0.0
 10
218.0304103341598
 20
158.3291444860302
 30
0.0
 10
217.8872506506232
 20
155.4049740086392
 30
0.0
 10
217.7362952187038
 20
152.3215680767761
 30
0.0
 10
217.6367838127227
 20
150.2889545060748
 30
0.0
 10
217.586205805231
 20
149.2558513819357
 30
0.0
  0
SPLINE
  5
2F6
330
1F
100
AcDbEntity
  8
0
  6
Continuous
 62
     7
370
    25
100
AcDbSpline
210
0.0
220
0.0
230
1.0
 70
     8
 71
     3
 72
     9
 73
     5
 74
     0
 42
0.00000001
 43
0.00000001
 40
0.0
 40
0.0
 40
0.0
 40
0.0
 40
0.5841917497409248
 40
1.0
 40
1.0
 40
1.0
 40
1.0
 10
218.8461598698745
 20
163.3171512347325
 30
0.0
 10
218.6335781279994
 20
162.8826780692666
 30
0.0
 10
218.2696877752695
 20
162.1389613603972
 30
0.0
 10
218.1939993541023
 20
161.3541089792261
 30
0.0
 10
218.1625274841319
 20
161.0277608838996
 30
0.0
  0
ARC
  5
2F7
330
1F
100
AcDbEntity
  8
0
  6
Continuous
 62
     7
370
    25
100
AcDbCircle
 10
234.1049273898
 20
154.3472006344
 30
0.0
 40
17.70000000000001
100
AcDbArc
 50
144.8437509929
 51
149.5506238477
  0
ARC
  5
2F8
330
1F
100
AcDbEntity
  8
0
  6
Continuous
 62
     7
370
    25
100
AcDbCircle
 10
234.1049273898
 20
154.3472006344
 30
0.0
 40
16.19999999999999
100
AcDbArc
 50
117.1971874203
 51
314.1494537325
  0
ARC
  5
2F9
330
1F
100
AcDbEntity
  8
0
  6
Continuous
 62
     7
370
    25
100
AcDbCircle
 10
234.1049273898
 20
154.3472006344
 30
0.0
 40
16.19999999999997
100
AcDbArc
 50
42.0003016336
 51
117.1971874203
  0
LINE
  5
2FA
330
1F
100
AcDbEntity
  8
0
  6
Continuous
 62
     7
370
    25
100
AcDbLine
 10
29.7859868142
 20
144.6210164875
 30
0.0
 11
29.4442195862
 21
144.6031059712
 31
0.0
  0
LWPOLYLINE
  5
2FB
330
1F
100
AcDbEntity
  8
0
  6
Continuous
 62
     7
370
    25
100
AcDbPolyline
 90
        3
 70
   128
 43
0.0
 10
31.8921277464
 20
145.0040740607
 10
31.6143716359
 20
144.9256726492
 10
29.7859868142
 20
144.6210164875
  0
ARC
  5
2FC
330
1F
100
AcDbEntity
  8
0
  6
Continuous
 62
     7
370
    25
100
AcDbCircle
 10
29.1049273898
 20
154.3472006344
 30
0.0
 40
10.57500000000003
100
AcDbArc
 50
260.8247607777
 51
97.5229572563
  0
ARC
  5
2FD
330
1F
100
AcDbEntity
  8
0
  6
Continuous
 62
     7
370
    25
100
AcDbCircle
 10
29.1049273898
 20
154.3472006344
 30
0.0
 40
14.87500000000001
100
AcDbArc
 50
232.5576060585
 51
94.0055009168
  0
ARC
  5
2FE
330
1F
100
AcDbEntity
  8
0
  6
Continuous
 62
     7
370
    25
100
AcDbCircle
 10
29.1049273898
 20
154.3472006344
 30
0.0
 40
14.875
100
AcDbArc
 50
94.0055009168
 51
125.7895545763
  0
ARC
  5
2FF
330
1F
100
AcDbEntity
  8
0
  6
Continuous
 62
     7
370
    25
100
AcDbCircle
 10
29.1049273898
 20
154.3472006344
 30
0.0
 40
16.20000000000001
100
AcDbArc
 50
274.0055009168
 51
135.2480872821
  0
ARC
  5
300
330
1F
100
AcDbEntity
  8
0
  6
Continuous
 62
     7
370
    25
100
AcDbCircle
 10
29.1049273898
 20
154.3472006344
 30
0.0
 40
16.20000000000001
100
AcDbArc
 50
223.0989351832
 51
274.0055009168
  0
SPLINE
  5
301
330
1F
100
AcDbEntity
  8
0
  6
Continuous
 62
     7
370
    25
100
AcDbSpline
210
0.0
220
0.0
230
1.0
 70
     8
 71
     3
 72
     9
 73
     5
 74
     0
 42
0.00000001
 43
0.00000001
 40
0.0
 40
0.0
 40
0.0
 40
0.0
 40
0.5850553834534129
 40
0.9999999999999999
 40
0.9999999999999999
 40
0.9999999999999999
 40
0.9999999999999999
 10
36.11863620128
 20
138.5485333264373
 30
0.0
 10
36.57993359667125
 20
138.612610923088
 30
0.0
 10
37.36840150661233
 20
138.7221349074202
 30
0.0
 10
38.09265014120366
 20
139.1164492595159
 30
0.0
 10
38.39317321316857
 20
139.2800678771451
 30
0.0
  0
SPLINE
  5
302
330
1F
100
AcDbEntity
  8
0
  6
Continuous
 62
     7
370
    25
100
AcDbSpline
210
0.0
220
0.0
230
1.0
 70
    24
 71
     3
 72
    11
 73
     7
 74
     0
 42
0.00000001
 43
0.00000001
 40
0.0
 40
0.0
 40
0.0
 40
0.0
 40
0.2379053903768475
 40
0.4814905141303176
 40
0.7366519444348059
 40
1.0
 40
1.0
 40
1.0
 40
1.0
 10
24.36141665978434
 20
137.7252541192172
 30
0.0
 10
25.27264960649725
 20
137.7890616491621
 30
0.0
 10
27.11687019902054
 20
137.9182000446809
 30
0.0
 10
30.06231008349139
 20
138.124449439314
 30
0.0
 10
33.11909191630843
 20
138.3384953636147
 30
0.0
 10
35.10831895911426
 20
138.4777875880222
 30
0.0
 10
36.11863620128
 20
138.5485333264373
 30
0.0
  0
SPLINE
  5
303
330
1F
100
AcDbEntity
  8
0
  6
Continuous
 62
     7
370
    25
100
AcDbSpline
210
0.0
220
0.0
230
1.0
 70
     8
 71
     3
 72
     9
 73
     5
 74
     0
 42
0.00000001
 43
0.00000001
 40
0.0
 40
0.0
 40
0.0
 40
0.0
 40
0.5841917497409933
 40
0.9999999999999999
 40
0.9999999999999999
 40
0.9999999999999999
 40
0.9999999999999999
 10
22.00712708053099
 20
138.1326629977911
 30
0.0
 10
22.4637376289181
 20
137.9730862589151
 30
0.0
 10
23.24534837331763
 20
137.6999281067387
 30
0.0
 10
24.03363893898042
 20
137.7178161311049
 30
0.0
 10
24.36141665978431
 20
137.7252541192172
 30
0.0
  0
ARC
  5
304
330
1F
100
AcDbEntity
  8
0
  6
Continuous
 62
     7
370
    25
100
AcDbCircle
 10
29.1049273898
 20
154.3472006344
 30
0.0
 40
17.7
100
AcDbArc
 50
241.6520644894
 51
246.3589373442
  0
SPLINE
  5
305
330
1F
100
AcDbEntity
  8
0
  6
Continuous
 62
     7
370
    25
100
AcDbSpline
210
0.0
220
0.0
230
1.0
 70
     8
 71
     3
 72
     9
 73
     5
 74
     0
 42
0.00000001
 43
0.00000001
 40
0.0
 40
0.0
 40
0.0
 40
0.0
 40
0.5850553834536204
 40
1.0
 40
1.0
 40
1.0
 40
1.0
 10
18.9297345609076
 20
140.3738169749554
 30
0.0
 10
19.21587608511632
 20
140.0063605101726
 30
0.0
 10
19.70496059284207
 20
139.3782892622615
 30
0.0
 10
20.40857115612893
 20
138.9482287220974
 30
0.0
 10
20.70053057151
 20
138.7697774161672
 30
0.0
  0
SPLINE
  5
306
330
1F
100
AcDbEntity
  8
0
  6
Continuous
 62
     7
370
    25
100
AcDbSpline
210
0.0
220
0.0
230
1.0
 70
    24
 71
     3
 72
     9
 73
     5
 74
     0
 42
0.00000001
 43
0.00000001
 40
0.0
 40
0.0
 40
0.0
 40
0.0
 40
0.2293586310767597
 40
1.0
 40
1.0
 40
1.0
 40
1.0
 10
16.64485891098821
 20
143.7605829924475
 30
0.0
 10
16.82408323770371
 20
143.4949270215199
 30
0.0
 10
17.60549846447804
 20
142.3366711944759
 30
0.0
 10
18.35338345105486
 20
141.2281156992916
 30
0.0
 10
18.9297345609076
 20
140.3738169749554
 30
0.0
  0
LINE
  5
307
330
1F
100
AcDbEntity
  8
0
  6
Continuous
 62
     7
370
    25
100
AcDbLine
 10
17.0816548123
 20
166.7661746873
 30
0.0
 11
16.097929058
 21
164.7487464212
 31
0.0
  0
SPLINE
  5
308
330
1F
100
AcDbEntity
  8
0
  6
Continuous
 62
     7
370
    25
100
AcDbSpline
210
0.0
220
0.0
230
1.0
 70
     8
 71
     3
 72
     9
 73
     5
 74
     0
 42
0.00000001
 43
0.00000001
 40
0.0
 40
0.0
 40
0.0
 40
0.0
 40
0.584191749740922
 40
1.0
 40
1.0
 40
1.0
 40
1.0
 10
18.61162604053704
 20
168.6013448315593
 30
0.0
 10
18.24512325662381
 20
168.2856968664581
 30
0.0
 10
17.61775598538842
 20
167.7453811820254
 30
0.0
 10
17.23910218608166
 20
167.0537575144147
 30
0.0
 10
17.08165481233798
 20
166.7661746873477
 30
0.0
  0
ARC
  5
309
330
1F
100
AcDbEntity
  8
0
  6
Continuous
 62
     7
370
    25
100
AcDbCircle
 10
29.1049273898
 20
154.3472006344
 30
0.0
 40
17.70000000000001
100
AcDbArc
 50
121.6520644894
 51
126.3589373442
  0
SPLINE
  5
30A
330
1F
100
AcDbEntity
  8
0
  6
Continuous
 62
     7
370
    25
100
AcDbSpline
210
0.0
220
0.0
230
1.0
 70
     8
 71
     3
 72
     9
 73
     5
 74
     0
 42
0.00000001
 43
0.00000001
 40
0.0
 40
0.0
 40
0.0
 40
0.0
 40
0.5850553834536188
 40
1.0
 40
1.0
 40
1.0
 40
1.0
 10
22.0912185783656
 20
170.1458679423872
 30
0.0
 10
21.62992118297449
 20
170.0817903457363
 30
0.0
 10
20.84145327303402
 20
169.9722663614039
 30
0.0
 10
20.11720463844319
 20
169.5779520093085
 30
0.0
 10
19.81668156647864
 20
169.4143333916795
 30
0.0
  0
SPLINE
  5
30B
330
1F
100
AcDbEntity
  8
0
  6
Continuous
 62
     7
370
    25
100
AcDbSpline
210
0.0
220
0.0
230
1.0
 70
    24
 71
     3
 72
    11
 73
     7
 74
     0
 42
0.00000001
 43
0.00000001
 40
0.0
 40
0.0
 40
0.0
 40
0.0
 40
0.2556279644380965
 40
0.5185037642963862
 40
0.7560467972580108
 40
1.0
 40
1.0
 40
1.0
 40
1.0
 10
33.8484381198626
 20
170.9691471496073
 30
0.0
 10
32.86825207896846
 20
170.900511297072
 30
0.0
 10
30.88008872199163
 20
170.7612935554471
 30
0.0
 10
27.84709360027529
 20
170.5489132549435
 30
0.0
 10
24.87094964075137
 20
170.3405138599232
 30
0.0
 10
23.02598295957928
 20
170.2113232208216
 30
0.0
 10
22.0912185783656
 20
170.1458679423872
 30
0.0
  0
SPLINE
  5
30C
330
1F
100
AcDbEntity
  8
0
  6
Continuous
 62
     7
370
    25
100
AcDbSpline
210
0.0
220
0.0
230
1.0
 70
     8
 71
     3
 72
     9
 73
     5
 74
     0
 42
0.00000001
 43
0.00000001
 40
0.0
 40
0.0
 40
0.0
 40
0.0
 40
0.5841917497409234
 40
1.0
 40
1.0
 40
1.0
 40
1.0
 10
36.2027276991162
 20
170.5617382710335
 30
0.0
 10
35.74611715072912
 20
170.7213150099095
 30
0.0
 10
34.96450640632951
 20
170.9944731620859
 30
0.0
 10
34.1762158406666
 20
170.9765851377197
 30
0.0
 10
33.8484381198626
 20
170.9691471496073
 30
0.0
  0
ARC
  5
30D
330
1F
100
AcDbEntity
  8
0
  6
Continuous
 62
     7
370
    25
100
AcDbCircle
 10
29.1049273898
 20
154.3472006344
 30
0.0
 40
17.70000000000002
100
AcDbArc
 50
61.6520644894
 51
66.3589373442
  0
SPLINE
  5
30E
330
1F
100
AcDbEntity
  8
0
  6
Continuous
 62
     7
370
    25
100
AcDbSpline
210
0.0
220
0.0
230
1.0
 70
     8
 71
     3
 72
     9
 73
     5
 74
     0
 42
0.00000001
 43
0.00000001
 40
0.0
 40
0.0
 40
0.0
 40
0.0
 40
0.5850553834536196
 40
1.0
 40
1.0
 40
1.0
 40
1.0
 10
39.28012021873961
 20
168.3205842938692
 30
0.0
 10
38.99397869453086
 20
168.688040758652
 30
0.0
 10
38.50489418680517
 20
169.3161120065631
 30
0.0
 10
37.80128362351826
 20
169.7461725467272
 30
0.0
 10
37.50932420813722
 20
169.9246238526573
 30
0.0
  0
SPLINE
  5
30F
330
1F
100
AcDbEntity
  8
0
  6
Continuous
 62
     7
370
    25
100
AcDbSpline
210
0.0
220
0.0
230
1.0
 70
    24
 71
     3
 72
    11
 73
     7
 74
     0
 42
0.00000001
 43
0.00000001
 40
0.0
 40
0.0
 40
0.0
 40
0.0
 40
0.232871632211147
 40
0.4710265024313228
 40
0.7311421212560294
 40
1.0
 40
1.0
 40
1.0
 40
1.0
 10
45.87171069734824
 20
158.550173096672
 30
0.0
 10
45.37180138045005
 20
159.2911656694442
 30
0.0
 10
44.36064113377017
 20
160.7899619657832
 30
0.0
 10
42.72327429252976
 20
163.2169554769079
 30
0.0
 10
40.99674477930476
 20
165.7761107131211
 30
0.0
 10
39.85859839302053
 20
167.4631327198264
 30
0.0
 10
39.28012021873961
 20
168.3205842938692
 30
0.0
  0
SPLINE
  5
310
330
1F
100
AcDbEntity
  8
0
  6
Continuous
 62
     7
370
    25
100
AcDbSpline
210
0.0
220
0.0
230
1.0
 70
     8
 71
     3
 72
     9
 73
     5
 74
     0
 42
0.00000001
 43
0.00000001
 40
0.0
 40
0.0
 40
0.0
 40
0.0
 40
0.5841917497409241
 40
1.0
 40
1.0
 40
1.0
 40
1.0
 10
46.69602904840279
 20
156.3075940738864
 30
0.0
 10
46.60592128392887
 20
156.7828187778636
 30
0.0
 10
46.4516778107647
 20
157.5962926144728
 30
0.0
 10
46.04204104440856
 20
158.2700282577173
 30
0.0
 10
45.87171069734824
 20
158.550173096672
 30
0.0
  0
ARC
  5
311
330
1F
100
AcDbEntity
  8
0
  6
Continuous
 62
     7
370
    25
100
AcDbCircle
 10
29.1049273898
 20
154.3472006344
 30
0.0
 40
17.70000000000003
100
AcDbArc
 50
1.6520644894
 51
6.3589373442
  0
SPLINE
  5
312
330
1F
100
AcDbEntity
  8
0
  6
Continuous
 62
     7
370
    25
100
AcDbSpline
210
0.0
220
0.0
230
1.0
 70
     8
 71
     3
 72
     9
 73
     5
 74
     0
 42
0.00000001
 43
0.00000001
 40
0.0
 40
0.0
 40
0.0
 40
0.0
 40
0.5850553834536178
 40
1.0
 40
1.0
 40
1.0
 40
1.0
 10
46.2938290301976
 20
152.5219169858942
 30
0.0
 10
46.46898490137999
 20
152.9534510473279
 30
0.0
 10
46.76836830359473
 20
153.6910462795714
 30
0.0
 10
46.78900637489869
 20
154.515421171831
 30
0.0
 10
46.79757003148216
 20
154.8574910953901
 30
0.0
  0
SPLINE
  5
313
330
1F
100
AcDbEntity
  8
0
  6
Continuous
 62
     7
370
    25
100
AcDbSpline
210
0.0
220
0.0
230
1.0
 70
    24
 71
     3
 72
    11
 73
     7
 74
     0
 42
0.00000001
 43
0.00000001
 40
0.0
 40
0.0
 40
0.0
 40
0.0
 40
0.232871632211149
 40
0.471026502431326
 40
0.7311421212560307
 40
1.0
 40
1.0
 40
1.0
 40
1.0
 10
41.12819996730924
 20
141.9282265814769
 30
0.0
 10
41.51996370089648
 20
142.7316570358853
 30
0.0
 10
42.31237924528413
 20
144.3567456449766
 30
0.0
 10
43.595533860118
 20
146.9882436803675
 30
0.0
 10
44.94856255029411
 20
149.7630397173105
 30
0.0
 10
45.84049327170209
 20
151.5922144044107
 30
0.0
 10
46.2938290301976
 20
152.5219169858942
 30
0.0
  0
SPLINE
  5
314
330
1F
100
AcDbEntity
  8
0
  6
Continuous
 62
     7
370
    25
100
AcDbSpline
210
0.0
220
0.0
230
1.0
 70
     8
 71
     3
 72
     9
 73
     5
 74
     0
 42
0.00000001
 43
0.00000001
 40
0.0
 40
0.0
 40
0.0
 40
0.0
 40
0.5841917497409276
 40
1.0
 40
1.0
 40
1.0
 40
1.0
 10
39.59822873911018
 20
140.0930564372652
 30
0.0
 10
39.9647315230234
 20
140.4087044023665
 30
0.0
 10
40.59209879425879
 20
140.9490200867992
 30
0.0
 10
40.97075259356556
 20
141.6406437544099
 30
0.0
 10
41.12819996730924
 20
141.9282265814769
 30
0.0
  0
ARC
  5
315
330
1F
100
AcDbEntity
  8
0
  6
Continuous
 62
     7
370
    25
100
AcDbCircle
 10
29.1049273898
 20
154.3472006344
 30
0.0
 40
17.70000000000001
100
AcDbArc
 50
301.6520644894
 51
306.3589373442
  0
SPLINE
  5
316
330
1F
100
AcDbEntity
  8
0
  6
Continuous
 62
     7
370
    25
100
AcDbSpline
210
0.0
220
0.0
230
1.0
 70
     8
 71
     3
 72
    15
 73
    11
 74
     0
 42
0.00000001
 43
0.00000001
 40
0.0
 40
0.0
 40
0.0
 40
0.0
 40
0.1250000000000001
 40
0.2500000000000003
 40
0.3749999999999999
 40
0.4999999999999999
 40
0.6250000000000002
 40
0.7499999999999999
 40
0.8749999999999999
 40
1.0
 40
1.0
 40
1.0
 40
1.0
 10
60.07971552469233
 20
143.5972006344126
 30
0.0
 10
60.32171040874573
 20
143.6372090355266
 30
0.0
 10
60.80570017685253
 20
143.7172258377546
 30
0.0
 10
61.50377256697956
 20
144.3564492350363
 30
0.0
 10
62.14717155954227
 20
145.3499511815981
 30
0.0
 10
62.71092319131382
 20
146.6971598515328
 30
0.0
 10
63.17429141136358
 20
148.3362258322141
 30
0.0
 10
63.51600330712848
 20
150.206860596322
 30
0.0
 10
63.7358622008713
 20
152.2364542014252
 30
0.0
 10
63.76338373042337
 20
153.6436184900835
 30
0.0
 10
63.77714449519942
 20
154.3472006344126
 30
0.0
  0
SPLINE
  5
317
330
1F
100
AcDbEntity
  8
0
  6
Continuous
 62
     7
370
    25
100
AcDbSpline
210
0.0
220
0.0
230
1.0
 70
     8
 71
     3
 72
    12
 73
     8
 74
     0
 42
0.00000001
 43
0.00000001
 40
0.0
 40
0.0
 40
0.0
 40
0.0
 40
0.0344657309612196
 40
0.2809159445925403
 40
0.5271454756195619
 40
0.7636592822167425
 40
1.0
 40
1.0
 40
1.0
 40
1.0
 10
41.1818580121473
 20
141.7910266776794
 30
0.0
 10
41.32234328139756
 20
141.8194059999584
 30
0.0
 10
42.46738071458533
 20
142.0507141400325
 30
0.0
 10
45.1994115613134
 20
142.5105874623409
 30
0.0
 10
49.52537387186909
 20
143.0722568279336
 30
0.0
 10
54.50743731154841
 20
143.5010465391242
 30
0.0
 10
58.22274278392134
 20
143.5651570918912
 30
0.0
 10
60.0797155246923
 20
143.5972006344126
 30
0.0
  0
SPLINE
  5
318
330
1F
100
AcDbEntity
  8
0
  6
Continuous
 62
     7
370
    25
100
AcDbSpline
210
0.0
220
0.0
230
1.0
 70
     8
 71
     3
 72
    15
 73
    11
 74
     0
 42
0.00000001
 43
0.00000001
 40
0.0
 40
0.0
 40
0.0
 40
0.0
 40
0.125
 40
0.2500000000000004
 40
0.3749999999999998
 40
0.4999999999999998
 40
0.625
 40
0.7499999999999999
 40
0.8749999999999999
 40
1.0
 40
1.0
 40
1.0
 40
1.0
 10
203.1301392549551
 20
143.5972006344141
 30
0.0
 10
202.8881443709017
 20
143.6372090355281
 30
0.0
 10
202.4041546027949
 20
143.7172258377561
 30
0.0
 10
201.7060822126679
 20
144.3564492350377
 30
0.0
 10
201.0626832201051
 20
145.3499511815996
 30
0.0
 10
200.4989315883335
 20
146.6971598515342
 30
0.0
 10
200.0355633682838
 20
148.3362258322156
 30
0.0
 10
199.6938514725188
 20
150.2068605963234
 30
0.0
 10
199.473992578776
 20
152.2364542014266
 30
0.0
 10
199.4464710492239
 20
153.6436184900849
 30
0.0
 10
199.4327102844478
 20
154.347200634414
 30
0.0
  0
SPLINE
  5
319
330
1F
100
AcDbEntity
  8
0
  6
Continuous
 62
     7
370
    25
100
AcDbSpline
210
0.0
220
0.0
230
1.0
 70
     8
 71
     3
 72
    13
 73
     9
 74
     0
 42
0.00000001
 43
0.00000001
 40
0.0
 40
0.0
 40
0.0
 40
0.0
 40
0.0288312559189345
 40
0.1889357583286298
 40
0.3959578828023971
 40
0.6027946303560017
 40
0.801470013865198
 40
1.0
 40
1.0
 40
1.0
 40
1.0
 10
224.3140982773818
 20
141.3248300648647
 30
0.0
 10
224.1970283814793
 20
141.3512235591153
 30
0.0
 10
223.4298509258047
 20
141.5241842815061
 30
0.0
 10
221.4187633692148
 20
141.9225994977738
 30
0.0
 10
218.0498244172099
 20
142.5081895193206
 30
0.0
 10
213.6744444969904
 20
143.0728679505497
 30
0.0
 10
208.7048822380277
 20
143.500896457919
 30
0.0
 10
204.987933385182
 20
143.5651070770336
 30
0.0
 10
203.1301392549551
 20
143.5972006344141
 30
0.0
  0
SPLINE
  5
31A
330
1F
100
AcDbEntity
  8
0
  6
Continuous
 62
     7
370
    25
100
AcDbSpline
210
0.0
220
0.0
230
1.0
 70
     8
 71
     3
 72
    10
 73
     6
 74
     0
 42
0.00000001
 43
0.00000001
 40
0.0
 40
0.0
 40
0.0
 40
0.0
 40
0.184012014902094
 40
0.5902523693614864
 40
1.0
 40
1.0
 40
1.0
 40
1.0
 10
42.43365797766335
 20
166.6664297695708
 30
0.0
 10
42.86629527479352
 20
166.5889146709269
 30
0.0
 10
44.25405894794876
 20
166.3402707404738
 30
0.0
 10
46.45082481794069
 20
165.996504893824
 30
0.0
 10
48.01472240420021
 20
165.8226795880464
 30
0.0
 10
48.80003216639511
 20
165.7353933675528
 30
0.0
  0
SPLINE
  5
31B
330
1F
100
AcDbEntity
  8
0
  6
Continuous
 62
     7
370
    25
100
AcDbSpline
210
0.0
220
0.0
230
1.0
 70
     8
 71
     3
 72
    10
 73
     6
 74
     0
 42
0.00000001
 43
0.00000001
 40
0.0
 40
0.0
 40
0.0
 40
0.0
 40
0.0912770336737119
 40
0.5389101874809055
 40
0.9999999999999999
 40
0.9999999999999999
 40
0.9999999999999999
 40
0.9999999999999999
 10
48.80003216639511
 20
165.7353933675528
 30
0.0
 10
49.10117903422967
 20
165.7021679779886
 30
0.0
 10
50.87918505033395
 20
165.5060014265733
 30
0.0
 10
54.47645258994002
 20
165.1932137726676
 30
0.0
 10
58.19361291564959
 20
165.1295194159286
 30
0.0
 10
60.07971552469208
 20
165.0972006344126
 30
0.0
  0
SPLINE
  5
31C
330
1F
100
AcDbEntity
  8
0
  6
Continuous
 62
     7
370
    25
100
AcDbSpline
210
0.0
220
0.0
230
1.0
 70
     8
 71
     3
 72
    15
 73
    11
 74
     0
 42
0.00000001
 43
0.00000001
 40
0.0
 40
0.0
 40
0.0
 40
0.0
 40
0.125
 40
0.2500000000000003
 40
0.3749999999999998
 40
0.4999999999999998
 40
0.625
 40
0.7500000000000001
 40
0.8750000000000001
 40
1.0
 40
1.0
 40
1.0
 40
1.0
 10
60.0797155246921
 20
165.0972006344126
 30
0.0
 10
60.32171040874551
 20
165.0571922332986
 30
0.0
 10
60.80570017685233
 20
164.9771754310706
 30
0.0
 10
61.50377256697931
 20
164.337952033789
 30
0.0
 10
62.14717155954208
 20
163.3444500872271
 30
0.0
 10
62.71092319131369
 20
161.9972414172924
 30
0.0
 10
63.17429141136343
 20
160.3581754366111
 30
0.0
 10
63.51600330712839
 20
158.4875406725032
 30
0.0
 10
63.73586220087124
 20
156.4579470674
 30
0.0
 10
63.76338373042337
 20
155.0507827787418
 30
0.0
 10
63.77714449519942
 20
154.3472006344126
 30
0.0
  0
SPLINE
  5
31D
330
1F
100
AcDbEntity
  8
0
  6
Continuous
 62
     7
370
    25
100
AcDbSpline
210
0.0
220
0.0
230
1.0
 70
     8
 71
     3
 72
     9
 73
     5
 74
     0
 42
0.00000001
 43
0.00000001
 40
0.0
 40
0.0
 40
0.0
 40
0.0
 40
0.6726449866773311
 40
1.0
 40
1.0
 40
1.0
 40
1.0
 10
40.0885086727675
 20
167.1223472934743
 30
0.0
 10
40.57515140821702
 20
167.0217138070816
 30
0.0
 10
41.29862775173873
 20
166.8721051897784
 30
0.0
 10
42.15373449750931
 20
166.7171538631602
 30
0.0
 10
42.43365797766335
 20
166.6664297695708
 30
0.0
  0
SPLINE
  5
31E
330
1F
100
AcDbEntity
  8
0
  6
Continuous
 62
     7
370
    25
100
AcDbSpline
210
0.0
220
0.0
230
1.0
 70
     8
 71
     3
 72
    15
 73
    11
 74
     0
 42
0.00000001
 43
0.00000001
 40
0.0
 40
0.0
 40
0.0
 40
0.0
 40
0.1250000000000002
 40
0.2500000000000003
 40
0.3750000000000001
 40
0.5000000000000001
 40
0.6250000000000001
 40
0.75
 40
0.8750000000000001
 40
1.0
 40
1.0
 40
1.0
 40
1.0
 10
203.1301392549549
 20
165.0972006344141
 30
0.0
 10
202.8881443709015
 20
165.0571922333001
 30
0.0
 10
202.4041546027947
 20
164.9771754310721
 30
0.0
 10
201.7060822126677
 20
164.3379520337904
 30
0.0
 10
201.0626832201049
 20
163.3444500872285
 30
0.0
 10
200.4989315883334
 20
161.9972414172939
 30
0.0
 10
200.0355633682836
 20
160.3581754366125
 30
0.0
 10
199.6938514725187
 20
158.4875406725047
 30
0.0
 10
199.4739925787759
 20
156.4579470674014
 30
0.0
 10
199.4464710492238
 20
155.0507827787432
 30
0.0
 10
199.4327102844478
 20
154.347200634414
 30
0.0
  0
SPLINE
  5
31F
330
1F
100
AcDbEntity
  8
0
  6
Continuous
 62
     7
370
    25
100
AcDbSpline
210
0.0
220
0.0
230
1.0
 70
     8
 71
     3
 72
    10
 73
     6
 74
     0
 42
0.00000001
 43
0.00000001
 40
0.0
 40
0.0
 40
0.0
 40
0.0
 40
0.0912770336737119
 40
0.5389101874809052
 40
0.9999999999999999
 40
0.9999999999999999
 40
0.9999999999999999
 40
0.9999999999999999
 10
214.4098226132519
 20
165.7353933675546
 30
0.0
 10
214.1086757454173
 20
165.7021679779903
 30
0.0
 10
212.3306697293129
 20
165.5060014265751
 30
0.0
 10
208.733402189707
 20
165.1932137726692
 30
0.0
 10
205.0162418639974
 20
165.1295194159301
 30
0.0
 10
203.1301392549549
 20
165.0972006344141
 30
0.0
  0
SPLINE
  5
320
330
1F
100
AcDbEntity
  8
0
  6
Continuous
 62
     7
370
    25
100
AcDbSpline
210
0.0
220
0.0
230
1.0
 70
     8
 71
     3
 72
    10
 73
     6
 74
     0
 42
0.00000001
 43
0.00000001
 40
0.0
 40
0.0
 40
0.0
 40
0.0
 40
0.184012014902094
 40
0.5902523693614864
 40
1.0
 40
1.0
 40
1.0
 40
1.0
 10
220.7761968019836
 20
166.6664297695727
 30
0.0
 10
220.3435595048535
 20
166.5889146709287
 30
0.0
 10
218.9557958316982
 20
166.3402707404755
 30
0.0
 10
216.7590299617063
 20
165.9965048938258
 30
0.0
 10
215.1951323754468
 20
165.8226795880482
 30
0.0
 10
214.4098226132519
 20
165.7353933675546
 30
0.0
  0
SPLINE
  5
321
330
1F
100
AcDbEntity
  8
0
  6
Continuous
 62
     7
370
    25
100
AcDbSpline
210
0.0
220
0.0
230
1.0
 70
     8
 71
     3
 72
     9
 73
     5
 74
     0
 42
0.00000001
 43
0.00000001
 40
0.0
 40
0.0
 40
0.0
 40
0.0
 40
0.7296320066210694
 40
1.0
 40
1.0
 40
1.0
 40
1.0
 10
223.5974821383709
 20
167.2177063793023
 30
0.0
 10
222.9605570374224
 20
167.0856286794536
 30
0.0
 10
222.087616849535
 20
166.9046090714182
 30
0.0
 10
221.0553017610044
 20
166.7171206404384
 30
0.0
 10
220.7761968019836
 20
166.6664297695727
 30
0.0
  0
LINE
  5
322
330
1F
100
AcDbEntity
  8
0
  6
Continuous
 62
     7
370
    25
100
AcDbLine
 10
33.3329343328
 20
172.1972006344
 30
0.0
 11
29.1049273898
 21
172.1972006344
 31
0.0
  0
LINE
  5
323
330
1F
100
AcDbEntity
  8
0
  6
Continuous
 62
     7
370
    25
100
AcDbLine
 10
229.8769204468
 20
172.1972006344
 30
0.0
 11
234.1049273898
 21
172.1972006344
 31
0.0
  0
LINE
  5
324
330
1F
100
AcDbEntity
  8
0
  6
Continuous
 62
     7
370
    25
100
AcDbLine
 10
29.1049273898
 20
172.1972006344
 30
0.0
 11
22.0886346224
 21
172.1972006344
 31
0.0
  0
LINE
  5
325
330
1F
100
AcDbEntity
  8
0
  6
Continuous
 62
     7
370
    25
100
AcDbLine
 10
234.1049273898
 20
172.1972006344
 30
0.0
 11
241.1212201572
 21
172.1972006344
 31
0.0
  0
LINE
  5
326
330
1F
100
AcDbEntity
  8
0
  6
Continuous
 62
     7
370
    25
100
AcDbLine
 10
37.746426276
 20
172.1972006344
 30
0.0
 11
33.3329343328
 21
172.1972006344
 31
0.0
  0
LINE
  5
327
330
1F
100
AcDbEntity
  8
0
  6
Continuous
 62
     7
370
    25
100
AcDbLine
 10
225.4634285037
 20
172.1972006344
 30
0.0
 11
229.8769204468
 21
172.1972006344
 31
0.0
  0
SPLINE
  5
328
330
1F
100
AcDbEntity
  8
0
  6
Continuous
 62
     7
370
    25
100
AcDbSpline
210
0.0
220
0.0
230
1.0
 70
     8
 71
     3
 72
     9
 73
     5
 74
     0
 42
0.00000001
 43
0.00000001
 40
0.0
 40
0.0
 40
0.0
 40
0.0
 40
0.673253769858657
 40
1.0
 40
1.0
 40
1.0
 40
1.0
 10
40.15795341830555
 20
171.5879683128129
 30
0.0
 10
39.63459664361901
 20
171.7120707610776
 30
0.0
 10
38.85724225198089
 20
171.896403109177
 30
0.0
 10
38.01999398943898
 20
172.1231213152678
 30
0.0
 10
37.74642627596103
 20
172.1972006344124
 30
0.0
  0
LWPOLYLINE
  5
329
330
1F
100
AcDbEntity
  8
0
  6
Continuous
 62
     7
370
    25
100
AcDbPolyline
 90
        9
 70
   128
 43
0.0
 10
40.1579534183
 20
171.5879683128
 10
40.1135399092
 20
170.6897061687
 10
40.1753622654
 20
169.8212426231
 10
40.341369616
 20
169.0113877475
 10
40.606054898
 20
168.287007352
 10
40.9606375447
 20
167.6721317499
 10
41.3933547697
 20
167.1871585849
 10
41.8898517802
 20
166.8481761679
 10
42.4336579777
 20
166.6664297696
  0
SPLINE
  5
32A
330
1F
100
AcDbEntity
  8
0
  6
Continuous
 62
     7
370
    25
100
AcDbSpline
210
0.0
220
0.0
230
1.0
 70
     8
 71
     3
 72
     9
 73
     5
 74
     0
 42
0.00000001
 43
0.00000001
 40
0.0
 40
0.0
 40
0.0
 40
0.0
 40
0.673253769858657
 40
1.0
 40
1.0
 40
1.0
 40
1.0
 10
223.0519013613413
 20
171.5879683128148
 30
0.0
 10
223.5752581360279
 20
171.7120707610796
 30
0.0
 10
224.3526125276659
 20
171.8964031091789
 30
0.0
 10
225.1898607902079
 20
172.1231213152697
 30
0.0
 10
225.4634285036858
 20
172.1972006344143
 30
0.0
  0
LWPOLYLINE
  5
32B
330
1F
100
AcDbEntity
  8
0
  6
Continuous
 62
     7
370
    25
100
AcDbPolyline
 90
        9
 70
   128
 43
0.0
 10
223.0519013613
 20
171.5879683128
 10
223.0963148704
 20
170.6897061687
 10
223.0344925143
 20
169.8212426231
 10
222.8684851636
 20
169.0113877475
 10
222.6037998817
 20
168.287007352
 10
222.2492172349
 20
167.6721317499
 10
221.81650001
 20
167.1871585849
 10
221.3200029995
 20
166.8481761679
 10
220.776196802
 20
166.6664297696
  0
SPLINE
  5
32C
330
1F
100
AcDbEntity
  8
0
  6
Continuous
 62
     7
370
    25
100
AcDbSpline
210
0.0
220
0.0
230
1.0
 70
     8
 71
     3
 72
    10
 73
     6
 74
     0
 42
0.00000001
 43
0.00000001
 40
0.0
 40
0.0
 40
0.0
 40
0.0
 40
0.8221941384101848
 40
0.9999856333282491
 40
1.0
 40
1.0
 40
1.0
 40
1.0
 10
118.1428194410654
 20
164.1621742832978
 30
0.0
 10
118.9211092731493
 20
164.4342325017779
 30
0.0
 10
119.8676967204329
 20
164.7651206669927
 30
0.0
 10
120.8272180775012
 20
164.9276587579676
 30
0.0
 10
120.9983712760882
 20
164.9537408115866
 30
0.0
 10
120.9983851052263
 20
164.9537429190104
 30
0.0
  0
SPLINE
  5
32D
330
1F
100
AcDbEntity
  8
0
  6
Continuous
 62
     7
370
    25
100
AcDbSpline
210
0.0
220
0.0
230
1.0
 70
     8
 71
     3
 72
    10
 73
     6
 74
     0
 42
0.00000001
 43
0.00000001
 40
0.0
 40
0.0
 40
0.0
 40
0.0
 40
0.822194138410185
 40
0.9999856333282493
 40
1.0
 40
1.0
 40
1.0
 40
1.0
 10
145.0670353385816
 20
164.1621742832981
 30
0.0
 10
144.2887455064837
 20
164.4342325017721
 30
0.0
 10
143.3421580591829
 20
164.7651206669797
 30
0.0
 10
142.3826367021599
 20
164.9276587579738
 30
0.0
 10
142.2114835035588
 20
164.9537408115868
 30
0.0
 10
142.2114696744206
 20
164.9537429190106
 30
0.0
  0
SPLINE
  5
32E
330
1F
100
AcDbEntity
  8
0
  6
Continuous
 62
     7
370
    25
100
AcDbSpline
210
0.0
220
0.0
230
1.0
 70
     8
 71
     3
 72
    10
 73
     6
 74
     0
 42
0.00000001
 43
0.00000001
 40
0.0
 40
0.0
 40
0.0
 40
0.0
 40
0.406371996582544
 40
0.9791213808051907
 40
1.0
 40
1.0
 40
1.0
 40
1.0
 10
113.084741564367
 20
153.4818306891317
 30
0.0
 10
113.6206663581512
 20
153.5458112702057
 30
0.0
 10
114.9119350196502
 20
153.699967450781
 30
0.0
 10
115.9494572150384
 20
154.0692568259908
 30
0.0
 10
116.4815449983776
 20
154.3377571512674
 30
0.0
 10
116.5002591731514
 20
154.3472006344132
 30
0.0
  0
SPLINE
  5
32F
330
1F
100
AcDbEntity
  8
0
  6
Continuous
 62
     7
370
    25
100
AcDbSpline
210
0.0
220
0.0
230
1.0
 70
     8
 71
     3
 72
    10
 73
     6
 74
     0
 42
0.00000001
 43
0.00000001
 40
0.0
 40
0.0
 40
0.0
 40
0.0
 40
0.4063719965825436
 40
0.9791213808051908
 40
1.0
 40
1.0
 40
1.0
 40
1.0
 10
150.1251132152803
 20
153.4818306891321
 30
0.0
 10
149.5891884214959
 20
153.5458112702061
 30
0.0
 10
148.297919759997
 20
153.6999674507813
 30
0.0
 10
147.260397564609
 20
154.069256825991
 30
0.0
 10
146.7283097812696
 20
154.3377571512677
 30
0.0
 10
146.7095956064958
 20
154.3472006344135
 30
0.0
  0
SPLINE
  5
330
330
1F
100
AcDbEntity
  8
0
  6
Continuous
 62
     7
370
    25
100
AcDbSpline
210
0.0
220
0.0
230
1.0
 70
     8
 71
     3
 72
    10
 73
     6
 74
     0
 42
0.00000001
 43
0.00000001
 40
0.0
 40
0.0
 40
0.0
 40
0.0
 40
0.0208786192184336
 40
0.5936280034167071
 40
1.0
 40
1.0
 40
1.0
 40
1.0
 10
116.5002591731514
 20
154.3472006344132
 30
0.0
 10
116.4815449983557
 20
154.3566441175666
 30
0.0
 10
115.9494572149961
 20
154.6251444427566
 30
0.0
 10
114.9119350196238
 20
154.9944338180794
 30
0.0
 10
113.620666358148
 20
155.1485899986215
 30
0.0
 10
113.0847415643594
 20
155.2125705796835
 30
0.0
  0
SPLINE
  5
331
330
1F
100
AcDbEntity
  8
0
  6
Continuous
 62
     7
370
    25
100
AcDbSpline
210
0.0
220
0.0
230
1.0
 70
     8
 71
     3
 72
    14
 73
    10
 74
     0
 42
0.00000001
 43
0.00000001
 40
0.0
 40
0.0
 40
0.0
 40
0.0
 40
0.0625212926160808
 40
0.2145605287947166
 40
0.3523009272493062
 40
0.495747878531678
 40
0.7439364340552145
 40
0.9473463738823692
 40
1.0
 40
1.0
 40
1.0
 40
1.0
 10
113.0847415643594
 20
155.2125705796835
 30
0.0
 10
113.2251909787242
 20
155.4385711192908
 30
0.0
 10
113.7071851818845
 20
156.2141596149383
 30
0.0
 10
114.2368071729184
 20
157.6408049967372
 30
0.0
 10
114.6758685168288
 20
159.3092741018874
 30
0.0
 10
115.1861021676055
 20
161.1475281457619
 30
0.0
 10
115.9855103880457
 20
162.8315065672862
 30
0.0
 10
117.1441774802453
 20
163.7879785611356
 30
0.0
 10
117.9724948793553
 20
164.0983528889727
 30
0.0
 10
118.1428194410654
 20
164.1621742832978
 30
0.0
  0
SPLINE
  5
332
330
1F
100
AcDbEntity
  8
0
  6
Continuous
 62
     7
370
    25
100
AcDbSpline
210
0.0
220
0.0
230
1.0
 70
     8
 71
     3
 72
    14
 73
    10
 74
     0
 42
0.00000001
 43
0.00000001
 40
0.0
 40
0.0
 40
0.0
 40
0.0
 40
0.0625227234691159
 40
0.214565439195174
 40
0.354917404228802
 40
0.4957363382923718
 40
0.7439305738224008
 40
0.9473451688592867
 40
1.0
 40
1.0
 40
1.0
 40
1.0
 10
150.1251132152878
 20
155.2125705796838
 30
0.0
 10
149.9846286334892
 20
155.4385570915776
 30
0.0
 10
149.5025137427541
 20
156.2140974469273
 30
0.0
 10
148.9708262115759
 20
157.6520455729773
 30
0.0
 10
148.5263142040511
 20
159.3167081699735
 30
0.0
 10
148.0229831650608
 20
161.1561772820958
 30
0.0
 10
147.2235834826967
 20
162.8311756407397
 30
0.0
 10
146.0657131967147
 20
163.78799417322
 30
0.0
 10
145.2373660228004
 20
164.0983555517105
 30
0.0
 10
145.0670353385816
 20
164.1621742832981
 30
0.0
  0
SPLINE
  5
333
330
1F
100
AcDbEntity
  8
0
  6
Continuous
 62
     7
370
    25
100
AcDbSpline
210
0.0
220
0.0
230
1.0
 70
     8
 71
     3
 72
    10
 73
     6
 74
     0
 42
0.00000001
 43
0.00000001
 40
0.0
 40
0.0
 40
0.0
 40
0.0
 40
0.0208786192184335
 40
0.5936280034167069
 40
1.0
 40
1.0
 40
1.0
 40
1.0
 10
146.7095956064958
 20
154.3472006344135
 30
0.0
 10
146.7283097812915
 20
154.3566441175669
 30
0.0
 10
147.2603975646512
 20
154.6251444427569
 30
0.0
 10
148.2979197600234
 20
154.9944338180798
 30
0.0
 10
149.5891884214992
 20
155.1485899986219
 30
0.0
 10
150.1251132152878
 20
155.2125705796838
 30
0.0
  0
SPLINE
  5
334
330
1F
100
AcDbEntity
  8
0
  6
Continuous
 62
     7
370
    25
100
AcDbSpline
210
0.0
220
0.0
230
1.0
 70
     8
 71
     3
 72
    10
 73
     6
 74
     0
 42
0.00000001
 43
0.00000001
 40
0.0
 40
0.0
 40
0.0
 40
0.0
 40
0.4002088599189573
 40
0.8141959364606277
 40
0.9999999999999999
 40
0.9999999999999999
 40
0.9999999999999999
 40
0.9999999999999999
 10
44.86199656886847
 20
170.7034837308958
 30
0.0
 10
44.36776643060234
 20
170.7685224173786
 30
0.0
 10
43.36229101375588
 20
170.9008389139644
 30
0.0
 10
41.66392843275468
 20
171.23836138457
 30
0.0
 10
40.51413720861366
 20
171.5052814689909
 30
0.0
 10
40.15795341830555
 20
171.5879683128129
 30
0.0
  0
ARC
  5
335
330
1F
100
AcDbEntity
  8
0
  6
Continuous
 62
     7
370
    25
100
AcDbCircle
 10
49.5588293511
 20
170.3816843465
 30
0.0
 40
4.707843776969113
100
AcDbArc
 50
176.080555057
 51
260.7247669696
  0
ARC
  5
336
330
1F
100
AcDbEntity
  8
0
  6
Continuous
 62
     7
370
    25
100
AcDbCircle
 10
213.6510254285
 20
170.3816843465
 30
0.0
 40
4.707843776969187
100
AcDbArc
 50
279.2752330304
 51
3.919444943
  0
SPLINE
  5
337
330
1F
100
AcDbEntity
  8
0
  6
Continuous
 62
     7
370
    25
100
AcDbSpline
210
0.0
220
0.0
230
1.0
 70
     8
 71
     3
 72
    10
 73
     6
 74
     0
 42
0.00000001
 43
0.00000001
 40
0.0
 40
0.0
 40
0.0
 40
0.0
 40
0.400208859918957
 40
0.8141959364606277
 40
0.9999999999999999
 40
0.9999999999999999
 40
0.9999999999999999
 40
0.9999999999999999
 10
218.3478582107784
 20
170.7034837308976
 30
0.0
 10
218.8420883490445
 20
170.7685224173804
 30
0.0
 10
219.847563765891
 20
170.9008389139663
 30
0.0
 10
221.5459263468922
 20
171.2383613845719
 30
0.0
 10
222.6957175710332
 20
171.5052814689928
 30
0.0
 10
223.0519013613413
 20
171.5879683128148
 30
0.0
  0
SPLINE
  5
338
330
1F
100
AcDbEntity
  8
0
  6
Continuous
 62
     7
370
    25
100
AcDbSpline
210
0.0
220
0.0
230
1.0
 70
     8
 71
     3
 72
    10
 73
     6
 74
     0
 42
0.00000001
 43
0.00000001
 40
0.0
 40
0.0
 40
0.0
 40
0.0
 40
0.3644327143101642
 40
0.7393133379813295
 40
1.0
 40
1.0
 40
1.0
 40
1.0
 10
46.60492738982344
 20
170.4759664104335
 30
0.0
 10
46.55812390969049
 20
170.4813899401377
 30
0.0
 10
46.46317514200998
 20
170.4923924865388
 30
0.0
 10
45.80709157613227
 20
170.570183953448
 30
0.0
 10
45.13688926347142
 20
170.6647118246525
 30
0.0
 10
44.86199656886847
 20
170.7034837308958
 30
0.0
  0
LINE
  5
339
330
1F
100
AcDbEntity
  8
0
  6
Continuous
 62
     7
370
    25
100
AcDbLine
 10
22.0886346224
 20
172.1972006344
 30
0.0
 11
11.6049273898
 21
172.1972006344
 31
0.0
  0
LINE
  5
33A
330
1F
100
AcDbEntity
  8
0
  6
Continuous
 62
     7
370
    25
100
AcDbLine
 10
46.6049273898
 20
172.1972006344
 30
0.0
 11
37.746426276
 21
172.1972006344
 31
0.0
  0
SPLINE
  5
33B
330
1F
100
AcDbEntity
  8
0
  6
Continuous
 62
     7
370
    25
100
AcDbSpline
210
0.0
220
0.0
230
1.0
 70
     8
 71
     3
 72
    10
 73
     6
 74
     0
 42
0.00000001
 43
0.00000001
 40
0.0
 40
0.0
 40
0.0
 40
0.0
 40
0.3644327143101642
 40
0.739313337981329
 40
1.0
 40
1.0
 40
1.0
 40
1.0
 10
216.6049273898234
 20
170.4759664104352
 30
0.0
 10
216.6517308699564
 20
170.4813899401395
 30
0.0
 10
216.7466796376369
 20
170.4923924865406
 30
0.0
 10
217.4027632035146
 20
170.5701839534497
 30
0.0
 10
218.0729655161755
 20
170.6647118246543
 30
0.0
 10
218.3478582107784
 20
170.7034837308976
 30
0.0
  0
LINE
  5
33C
330
1F
100
AcDbEntity
  8
0
  6
Continuous
 62
     7
370
    25
100
AcDbLine
 10
241.1212201572
 20
172.1972006344
 30
0.0
 11
251.6049273898
 21
172.1972006344
 31
0.0
  0
LINE
  5
33D
330
1F
100
AcDbEntity
  8
0
  6
Continuous
 62
     7
370
    25
100
AcDbLine
 10
216.6049273898
 20
172.1972006344
 30
0.0
 11
225.4634285037
 21
172.1972006344
 31
0.0
  0
ARC
  5
33E
330
1F
100
AcDbEntity
  8
0
  6
Continuous
 62
     7
370
    25
100
AcDbCircle
 10
130.4774354173
 20
154.3472006345
 30
0.0
 40
17.41420869871664
100
AcDbArc
 50
177.151609029
 51
182.8483909715
  0
ARC
  5
33F
330
1F
100
AcDbEntity
  8
0
  6
Continuous
 62
     7
370
    25
100
AcDbCircle
 10
132.7324193624
 20
154.3472006345
 30
0.0
 40
17.4142086987148
100
AcDbArc
 50
357.1516090285
 51
2.848390971
  0
SPLINE
  5
340
330
1F
100
AcDbEntity
  8
0
  6
Continuous
 62
     7
370
    25
100
AcDbSpline
210
0.0
220
0.0
230
1.0
 70
    24
 71
     3
 72
     9
 73
     5
 74
     0
 42
0.00000001
 43
0.00000001
 40
0.0
 40
0.0
 40
0.0
 40
0.0
 40
0.5056315204548575
 40
1.0
 40
1.0
 40
1.0
 40
1.0
 10
74.09555092452192
 20
154.3472006344127
 30
0.0
 10
72.31565008691973
 20
154.3472006344127
 30
0.0
 10
68.7954960506346
 20
154.3472006344126
 30
0.0
 10
65.43732059115037
 20
154.3472006344126
 30
0.0
 10
63.77714449519936
 20
154.3472006344126
 30
0.0
  0
SPLINE
  5
341
330
1F
100
AcDbEntity
  8
0
  6
Continuous
 62
     7
370
    25
100
AcDbSpline
210
0.0
220
0.0
230
1.0
 70
    24
 71
     3
 72
    15
 73
    11
 74
     0
 42
0.00000001
 43
0.00000001
 40
0.0
 40
0.0
 40
0.0
 40
0.0
 40
0.1250000000000001
 40
0.25
 40
0.3750000000000001
 40
0.5
 40
0.625
 40
0.7500000000000001
 40
0.8750000000000001
 40
1.0
 40
1.0
 40
1.0
 40
1.0
 10
74.09555092452203
 20
143.5972006344127
 30
0.0
 10
74.09555092452203
 20
143.6372090355267
 30
0.0
 10
74.09555092452203
 20
143.7172258377547
 30
0.0
 10
74.09555092452203
 20
144.3564492350363
 30
0.0
 10
74.095550924522
 20
145.3499511815982
 30
0.0
 10
74.095550924522
 20
146.6971598515329
 30
0.0
 10
74.095550924522
 20
148.3362258322142
 30
0.0
 10
74.09555092452194
 20
150.2068605963221
 30
0.0
 10
74.09555092452194
 20
152.2364542014253
 30
0.0
 10
74.09555092452192
 20
153.6436184900836
 30
0.0
 10
74.09555092452192
 20
154.3472006344127
 30
0.0
  0
SPLINE
  5
342
330
1F
100
AcDbEntity
  8
0
  6
Continuous
 62
     7
370
    25
100
AcDbSpline
210
0.0
220
0.0
230
1.0
 70
    24
 71
     3
 72
     9
 73
     5
 74
     0
 42
0.00000001
 43
0.00000001
 40
0.0
 40
0.0
 40
0.0
 40
0.0
 40
0.4943684795451423
 40
1.0
 40
1.0
 40
1.0
 40
1.0
 10
60.07971552469224
 20
143.5972006344126
 30
0.0
 10
62.33478805502571
 20
143.5972006344126
 30
0.0
 10
66.89630972082506
 20
143.5972006344127
 30
0.0
 10
71.67785228677909
 20
143.5972006344127
 30
0.0
 10
74.09555092452203
 20
143.5972006344127
 30
0.0
  0
SPLINE
  5
343
330
1F
100
AcDbEntity
  8
0
  6
Continuous
 62
     7
370
    25
100
AcDbSpline
210
0.0
220
0.0
230
1.0
 70
    24
 71
     3
 72
     9
 73
     5
 74
     0
 42
0.00000001
 43
0.00000001
 40
0.0
 40
0.0
 40
0.0
 40
0.0
 40
0.4943684795451422
 40
1.0
 40
1.0
 40
1.0
 40
1.0
 10
60.07971552469202
 20
165.0972006344126
 30
0.0
 10
62.33478805502548
 20
165.0972006344126
 30
0.0
 10
66.89630972082486
 20
165.0972006344126
 30
0.0
 10
71.67785228677884
 20
165.0972006344127
 30
0.0
 10
74.0955509245218
 20
165.0972006344127
 30
0.0
  0
SPLINE
  5
344
330
1F
100
AcDbEntity
  8
0
  6
Continuous
 62
     7
370
    25
100
AcDbSpline
210
0.0
220
0.0
230
1.0
 70
    24
 71
     3
 72
    15
 73
    11
 74
     0
 42
0.00000001
 43
0.00000001
 40
0.0
 40
0.0
 40
0.0
 40
0.0
 40
0.1250000000000001
 40
0.2500000000000003
 40
0.3749999999999999
 40
0.5000000000000001
 40
0.6250000000000002
 40
0.7499999999999999
 40
0.875
 40
1.0
 40
1.0
 40
1.0
 40
1.0
 10
74.0955509245218
 20
165.0972006344127
 30
0.0
 10
74.0955509245218
 20
165.0571922332987
 30
0.0
 10
74.0955509245218
 20
164.9771754310707
 30
0.0
 10
74.0955509245218
 20
164.3379520337891
 30
0.0
 10
74.09555092452183
 20
163.3444500872272
 30
0.0
 10
74.09555092452183
 20
161.9972414172925
 30
0.0
 10
74.09555092452186
 20
160.3581754366112
 30
0.0
 10
74.09555092452186
 20
158.4875406725033
 30
0.0
 10
74.09555092452189
 20
156.4579470674001
 30
0.0
 10
74.09555092452192
 20
155.0507827787419
 30
0.0
 10
74.09555092452192
 20
154.3472006344127
 30
0.0
  0
SPLINE
  5
345
330
1F
100
AcDbEntity
  8
0
  6
Continuous
 62
     7
370
    25
100
AcDbSpline
210
0.0
220
0.0
230
1.0
 70
    24
 71
     3
 72
     9
 73
     5
 74
     0
 42
0.00000001
 43
0.00000001
 40
0.0
 40
0.0
 40
0.0
 40
0.0
 40
0.4943684795451422
 40
1.0
 40
1.0
 40
1.0
 40
1.0
 10
203.1301392549552
 20
143.5972006344141
 30
0.0
 10
200.8750667246217
 20
143.5972006344141
 30
0.0
 10
196.3135450588224
 20
143.597200634414
 30
0.0
 10
191.5320024928684
 20
143.597200634414
 30
0.0
 10
189.1143038551254
 20
143.5972006344139
 30
0.0
  0
SPLINE
  5
346
330
1F
100
AcDbEntity
  8
0
  6
Continuous
 62
     7
370
    25
100
AcDbSpline
210
0.0
220
0.0
230
1.0
 70
    24
 71
     3
 72
    15
 73
    11
 74
     0
 42
0.00000001
 43
0.00000001
 40
0.0
 40
0.0
 40
0.0
 40
0.0
 40
0.1250000000000001
 40
0.2500000000000004
 40
0.3749999999999999
 40
0.4999999999999999
 40
0.6250000000000001
 40
0.7499999999999997
 40
0.8749999999999998
 40
1.0
 40
1.0
 40
1.0
 40
1.0
 10
189.1143038551254
 20
143.5972006344139
 30
0.0
 10
189.1143038551254
 20
143.6372090355279
 30
0.0
 10
189.1143038551254
 20
143.7172258377559
 30
0.0
 10
189.1143038551254
 20
144.3564492350375
 30
0.0
 10
189.1143038551254
 20
145.3499511815994
 30
0.0
 10
189.1143038551254
 20
146.6971598515341
 30
0.0
 10
189.1143038551254
 20
148.3362258322155
 30
0.0
 10
189.1143038551253
 20
150.2068605963233
 30
0.0
 10
189.1143038551253
 20
152.2364542014265
 30
0.0
 10
189.1143038551253
 20
153.6436184900848
 30
0.0
 10
189.1143038551253
 20
154.3472006344139
 30
0.0
  0
SPLINE
  5
347
330
1F
100
AcDbEntity
  8
0
  6
Continuous
 62
     7
370
    25
100
AcDbSpline
210
0.0
220
0.0
230
1.0
 70
    24
 71
     3
 72
     9
 73
     5
 74
     0
 42
0.00000001
 43
0.00000001
 40
0.0
 40
0.0
 40
0.0
 40
0.0
 40
0.5056315204548575
 40
1.0
 40
1.0
 40
1.0
 40
1.0
 10
189.1143038551253
 20
154.3472006344139
 30
0.0
 10
190.8942046927275
 20
154.347200634414
 30
0.0
 10
194.4143587290126
 20
154.347200634414
 30
0.0
 10
197.7725341884968
 20
154.347200634414
 30
0.0
 10
199.4327102844478
 20
154.347200634414
 30
0.0
  0
SPLINE
  5
348
330
1F
100
AcDbEntity
  8
0
  6
Continuous
 62
     7
370
    25
100
AcDbSpline
210
0.0
220
0.0
230
1.0
 70
    24
 71
     3
 72
    15
 73
    11
 74
     0
 42
0.00000001
 43
0.00000001
 40
0.0
 40
0.0
 40
0.0
 40
0.0
 40
0.1250000000000003
 40
0.2500000000000002
 40
0.3750000000000002
 40
0.5000000000000002
 40
0.6250000000000001
 40
0.7500000000000001
 40
0.8750000000000001
 40
1.0
 40
1.0
 40
1.0
 40
1.0
 10
189.1143038551252
 20
165.0972006344139
 30
0.0
 10
189.1143038551252
 20
165.0571922332999
 30
0.0
 10
189.1143038551252
 20
164.9771754310719
 30
0.0
 10
189.1143038551252
 20
164.3379520337903
 30
0.0
 10
189.1143038551252
 20
163.3444500872284
 30
0.0
 10
189.1143038551252
 20
161.9972414172938
 30
0.0
 10
189.1143038551252
 20
160.3581754366124
 30
0.0
 10
189.1143038551253
 20
158.4875406725045
 30
0.0
 10
189.1143038551253
 20
156.4579470674013
 30
0.0
 10
189.1143038551253
 20
155.0507827787431
 30
0.0
 10
189.1143038551253
 20
154.3472006344139
 30
0.0
  0
SPLINE
  5
349
330
1F
100
AcDbEntity
  8
0
  6
Continuous
 62
     7
370
    25
100
AcDbSpline
210
0.0
220
0.0
230
1.0
 70
    24
 71
     3
 72
     9
 73
     5
 74
     0
 42
0.00000001
 43
0.00000001
 40
0.0
 40
0.0
 40
0.0
 40
0.0
 40
0.4943684795451423
 40
1.0
 40
1.0
 40
1.0
 40
1.0
 10
203.130139254955
 20
165.0972006344141
 30
0.0
 10
200.8750667246215
 20
165.097200634414
 30
0.0
 10
196.3135450588221
 20
165.097200634414
 30
0.0
 10
191.5320024928681
 20
165.097200634414
 30
0.0
 10
189.1143038551252
 20
165.0972006344139
 30
0.0
  0
SPLINE
  5
34A
330
1F
100
AcDbEntity
  8
0
  6
Continuous
 62
     7
370
    25
100
AcDbSpline
210
0.0
220
0.0
230
1.0
 70
     8
 71
     3
 72
    12
 73
     8
 74
     0
 42
0.00000001
 43
0.00000001
 40
0.0
 40
0.0
 40
0.0
 40
0.0
 40
0.0083795365781666
 40
0.0958567924053466
 40
0.1830705552997302
 40
0.3564922358642272
 40
1.0
 40
1.0
 40
1.0
 40
1.0
 10
110.7500122183344
 20
154.3472006344131
 30
0.0
 10
110.7560264206227
 20
154.3435164547794
 30
0.0
 10
110.8248252300628
 20
154.3013716847153
 30
0.0
 10
110.960349942494
 20
154.227661813169
 30
0.0
 10
111.2245655217406
 20
154.1012514281157
 30
0.0
 10
111.9276258771789
 20
153.8075114389707
 30
0.0
 10
112.5748853896518
 20
153.6253343535707
 30
0.0
 10
113.084741564367
 20
153.4818306891317
 30
0.0
  0
SPLINE
  5
34B
330
1F
100
AcDbEntity
  8
0
  6
Continuous
 62
     7
370
    25
100
AcDbSpline
210
0.0
220
0.0
230
1.0
 70
     8
 71
     3
 72
    14
 73
    10
 74
     0
 42
0.00000001
 43
0.00000001
 40
0.0
 40
0.0
 40
0.0
 40
0.0
 40
0.0036519633757394
 40
0.1287488180035124
 40
0.2542734475680388
 40
0.5068715809684013
 40
0.7404998306596398
 40
0.8703390027579812
 40
0.9999999999999999
 40
0.9999999999999999
 40
0.9999999999999999
 40
0.9999999999999999
 10
110.7500122183344
 20
154.3472006344131
 30
0.0
 10
110.7564221079841
 20
154.330624080913
 30
0.0
 10
110.982400747698
 20
153.7462229108759
 30
0.0
 10
111.2451538553362
 20
152.5279915953994
 30
0.0
 10
111.7005589455515
 20
150.1892586723873
 30
0.0
 10
112.6981018919941
 20
147.6709681185028
 30
0.0
 10
114.1144300553099
 20
145.8274105729193
 30
0.0
 10
115.5938610498452
 20
144.823049115516
 30
0.0
 10
116.5712187130632
 20
144.5043639259094
 30
0.0
 10
117.0595620139447
 20
144.3451307369844
 30
0.0
  0
SPLINE
  5
34C
330
1F
100
AcDbEntity
  8
0
  6
Continuous
 62
     7
370
    25
100
AcDbSpline
210
0.0
220
0.0
230
1.0
 70
     8
 71
     3
 72
    12
 73
     8
 74
     0
 42
0.00000001
 43
0.00000001
 40
0.0
 40
0.0
 40
0.0
 40
0.0
 40
0.0083795365781657
 40
0.0958567924053455
 40
0.1830705552997306
 40
0.3564922358642273
 40
1.0
 40
1.0
 40
1.0
 40
1.0
 10
152.4598425613129
 20
154.3472006344135
 30
0.0
 10
152.4538283590245
 20
154.3435164547798
 30
0.0
 10
152.3850295495844
 20
154.3013716847157
 30
0.0
 10
152.2495048371532
 20
154.2276618131695
 30
0.0
 10
151.9852892579067
 20
154.1012514281161
 30
0.0
 10
151.2822289024683
 20
153.8075114389712
 30
0.0
 10
150.6349693899954
 20
153.6253343535711
 30
0.0
 10
150.1251132152803
 20
153.4818306891321
 30
0.0
  0
SPLINE
  5
34D
330
1F
100
AcDbEntity
  8
0
  6
Continuous
 62
     7
370
    25
100
AcDbSpline
210
0.0
220
0.0
230
1.0
 70
     8
 71
     3
 72
    14
 73
    10
 74
     0
 42
0.00000001
 43
0.00000001
 40
0.0
 40
0.0
 40
0.0
 40
0.0
 40
0.0036519633757393
 40
0.1287488180035124
 40
0.2542734475680387
 40
0.5068715809684015
 40
0.7404998306596396
 40
0.8703390027579813
 40
0.9999999999999999
 40
0.9999999999999999
 40
0.9999999999999999
 40
0.9999999999999999
 10
152.4598425613129
 20
154.3472006344135
 30
0.0
 10
152.4534326716631
 20
154.3306240809134
 30
0.0
 10
152.2274540319492
 20
153.7462229108764
 30
0.0
 10
151.964700924311
 20
152.5279915953998
 30
0.0
 10
151.5092958340958
 20
150.1892586723878
 30
0.0
 10
150.5117528876532
 20
147.6709681185033
 30
0.0
 10
149.0954247243375
 20
145.8274105729197
 30
0.0
 10
147.6159937298022
 20
144.8230491155163
 30
0.0
 10
146.6386360665842
 20
144.5043639259097
 30
0.0
 10
146.1502927657027
 20
144.3451307369847
 30
0.0
  0
SPLINE
  5
34E
330
1F
100
AcDbEntity
  8
0
  6
Continuous
 62
     7
370
    25
100
AcDbSpline
210
0.0
220
0.0
230
1.0
 70
     8
 71
     3
 72
    12
 73
     8
 74
     0
 42
0.00000001
 43
0.00000001
 40
0.0
 40
0.0
 40
0.0
 40
0.0
 40
0.6435077641343198
 40
0.8169294446995035
 40
0.9041432075942217
 40
0.9916204634217558
 40
1.0
 40
1.0
 40
1.0
 40
1.0
 10
113.0847415643594
 20
155.2125705796835
 30
0.0
 10
112.5748853896456
 20
155.0690669152505
 30
0.0
 10
111.9276258771736
 20
154.8868898298578
 30
0.0
 10
111.224565521742
 20
154.5931498407082
 30
0.0
 10
110.9603499424917
 20
154.4667394556613
 30
0.0
 10
110.8248252300686
 20
154.3930295841016
 30
0.0
 10
110.7560264206232
 20
154.3508848140461
 30
0.0
 10
110.7500122183344
 20
154.3472006344131
 30
0.0
  0
SPLINE
  5
34F
330
1F
100
AcDbEntity
  8
0
  6
Continuous
 62
     7
370
    25
100
AcDbSpline
210
0.0
220
0.0
230
1.0
 70
     8
 71
     3
 72
    13
 73
     9
 74
     0
 42
0.00000001
 43
0.00000001
 40
0.0
 40
0.0
 40
0.0
 40
0.0
 40
0.1296625909659298
 40
0.2595033589782117
 40
0.4931344803034464
 40
0.7457357185055109
 40
0.8731652299838701
 40
1.0
 40
1.0
 40
1.0
 40
1.0
 10
117.0595620139445
 20
164.3492705318419
 30
0.0
 10
116.5712707918608
 20
164.1900206289432
 30
0.0
 10
115.5940173578028
 20
163.8713019884215
 30
0.0
 10
114.1135952128809
 20
162.8672586271005
 30
0.0
 10
112.7043467837826
 20
161.021428938208
 30
0.0
 10
111.6778060676882
 20
158.5036137040391
 30
0.0
 10
111.2748336036246
 20
156.1293200130177
 30
0.0
 10
110.9246796688016
 20
154.9403133714578
 30
0.0
 10
110.7500122183344
 20
154.3472006344131
 30
0.0
  0
ARC
  5
350
330
1F
100
AcDbEntity
  8
0
  6
Continuous
 62
     7
370
    25
100
AcDbCircle
 10
118.2232046092
 20
167.8570835378
 30
0.0
 40
3.695783567044922
100
AcDbArc
 50
251.647830712
 51
268.7536894373
  0
ARC
  5
351
330
1F
100
AcDbEntity
  8
0
  6
Continuous
 62
     7
370
    25
100
AcDbCircle
 10
144.9866501704
 20
167.8570835378
 30
0.0
 40
3.695783567045638
100
AcDbArc
 50
271.2463105627
 51
288.352169288
  0
SPLINE
  5
352
330
1F
100
AcDbEntity
  8
0
  6
Continuous
 62
     7
370
    25
100
AcDbSpline
210
0.0
220
0.0
230
1.0
 70
     8
 71
     3
 72
    13
 73
     9
 74
     0
 42
0.00000001
 43
0.00000001
 40
0.0
 40
0.0
 40
0.0
 40
0.0
 40
0.1296625909659297
 40
0.2595033589782117
 40
0.4931344803034463
 40
0.745735718505511
 40
0.8731652299838703
 40
1.0
 40
1.0
 40
1.0
 40
1.0
 10
146.1502927657025
 20
164.3492705318422
 30
0.0
 10
146.6385839877862
 20
164.1900206289435
 30
0.0
 10
147.6158374218442
 20
163.8713019884218
 30
0.0
 10
149.0962595667661
 20
162.8672586271009
 30
0.0
 10
150.5055079958644
 20
161.0214289382084
 30
0.0
 10
151.532048711959
 20
158.5036137040396
 30
0.0
 10
151.9350211760226
 20
156.1293200130181
 30
0.0
 10
152.2851751108456
 20
154.9403133714582
 30
0.0
 10
152.4598425613129
 20
154.3472006344135
 30
0.0
  0
SPLINE
  5
353
330
1F
100
AcDbEntity
  8
0
  6
Continuous
 62
     7
370
    25
100
AcDbSpline
210
0.0
220
0.0
230
1.0
 70
     8
 71
     3
 72
    12
 73
     8
 74
     0
 42
0.00000001
 43
0.00000001
 40
0.0
 40
0.0
 40
0.0
 40
0.0
 40
0.6435077641343194
 40
0.8169294446995048
 40
0.9041432075942231
 40
0.9916204634217569
 40
1.0
 40
1.0
 40
1.0
 40
1.0
 10
150.1251132152878
 20
155.2125705796838
 30
0.0
 10
150.6349693900016
 20
155.0690669152509
 30
0.0
 10
151.2822289024735
 20
154.8868898298582
 30
0.0
 10
151.9852892579052
 20
154.5931498407085
 30
0.0
 10
152.2495048371555
 20
154.4667394556617
 30
0.0
 10
152.3850295495786
 20
154.3930295841021
 30
0.0
 10
152.453828359024
 20
154.3508848140465
 30
0.0
 10
152.4598425613129
 20
154.3472006344135
 30
0.0
  0
LINE
  5
354
330
1F
100
AcDbEntity
  8
0
  6
Continuous
 62
     7
370
    25
100
AcDbLine
 10
74.0955509245
 20
143.5972006344
 30
0.0
 11
118.1364596801
 21
143.5972006344
 31
0.0
  0
LINE
  5
355
330
1F
100
AcDbEntity
  8
0
  6
Continuous
 62
     7
370
    25
100
AcDbLine
 10
74.0955509245
 20
165.0972006344
 30
0.0
 11
121.4139439353
 21
165.0972006344
 31
0.0
  0
LINE
  5
356
330
1F
100
AcDbEntity
  8
0
  6
Continuous
 62
     7
370
    25
100
AcDbLine
 10
189.1143038551
 20
143.5972006344
 30
0.0
 11
145.0733950995
 21
143.5972006344
 31
0.0
  0
LINE
  5
357
330
1F
100
AcDbEntity
  8
0
  6
Continuous
 62
     7
370
    25
100
AcDbLine
 10
189.1143038551
 20
165.0972006344
 30
0.0
 11
141.4174230326
 21
165.0972006344
 31
0.0
  0
ARC
  5
358
330
1F
100
AcDbEntity
  8
0
  6
Continuous
 62
     7
370
    25
100
AcDbCircle
 10
51.6049273898
 20
170.4759664104
 30
0.0
 40
5.0
100
AcDbArc
 50
180.0
 51
264.8819374039
  0
ARC
  5
359
330
1F
100
AcDbEntity
  8
0
  6
Continuous
 62
     7
370
    25
100
AcDbCircle
 10
211.6049273898
 20
170.4759664104
 30
0.0
 40
5.000000000000022
100
AcDbArc
 50
275.1180625961
 51
0.0
  0
ARC
  5
35A
330
1F
100
AcDbEntity
  8
0
  6
Continuous
 62
     7
370
    25
100
AcDbCircle
 10
221.2060385924
 20
136.8616733083
 30
0.0
 40
4.999999999999987
100
AcDbArc
 50
55.0204557102
 51
79.031305318
  0
LINE
  5
35B
330
1F
100
AcDbEntity
  8
0
  6
Continuous
 62
     7
370
    25
100
AcDbLine
 10
120.1518031022
 20
0.4659522346
 30
0.0
 11
120.0599398422
 21
2.2989885501
 31
0.0
  0
LWPOLYLINE
  5
35C
330
1F
100
AcDbEntity
  8
0
  6
Continuous
 62
     7
370
    25
100
AcDbPolyline
 90
        3
 70
   128
 43
0.0
 10
143.1500362051
 20
2.2948484851
 10
143.1432745312
 20
1.4400539097
 10
143.007942326
 20
0.1219724582
  0
SPLINE
  5
35D
330
1F
100
AcDbEntity
  8
0
  6
Continuous
 62
     8
370
    25
100
AcDbSpline
210
0.0
220
0.0
230
1.0
 70
     8
 71
     3
 72
     9
 73
     5
 74
     0
 42
0.00000001
 43
0.00000001
 40
0.0
 40
0.0
 40
0.0
 40
0.0
 40
0.5649589637474403
 40
1.0
 40
1.0
 40
1.0
 40
1.0
 10
145.7655084132728
 20
150.2121960291094
 30
0.0
 10
145.8067673769587
 20
150.7082298196682
 30
0.0
 10
145.8797973956563
 20
151.5862295017487
 30
0.0
 10
145.8954285583648
 20
151.8214147713358
 30
0.0
 10
145.9022287555874
 20
151.9237300147282
 30
0.0
  0
SPLINE
  5
35E
330
1F
100
AcDbEntity
  8
0
  6
Continuous
 62
     8
370
    25
100
AcDbSpline
210
0.0
220
0.0
230
1.0
 70
     8
 71
     3
 72
    11
 73
     7
 74
     0
 42
0.00000001
 43
0.00000001
 40
0.0
 40
0.0
 40
0.0
 40
0.0
 40
0.1734010765957362
 40
0.4683534924949841
 40
0.7146401849923992
 40
0.9999999999999999
 40
0.9999999999999999
 40
0.9999999999999999
 40
0.9999999999999999
 10
117.6600496247278
 20
158.2008954586044
 30
0.0
 10
117.6123477292598
 20
157.8708403729187
 30
0.0
 10
117.4835056841023
 20
156.9793669453515
 30
0.0
 10
117.3757192351033
 20
155.6078083482731
 30
0.0
 10
117.3110119487052
 20
154.0172082590827
 30
0.0
 10
117.3756363545383
 20
152.9956101327132
 30
0.0
 10
117.4103233283699
 20
152.4472701206232
 30
0.0
  0
LINE
  5
35F
330
1F
100
AcDbEntity
  8
0
  6
Continuous
 62
     8
370
    25
100
AcDbLine
 10
145.8602670803
 20
154.8865770907
 30
0.0
 11
145.748412273
 21
157.3922646796
 31
0.0
  0
LINE
  5
360
330
1F
100
AcDbEntity
  8
0
  6
Continuous
 62
     8
370
    25
100
AcDbLine
 10
145.4214575558
 20
146.7718312833
 30
0.0
 11
145.6345412865
 21
146.6550010848
 31
0.0
  0
LINE
  5
361
330
1F
100
AcDbEntity
  8
0
  6
Continuous
 62
     8
370
    25
100
AcDbLine
 10
145.4326777412
 20
146.8885719834
 30
0.0
 11
145.6959087819
 21
146.8809938727
 31
0.0
  0
LINE
  5
362
330
1F
100
AcDbEntity
  8
0
  6
Continuous
 62
     8
370
    25
100
AcDbLine
 10
54.8945831649
 20
209.2972006344
 30
0.0
 11
54.9049273898
 21
209.2972006344
 31
0.0
  0
LINE
  5
363
330
1F
100
AcDbEntity
  8
0
  6
Continuous
 62
     8
370
    25
100
AcDbLine
 10
3.3049273898
 20
209.2972006344
 30
0.0
 11
54.8945831649
 21
209.2972006344
 31
0.0
  0
LINE
  5
364
330
1F
100
AcDbEntity
  8
0
  6
Continuous
 62
     8
370
    25
100
AcDbLine
 10
54.9049273898
 20
211.7972006344
 30
0.0
 11
3.3049273898
 21
211.7972006344
 31
0.0
  0
LINE
  5
365
330
1F
100
AcDbEntity
  8
0
  6
Continuous
 62
     8
370
    25
100
AcDbLine
 10
19.335096635
 20
193.8454463468
 30
0.0
 11
19.1625557005
 21
193.8267524178
 31
0.0
  0
SPLINE
  5
366
330
1F
100
AcDbEntity
  8
0
  6
Continuous
 62
     8
370
    25
100
AcDbSpline
210
0.0
220
0.0
230
1.0
 70
     8
 71
     3
 72
    10
 73
     6
 74
     0
 42
0.00000001
 43
0.00000001
 40
0.0
 40
0.0
 40
0.0
 40
0.0
 40
0.2203464856974317
 40
0.6217776090416255
 40
1.0
 40
1.0
 40
1.0
 40
1.0
 10
46.89540395107908
 20
193.8454463468132
 30
0.0
 10
46.92441527770019
 20
193.8508406491221
 30
0.0
 10
47.00627995207657
 20
193.866062386748
 30
0.0
 10
47.06593363609856
 20
193.8761173202573
 30
0.0
 10
47.02289526443251
 20
193.8665115253373
 30
0.0
 10
47.00201666190476
 20
193.8618516005693
 30
0.0
  0
LINE
  5
367
330
1F
100
AcDbEntity
  8
0
  6
Continuous
 62
     8
370
    25
100
AcDbLine
 10
15.3077642731
 20
193.01232728
 30
0.0
 11
42.9020905065
 21
193.01232728
 31
0.0
  0
LINE
  5
368
330
1F
100
AcDbEntity
  8
0
  6
Continuous
 62
     8
370
    25
100
AcDbLine
 10
42.1049273898
 20
192.0331147399
 30
0.0
 11
16.1049273898
 21
192.0331147399
 31
0.0
  0
LINE
  5
369
330
1F
100
AcDbEntity
  8
0
  6
Continuous
 62
     8
370
    25
100
AcDbLine
 10
47.8413719849
 20
207.2972006344
 30
0.0
 11
47.5444139629
 21
207.2972006344
 31
0.0
  0
SPLINE
  5
36A
330
1F
100
AcDbEntity
  8
0
  6
Continuous
 62
     8
370
    25
100
AcDbSpline
210
0.0
220
0.0
230
1.0
 70
     8
 71
     3
 72
    10
 73
     6
 74
     0
 42
0.00000001
 43
0.00000001
 40
0.0
 40
0.0
 40
0.0
 40
0.0
 40
0.0605525992251252
 40
0.6672070632488301
 40
1.0
 40
1.0
 40
1.0
 40
1.0
 10
47.83145639086788
 20
194.8498923619995
 30
0.0
 10
47.83469546257249
 20
194.8502701810623
 30
0.0
 10
47.87038561538748
 20
194.8544332318731
 30
0.0
 10
47.760707159617
 20
194.8447678665983
 30
0.0
 10
47.60099198985204
 20
194.8299189987346
 30
0.0
 10
47.54441396286941
 20
194.82465888695
 30
0.0
  0
SPLINE
  5
36B
330
1F
100
AcDbEntity
  8
0
  6
Continuous
 62
     8
370
    25
100
AcDbSpline
210
0.0
220
0.0
230
1.0
 70
     8
 71
     3
 72
     9
 73
     5
 74
     0
 42
0.00000001
 43
0.00000001
 40
0.0
 40
0.0
 40
0.0
 40
0.0
 40
0.3980127522004627
 40
1.0
 40
1.0
 40
1.0
 40
1.0
 10
10.6088115963219
 20
194.8246588869508
 30
0.0
 10
10.55155886487102
 20
194.8306125826379
 30
0.0
 10
10.40771238976604
 20
194.8455711377449
 30
0.0
 10
10.38931445221075
 20
194.8482803424766
 30
0.0
 10
10.37823912841665
 20
194.8499112491768
 30
0.0
  0
LINE
  5
36C
330
1F
100
AcDbEntity
  8
0
  6
Continuous
 62
     8
370
    25
100
AcDbLine
 10
10.6088115963
 20
207.2972006344
 30
0.0
 11
10.3684825675
 21
207.2972006344
 31
0.0
  0
LINE
  5
36D
330
1F
100
AcDbEntity
  8
0
  6
Continuous
 62
     8
370
    25
100
AcDbLine
 10
208.3049425376
 20
209.2972006344
 30
0.0
 11
259.9049273898
 21
209.2972006344
 31
0.0
  0
LINE
  5
36E
330
1F
100
AcDbEntity
  8
0
  6
Continuous
 62
     8
370
    25
100
AcDbLine
 10
259.904912242
 20
211.7972006344
 30
0.0
 11
208.3049273898
 21
211.7972006344
 31
0.0
  0
SPLINE
  5
36F
330
1F
100
AcDbEntity
  8
0
  6
Continuous
 62
     8
370
    25
100
AcDbSpline
210
0.0
220
0.0
230
1.0
 70
     8
 71
     3
 72
     9
 73
     5
 74
     0
 42
0.00000001
 43
0.00000001
 40
0.0
 40
0.0
 40
0.0
 40
0.0
 40
0.8503475205252703
 40
1.0
 40
1.0
 40
1.0
 40
1.0
 10
252.0270124958993
 20
193.8670826083955
 30
0.0
 10
252.0414781267268
 20
193.8699029325745
 30
0.0
 10
252.0584895608505
 20
193.8732196050066
 30
0.0
 10
252.0485133690168
 20
193.8712565723768
 30
0.0
 10
252.0470204071731
 20
193.8709627996765
 30
0.0
  0
LINE
  5
370
330
1F
100
AcDbEntity
  8
0
  6
Continuous
 62
     8
370
    25
100
AcDbLine
 10
220.3077642731
 20
193.01232728
 30
0.0
 11
247.9020824059
 21
193.01232728
 31
0.0
  0
LINE
  5
371
330
1F
100
AcDbEntity
  8
0
  6
Continuous
 62
     8
370
    25
100
AcDbLine
 10
247.1049197572
 20
192.0331147399
 30
0.0
 11
221.1049273898
 21
192.0331147399
 31
0.0
  0
LINE
  5
372
330
1F
100
AcDbEntity
  8
0
  6
Continuous
 62
     8
370
    25
100
AcDbLine
 10
252.8480749686
 20
207.2972006344
 30
0.0
 11
252.5790415288
 21
207.2972006344
 31
0.0
  0
SPLINE
  5
373
330
1F
100
AcDbEntity
  8
0
  6
Continuous
 62
     8
370
    25
100
AcDbSpline
210
0.0
220
0.0
230
1.0
 70
     8
 71
     3
 72
    10
 73
     6
 74
     0
 42
0.00000001
 43
0.00000001
 40
0.0
 40
0.0
 40
0.0
 40
0.0
 40
0.0110620927799985
 40
0.6496753835087515
 40
1.0
 40
1.0
 40
1.0
 40
1.0
 10
252.8461985551363
 20
194.8507568789379
 30
0.0
 10
252.8468225529947
 20
194.8508183527822
 30
0.0
 10
252.8834698724489
 20
194.8544287042894
 30
0.0
 10
252.7830097887162
 20
194.8446631711173
 30
0.0
 10
252.6323955958002
 20
194.8298916124689
 30
0.0
 10
252.5790415287893
 20
194.8246588869553
 30
0.0
  0
SPLINE
  5
374
330
1F
100
AcDbEntity
  8
0
  6
Continuous
 62
     8
370
    25
100
AcDbSpline
210
0.0
220
0.0
230
1.0
 70
     8
 71
     3
 72
     9
 73
     5
 74
     0
 42
0.00000001
 43
0.00000001
 40
0.0
 40
0.0
 40
0.0
 40
0.0
 40
0.3774889695254059
 40
1.0
 40
1.0
 40
1.0
 40
1.0
 10
215.6286459951704
 20
194.824658886953
 30
0.0
 10
215.5685134607568
 20
194.8305792287728
 30
0.0
 10
215.4092173242651
 20
194.8462627117292
 30
0.0
 10
215.3811543638299
 20
194.849030856625
 30
0.0
 10
215.3636848614113
 20
194.8507540573566
 30
0.0
  0
LINE
  5
375
330
1F
100
AcDbEntity
  8
0
  6
Continuous
 62
     8
370
    25
100
AcDbLine
 10
215.6286459952
 20
207.2972006344
 30
0.0
 11
215.3617794136
 21
207.2972006344
 31
0.0
  0
SPLINE
  5
376
330
1F
100
AcDbEntity
  8
0
  6
Continuous
 62
     8
370
    25
100
AcDbSpline
210
0.0
220
0.0
230
1.0
 70
     8
 71
     3
 72
    14
 73
    10
 74
     0
 42
0.00000001
 43
0.00000001
 40
0.0
 40
0.0
 40
0.0
 40
0.0
 40
0.1586892998889448
 40
0.3226994796250622
 40
0.4901756931414686
 40
0.6625115993806099
 40
0.8097228148047246
 40
0.9580334483029733
 40
1.0
 40
1.0
 40
1.0
 40
1.0
 10
63.77714449519942
 20
154.3472006344126
 30
0.0
 10
62.29490135431648
 20
154.3103507396912
 30
0.0
 10
59.28071520203351
 20
154.2354153668642
 30
0.0
 10
55.19941775120016
 20
153.6074283440117
 30
0.0
 10
51.54412511045189
 20
152.5399310991586
 30
0.0
 10
48.60587540394365
 20
151.003244125976
 30
0.0
 10
46.14555213087323
 20
149.0435283494954
 30
0.0
 10
44.49171914986941
 20
147.3628524948901
 30
0.0
 10
43.42193559915558
 20
146.3678103558261
 30
0.0
 10
43.18598967300796
 20
146.1483490088081
 30
0.0
  0
SPLINE
  5
377
330
1F
100
AcDbEntity
  8
0
  6
Continuous
 62
     8
370
    25
100
AcDbSpline
210
0.0
220
0.0
230
1.0
 70
     8
 71
     3
 72
    13
 73
     9
 74
     0
 42
0.00000001
 43
0.00000001
 40
0.0
 40
0.0
 40
0.0
 40
0.0
 40
0.1896269386792322
 40
0.3792911097641772
 40
0.5788446253056918
 40
0.77867252493727
 40
0.9522882487192489
 40
1.0
 40
1.0
 40
1.0
 40
1.0
 10
199.4327102844478
 20
154.347200634414
 30
0.0
 10
200.9377473309857
 20
154.3087895002985
 30
0.0
 10
203.9481169313894
 20
154.2319596902121
 30
0.0
 10
208.053415399744
 20
153.5995303113092
 30
0.0
 10
211.666285690232
 20
152.5325095497723
 30
0.0
 10
214.6290849693533
 20
150.981584357008
 30
0.0
 10
216.487581575519
 20
149.5158457042075
 30
0.0
 10
217.4569443623456
 20
148.5816015435579
 30
0.0
 10
217.665910719427
 20
148.3802057384696
 30
0.0
  0
SPLINE
  5
378
330
1F
100
AcDbEntity
  8
0
  6
Continuous
 62
     8
370
    25
100
AcDbSpline
210
0.0
220
0.0
230
1.0
 70
     8
 71
     3
 72
    14
 73
    10
 74
     0
 42
0.00000001
 43
0.00000001
 40
0.0
 40
0.0
 40
0.0
 40
0.0
 40
0.1584297727246421
 40
0.3221717233054637
 40
0.4893740391689567
 40
0.6614281000090376
 40
0.8083985600115877
 40
0.9564666400536509
 40
1.0
 40
1.0
 40
1.0
 40
1.0
 10
63.77714449519942
 20
154.3472006344126
 30
0.0
 10
62.29490172929666
 20
154.3840503995298
 30
0.0
 10
59.2807163395472
 20
154.4589855088028
 30
0.0
 10
55.19941298081707
 20
155.086974573598
 30
0.0
 10
51.54414362625995
 20
156.1544637700589
 30
0.0
 10
48.6058085039007
 20
157.6911802654703
 30
0.0
 10
46.14576211998553
 20
159.6508003409198
 30
0.0
 10
44.48313427330461
 20
161.3398991931125
 30
0.0
 10
43.40384401362837
 20
162.3436103637271
 30
0.0
 10
43.15862074513982
 20
162.5716614664494
 30
0.0
  0
SPLINE
  5
379
330
1F
100
AcDbEntity
  8
0
  6
Continuous
 62
     8
370
    25
100
AcDbSpline
210
0.0
220
0.0
230
1.0
 70
     8
 71
     3
 72
    13
 73
     9
 74
     0
 42
0.00000001
 43
0.00000001
 40
0.0
 40
0.0
 40
0.0
 40
0.0
 40
0.1799003222414469
 40
0.3658327336015949
 40
0.5556944621520643
 40
0.7510654486514075
 40
0.9179534814985315
 40
1.0
 40
1.0
 40
1.0
 40
1.0
 10
199.4327102844478
 20
154.347200634414
 30
0.0
 10
200.9149169293438
 20
154.383992567944
 30
0.0
 10
203.9290288659361
 20
154.4588100749394
 30
0.0
 10
208.0109013192252
 20
155.0877102893564
 30
0.0
 10
211.6639275667721
 20
156.1516081562718
 30
0.0
 10
214.610490608094
 20
157.7014979725885
 30
0.0
 10
216.6489051440838
 20
159.3072808599671
 30
0.0
 10
217.7778581654453
 20
160.4080598543574
 30
0.0
 10
218.1499506068225
 20
160.7708663978444
 30
0.0
  0
LINE
  5
37A
330
1F
100
AcDbEntity
  8
0
  6
Continuous
 62
     8
370
    25
100
AcDbLine
 10
29.1049273898
 20
172.1972006344
 30
0.0
 11
29.1049273898
 21
170.6321460561
 31
0.0
  0
LWPOLYLINE
  5
37B
330
1F
100
AcDbEntity
  8
0
  6
Continuous
 62
     8
370
    25
100
AcDbPolyline
 90
        3
 70
   128
 43
0.0
 10
33.3329343328
 20
172.1972006344
 10
33.1907010385
 20
171.5080102995
 10
33.0811607251
 20
170.8810933415
  0
ARC
  5
37C
330
1F
100
AcDbEntity
  8
0
  6
Continuous
 62
     8
370
    25
100
AcDbCircle
 10
210.331354542
 20
167.7830349852
 30
0.0
 40
20.03781437481864
100
AcDbArc
 50
8.0360447263
 51
12.7261707796
  0
ARC
  5
37D
330
1F
100
AcDbEntity
  8
0
  6
Continuous
 62
     8
370
    25
100
AcDbCircle
 10
12.2914294251
 20
167.9455326991
 30
0.0
 40
10.67997705574723
100
AcDbArc
 50
11.98578437
 51
23.4592730309
  0
ARC
  5
37E
330
1F
100
AcDbEntity
  8
0
  6
Continuous
 62
     8
370
    25
100
AcDbCircle
 10
249.8068074903
 20
168.31979816
 30
0.0
 40
9.511765202574288
100
AcDbArc
 50
155.94315588
 51
172.5543197163
  0
ARC
  5
37F
330
1F
100
AcDbEntity
  8
0
  6
Continuous
 62
     8
370
    25
100
AcDbCircle
 10
46.2850720191
 20
170.7361788923
 30
0.0
 40
8.662739500786671
100
AcDbArc
 50
170.2903231443
 51
186.6466132075
  0
ARC
  5
380
330
1F
100
AcDbEntity
  8
0
  6
Continuous
 62
     8
370
    25
100
AcDbCircle
 10
220.4382379373
 20
170.7058624954
 30
0.0
 40
5.241815494037202
100
AcDbArc
 50
325.7757798728
 51
16.5294381717
  0
SPLINE
  5
381
330
1F
100
AcDbEntity
  8
0
  6
Continuous
 62
     8
370
    25
100
AcDbSpline
210
0.0
220
0.0
230
1.0
 70
     8
 71
     3
 72
    10
 73
     6
 74
     0
 42
0.00000001
 43
0.00000001
 40
0.0
 40
0.0
 40
0.0
 40
0.0
 40
0.3939460911308186
 40
0.6981224656793815
 40
1.0
 40
1.0
 40
1.0
 40
1.0
 10
22.08863462242874
 20
172.1972006344122
 30
0.0
 10
21.04548696703082
 20
171.3942839325972
 30
0.0
 10
19.19689694507207
 20
169.9714136459617
 30
0.0
 10
17.22500482988071
 20
167.4086787950293
 30
0.0
 10
16.3154188102454
 20
165.6917727743379
 30
0.0
 10
15.86235088866014
 20
164.8365759863927
 30
0.0
  0
SPLINE
  5
382
330
1F
100
AcDbEntity
  8
0
  6
Continuous
 62
     8
370
    25
100
AcDbSpline
210
0.0
220
0.0
230
1.0
 70
     8
 71
     3
 72
    10
 73
     6
 74
     0
 42
0.00000001
 43
0.00000001
 40
0.0
 40
0.0
 40
0.0
 40
0.0
 40
0.4182737147096757
 40
0.7382447780552054
 40
1.0
 40
1.0
 40
1.0
 40
1.0
 10
241.1212201572181
 20
172.1972006344145
 30
0.0
 10
242.1635064966391
 20
171.3938972926507
 30
0.0
 10
244.0031211323564
 20
169.9760828893166
 30
0.0
 10
245.8717362053276
 20
167.5683644597283
 30
0.0
 10
246.6992432334037
 20
166.0195666078704
 30
0.0
 10
247.0715906608313
 20
165.3226650998727
 30
0.0
  0
SPLINE
  5
383
330
1F
100
AcDbEntity
  8
0
  6
Continuous
 62
     8
370
    25
100
AcDbSpline
210
0.0
220
0.0
230
1.0
 70
     8
 71
     3
 72
     9
 73
     5
 74
     0
 42
0.00000001
 43
0.00000001
 40
0.0
 40
0.0
 40
0.0
 40
0.0
 40
0.5675577649826398
 40
1.0
 40
1.0
 40
1.0
 40
1.0
 10
117.3370254011246
 20
155.6679452048459
 30
0.0
 10
117.2034942516402
 20
155.3833958040102
 30
0.0
 10
116.9682210200448
 20
154.8820382006225
 30
0.0
 10
116.6415329097297
 20
154.5086635868791
 30
0.0
 10
116.5002591731514
 20
154.3472006344132
 30
0.0
  0
SPLINE
  5
384
330
1F
100
AcDbEntity
  8
0
  6
Continuous
 62
     8
370
    25
100
AcDbSpline
210
0.0
220
0.0
230
1.0
 70
     8
 71
     3
 72
     9
 73
     5
 74
     0
 42
0.00000001
 43
0.00000001
 40
0.0
 40
0.0
 40
0.0
 40
0.0
 40
0.5506739993218813
 40
1.0
 40
1.0
 40
1.0
 40
1.0
 10
117.3085541385977
 20
153.0802433236854
 30
0.0
 10
117.183590896525
 20
153.3455720973582
 30
0.0
 10
116.9566630912781
 20
153.8273975948387
 30
0.0
 10
116.6417553907931
 20
154.1860491606916
 30
0.0
 10
116.5002591731514
 20
154.3472006344132
 30
0.0
  0
SPLINE
  5
385
330
1F
100
AcDbEntity
  8
0
  6
Continuous
 62
     8
370
    25
100
AcDbSpline
210
0.0
220
0.0
230
1.0
 70
     8
 71
     3
 72
    10
 73
     6
 74
     0
 42
0.00000001
 43
0.00000001
 40
0.0
 40
0.0
 40
0.0
 40
0.0
 40
0.0484437683664902
 40
0.7091109014075856
 40
0.9999999999999999
 40
0.9999999999999999
 40
0.9999999999999999
 40
0.9999999999999999
 10
145.5092245481343
 20
156.3752079493991
 30
0.0
 10
145.5257030858346
 20
156.337221961422
 30
0.0
 10
145.7669128660935
 20
155.7811901108131
 30
0.0
 10
146.1137124886926
 20
155.0499469913982
 30
0.0
 10
146.5700837110527
 20
154.5117320221126
 30
0.0
 10
146.7095956064958
 20
154.3472006344135
 30
0.0
  0
SPLINE
  5
386
330
1F
100
AcDbEntity
  8
0
  6
Continuous
 62
     8
370
    25
100
AcDbSpline
210
0.0
220
0.0
230
1.0
 70
     8
 71
     3
 72
     9
 73
     5
 74
     0
 42
0.00000001
 43
0.00000001
 40
0.0
 40
0.0
 40
0.0
 40
0.0
 40
0.4586224615237978
 40
1.0
 40
1.0
 40
1.0
 40
1.0
 10
146.0252934014102
 20
153.3144876181469
 30
0.0
 10
146.1126992077595
 20
153.4964519930384
 30
0.0
 10
146.3032825604782
 20
153.8932148866107
 30
0.0
 10
146.566886405659
 20
154.1877473658186
 30
0.0
 10
146.7095956064958
 20
154.3472006344135
 30
0.0
  0
SPLINE
  5
387
330
1F
100
AcDbEntity
  8
0
  6
Continuous
 62
     8
370
    25
100
AcDbSpline
210
0.0
220
0.0
230
1.0
 70
     8
 71
     3
 72
     9
 73
     5
 74
     0
 42
0.00000001
 43
0.00000001
 40
0.0
 40
0.0
 40
0.0
 40
0.0
 40
0.9288675972982439
 40
1.0
 40
1.0
 40
1.0
 40
1.0
 10
118.1428194410654
 20
164.1621742832978
 30
0.0
 10
118.8133633980722
 20
164.2411330933455
 30
0.0
 10
119.5352574106927
 20
164.3261385454438
 30
0.0
 10
120.0922314167761
 20
164.4001290827453
 30
0.0
 10
120.1318503160713
 20
164.4053922074408
 30
0.0
  0
SPLINE
  5
388
330
1F
100
AcDbEntity
  8
0
  6
Continuous
 62
     8
370
    25
100
AcDbSpline
210
0.0
220
0.0
230
1.0
 70
     8
 71
     3
 72
     9
 73
     5
 74
     0
 42
0.00000001
 43
0.00000001
 40
0.0
 40
0.0
 40
0.0
 40
0.0
 40
0.6600120694081802
 40
1.0
 40
1.0
 40
1.0
 40
1.0
 10
145.0670353385816
 20
164.1621742832981
 30
0.0
 10
144.4102199379723
 20
164.2402161707591
 30
0.0
 10
143.415063286976
 20
164.358459292481
 30
0.0
 10
142.6520067100827
 20
164.4612005803489
 30
0.0
 10
142.3925766835803
 20
164.4961313781974
 30
0.0
  0
SPLINE
  5
389
330
1F
100
AcDbEntity
  8
0
  6
Continuous
 62
     8
370
    25
100
AcDbSpline
210
0.0
220
0.0
230
1.0
 70
     8
 71
     3
 72
     9
 73
     5
 74
     0
 42
0.00000001
 43
0.00000001
 40
0.0
 40
0.0
 40
0.0
 40
0.0
 40
0.0000619662309038
 40
1.0
 40
1.0
 40
1.0
 40
1.0
 10
142.2114696744206
 20
164.9537429190106
 30
0.0
 10
142.2114561534534
 20
164.9537450277855
 30
0.0
 10
141.9932571916033
 20
164.9877760617951
 30
0.0
 10
141.7612098439704
 20
165.0080473273426
 30
0.0
 10
141.5291768754371
 20
165.0283173367563
 30
0.0
  0
SPLINE
  5
38A
330
1F
100
AcDbEntity
  8
0
  6
Continuous
 62
     8
370
    25
100
AcDbSpline
210
0.0
220
0.0
230
1.0
 70
     8
 71
     3
 72
    14
 73
    10
 74
     0
 42
0.00000001
 43
0.00000001
 40
0.0
 40
0.0
 40
0.0
 40
0.0
 40
0.15996915482662
 40
0.221087302741046
 40
0.4809591022328953
 40
0.6284035814307066
 40
0.7753591206583413
 40
0.9365216878397628
 40
1.0
 40
1.0
 40
1.0
 40
1.0
 10
117.776467228234
 20
144.7475534981691
 30
0.0
 10
117.3208021747463
 20
144.963391086351
 30
0.0
 10
116.6910447834659
 20
145.2616920322613
 30
0.0
 10
115.80252443004
 20
146.2756495367547
 30
0.0
 10
115.1842965141807
 20
147.5377139047297
 30
0.0
 10
114.6840343628153
 20
149.3778035407531
 30
0.0
 10
114.2370548894602
 20
151.049507332748
 30
0.0
 10
113.7040379526729
 20
152.4880239703018
 30
0.0
 10
113.2211847122589
 20
153.2628755657469
 30
0.0
 10
113.084741564367
 20
153.4818306891317
 30
0.0
  0
SPLINE
  5
38B
330
1F
100
AcDbEntity
  8
0
  6
Continuous
 62
     8
370
    25
100
AcDbSpline
210
0.0
220
0.0
230
1.0
 70
     8
 71
     3
 72
    14
 73
    10
 74
     0
 42
0.00000001
 43
0.00000001
 40
0.0
 40
0.0
 40
0.0
 40
0.0
 40
0.1599691548266092
 40
0.2210873027410364
 40
0.4809591022328886
 40
0.6284035814307017
 40
0.7753591206583382
 40
0.936521687839762
 40
1.0
 40
1.0
 40
1.0
 40
1.0
 10
145.4333875514135
 20
144.7475534981695
 30
0.0
 10
145.8890526049011
 20
144.9633910863513
 30
0.0
 10
146.5188099961815
 20
145.2616920322616
 30
0.0
 10
147.4073303496073
 20
146.275649536755
 30
0.0
 10
148.0255582654667
 20
147.53771390473
 30
0.0
 10
148.525820416832
 20
149.3778035407534
 30
0.0
 10
148.9727998901871
 20
151.0495073327484
 30
0.0
 10
149.5058168269743
 20
152.4880239703022
 30
0.0
 10
149.9886700673883
 20
153.2628755657473
 30
0.0
 10
150.1251132152803
 20
153.4818306891321
 30
0.0
  0
ARC
  5
38C
330
1F
100
AcDbEntity
  8
0
  6
Continuous
 62
     8
370
    25
100
AcDbCircle
 10
118.2306938944
 20
140.8073524512
 30
0.0
 40
3.726583566897104
100
AcDbArc
 50
93.0798487324
 51
108.3164011904
  0
ARC
  5
38D
330
1F
100
AcDbEntity
  8
0
  6
Continuous
 62
     8
370
    25
100
AcDbCircle
 10
144.9791608853
 20
140.8073524511
 30
0.0
 40
3.726583566899809
100
AcDbArc
 50
71.6835988096
 51
86.9201512676
  0
SPLINE
  5
38E
330
1F
100
AcDbEntity
  8
0
  6
Continuous
 62
     8
370
    25
100
AcDbSpline
210
0.0
220
0.0
230
1.0
 70
     8
 71
     3
 72
     9
 73
     5
 74
     0
 42
0.00000001
 43
0.00000001
 40
0.0
 40
0.0
 40
0.0
 40
0.0
 40
0.3166647268323713
 40
1.0
 40
1.0
 40
1.0
 40
1.0
 10
121.3029487856598
 20
165.0373084559206
 30
0.0
 10
120.8481318334687
 20
165.0029397685868
 30
0.0
 10
119.4118589756084
 20
164.8944064068905
 30
0.0
 10
118.0144564503008
 20
164.5705636859911
 30
0.0
 10
117.0595620139445
 20
164.3492705318419
 30
0.0
  0
LINE
  5
38F
330
1F
100
AcDbEntity
  8
0
  6
Continuous
 62
     8
370
    25
100
AcDbLine
 10
117.0595620139
 20
144.345130737
 30
0.0
 11
118.0728849303
 21
144.1471148982
 31
0.0
  0
LINE
  5
390
330
1F
100
AcDbEntity
  8
0
  6
Continuous
 62
     8
370
    25
100
AcDbLine
 10
146.1502927657
 20
144.345130737
 30
0.0
 11
145.1369698493
 21
144.1471148982
 31
0.0
  0
SPLINE
  5
391
330
1F
100
AcDbEntity
  8
0
  6
Continuous
 62
     8
370
    25
100
AcDbSpline
210
0.0
220
0.0
230
1.0
 70
     8
 71
     3
 72
     9
 73
     5
 74
     0
 42
0.00000001
 43
0.00000001
 40
0.0
 40
0.0
 40
0.0
 40
0.0
 40
0.3074930659476426
 40
1.0
 40
1.0
 40
1.0
 40
1.0
 10
141.9638095831261
 20
165.0320931645039
 30
0.0
 10
142.3995682751193
 20
164.9989621825004
 30
0.0
 10
143.8167016685186
 20
164.89121672196
 30
0.0
 10
145.1954795336093
 20
164.5710134901657
 30
0.0
 10
146.1502927657025
 20
164.3492705318422
 30
0.0
  0
SPLINE
  5
392
330
1F
100
AcDbEntity
  8
0
  6
Continuous
 62
     8
370
    25
100
AcDbSpline
210
0.0
220
0.0
230
1.0
 70
     8
 71
     3
 72
     9
 73
     5
 74
     0
 42
0.00000001
 43
0.00000001
 40
0.0
 40
0.0
 40
0.0
 40
0.0
 40
0.4341123552591948
 40
1.0
 40
1.0
 40
1.0
 40
1.0
 10
225.2564981981047
 20
140.7174292832402
 30
0.0
 10
224.9434843330968
 20
140.7823446094506
 30
0.0
 10
224.2224408953423
 20
140.9318803815243
 30
0.0
 10
224.1266597128838
 20
140.9488527212303
 30
0.0
 10
224.0724583251318
 20
140.9584571585724
 30
0.0
  0
ENDSEC
  0
SECTION
  2
OBJECTS
  0
DICTIONARY
  5
C
330
0
100
AcDbDictionary
281
     1
  3
ACAD_GROUP
350
D
  3
ACAD_LAYOUT
350
1A
  3
ACAD_MLINESTYLE
350
17
  3
ACAD_PLOTSETTINGS
350
19
  3
ACAD_PLOTSTYLENAME
350
E
  3
ACAD_SCALELIST
350
47
  3
DWGPROPS
350
393
  0
DICTIONARY
  5
D
102
{ACAD_REACTORS
330
C
102
}
330
C
100
AcDbDictionary
281
     1
  0
DICTIONARY
  5
1A
102
{ACAD_REACTORS
330
C
102
}
330
C
100
AcDbDictionary
281
     1
  3
Layout1
350
1E
  3
Layout2
350
26
  3
Model
350
22
  0
DICTIONARY
  5
17
102
{ACAD_REACTORS
330
C
102
}
330
C
100
AcDbDictionary
281
     1
  3
Standard
350
18
  0
DICTIONARY
  5
19
102
{ACAD_REACTORS
330
C
102
}
330
C
100
AcDbDictionary
281
     1
  0
ACDBDICTIONARYWDFLT
  5
E
102
{ACAD_REACTORS
330
C
102
}
330
C
100
AcDbDictionary
281
     1
  3
Normal
350
F
100
AcDbDictionaryWithDefault
340
F
  0
DICTIONARY
  5
47
102
{ACAD_REACTORS
330
C
102
}
330
C
100
AcDbDictionary
281
     1
  3
A0
350
48
  3
A1
350
49
  3
A2
350
4A
  3
A3
350
4B
  3
A4
350
4C
  3
A5
350
4D
  3
A6
350
4E
  3
A7
350
4F
  3
A8
350
50
  3
A9
350
51
  3
B0
350
52
  3
B1
350
53
  3
B2
350
54
  3
B3
350
55
  3
B4
350
56
  3
B5
350
57
  3
B6
350
58
  3
B7
350
59
  3
B8
350
5A
  3
B9
350
5B
  3
C0
350
5C
  3
C1
350
5D
  3
C2
350
5E
  3
C3
350
5F
  3
C4
350
60
  3
C5
350
61
  3
C6
350
62
  3
C7
350
63
  3
C8
350
64
  3
C9
350
65
  3
D0
350
66
  3
D1
350
67
  3
D2
350
68
  0
XRECORD
  5
393
102
{ACAD_REACTORS
330
C
102
}
330
C
100
AcDbXrecord
280
     1
  1
DWGPROPS COOKIE
  2

  3

  4

  6

  7

  8
vishesh
  9

300
=
301
=
302
=
303
=
304
=
305
=
306
=
307
=
308
=
309
=
 40
0.0
 41
2460383.423141817
 42
2460383.423142095
  1

 90
        0
  0
LAYOUT
  5
1E
102
{ACAD_REACTORS
330
1A
102
}
330
1A
100
AcDbPlotSettings
  1

  2
none_device
  4

  6

 40
0.0
 41
0.0
 42
0.0
 43
0.0
 44
0.0
 45
0.0
 46
0.0
 47
0.0
 48
0.0
 49
0.0
140
0.0
141
0.0
142
1.0
143
1.0
 70
   688
 72
     1
 73
     0
 74
     5
  7

 75
    16
147
1.0
148
0.0
149
0.0
100
AcDbLayout
  1
Layout1
 70
     1
 71
     1
 10
0.0
 20
0.0
 11
420.0
 21
297.0
 12
0.0
 22
0.0
 32
0.0
 14
1.0000000000E+20
 24
1.0000000000E+20
 34
1.0000000000E+20
 15
-1.0000000000E+20
 25
-1.0000000000E+20
 35
-1.0000000000E+20
146
0.0
 13
0.0
 23
0.0
 33
0.0
 16
1.0
 26
0.0
 36
0.0
 17
0.0
 27
1.0
 37
0.0
 76
     0
330
1B
  0
LAYOUT
  5
26
102
{ACAD_REACTORS
330
1A
102
}
330
1A
100
AcDbPlotSettings
  1

  2
none_device
  4

  6

 40
0.0
 41
0.0
 42
0.0
 43
0.0
 44
0.0
 45
0.0
 46
0.0
 47
0.0
 48
0.0
 49
0.0
140
0.0
141
0.0
142
1.0
143
1.0
 70
   688
 72
     1
 73
     0
 74
     5
  7

 75
    16
147
1.0
148
0.0
149
0.0
100
AcDbLayout
  1
Layout2
 70
     1
 71
     2
 10
0.0
 20
0.0
 11
0.0
 21
0.0
 12
0.0
 22
0.0
 32
0.0
 14
0.0
 24
0.0
 34
0.0
 15
0.0
 25
0.0
 35
0.0
146
0.0
 13
0.0
 23
0.0
 33
0.0
 16
1.0
 26
0.0
 36
0.0
 17
0.0
 27
1.0
 37
0.0
 76
     0
330
23
  0
LAYOUT
  5
22
102
{ACAD_REACTORS
330
1A
102
}
330
1A
100
AcDbPlotSettings
  1

  2
none_device
  4
Letter_(8.50_x_11.00_Inches)
  6

 40
6.35
 41
6.35
 42
6.35000508
 43
6.35000508
 44
215.9
 45
279.4
 46
0.0
 47
0.0
 48
0.0
 49
0.0
140
0.0
141
0.0
142
1.0
143
1.0
 70
  1712
 72
     1
 73
     0
 74
     0
  7

 75
     0
147
1.0
148
0.0
149
0.0
100
AcDbLayout
  1
Model
 70
     1
 71
     0
 10
0.0
 20
0.0
 11
279.4
 21
215.9
 12
0.0
 22
0.0
 32
0.0
 14
0.0
 24
0.0
 34
0.0
 15
279.4
 25
215.9
 35
0.0
146
0.0
 13
0.0
 23
0.0
 33
0.0
 16
1.0
 26
0.0
 36
0.0
 17
0.0
 27
1.0
 37
0.0
 76
     0
330
1F
331
29
  0
MLINESTYLE
  5
18
102
{ACAD_REACTORS
330
17
102
}
330
17
100
AcDbMlineStyle
  2
Standard
 70
     0
  3

 62
   256
 51
90.0
 52
90.0
 71
     2
 49
0.5
 62
   256
  6
BYLAYER
 49
-0.5
 62
   256
  6
BYLAYER
  0
ACDBPLACEHOLDER
  5
F
102
{ACAD_REACTORS
330
E
102
}
330
E
  0
SCALE
  5
48
102
{ACAD_REACTORS
330
47
102
}
330
47
100
AcDbScale
 70
     0
300
1:1
140
1.0
141
1.0
290
     1
  0
SCALE
  5
49
102
{ACAD_REACTORS
330
47
102
}
330
47
100
AcDbScale
 70
     0
300
1:2
140
1.0
141
2.0
290
     0
  0
SCALE
  5
4A
102
{ACAD_REACTORS
330
47
102
}
330
47
100
AcDbScale
 70
     0
300
1:4
140
1.0
141
4.0
290
     0
  0
SCALE
  5
4B
102
{ACAD_REACTORS
330
47
102
}
330
47
100
AcDbScale
 70
     0
300
1:5
140
1.0
141
5.0
290
     0
  0
SCALE
  5
4C
102
{ACAD_REACTORS
330
47
102
}
330
47
100
AcDbScale
 70
     0
300
1:8
140
1.0
141
8.0
290
     0
  0
SCALE
  5
4D
102
{ACAD_REACTORS
330
47
102
}
330
47
100
AcDbScale
 70
     0
300
1:10
140
1.0
141
10.0
290
     0
  0
SCALE
  5
4E
102
{ACAD_REACTORS
330
47
102
}
330
47
100
AcDbScale
 70
     0
300
1:16
140
1.0
141
16.0
290
     0
  0
SCALE
  5
4F
102
{ACAD_REACTORS
330
47
102
}
330
47
100
AcDbScale
 70
     0
300
1:20
140
1.0
141
20.0
290
     0
  0
SCALE
  5
50
102
{ACAD_REACTORS
330
47
102
}
330
47
100
AcDbScale
 70
     0
300
1:30
140
1.0
141
30.0
290
     0
  0
SCALE
  5
51
102
{ACAD_REACTORS
330
47
102
}
330
47
100
AcDbScale
 70
     0
300
1:40
140
1.0
141
40.0
290
     0
  0
SCALE
  5
52
102
{ACAD_REACTORS
330
47
102
}
330
47
100
AcDbScale
 70
     0
300
1:50
140
1.0
141
50.0
290
     0
  0
SCALE
  5
53
102
{ACAD_REACTORS
330
47
102
}
330
47
100
AcDbScale
 70
     0
300
1:100
140
1.0
141
100.0
290
     0
  0
SCALE
  5
54
102
{ACAD_REACTORS
330
47
102
}
330
47
100
AcDbScale
 70
     0
300
2:1
140
2.0
141
1.0
290
     0
  0
SCALE
  5
55
102
{ACAD_REACTORS
330
47
102
}
330
47
100
AcDbScale
 70
     0
300
4:1
140
4.0
141
1.0
290
     0
  0
SCALE
  5
56
102
{ACAD_REACTORS
330
47
102
}
330
47
100
AcDbScale
 70
     0
300
8:1
140
8.0
141
1.0
290
     0
  0
SCALE
  5
57
102
{ACAD_REACTORS
330
47
102
}
330
47
100
AcDbScale
 70
     0
300
10:1
140
10.0
141
1.0
290
     0
  0
SCALE
  5
58
102
{ACAD_REACTORS
330
47
102
}
330
47
100
AcDbScale
 70
     0
300
100:1
140
100.0
141
1.0
290
     0
  0
SCALE
  5
59
102
{ACAD_REACTORS
330
47
102
}
330
47
100
AcDbScale
 70
     0
300
1/128" = 1'-0"
140
0.0078125
141
12.0
290
     0
  0
SCALE
  5
5A
102
{ACAD_REACTORS
330
47
102
}
330
47
100
AcDbScale
 70
     0
300
1/64" = 1'-0"
140
0.015625
141
12.0
290
     0
  0
SCALE
  5
5B
102
{ACAD_REACTORS
330
47
102
}
330
47
100
AcDbScale
 70
     0
300
1/32" = 1'-0"
140
0.03125
141
12.0
290
     0
  0
SCALE
  5
5C
102
{ACAD_REACTORS
330
47
102
}
330
47
100
AcDbScale
 70
     0
300
1/16" = 1'-0"
140
0.0625
141
12.0
290
     0
  0
SCALE
  5
5D
102
{ACAD_REACTORS
330
47
102
}
330
47
100
AcDbScale
 70
     0
300
3/32" = 1'-0"
140
0.09375
141
12.0
290
     0
  0
SCALE
  5
5E
102
{ACAD_REACTORS
330
47
102
}
330
47
100
AcDbScale
 70
     0
300
1/8" = 1'-0"
140
0.125
141
12.0
290
     0
  0
SCALE
  5
5F
102
{ACAD_REACTORS
330
47
102
}
330
47
100
AcDbScale
 70
     0
300
3/16" = 1'-0"
140
0.1875
141
12.0
290
     0
  0
SCALE
  5
60
102
{ACAD_REACTORS
330
47
102
}
330
47
100
AcDbScale
 70
     0
300
1/4" = 1'-0"
140
0.25
141
12.0
290
     0
  0
SCALE
  5
61
102
{ACAD_REACTORS
330
47
102
}
330
47
100
AcDbScale
 70
     0
300
3/8" = 1'-0"
140
0.375
141
12.0
290
     0
  0
SCALE
  5
62
102
{ACAD_REACTORS
330
47
102
}
330
47
100
AcDbScale
 70
     0
300
1/2" = 1'-0"
140
0.5
141
12.0
290
     0
  0
SCALE
  5
63
102
{ACAD_REACTORS
330
47
102
}
330
47
100
AcDbScale
 70
     0
300
3/4" = 1'-0"
140
0.75
141
12.0
290
     0
  0
SCALE
  5
64
102
{ACAD_REACTORS
330
47
102
}
330
47
100
AcDbScale
 70
     0
300
1" = 1'-0"
140
1.0
141
12.0
290
     0
  0
SCALE
  5
65
102
{ACAD_REACTORS
330
47
102
}
330
47
100
AcDbScale
 70
     0
300
1-1/2" = 1'-0"
140
1.5
141
12.0
290
     0
  0
SCALE
  5
66
102
{ACAD_REACTORS
330
47
102
}
330
47
100
AcDbScale
 70
     0
300
3" = 1'-0"
140
3.0
141
12.0
290
     0
  0
SCALE
  5
67
102
{ACAD_REACTORS
330
47
102
}
330
47
100
AcDbScale
 70
     0
300
6" = 1'-0"
140
6.0
141
12.0
290
     0
  0
SCALE
  5
68
102
{ACAD_REACTORS
330
47
102
}
330
47
100
AcDbScale
 70
     0
300
1'-0" = 1'-0"
140
12.0
141
12.0
290
     0
  0
ENDSEC
  0
EOF
