  0
SECTION
  2
HEADER
  9
$ACADVER
  1
AC1015
  9
$ACADMAINTVER
 70
     6
  9
$DWGCODEPAGE
  3
ANSI_1252
  9
$INSBASE
 10
0.0
 20
0.0
 30
0.0
  9
$EXTMIN
 10
0.0
 20
0.0
 30
0.0
  9
$EXTMAX
 10
279.4
 20
215.9
 30
0.0
  9
$LIMMIN
 10
0.0
 20
0.0
  9
$LIMMAX
 10
279.4
 20
215.9
  9
$ORTHOMODE
 70
     0
  9
$REGENMODE
 70
     1
  9
$FILLMODE
 70
     1
  9
$QTEXTMODE
 70
     0
  9
$MIRRTEXT
 70
     1
  9
$LTSCALE
 40
1.0
  9
$ATTMODE
 70
     1
  9
$TEXTSIZE
 40
3.5
  9
$TRACEWID
 40
1.0
  9
$TEXTSTYLE
  7
Standard
  9
$CLAYER
  8
0
  9
$CELTYPE
  6
ByLayer
  9
$CECOLOR
 62
   256
  9
$CELTSCALE
 40
1.0
  9
$DISPSILH
 70
     0
  9
$DIMSCALE
 40
1.0
  9
$DIMASZ
 40
3.556
  9
$DIMEXO
 40
1.0
  9
$DIMDLI
 40
3.75
  9
$DIMRND
 40
0.0
  9
$DIMDLE
 40
0.0
  9
$DIMEXE
 40
1.0
  9
$DIMTP
 40
0.0
  9
$DIMTM
 40
0.0
  9
$DIMTXT
 40
3.5
  9
$DIMCEN
 40
2.5
  9
$DIMTSZ
 40
0.0
  9
$DIMTOL
 70
     0
  9
$DIMLIM
 70
     0
  9
$DIMTIH
 70
     1
  9
$DIMTOH
 70
     1
  9
$DIMSE1
 70
     0
  9
$DIMSE2
 70
     0
  9
$DIMTAD
 70
     1
  9
$DIMZIN
 70
     1
  9
$DIMBLK
  1

  9
$DIMASO
 70
     1
  9
$DIMSHO
 70
     1
  9
$DIMPOST
  1

  9
$DIMAPOST
  1

  9
$DIMALT
 70
     0
  9
$DIMALTD
 70
     3
  9
$DIMALTF
 40
0.0393700787
  9
$DIMLFAC
 40
10.0
  9
$DIMTOFL
 70
     1
  9
$DIMTVP
 40
0.0
  9
$DIMTIX
 70
     0
  9
$DIMSOXD
 70
     0
  9
$DIMSAH
 70
     0
  9
$DIMBLK1
  1

  9
$DIMBLK2
  1

  9
$DIMSTYLE
  2
ISO-25
  9
$DIMCLRD
 70
     0
  9
$DIMCLRE
 70
     0
  9
$DIMCLRT
 70
     0
  9
$DIMTFAC
 40
1.0
  9
$DIMGAP
 40
1.524
  9
$DIMJUST
 70
     0
  9
$DIMSD1
 70
     0
  9
$DIMSD2
 70
     0
  9
$DIMTOLJ
 70
     0
  9
$DIMTZIN
 70
     1
  9
$DIMALTZ
 70
     0
  9
$DIMALTTZ
 70
     0
  9
$DIMUPT
 70
     0
  9
$DIMDEC
 70
     2
  9
$DIMTDEC
 70
     2
  9
$DIMALTU
 70
     2
  9
$DIMALTTD
 70
     3
  9
$DIMTXSTY
  7
Standard
  9
$DIMAUNIT
 70
     0
  9
$DIMADEC
 70
     2
  9
$DIMALTRND
 40
0.0
  9
$DIMAZIN
 70
     0
  9
$DIMDSEP
 70
    44
  9
$DIMATFIT
 70
     3
  9
$DIMFRAC
 70
     0
  9
$DIMLDRBLK
  1

  9
$DIMLUNIT
 70
     2
  9
$DIMLWD
 70
    -2
  9
$DIMLWE
 70
    -2
  9
$DIMTMOVE
 70
     0
  9
$LUNITS
 70
     2
  9
$LUPREC
 70
     2
  9
$SKETCHINC
 40
1.0
  9
$FILLETRAD
 40
10.0
  9
$AUNITS
 70
     0
  9
$AUPREC
 70
     2
  9
$MENU
  1
.
  9
$ELEVATION
 40
0.0
  9
$PELEVATION
 40
0.0
  9
$THICKNESS
 40
0.0
  9
$LIMCHECK
 70
     0
  9
$CHAMFERA
 40
0.0
  9
$CHAMFERB
 40
0.0
  9
$CHAMFERC
 40
0.0
  9
$CHAMFERD
 40
0.0
  9
$SKPOLY
 70
     0
  9
$TDCREATE
 40
2460383.640498762
  9
$TDUCREATE
 40
2460383.411332095
  9
$TDUPDATE
 40
2460383.640499132
  9
$TDUUPDATE
 40
2460383.411332465
  9
$TDINDWG
 40
0.0000000116
  9
$TDUSRTIMER
 40
0.0000000116
  9
$USRTIMER
 70
     1
  9
$ANGBASE
 50
0.0
  9
$ANGDIR
 70
     0
  9
$PDMODE
 70
     0
  9
$PDSIZE
 40
-1.0
  9
$PLINEWID
 40
0.0
  9
$SPLFRAME
 70
     0
  9
$SPLINETYPE
 70
     6
  9
$SPLINESEGS
 70
     8
  9
$HANDSEED
  5
3A0
  9
$SURFTAB1
 70
     6
  9
$SURFTAB2
 70
     6
  9
$SURFTYPE
 70
     6
  9
$SURFU
 70
     6
  9
$SURFV
 70
     6
  9
$UCSBASE
  2

  9
$UCSNAME
  2

  9
$UCSORG
 10
0.0
 20
0.0
 30
0.0
  9
$UCSXDIR
 10
1.0
 20
0.0
 30
0.0
  9
$UCSYDIR
 10
0.0
 20
1.0
 30
0.0
  9
$UCSORTHOREF
  2

  9
$UCSORTHOVIEW
 70
     0
  9
$UCSORGTOP
 10
0.0
 20
0.0
 30
0.0
  9
$UCSORGBOTTOM
 10
0.0
 20
0.0
 30
0.0
  9
$UCSORGLEFT
 10
0.0
 20
0.0
 30
0.0
  9
$UCSORGRIGHT
 10
0.0
 20
0.0
 30
0.0
  9
$UCSORGFRONT
 10
0.0
 20
0.0
 30
0.0
  9
$UCSORGBACK
 10
0.0
 20
0.0
 30
0.0
  9
$PUCSBASE
  2

  9
$PUCSNAME
  2

  9
$PUCSORG
 10
0.0
 20
0.0
 30
0.0
  9
$PUCSXDIR
 10
1.0
 20
0.0
 30
0.0
  9
$PUCSYDIR
 10
0.0
 20
1.0
 30
0.0
  9
$PUCSORTHOREF
  2

  9
$PUCSORTHOVIEW
 70
     0
  9
$PUCSORGTOP
 10
0.0
 20
0.0
 30
0.0
  9
$PUCSORGBOTTOM
 10
0.0
 20
0.0
 30
0.0
  9
$PUCSORGLEFT
 10
0.0
 20
0.0
 30
0.0
  9
$PUCSORGRIGHT
 10
0.0
 20
0.0
 30
0.0
  9
$PUCSORGFRONT
 10
0.0
 20
0.0
 30
0.0
  9
$PUCSORGBACK
 10
0.0
 20
0.0
 30
0.0
  9
$USERI1
 70
     0
  9
$USERI2
 70
     0
  9
$USERI3
 70
     0
  9
$USERI4
 70
     0
  9
$USERI5
 70
     0
  9
$USERR1
 40
0.0
  9
$USERR2
 40
0.0
  9
$USERR3
 40
0.0
  9
$USERR4
 40
0.0
  9
$USERR5
 40
0.0
  9
$WORLDVIEW
 70
     1
  9
$SHADEDGE
 70
     3
  9
$SHADEDIF
 70
    70
  9
$TILEMODE
 70
     1
  9
$MAXACTVP
 70
    64
  9
$PINSBASE
 10
0.0
 20
0.0
 30
0.0
  9
$PLIMCHECK
 70
     0
  9
$PEXTMIN
 10
1.0000000000E+20
 20
1.0000000000E+20
 30
1.0000000000E+20
  9
$PEXTMAX
 10
-1.0000000000E+20
 20
-1.0000000000E+20
 30
-1.0000000000E+20
  9
$PLIMMIN
 10
0.0
 20
0.0
  9
$PLIMMAX
 10
420.0
 20
297.0
  9
$UNITMODE
 70
     0
  9
$VISRETAIN
 70
     1
  9
$PLINEGEN
 70
     0
  9
$PSLTSCALE
 70
     1
  9
$TREEDEPTH
 70
  3020
  9
$CMLSTYLE
  2
Standard
  9
$CMLJUST
 70
     0
  9
$CMLSCALE
 40
20.0
  9
$PROXYGRAPHICS
 70
     1
  9
$MEASUREMENT
 70
     1
  9
$CELWEIGHT
370
    -1
  9
$ENDCAPS
280
     0
  9
$JOINSTYLE
280
     0
  9
$LWDISPLAY
290
     1
  9
$INSUNITS
 70
     4
  9
$HYPERLINKBASE
  1

  9
$STYLESHEET
  1

  9
$XEDIT
290
     1
  9
$CEPSNTYPE
380
     0
  9
$PSTYLEMODE
290
     1
  9
$FINGERPRINTGUID
  2
{ea26a407-fd29-41c0-87bd-cc7bfa2fb5c7}
  9
$VERSIONGUID
  2
{FAEB1C32-E019-11D5-929B-00C0DF256EC4}
  9
$EXTNAMES
290
     1
  9
$PSVPSCALE
 40
0.0
  9
$OLESTARTUP
290
     0
  0
ENDSEC
  0
SECTION
  2
CLASSES
  0
CLASS
  1
ACDBDICTIONARYWDFLT
  2
AcDbDictionaryWithDefault
  3
ObjectDBX Classes
 90
        0
280
     0
281
     0
  0
CLASS
  1
VISUALSTYLE
  2
AcDbVisualStyle
  3
ObjectDBX Classes
 90
     4095
280
     0
281
     0
  0
CLASS
  1
MATERIAL
  2
AcDbMaterial
  3
ObjectDBX Classes
 90
     1153
280
     0
281
     0
  0
CLASS
  1
SCALE
  2
AcDbScale
  3
ObjectDBX Classes
 90
     1153
280
     0
281
     0
  0
CLASS
  1
TABLESTYLE
  2
AcDbTableStyle
  3
ObjectDBX Classes
 90
     4095
280
     0
281
     0
  0
CLASS
  1
MLEADERSTYLE
  2
AcDbMLeaderStyle
  3
ACDB_MLEADERSTYLE_CLASS
 90
     4095
280
     0
281
     0
  0
CLASS
  1
SUN
  2
AcDbSun
  3
SCENEOE
 90
     1153
280
     0
281
     0
  0
CLASS
  1
ACDBPLACEHOLDER
  2
AcDbPlaceHolder
  3
ObjectDBX Classes
 90
        0
280
     0
281
     0
  0
CLASS
  1
LAYOUT
  2
AcDbLayout
  3
ObjectDBX Classes
 90
        0
280
     0
281
     0
  0
ENDSEC
  0
SECTION
  2
TABLES
  0
TABLE
  2
VPORT
  5
8
330
0
100
AcDbSymbolTable
 70
     1
  0
VPORT
  5
29
330
8
100
AcDbSymbolTableRecord
100
AcDbViewportTableRecord
  2
*Active
 70
     0
 10
0.0
 20
0.0
 11
1.0
 21
1.0
 12
139.7
 22
107.95
 13
0.0
 23
0.0
 14
10.0
 24
10.0
 15
10.0
 25
10.0
 16
0.0
 26
0.0
 36
1.0
 17
0.0
 27
0.0
 37
0.0
 40
215.9
 41
1.2941176471
 42
50.0
 43
0.0
 44
0.0
 50
0.0
 51
0.0
 71
     0
 72
  2000
 73
     1
 74
     3
 75
     0
 76
     0
 77
     0
 78
     0
281
     0
 65
     1
110
0.0
120
0.0
130
0.0
111
1.0
121
0.0
131
0.0
112
0.0
122
1.0
132
0.0
 79
     0
146
0.0
  0
ENDTAB
  0
TABLE
  2
LTYPE
  5
5
330
0
100
AcDbSymbolTable
 70
     6
  0
LTYPE
  5
14
330
5
100
AcDbSymbolTableRecord
100
AcDbLinetypeTableRecord
  2
ByBlock
 70
     0
  3

 72
    65
 73
     0
 40
0.0
  0
LTYPE
  5
15
330
5
100
AcDbSymbolTableRecord
100
AcDbLinetypeTableRecord
  2
ByLayer
 70
     0
  3

 72
    65
 73
     0
 40
0.0
  0
LTYPE
  5
16
330
5
100
AcDbSymbolTableRecord
100
AcDbLinetypeTableRecord
  2
Continuous
 70
     0
  3
Solid line
 72
    65
 73
     0
 40
0.0
  0
LTYPE
  5
6E
330
5
100
AcDbSymbolTableRecord
100
AcDbLinetypeTableRecord
  2
HIDDEN
 70
     0
  3
Hidden __ __ __ __ __ __ __ __ __ __ __ __ __ __
 72
    65
 73
     2
 40
1.905
 49
1.27
 74
     0
 49
-0.635
 74
     0
  0
LTYPE
  5
6F
330
5
100
AcDbSymbolTableRecord
100
AcDbLinetypeTableRecord
  2
PHANTOM
 70
     0
  3
Phantom ______  __  __  ______  __  __  ______
 72
    65
 73
     6
 40
12.7
 49
6.35
 74
     0
 49
-1.27
 74
     0
 49
1.27
 74
     0
 49
-1.27
 74
     0
 49
1.27
 74
     0
 49
-1.27
 74
     0
  0
LTYPE
  5
70
330
5
100
AcDbSymbolTableRecord
100
AcDbLinetypeTableRecord
  2
CENTER
 70
     0
  3
Center ____ _ ____ _ ____ _ ____ _ ____ _ ____
 72
    65
 73
     4
 40
10.16
 49
6.35
 74
     0
 49
-1.27
 74
     0
 49
1.27
 74
     0
 49
-1.27
 74
     0
  0
LTYPE
  5
71
330
5
100
AcDbSymbolTableRecord
100
AcDbLinetypeTableRecord
  2
CENTERX2
 70
     0
  3
Center (2x) ________  __  ________  __  _____
 72
    65
 73
     4
 40
20.32
 49
12.7
 74
     0
 49
-2.54
 74
     0
 49
2.54
 74
     0
 49
-2.54
 74
     0
  0
LTYPE
  5
72
330
5
100
AcDbSymbolTableRecord
100
AcDbLinetypeTableRecord
  2
DOT2
 70
     0
  3
Dot (.5x) ........................................
 72
    65
 73
     2
 40
0.635
 49
0.0
 74
     0
 49
-0.635
 74
     0
  0
ENDTAB
  0
TABLE
  2
LAYER
  5
2
330
0
100
AcDbSymbolTable
 70
     1
  0
LAYER
  5
10
330
2
100
AcDbSymbolTableRecord
100
AcDbLayerTableRecord
  2
0
 70
     0
 62
     7
  6
Continuous
370
    -3
390
F
  0
ENDTAB
  0
TABLE
  2
STYLE
  5
3
330
0
100
AcDbSymbolTable
 70
     1
  0
STYLE
  5
11
330
3
100
AcDbSymbolTableRecord
100
AcDbTextStyleTableRecord
  2
Standard
 70
     0
 40
0.0
 41
1.0
 50
0.0
 71
     0
 42
3.5
  3
txt
  4

  0
ENDTAB
  0
TABLE
  2
VIEW
  5
6
330
0
100
AcDbSymbolTable
 70
     0
  0
ENDTAB
  0
TABLE
  2
UCS
  5
7
330
0
100
AcDbSymbolTable
 70
     0
  0
ENDTAB
  0
TABLE
  2
APPID
  5
9
330
0
100
AcDbSymbolTable
 70
     1
  0
APPID
  5
12
330
9
100
AcDbSymbolTableRecord
100
AcDbRegAppTableRecord
  2
ACAD
 70
     0
  0
ENDTAB
  0
TABLE
  2
DIMSTYLE
  5
A
330
0
100
AcDbSymbolTable
 70
     1
100
AcDbDimStyleTable
  0
DIMSTYLE
105
27
330
A
100
AcDbSymbolTableRecord
100
AcDbDimStyleTableRecord
  2
ISO-25
 70
     0
 41
2.5
 42
0.625
 43
3.75
 44
1.25
 73
     0
 74
     0
 77
     1
 78
     8
140
2.5
141
2.5
143
0.0393700787
147
0.625
171
     3
172
     1
178
     0
271
     2
272
     2
274
     3
278
    44
283
     0
284
     8
340
11
  0
ENDTAB
  0
TABLE
  2
BLOCK_RECORD
  5
1
330
0
100
AcDbSymbolTable
 70
     1
  0
BLOCK_RECORD
  5
1F
330
1
100
AcDbSymbolTableRecord
100
AcDbBlockTableRecord
  2
*Model_Space
340
22
  0
BLOCK_RECORD
  5
1B
330
1
100
AcDbSymbolTableRecord
100
AcDbBlockTableRecord
  2
*Paper_Space
340
1E
  0
BLOCK_RECORD
  5
23
330
1
100
AcDbSymbolTableRecord
100
AcDbBlockTableRecord
  2
*Paper_Space0
340
26
  0
ENDTAB
  0
ENDSEC
  0
SECTION
  2
BLOCKS
  0
BLOCK
  5
20
330
1F
100
AcDbEntity
  8
0
100
AcDbBlockBegin
  2
*Model_Space
 70
     0
 10
0.0
 20
0.0
 30
0.0
  3
*Model_Space
  1

  0
ENDBLK
  5
21
330
1F
100
AcDbEntity
  8
0
100
AcDbBlockEnd
  0
BLOCK
  5
1C
330
1B
100
AcDbEntity
 67
     1
  8
0
100
AcDbBlockBegin
  2
*Paper_Space
 70
     0
 10
0.0
 20
0.0
 30
0.0
  3
*Paper_Space
  1

  0
ENDBLK
  5
1D
330
1B
100
AcDbEntity
 67
     1
  8
0
100
AcDbBlockEnd
  0
BLOCK
  5
24
330
23
100
AcDbEntity
  8
0
100
AcDbBlockBegin
  2
*Paper_Space0
 70
     0
 10
0.0
 20
0.0
 30
0.0
  3
*Paper_Space0
  1

  0
ENDBLK
  5
25
330
23
100
AcDbEntity
  8
0
100
AcDbBlockEnd
  0
ENDSEC
  0
SECTION
  2
ENTITIES
  0
LINE
  5
73
330
1F
100
AcDbEntity
  8
0
  6
Continuous
 62
     7
370
    25
100
AcDbLine
 10
71.7454640429
 20
-4.3586471249
 30
0.0
 11
71.7454640429
 21
-51.6856590365
 31
0.0
  0
LINE
  5
74
330
1F
100
AcDbEntity
  8
0
  6
Continuous
 62
     7
370
    25
100
AcDbLine
 10
87.5454640429
 20
-51.6856590365
 30
0.0
 11
87.5454640429
 21
-4.3586471249
 31
0.0
  0
LINE
  5
75
330
1F
100
AcDbEntity
  8
0
  6
Continuous
 62
     7
370
    25
100
AcDbLine
 10
87.5454640429
 20
-4.3586471249
 30
0.0
 11
87.5454640429
 21
179.6413528751
 31
0.0
  0
LINE
  5
76
330
1F
100
AcDbEntity
  8
0
  6
Continuous
 62
     7
370
    25
100
AcDbLine
 10
71.7454640429
 20
179.6413528751
 30
0.0
 11
71.7454640429
 21
-4.3586471249
 31
0.0
  0
LINE
  5
77
330
1F
100
AcDbEntity
  8
0
  6
Continuous
 62
     7
370
    25
100
AcDbLine
 10
71.7454640429
 20
202.3143409635
 30
0.0
 11
71.7454640429
 21
179.6413528751
 31
0.0
  0
LINE
  5
78
330
1F
100
AcDbEntity
  8
0
  6
Continuous
 62
     7
370
    25
100
AcDbLine
 10
87.5454640429
 20
179.6413528751
 30
0.0
 11
87.5454640429
 21
202.3143409635
 31
0.0
  0
SPLINE
  5
79
330
1F
100
AcDbEntity
  8
0
  6
Continuous
 62
     7
370
    25
100
AcDbSpline
210
0.0
220
0.0
230
1.0
 70
     8
 71
     3
 72
    10
 73
     6
 74
     0
 42
0.00000001
 43
0.00000001
 40
0.0
 40
0.0
 40
0.0
 40
0.0
 40
0.2705197672747571
 40
0.6900585277324421
 40
1.0
 40
1.0
 40
1.0
 40
1.0
 10
-80.31091336313034
 20
200.3399910117193
 30
0.0
 10
-80.31024315779838
 20
200.30747177772
 30
0.0
 10
-80.30853355665063
 20
200.2245197074785
 30
0.0
 10
-80.25371969321868
 20
200.1128616919235
 30
0.0
 10
-80.19526887931563
 20
200.0488624867147
 30
0.0
 10
-80.17043430463683
 20
200.0216705122147
 30
0.0
  0
SPLINE
  5
7A
330
1F
100
AcDbEntity
  8
0
  6
Continuous
 62
     7
370
    25
100
AcDbSpline
210
0.0
220
0.0
230
1.0
 70
     8
 71
     3
 72
    17
 73
    13
 74
     0
 42
0.00000001
 43
0.00000001
 40
0.0
 40
0.0
 40
0.0
 40
0.0
 40
0.1727939157605175
 40
0.4670908646424378
 40
0.5836036464445505
 40
0.6237329378319652
 40
0.6617158152046904
 40
0.7176264960717739
 40
0.7837734229448736
 40
0.8640117675634408
 40
0.954126326186078
 40
1.0
 40
1.0
 40
1.0
 40
1.0
 10
-79.21853526466826
 20
206.434183867882
 30
0.0
 10
-79.30240633828475
 20
206.4294154872112
 30
0.0
 10
-79.52912388283262
 20
206.4165257564548
 30
0.0
 10
-79.7079515428685
 20
206.4023285430142
 30
0.0
 10
-79.79005399649516
 20
206.3935941292276
 30
0.0
 10
-79.85205919477842
 20
206.3819545438804
 30
0.0
 10
-79.92097697075815
 20
206.3623250253514
 30
0.0
 10
-80.01475158208557
 20
206.3175760100471
 30
0.0
 10
-80.1182228144478
 20
206.232945460119
 30
0.0
 10
-80.2048106285897
 20
206.1025435143517
 30
0.0
 10
-80.25004253758728
 20
205.9613925465297
 30
0.0
 10
-80.23626591968097
 20
205.8724468148089
 30
0.0
 10
-80.23161857582795
 20
205.8424422518333
 30
0.0
  0
LINE
  5
7B
330
1F
100
AcDbEntity
  8
0
  6
Continuous
 62
     7
370
    25
100
AcDbLine
 10
-79.3138908515
 20
199.8213972395
 30
0.0
 11
-75.8344239163
 21
199.5290310409
 31
0.0
  0
LINE
  5
7C
330
1F
100
AcDbEntity
  8
0
  6
Continuous
 62
     7
370
    25
100
AcDbLine
 10
-75.7320850023
 20
206.6261023793
 30
0.0
 11
-79.2185352647
 21
206.4341838679
 31
0.0
  0
ARC
  5
7D
330
1F
100
AcDbEntity
  8
0
  6
Continuous
 62
     7
370
    25
100
AcDbCircle
 10
-22.8545359571
 20
202.3143409635
 30
0.0
 40
9.141196303513922
100
AcDbArc
 50
294.6735795881
 51
359.173859017
  0
ARC
  5
7E
330
1F
100
AcDbEntity
  8
0
  6
Continuous
 62
     7
370
    25
100
AcDbCircle
 10
-22.8545359571
 20
202.3143409635
 30
0.0
 40
9.141196303513922
100
AcDbArc
 50
359.173859017
 51
63.694338176
  0
SPLINE
  5
7F
330
1F
100
AcDbEntity
  8
0
  6
Continuous
 62
     7
370
    25
100
AcDbSpline
210
0.0
220
0.0
230
1.0
 70
     8
 71
     3
 72
    17
 73
    13
 74
     0
 42
0.00000001
 43
0.00000001
 40
0.0
 40
0.0
 40
0.0
 40
0.0
 40
0.1727939157605083
 40
0.4670908646424488
 40
0.5836036464445745
 40
0.6237329378319808
 40
0.6617158152047125
 40
0.7176264960717696
 40
0.7837734229449291
 40
0.8640117675634424
 40
0.9541263261861176
 40
1.0
 40
1.0
 40
1.0
 40
1.0
 10
238.4201097277555
 20
197.1145547621015
 30
0.0
 10
238.5040568103385
 20
197.1177141559727
 30
0.0
 10
238.7309798198394
 20
197.1262545262084
 30
0.0
 10
238.9100468175883
 20
197.1370203601544
 30
0.0
 10
238.9923016484311
 20
197.1441789688724
 30
0.0
 10
239.0545186210058
 20
197.1546275517819
 30
0.0
 10
239.1238000963004
 20
197.1729320600971
 30
0.0
 10
239.2184154686294
 20
197.2158748525007
 30
0.0
 10
239.3234903519611
 20
197.2985059289817
 30
0.0
 10
239.412562523089
 20
197.4272237030006
 30
0.0
 10
239.4604924889662
 20
197.5674814645674
 30
0.0
 10
239.4484238132997
 20
197.6566749926954
 30
0.0
 10
239.4443526191899
 20
197.6867631462241
 30
0.0
  0
SPLINE
  5
80
330
1F
100
AcDbEntity
  8
0
  6
Continuous
 62
     7
370
    25
100
AcDbSpline
210
0.0
220
0.0
230
1.0
 70
     8
 71
     3
 72
    10
 73
     6
 74
     0
 42
0.00000001
 43
0.00000001
 40
0.0
 40
0.0
 40
0.0
 40
0.0
 40
0.2705197672746665
 40
0.6900585277323403
 40
1.0
 40
1.0
 40
1.0
 40
1.0
 10
239.6291346163091
 20
203.1866825026025
 30
0.0
 10
239.6290880448923
 20
203.2192086088282
 30
0.0
 10
239.6289692476464
 20
203.3021782091681
 30
0.0
 10
239.5763063465386
 20
203.414866677562
 30
0.0
 10
239.5190933726831
 20
203.4799748301693
 30
0.0
 10
239.4947847313326
 20
203.5076379741044
 30
0.0
  0
LINE
  5
81
330
1F
100
AcDbEntity
  8
0
  6
Continuous
 62
     7
370
    25
100
AcDbLine
 10
238.642238696
 20
203.7242974501
 30
0.0
 11
235.1690171042
 21
204.0833238022
 31
0.0
  0
LINE
  5
82
330
1F
100
AcDbEntity
  8
0
  6
Continuous
 62
     7
370
    25
100
AcDbLine
 10
234.9306206123
 20
196.9895193259
 30
0.0
 11
238.4201097278
 21
197.1145547621
 31
0.0
  0
ARC
  5
83
330
1F
100
AcDbEntity
  8
0
  6
Continuous
 62
     7
370
    25
100
AcDbCircle
 10
182.1454640429
 20
202.3143409635
 30
0.0
 40
9.141196303513956
100
AcDbArc
 50
113.5749460385
 51
178.0752254675
  0
ARC
  5
84
330
1F
100
AcDbEntity
  8
0
  6
Continuous
 62
     7
370
    25
100
AcDbCircle
 10
182.1454640429
 20
202.3143409635
 30
0.0
 40
9.141196303513956
100
AcDbArc
 50
178.0752254675
 51
242.5957046265
  0
LINE
  5
85
330
1F
100
AcDbEntity
  8
0
  6
Continuous
 62
     7
370
    25
100
AcDbLine
 10
-40.3050454666
 20
220.2512376693
 30
0.0
 11
-40.1545359571
 21
220.1643409635
 31
0.0
  0
LINE
  5
86
330
1F
100
AcDbEntity
  8
0
  6
Continuous
 62
     7
370
    25
100
AcDbLine
 10
-5.5545359571
 20
220.1643409635
 30
0.0
 11
-5.4040264476
 21
220.2512376693
 31
0.0
  0
LINE
  5
87
330
1F
100
AcDbEntity
  8
0
  6
Continuous
 62
     7
370
    25
100
AcDbLine
 10
156.3454640429
 20
259.7643409635
 30
0.0
 11
156.3454640429
 21
257.2643409635
 31
0.0
  0
LINE
  5
88
330
1F
100
AcDbEntity
  8
0
  6
Continuous
 62
     7
370
    25
100
AcDbLine
 10
207.9454640429
 20
257.2643409635
 30
0.0
 11
207.9454640429
 21
259.7643409635
 31
0.0
  0
ARC
  5
89
330
1F
100
AcDbEntity
  8
0
  6
Continuous
 62
     7
370
    25
100
AcDbCircle
 10
156.8454640429
 20
259.7643409635
 30
0.0
 40
0.5
100
AcDbArc
 50
90.0
 51
180.0
  0
ARC
  5
8A
330
1F
100
AcDbEntity
  8
0
  6
Continuous
 62
     7
370
    25
100
AcDbCircle
 10
207.4454640429
 20
259.7643409635
 30
0.0
 40
0.5000000000000568
100
AcDbArc
 50
0.0
 51
90.0
  0
ARC
  5
8B
330
1F
100
AcDbEntity
  8
0
  6
Continuous
 62
     7
370
    25
100
AcDbCircle
 10
206.9454640429
 20
257.2643409635
 30
0.0
 40
1.0
100
AcDbArc
 50
270.0
 51
0.0
  0
ARC
  5
8C
330
1F
100
AcDbEntity
  8
0
  6
Continuous
 62
     7
370
    25
100
AcDbCircle
 10
157.3454640429
 20
257.2643409635
 30
0.0
 40
1.0
100
AcDbArc
 50
180.0
 51
270.0
  0
LINE
  5
8D
330
1F
100
AcDbEntity
  8
0
  6
Continuous
 62
     7
370
    25
100
AcDbLine
 10
164.2033625052
 20
241.8380619963
 30
0.0
 11
168.3483009262
 21
240.9794676091
 31
0.0
  0
LINE
  5
8E
330
1F
100
AcDbEntity
  8
0
  6
Continuous
 62
     7
370
    25
100
AcDbLine
 10
195.9426271596
 20
240.9794676091
 30
0.0
 11
200.0875655805
 21
241.8380619963
 31
0.0
  0
ARC
  5
8F
330
1F
100
AcDbEntity
  8
0
  6
Continuous
 62
     7
370
    25
100
AcDbCircle
 10
168.1454640429
 20
240.000255069
 30
0.0
 40
1.00000000000001
100
AcDbArc
 50
0.0
 51
78.2970985198
  0
ARC
  5
90
330
1F
100
AcDbEntity
  8
0
  6
Continuous
 62
     7
370
    25
100
AcDbCircle
 10
196.1454640429
 20
240.000255069
 30
0.0
 40
1.00000000000001
100
AcDbArc
 50
101.7029014802
 51
180.0
  0
LINE
  5
91
330
1F
100
AcDbEntity
  8
0
  6
Continuous
 62
     7
370
    25
100
AcDbLine
 10
169.1454640429
 20
240.000255069
 30
0.0
 11
169.1454640429
 21
235.5118966717
 31
0.0
  0
LINE
  5
92
330
1F
100
AcDbEntity
  8
0
  6
Continuous
 62
     7
370
    25
100
AcDbLine
 10
195.1454640429
 20
235.5726000952
 30
0.0
 11
195.1454640429
 21
240.000255069
 31
0.0
  0
SPLINE
  5
93
330
1F
100
AcDbEntity
  8
0
  6
Continuous
 62
     7
370
    25
100
AcDbSpline
210
0.0
220
0.0
230
1.0
 70
     8
 71
     3
 72
    12
 73
     8
 74
     0
 42
0.00000001
 43
0.00000001
 40
0.0
 40
0.0
 40
0.0
 40
0.0
 40
0.0565776078946115
 40
0.1927698728562043
 40
0.387936083015791
 40
0.66403046697095
 40
0.9999999999999999
 40
0.9999999999999999
 40
0.9999999999999999
 40
0.9999999999999999
 10
200.8886120190596
 20
255.2643409635392
 30
0.0
 10
200.8906731805641
 20
255.3008290265835
 30
0.0
 10
200.89769592076
 20
255.4251502825641
 30
0.0
 10
200.9988395579093
 20
255.662077592061
 30
0.0
 10
201.2694474041587
 20
255.952126169121
 30
0.0
 10
201.7389669315991
 20
256.2080537219268
 30
0.0
 10
202.1352092434824
 20
256.2443935679279
 30
0.0
 10
202.3527116003373
 20
256.2643409635392
 30
0.0
  0
LINE
  5
94
330
1F
100
AcDbEntity
  8
0
  6
Continuous
 62
     7
370
    25
100
AcDbLine
 10
200.8886120191
 20
242.8178972081
 30
0.0
 11
200.8886120191
 21
255.2643409635
 31
0.0
  0
LINE
  5
95
330
1F
100
AcDbEntity
  8
0
  6
Continuous
 62
     7
370
    25
100
AcDbLine
 10
199.8588417059
 20
241.7932110659
 30
0.0
 11
199.9387828504
 21
241.8089362492
 31
0.0
  0
SPLINE
  5
96
330
1F
100
AcDbEntity
  8
0
  6
Continuous
 62
     7
370
    25
100
AcDbSpline
210
0.0
220
0.0
230
1.0
 70
     8
 71
     3
 72
    21
 73
    17
 74
     0
 42
0.00000001
 43
0.00000001
 40
0.0
 40
0.0
 40
0.0
 40
0.0
 40
0.0077062925166432
 40
0.0702103931912759
 40
0.1043473977217748
 40
0.1192276098950622
 40
0.125855044224911
 40
0.130646819616314
 40
0.1371460580218945
 40
0.1597510275649978
 40
0.1972793147585925
 40
0.320926167335489
 40
0.4452680287055574
 40
0.6310187682370192
 40
0.8576692111857361
 40
0.9999999999999999
 40
0.9999999999999999
 40
0.9999999999999999
 40
0.9999999999999999
 10
200.0566825798024
 20
241.8319585142898
 30
0.0
 10
200.0582561392982
 20
241.8322684506485
 30
0.0
 10
200.0725925054129
 20
241.8350922149369
 30
0.0
 10
200.0744769076408
 20
241.8354609308698
 30
0.0
 10
200.0815684689807
 20
241.8368642229905
 30
0.0
 10
200.0851628243803
 20
241.8375810343425
 30
0.0
 10
200.0895449370989
 20
241.8384706265741
 30
0.0
 10
200.0953989977003
 20
241.8396855507486
 30
0.0
 10
200.1114971738587
 20
241.8431441605136
 30
0.0
 10
200.1457774898113
 20
241.8513140589221
 30
0.0
 10
200.2373816905975
 20
241.8778119489864
 30
0.0
 10
200.3752438235336
 20
241.9372875947994
 30
0.0
 10
200.5630997351273
 20
242.06594397814
 30
0.0
 10
200.7485459911122
 20
242.2781801419889
 30
0.0
 10
200.8775597460261
 20
242.5498086656757
 30
0.0
 10
200.8745487434567
 20
242.7436553445124
 30
0.0
 10
200.8733872795828
 20
242.8184297458445
 30
0.0
  0
SPLINE
  5
97
330
1F
100
AcDbEntity
  8
0
  6
Continuous
 62
     7
370
    25
100
AcDbSpline
210
0.0
220
0.0
230
1.0
 70
     8
 71
     3
 72
    21
 73
    17
 74
     0
 42
0.00000001
 43
0.00000001
 40
0.0
 40
0.0
 40
0.0
 40
0.0
 40
0.2197999439676611
 40
0.4049956833503145
 40
0.5613983026514358
 40
0.6920265017035021
 40
0.7962984491848436
 40
0.8723452109556167
 40
0.9191630782357838
 40
0.9338074047122938
 40
0.9393539001832943
 40
0.9435414402281931
 40
0.9490025418624128
 40
0.9592278768750113
 40
0.9885077436139206
 40
1.0
 40
1.0
 40
1.0
 40
1.0
 10
163.4044303104099
 20
242.817926791216
 30
0.0
 10
163.4134262846283
 20
242.7109506962149
 30
0.0
 10
163.4300019518475
 20
242.5138402879272
 30
0.0
 10
163.5563150095516
 20
242.2670936822819
 30
0.0
 10
163.7044888294895
 20
242.0914606499179
 30
0.0
 10
163.8555244460256
 20
241.9750216328138
 30
0.0
 10
163.9888297653189
 20
241.9043737332037
 30
0.0
 10
164.0923884892166
 20
241.8659272536295
 30
0.0
 10
164.1560336837832
 20
241.8484903112993
 30
0.0
 10
164.1881857525944
 20
241.8412432324935
 30
0.0
 10
164.197769114121
 20
241.8392189533047
 30
0.0
 10
164.2017027407396
 20
241.8384066668545
 30
0.0
 10
164.2048249520046
 20
241.8377713595574
 30
0.0
 10
164.2087762043341
 20
241.836980187796
 30
0.0
 10
164.2086412950951
 20
241.8370025797282
 30
0.0
 10
164.214718811467
 20
241.8358067352841
 30
0.0
 10
164.2164318538838
 20
241.8354696679474
 30
0.0
  0
LINE
  5
98
330
1F
100
AcDbEntity
  8
0
  6
Continuous
 62
     7
370
    25
100
AcDbLine
 10
163.4023160667
 20
255.2643409635
 30
0.0
 11
163.4023160667
 21
242.8178972081
 31
0.0
  0
SPLINE
  5
99
330
1F
100
AcDbEntity
  8
0
  6
Continuous
 62
     7
370
    25
100
AcDbSpline
210
0.0
220
0.0
230
1.0
 70
     8
 71
     3
 72
    12
 73
     8
 74
     0
 42
0.00000001
 43
0.00000001
 40
0.0
 40
0.0
 40
0.0
 40
0.0
 40
0.1505332491701244
 40
0.5019526335369242
 40
0.7380327738150841
 40
0.8950809731961674
 40
0.9999999999999999
 40
0.9999999999999999
 40
0.9999999999999999
 40
0.9999999999999999
 10
161.9382164854309
 20
256.2643409635385
 30
0.0
 10
162.0351246681559
 20
256.2600532420353
 30
0.0
 10
162.3582646906975
 20
256.2457558485209
 30
0.0
 10
162.8236202810463
 20
256.0879240917961
 30
0.0
 10
163.2015803989939
 20
255.7831697372059
 30
0.0
 10
163.3773376201834
 20
255.5013800483222
 30
0.0
 10
163.3951729418868
 20
255.3321273956749
 30
0.0
 10
163.4023160667086
 20
255.2643409635385
 30
0.0
  0
ARC
  5
9A
330
1F
100
AcDbEntity
  8
0
  6
Continuous
 62
     7
370
    25
100
AcDbCircle
 10
1.9454640429
 20
257.2643409635
 30
0.0
 40
1.000000000000001
100
AcDbArc
 50
270.0
 51
0.0
  0
ARC
  5
9B
330
1F
100
AcDbEntity
  8
0
  6
Continuous
 62
     7
370
    25
100
AcDbCircle
 10
-47.6545359571
 20
257.2643409635
 30
0.0
 40
1.000000000000007
100
AcDbArc
 50
180.0
 51
270.0
  0
ARC
  5
9C
330
1F
100
AcDbEntity
  8
0
  6
Continuous
 62
     7
370
    25
100
AcDbCircle
 10
-48.1545359571
 20
259.7643409635
 30
0.0
 40
0.5
100
AcDbArc
 50
90.0
 51
180.0
  0
ARC
  5
9D
330
1F
100
AcDbEntity
  8
0
  6
Continuous
 62
     7
370
    25
100
AcDbCircle
 10
2.4454640429
 20
259.7643409635
 30
0.0
 40
0.5000000000000568
100
AcDbArc
 50
0.0
 51
90.0
  0
LINE
  5
9E
330
1F
100
AcDbEntity
  8
0
  6
Continuous
 62
     7
370
    25
100
AcDbLine
 10
-48.6545359571
 20
259.7643409635
 30
0.0
 11
-48.6545359571
 21
257.2643409635
 31
0.0
  0
LINE
  5
9F
330
1F
100
AcDbEntity
  8
0
  6
Continuous
 62
     7
370
    25
100
AcDbLine
 10
2.9454640429
 20
257.2643409635
 30
0.0
 11
2.9454640429
 21
259.7643409635
 31
0.0
  0
LINE
  5
A0
330
1F
100
AcDbEntity
  8
0
  6
Continuous
 62
     7
370
    25
100
AcDbLine
 10
-40.674157311
 20
241.8126911011
 30
0.0
 11
-36.6516990738
 21
240.9794676091
 31
0.0
  0
LINE
  5
A1
330
1F
100
AcDbEntity
  8
0
  6
Continuous
 62
     7
370
    25
100
AcDbLine
 10
-9.0573728404
 20
240.9794676091
 30
0.0
 11
-4.8444827999
 21
241.852137689
 31
0.0
  0
ARC
  5
A2
330
1F
100
AcDbEntity
  8
0
  6
Continuous
 62
     7
370
    25
100
AcDbCircle
 10
-36.8545359571
 20
240.000255069
 30
0.0
 40
1.000000000000002
100
AcDbArc
 50
0.0
 51
78.2970985198
  0
ARC
  5
A3
330
1F
100
AcDbEntity
  8
0
  6
Continuous
 62
     7
370
    25
100
AcDbCircle
 10
-8.8545359571
 20
240.000255069
 30
0.0
 40
1.000000000000014
100
AcDbArc
 50
101.7029014802
 51
180.0
  0
LINE
  5
A4
330
1F
100
AcDbEntity
  8
0
  6
Continuous
 62
     7
370
    25
100
AcDbLine
 10
-35.8545359571
 20
240.000255069
 30
0.0
 11
-35.8545359571
 21
236.0643409635
 31
0.0
  0
LINE
  5
A5
330
1F
100
AcDbEntity
  8
0
  6
Continuous
 62
     7
370
    25
100
AcDbLine
 10
-9.8545359571
 20
236.0643409635
 30
0.0
 11
-9.8545359571
 21
240.000255069
 31
0.0
  0
SPLINE
  5
A6
330
1F
100
AcDbEntity
  8
0
  6
Continuous
 62
     7
370
    25
100
AcDbSpline
210
0.0
220
0.0
230
1.0
 70
     8
 71
     3
 72
    12
 73
     8
 74
     0
 42
0.00000001
 43
0.00000001
 40
0.0
 40
0.0
 40
0.0
 40
0.0
 40
0.0566097830232007
 40
0.1918936113675569
 40
0.3862454124935976
 40
0.6619627093660274
 40
1.0
 40
1.0
 40
1.0
 40
1.0
 10
-4.118091134762302
 20
255.2643409635356
 30
0.0
 10
-4.116028261480942
 20
255.3008780535587
 30
0.0
 10
-4.109035614934364
 20
255.4247300413064
 30
0.0
 10
-4.008746985937117
 20
255.6606987979611
 30
0.0
 10
-3.740099055634133
 20
255.9502666505779
 30
0.0
 10
-3.27109096053177
 20
256.2075147056073
 30
0.0
 10
-2.874054161441792
 20
256.2441586162095
 30
0.0
 10
-2.655378412896065
 20
256.2643409635357
 30
0.0
  0
LINE
  5
A7
330
1F
100
AcDbEntity
  8
0
  6
Continuous
 62
     7
370
    25
100
AcDbLine
 10
-4.1180911348
 20
242.8170516617
 30
0.0
 11
-4.1180911348
 21
255.2643409635
 31
0.0
  0
LINE
  5
A8
330
1F
100
AcDbEntity
  8
0
  6
Continuous
 62
     7
370
    25
100
AcDbLine
 10
-5.1713120471
 20
241.792044581
 30
0.0
 11
-5.0904512837
 21
241.8072707193
 31
0.0
  0
SPLINE
  5
A9
330
1F
100
AcDbEntity
  8
0
  6
Continuous
 62
     7
370
    25
100
AcDbSpline
210
0.0
220
0.0
230
1.0
 70
     8
 71
     3
 72
    16
 73
    12
 74
     0
 42
0.00000001
 43
0.00000001
 40
0.0
 40
0.0
 40
0.0
 40
0.0
 40
0.0816802095575718
 40
0.1377948324234907
 40
0.1655871203208938
 40
0.2186074287549573
 40
0.3000426746317527
 40
0.422218540139814
 40
0.6032166429768551
 40
0.8418455350636641
 40
1.0
 40
1.0
 40
1.0
 40
1.0
 10
-4.957505250180905
 20
241.8292832304155
 30
0.0
 10
-4.940232960642444
 20
241.8328732421424
 30
0.0
 10
-4.911094540755751
 20
241.8389296059418
 30
0.0
 10
-4.88244334641455
 20
241.8456186167308
 30
0.0
 10
-4.830009119128286
 20
241.8597344731294
 30
0.0
 10
-4.750990719002202
 20
241.8857437791265
 30
0.0
 10
-4.631433443262972
 20
241.9397179068368
 30
0.0
 10
-4.464329322915017
 20
242.0486724461471
 30
0.0
 10
-4.273406150432674
 20
242.2537257643088
 30
0.0
 10
-4.133421462689246
 20
242.5296331267855
 30
0.0
 10
-4.13246237720688
 20
242.7353177195529
 30
0.0
 10
-4.132080093906421
 20
242.817301845497
 30
0.0
  0
LINE
  5
AA
330
1F
100
AcDbEntity
  8
0
  6
Continuous
 62
     7
370
    25
100
AcDbLine
 10
-40.7462876685
 20
241.827929735
 30
0.0
 11
-40.6572225128
 21
241.8093999555
 31
0.0
  0
SPLINE
  5
AB
330
1F
100
AcDbEntity
  8
0
  6
Continuous
 62
     7
370
    25
100
AcDbSpline
210
0.0
220
0.0
230
1.0
 70
     8
 71
     3
 72
    19
 73
    15
 74
     0
 42
0.00000001
 43
0.00000001
 40
0.0
 40
0.0
 40
0.0
 40
0.0
 40
0.0202304595980146
 40
0.2258285753675894
 40
0.3934222233959483
 40
0.5351273996759991
 40
0.6530591297182715
 40
0.7463787804930628
 40
0.811554577795445
 40
0.8426498525346182
 40
0.8647642966474405
 40
0.896406435229536
 40
0.9691251614029222
 40
1.0
 40
1.0
 40
1.0
 40
1.0
 10
-41.58572325823448
 20
242.8177344940386
 30
0.0
 10
-41.58745471328326
 20
242.8072746328725
 30
0.0
 10
-41.60678259978498
 20
242.6905132941478
 30
0.0
 10
-41.5425050759641
 20
242.4826813949428
 30
0.0
 10
-41.42217202545245
 20
242.2426714231254
 30
0.0
 10
-41.27025580488941
 20
242.0747778275514
 30
0.0
 10
-41.12081328332732
 20
241.9644989306507
 30
0.0
 10
-40.99231942004747
 20
241.8990801803783
 30
0.0
 10
-40.89798454950083
 20
241.8653056634234
 30
0.0
 10
-40.84713824211678
 20
241.8510331760791
 30
0.0
 10
-40.82250288655786
 20
241.8447877747828
 30
0.0
 10
-40.79646516488874
 20
241.8386707103479
 30
0.0
 10
-40.78136665711749
 20
241.8351906662597
 30
0.0
 10
-40.75434203729578
 20
241.8295968930358
 30
0.0
 10
-40.74628766850378
 20
241.8279297349856
 30
0.0
  0
LINE
  5
AC
330
1F
100
AcDbEntity
  8
0
  6
Continuous
 62
     7
370
    25
100
AcDbLine
 10
-41.5909807795
 20
255.2643409635
 30
0.0
 11
-41.5909807795
 21
242.8170516617
 31
0.0
  0
SPLINE
  5
AD
330
1F
100
AcDbEntity
  8
0
  6
Continuous
 62
     7
370
    25
100
AcDbSpline
210
0.0
220
0.0
230
1.0
 70
     8
 71
     3
 72
    12
 73
     8
 74
     0
 42
0.00000001
 43
0.00000001
 40
0.0
 40
0.0
 40
0.0
 40
0.0
 40
0.1504796672482036
 40
0.5021884440834932
 40
0.7384085835496645
 40
0.8953160249745674
 40
1.0
 40
1.0
 40
1.0
 40
1.0
 10
-43.05369350133559
 20
256.2643409635349
 30
0.0
 10
-42.95690115291517
 20
256.2600562749142
 30
0.0
 10
-42.63388077586788
 20
256.2457571928441
 30
0.0
 10
-42.16870153468677
 20
256.0878186526048
 30
0.0
 10
-41.79113951242386
 20
255.7828505577531
 30
0.0
 10
-41.61586194659078
 20
255.5011579020382
 30
0.0
 10
-41.59809198469405
 20
255.3320248403469
 30
0.0
 10
-41.59098077946929
 20
255.2643409635351
 30
0.0
  0
LINE
  5
AE
330
1F
100
AcDbEntity
  8
0
  6
Continuous
 62
     7
370
    25
100
AcDbLine
 10
164.6454640429
 20
220.1643409635
 30
0.0
 11
164.6454640429
 21
218.4431067396
 31
0.0
  0
LINE
  5
AF
330
1F
100
AcDbEntity
  8
0
  6
Continuous
 62
     7
370
    25
100
AcDbLine
 10
199.6454640429
 20
209.6883582829
 30
0.0
 11
199.6454640429
 21
220.1643409635
 31
0.0
  0
LINE
  5
B0
330
1F
100
AcDbEntity
  8
0
  6
Continuous
 62
     7
370
    25
100
AcDbLine
 10
-40.3545359571
 20
220.1643409635
 30
0.0
 11
-40.3545359571
 21
210.3406523487
 31
0.0
  0
LINE
  5
B1
330
1F
100
AcDbEntity
  8
0
  6
Continuous
 62
     7
370
    25
100
AcDbLine
 10
-5.3545359571
 20
218.4431067396
 30
0.0
 11
-5.3545359571
 21
220.1643409635
 31
0.0
  0
LINE
  5
B2
330
1F
100
AcDbEntity
  8
0
  6
Continuous
 62
     7
370
    25
100
AcDbLine
 10
197.9454640429
 20
220.6624350224
 30
0.0
 11
197.9454640429
 21
221.6572211356
 31
0.0
  0
LWPOLYLINE
  5
B3
330
1F
100
AcDbEntity
  8
0
  6
Continuous
 62
     7
370
    25
100
AcDbPolyline
 90
        3
 70
   128
 43
0.0
 10
172.1142757693
 20
188.9247014346
 10
174.2979938566
 20
187.6224992665
 10
175.5929886705
 20
187.0373552147
  0
LWPOLYLINE
  5
B4
330
1F
100
AcDbEntity
  8
0
  6
Continuous
 62
     7
370
    25
100
AcDbPolyline
 90
        3
 70
   128
 43
0.0
 10
-36.5341415702
 20
192.3502037887
 10
-35.9280568192
 20
191.631067466
 10
-34.2230225772
 20
189.9599239538
  0
ARC
  5
B5
330
1F
100
AcDbEntity
  8
0
  6
Continuous
 62
     7
370
    25
100
AcDbCircle
 10
79.6454640429
 20
202.3143409635
 30
0.0
 40
9.599999999999994
100
AcDbArc
 50
0.0
 51
214.6221618397
  0
ARC
  5
B6
330
1F
100
AcDbEntity
  8
0
  6
Continuous
 62
     7
370
    25
100
AcDbCircle
 10
79.6454640429
 20
202.3143409635
 30
0.0
 40
9.600000000000026
100
AcDbArc
 50
325.3778381603
 51
0.0
  0
ARC
  5
B7
330
1F
100
AcDbEntity
  8
0
  6
Continuous
 62
     7
370
    25
100
AcDbCircle
 10
79.6454640429
 20
202.3143409635
 30
0.0
 40
10.50000000000001
100
AcDbArc
 50
0.0
 51
221.2029536038
  0
ARC
  5
B8
330
1F
100
AcDbEntity
  8
0
  6
Continuous
 62
     7
370
    25
100
AcDbCircle
 10
79.6454640429
 20
202.3143409635
 30
0.0
 40
10.50000000000001
100
AcDbArc
 50
318.7970463962
 51
0.0
  0
ARC
  5
B9
330
1F
100
AcDbEntity
  8
0
  6
Continuous
 62
     7
370
    25
100
AcDbCircle
 10
79.6454640429
 20
202.3143409635
 30
0.0
 40
14.22500000000006
100
AcDbArc
 50
303.7355336397
 51
223.2235523034
  0
LWPOLYLINE
  5
BA
330
1F
100
AcDbEntity
  8
0
  6
Continuous
 62
     7
370
    25
100
AcDbPolyline
 90
        3
 70
   128
 43
0.0
 10
71.7454640429
 20
190.4846907151
 10
70.931482296
 20
191.0708029476
 10
69.2798890166
 20
192.5723966312
  0
LINE
  5
BB
330
1F
100
AcDbEntity
  8
0
  6
Continuous
 62
     7
370
    25
100
AcDbLine
 10
87.5202439569
 20
214.4509970511
 30
0.0
 11
87.3882117758
 21
214.2475082943
 31
0.0
  0
SPLINE
  5
BC
330
1F
100
AcDbEntity
  8
0
  6
Continuous
 62
     7
370
    25
100
AcDbSpline
210
0.0
220
0.0
230
1.0
 70
     8
 71
     3
 72
    11
 73
     7
 74
     0
 42
0.00000001
 43
0.00000001
 40
0.0
 40
0.0
 40
0.0
 40
0.0
 40
0.1446702591042608
 40
0.3907520209323691
 40
0.5962314811354867
 40
1.0
 40
1.0
 40
1.0
 40
1.0
 10
92.24679367105549
 20
209.4218771951474
 30
0.0
 10
92.04767577454032
 20
209.6893751551429
 30
0.0
 10
91.50986156898865
 20
210.4118828019165
 30
0.0
 10
90.62028361503683
 20
211.4616769139817
 30
0.0
 10
89.27747632895161
 20
212.90832276487
 30
0.0
 10
88.22064233501831
 20
213.8361173201954
 30
0.0
 10
87.52024395689118
 20
214.4509970510853
 30
0.0
  0
LINE
  5
BD
330
1F
100
AcDbEntity
  8
0
  6
Continuous
 62
     7
370
    25
100
AcDbLine
 10
92.035513984
 20
209.3027089744
 30
0.0
 11
92.2467936711
 21
209.4218771951
 31
0.0
  0
LINE
  5
BE
330
1F
100
AcDbEntity
  8
0
  6
Continuous
 62
     7
370
    25
100
AcDbLine
 10
73.0722015111
 20
215.2024284621
 30
0.0
 11
73.1824118533
 21
214.9863408607
 31
0.0
  0
SPLINE
  5
BF
330
1F
100
AcDbEntity
  8
0
  6
Continuous
 62
     7
370
    25
100
AcDbSpline
210
0.0
220
0.0
230
1.0
 70
     8
 71
     3
 72
    11
 73
     7
 74
     0
 42
0.00000001
 43
0.00000001
 40
0.0
 40
0.0
 40
0.0
 40
0.0
 40
0.1446702591042511
 40
0.3907520209323644
 40
0.5962314811354579
 40
1.0
 40
1.0
 40
1.0
 40
1.0
 10
79.7908219220772
 20
216.7811806587991
 30
0.0
 10
79.45960294500298
 20
216.7424884820666
 30
0.0
 10
78.56498586569293
 20
216.6379815409296
 30
0.0
 10
77.21104851892524
 20
216.3924814901929
 30
0.0
 10
75.28681281873389
 20
215.952899193501
 30
0.0
 10
73.9549021673625
 20
215.5015513848344
 30
0.0
 10
73.07220151107607
 20
215.2024284620518
 30
0.0
  0
LINE
  5
C0
330
1F
100
AcDbEntity
  8
0
  6
Continuous
 62
     7
370
    25
100
AcDbLine
 10
79.7908219221
 20
216.7811806588
 30
0.0
 11
79.788384785
 21
216.5386229722
 31
0.0
  0
SPLINE
  5
C1
330
1F
100
AcDbEntity
  8
0
  6
Continuous
 62
     7
370
    25
100
AcDbSpline
210
0.0
220
0.0
230
1.0
 70
     8
 71
     3
 72
    11
 73
     7
 74
     0
 42
0.00000001
 43
0.00000001
 40
0.0
 40
0.0
 40
0.0
 40
0.0
 40
0.1446702591042585
 40
0.390752020932375
 40
0.5962314811354827
 40
0.9999999999999999
 40
0.9999999999999999
 40
0.9999999999999999
 40
0.9999999999999999
 10
67.04413441471479
 20
195.2068047319262
 30
0.0
 10
67.24325231122991
 20
194.9393067719307
 30
0.0
 10
67.78106651678168
 20
194.2167991251573
 30
0.0
 10
68.67064447073356
 20
193.1670050130921
 30
0.0
 10
70.01345175681867
 20
191.7203591622038
 30
0.0
 10
71.07028575075208
 20
190.7925646068782
 30
0.0
 10
71.77068412887915
 20
190.1776848759882
 30
0.0
  0
LINE
  5
C2
330
1F
100
AcDbEntity
  8
0
  6
Continuous
 62
     7
370
    25
100
AcDbLine
 10
67.0441344147
 20
195.2068047319
 30
0.0
 11
67.2554141017
 21
195.3259729526
 31
0.0
  0
LINE
  5
C3
330
1F
100
AcDbEntity
  8
0
  6
Continuous
 62
     7
370
    25
100
AcDbLine
 10
65.1974215971
 20
203.0657723745
 30
0.0
 11
65.4396641204
 21
203.0531735299
 31
0.0
  0
SPLINE
  5
C4
330
1F
100
AcDbEntity
  8
0
  6
Continuous
 62
     7
370
    25
100
AcDbSpline
210
0.0
220
0.0
230
1.0
 70
     8
 71
     3
 72
    11
 73
     7
 74
     0
 42
0.00000001
 43
0.00000001
 40
0.0
 40
0.0
 40
0.0
 40
0.0
 40
0.144670259104261
 40
0.390752020932367
 40
0.5962314811354686
 40
1.0
 40
1.0
 40
1.0
 40
1.0
 10
67.18949229390691
 20
209.6736444271885
 30
0.0
 10
67.0573912133478
 20
209.3674542904604
 30
0.0
 10
66.7005883395893
 20
208.54043970255
 30
0.0
 10
66.23622894677372
 20
207.2451455397483
 30
0.0
 10
65.65480053266725
 20
205.3589173921679
 30
0.0
 10
65.37972387522922
 20
203.9797750281757
 30
0.0
 10
65.19742159706998
 20
203.0657723745032
 30
0.0
  0
LINE
  5
C5
330
1F
100
AcDbEntity
  8
0
  6
Continuous
 62
     7
370
    25
100
AcDbLine
 10
67.1894922939
 20
209.6736444272
 30
0.0
 11
67.3983348439
 21
209.5502549613
 31
0.0
  0
LINE
  5
C6
330
1F
100
AcDbEntity
  8
0
  6
Continuous
 62
     7
370
    25
100
AcDbLine
 10
93.8512639654
 20
201.5755083971
 30
0.0
 11
94.0935064887
 21
201.5629095526
 31
0.0
  0
SPLINE
  5
C7
330
1F
100
AcDbEntity
  8
0
  6
Continuous
 62
     7
370
    25
100
AcDbSpline
210
0.0
220
0.0
230
1.0
 70
     8
 71
     3
 72
    11
 73
     7
 74
     0
 42
0.00000001
 43
0.00000001
 40
0.0
 40
0.0
 40
0.0
 40
0.0
 40
0.1446702591042609
 40
0.3907520209323516
 40
0.5962314811354708
 40
1.0
 40
1.0
 40
1.0
 40
1.0
 10
92.10143579186337
 20
194.9550374998851
 30
0.0
 10
92.23353687242242
 20
195.2612276366132
 30
0.0
 10
92.59033974618097
 20
196.0882422245236
 30
0.0
 10
93.05469913899655
 20
197.3835363873251
 30
0.0
 10
93.63612755310308
 20
199.2697645349059
 30
0.0
 10
93.91120421054106
 20
200.6489068988978
 30
0.0
 10
94.0935064887003
 20
201.5629095525705
 30
0.0
  0
LINE
  5
C8
330
1F
100
AcDbEntity
  8
0
  6
Continuous
 62
     7
370
    25
100
AcDbLine
 10
91.8925932419
 20
195.0784269658
 30
0.0
 11
92.1014357919
 21
194.9550374999
 31
0.0
  0
SPLINE
  5
C9
330
1F
100
AcDbEntity
  8
0
  6
Continuous
 62
     7
370
    25
100
AcDbSpline
210
0.0
220
0.0
230
1.0
 70
     8
 71
     3
 72
     9
 73
     5
 74
     0
 42
0.00000001
 43
0.00000001
 40
0.0
 40
0.0
 40
0.0
 40
0.0
 40
0.5862283062033018
 40
1.0
 40
1.0
 40
1.0
 40
1.0
 10
94.0935064887003
 20
201.5629095525705
 30
0.0
 10
94.14775912595618
 20
201.8912354075862
 30
0.0
 10
94.24030436248243
 20
202.4513002347901
 30
0.0
 10
94.31135797768015
 20
203.0156770953247
 30
0.0
 10
94.34075795239077
 20
203.2492002648476
 30
0.0
  0
SPLINE
  5
CA
330
1F
100
AcDbEntity
  8
0
  6
Continuous
 62
     7
370
    25
100
AcDbSpline
210
0.0
220
0.0
230
1.0
 70
     8
 71
     3
 72
     9
 73
     5
 74
     0
 42
0.00000001
 43
0.00000001
 40
0.0
 40
0.0
 40
0.0
 40
0.0
 40
0.5863847898283814
 40
0.9999999999999999
 40
0.9999999999999999
 40
0.9999999999999999
 40
0.9999999999999999
 10
93.21919494804837
 20
208.0221824394553
 30
0.0
 10
93.03392207792388
 20
208.2995564985129
 30
0.0
 10
92.71796424044543
 20
208.7725804648042
 30
0.0
 10
92.38465531309409
 20
209.2318969221198
 30
0.0
 10
92.24679367105554
 20
209.4218771951475
 30
0.0
  0
ARC
  5
CB
330
1F
100
AcDbEntity
  8
0
  6
Continuous
 62
     7
370
    25
100
AcDbCircle
 10
79.6454640429
 20
202.3143409635
 30
0.0
 40
14.72500000000002
100
AcDbArc
 50
3.6400367407
 51
22.8070678661
  0
SPLINE
  5
CC
330
1F
100
AcDbEntity
  8
0
  6
Continuous
 62
     7
370
    25
100
AcDbSpline
210
0.0
220
0.0
230
1.0
 70
     8
 71
     3
 72
     9
 73
     5
 74
     0
 42
0.00000001
 43
0.00000001
 40
0.0
 40
0.0
 40
0.0
 40
0.0
 40
0.5863847898283626
 40
1.0
 40
1.0
 40
1.0
 40
1.0
 10
91.37546521438672
 20
193.4130659134908
 30
0.0
 10
91.52304176081921
 20
193.7122039551795
 30
0.0
 10
91.77471361348726
 20
194.2223434521064
 30
0.0
 10
92.00583887022273
 20
194.7406556791584
 30
0.0
 10
92.10143579186337
 20
194.9550374998851
 30
0.0
  0
ARC
  5
CD
330
1F
100
AcDbEntity
  8
0
  6
Continuous
 62
     7
370
    25
100
AcDbCircle
 10
79.6454640429
 20
202.3143409635
 30
0.0
 40
14.72500000000007
100
AcDbArc
 50
303.6400367407
 51
322.8070678661
  0
SPLINE
  5
CE
330
1F
100
AcDbEntity
  8
0
  6
Continuous
 62
     7
370
    25
100
AcDbSpline
210
0.0
220
0.0
230
1.0
 70
     8
 71
     3
 72
     9
 73
     5
 74
     0
 42
0.00000001
 43
0.00000001
 40
0.0
 40
0.0
 40
0.0
 40
0.0
 40
0.5862283062032898
 40
1.0
 40
1.0
 40
1.0
 40
1.0
 10
87.52024395689118
 20
214.4509970510853
 30
0.0
 10
87.26303174435618
 20
214.6621441406791
 30
0.0
 10
86.82427399449455
 20
215.0223230801121
 30
0.0
 10
86.37103610356256
 20
215.3660457461713
 30
0.0
 10
86.18349909373873
 20
215.5082684559029
 30
0.0
  0
SPLINE
  5
CF
330
1F
100
AcDbEntity
  8
0
  6
Continuous
 62
     7
370
    25
100
AcDbSpline
210
0.0
220
0.0
230
1.0
 70
     8
 71
     3
 72
     9
 73
     5
 74
     0
 42
0.00000001
 43
0.00000001
 40
0.0
 40
0.0
 40
0.0
 40
0.0
 40
0.5863847898283683
 40
0.9999999999999999
 40
0.9999999999999999
 40
0.9999999999999999
 40
0.9999999999999999
 10
81.4891937765469
 20
216.9234574895014
 30
0.0
 10
81.15634435998997
 20
216.9016935068703
 30
0.0
 10
80.58871466984347
 20
216.8645779762348
 30
0.0
 10
80.02428048575638
 20
216.8055822064981
 30
0.0
 10
79.7908219220772
 20
216.7811806587991
 30
0.0
  0
ARC
  5
D0
330
1F
100
AcDbEntity
  8
0
  6
Continuous
 62
     7
370
    25
100
AcDbCircle
 10
79.6454640429
 20
202.3143409635
 30
0.0
 40
14.72500000000007
100
AcDbArc
 50
63.6400367407
 51
82.8070678661
  0
SPLINE
  5
D1
330
1F
100
AcDbEntity
  8
0
  6
Continuous
 62
     7
370
    25
100
AcDbSpline
210
0.0
220
0.0
230
1.0
 70
     8
 71
     3
 72
     9
 73
     5
 74
     0
 42
0.00000001
 43
0.00000001
 40
0.0
 40
0.0
 40
0.0
 40
0.0
 40
0.5862283062032594
 40
1.0
 40
1.0
 40
1.0
 40
1.0
 10
65.19742159706998
 20
203.0657723745032
 30
0.0
 10
65.14316895981398
 20
202.7374465194874
 30
0.0
 10
65.0506237232878
 20
202.1773816922834
 30
0.0
 10
64.97957010809024
 20
201.6130048317491
 30
0.0
 10
64.9501701333795
 20
201.379481662226
 30
0.0
  0
SPLINE
  5
D2
330
1F
100
AcDbEntity
  8
0
  6
Continuous
 62
     7
370
    25
100
AcDbSpline
210
0.0
220
0.0
230
1.0
 70
     8
 71
     3
 72
     9
 73
     5
 74
     0
 42
0.00000001
 43
0.00000001
 40
0.0
 40
0.0
 40
0.0
 40
0.0
 40
0.5863847898283591
 40
1.0
 40
1.0
 40
1.0
 40
1.0
 10
66.0717331377219
 20
196.6064994876183
 30
0.0
 10
66.25700600784634
 20
196.3291254285607
 30
0.0
 10
66.57296384532485
 20
195.8561014622692
 30
0.0
 10
66.90627277267625
 20
195.396785004954
 30
0.0
 10
67.04413441471479
 20
195.2068047319262
 30
0.0
  0
ARC
  5
D3
330
1F
100
AcDbEntity
  8
0
  6
Continuous
 62
     7
370
    25
100
AcDbCircle
 10
79.6454640429
 20
202.3143409635
 30
0.0
 40
14.72500000000002
100
AcDbArc
 50
183.6400367407
 51
202.8070678661
  0
SPLINE
  5
D4
330
1F
100
AcDbEntity
  8
0
  6
Continuous
 62
     7
370
    25
100
AcDbSpline
210
0.0
220
0.0
230
1.0
 70
     8
 71
     3
 72
     9
 73
     5
 74
     0
 42
0.00000001
 43
0.00000001
 40
0.0
 40
0.0
 40
0.0
 40
0.0
 40
0.5862283062032844
 40
1.0
 40
1.0
 40
1.0
 40
1.0
 10
73.07220151107607
 20
215.2024284620518
 30
0.0
 10
72.76073666128514
 20
215.0852496966298
 30
0.0
 10
72.22943367489721
 20
214.8853638088589
 30
0.0
 10
71.70514216876761
 20
214.6647096143835
 30
0.0
 10
71.48820518423304
 20
214.573409154592
 30
0.0
  0
SPLINE
  5
D5
330
1F
100
AcDbEntity
  8
0
  6
Continuous
 62
     7
370
    25
100
AcDbSpline
210
0.0
220
0.0
230
1.0
 70
     8
 71
     3
 72
     9
 73
     5
 74
     0
 42
0.00000001
 43
0.00000001
 40
0.0
 40
0.0
 40
0.0
 40
0.0
 40
0.5863847898283973
 40
1.0
 40
1.0
 40
1.0
 40
1.0
 10
67.91546287138355
 20
211.2156160135828
 30
0.0
 10
67.76788632495106
 20
210.9164779718942
 30
0.0
 10
67.51621447228312
 20
210.4063384749673
 30
0.0
 10
67.28508921554754
 20
209.8880262479151
 30
0.0
 10
67.18949229390691
 20
209.6736444271885
 30
0.0
  0
ARC
  5
D6
330
1F
100
AcDbEntity
  8
0
  6
Continuous
 62
     7
370
    25
100
AcDbCircle
 10
79.6454640429
 20
202.3143409635
 30
0.0
 40
14.72500000000004
100
AcDbArc
 50
123.6400367407
 51
142.8070678661
  0
SPLINE
  5
D7
330
1F
100
AcDbEntity
  8
0
  6
Continuous
 62
     7
370
    25
100
AcDbSpline
210
0.0
220
0.0
230
1.0
 70
    24
 71
     3
 72
    12
 73
     8
 74
     0
 42
0.00000001
 43
0.00000001
 40
0.0
 40
0.0
 40
0.0
 40
0.0
 40
0.3013828945621001
 40
0.4108442493795508
 40
0.6247185195336539
 40
0.6986171054378641
 40
1.0
 40
1.0
 40
1.0
 40
1.0
 10
94.3151429966893
 20
201.4319610923631
 30
0.0
 10
94.11911862088857
 20
200.7817311599836
 30
0.0
 10
93.85189878529366
 20
199.8953396848445
 30
0.0
 10
93.44361985640548
 20
198.5410429080365
 30
0.0
 10
93.18352394827507
 20
197.6782821209409
 30
0.0
 10
92.79862182618814
 20
196.4015282489035
 30
0.0
 10
92.55453824160587
 20
195.5918817340281
 30
0.0
 10
92.3585183976609
 20
194.9416668342095
 30
0.0
  0
ARC
  5
D8
330
1F
100
AcDbEntity
  8
0
  6
Continuous
 62
     7
370
    25
100
AcDbCircle
 10
92.2490532011
 20
195.3151353368
 30
0.0
 40
0.3891803587961772
100
AcDbArc
 50
247.7094634933
 51
286.3360839426
  0
ARC
  5
D9
330
1F
100
AcDbEntity
  8
0
  6
Continuous
 62
     7
370
    25
100
AcDbCircle
 10
94.0174988345
 20
201.1812235715
 30
0.0
 40
0.3891803587977414
100
AcDbArc
 50
40.1110206644
 51
78.7376411134
  0
SPLINE
  5
DA
330
1F
100
AcDbEntity
  8
0
  6
Continuous
 62
     7
370
    25
100
AcDbSpline
210
0.0
220
0.0
230
1.0
 70
    24
 71
     3
 72
    12
 73
     8
 74
     0
 42
0.00000001
 43
0.00000001
 40
0.0
 40
0.0
 40
0.0
 40
0.0
 40
0.3013828945620891
 40
0.4108442493795531
 40
0.6247185195336445
 40
0.6986171054378645
 40
0.9999999999999999
 40
0.9999999999999999
 40
0.9999999999999999
 40
0.9999999999999999
 10
71.54646118175867
 20
190.0512162597673
 30
0.0
 10
71.08135772991724
 20
190.5460933151616
 30
0.0
 10
70.44733011254623
 20
191.2207082187516
 30
0.0
 10
69.4786141640114
 20
192.2514365314021
 30
0.0
 10
68.86148935906262
 20
192.9080665888115
 30
0.0
 10
67.94823913254162
 20
193.8797785405285
 30
0.0
 10
67.36910647486522
 20
194.4959843828608
 30
0.0
 10
66.90401377567545
 20
194.9908499972723
 30
0.0
  0
ARC
  5
DB
330
1F
100
AcDbEntity
  8
0
  6
Continuous
 62
     7
370
    25
100
AcDbCircle
 10
67.2821795847
 20
194.898915387
 30
0.0
 40
0.3891803587962898
100
AcDbArc
 50
127.7094634934
 51
166.3360839426
  0
SPLINE
  5
DC
330
1F
100
AcDbEntity
  8
0
  6
Continuous
 62
     7
370
    25
100
AcDbSpline
210
0.0
220
0.0
230
1.0
 70
    24
 71
     3
 72
    12
 73
     8
 74
     0
 42
0.00000001
 43
0.00000001
 40
0.0
 40
0.0
 40
0.0
 40
0.0
 40
0.3013828945621578
 40
0.4108442493795545
 40
0.6247185195336499
 40
0.6986171054378596
 40
1.0
 40
1.0
 40
1.0
 40
1.0
 10
87.74446690401166
 20
214.5774656673062
 30
0.0
 10
88.20957035585309
 20
214.0825886119117
 30
0.0
 10
88.84359797322405
 20
213.4079737083216
 30
0.0
 10
89.81231392175908
 20
212.3772453956715
 30
0.0
 10
90.42943872670767
 20
211.7206153382623
 30
0.0
 10
91.34268895322862
 20
210.748903386545
 30
0.0
 10
91.92182161090507
 20
210.1326975442128
 30
0.0
 10
92.38691431009482
 20
209.6378319298014
 30
0.0
  0
ARC
  5
DD
330
1F
100
AcDbEntity
  8
0
  6
Continuous
 62
     7
370
    25
100
AcDbCircle
 10
92.0087485011
 20
209.7297665401
 30
0.0
 40
0.3891803587956307
100
AcDbArc
 50
307.7094634933
 51
346.3360839426
  0
ARC
  5
DE
330
1F
100
AcDbEntity
  8
0
  6
Continuous
 62
     7
370
    25
100
AcDbCircle
 10
87.8127898857
 20
214.1943295011
 30
0.0
 40
0.3891803587976355
100
AcDbArc
 50
100.1110206644
 51
138.7376411134
  0
ARC
  5
DF
330
1F
100
AcDbEntity
  8
0
  6
Continuous
 62
     7
370
    25
100
AcDbCircle
 10
65.2734292513
 20
203.4474583557
 30
0.0
 40
0.3891803588384367
100
AcDbArc
 50
220.1110206665
 51
258.7376411113
  0
SPLINE
  5
E0
330
1F
100
AcDbEntity
  8
0
  6
Continuous
 62
     7
370
    25
100
AcDbSpline
210
0.0
220
0.0
230
1.0
 70
    24
 71
     3
 72
    12
 73
     8
 74
     0
 42
0.00000001
 43
0.00000001
 40
0.0
 40
0.0
 40
0.0
 40
0.0
 40
0.3013828945621522
 40
0.410844249379567
 40
0.6247185195336525
 40
0.6986171054378497
 40
1.0
 40
1.0
 40
1.0
 40
1.0
 10
64.97578508908103
 20
203.1967208347106
 30
0.0
 10
65.17180946488193
 20
203.8469507670904
 30
0.0
 10
65.43902930047685
 20
204.7333422422296
 30
0.0
 10
65.8473082293648
 20
206.0876390190371
 30
0.0
 10
66.10740413749528
 20
206.950399806133
 30
0.0
 10
66.49230625958246
 20
208.2271536781703
 30
0.0
 10
66.73638984416452
 20
209.0368001930455
 30
0.0
 10
66.93240968810937
 20
209.6870150928642
 30
0.0
  0
ARC
  5
E1
330
1F
100
AcDbEntity
  8
0
  6
Continuous
 62
     7
370
    25
100
AcDbCircle
 10
67.0418748846
 20
209.3135465903
 30
0.0
 40
0.3891803587959327
100
AcDbArc
 50
67.7094634933
 51
106.3360839426
  0
ARC
  5
E2
330
1F
100
AcDbEntity
  8
0
  6
Continuous
 62
     7
370
    25
100
AcDbCircle
 10
73.4407550941
 20
215.3274468932
 30
0.0
 40
0.3891803588378877
100
AcDbArc
 50
160.1110206664
 51
198.7376411113
  0
SPLINE
  5
E3
330
1F
100
AcDbEntity
  8
0
  6
Continuous
 62
     7
370
    25
100
AcDbSpline
210
0.0
220
0.0
230
1.0
 70
    24
 71
     3
 72
    12
 73
     8
 74
     0
 42
0.00000001
 43
0.00000001
 40
0.0
 40
0.0
 40
0.0
 40
0.0
 40
0.3013828945621506
 40
0.4108442493795592
 40
0.6247185195336364
 40
0.6986171054378689
 40
0.9999999999999999
 40
0.9999999999999999
 40
0.9999999999999999
 40
0.9999999999999999
 10
73.07478795020755
 20
215.4598455384799
 30
0.0
 10
73.73591577784983
 20
215.6151984154652
 30
0.0
 10
74.63716323081576
 20
215.8269749870145
 30
0.0
 10
76.01415810823859
 20
216.1505434511716
 30
0.0
 10
76.89137882131786
 20
216.3566741808581
 30
0.0
 10
78.18953116992589
 20
216.6617161011786
 30
0.0
 10
79.01274741218451
 20
216.8551567737215
 30
0.0
 10
79.67385995531906
 20
217.0105060591287
 30
0.0
  0
ARC
  5
E4
330
1F
100
AcDbEntity
  8
0
  6
Continuous
 62
     7
370
    25
100
AcDbCircle
 10
79.4051593428
 20
216.7289721668
 30
0.0
 40
0.3891803587970354
100
AcDbArc
 50
7.7094634934
 51
46.3360839425
  0
LINE
  5
E5
330
1F
100
AcDbEntity
  8
0
  6
Continuous
 62
     7
370
    25
100
AcDbLine
 10
92.3585183977
 20
194.9416668342
 30
0.0
 11
91.8541843282
 21
193.2687467876
 31
0.0
  0
LINE
  5
E6
330
1F
100
AcDbEntity
  8
0
  6
Continuous
 62
     7
370
    25
100
AcDbLine
 10
91.8541843282
 20
193.2687467876
 30
0.0
 11
91.3754652144
 21
193.4130659135
 31
0.0
  0
LINE
  5
E7
330
1F
100
AcDbEntity
  8
0
  6
Continuous
 62
     7
370
    25
100
AcDbLine
 10
92.3869143101
 20
209.6378319298
 30
0.0
 11
93.5835385342
 21
208.3646057903
 31
0.0
  0
LINE
  5
E8
330
1F
100
AcDbEntity
  8
0
  6
Continuous
 62
     7
370
    25
100
AcDbLine
 10
93.5835385342
 20
208.3646057903
 30
0.0
 11
93.219194948
 21
208.0221824395
 31
0.0
  0
LINE
  5
E9
330
1F
100
AcDbEntity
  8
0
  6
Continuous
 62
     7
370
    25
100
AcDbLine
 10
79.6738599553
 20
217.0105060591
 30
0.0
 11
81.3748182489
 21
217.4101999663
 31
0.0
  0
LINE
  5
EA
330
1F
100
AcDbEntity
  8
0
  6
Continuous
 62
     7
370
    25
100
AcDbLine
 10
81.3748182489
 20
217.4101999663
 30
0.0
 11
81.4891937765
 21
216.9234574895
 31
0.0
  0
LINE
  5
EB
330
1F
100
AcDbEntity
  8
0
  6
Continuous
 62
     7
370
    25
100
AcDbLine
 10
66.9040137757
 20
194.9908499973
 30
0.0
 11
65.7073895516
 21
196.2640761367
 31
0.0
  0
LINE
  5
EC
330
1F
100
AcDbEntity
  8
0
  6
Continuous
 62
     7
370
    25
100
AcDbLine
 10
66.0717331377
 20
196.6064994876
 30
0.0
 11
65.7073895516
 21
196.2640761367
 31
0.0
  0
LINE
  5
ED
330
1F
100
AcDbEntity
  8
0
  6
Continuous
 62
     7
370
    25
100
AcDbLine
 10
66.9324096881
 20
209.6870150929
 30
0.0
 11
67.4367437576
 21
211.3599351395
 31
0.0
  0
LINE
  5
EE
330
1F
100
AcDbEntity
  8
0
  6
Continuous
 62
     7
370
    25
100
AcDbLine
 10
67.4367437576
 20
211.3599351395
 30
0.0
 11
67.9154628714
 21
211.2156160136
 31
0.0
  0
LINE
  5
EF
330
1F
100
AcDbEntity
  8
0
  6
Continuous
 62
     7
370
    25
100
AcDbLine
 10
87.9170984292
 20
189.5685302957
 30
0.0
 11
87.5454640429
 21
189.4812030518
 31
0.0
  0
LINE
  5
F0
330
1F
100
AcDbEntity
  8
0
  6
Continuous
 62
     7
370
    25
100
AcDbLine
 10
87.9170984292
 20
189.5685302957
 30
0.0
 11
87.8027229015
 21
190.0552727725
 31
0.0
  0
LINE
  5
F1
330
1F
100
AcDbEntity
  8
0
  6
Continuous
 62
     7
370
    25
100
AcDbLine
 10
94.8194770662
 20
203.104881139
 30
0.0
 11
94.3151429967
 21
201.4319610924
 31
0.0
  0
LINE
  5
F2
330
1F
100
AcDbEntity
  8
0
  6
Continuous
 62
     7
370
    25
100
AcDbLine
 10
94.3407579524
 20
203.2492002648
 30
0.0
 11
94.8194770662
 21
203.104881139
 31
0.0
  0
LINE
  5
F3
330
1F
100
AcDbEntity
  8
0
  6
Continuous
 62
     7
370
    25
100
AcDbLine
 10
86.5478426799
 20
215.8506918068
 30
0.0
 11
87.744466904
 21
214.5774656673
 31
0.0
  0
LINE
  5
F4
330
1F
100
AcDbEntity
  8
0
  6
Continuous
 62
     7
370
    25
100
AcDbLine
 10
86.1834990937
 20
215.5082684559
 30
0.0
 11
86.5478426799
 21
215.8506918068
 31
0.0
  0
LINE
  5
F5
330
1F
100
AcDbEntity
  8
0
  6
Continuous
 62
     7
370
    25
100
AcDbLine
 10
71.4882051842
 20
214.5734091546
 30
0.0
 11
71.3738296566
 21
215.0601516313
 31
0.0
  0
LINE
  5
F6
330
1F
100
AcDbEntity
  8
0
  6
Continuous
 62
     7
370
    25
100
AcDbLine
 10
71.3738296566
 20
215.0601516313
 30
0.0
 11
73.0747879502
 21
215.4598455385
 31
0.0
  0
LINE
  5
F7
330
1F
100
AcDbEntity
  8
0
  6
Continuous
 62
     7
370
    25
100
AcDbLine
 10
64.9501701334
 20
201.3794816622
 30
0.0
 11
64.4714510196
 21
201.5238007881
 31
0.0
  0
LINE
  5
F8
330
1F
100
AcDbEntity
  8
0
  6
Continuous
 62
     7
370
    25
100
AcDbLine
 10
64.4714510196
 20
201.5238007881
 30
0.0
 11
64.9757850891
 21
203.1967208347
 31
0.0
  0
LINE
  5
F9
330
1F
100
AcDbEntity
  8
0
  6
Continuous
 62
     7
370
    25
100
AcDbLine
 10
89.7870910062
 20
190.0079441498
 30
0.0
 11
87.9170984292
 21
189.5685302957
 31
0.0
  0
LINE
  5
FA
330
1F
100
AcDbEntity
  8
0
  6
Continuous
 62
     7
370
    25
100
AcDbLine
 10
87.8027229015
 20
190.0552727725
 30
0.0
 11
89.6727154786
 21
190.4946866266
 31
0.0
  0
LINE
  5
FB
330
1F
100
AcDbEntity
  8
0
  6
Continuous
 62
     7
370
    25
100
AcDbLine
 10
89.7870910062
 20
190.0079441498
 30
0.0
 11
89.6727154786
 21
190.4946866266
 31
0.0
  0
ARC
  5
FC
330
1F
100
AcDbEntity
  8
0
  6
Continuous
 62
     7
370
    25
100
AcDbCircle
 10
79.6454640429
 20
202.3143409635
 30
0.0
 40
16.00000000000003
100
AcDbArc
 50
10.309742062
 51
16.1373625449
  0
LINE
  5
FD
330
1F
100
AcDbEntity
  8
0
  6
Continuous
 62
     7
370
    25
100
AcDbLine
 10
95.3871379914
 20
205.1778530203
 30
0.0
 11
94.8952106805
 21
205.0883682685
 31
0.0
  0
ARC
  5
FE
330
1F
100
AcDbEntity
  8
0
  6
Continuous
 62
     7
370
    25
100
AcDbCircle
 10
79.6454640429
 20
202.3143409635
 30
0.0
 40
15.50000000000005
100
AcDbArc
 50
10.309742062
 51
16.1373625449
  0
LINE
  5
FF
330
1F
100
AcDbEntity
  8
0
  6
Continuous
 62
     7
370
    25
100
AcDbLine
 10
95.0150338536
 20
206.7613988488
 30
0.0
 11
94.534734797
 21
206.6224282899
 31
0.0
  0
LINE
  5
100
330
1F
100
AcDbEntity
  8
0
  6
Continuous
 62
     7
370
    25
100
AcDbLine
 10
94.3407579524
 20
203.2492002648
 30
0.0
 11
94.8952106805
 21
205.0883682685
 31
0.0
  0
LINE
  5
101
330
1F
100
AcDbEntity
  8
0
  6
Continuous
 62
     7
370
    25
100
AcDbLine
 10
94.534734797
 20
206.6224282899
 30
0.0
 11
93.219194948
 21
208.0221824395
 31
0.0
  0
LINE
  5
102
330
1F
100
AcDbEntity
  8
0
  6
Continuous
 62
     7
370
    25
100
AcDbLine
 10
89.9961752023
 20
190.1134074544
 30
0.0
 11
89.6727154786
 21
190.4946866266
 31
0.0
  0
ARC
  5
103
330
1F
100
AcDbEntity
  8
0
  6
Continuous
 62
     7
370
    25
100
AcDbCircle
 10
89.6727154786
 20
190.4946866266
 30
0.0
 40
0.5000000000000263
100
AcDbArc
 50
283.2235523034
 51
310.309742062
  0
LINE
  5
104
330
1F
100
AcDbEntity
  8
0
  6
Continuous
 62
     7
370
    25
100
AcDbLine
 10
91.181514049
 20
191.2274320049
 30
0.0
 11
90.8210124863
 21
191.5738979099
 31
0.0
  0
LINE
  5
105
330
1F
100
AcDbEntity
  8
0
  6
Continuous
 62
     7
370
    25
100
AcDbLine
 10
91.2997316001
 20
191.429578784
 30
0.0
 11
90.8210124863
 21
191.5738979099
 31
0.0
  0
ARC
  5
106
330
1F
100
AcDbEntity
  8
0
  6
Continuous
 62
     7
370
    25
100
AcDbCircle
 10
90.8210124863
 20
191.5738979099
 30
0.0
 40
0.5000000000000219
100
AcDbArc
 50
316.1373625449
 51
343.2235523034
  0
ARC
  5
107
330
1F
100
AcDbEntity
  8
0
  6
Continuous
 62
     7
370
    25
100
AcDbCircle
 10
79.6454640429
 20
202.3143409635
 30
0.0
 40
16.0
100
AcDbArc
 50
310.309742062
 51
316.1373625449
  0
ARC
  5
108
330
1F
100
AcDbEntity
  8
0
  6
Continuous
 62
     7
370
    25
100
AcDbCircle
 10
79.6454640429
 20
202.3143409635
 30
0.0
 40
15.49999999999998
100
AcDbArc
 50
310.309742062
 51
316.1373625449
  0
LINE
  5
109
330
1F
100
AcDbEntity
  8
0
  6
Continuous
 62
     7
370
    25
100
AcDbLine
 10
94.8952106805
 20
205.0883682685
 30
0.0
 11
95.3739297943
 21
204.9440491426
 31
0.0
  0
LINE
  5
10A
330
1F
100
AcDbEntity
  8
0
  6
Continuous
 62
     7
370
    25
100
AcDbLine
 10
95.3739297943
 20
204.9440491426
 30
0.0
 11
94.8194770662
 21
203.104881139
 31
0.0
  0
LINE
  5
10B
330
1F
100
AcDbEntity
  8
0
  6
Continuous
 62
     7
370
    25
100
AcDbLine
 10
91.8541843282
 20
193.2687467876
 30
0.0
 11
91.2997316001
 21
191.429578784
 31
0.0
  0
LINE
  5
10C
330
1F
100
AcDbEntity
  8
0
  6
Continuous
 62
     7
370
    25
100
AcDbLine
 10
90.8210124863
 20
191.5738979099
 30
0.0
 11
91.3754652144
 21
193.4130659135
 31
0.0
  0
LINE
  5
10D
330
1F
100
AcDbEntity
  8
0
  6
Continuous
 62
     7
370
    25
100
AcDbLine
 10
93.5835385342
 20
208.3646057903
 30
0.0
 11
94.8990783831
 21
206.9648516408
 31
0.0
  0
LINE
  5
10E
330
1F
100
AcDbEntity
  8
0
  6
Continuous
 62
     7
370
    25
100
AcDbLine
 10
94.8990783831
 20
206.9648516408
 30
0.0
 11
94.534734797
 21
206.6224282899
 31
0.0
  0
ARC
  5
10F
330
1F
100
AcDbEntity
  8
0
  6
Continuous
 62
     7
370
    25
100
AcDbCircle
 10
94.534734797
 20
206.6224282899
 30
0.0
 40
0.4999999999999815
100
AcDbArc
 50
16.1373625448
 51
43.2235523034
  0
ARC
  5
110
330
1F
100
AcDbEntity
  8
0
  6
Continuous
 62
     7
370
    25
100
AcDbCircle
 10
94.8952106805
 20
205.0883682685
 30
0.0
 40
0.5000000000000163
100
AcDbArc
 50
343.2235523034
 51
10.309742062
  0
ARC
  5
111
330
1F
100
AcDbEntity
  8
0
  6
Continuous
 62
     7
370
    25
100
AcDbCircle
 10
64.7561932888
 20
198.0062536372
 30
0.0
 40
0.4999999999999782
100
AcDbArc
 50
196.1373625449
 51
223.2235523034
  0
LINE
  5
112
330
1F
100
AcDbEntity
  8
0
  6
Continuous
 62
     7
370
    25
100
AcDbLine
 10
64.7561932888
 20
198.0062536372
 30
0.0
 11
64.2758942322
 21
197.8672830783
 31
0.0
  0
LINE
  5
113
330
1F
100
AcDbEntity
  8
0
  6
Continuous
 62
     7
370
    25
100
AcDbLine
 10
64.7561932888
 20
198.0062536372
 30
0.0
 11
64.3918497026
 21
197.6638302863
 31
0.0
  0
LINE
  5
114
330
1F
100
AcDbEntity
  8
0
  6
Continuous
 62
     7
370
    25
100
AcDbLine
 10
86.1834990937
 20
215.5082684559
 30
0.0
 11
84.8679592448
 21
216.9080226055
 31
0.0
  0
LINE
  5
115
330
1F
100
AcDbEntity
  8
0
  6
Continuous
 62
     7
370
    25
100
AcDbLine
 10
83.3591863536
 20
217.3628713436
 30
0.0
 11
81.4891937765
 21
216.9234574895
 31
0.0
  0
ARC
  5
116
330
1F
100
AcDbEntity
  8
0
  6
Continuous
 62
     7
370
    25
100
AcDbCircle
 10
79.6454640429
 20
202.3143409635
 30
0.0
 40
15.50000000000008
100
AcDbArc
 50
70.309742062
 51
76.1373625449
  0
LINE
  5
117
330
1F
100
AcDbEntity
  8
0
  6
Continuous
 62
     7
370
    25
100
AcDbLine
 10
64.7561932888
 20
198.0062536372
 30
0.0
 11
66.0717331377
 21
196.6064994876
 31
0.0
  0
LINE
  5
118
330
1F
100
AcDbEntity
  8
0
  6
Continuous
 62
     7
370
    25
100
AcDbLine
 10
65.7073895516
 20
196.2640761367
 30
0.0
 11
64.3918497026
 21
197.6638302863
 31
0.0
  0
ARC
  5
119
330
1F
100
AcDbEntity
  8
0
  6
Continuous
 62
     7
370
    25
100
AcDbCircle
 10
64.3957174053
 20
199.5403136586
 30
0.0
 40
0.5000000000000561
100
AcDbArc
 50
163.2235523034
 51
190.309742062
  0
LINE
  5
11A
330
1F
100
AcDbEntity
  8
0
  6
Continuous
 62
     7
370
    25
100
AcDbLine
 10
64.3957174053
 20
199.5403136586
 30
0.0
 11
63.9169982915
 21
199.6846327845
 31
0.0
  0
LINE
  5
11B
330
1F
100
AcDbEntity
  8
0
  6
Continuous
 62
     7
370
    25
100
AcDbLine
 10
64.3957174053
 20
199.5403136586
 30
0.0
 11
63.9037900944
 21
199.4508289068
 31
0.0
  0
ARC
  5
11C
330
1F
100
AcDbEntity
  8
0
  6
Continuous
 62
     7
370
    25
100
AcDbCircle
 10
84.8679592448
 20
216.9080226055
 30
0.0
 40
0.5000000000000847
100
AcDbArc
 50
43.2235523034
 51
70.309742062
  0
LINE
  5
11D
330
1F
100
AcDbEntity
  8
0
  6
Continuous
 62
     7
370
    25
100
AcDbLine
 10
84.8679592448
 20
216.9080226055
 30
0.0
 11
85.232302831
 21
217.2504459563
 31
0.0
  0
LINE
  5
11E
330
1F
100
AcDbEntity
  8
0
  6
Continuous
 62
     7
370
    25
100
AcDbLine
 10
85.036426832
 20
217.3787865294
 30
0.0
 11
84.8679592448
 21
216.9080226055
 31
0.0
  0
LINE
  5
11F
330
1F
100
AcDbEntity
  8
0
  6
Continuous
 62
     7
370
    25
100
AcDbLine
 10
64.9501701334
 20
201.3794816622
 30
0.0
 11
64.3957174053
 21
199.5403136586
 31
0.0
  0
ARC
  5
120
330
1F
100
AcDbEntity
  8
0
  6
Continuous
 62
     7
370
    25
100
AcDbCircle
 10
79.6454640429
 20
202.3143409635
 30
0.0
 40
15.50000000000001
100
AcDbArc
 50
190.309742062
 51
196.1373625449
  0
LINE
  5
121
330
1F
100
AcDbEntity
  8
0
  6
Continuous
 62
     7
370
    25
100
AcDbLine
 10
63.9169982915
 20
199.6846327845
 30
0.0
 11
64.4714510196
 21
201.5238007881
 31
0.0
  0
ARC
  5
122
330
1F
100
AcDbEntity
  8
0
  6
Continuous
 62
     7
370
    25
100
AcDbCircle
 10
79.6454640429
 20
202.3143409635
 30
0.0
 40
16.00000000000009
100
AcDbArc
 50
70.309742062
 51
76.1373625449
  0
LINE
  5
123
330
1F
100
AcDbEntity
  8
0
  6
Continuous
 62
     7
370
    25
100
AcDbLine
 10
83.3591863536
 20
217.3628713436
 30
0.0
 11
83.4789838475
 21
217.8483078075
 31
0.0
  0
LINE
  5
124
330
1F
100
AcDbEntity
  8
0
  6
Continuous
 62
     7
370
    25
100
AcDbLine
 10
81.3748182489
 20
217.4101999663
 30
0.0
 11
83.2448108259
 21
217.8496138203
 31
0.0
  0
LINE
  5
125
330
1F
100
AcDbEntity
  8
0
  6
Continuous
 62
     7
370
    25
100
AcDbLine
 10
83.2448108259
 20
217.8496138203
 30
0.0
 11
83.3591863536
 21
217.3628713436
 31
0.0
  0
LINE
  5
126
330
1F
100
AcDbEntity
  8
0
  6
Continuous
 62
     7
370
    25
100
AcDbLine
 10
85.232302831
 20
217.2504459563
 30
0.0
 11
86.5478426799
 21
215.8506918068
 31
0.0
  0
ARC
  5
127
330
1F
100
AcDbEntity
  8
0
  6
Continuous
 62
     7
370
    25
100
AcDbCircle
 10
83.3591863536
 20
217.3628713436
 30
0.0
 40
0.4999999999999866
100
AcDbArc
 50
76.1373625448
 51
103.2235523034
  0
ARC
  5
128
330
1F
100
AcDbEntity
  8
0
  6
Continuous
 62
     7
370
    25
100
AcDbCircle
 10
79.6454640429
 20
202.3143409635
 30
0.0
 40
16.0
100
AcDbArc
 50
190.309742062
 51
196.1373625449
  0
ARC
  5
129
330
1F
100
AcDbEntity
  8
0
  6
Continuous
 62
     7
370
    25
100
AcDbCircle
 10
79.6454640429
 20
202.3143409635
 30
0.0
 40
15.50000000000003
100
AcDbArc
 50
130.309742062
 51
136.1373625449
  0
LINE
  5
12A
330
1F
100
AcDbEntity
  8
0
  6
Continuous
 62
     7
370
    25
100
AcDbLine
 10
68.4699155995
 20
213.0547840172
 30
0.0
 11
68.1094140368
 21
213.4012499222
 31
0.0
  0
ARC
  5
12B
330
1F
100
AcDbEntity
  8
0
  6
Continuous
 62
     7
370
    25
100
AcDbCircle
 10
79.6454640429
 20
202.3143409635
 30
0.0
 40
15.99999999999996
100
AcDbArc
 50
130.309742062
 51
136.1373625449
  0
LINE
  5
12C
330
1F
100
AcDbEntity
  8
0
  6
Continuous
 62
     7
370
    25
100
AcDbLine
 10
69.6182126072
 20
214.1339953005
 30
0.0
 11
69.2947528835
 21
214.5152744727
 31
0.0
  0
LINE
  5
12D
330
1F
100
AcDbEntity
  8
0
  6
Continuous
 62
     7
370
    25
100
AcDbLine
 10
67.4367437576
 20
211.3599351395
 30
0.0
 11
67.9911964857
 21
213.1991031431
 31
0.0
  0
LINE
  5
12E
330
1F
100
AcDbEntity
  8
0
  6
Continuous
 62
     7
370
    25
100
AcDbLine
 10
67.9911964857
 20
213.1991031431
 30
0.0
 11
68.4699155995
 21
213.0547840172
 31
0.0
  0
LINE
  5
12F
330
1F
100
AcDbEntity
  8
0
  6
Continuous
 62
     7
370
    25
100
AcDbLine
 10
68.4699155995
 20
213.0547840172
 30
0.0
 11
67.9154628714
 21
211.2156160136
 31
0.0
  0
ARC
  5
130
330
1F
100
AcDbEntity
  8
0
  6
Continuous
 62
     7
370
    25
100
AcDbCircle
 10
68.4699155995
 20
213.0547840172
 30
0.0
 40
0.5000000000000492
100
AcDbArc
 50
136.1373625449
 51
163.2235523034
  0
LINE
  5
131
330
1F
100
AcDbEntity
  8
0
  6
Continuous
 62
     7
370
    25
100
AcDbLine
 10
71.4882051842
 20
214.5734091546
 30
0.0
 11
69.6182126072
 21
214.1339953005
 31
0.0
  0
LINE
  5
132
330
1F
100
AcDbEntity
  8
0
  6
Continuous
 62
     7
370
    25
100
AcDbLine
 10
69.6182126072
 20
214.1339953005
 30
0.0
 11
69.5038370796
 21
214.6207377773
 31
0.0
  0
LINE
  5
133
330
1F
100
AcDbEntity
  8
0
  6
Continuous
 62
     7
370
    25
100
AcDbLine
 10
69.5038370796
 20
214.6207377773
 30
0.0
 11
71.3738296566
 21
215.0601516313
 31
0.0
  0
ARC
  5
134
330
1F
100
AcDbEntity
  8
0
  6
Continuous
 62
     7
370
    25
100
AcDbCircle
 10
69.6182126072
 20
214.1339953005
 30
0.0
 40
0.499999999999989
100
AcDbArc
 50
103.2235523034
 51
130.309742062
  0
ARC
  5
135
330
1F
100
AcDbEntity
  8
0
  6
Continuous
 62
     7
370
    25
100
AcDbCircle
 10
79.6454640429
 20
202.3143409635
 30
0.0
 40
8.250000000000021
100
AcDbArc
 50
343.2508741362
 51
196.7491258638
  0
ARC
  5
136
330
1F
100
AcDbEntity
  8
0
  6
Continuous
 62
     7
370
    25
100
AcDbCircle
 10
79.6454640429
 20
202.3143409635
 30
0.0
 40
8.05000000000003
100
AcDbArc
 50
348.9219835539
 51
191.0780164461
  0
ARC
  5
137
330
1F
100
AcDbEntity
  8
0
  6
Continuous
 62
     7
370
    25
100
AcDbCircle
 10
79.6454640429
 20
202.3143409635
 30
0.0
 40
9.575000000000031
100
AcDbArc
 50
325.5951096848
 51
214.4048903152
  0
ARC
  5
138
330
1F
100
AcDbEntity
  8
0
  6
Continuous
 62
     7
370
    25
100
AcDbCircle
 10
79.6454640429
 20
-51.6856590365
 30
0.0
 40
7.90000000000002
100
AcDbArc
 50
180.0
 51
0.0
  0
ARC
  5
139
330
1F
100
AcDbEntity
  8
0
  6
Continuous
 62
     7
370
    25
100
AcDbCircle
 10
79.6454640429
 20
-51.6856590365
 30
0.0
 40
10.82499999999999
100
AcDbArc
 50
136.8689719021
 51
180.0
  0
ARC
  5
13A
330
1F
100
AcDbEntity
  8
0
  6
Continuous
 62
     7
370
    25
100
AcDbCircle
 10
79.6454640429
 20
-51.6856590365
 30
0.0
 40
10.82500000000002
100
AcDbArc
 50
180.0
 51
43.1310280979
  0
ARC
  5
13B
330
1F
100
AcDbEntity
  8
0
  6
Continuous
 62
     7
370
    25
100
AcDbCircle
 10
79.6454640429
 20
202.3143409635
 30
0.0
 40
7.90000000000002
100
AcDbArc
 50
0.0
 51
180.0
  0
SPLINE
  5
13C
330
1F
100
AcDbEntity
  8
0
  6
Continuous
 62
     7
370
    25
100
AcDbSpline
210
0.0
220
0.0
230
1.0
 70
     8
 71
     3
 72
    10
 73
     6
 74
     0
 42
0.00000001
 43
0.00000001
 40
0.0
 40
0.0
 40
0.0
 40
0.0
 40
0.4482370048068192
 40
0.9076021902650182
 40
1.0
 40
1.0
 40
1.0
 40
1.0
 10
80.85270599328642
 20
210.1109006321788
 30
0.0
 10
81.69679853030759
 20
209.9003313275035
 30
0.0
 10
83.40593951414255
 20
209.4739650077298
 30
0.0
 10
84.97138003297927
 20
208.2424132942594
 30
0.0
 10
85.6592435970443
 20
207.4342292863359
 30
0.0
 10
85.77443270408803
 20
207.2988914096649
 30
0.0
  0
CIRCLE
  5
13D
330
1F
100
AcDbEntity
  8
0
  6
Continuous
 62
     7
370
    25
100
AcDbCircle
 10
182.1454640429
 20
202.3143409635
 30
0.0
 40
5.074569253689162
  0
CIRCLE
  5
13E
330
1F
100
AcDbEntity
  8
0
  6
Continuous
 62
     7
370
    25
100
AcDbCircle
 10
182.1454640429
 20
202.3143409635
 30
0.0
 40
5.328914336627577
  0
CIRCLE
  5
13F
330
1F
100
AcDbEntity
  8
0
  6
Continuous
 62
     7
370
    25
100
AcDbCircle
 10
182.1454640429
 20
202.3143409635
 30
0.0
 40
5.925127771161385
  0
CIRCLE
  5
140
330
1F
100
AcDbEntity
  8
0
  6
Continuous
 62
     7
370
    25
100
AcDbCircle
 10
182.1454640429
 20
202.3143409635
 30
0.0
 40
7.149999999999977
  0
LINE
  5
141
330
1F
100
AcDbEntity
  8
0
  6
Continuous
 62
     7
370
    25
100
AcDbLine
 10
-24.9145984276
 20
200.6184215616
 30
0.0
 11
-25.4494331966
 21
201.6926430332
 31
0.0
  0
LINE
  5
142
330
1F
100
AcDbEntity
  8
0
  6
Continuous
 62
     7
370
    25
100
AcDbLine
 10
-23.7956177281
 20
201.1755411127
 30
0.0
 11
-24.9145984276
 21
200.6184215616
 31
0.0
  0
SPLINE
  5
143
330
1F
100
AcDbEntity
  8
0
  6
Continuous
 62
     7
370
    25
100
AcDbSpline
210
0.0
220
0.0
230
1.0
 70
     8
 71
     3
 72
    12
 73
     8
 74
     0
 42
0.00000001
 43
0.00000001
 40
0.0
 40
0.0
 40
0.0
 40
0.0
 40
0.21335343954758
 40
0.4267919313634571
 40
0.6383539739091382
 40
0.8490950351927343
 40
1.0
 40
1.0
 40
1.0
 40
1.0
 10
-22.78995757777219
 20
200.8384244235773
 30
0.0
 10
-22.83442278671388
 20
200.9095559435309
 30
0.0
 10
-22.92337093042762
 20
201.0518473396585
 30
0.0
 10
-23.13718151931718
 20
201.1954404264576
 30
0.0
 10
-23.38029451763804
 20
201.2632826570316
 30
0.0
 10
-23.61045586297081
 20
201.252200783486
 30
0.0
 10
-23.7411024793916
 20
201.1981112083888
 30
0.0
 10
-23.79561772809011
 20
201.1755411126666
 30
0.0
  0
LINE
  5
144
330
1F
100
AcDbEntity
  8
0
  6
Continuous
 62
     7
370
    25
100
AcDbLine
 10
-22.2328380267
 20
199.7194437241
 30
0.0
 11
-22.7899575778
 21
200.8384244236
 31
0.0
  0
LINE
  5
145
330
1F
100
AcDbEntity
  8
0
  6
Continuous
 62
     7
370
    25
100
AcDbLine
 10
-21.1586165552
 20
200.2542784931
 30
0.0
 11
-22.2328380267
 21
199.7194437241
 31
0.0
  0
LINE
  5
146
330
1F
100
AcDbEntity
  8
0
  6
Continuous
 62
     7
370
    25
100
AcDbLine
 10
-21.7157361062
 20
201.3732591926
 30
0.0
 11
-21.1586165552
 21
200.2542784931
 31
0.0
  0
SPLINE
  5
147
330
1F
100
AcDbEntity
  8
0
  6
Continuous
 62
     7
370
    25
100
AcDbSpline
210
0.0
220
0.0
230
1.0
 70
     8
 71
     3
 72
    12
 73
     8
 74
     0
 42
0.00000001
 43
0.00000001
 40
0.0
 40
0.0
 40
0.0
 40
0.0
 40
0.2133534395476331
 40
0.4267919313634521
 40
0.6383539739091598
 40
0.8490950351927853
 40
1.0
 40
1.0
 40
1.0
 40
1.0
 10
-21.37861941715708
 20
202.378919342878
 30
0.0
 10
-21.44975093711071
 20
202.3344541339365
 30
0.0
 10
-21.59204233323819
 20
202.2455059902227
 30
0.0
 10
-21.73563542003729
 20
202.0316954013331
 30
0.0
 10
-21.80347765061155
 20
201.7885824030121
 30
0.0
 10
-21.79239577706552
 20
201.5584210576793
 30
0.0
 10
-21.73830620196865
 20
201.4277744412585
 30
0.0
 10
-21.71573610624639
 20
201.3732591925602
 30
0.0
  0
LINE
  5
148
330
1F
100
AcDbEntity
  8
0
  6
Continuous
 62
     7
370
    25
100
AcDbLine
 10
-20.2596387177
 20
202.9360388939
 30
0.0
 11
-21.3786194172
 21
202.3789193429
 31
0.0
  0
LINE
  5
149
330
1F
100
AcDbEntity
  8
0
  6
Continuous
 62
     7
370
    25
100
AcDbLine
 10
-20.7944734866
 20
204.0102603654
 30
0.0
 11
-20.2596387177
 21
202.9360388939
 31
0.0
  0
LINE
  5
14A
330
1F
100
AcDbEntity
  8
0
  6
Continuous
 62
     7
370
    25
100
AcDbLine
 10
-21.9134541861
 20
203.4531408144
 30
0.0
 11
-20.7944734866
 21
204.0102603654
 31
0.0
  0
SPLINE
  5
14B
330
1F
100
AcDbEntity
  8
0
  6
Continuous
 62
     7
370
    25
100
AcDbSpline
210
0.0
220
0.0
230
1.0
 70
     8
 71
     3
 72
    12
 73
     8
 74
     0
 42
0.00000001
 43
0.00000001
 40
0.0
 40
0.0
 40
0.0
 40
0.0
 40
0.21335343954758
 40
0.4267919313634571
 40
0.6383539739091382
 40
0.8490950351927343
 40
1.0
 40
1.0
 40
1.0
 40
1.0
 10
-22.91911433645788
 20
203.7902575034932
 30
0.0
 10
-22.87464912751622
 20
203.7191259835396
 30
0.0
 10
-22.78570098380245
 20
203.5768345874121
 30
0.0
 10
-22.57189039491286
 20
203.4332415006129
 30
0.0
 10
-22.32877739659197
 20
203.3653992700389
 30
0.0
 10
-22.09861605125918
 20
203.3764811435847
 30
0.0
 10
-21.96796943483842
 20
203.4305707186817
 30
0.0
 10
-21.91345418613994
 20
203.4531408144039
 30
0.0
  0
LINE
  5
14C
330
1F
100
AcDbEntity
  8
0
  6
Continuous
 62
     7
370
    25
100
AcDbLine
 10
-23.4762338875
 20
204.909238203
 30
0.0
 11
-22.9191143365
 21
203.7902575035
 31
0.0
  0
LINE
  5
14D
330
1F
100
AcDbEntity
  8
0
  6
Continuous
 62
     7
370
    25
100
AcDbLine
 10
-24.550455359
 20
204.374403434
 30
0.0
 11
-23.4762338875
 21
204.909238203
 31
0.0
  0
LINE
  5
14E
330
1F
100
AcDbEntity
  8
0
  6
Continuous
 62
     7
370
    25
100
AcDbLine
 10
-23.993335808
 20
203.2554227345
 30
0.0
 11
-24.550455359
 21
204.374403434
 31
0.0
  0
SPLINE
  5
14F
330
1F
100
AcDbEntity
  8
0
  6
Continuous
 62
     7
370
    25
100
AcDbSpline
210
0.0
220
0.0
230
1.0
 70
     8
 71
     3
 72
    12
 73
     8
 74
     0
 42
0.00000001
 43
0.00000001
 40
0.0
 40
0.0
 40
0.0
 40
0.0
 40
0.2133534395476331
 40
0.4267919313634521
 40
0.6383539739091598
 40
0.8490950351927853
 40
1.0
 40
1.0
 40
1.0
 40
1.0
 10
-24.330452497073
 20
202.2497625841924
 30
0.0
 10
-24.25932097711933
 20
202.2942277931342
 30
0.0
 10
-24.11702958099185
 20
202.3831759368478
 30
0.0
 10
-23.97343649419279
 20
202.5969865257375
 30
0.0
 10
-23.90559426361855
 20
202.8400995240583
 30
0.0
 10
-23.91667613716461
 20
203.070260869391
 30
0.0
 10
-23.97076571226145
 20
203.2009074858117
 30
0.0
 10
-23.99333580798366
 20
203.2554227345103
 30
0.0
  0
LINE
  5
150
330
1F
100
AcDbEntity
  8
0
  6
Continuous
 62
     7
370
    25
100
AcDbLine
 10
-25.4494331966
 20
201.6926430332
 30
0.0
 11
-24.3304524971
 21
202.2497625842
 31
0.0
  0
CIRCLE
  5
151
330
1F
100
AcDbEntity
  8
0
  6
Continuous
 62
     7
370
    25
100
AcDbCircle
 10
-22.8545359571
 20
202.3143409635
 30
0.0
 40
4.197433366238977
  0
CIRCLE
  5
152
330
1F
100
AcDbEntity
  8
0
  6
Continuous
 62
     7
370
    25
100
AcDbCircle
 10
-22.8545359571
 20
202.3143409635
 30
0.0
 40
4.500000000000035
  0
LINE
  5
153
330
1F
100
AcDbEntity
  8
0
  6
Continuous
 62
     7
370
    25
100
AcDbLine
 10
180.0854015724
 20
200.6184215616
 30
0.0
 11
179.5505668034
 21
201.6926430332
 31
0.0
  0
LINE
  5
154
330
1F
100
AcDbEntity
  8
0
  6
Continuous
 62
     7
370
    25
100
AcDbLine
 10
181.2043822719
 20
201.1755411127
 30
0.0
 11
180.0854015724
 21
200.6184215616
 31
0.0
  0
SPLINE
  5
155
330
1F
100
AcDbEntity
  8
0
  6
Continuous
 62
     7
370
    25
100
AcDbSpline
210
0.0
220
0.0
230
1.0
 70
     8
 71
     3
 72
    12
 73
     8
 74
     0
 42
0.00000001
 43
0.00000001
 40
0.0
 40
0.0
 40
0.0
 40
0.0
 40
0.2133534395475693
 40
0.426791931363469
 40
0.6383539739091532
 40
0.8490950351927761
 40
1.0
 40
1.0
 40
1.0
 40
1.0
 10
182.2100424222279
 20
200.8384244235808
 30
0.0
 10
182.1655772132862
 20
200.9095559435345
 30
0.0
 10
182.0766290695725
 20
201.0518473396618
 30
0.0
 10
181.862818480683
 20
201.1954404264613
 30
0.0
 10
181.619705482362
 20
201.2632826570351
 30
0.0
 10
181.3895441370293
 20
201.2522007834894
 30
0.0
 10
181.2588975206085
 20
201.1981112083924
 30
0.0
 10
181.20438227191
 20
201.1755411126702
 30
0.0
  0
LINE
  5
156
330
1F
100
AcDbEntity
  8
0
  6
Continuous
 62
     7
370
    25
100
AcDbLine
 10
182.7671619733
 20
199.7194437241
 30
0.0
 11
182.2100424222
 21
200.8384244236
 31
0.0
  0
LINE
  5
157
330
1F
100
AcDbEntity
  8
0
  6
Continuous
 62
     7
370
    25
100
AcDbLine
 10
183.8413834448
 20
200.2542784931
 30
0.0
 11
182.7671619733
 21
199.7194437241
 31
0.0
  0
LINE
  5
158
330
1F
100
AcDbEntity
  8
0
  6
Continuous
 62
     7
370
    25
100
AcDbLine
 10
183.2842638938
 20
201.3732591926
 30
0.0
 11
183.8413834448
 21
200.2542784931
 31
0.0
  0
LINE
  5
159
330
1F
100
AcDbEntity
  8
0
  6
Continuous
 62
     7
370
    25
100
AcDbLine
 10
184.7403612823
 20
202.9360388939
 30
0.0
 11
183.6213805828
 21
202.3789193429
 31
0.0
  0
LINE
  5
15A
330
1F
100
AcDbEntity
  8
0
  6
Continuous
 62
     7
370
    25
100
AcDbLine
 10
184.2055265134
 20
204.0102603654
 30
0.0
 11
184.7403612823
 21
202.9360388939
 31
0.0
  0
LINE
  5
15B
330
1F
100
AcDbEntity
  8
0
  6
Continuous
 62
     7
370
    25
100
AcDbLine
 10
183.0865458139
 20
203.4531408144
 30
0.0
 11
184.2055265134
 21
204.0102603654
 31
0.0
  0
SPLINE
  5
15C
330
1F
100
AcDbEntity
  8
0
  6
Continuous
 62
     7
370
    25
100
AcDbSpline
210
0.0
220
0.0
230
1.0
 70
     8
 71
     3
 72
    12
 73
     8
 74
     0
 42
0.00000001
 43
0.00000001
 40
0.0
 40
0.0
 40
0.0
 40
0.0
 40
0.2133534395475993
 40
0.4267919313634626
 40
0.6383539739091492
 40
0.8490950351927744
 40
1.0
 40
1.0
 40
1.0
 40
1.0
 10
182.0808856635423
 20
203.7902575034968
 30
0.0
 10
182.125350872484
 20
203.7191259835432
 30
0.0
 10
182.2142990161978
 20
203.5768345874159
 30
0.0
 10
182.4281096050873
 20
203.4332415006164
 30
0.0
 10
182.6712226034081
 20
203.3653992700424
 30
0.0
 10
182.901383948741
 20
203.3764811435885
 30
0.0
 10
183.0320305651616
 20
203.4305707186851
 30
0.0
 10
183.0865458138601
 20
203.4531408144074
 30
0.0
  0
LINE
  5
15D
330
1F
100
AcDbEntity
  8
0
  6
Continuous
 62
     7
370
    25
100
AcDbLine
 10
181.5237661125
 20
204.909238203
 30
0.0
 11
182.0808856635
 21
203.7902575035
 31
0.0
  0
LINE
  5
15E
330
1F
100
AcDbEntity
  8
0
  6
Continuous
 62
     7
370
    25
100
AcDbLine
 10
180.449544641
 20
204.374403434
 30
0.0
 11
181.5237661125
 21
204.909238203
 31
0.0
  0
LINE
  5
15F
330
1F
100
AcDbEntity
  8
0
  6
Continuous
 62
     7
370
    25
100
AcDbLine
 10
181.006664192
 20
203.2554227345
 30
0.0
 11
180.449544641
 21
204.374403434
 31
0.0
  0
SPLINE
  5
160
330
1F
100
AcDbEntity
  8
0
  6
Continuous
 62
     7
370
    25
100
AcDbSpline
210
0.0
220
0.0
230
1.0
 70
     8
 71
     3
 72
    12
 73
     8
 74
     0
 42
0.00000001
 43
0.00000001
 40
0.0
 40
0.0
 40
0.0
 40
0.0
 40
0.2133534395476346
 40
0.4267919313634416
 40
0.6383539739091509
 40
0.8490950351927764
 40
1.0
 40
1.0
 40
1.0
 40
1.0
 10
180.6695475029271
 20
202.249762584196
 30
0.0
 10
180.7406790228808
 20
202.2942277931377
 30
0.0
 10
180.8829704190082
 20
202.3831759368514
 30
0.0
 10
181.0265635058072
 20
202.596986525741
 30
0.0
 10
181.0944057363815
 20
202.8400995240619
 30
0.0
 10
181.0833238628355
 20
203.0702608693946
 30
0.0
 10
181.0292342877386
 20
203.2009074858154
 30
0.0
 10
181.0066641920164
 20
203.2554227345139
 30
0.0
  0
LINE
  5
161
330
1F
100
AcDbEntity
  8
0
  6
Continuous
 62
     7
370
    25
100
AcDbLine
 10
179.5505668034
 20
201.6926430332
 30
0.0
 11
180.6695475029
 21
202.2497625842
 31
0.0
  0
CIRCLE
  5
162
330
1F
100
AcDbEntity
  8
0
  6
Continuous
 62
     7
370
    25
100
AcDbCircle
 10
182.1454640429
 20
202.3143409635
 30
0.0
 40
4.197433366238966
  0
SPLINE
  5
163
330
1F
100
AcDbEntity
  8
0
  6
Continuous
 62
     7
370
    25
100
AcDbSpline
210
0.0
220
0.0
230
1.0
 70
     8
 71
     3
 72
    12
 73
     8
 74
     0
 42
0.00000001
 43
0.00000001
 40
0.0
 40
0.0
 40
0.0
 40
0.0
 40
0.2133534395476346
 40
0.4267919313634416
 40
0.6383539739091509
 40
0.8490950351927764
 40
1.0
 40
1.0
 40
1.0
 40
1.0
 10
183.621380582843
 20
202.3789193428816
 30
0.0
 10
183.5502490628893
 20
202.3344541339399
 30
0.0
 10
183.4079576667618
 20
202.2455059902262
 30
0.0
 10
183.2643645799627
 20
202.0316954013365
 30
0.0
 10
183.1965223493887
 20
201.7885824030157
 30
0.0
 10
183.2076042229344
 20
201.5584210576829
 30
0.0
 10
183.2616937980314
 20
201.4277744412621
 30
0.0
 10
183.2842638937537
 20
201.3732591925637
 30
0.0
  0
CIRCLE
  5
164
330
1F
100
AcDbEntity
  8
0
  6
Continuous
 62
     7
370
    25
100
AcDbCircle
 10
182.1454640429
 20
202.3143409635
 30
0.0
 40
4.499999999999912
  0
CIRCLE
  5
165
330
1F
100
AcDbEntity
  8
0
  6
Continuous
 62
     7
370
    25
100
AcDbCircle
 10
-22.8545359571
 20
202.3143409635
 30
0.0
 40
5.328914336627593
  0
CIRCLE
  5
166
330
1F
100
AcDbEntity
  8
0
  6
Continuous
 62
     7
370
    25
100
AcDbCircle
 10
-22.8545359571
 20
202.3143409635
 30
0.0
 40
5.925127771161403
  0
CIRCLE
  5
167
330
1F
100
AcDbEntity
  8
0
  6
Continuous
 62
     7
370
    25
100
AcDbCircle
 10
-22.8545359571
 20
202.3143409635
 30
0.0
 40
5.074569253689151
  0
CIRCLE
  5
168
330
1F
100
AcDbEntity
  8
0
  6
Continuous
 62
     7
370
    25
100
AcDbCircle
 10
-22.8545359571
 20
202.3143409635
 30
0.0
 40
7.149999999999991
  0
SPLINE
  5
169
330
1F
100
AcDbEntity
  8
0
  6
Continuous
 62
     7
370
    25
100
AcDbSpline
210
0.0
220
0.0
230
1.0
 70
     8
 71
     3
 72
    11
 73
     7
 74
     0
 42
0.00000001
 43
0.00000001
 40
0.0
 40
0.0
 40
0.0
 40
0.0
 40
0.2200386424382335
 40
0.6637869905998129
 40
0.8890365590789663
 40
1.0
 40
1.0
 40
1.0
 40
1.0
 10
-29.6146966277735
 20
196.6363242837469
 30
0.0
 10
-29.81507572269376
 20
196.9042598890385
 30
0.0
 10
-30.41955607633712
 20
197.7125368677557
 30
0.0
 10
-30.92483814893693
 20
198.983123565335
 30
0.0
 10
-31.1596211441906
 20
200.1532001990096
 30
0.0
 10
-31.13154427524598
 20
200.6641282857898
 30
0.0
 10
-31.12227781053081
 20
200.832754534588
 30
0.0
  0
SPLINE
  5
16A
330
1F
100
AcDbEntity
  8
0
  6
Continuous
 62
     7
370
    25
100
AcDbSpline
210
0.0
220
0.0
230
1.0
 70
     8
 71
     3
 72
     9
 73
     5
 74
     0
 42
0.00000001
 43
0.00000001
 40
0.0
 40
0.0
 40
0.0
 40
0.0
 40
0.9209630919903208
 40
1.0
 40
1.0
 40
1.0
 40
1.0
 10
-31.24994996529315
 20
196.9802610167217
 30
0.0
 10
-30.73640125583427
 20
196.9160227394576
 30
0.0
 10
-30.1787798767309
 20
196.8462715433211
 30
0.0
 10
-29.65601439505902
 20
196.6517024252347
 30
0.0
 10
-29.6146966277735
 20
196.6363242837469
 30
0.0
  0
SPLINE
  5
16B
330
1F
100
AcDbEntity
  8
0
  6
Continuous
 62
     7
370
    25
100
AcDbSpline
210
0.0
220
0.0
230
1.0
 70
     8
 71
     3
 72
    10
 73
     6
 74
     0
 42
0.00000001
 43
0.00000001
 40
0.0
 40
0.0
 40
0.0
 40
0.0
 40
0.2596150688488835
 40
0.629760644481066
 40
1.0
 40
1.0
 40
1.0
 40
1.0
 10
-78.38284098590026
 20
200.2517386190971
 30
0.0
 10
-74.30976662686048
 20
199.893220077503
 30
0.0
 10
-64.42951605149328
 20
199.0235445659315
 30
0.0
 10
-48.71348583637902
 20
197.9709885771009
 30
0.0
 10
-37.07162012287499
 20
197.3105314221613
 30
0.0
 10
-31.24994996529315
 20
196.9802610167217
 30
0.0
  0
SPLINE
  5
16C
330
1F
100
AcDbEntity
  8
0
  6
Continuous
 62
     7
370
    25
100
AcDbSpline
210
0.0
220
0.0
230
1.0
 70
     8
 71
     3
 72
    11
 73
     7
 74
     0
 42
0.00000001
 43
0.00000001
 40
0.0
 40
0.0
 40
0.0
 40
0.0
 40
0.0614641195413945
 40
0.4999988937835282
 40
0.9375097801832789
 40
0.9999999999999999
 40
0.9999999999999999
 40
0.9999999999999999
 40
0.9999999999999999
 10
-78.30028087207766
 20
205.9771757435898
 30
0.0
 10
-78.31362797621885
 20
205.8608991277818
 30
0.0
 10
-78.42220412366215
 20
204.9150110273631
 30
0.0
 10
-78.53181160091884
 20
203.1191605121267
 30
0.0
 10
-78.4741918864377
 20
201.318944572009
 30
0.0
 10
-78.39298965413896
 20
200.3703003310751
 30
0.0
 10
-78.38284098590026
 20
200.2517386190971
 30
0.0
  0
SPLINE
  5
16D
330
1F
100
AcDbEntity
  8
0
  6
Continuous
 62
     7
370
    25
100
AcDbSpline
210
0.0
220
0.0
230
1.0
 70
     8
 71
     3
 72
    10
 73
     6
 74
     0
 42
0.00000001
 43
0.00000001
 40
0.0
 40
0.0
 40
0.0
 40
0.0
 40
0.2594618540778876
 40
0.6296073956705975
 40
1.0
 40
1.0
 40
1.0
 40
1.0
 10
-31.09265772461342
 20
207.8882744930621
 30
0.0
 10
-35.1775149582085
 20
207.7797759314565
 30
0.0
 10
-45.08978639275229
 20
207.5164944674075
 30
0.0
 10
-60.83079182388632
 20
206.9566127174777
 30
0.0
 10
-72.47582282786688
 20
206.3037273413854
 30
0.0
 10
-78.30028087207769
 20
205.9771757435897
 30
0.0
  0
SPLINE
  5
16E
330
1F
100
AcDbEntity
  8
0
  6
Continuous
 62
     7
370
    25
100
AcDbSpline
210
0.0
220
0.0
230
1.0
 70
     8
 71
     3
 72
     9
 73
     5
 74
     0
 42
0.00000001
 43
0.00000001
 40
0.0
 40
0.0
 40
0.0
 40
0.0
 40
0.0790369080192106
 40
1.0
 40
1.0
 40
1.0
 40
1.0
 10
-29.44816730127536
 20
208.1849177159835
 30
0.0
 10
-29.48991129918649
 20
208.1707373151451
 30
0.0
 10
-30.01806958570502
 20
207.9913223912334
 30
0.0
 10
-30.57747030682997
 20
207.9376785192601
 30
0.0
 10
-31.09265772461342
 20
207.8882744930621
 30
0.0
  0
SPLINE
  5
16F
330
1F
100
AcDbEntity
  8
0
  6
Continuous
 62
     7
370
    25
100
AcDbSpline
210
0.0
220
0.0
230
1.0
 70
     8
 71
     3
 72
    11
 73
     7
 74
     0
 42
0.00000001
 43
0.00000001
 40
0.0
 40
0.0
 40
0.0
 40
0.0
 40
0.0728838064943306
 40
0.4140719411596084
 40
0.9209668754550524
 40
1.0
 40
1.0
 40
1.0
 40
1.0
 10
-31.0761205408632
 20
204.0337014938866
 30
0.0
 10
-31.08224242928209
 20
204.1442476871477
 30
0.0
 10
-31.11702247636111
 20
204.7722894845395
 30
0.0
 10
-30.75262606943397
 20
206.1501707400166
 30
0.0
 10
-30.09469285983199
 20
207.4107469635726
 30
0.0
 10
-29.52500928283397
 20
208.092904625561
 30
0.0
 10
-29.44816730127534
 20
208.1849177159836
 30
0.0
  0
SPLINE
  5
170
330
1F
100
AcDbEntity
  8
0
  6
Continuous
 62
     7
370
    25
100
AcDbSpline
210
0.0
220
0.0
230
1.0
 70
     8
 71
     3
 72
    10
 73
     6
 74
     0
 42
0.00000001
 43
0.00000001
 40
0.0
 40
0.0
 40
0.0
 40
0.0
 40
0.388020737781157
 40
0.9790637766506906
 40
1.0
 40
1.0
 40
1.0
 40
1.0
 10
-31.12227781053084
 20
200.8327545345879
 30
0.0
 10
-31.04304725533338
 20
201.2424946127267
 30
0.0
 10
-30.84313070695169
 20
202.276361180379
 30
0.0
 10
-30.92305730163331
 20
203.3713967432383
 30
0.0
 10
-31.0710573590702
 20
204.0117931024804
 30
0.0
 10
-31.0761205408632
 20
204.0337014938866
 30
0.0
  0
ARC
  5
171
330
1F
100
AcDbEntity
  8
0
  6
Continuous
 62
     7
370
    25
100
AcDbCircle
 10
-22.8545359571
 20
202.3143409635
 30
0.0
 40
8.399443654264541
100
AcDbArc
 50
190.15961701
 51
168.1881010241
  0
SPLINE
  5
172
330
1F
100
AcDbEntity
  8
0
  6
Continuous
 62
     7
370
    25
100
AcDbSpline
210
0.0
220
0.0
230
1.0
 70
     8
 71
     3
 72
     9
 73
     5
 74
     0
 42
0.00000001
 43
0.00000001
 40
0.0
 40
0.0
 40
0.0
 40
0.0
 40
0.6817923421274731
 40
0.9999999999999999
 40
0.9999999999999999
 40
0.9999999999999999
 40
0.9999999999999999
 10
-29.44816730127536
 20
208.1849177159835
 30
0.0
 10
-29.30318032918186
 20
208.3727571196935
 30
0.0
 10
-29.09052471084331
 20
208.6482653530713
 30
0.0
 10
-28.85776462193912
 20
208.8778375665489
 30
0.0
 10
-28.78369857920271
 20
208.9508892029122
 30
0.0
  0
ARC
  5
173
330
1F
100
AcDbEntity
  8
0
  6
Continuous
 62
     7
370
    25
100
AcDbCircle
 10
-22.8545359571
 20
202.3143409635
 30
0.0
 40
8.899367501836318
100
AcDbArc
 50
226.5697782131
 51
131.7779398209
  0
LINE
  5
174
330
1F
100
AcDbEntity
  8
0
  6
Continuous
 62
     7
370
    25
100
AcDbLine
 10
-28.9725900189
 20
195.8515121379
 30
0.0
 11
-29.6146966278
 21
196.6363242837
 31
0.0
  0
SPLINE
  5
175
330
1F
100
AcDbEntity
  8
0
  6
Continuous
 62
     7
370
    25
100
AcDbSpline
210
0.0
220
0.0
230
1.0
 70
     8
 71
     3
 72
    10
 73
     6
 74
     0
 42
0.00000001
 43
0.00000001
 40
0.0
 40
0.0
 40
0.0
 40
0.0
 40
0.3702896688583039
 40
0.7405318123903298
 40
0.9999999999999999
 40
0.9999999999999999
 40
0.9999999999999999
 40
0.9999999999999999
 10
-78.30541381980727
 20
206.4201553810622
 30
0.0
 10
-72.48133833477772
 20
206.6563972158834
 30
0.0
 10
-60.83393486353108
 20
207.1288505647489
 30
0.0
 10
-45.10416748565396
 20
207.771353911877
 30
0.0
 10
-35.20011052674021
 20
208.1773366525771
 30
0.0
 10
-31.11920605046592
 20
208.3446192914683
 30
0.0
  0
ARC
  5
176
330
1F
100
AcDbEntity
  8
0
  6
Continuous
 62
     7
370
    25
100
AcDbCircle
 10
-38.3444078589
 20
207.6953411419
 30
0.0
 40
7.254316183361066
100
AcDbArc
 50
1.5239989618
 51
5.1349767483
  0
ARC
  5
177
330
1F
100
AcDbEntity
  8
0
  6
Continuous
 62
     7
370
    25
100
AcDbCircle
 10
-74.0469310951
 20
206.2479802346
 30
0.0
 40
4.261961918884539
100
AcDbArc
 50
177.6847295556
 51
183.6430203235
  0
SPLINE
  5
178
330
1F
100
AcDbEntity
  8
0
  6
Continuous
 62
     7
370
    25
100
AcDbSpline
210
0.0
220
0.0
230
1.0
 70
     8
 71
     3
 72
    10
 73
     6
 74
     0
 42
0.00000001
 43
0.00000001
 40
0.0
 40
0.0
 40
0.0
 40
0.0
 40
0.3702717503651156
 40
0.7405122151371757
 40
1.0
 40
1.0
 40
1.0
 40
1.0
 10
-31.2896453909596
 20
196.5248714452345
 30
0.0
 10
-37.10406215778028
 20
196.9312766508545
 30
0.0
 10
-48.73240441041887
 20
197.7440527234555
 30
0.0
 10
-64.43738308787297
 20
198.8394214349918
 30
0.0
 10
-74.32600727343188
 20
199.526125676155
 30
0.0
 10
-78.40074456962176
 20
199.8090911656318
 30
0.0
  0
ARC
  5
179
330
1F
100
AcDbEntity
  8
0
  6
Continuous
 62
     7
370
    25
100
AcDbCircle
 10
-74.1390679739
 20
199.8584066407
 30
0.0
 40
4.261961921815196
100
AcDbArc
 50
174.704697713
 51
180.6629884768
  0
ARC
  5
17A
330
1F
100
AcDbEntity
  8
0
  6
Continuous
 62
     7
370
    25
100
AcDbCircle
 10
-38.4931219767
 20
197.3822093996
 30
0.0
 40
7.25431618348581
100
AcDbArc
 50
353.2127412857
 51
356.8237190721
  0
SPLINE
  5
17B
330
1F
100
AcDbEntity
  8
0
  6
Continuous
 62
     7
370
    25
100
AcDbSpline
210
0.0
220
0.0
230
1.0
 70
     8
 71
     3
 72
    12
 73
     8
 74
     0
 42
0.00000001
 43
0.00000001
 40
0.0
 40
0.0
 40
0.0
 40
0.0
 40
0.1224290494151393
 40
0.3423522449770478
 40
0.5614228816909417
 40
0.7807229538533513
 40
1.0
 40
1.0
 40
1.0
 40
1.0
 10
-80.31677145420541
 20
200.3903115390284
 30
0.0
 10
-80.30780232272733
 20
200.3878232755804
 30
0.0
 10
-80.28272165509436
 20
200.3808652653563
 30
0.0
 10
-80.06700165077632
 20
200.3607448729679
 30
0.0
 10
-79.63151665970331
 20
200.3289516055396
 30
0.0
 10
-79.04807784010451
 20
200.2909832331887
 30
0.0
 10
-78.60457884249416
 20
200.2648196992515
 30
0.0
 10
-78.38284098590026
 20
200.2517386190971
 30
0.0
  0
SPLINE
  5
17C
330
1F
100
AcDbEntity
  8
0
  6
Continuous
 62
     7
370
    25
100
AcDbSpline
210
0.0
220
0.0
230
1.0
 70
     8
 71
     3
 72
    11
 73
     7
 74
     0
 42
0.00000001
 43
0.00000001
 40
0.0
 40
0.0
 40
0.0
 40
0.0
 40
0.0800485240044458
 40
0.5000005853538747
 40
0.920924832227965
 40
1.0
 40
1.0
 40
1.0
 40
1.0
 10
-80.31677145420541
 20
200.3903115390284
 30
0.0
 10
-80.31437663176175
 20
200.5365366348032
 30
0.0
 10
-80.29941804709664
 20
201.4498905584399
 30
0.0
 10
-80.27375183635488
 20
203.1441061951467
 30
0.0
 10
-80.25058446759273
 20
204.836574943615
 30
0.0
 10
-80.2392028409381
 20
205.7499691621931
 30
0.0
 10
-80.23740283075637
 20
205.8944229334584
 30
0.0
  0
SPLINE
  5
17D
330
1F
100
AcDbEntity
  8
0
  6
Continuous
 62
     7
370
    25
100
AcDbSpline
210
0.0
220
0.0
230
1.0
 70
     8
 71
     3
 72
    12
 73
     8
 74
     0
 42
0.00000001
 43
0.00000001
 40
0.0
 40
0.0
 40
0.0
 40
0.0
 40
0.1130367476169285
 40
0.3328594693547987
 40
0.5544127937945039
 40
0.7774207483513282
 40
0.9999999999999999
 40
0.9999999999999999
 40
0.9999999999999999
 40
0.9999999999999999
 10
-78.30028087207766
 20
205.9771757435898
 30
0.0
 10
-78.41441216609333
 20
205.973805736013
 30
0.0
 10
-78.75049474776466
 20
205.963882069972
 30
0.0
 10
-79.2848760858105
 20
205.9459929198092
 30
0.0
 10
-79.80174994687717
 20
205.9255680178259
 30
0.0
 10
-80.15894555859143
 20
205.9072744248975
 30
0.0
 10
-80.21126718638274
 20
205.8987040153856
 30
0.0
 10
-80.23740283075637
 20
205.8944229334584
 30
0.0
  0
SPLINE
  5
17E
330
1F
100
AcDbEntity
  8
0
  6
Continuous
 62
     7
370
    25
100
AcDbSpline
210
0.0
220
0.0
230
1.0
 70
     8
 71
     3
 72
     9
 73
     5
 74
     0
 42
0.00000001
 43
0.00000001
 40
0.0
 40
0.0
 40
0.0
 40
0.0
 40
0.5000106123815461
 40
1.0
 40
1.0
 40
1.0
 40
1.0
 10
-28.47926041810442
 20
195.4125218015385
 30
0.0
 10
-28.90478692084455
 20
195.7065283047626
 30
0.0
 10
-29.75582186330966
 20
196.2945288310389
 30
0.0
 10
-30.7783781162477
 20
196.4480916602808
 30
0.0
 10
-31.2896453909596
 20
196.5248714452345
 30
0.0
  0
SPLINE
  5
17F
330
1F
100
AcDbEntity
  8
0
  6
Continuous
 62
     7
370
    25
100
AcDbSpline
210
0.0
220
0.0
230
1.0
 70
     8
 71
     3
 72
     9
 73
     5
 74
     0
 42
0.00000001
 43
0.00000001
 40
0.0
 40
0.0
 40
0.0
 40
0.0
 40
0.9838702326459399
 40
1.0
 40
1.0
 40
1.0
 40
1.0
 10
-28.97259001892585
 20
195.851512137897
 30
0.0
 10
-28.81335422426723
 20
195.7043685069644
 30
0.0
 10
-28.65150788582235
 20
195.5548125736206
 30
0.0
 10
-28.48199462752418
 20
195.4147804865254
 30
0.0
 10
-28.47926041810442
 20
195.4125218015385
 30
0.0
  0
SPLINE
  5
180
330
1F
100
AcDbEntity
  8
0
  6
Continuous
 62
     7
370
    25
100
AcDbSpline
210
0.0
220
0.0
230
1.0
 70
     8
 71
     3
 72
     9
 73
     5
 74
     0
 42
0.00000001
 43
0.00000001
 40
0.0
 40
0.0
 40
0.0
 40
0.0
 40
0.5055561057107382
 40
1.0
 40
1.0
 40
1.0
 40
1.0
 10
-31.11920605046592
 20
208.3446192914683
 30
0.0
 10
-30.60018163995537
 20
208.407798401721
 30
0.0
 10
-29.57354106604554
 20
208.5327679343581
 30
0.0
 10
-28.70657997106293
 20
209.09665965079
 30
0.0
 10
-28.27791635106247
 20
209.37547246702
 30
0.0
  0
SPLINE
  5
181
330
1F
100
AcDbEntity
  8
0
  6
Continuous
 62
     7
370
    25
100
AcDbSpline
210
0.0
220
0.0
230
1.0
 70
     8
 71
     3
 72
     9
 73
     5
 74
     0
 42
0.00000001
 43
0.00000001
 40
0.0
 40
0.0
 40
0.0
 40
0.0
 40
0.0161297673532551
 40
1.0
 40
1.0
 40
1.0
 40
1.0
 10
-28.2779163510625
 20
209.3754724670199
 30
0.0
 10
-28.28071455004333
 20
209.3732935586959
 30
0.0
 10
-28.45419498032858
 20
209.2382073992797
 30
0.0
 10
-28.62028628683233
 20
209.0933802872846
 30
0.0
 10
-28.78369857920271
 20
208.9508892029122
 30
0.0
  0
SPLINE
  5
182
330
1F
100
AcDbEntity
  8
0
  6
Continuous
 62
     7
370
    25
100
AcDbSpline
210
0.0
220
0.0
230
1.0
 70
     8
 71
     3
 72
    12
 73
     8
 74
     0
 42
0.00000001
 43
0.00000001
 40
0.0
 40
0.0
 40
0.0
 40
0.0
 40
0.2230315344150385
 40
0.4461337558340378
 40
0.6675099896776946
 40
0.8870667292264961
 40
1.0
 40
1.0
 40
1.0
 40
1.0
 10
-79.75790054386717
 20
206.386723532798
 30
0.0
 10
-79.73839604258822
 20
206.3845518364316
 30
0.0
 10
-79.69938085832703
 20
206.3802077554073
 30
0.0
 10
-79.43171938777802
 20
206.3832916672918
 30
0.0
 10
-79.04400582212315
 20
206.3932913274874
 30
0.0
 10
-78.64304655256072
 20
206.4068488334961
 30
0.0
 10
-78.39101771715235
 20
206.416781619512
 30
0.0
 10
-78.30541381980727
 20
206.4201553810622
 30
0.0
  0
ARC
  5
183
330
1F
100
AcDbEntity
  8
0
  6
Continuous
 62
     7
370
    25
100
AcDbCircle
 10
-79.7373573306
 20
205.8870457349
 30
0.0
 40
0.5000999153469268
100
AcDbArc
 50
92.3542709417
 51
179.1547735553
  0
SPLINE
  5
184
330
1F
100
AcDbEntity
  8
0
  6
Continuous
 62
     7
370
    25
100
AcDbSpline
210
0.0
220
0.0
230
1.0
 70
     8
 71
     3
 72
    12
 73
     8
 74
     0
 42
0.00000001
 43
0.00000001
 40
0.0
 40
0.0
 40
0.0
 40
0.0
 40
0.2190444340109369
 40
0.4380981679380286
 40
0.6571027493691893
 40
0.8772791087290092
 40
1.0
 40
1.0
 40
1.0
 40
1.0
 10
-78.40074456962176
 20
199.8090911656318
 30
0.0
 10
-78.56701771404087
 20
199.8203185351525
 30
0.0
 10
-78.89957106229747
 20
199.8427737508718
 30
0.0
 10
-79.33740253325031
 20
199.8686077465269
 30
0.0
 10
-79.66417136073794
 20
199.8846266726602
 30
0.0
 10
-79.82597211681613
 20
199.8887838777651
 30
0.0
 10
-79.84489207341791
 20
199.8855479071959
 30
0.0
 10
-79.85166341361588
 20
199.8843897725314
 30
0.0
  0
ARC
  5
185
330
1F
100
AcDbEntity
  8
0
  6
Continuous
 62
     7
370
    25
100
AcDbCircle
 10
-79.8167211502
 20
200.3832674765
 30
0.0
 40
0.5000999153471217
100
AcDbArc
 50
179.1929444794
 51
265.9934470922
  0
LINE
  5
186
330
1F
100
AcDbEntity
  8
0
  6
Continuous
 62
     7
370
    25
100
AcDbLine
 10
-31.1192060505
 20
208.3446192915
 30
0.0
 11
-31.1451615366
 21
208.4162912532
 31
0.0
  0
LINE
  5
187
330
1F
100
AcDbEntity
  8
0
  6
Continuous
 62
     7
370
    25
100
AcDbLine
 10
-79.7625264217
 20
206.3912291519
 30
0.0
 11
-79.7579005439
 21
206.3867235328
 31
0.0
  0
ELLIPSE
  5
188
330
1F
100
AcDbEntity
  8
0
  6
Continuous
 62
     7
370
    25
100
AcDbEllipse
 10
-78.2617098383
 20
206.4528886667
 30
0.0
 11
1.501038268487989
 21
0.06123645790350452
 31
0.0
210
0.0
220
0.0
230
1.0
 40
0.0174284859
 41
2.255125316697919
 42
3.158083049611329
  0
LINE
  5
189
330
1F
100
AcDbEntity
  8
0
  6
Continuous
 62
     7
370
    25
100
AcDbLine
 10
-75.7433466929
 20
206.6253554643
 30
0.0
 11
-79.2114229807
 21
206.4344483844
 31
0.0
  0
LINE
  5
18A
330
1F
100
AcDbEntity
  8
0
  6
Continuous
 62
     7
370
    25
100
AcDbLine
 10
-75.7433481115
 20
206.6252570833
 30
0.0
 11
-75.7433466929
 21
206.6253554643
 31
0.0
  0
ELLIPSE
  5
18B
330
1F
100
AcDbEntity
  8
0
  6
Continuous
 62
     7
370
    25
100
AcDbEllipse
 10
-66.2900910048
 20
206.8186225761
 30
0.0
 11
14.5100365953838
 21
0.5919524264004677
 31
0.0
210
0.0
220
0.0
230
1.0
 40
0.0174284859
 41
1.543516838852417
 42
2.279642175407843
  0
ELLIPSE
  5
18C
330
1F
100
AcDbEntity
  8
0
  6
Continuous
 62
     7
370
    25
100
AcDbEllipse
 10
-64.9555168587
 20
207.7497605194
 30
0.0
 11
35.727354215734
 21
1.457535539476197
 31
0.0
210
0.0
220
0.0
230
1.0
 40
0.0174284859
 41
4.685109492442214
 42
5.167309992308014
  0
ELLIPSE
  5
18D
330
1F
100
AcDbEntity
  8
0
  6
Continuous
 62
     7
370
    25
100
AcDbEllipse
 10
-45.931897196
 20
207.8478769893
 30
0.0
 11
7.505191342439907
 21
0.3061822895174657
 31
0.0
210
0.0
220
0.0
230
1.0
 40
0.0174284859
 41
1.834826681008022
 42
2.025717338717957
  0
LINE
  5
18E
330
1F
100
AcDbEntity
  8
0
  6
Continuous
 62
     7
370
    25
100
AcDbLine
 10
-47.8782556426
 20
207.7435850338
 30
0.0
 11
-47.8957034725
 21
207.8942428087
 31
0.0
  0
SPLINE
  5
18F
330
1F
100
AcDbEntity
  8
0
  6
Continuous
 62
     7
370
    25
100
AcDbSpline
210
0.0
220
0.0
230
1.0
 70
     8
 71
     3
 72
    10
 73
     6
 74
     0
 42
0.00000001
 43
0.00000001
 40
0.0
 40
0.0
 40
0.0
 40
0.0
 40
0.0186368637457265
 40
0.3939469944632983
 40
1.0
 40
1.0
 40
1.0
 40
1.0
 10
-47.69449644731161
 20
207.7414216661579
 30
0.0
 10
-47.69695366445667
 20
207.7413693393312
 30
0.0
 10
-47.74889444817737
 20
207.7402632521498
 30
0.0
 10
-47.85292112694031
 20
207.7390830443371
 30
0.0
 10
-47.86858328322932
 20
207.7418662379795
 30
0.0
 10
-47.87825564256454
 20
207.7435850338151
 30
0.0
  0
LINE
  5
190
330
1F
100
AcDbEntity
  8
0
  6
Continuous
 62
     7
370
    25
100
AcDbLine
 10
-31.1451615366
 20
208.4162912532
 30
0.0
 11
-47.6944964473
 21
207.7414216662
 31
0.0
  0
LINE
  5
191
330
1F
100
AcDbEntity
  8
0
  6
Continuous
 62
     7
370
    25
100
AcDbLine
 10
-47.8429508133
 20
197.5895740992
 30
0.0
 11
-31.3239278792
 21
196.438082379
 31
0.0
  0
SPLINE
  5
192
330
1F
100
AcDbEntity
  8
0
  6
Continuous
 62
     7
370
    25
100
AcDbSpline
210
0.0
220
0.0
230
1.0
 70
     8
 71
     3
 72
    11
 73
     7
 74
     0
 42
0.00000001
 43
0.00000001
 40
0.0
 40
0.0
 40
0.0
 40
0.0
 40
0.4177469294495242
 40
0.8392770662410461
 40
0.9817832068819345
 40
1.0
 40
1.0
 40
1.0
 40
1.0
 10
-48.02661770092395
 20
197.5935721391902
 30
0.0
 10
-48.02196553704955
 20
197.5945883593407
 30
0.0
 10
-48.01261907828969
 20
197.5966300027531
 30
0.0
 10
-47.93714779386008
 20
197.5943394140504
 30
0.0
 10
-47.86693051785737
 20
197.5908561052071
 30
0.0
 10
-47.84539204492793
 20
197.5897046126518
 30
0.0
 10
-47.8429508133236
 20
197.5895740992201
 30
0.0
  0
LINE
  5
193
330
1F
100
AcDbEntity
  8
0
  6
Continuous
 62
     7
370
    25
100
AcDbLine
 10
-48.0461814419
 20
197.4587902323
 30
0.0
 11
-48.0266177009
 21
197.5935721392
 31
0.0
  0
ELLIPSE
  5
194
330
1F
100
AcDbEntity
  8
0
  6
Continuous
 62
     7
370
    25
100
AcDbEllipse
 10
-46.0818547745
 20
197.4485128477
 30
0.0
 11
7.493242450720749
 21
-0.5224578985576045
 31
0.0
210
0.0
220
0.0
230
1.0
 40
0.0174284859
 41
4.257467968461579
 42
4.448358626171657
  0
ELLIPSE
  5
195
330
1F
100
AcDbEntity
  8
0
  6
Continuous
 62
     7
370
    25
100
AcDbEllipse
 10
-65.094735741
 20
198.095111076
 30
0.0
 11
35.6704732825963
 21
-2.487083613581405
 31
0.0
210
0.0
220
0.0
230
1.0
 40
0.0174284859
 41
1.115875314871824
 42
1.598075814737375
  0
ELLIPSE
  5
196
330
1F
100
AcDbEntity
  8
0
  6
Continuous
 62
     7
370
    25
100
AcDbEllipse
 10
-66.4019067873
 20
199.0643426668
 30
0.0
 11
14.48693540472678
 21
-1.010085270544693
 31
0.0
210
0.0
220
0.0
230
1.0
 40
0.0174284859
 41
4.003543131771803
 42
4.739668468327171
  0
LINE
  5
197
330
1F
100
AcDbEntity
  8
0
  6
Continuous
 62
     7
370
    25
100
AcDbLine
 10
-75.8456593881
 20
199.5301023624
 30
0.0
 11
-75.8456579695
 21
199.5302007434
 31
0.0
  0
LINE
  5
198
330
1F
100
AcDbEntity
  8
0
  6
Continuous
 62
     7
370
    25
100
AcDbLine
 10
-79.3067891516
 20
199.820927759
 30
0.0
 11
-75.8456593881
 21
199.5301023624
 31
0.0
  0
ELLIPSE
  5
199
330
1F
100
AcDbEntity
  8
0
  6
Continuous
 62
     7
370
    25
100
AcDbEllipse
 10
-78.3580025832
 20
199.7751113396
 30
0.0
 11
1.498648490144149
 21
-0.1044915797114925
 31
0.0
210
0.0
220
0.0
230
1.0
 40
0.0174284859
 41
3.125102257563749
 42
4.028059990482535
  0
LINE
  5
19A
330
1F
100
AcDbEntity
  8
0
  6
Continuous
 62
     7
370
    25
100
AcDbLine
 10
-79.8516634136
 20
199.8843897725
 30
0.0
 11
-79.856417282
 21
199.8800194082
 31
0.0
  0
LINE
  5
19B
330
1F
100
AcDbEntity
  8
0
  6
Continuous
 62
     7
370
    25
100
AcDbLine
 10
-31.3239278792
 20
196.438082379
 30
0.0
 11
-31.289645391
 21
196.5248714452
 31
0.0
  0
SPLINE
  5
19C
330
1F
100
AcDbEntity
  8
0
  6
Continuous
 62
     7
370
    25
100
AcDbSpline
210
0.0
220
0.0
230
1.0
 70
     8
 71
     3
 72
     9
 73
     5
 74
     0
 42
0.00000001
 43
0.00000001
 40
0.0
 40
0.0
 40
0.0
 40
0.0
 40
0.5001021276704701
 40
1.0
 40
1.0
 40
1.0
 40
1.0
 10
-28.3101845997227
 20
209.4416360475921
 30
0.0
 10
-28.74321902185003
 20
209.1613249302121
 30
0.0
 10
-29.60911100304287
 20
208.6008171821529
 30
0.0
 10
-30.63321441828998
 20
208.4777915199856
 30
0.0
 10
-31.14516153661739
 20
208.4162912532263
 30
0.0
  0
LINE
  5
19D
330
1F
100
AcDbEntity
  8
0
  6
Continuous
 62
     7
370
    25
100
AcDbLine
 10
-28.3101845997
 20
209.4416360476
 30
0.0
 11
-28.2779163511
 21
209.375472467
 31
0.0
  0
SPLINE
  5
19E
330
1F
100
AcDbEntity
  8
0
  6
Continuous
 62
     7
370
    25
100
AcDbSpline
210
0.0
220
0.0
230
1.0
 70
     8
 71
     3
 72
     9
 73
     5
 74
     0
 42
0.00000001
 43
0.00000001
 40
0.0
 40
0.0
 40
0.0
 40
0.0
 40
0.4007227371565279
 40
1.0
 40
1.0
 40
1.0
 40
1.0
 10
-31.32392787917163
 20
196.4380823790127
 30
0.0
 10
-30.91598219311739
 20
196.3837875568127
 30
0.0
 10
-29.89795738886261
 20
196.2482953145073
 30
0.0
 10
-29.03704752556635
 20
195.6757155952587
 30
0.0
 10
-28.52112381913521
 20
195.3325815883476
 30
0.0
  0
LINE
  5
19F
330
1F
100
AcDbEntity
  8
0
  6
Continuous
 62
     7
370
    25
100
AcDbLine
 10
-28.4792604181
 20
195.4125218015
 30
0.0
 11
-28.5211238191
 21
195.3325815883
 31
0.0
  0
ARC
  5
1A0
330
1F
100
AcDbEntity
  8
0
  6
Continuous
 62
     7
370
    25
100
AcDbCircle
 10
-22.8545359571
 20
202.3143409635
 30
0.0
 40
8.975658044222158
100
AcDbArc
 50
64.3387444117
 51
127.4325569999
  0
LWPOLYLINE
  5
1A1
330
1F
100
AcDbEntity
  8
0
  6
Continuous
 62
     7
370
    25
100
AcDbPolyline
 90
        3
 70
   128
 43
0.0
 10
-18.8006704574
 20
210.5074021819
 10
-18.9061964028
 20
210.4426645544
 10
-18.9676302803
 20
210.4047304218
  0
ARC
  5
1A2
330
1F
100
AcDbEntity
  8
0
  6
Continuous
 62
     7
370
    25
100
AcDbCircle
 10
-22.8545359571
 20
202.3143409635
 30
0.0
 40
9.14112015109215
100
AcDbArc
 50
294.6735754346
 51
63.6741384459
  0
LWPOLYLINE
  5
1A3
330
1F
100
AcDbEntity
  8
0
  6
Continuous
 62
     7
370
    25
100
AcDbPolyline
 90
        3
 70
   128
 43
0.0
 10
-19.186381575
 20
194.1046012965
 10
-19.1422082023
 20
194.0755514727
 10
-19.0385927617
 20
194.0077980514
  0
ARC
  5
1A4
330
1F
100
AcDbEntity
  8
0
  6
Continuous
 62
     7
370
    25
100
AcDbCircle
 10
-22.8545359571
 20
202.3143409635
 30
0.0
 40
8.991950954660705
100
AcDbArc
 50
230.936266164
 51
294.0753401836
  0
LINE
  5
1A5
330
1F
100
AcDbEntity
  8
0
  6
Continuous
 62
     7
370
    25
100
AcDbLine
 10
-80.3215253226
 20
200.3859411747
 30
0.0
 11
-80.3167714542
 21
200.390311539
 31
0.0
  0
LINE
  5
1A6
330
1F
100
AcDbEntity
  8
0
  6
Continuous
 62
     7
370
    25
100
AcDbLine
 10
-80.2420287086
 20
205.8989285526
 30
0.0
 11
-80.3215253226
 21
200.3859411747
 31
0.0
  0
LINE
  5
1A7
330
1F
100
AcDbEntity
  8
0
  6
Continuous
 62
     7
370
    25
100
AcDbLine
 10
-80.2374028308
 20
205.8944229335
 30
0.0
 11
-80.2420287086
 21
205.8989285526
 31
0.0
  0
ARC
  5
1A8
330
1F
100
AcDbEntity
  8
0
  6
Continuous
 62
     7
370
    25
100
AcDbCircle
 10
-79.8214750186
 20
200.3788971123
 30
0.0
 40
0.5000999153470889
100
AcDbArc
 50
179.1929444787
 51
265.9934470923
  0
ARC
  5
1A9
330
1F
100
AcDbEntity
  8
0
  6
Continuous
 62
     7
370
    25
100
AcDbCircle
 10
-79.7419832084
 20
205.891551354
 30
0.0
 40
0.5000999153471473
100
AcDbArc
 50
92.3542709417
 51
179.1547735553
  0
LINE
  5
1AA
330
1F
100
AcDbEntity
  8
0
  6
Continuous
 62
     7
370
    25
100
AcDbLine
 10
-79.3067891516
 20
199.820927759
 30
0.0
 11
-79.3138908515
 21
199.8213972395
 31
0.0
  0
LINE
  5
1AB
330
1F
100
AcDbEntity
  8
0
  6
Continuous
 62
     7
370
    25
100
AcDbLine
 10
-79.2114229807
 20
206.4344483844
 30
0.0
 11
-79.2185352647
 21
206.4341838679
 31
0.0
  0
SPLINE
  5
1AC
330
1F
100
AcDbEntity
  8
0
  6
Continuous
 62
     7
370
    25
100
AcDbSpline
210
0.0
220
0.0
230
1.0
 70
     8
 71
     3
 72
    11
 73
     7
 74
     0
 42
0.00000001
 43
0.00000001
 40
0.0
 40
0.0
 40
0.0
 40
0.0
 40
0.134599067676596
 40
0.4126978815969504
 40
0.6969472592954593
 40
1.0
 40
1.0
 40
1.0
 40
1.0
 10
-18.96684012471323
 20
210.4055257288095
 30
0.0
 10
-19.3933492819818
 20
210.6025796691449
 30
0.0
 10
-20.70108067065202
 20
211.2067721434359
 30
0.0
 10
-23.06766877660466
 20
211.8634306553604
 30
0.0
 10
-26.11561217072175
 20
212.2839234561587
 30
0.0
 10
-28.30602298696733
 20
212.3426530663127
 30
0.0
 10
-29.43629304786397
 20
212.3729580299078
 30
0.0
  0
ARC
  5
1AD
330
1F
100
AcDbEntity
  8
0
  6
Continuous
 62
     7
370
    25
100
AcDbCircle
 10
-24.9531659136
 20
211.6884233944
 30
0.0
 40
4.535087272520981
100
AcDbArc
 50
148.2023216577
 51
171.3184857153
  0
SPLINE
  5
1AE
330
1F
100
AcDbEntity
  8
0
  6
Continuous
 62
     7
370
    25
100
AcDbSpline
210
0.0
220
0.0
230
1.0
 70
     8
 71
     3
 72
    12
 73
     8
 74
     0
 42
0.00000001
 43
0.00000001
 40
0.0
 40
0.0
 40
0.0
 40
0.0
 40
0.1662426524176553
 40
0.3368059756191315
 40
0.6054181071254588
 40
0.8801435087136193
 40
1.0
 40
1.0
 40
1.0
 40
1.0
 10
-28.80760028106472
 20
214.0780577338159
 30
0.0
 10
-28.1722268921247
 20
213.9133943861786
 30
0.0
 10
-26.88496666719312
 20
213.579788066482
 30
0.0
 10
-24.71056621479176
 20
212.8853994462675
 30
0.0
 10
-22.36112466973495
 20
211.9992372702387
 30
0.0
 10
-20.40794076697822
 20
211.1283563144
 30
0.0
 10
-19.30203660207383
 20
210.5744953005336
 30
0.0
 10
-18.96611193016659
 20
210.4062568714998
 30
0.0
  0
LINE
  5
1AF
330
1F
100
AcDbEntity
  8
0
  6
Continuous
 62
     7
370
    25
100
AcDbLine
 10
-18.9661119302
 20
210.4062568715
 30
0.0
 11
-18.9668401247
 21
210.4055257288
 31
0.0
  0
LINE
  5
1B0
330
1F
100
AcDbEntity
  8
0
  6
Continuous
 62
     7
370
    25
100
AcDbLine
 10
-28.8076002811
 20
214.0780577338
 30
0.0
 11
-28.7907421568
 21
214.1472953958
 31
0.0
  0
ARC
  5
1B1
330
1F
100
AcDbEntity
  8
0
  6
Continuous
 62
     7
370
    25
100
AcDbCircle
 10
-40.1886607708
 20
167.3351339764
 30
0.0
 40
48.17977797259064
100
AcDbArc
 50
63.6457069293
 51
76.3157780851
  0
LWPOLYLINE
  5
1B2
330
1F
100
AcDbEntity
  8
0
  6
Continuous
 62
     7
370
    25
100
AcDbPolyline
 90
        3
 70
   128
 43
0.0
 10
-18.9661119302
 20
210.4062568715
 10
-18.9061892222
 20
210.4429203978
 10
-18.8006704355
 20
210.5074037208
  0
LINE
  5
1B3
330
1F
100
AcDbEntity
  8
0
  6
Continuous
 62
     7
370
    25
100
AcDbLine
 10
-28.3101845997
 20
209.4416360476
 30
0.0
 11
-30.4676423386
 21
212.2601529543
 31
0.0
  0
ARC
  5
1B4
330
1F
100
AcDbEntity
  8
0
  6
Continuous
 62
     7
370
    25
100
AcDbCircle
 10
-22.8545359571
 20
202.3143409635
 30
0.0
 40
12.52511736202726
100
AcDbArc
 50
127.0321658872
 51
127.4325569999
  0
LINE
  5
1B5
330
1F
100
AcDbEntity
  8
0
  6
Continuous
 62
     7
370
    25
100
AcDbLine
 10
-29.4362930479
 20
212.3729580299
 30
0.0
 11
-30.3979542567
 21
212.3131111524
 31
0.0
  0
LINE
  5
1B6
330
1F
100
AcDbEntity
  8
0
  6
Continuous
 62
     7
370
    25
100
AcDbLine
 10
-18.9676302803
 20
210.4047304218
 30
0.0
 11
-18.9668401247
 21
210.4055257288
 31
0.0
  0
LINE
  5
1B7
330
1F
100
AcDbEntity
  8
0
  6
Continuous
 62
     7
370
    25
100
AcDbLine
 10
-33.3913222639
 20
211.8771038616
 30
0.0
 11
-31.2897856503
 21
211.962802964
 31
0.0
  0
LINE
  5
1B8
330
1F
100
AcDbEntity
  8
0
  6
Continuous
 62
     7
370
    25
100
AcDbLine
 10
-31.1451615366
 20
208.4162912532
 30
0.0
 11
-31.2897856503
 21
211.962802964
 31
0.0
  0
SPLINE
  5
1B9
330
1F
100
AcDbEntity
  8
0
  6
Continuous
 62
     7
370
    25
100
AcDbSpline
210
0.0
220
0.0
230
1.0
 70
     8
 71
     3
 72
    16
 73
    12
 74
     0
 42
0.00000001
 43
0.00000001
 40
0.0
 40
0.0
 40
0.0
 40
0.0
 40
0.2861254310575664
 40
0.7591203623085437
 40
0.8520758313858456
 40
0.9266344548631272
 40
0.9604862301433729
 40
0.9835335436569244
 40
0.9930756629548354
 40
0.9972242292023619
 40
1.0
 40
1.0
 40
1.0
 40
1.0
 10
-34.83939817129511
 20
211.3737867692851
 30
0.0
 10
-36.07506005446534
 20
210.8614824491189
 30
0.0
 10
-39.35339883398578
 20
209.5022861005126
 30
0.0
 10
-43.16526072989868
 20
208.5393348742918
 30
0.0
 10
-45.97073354174574
 20
208.0178108187836
 30
0.0
 10
-46.83800422593335
 20
207.8757981794665
 30
0.0
 10
-47.36481208450527
 20
207.7948648168108
 30
0.0
 10
-47.59901394794772
 20
207.7591285299754
 30
0.0
 10
-47.67686249411918
 20
207.7459296389469
 30
0.0
 10
-47.69299631192683
 20
207.7424281598705
 30
0.0
 10
-47.69406717043537
 20
207.741709683147
 30
0.0
 10
-47.69449644731161
 20
207.7414216661579
 30
0.0
  0
LINE
  5
1BA
330
1F
100
AcDbEntity
  8
0
  6
Continuous
 62
     7
370
    25
100
AcDbLine
 10
-33.3913222639
 20
211.8771038616
 30
0.0
 11
-34.8393981713
 21
211.3737867693
 31
0.0
  0
ARC
  5
1BB
330
1F
100
AcDbEntity
  8
0
  6
Continuous
 62
     7
370
    25
100
AcDbCircle
 10
-40.6942651059
 20
207.8487356584
 30
0.0
 40
6.834138728217376
100
AcDbArc
 50
31.0509661473
 51
46.1226597598
  0
SPLINE
  5
1BC
330
1F
100
AcDbEntity
  8
0
  6
Continuous
 62
     7
370
    25
100
AcDbSpline
210
0.0
220
0.0
230
1.0
 70
     8
 71
     3
 72
    10
 73
     6
 74
     0
 42
0.00000001
 43
0.00000001
 40
0.0
 40
0.0
 40
0.0
 40
0.0
 40
0.5975855365574619
 40
0.9790563563181734
 40
1.0
 40
1.0
 40
1.0
 40
1.0
 10
-47.80437873475979
 20
207.7521340016911
 30
0.0
 10
-47.80695152686601
 20
207.7484314145753
 30
0.0
 10
-47.81116666982202
 20
207.7423652680093
 30
0.0
 10
-47.7368087035322
 20
207.7409164370886
 30
0.0
 10
-47.69658964643253
 20
207.7413966723348
 30
0.0
 10
-47.69449644731161
 20
207.7414216661579
 30
0.0
  0
SPLINE
  5
1BD
330
1F
100
AcDbEntity
  8
0
  6
Continuous
 62
     7
370
    25
100
AcDbSpline
210
0.0
220
0.0
230
1.0
 70
     8
 71
     3
 72
    14
 73
    10
 74
     0
 42
0.00000001
 43
0.00000001
 40
0.0
 40
0.0
 40
0.0
 40
0.0
 40
0.0129036569231479
 40
0.0519665716781168
 40
0.1318891824261215
 40
0.2280032005552161
 40
0.4679440229400844
 40
0.7079115564493639
 40
0.9999999999999999
 40
0.9999999999999999
 40
0.9999999999999999
 40
0.9999999999999999
 10
-47.80437873475979
 20
207.7521340016911
 30
0.0
 10
-47.77080052554047
 20
207.759495597591
 30
0.0
 10
-47.63557185148218
 20
207.7891427668609
 30
0.0
 10
-47.19486788574842
 20
207.8851805597893
 30
0.0
 10
-46.38060651361575
 20
208.0758615595561
 30
0.0
 10
-44.72056709668176
 20
208.5190232269319
 30
0.0
 10
-42.36444593934807
 20
209.3225923659038
 30
0.0
 10
-39.19884499782653
 20
210.7220352394281
 30
0.0
 10
-37.10621959028551
 20
212.0473716216532
 30
0.0
 10
-35.95740870463246
 20
212.7749556687386
 30
0.0
  0
LWPOLYLINE
  5
1BE
330
1F
100
AcDbEntity
  8
0
  6
Continuous
 62
     7
370
    25
100
AcDbPolyline
 90
        4
 70
   128
 43
0.0
 10
-47.8217249655
 20
207.9034954166
 10
-47.8197308395
 20
207.8861067101
 10
-47.8117578463
 20
207.816551776
 10
-47.8043787348
 20
207.7521340017
  0
LINE
  5
1BF
330
1F
100
AcDbEntity
  8
0
  6
Continuous
 62
     7
370
    25
100
AcDbLine
 10
-46.0275934666
 20
208.3071964138
 30
0.0
 11
-47.8217249655
 21
207.9034954166
 31
0.0
  0
ARC
  5
1C0
330
1F
100
AcDbEntity
  8
0
  6
Continuous
 62
     7
370
    25
100
AcDbCircle
 10
-53.7736117435
 20
238.8477497457
 30
0.0
 40
31.50755777528332
100
AcDbArc
 50
284.2318562649
 51
304.3457884339
  0
LINE
  5
1C1
330
1F
100
AcDbEntity
  8
0
  6
Continuous
 62
     7
370
    25
100
AcDbLine
 10
-35.9574087046
 20
212.7749556687
 30
0.0
 11
-35.9974870905
 21
212.8336076441
 31
0.0
  0
SPLINE
  5
1C2
330
1F
100
AcDbEntity
  8
0
  6
Continuous
 62
     7
370
    25
100
AcDbSpline
210
0.0
220
0.0
230
1.0
 70
     8
 71
     3
 72
     9
 73
     5
 74
     0
 42
0.00000001
 43
0.00000001
 40
0.0
 40
0.0
 40
0.0
 40
0.0
 40
0.4998978730609647
 40
1.0
 40
1.0
 40
1.0
 40
1.0
 10
-31.2897856503164
 20
211.9628029639767
 30
0.0
 10
-31.14131825705865
 20
211.9806304957696
 30
0.0
 10
-30.8443228080709
 20
212.0162928435285
 30
0.0
 10
-30.59321959137021
 20
212.178855182742
 30
0.0
 10
-30.46764233861693
 20
212.2601529543428
 30
0.0
  0
ARC
  5
1C3
330
1F
100
AcDbEntity
  8
0
  6
Continuous
 62
     7
370
    25
100
AcDbCircle
 10
-47.8986428141
 20
208.2432456281
 30
0.0
 40
0.5000763403714695
100
AcDbArc
 50
272.3364886569
 51
280.8652225788
  0
SPLINE
  5
1C4
330
1F
100
AcDbEntity
  8
0
  6
Continuous
 62
     7
370
    25
100
AcDbSpline
210
0.0
220
0.0
230
1.0
 70
     8
 71
     3
 72
    12
 73
     8
 74
     0
 42
0.00000001
 43
0.00000001
 40
0.0
 40
0.0
 40
0.0
 40
0.0
 40
0.0460726725321175
 40
0.2494576442748329
 40
0.4755636088397371
 40
0.705792988926502
 40
1.0
 40
1.0
 40
1.0
 40
1.0
 10
-19.18516583065241
 20
194.103309289496
 30
0.0
 10
-19.31438911587524
 20
194.0426614763125
 30
0.0
 10
-20.01406062493857
 20
193.7142876317817
 30
0.0
 10
-21.37559468666364
 20
193.118273376138
 30
0.0
 10
-23.39489686789059
 20
192.3398482208281
 30
0.0
 10
-25.90249827694213
 20
191.5027966431365
 30
0.0
 10
-27.84841388753637
 20
191.0334551672565
 30
0.0
 10
-28.94006584999373
 20
190.7701562140968
 30
0.0
  0
LINE
  5
1C5
330
1F
100
AcDbEntity
  8
0
  6
Continuous
 62
     7
370
    25
100
AcDbLine
 10
-29.365397516
 20
192.7240944495
 30
0.0
 11
-28.94006585
 21
190.7701562141
 31
0.0
  0
SPLINE
  5
1C6
330
1F
100
AcDbEntity
  8
0
  6
Continuous
 62
     7
370
    25
100
AcDbSpline
210
0.0
220
0.0
230
1.0
 70
     8
 71
     3
 72
    13
 73
     9
 74
     0
 42
0.00000001
 43
0.00000001
 40
0.0
 40
0.0
 40
0.0
 40
0.0
 40
0.2574896950994375
 40
0.4890886589321048
 40
0.7206004760683489
 40
0.9447506334961295
 40
0.9460032291293321
 40
1.0
 40
1.0
 40
1.0
 40
1.0
 10
-29.36539751602807
 20
192.7240944495348
 30
0.0
 10
-28.44717206429392
 20
192.6827878675322
 30
0.0
 10
-26.70304923789288
 20
192.604328103195
 30
0.0
 10
-24.20637055456542
 20
192.7329075243535
 30
0.0
 10
-21.88500127734688
 20
193.1128506287506
 30
0.0
 10
-20.40084341590206
 20
193.5910583721725
 30
0.0
 10
-19.5242765632784
 20
193.9527001453447
 30
0.0
 10
-19.35310906108778
 20
194.0292205599492
 30
0.0
 10
-19.18582221272827
 20
194.1040061286492
 30
0.0
  0
LINE
  5
1C7
330
1F
100
AcDbEntity
  8
0
  6
Continuous
 62
     7
370
    25
100
AcDbLine
 10
-19.1858222127
 20
194.1040061286
 30
0.0
 11
-19.1851658307
 21
194.1033092895
 31
0.0
  0
ARC
  5
1C8
330
1F
100
AcDbEntity
  8
0
  6
Continuous
 62
     7
370
    25
100
AcDbCircle
 10
-39.1728714118
 20
237.778812375
 30
0.0
 40
48.10950076354636
100
AcDbArc
 50
282.0319399489
 51
282.2805223384
  0
LWPOLYLINE
  5
1C9
330
1F
100
AcDbEntity
  8
0
  6
Continuous
 62
     7
370
    25
100
AcDbPolyline
 90
        3
 70
   128
 43
0.0
 10
-19.1851658307
 20
194.1033092895
 10
-19.1422084016
 20
194.0752955285
 10
-19.0385927841
 20
194.0077965125
  0
ARC
  5
1CA
330
1F
100
AcDbEntity
  8
0
  6
Continuous
 62
     7
370
    25
100
AcDbCircle
 10
-39.1728714118
 20
237.778812375
 30
0.0
 40
48.17977797259046
100
AcDbArc
 50
282.0319399489
 51
294.7020103158
  0
LINE
  5
1CB
330
1F
100
AcDbEntity
  8
0
  6
Continuous
 62
     7
370
    25
100
AcDbLine
 10
-29.1441123874
 20
190.726202924
 30
0.0
 11
-29.1294626159
 21
190.6574695965
 31
0.0
  0
LINE
  5
1CC
330
1F
100
AcDbEntity
  8
0
  6
Continuous
 62
     7
370
    25
100
AcDbLine
 10
-31.3239278792
 20
196.438082379
 30
0.0
 11
-31.504699846
 21
193.8447712732
 31
0.0
  0
LINE
  5
1CD
330
1F
100
AcDbEntity
  8
0
  6
Continuous
 62
     7
370
    25
100
AcDbLine
 10
-31.504699846
 20
193.8447712732
 30
0.0
 11
-35.4512246071
 21
194.1198717198
 31
0.0
  0
SPLINE
  5
1CE
330
1F
100
AcDbEntity
  8
0
  6
Continuous
 62
     7
370
    25
100
AcDbSpline
210
0.0
220
0.0
230
1.0
 70
     8
 71
     3
 72
    17
 73
    13
 74
     0
 42
0.00000001
 43
0.00000001
 40
0.0
 40
0.0
 40
0.0
 40
0.0
 40
0.0068264277560532
 40
0.0088450004853847
 40
0.0223994102884425
 40
0.030959827023922
 40
0.0563228448230685
 40
0.1198844474831659
 40
0.19574936988938
 40
0.5558716060100624
 40
0.7769840750939119
 40
1.0
 40
1.0
 40
1.0
 40
1.0
 10
-47.8429508133236
 20
197.5895740992201
 30
0.0
 10
-47.83934601338765
 20
197.5884838274639
 30
0.0
 10
-47.83467527514476
 20
197.587071162662
 30
0.0
 10
-47.79125652308663
 20
197.5788542923446
 30
0.0
 10
-47.71690178443652
 20
197.5660293775376
 30
0.0
 10
-47.55045771323174
 20
197.5379077047312
 30
0.0
 10
-47.16976481730708
 20
197.4738975031609
 30
0.0
 10
-46.48851072329529
 20
197.3548654929662
 30
0.0
 10
-44.38900775641083
 20
196.9573813258603
 30
0.0
 10
-41.59030263483782
 20
196.2837916079963
 30
0.0
 10
-38.20568816529649
 20
195.2224347435327
 30
0.0
 10
-36.37199874946093
 20
194.4884413164263
 30
0.0
 10
-35.45122460712508
 20
194.1198717198046
 30
0.0
  0
LINE
  5
1CF
330
1F
100
AcDbEntity
  8
0
  6
Continuous
 62
     7
370
    25
100
AcDbLine
 10
-35.4512246071
 20
194.1198717198
 30
0.0
 11
-36.6043754203
 21
192.4861566724
 31
0.0
  0
SPLINE
  5
1D0
330
1F
100
AcDbEntity
  8
0
  6
Continuous
 62
     7
370
    25
100
AcDbSpline
210
0.0
220
0.0
230
1.0
 70
     8
 71
     3
 72
    14
 73
    10
 74
     0
 42
0.00000001
 43
0.00000001
 40
0.0
 40
0.0
 40
0.0
 40
0.0
 40
0.2256458607195967
 40
0.4518169308148953
 40
0.8157761447763433
 40
0.894614057330537
 40
0.9637846180221645
 40
0.9940799143125658
 40
1.0
 40
1.0
 40
1.0
 40
1.0
 10
-36.60437542031359
 20
192.486156672411
 30
0.0
 10
-37.44217669223546
 20
193.0433180496009
 30
0.0
 10
-39.11972928772916
 20
194.1589376430986
 30
0.0
 10
-42.27704967749155
 20
195.7700696525995
 30
0.0
 10
-44.93430388172123
 20
196.7618648867218
 30
0.0
 10
-46.87711117319849
 20
197.3113822903239
 30
0.0
 10
-47.51888039401641
 20
197.476033353382
 30
0.0
 10
-47.8457078901314
 20
197.5563040816245
 30
0.0
 10
-47.93792530873828
 20
197.5791568571629
 30
0.0
 10
-47.95299998116226
 20
197.5828925733695
 30
0.0
  0
SPLINE
  5
1D1
330
1F
100
AcDbEntity
  8
0
  6
Continuous
 62
     7
370
    25
100
AcDbSpline
210
0.0
220
0.0
230
1.0
 70
     8
 71
     3
 72
    11
 73
     7
 74
     0
 42
0.00000001
 43
0.00000001
 40
0.0
 40
0.0
 40
0.0
 40
0.0
 40
0.0195561212295961
 40
0.1681891996744876
 40
0.5898876540792876
 40
1.0
 40
1.0
 40
1.0
 40
1.0
 10
-47.84295081332363
 20
197.58957409922
 30
0.0
 10
-47.8449084849572
 20
197.5896604483665
 30
0.0
 10
-47.86174511740685
 20
197.5904030799788
 30
0.0
 10
-47.91362808212101
 20
197.5919977314898
 30
0.0
 10
-47.96293771533786
 20
197.5906192547349
 30
0.0
 10
-47.95628165562674
 20
197.5854441059908
 30
0.0
 10
-47.95299998116226
 20
197.5828925733695
 30
0.0
  0
LINE
  5
1D2
330
1F
100
AcDbEntity
  8
0
  6
Continuous
 62
     7
370
    25
100
AcDbLine
 10
-28.5211238191
 20
195.3325815883
 30
0.0
 11
-30.1593538972
 21
193.3141308937
 31
0.0
  0
LINE
  5
1D3
330
1F
100
AcDbEntity
  8
0
  6
Continuous
 62
     7
370
    25
100
AcDbLine
 10
-19.1858222127
 20
194.1040061286
 30
0.0
 11
-19.186381575
 21
194.1046012965
 31
0.0
  0
ARC
  5
1D4
330
1F
100
AcDbEntity
  8
0
  6
Continuous
 62
     7
370
    25
100
AcDbCircle
 10
-22.8545359571
 20
202.3143409635
 30
0.0
 40
11.59155496206739
100
AcDbArc
 50
230.936266164
 51
235.8272404542
  0
LWPOLYLINE
  5
1D5
330
1F
100
AcDbEntity
  8
0
  6
Continuous
 62
     7
370
    25
100
AcDbPolyline
 90
        4
 70
   128
 43
0.0
 10
-47.9529999812
 20
197.5828925734
 10
-47.9554922723
 20
197.5655684523
 10
-47.9654649319
 20
197.4962721769
 10
-47.9725004811
 20
197.4474083927
  0
ARC
  5
1D6
330
1F
100
AcDbEntity
  8
0
  6
Continuous
 62
     7
370
    25
100
AcDbCircle
 10
-54.8141519029
 20
166.6876353436
 30
0.0
 40
31.57783498432753
100
AcDbArc
 50
54.0019296001
 51
54.7838070274
  0
LINE
  5
1D7
330
1F
100
AcDbEntity
  8
0
  6
Continuous
 62
     7
370
    25
100
AcDbLine
 10
-36.2540265792
 20
192.2352655716
 30
0.0
 11
-36.2953325714
 21
192.178408724
 31
0.0
  0
ARC
  5
1D8
330
1F
100
AcDbEntity
  8
0
  6
Continuous
 62
     7
370
    25
100
AcDbCircle
 10
-54.8141519029
 20
166.6876353436
 30
0.0
 40
31.50755777528341
100
AcDbArc
 50
54.0019296001
 51
74.1158617691
  0
LINE
  5
1D9
330
1F
100
AcDbEntity
  8
0
  6
Continuous
 62
     7
370
    25
100
AcDbLine
 10
-47.9725004811
 20
197.4474083927
 30
0.0
 11
-46.1907551644
 21
196.9921436824
 31
0.0
  0
LINE
  5
1DA
330
1F
100
AcDbEntity
  8
0
  6
Continuous
 62
     7
370
    25
100
AcDbLine
 10
-47.8957034725
 20
207.8942428087
 30
0.0
 11
-47.8217249655
 21
207.9034954166
 31
0.0
  0
SPLINE
  5
1DB
330
1F
100
AcDbEntity
  8
0
  6
Continuous
 62
     7
370
    25
100
AcDbSpline
210
0.0
220
0.0
230
1.0
 70
     8
 71
     3
 72
    10
 73
     6
 74
     0
 42
0.00000001
 43
0.00000001
 40
0.0
 40
0.0
 40
0.0
 40
0.0
 40
0.0490769085761821
 40
0.5995805843665509
 40
1.0
 40
1.0
 40
1.0
 40
1.0
 10
-30.15935389720237
 20
193.3141308937206
 30
0.0
 10
-30.17808862980242
 20
193.3290253021048
 30
0.0
 10
-30.40697390897307
 20
193.5109927149262
 30
0.0
 10
-30.84942668437285
 20
193.751449156377
 30
0.0
 10
-31.31053434386463
 20
193.8171187815104
 30
0.0
 10
-31.50469984602039
 20
193.8447712732396
 30
0.0
  0
ARC
  5
1DC
330
1F
100
AcDbEntity
  8
0
  6
Continuous
 62
     7
370
    25
100
AcDbCircle
 10
-48.0614034942
 20
197.0947071325
 30
0.0
 40
0.5000763405209262
100
AcDbArc
 50
77.480379355
 51
86.0112290515
  0
SPLINE
  5
1DD
330
1F
100
AcDbEntity
  8
0
  6
Continuous
 62
     7
370
    25
100
AcDbSpline
210
0.0
220
0.0
230
1.0
 70
     8
 71
     3
 72
     9
 73
     5
 74
     0
 42
0.00000001
 43
0.00000001
 40
0.0
 40
0.0
 40
0.0
 40
0.0
 40
0.8458911907783627
 40
1.0
 40
1.0
 40
1.0
 40
1.0
 10
-47.9725004811396
 20
197.4474083926994
 30
0.0
 10
-47.99328390752625
 20
197.4515232907887
 30
0.0
 10
-48.01785376546214
 20
197.456387862183
 30
0.0
 10
-48.04239883108813
 20
197.4584694424132
 30
0.0
 10
-48.04618144192399
 20
197.4587902322639
 30
0.0
  0
LINE
  5
1DE
330
1F
100
AcDbEntity
  8
0
  6
Continuous
 62
     7
370
    25
100
AcDbLine
 10
-35.9574087046
 20
212.7749556687
 30
0.0
 11
-34.1044843542
 21
213.7453066041
 31
0.0
  0
LINE
  5
1DF
330
1F
100
AcDbEntity
  8
0
  6
Continuous
 62
     7
370
    25
100
AcDbLine
 10
-33.3913222639
 20
211.8771038616
 30
0.0
 11
-34.1044843542
 21
213.7453066041
 31
0.0
  0
LINE
  5
1E0
330
1F
100
AcDbEntity
  8
0
  6
Continuous
 62
     7
370
    25
100
AcDbLine
 10
-30.3979542567
 20
212.3131111524
 30
0.0
 11
-30.2473543681
 21
214.3071275334
 31
0.0
  0
LINE
  5
1E1
330
1F
100
AcDbEntity
  8
0
  6
Continuous
 62
     7
370
    25
100
AcDbLine
 10
-30.2473543681
 20
214.3071275334
 30
0.0
 11
-28.8076002811
 21
214.0780577338
 31
0.0
  0
ARC
  5
1E2
330
1F
100
AcDbEntity
  8
0
  6
Continuous
 62
     7
370
    25
100
AcDbCircle
 10
-30.9198583224
 20
205.4028453778
 30
0.0
 40
6.929946387144277
100
AcDbArc
 50
85.6808843456
 51
110.8937053005
  0
ARC
  5
1E3
330
1F
100
AcDbEntity
  8
0
  6
Continuous
 62
     7
370
    25
100
AcDbCircle
 10
-31.0055581339
 20
199.4596742846
 30
0.0
 40
6.929946387144384
100
AcDbArc
 50
234.0019296001
 51
282.0319399489
  0
LINE
  5
1E4
330
1F
100
AcDbEntity
  8
0
  6
Continuous
 62
     7
370
    25
100
AcDbLine
 10
-29.5609627574
 20
192.6819680998
 30
0.0
 11
-29.1441123874
 21
190.726202924
 31
0.0
  0
ARC
  5
1E5
330
1F
100
AcDbEntity
  8
0
  6
Continuous
 62
     7
370
    25
100
AcDbCircle
 10
-31.0055581339
 20
199.4596742846
 30
0.0
 40
8.92964177745718
100
AcDbArc
 50
234.0019296001
 51
282.0319399489
  0
LINE
  5
1E6
330
1F
100
AcDbEntity
  8
0
  6
Continuous
 62
     7
370
    25
100
AcDbLine
 10
-35.078689604
 20
193.8530927097
 30
0.0
 11
-36.2540265792
 21
192.2352655716
 31
0.0
  0
ARC
  5
1E7
330
1F
100
AcDbEntity
  8
0
  6
Continuous
 62
     7
370
    25
100
AcDbCircle
 10
-30.9198583224
 20
205.4028453778
 30
0.0
 40
8.929641777457087
100
AcDbArc
 50
85.6808843456
 51
110.8937053005
  0
ARC
  5
1E8
330
1F
100
AcDbEntity
  8
0
  6
Continuous
 62
     7
370
    25
100
AcDbCircle
 10
-39.1728714118
 20
237.778812375
 30
0.0
 40
46.10980537323353
100
AcDbArc
 50
282.0319399489
 51
282.2805223384
  0
ARC
  5
1E9
330
1F
100
AcDbEntity
  8
0
  6
Continuous
 62
     7
370
    25
100
AcDbCircle
 10
-54.8141519029
 20
166.6876353436
 30
0.0
 40
33.57753037464025
100
AcDbArc
 50
54.0019296001
 51
54.7838070274
  0
ARC
  5
1EA
330
1F
100
AcDbEntity
  8
0
  6
Continuous
 62
     7
370
    25
100
AcDbCircle
 10
-30.9198583224
 20
205.4028453778
 30
0.0
 40
8.999918986501273
100
AcDbArc
 50
76.3157780851
 51
124.3457884339
  0
ARC
  5
1EB
330
1F
100
AcDbEntity
  8
0
  6
Continuous
 62
     7
370
    25
100
AcDbCircle
 10
-31.0055581339
 20
199.4596742846
 30
0.0
 40
8.999918986501285
100
AcDbArc
 50
234.0019296001
 51
282.0319399489
  0
SPLINE
  5
1EC
330
1F
100
AcDbEntity
  8
0
  6
Continuous
 62
     7
370
    25
100
AcDbSpline
210
0.0
220
0.0
230
1.0
 70
     8
 71
     3
 72
    11
 73
     7
 74
     0
 42
0.00000001
 43
0.00000001
 40
0.0
 40
0.0
 40
0.0
 40
0.0
 40
0.2200386424382388
 40
0.6637869905998197
 40
0.8890365590789775
 40
1.0
 40
1.0
 40
1.0
 40
1.0
 10
189.0132499987509
 20
207.8616972504094
 30
0.0
 10
189.2084549684045
 20
207.589968911647
 30
0.0
 10
189.7973266225861
 20
206.7702504556107
 30
0.0
 10
190.2781540908007
 20
205.4902092551932
 30
0.0
 10
190.490459347134
 20
204.3158460823779
 30
0.0
 10
190.4525913099648
 20
203.805550254263
 30
0.0
 10
190.4400933768458
 20
203.6371326755492
 30
0.0
  0
SPLINE
  5
1ED
330
1F
100
AcDbEntity
  8
0
  6
Continuous
 62
     7
370
    25
100
AcDbSpline
210
0.0
220
0.0
230
1.0
 70
     8
 71
     3
 72
     9
 73
     5
 74
     0
 42
0.00000001
 43
0.00000001
 40
0.0
 40
0.0
 40
0.0
 40
0.0
 40
0.9209630919902975
 40
1.0
 40
1.0
 40
1.0
 40
1.0
 10
190.6416082225612
 20
207.4864700537561
 30
0.0
 10
190.1293855978137
 20
207.5605430984458
 30
0.0
 10
189.5732041078037
 20
207.6409730802052
 30
0.0
 10
189.0542653162793
 20
207.8455297256415
 30
0.0
 10
189.013249998751
 20
207.8616972504095
 30
0.0
  0
SPLINE
  5
1EE
330
1F
100
AcDbEntity
  8
0
  6
Continuous
 62
     7
370
    25
100
AcDbSpline
210
0.0
220
0.0
230
1.0
 70
     8
 71
     3
 72
    10
 73
     6
 74
     0
 42
0.00000001
 43
0.00000001
 40
0.0
 40
0.0
 40
0.0
 40
0.0
 40
0.2596150688488837
 40
0.6297606444810656
 40
1.0
 40
1.0
 40
1.0
 40
1.0
 10
237.7031087931192
 20
203.311886755913
 30
0.0
 10
233.6376572789444
 20
203.7484348802102
 30
0.0
 10
223.775897801633
 20
204.807390469049
 30
0.0
 10
208.0829379545271
 20
206.1610858074195
 30
0.0
 10
196.4558757087491
 20
207.0446380003171
 30
0.0
 10
190.6416082225612
 20
207.4864700537561
 30
0.0
  0
SPLINE
  5
1EF
330
1F
100
AcDbEntity
  8
0
  6
Continuous
 62
     7
370
    25
100
AcDbSpline
210
0.0
220
0.0
230
1.0
 70
     8
 71
     3
 72
    11
 73
     7
 74
     0
 42
0.00000001
 43
0.00000001
 40
0.0
 40
0.0
 40
0.0
 40
0.0
 40
0.0614641195414043
 40
0.4999988937835358
 40
0.9375097801832714
 40
0.9999999999999999
 40
0.9999999999999999
 40
0.9999999999999999
 40
0.9999999999999999
 10
237.5107866280995
 20
197.5890851147799
 30
0.0
 10
237.5263607196951
 20
197.7050844434147
 30
0.0
 10
237.6530529854845
 20
198.648716865545
 30
0.0
 10
237.7970732289248
 20
200.442135679327
 30
0.0
 10
237.7739807229555
 20
202.2431254623957
 30
0.0
 10
237.7109823411535
 20
203.1931522526905
 30
0.0
 10
237.7031087931192
 20
203.311886755913
 30
0.0
  0
SPLINE
  5
1F0
330
1F
100
AcDbEntity
  8
0
  6
Continuous
 62
     7
370
    25
100
AcDbSpline
210
0.0
220
0.0
230
1.0
 70
     8
 71
     3
 72
    10
 73
     6
 74
     0
 42
0.00000001
 43
0.00000001
 40
0.0
 40
0.0
 40
0.0
 40
0.0
 40
0.259461854077887
 40
0.6296073956705974
 40
1.0
 40
1.0
 40
1.0
 40
1.0
 10
190.2751990345435
 20
196.583477659191
 30
0.0
 10
194.3613856552936
 20
196.6136348660926
 30
0.0
 10
204.2768829666716
 20
196.686814025956
 30
0.0
 10
220.0257296711618
 20
196.9447811466521
 30
0.0
 10
231.6811381269111
 20
197.3742693626006
 30
0.0
 10
237.5107866280996
 20
197.5890851147801
 30
0.0
  0
SPLINE
  5
1F1
330
1F
100
AcDbEntity
  8
0
  6
Continuous
 62
     7
370
    25
100
AcDbSpline
210
0.0
220
0.0
230
1.0
 70
     8
 71
     3
 72
     9
 73
     5
 74
     0
 42
0.00000001
 43
0.00000001
 40
0.0
 40
0.0
 40
0.0
 40
0.0
 40
0.0790369080192365
 40
1.0
 40
1.0
 40
1.0
 40
1.0
 10
188.6253232005837
 20
196.3184197661355
 30
0.0
 10
188.6673314139836
 20
196.3317971775628
 30
0.0
 10
189.1988326385726
 20
196.5010524250492
 30
0.0
 10
189.7591590709045
 20
196.5439607112551
 30
0.0
 10
190.2751990345435
 20
196.583477659191
 30
0.0
  0
SPLINE
  5
1F2
330
1F
100
AcDbEntity
  8
0
  6
Continuous
 62
     7
370
    25
100
AcDbSpline
210
0.0
220
0.0
230
1.0
 70
     8
 71
     3
 72
    11
 73
     7
 74
     0
 42
0.00000001
 43
0.00000001
 40
0.0
 40
0.0
 40
0.0
 40
0.0
 40
0.0728838064943162
 40
0.4140719411595867
 40
0.9209668754550528
 40
1.0
 40
1.0
 40
1.0
 40
1.0
 10
190.3325709229335
 20
200.4376591482807
 30
0.0
 10
190.3365721177236
 20
200.327015898136
 30
0.0
 10
190.359303950395
 20
199.6984226952386
 30
0.0
 10
189.9685555896651
 20
198.3277815262358
 30
0.0
 10
189.2865735467193
 20
197.0800519815058
 30
0.0
 10
188.7039152782378
 20
196.4089426045191
 30
0.0
 10
188.6253232005837
 20
196.3184197661356
 30
0.0
  0
SPLINE
  5
1F3
330
1F
100
AcDbEntity
  8
0
  6
Continuous
 62
     7
370
    25
100
AcDbSpline
210
0.0
220
0.0
230
1.0
 70
     8
 71
     3
 72
    10
 73
     6
 74
     0
 42
0.00000001
 43
0.00000001
 40
0.0
 40
0.0
 40
0.0
 40
0.0
 40
0.3880207377811508
 40
0.979063776650665
 40
1.0
 40
1.0
 40
1.0
 40
1.0
 10
190.4400933768458
 20
203.6371326755492
 30
0.0
 10
190.3530211951949
 20
203.2289870548537
 30
0.0
 10
190.1333184558623
 20
202.1991436627028
 30
0.0
 10
190.1922345862326
 20
201.1027769202122
 30
0.0
 10
190.3279287345905
 20
200.4596605916711
 30
0.0
 10
190.3325709229335
 20
200.4376591482807
 30
0.0
  0
ARC
  5
1F4
330
1F
100
AcDbEntity
  8
0
  6
Continuous
 62
     7
370
    25
100
AcDbCircle
 10
182.1454640429
 20
202.3143409635
 30
0.0
 40
8.399443654264592
100
AcDbArc
 50
9.0609834605
 51
347.0894674746
  0
SPLINE
  5
1F5
330
1F
100
AcDbEntity
  8
0
  6
Continuous
 62
     7
370
    25
100
AcDbSpline
210
0.0
220
0.0
230
1.0
 70
     8
 71
     3
 72
     9
 73
     5
 74
     0
 42
0.00000001
 43
0.00000001
 40
0.0
 40
0.0
 40
0.0
 40
0.0
 40
0.6817923421274276
 40
1.0
 40
1.0
 40
1.0
 40
1.0
 10
188.6253232005837
 20
196.3184197661355
 30
0.0
 10
188.4767613243273
 20
196.1333948148823
 30
0.0
 10
188.2588623145016
 20
195.8620146015527
 30
0.0
 10
188.0217432886885
 20
195.636947438721
 30
0.0
 10
187.9462901988475
 20
195.5653293439724
 30
0.0
  0
ARC
  5
1F6
330
1F
100
AcDbEntity
  8
0
  6
Continuous
 62
     7
370
    25
100
AcDbCircle
 10
182.1454640429
 20
202.3143409635
 30
0.0
 40
8.899367501836307
100
AcDbArc
 50
45.4711446636
 51
310.6793062714
  0
LINE
  5
1F7
330
1F
100
AcDbEntity
  8
0
  6
Continuous
 62
     7
370
    25
100
AcDbLine
 10
188.3863091009
 20
208.6586766178
 30
0.0
 11
189.0132499988
 21
207.8616972504
 31
0.0
  0
SPLINE
  5
1F8
330
1F
100
AcDbEntity
  8
0
  6
Continuous
 62
     7
370
    25
100
AcDbSpline
210
0.0
220
0.0
230
1.0
 70
     8
 71
     3
 72
    10
 73
     6
 74
     0
 42
0.00000001
 43
0.00000001
 40
0.0
 40
0.0
 40
0.0
 40
0.0
 40
0.3702896688583038
 40
0.7405318123903294
 40
0.9999999999999999
 40
0.9999999999999999
 40
0.9999999999999999
 40
0.9999999999999999
 10
237.5074251188666
 20
197.1460884933219
 30
0.0
 10
231.6798906695996
 20
197.0215585674083
 30
0.0
 10
220.0255697138233
 20
196.7725146985422
 30
0.0
 10
204.2863748434265
 20
196.4317256950897
 30
0.0
 10
194.3763544007349
 20
196.2157139903456
 30
0.0
 10
190.2929927084182
 20
196.1267077238756
 30
0.0
  0
ARC
  5
1F9
330
1F
100
AcDbEntity
  8
0
  6
Continuous
 62
     7
370
    25
100
AcDbCircle
 10
197.5293153037
 20
196.6373334035
 30
0.0
 40
7.254316183341513
100
AcDbArc
 50
180.4253654123
 51
184.0363431988
  0
ARC
  5
1FA
330
1F
100
AcDbEntity
  8
0
  6
Continuous
 62
     7
370
    25
100
AcDbCircle
 10
233.2530264494
 20
197.3998824234
 30
0.0
 40
4.261961918859331
100
AcDbArc
 50
356.5860960061
 51
2.544386774
  0
SPLINE
  5
1FB
330
1F
100
AcDbEntity
  8
0
  6
Continuous
 62
     7
370
    25
100
AcDbSpline
210
0.0
220
0.0
230
1.0
 70
     8
 71
     3
 72
    10
 73
     6
 74
     0
 42
0.00000001
 43
0.00000001
 40
0.0
 40
0.0
 40
0.0
 40
0.0
 40
0.3702717503651152
 40
0.7405122151371748
 40
1.0
 40
1.0
 40
1.0
 40
1.0
 10
190.6900278074585
 20
207.9410148067083
 30
0.0
 10
196.4955834582466
 20
207.4232010225706
 30
0.0
 10
208.1062042275275
 20
206.3876172062457
 30
0.0
 10
223.7872936946583
 20
204.9913289131838
 30
0.0
 10
233.6609334603726
 20
204.115150406852
 30
0.0
 10
237.7294962298278
 20
203.7541095612424
 30
0.0
  0
ARC
  5
1FC
330
1F
100
AcDbEntity
  8
0
  6
Continuous
 62
     7
370
    25
100
AcDbCircle
 10
233.4676575044
 20
203.7865148245
 30
0.0
 40
4.261961921821249
100
AcDbArc
 50
353.6060641635
 51
359.5643549273
  0
ARC
  5
1FD
330
1F
100
AcDbEntity
  8
0
  6
Continuous
 62
     7
370
    25
100
AcDbCircle
 10
197.8757419226
 20
206.9457178947
 30
0.0
 40
7.254316183341616
100
AcDbArc
 50
172.1141077361
 51
175.7250855227
  0
SPLINE
  5
1FE
330
1F
100
AcDbEntity
  8
0
  6
Continuous
 62
     7
370
    25
100
AcDbSpline
210
0.0
220
0.0
230
1.0
 70
     8
 71
     3
 72
    12
 73
     8
 74
     0
 42
0.00000001
 43
0.00000001
 40
0.0
 40
0.0
 40
0.0
 40
0.0
 40
0.1224290494151416
 40
0.3423522449770543
 40
0.5614228816909421
 40
0.7807229538533651
 40
1.0
 40
1.0
 40
1.0
 40
1.0
 10
239.6340268049412
 20
203.1362589050504
 30
0.0
 10
239.6251070312238
 20
203.1389186815991
 30
0.0
 10
239.600164384267
 20
203.1463562993617
 30
0.0
 10
239.3848698161366
 20
203.1706091215972
 30
0.0
 10
238.9500744717301
 20
203.2107463584951
 30
0.0
 10
238.3674708961748
 20
203.259894372334
 30
0.0
 10
237.9245550762029
 20
203.2945565679941
 30
0.0
 10
237.7031087931192
 20
203.311886755913
 30
0.0
  0
SPLINE
  5
1FF
330
1F
100
AcDbEntity
  8
0
  6
Continuous
 62
     7
370
    25
100
AcDbSpline
210
0.0
220
0.0
230
1.0
 70
     8
 71
     3
 72
    11
 73
     7
 74
     0
 42
0.00000001
 43
0.00000001
 40
0.0
 40
0.0
 40
0.0
 40
0.0
 40
0.0800485240044348
 40
0.500000585353877
 40
0.9209248322279565
 40
0.9999999999999999
 40
0.9999999999999999
 40
0.9999999999999999
 40
0.9999999999999999
 10
239.6340268049412
 20
203.1362589050504
 30
0.0
 10
239.6288287615742
 20
202.9901066072442
 30
0.0
 10
239.5963606460346
 20
202.0772073956382
 30
0.0
 10
239.5382149444351
 20
200.3837953207365
 30
0.0
 10
239.4826011195856
 20
198.6920819011528
 30
0.0
 10
239.4537085319038
 20
197.7790738188583
 30
0.0
 10
239.4491391541177
 20
197.6346811152472
 30
0.0
  0
SPLINE
  5
200
330
1F
100
AcDbEntity
  8
0
  6
Continuous
 62
     7
370
    25
100
AcDbSpline
210
0.0
220
0.0
230
1.0
 70
     8
 71
     3
 72
    12
 73
     8
 74
     0
 42
0.00000001
 43
0.00000001
 40
0.0
 40
0.0
 40
0.0
 40
0.0
 40
0.1130367476169351
 40
0.3328594693548084
 40
0.5544127937945095
 40
0.7774207483513299
 40
1.0
 40
1.0
 40
1.0
 40
1.0
 10
237.5107866280995
 20
197.5890851147799
 30
0.0
 10
237.6249615564923
 20
197.5902661953273
 30
0.0
 10
237.9611726283751
 20
197.5937441248729
 30
0.0
 10
238.4957987302967
 20
197.6013839736577
 30
0.0
 10
239.0129691931294
 20
197.6118947894358
 30
0.0
 10
239.3704498954514
 20
197.6233362944776
 30
0.0
 10
239.4229262305253
 20
197.6309019346443
 30
0.0
 10
239.4491391541177
 20
197.6346811152472
 30
0.0
  0
SPLINE
  5
201
330
1F
100
AcDbEntity
  8
0
  6
Continuous
 62
     7
370
    25
100
AcDbSpline
210
0.0
220
0.0
230
1.0
 70
     8
 71
     3
 72
     9
 73
     5
 74
     0
 42
0.00000001
 43
0.00000001
 40
0.0
 40
0.0
 40
0.0
 40
0.0
 40
0.500010612381547
 40
1.0
 40
1.0
 40
1.0
 40
1.0
 10
187.9014872131796
 20
209.1070451577453
 30
0.0
 10
188.3212983288232
 20
208.8049338278446
 30
0.0
 10
189.1609027397055
 20
208.2007239922538
 30
0.0
 10
190.1803266638847
 20
208.0275833102669
 30
0.0
 10
190.6900278074585
 20
207.9410148067083
 30
0.0
  0
SPLINE
  5
202
330
1F
100
AcDbEntity
  8
0
  6
Continuous
 62
     7
370
    25
100
AcDbSpline
210
0.0
220
0.0
230
1.0
 70
     8
 71
     3
 72
     9
 73
     5
 74
     0
 42
0.00000001
 43
0.00000001
 40
0.0
 40
0.0
 40
0.0
 40
0.0
 40
0.983870232645926
 40
1.0
 40
1.0
 40
1.0
 40
1.0
 10
188.3863091009454
 20
208.6586766178074
 30
0.0
 10
188.2299238514429
 20
208.8088463223506
 30
0.0
 10
188.0709747905671
 20
208.9614779393671
 30
0.0
 10
187.9041776128514
 20
209.1047344633415
 30
0.0
 10
187.9014872131796
 20
209.1070451577453
 30
0.0
  0
SPLINE
  5
203
330
1F
100
AcDbEntity
  8
0
  6
Continuous
 62
     7
370
    25
100
AcDbSpline
210
0.0
220
0.0
230
1.0
 70
     8
 71
     3
 72
     9
 73
     5
 74
     0
 42
0.00000001
 43
0.00000001
 40
0.0
 40
0.0
 40
0.0
 40
0.0
 40
0.5055561057107385
 40
0.9999999999999999
 40
0.9999999999999999
 40
0.9999999999999999
 40
0.9999999999999999
 10
190.2929927084182
 20
196.1267077238756
 30
0.0
 10
189.7728523394872
 20
196.073491793118
 30
0.0
 10
188.744004377697
 20
195.9682296270467
 30
0.0
 10
187.8663908235177
 20
195.4210643342929
 30
0.0
 10
187.4324601601085
 20
195.1505217961239
 30
0.0
  0
SPLINE
  5
204
330
1F
100
AcDbEntity
  8
0
  6
Continuous
 62
     7
370
    25
100
AcDbSpline
210
0.0
220
0.0
230
1.0
 70
     8
 71
     3
 72
     9
 73
     5
 74
     0
 42
0.00000001
 43
0.00000001
 40
0.0
 40
0.0
 40
0.0
 40
0.0
 40
0.0161297673533045
 40
1.0
 40
1.0
 40
1.0
 40
1.0
 10
187.4324601601084
 20
195.1505217961237
 30
0.0
 10
187.4352996222071
 20
195.1526466523567
 30
0.0
 10
187.6113382492091
 20
195.284381734857
 30
0.0
 10
187.78017587988
 20
195.4259976553402
 30
0.0
 10
187.9462901988475
 20
195.5653293439725
 30
0.0
  0
SPLINE
  5
205
330
1F
100
AcDbEntity
  8
0
  6
Continuous
 62
     7
370
    25
100
AcDbSpline
210
0.0
220
0.0
230
1.0
 70
     8
 71
     3
 72
    12
 73
     8
 74
     0
 42
0.00000001
 43
0.00000001
 40
0.0
 40
0.0
 40
0.0
 40
0.0
 40
0.223031534415035
 40
0.4461337558340201
 40
0.6675099896776863
 40
0.8870667292264853
 40
1.0
 40
1.0
 40
1.0
 40
1.0
 10
238.9602858406346
 20
197.1516647996444
 30
0.0
 10
238.9408265641069
 20
197.1542100682486
 30
0.0
 10
238.9019018436816
 20
197.1593014121474
 30
0.0
 10
238.6342304477411
 20
197.1613501005436
 30
0.0
 10
238.2463964261334
 20
197.1587861425304
 30
0.0
 10
237.8452509188763
 20
197.1529189605428
 30
0.0
 10
237.5930779667665
 20
197.1478202999806
 30
0.0
 10
237.5074251188665
 20
197.1460884933218
 30
0.0
  0
ARC
  5
206
330
1F
100
AcDbEntity
  8
0
  6
Continuous
 62
     7
370
    25
100
AcDbCircle
 10
238.9493270249
 20
197.6516446289
 30
0.0
 40
0.5000999153469681
100
AcDbArc
 50
271.2556373922
 51
358.0561400058
  0
SPLINE
  5
207
330
1F
100
AcDbEntity
  8
0
  6
Continuous
 62
     7
370
    25
100
AcDbSpline
210
0.0
220
0.0
230
1.0
 70
     8
 71
     3
 72
    12
 73
     8
 74
     0
 42
0.00000001
 43
0.00000001
 40
0.0
 40
0.0
 40
0.0
 40
0.0
 40
0.2190444340109387
 40
0.4380981679380302
 40
0.6571027493691947
 40
0.8772791087290103
 40
1.0
 40
1.0
 40
1.0
 40
1.0
 10
237.7294962298278
 20
203.7541095612424
 30
0.0
 10
237.8955235391345
 20
203.7396962012683
 30
0.0
 10
238.227585206729
 20
203.7108688693756
 30
0.0
 10
238.6648408603413
 20
203.676644818295
 30
0.0
 10
238.9912424773644
 20
203.6543635028769
 30
0.0
 10
239.1529337809793
 20
203.6471047593834
 30
0.0
 10
239.1719123047172
 20
203.649977371446
 30
0.0
 10
239.1787046057458
 20
203.6510054622574
 30
0.0
  0
ARC
  5
208
330
1F
100
AcDbEntity
  8
0
  6
Continuous
 62
     7
370
    25
100
AcDbCircle
 10
239.1342034854
 20
203.152889436
 30
0.0
 40
0.5000999153469851
100
AcDbArc
 50
358.0943109298
 51
84.8948135427
  0
LINE
  5
209
330
1F
100
AcDbEntity
  8
0
  6
Continuous
 62
     7
370
    25
100
AcDbLine
 10
190.2929927084
 20
196.1267077239
 30
0.0
 11
190.3175692138
 21
196.0545512775
 31
0.0
  0
LINE
  5
20A
330
1F
100
AcDbEntity
  8
0
  6
Continuous
 62
     7
370
    25
100
AcDbLine
 10
238.9648244791
 20
197.1470713141
 30
0.0
 11
238.9602858406
 21
197.1516647996
 31
0.0
  0
ELLIPSE
  5
20B
330
1F
100
AcDbEntity
  8
0
  6
Continuous
 62
     7
370
    25
100
AcDbEllipse
 10
237.4631015566
 20
197.1141991876
 30
0.0
 11
1.501936455350347
 21
0.03244489684948348
 31
0.0
210
0.0
220
0.0
230
1.0
 40
0.0174284859
 41
5.396717970286021
 42
6.299675703197201
  0
LINE
  5
20C
330
1F
100
AcDbEntity
  8
0
  6
Continuous
 62
     7
370
    25
100
AcDbLine
 10
234.9418945537
 20
196.9900501765
 30
0.0
 11
238.4129936795
 21
197.1144266623
 31
0.0
  0
LINE
  5
20D
330
1F
100
AcDbEntity
  8
0
  6
Continuous
 62
     7
370
    25
100
AcDbLine
 10
234.9418978584
 20
196.9901485122
 30
0.0
 11
234.9418945537
 21
196.9900501765
 31
0.0
  0
ELLIPSE
  5
20E
330
1F
100
AcDbEntity
  8
0
  6
Continuous
 62
     7
370
    25
100
AcDbEllipse
 10
225.4866710349
 20
196.9780715149
 30
0.0
 11
14.51871906838676
 21
0.3136340028782456
 31
0.0
210
0.0
220
0.0
230
1.0
 40
0.0174284859
 41
4.685109492442205
 42
5.421234828998146
  0
ELLIPSE
  5
20F
330
1F
100
AcDbEntity
  8
0
  6
Continuous
 62
     7
370
    25
100
AcDbEllipse
 10
224.1344889595
 20
196.0726933308
 30
0.0
 11
35.7487326448238
 21
0.7722456825846679
 31
0.0
210
0.0
220
0.0
230
1.0
 40
0.0174284859
 41
1.543516838852423
 42
2.025717338717974
  0
ELLIPSE
  5
210
330
1F
100
AcDbEntity
  8
0
  6
Continuous
 62
     7
370
    25
100
AcDbEllipse
 10
205.1124851692
 20
196.3393461285
 30
0.0
 11
7.509682276751761
 21
0.162224484247389
 31
0.0
210
0.0
220
0.0
230
1.0
 40
0.0174284859
 41
4.976419334597785
 42
5.167309992307947
  0
LINE
  5
211
330
1F
100
AcDbEntity
  8
0
  6
Continuous
 62
     7
370
    25
100
AcDbLine
 10
207.0604854681
 20
196.406300218
 30
0.0
 11
207.075041439
 21
196.2553356009
 31
0.0
  0
SPLINE
  5
212
330
1F
100
AcDbEntity
  8
0
  6
Continuous
 62
     7
370
    25
100
AcDbSpline
210
0.0
220
0.0
230
1.0
 70
     8
 71
     3
 72
    10
 73
     6
 74
     0
 42
0.00000001
 43
0.00000001
 40
0.0
 40
0.0
 40
0.0
 40
0.0
 40
0.0186368637457477
 40
0.3939469944632952
 40
1.0
 40
1.0
 40
1.0
 40
1.0
 10
206.8768015329164
 20
196.4119865128572
 30
0.0
 10
206.879259301644
 20
196.4119917163716
 30
0.0
 10
206.9312117447437
 20
196.4121017085274
 30
0.0
 10
207.0352419290797
 20
196.4112871336905
 30
0.0
 10
207.050847842354
 20
196.4082041517995
 30
0.0
 10
207.0604854681162
 20
196.4063002180038
 30
0.0
  0
LINE
  5
213
330
1F
100
AcDbEntity
  8
0
  6
Continuous
 62
     7
370
    25
100
AcDbLine
 10
190.3175692138
 20
196.0545512775
 30
0.0
 11
206.8768015329
 21
196.4119865129
 31
0.0
  0
LINE
  5
214
330
1F
100
AcDbEntity
  8
0
  6
Continuous
 62
     7
370
    25
100
AcDbLine
 10
207.21987605
 20
206.5591214581
 30
0.0
 11
190.7259680522
 21
208.0271305998
 31
0.0
  0
SPLINE
  5
215
330
1F
100
AcDbEntity
  8
0
  6
Continuous
 62
     7
370
    25
100
AcDbSpline
210
0.0
220
0.0
230
1.0
 70
     8
 71
     3
 72
    11
 73
     7
 74
     0
 42
0.00000001
 43
0.00000001
 40
0.0
 40
0.0
 40
0.0
 40
0.0
 40
0.4177469294494799
 40
0.8392770662410579
 40
0.9817832068818988
 40
1.0
 40
1.0
 40
1.0
 40
1.0
 10
207.4034325172193
 20
206.5516025980674
 30
0.0
 10
207.3987617239573
 20
206.5506757634477
 30
0.0
 10
207.3893778377104
 20
206.5488137005917
 30
0.0
 10
207.3139643460179
 20
206.5525509242627
 30
0.0
 10
207.2438267656419
 20
206.5573799105717
 30
0.0
 10
207.222314330392
 20
206.5589441614633
 30
0.0
 10
207.219876049972
 20
206.5591214580956
 30
0.0
  0
LINE
  5
216
330
1F
100
AcDbEntity
  8
0
  6
Continuous
 62
     7
370
    25
100
AcDbLine
 10
207.4255769159
 20
206.6859846207
 30
0.0
 11
207.4034325172
 21
206.5516025981
 31
0.0
  0
ELLIPSE
  5
217
330
1F
100
AcDbEntity
  8
0
  6
Continuous
 62
     7
370
    25
100
AcDbEllipse
 10
205.4618084057
 20
206.7339233252
 30
0.0
 11
7.481847567972749
 21
-0.6660342713921636
 31
0.0
210
0.0
220
0.0
230
1.0
 40
0.0174284859
 41
1.11587531487157
 42
1.306765972581822
  0
ELLIPSE
  5
218
330
1F
100
AcDbEntity
  8
0
  6
Continuous
 62
     7
370
    25
100
AcDbEllipse
 10
224.4587966138
 20
205.72289863
 30
0.0
 11
35.61622962729032
 21
-3.170557717734454
 31
0.0
210
0.0
220
0.0
230
1.0
 40
0.0174284859
 41
4.257467968461715
 42
4.73966846832717
  0
ELLIPSE
  5
219
330
1F
100
AcDbEntity
  8
0
  6
Continuous
 62
     7
370
    25
100
AcDbEllipse
 10
225.7471437058
 20
204.7287820416
 30
0.0
 11
14.46490529808065
 21
-1.287666258024871
 31
0.0
210
0.0
220
0.0
230
1.0
 40
0.0174284859
 41
0.8619504781819132
 42
1.598075814737373
  0
LINE
  5
21A
330
1F
100
AcDbEntity
  8
0
  6
Continuous
 62
     7
370
    25
100
AcDbLine
 10
235.1802299695
 20
204.0820372533
 30
0.0
 11
235.1802266648
 21
204.0819389176
 31
0.0
  0
LINE
  5
21B
330
1F
100
AcDbEntity
  8
0
  6
Continuous
 62
     7
370
    25
100
AcDbLine
 10
238.6351473033
 20
203.7249030094
 30
0.0
 11
235.1802299695
 21
204.0820372533
 31
0.0
  0
ELLIPSE
  5
21C
330
1F
100
AcDbEntity
  8
0
  6
Continuous
 62
     7
370
    25
100
AcDbEllipse
 10
237.6874136162
 20
203.7889026584
 30
0.0
 11
1.496369513594573
 21
-0.133206854278427
 31
0.0
210
0.0
220
0.0
230
1.0
 40
0.0174284859
 41
6.26669491115743
 42
7.169652644070984
  0
LINE
  5
21D
330
1F
100
AcDbEntity
  8
0
  6
Continuous
 62
     7
370
    25
100
AcDbLine
 10
239.1787046057
 20
203.6510054623
 30
0.0
 11
239.1835413959
 21
203.6552838744
 31
0.0
  0
LINE
  5
21E
330
1F
100
AcDbEntity
  8
0
  6
Continuous
 62
     7
370
    25
100
AcDbLine
 10
190.7259680522
 20
208.0271305998
 30
0.0
 11
190.6900278075
 21
207.9410148067
 31
0.0
  0
SPLINE
  5
21F
330
1F
100
AcDbEntity
  8
0
  6
Continuous
 62
     7
370
    25
100
AcDbSpline
210
0.0
220
0.0
230
1.0
 70
     8
 71
     3
 72
     9
 73
     5
 74
     0
 42
0.00000001
 43
0.00000001
 40
0.0
 40
0.0
 40
0.0
 40
0.0
 40
0.5001021276704672
 40
1.0
 40
1.0
 40
1.0
 40
1.0
 10
187.4634538830078
 20
195.0837516800046
 30
0.0
 10
187.9017832728817
 20
195.3557084398891
 30
0.0
 10
188.7782630269586
 20
195.899510885104
 30
0.0
 10
189.804537025502
 20
196.0028781845072
 30
0.0
 10
190.3175692138012
 20
196.0545512775474
 30
0.0
  0
LINE
  5
220
330
1F
100
AcDbEntity
  8
0
  6
Continuous
 62
     7
370
    25
100
AcDbLine
 10
187.463453883
 20
195.08375168
 30
0.0
 11
187.4324601601
 21
195.1505217961
 31
0.0
  0
SPLINE
  5
221
330
1F
100
AcDbEntity
  8
0
  6
Continuous
 62
     7
370
    25
100
AcDbSpline
210
0.0
220
0.0
230
1.0
 70
     8
 71
     3
 72
     9
 73
     5
 74
     0
 42
0.00000001
 43
0.00000001
 40
0.0
 40
0.0
 40
0.0
 40
0.0
 40
0.4007227371565357
 40
0.9999999999999999
 40
0.9999999999999999
 40
0.9999999999999999
 40
0.9999999999999999
 10
190.7259680521527
 20
208.0271305998301
 30
0.0
 10
190.3191383859648
 20
208.0892372274751
 30
0.0
 10
189.3038985992866
 20
208.2442237602729
 30
0.0
 10
188.4541254105325
 20
208.8332049614079
 30
0.0
 10
187.944875659938
 20
209.1861680034903
 30
0.0
  0
LINE
  5
222
330
1F
100
AcDbEntity
  8
0
  6
Continuous
 62
     7
370
    25
100
AcDbLine
 10
187.9014872132
 20
209.1070451577
 30
0.0
 11
187.9448756599
 21
209.1861680035
 31
0.0
  0
ARC
  5
223
330
1F
100
AcDbEntity
  8
0
  6
Continuous
 62
     7
370
    25
100
AcDbCircle
 10
182.1454640429
 20
202.3143409635
 30
0.0
 40
8.975658044222056
100
AcDbArc
 50
243.2401108622
 51
306.3339234504
  0
LWPOLYLINE
  5
224
330
1F
100
AcDbEntity
  8
0
  6
Continuous
 62
     7
370
    25
100
AcDbPolyline
 90
        3
 70
   128
 43
0.0
 10
177.9352533066
 20
194.2005130646
 10
178.0420011063
 20
194.2632154794
 10
178.1041510243
 20
194.29996473
  0
ARC
  5
225
330
1F
100
AcDbEntity
  8
0
  6
Continuous
 62
     7
370
    25
100
AcDbCircle
 10
182.1454640429
 20
202.3143409635
 30
0.0
 40
9.141120151092148
100
AcDbArc
 50
113.5749418851
 51
242.5755048964
  0
LWPOLYLINE
  5
226
330
1F
100
AcDbEntity
  8
0
  6
Continuous
 62
     7
370
    25
100
AcDbPolyline
 90
        3
 70
   128
 43
0.0
 10
178.6353942246
 20
210.592903148
 10
178.591785962
 20
210.6227945941
 10
178.4894886458
 20
210.692522241
  0
ARC
  5
227
330
1F
100
AcDbEntity
  8
0
  6
Continuous
 62
     7
370
    25
100
AcDbCircle
 10
182.1454640429
 20
202.3143409635
 30
0.0
 40
8.991950954660755
100
AcDbArc
 50
49.8376326145
 51
112.9767066341
  0
LINE
  5
228
330
1F
100
AcDbEntity
  8
0
  6
Continuous
 62
     7
370
    25
100
AcDbLine
 10
239.6388635951
 20
203.1405373172
 30
0.0
 11
239.6340268049
 21
203.1362589051
 31
0.0
  0
LINE
  5
229
330
1F
100
AcDbEntity
  8
0
  6
Continuous
 62
     7
370
    25
100
AcDbLine
 10
239.4536777926
 20
197.6300876297
 30
0.0
 11
239.6388635951
 21
203.1405373172
 31
0.0
  0
LINE
  5
22A
330
1F
100
AcDbEntity
  8
0
  6
Continuous
 62
     7
370
    25
100
AcDbLine
 10
239.4491391541
 20
197.6346811152
 30
0.0
 11
239.4536777926
 21
197.6300876297
 31
0.0
  0
ARC
  5
22B
330
1F
100
AcDbEntity
  8
0
  6
Continuous
 62
     7
370
    25
100
AcDbCircle
 10
239.1390402755
 20
203.1571678481
 30
0.0
 40
0.5000999153469827
100
AcDbArc
 50
358.0943109292
 51
84.8948135427
  0
ARC
  5
22C
330
1F
100
AcDbEntity
  8
0
  6
Continuous
 62
     7
370
    25
100
AcDbCircle
 10
238.9538656634
 20
197.6470511434
 30
0.0
 40
0.5000999153468992
100
AcDbArc
 50
271.2556373922
 51
358.0561400058
  0
LINE
  5
22D
330
1F
100
AcDbEntity
  8
0
  6
Continuous
 62
     7
370
    25
100
AcDbLine
 10
238.4129936795
 20
197.1144266623
 30
0.0
 11
238.4201097278
 21
197.1145547621
 31
0.0
  0
LINE
  5
22E
330
1F
100
AcDbEntity
  8
0
  6
Continuous
 62
     7
370
    25
100
AcDbLine
 10
238.6351473033
 20
203.7249030094
 30
0.0
 11
238.642238696
 21
203.7242974501
 31
0.0
  0
SPLINE
  5
22F
330
1F
100
AcDbEntity
  8
0
  6
Continuous
 62
     7
370
    25
100
AcDbSpline
210
0.0
220
0.0
230
1.0
 70
     8
 71
     3
 72
    12
 73
     8
 74
     0
 42
0.00000001
 43
0.00000001
 40
0.0
 40
0.0
 40
0.0
 40
0.0
 40
0.1662426524176539
 40
0.3368059756191313
 40
0.6054181071254604
 40
0.8801435087136209
 40
0.9999999999999999
 40
0.9999999999999999
 40
0.9999999999999999
 40
0.9999999999999999
 10
187.8718812399501
 20
190.4386450604929
 30
0.0
 10
187.2397818406931
 20
190.6154605317814
 30
0.0
 10
185.9591546865965
 20
190.9736869342468
 30
0.0
 10
183.7984678830017
 20
191.7096389843543
 30
0.0
 10
181.4664491536263
 20
192.6406855039791
 30
0.0
 10
179.5303222264118
 20
193.5488559279336
 30
0.0
 10
178.4352408685039
 20
194.1238192869372
 30
0.0
 10
178.1026036856981
 20
194.2984676731729
 30
0.0
  0
LINE
  5
230
330
1F
100
AcDbEntity
  8
0
  6
Continuous
 62
     7
370
    25
100
AcDbLine
 10
187.87188124
 20
190.4386450605
 30
0.0
 11
187.8536986796
 21
190.3697433574
 31
0.0
  0
ARC
  5
231
330
1F
100
AcDbEntity
  8
0
  6
Continuous
 62
     7
370
    25
100
AcDbCircle
 10
200.1470795624
 20
236.9547601756
 30
0.0
 40
48.17977797259055
100
AcDbArc
 50
242.5470733798
 51
255.2171445356
  0
LWPOLYLINE
  5
232
330
1F
100
AcDbEntity
  8
0
  6
Continuous
 62
     7
370
    25
100
AcDbPolyline
 90
        3
 70
   128
 43
0.0
 10
178.1026036857
 20
194.2984676732
 10
178.0419890216
 20
194.2629598206
 10
177.9352532552
 20
194.2005115264
  0
SPLINE
  5
233
330
1F
100
AcDbEntity
  8
0
  6
Continuous
 62
     7
370
    25
100
AcDbSpline
210
0.0
220
0.0
230
1.0
 70
     8
 71
     3
 72
    11
 73
     7
 74
     0
 42
0.00000001
 43
0.00000001
 40
0.0
 40
0.0
 40
0.0
 40
0.0
 40
0.1345990676765969
 40
0.4126978815969503
 40
0.6969472592954602
 40
0.9999999999999999
 40
0.9999999999999999
 40
0.9999999999999999
 40
0.9999999999999999
 10
178.1033457650162
 20
194.2991847193476
 30
0.0
 10
178.5259982839862
 20
194.0939892884919
 30
0.0
 10
179.8219047285214
 20
193.4648339675133
 30
0.0
 10
182.1754672776679
 20
192.762920161
 30
0.0
 10
185.2147880075598
 20
192.2840646189883
 30
0.0
 10
187.4036701019604
 20
192.183347749265
 30
0.0
 10
188.5331513297668
 20
192.1313770131678
 30
0.0
  0
ARC
  5
234
330
1F
100
AcDbEntity
  8
0
  6
Continuous
 62
     7
370
    25
100
AcDbCircle
 10
184.0639733219
 20
192.9017434867
 30
0.0
 40
4.535087272517281
100
AcDbArc
 50
327.1036881082
 51
350.2198521658
  0
LINE
  5
235
330
1F
100
AcDbEntity
  8
0
  6
Continuous
 62
     7
370
    25
100
AcDbLine
 10
178.1026036857
 20
194.2984676732
 30
0.0
 11
178.103345765
 21
194.2991847193
 31
0.0
  0
LINE
  5
236
330
1F
100
AcDbEntity
  8
0
  6
Continuous
 62
     7
370
    25
100
AcDbLine
 10
187.463453883
 20
195.08375168
 30
0.0
 11
189.5664739064
 21
192.2243866753
 31
0.0
  0
ARC
  5
237
330
1F
100
AcDbEntity
  8
0
  6
Continuous
 62
     7
370
    25
100
AcDbCircle
 10
182.1454640429
 20
202.3143409635
 30
0.0
 40
12.52511736202728
100
AcDbArc
 50
305.9335323377
 51
306.3339234504
  0
LINE
  5
238
330
1F
100
AcDbEntity
  8
0
  6
Continuous
 62
     7
370
    25
100
AcDbLine
 10
188.5331513298
 20
192.1313770132
 30
0.0
 11
189.4957832361
 21
192.1727743838
 31
0.0
  0
LINE
  5
239
330
1F
100
AcDbEntity
  8
0
  6
Continuous
 62
     7
370
    25
100
AcDbLine
 10
178.1041510243
 20
194.29996473
 30
0.0
 11
178.103345765
 21
194.2991847193
 31
0.0
  0
LINE
  5
23A
330
1F
100
AcDbEntity
  8
0
  6
Continuous
 62
     7
370
    25
100
AcDbLine
 10
192.4969607999
 20
192.5513078892
 30
0.0
 11
190.3941673523
 21
192.5059185586
 31
0.0
  0
LINE
  5
23B
330
1F
100
AcDbEntity
  8
0
  6
Continuous
 62
     7
370
    25
100
AcDbLine
 10
190.3175692138
 20
196.0545512775
 30
0.0
 11
190.3941673523
 21
192.5059185586
 31
0.0
  0
SPLINE
  5
23C
330
1F
100
AcDbEntity
  8
0
  6
Continuous
 62
     7
370
    25
100
AcDbSpline
210
0.0
220
0.0
230
1.0
 70
     8
 71
     3
 72
    16
 73
    12
 74
     0
 42
0.00000001
 43
0.00000001
 40
0.0
 40
0.0
 40
0.0
 40
0.0
 40
0.2861254310575668
 40
0.7591203623085425
 40
0.8520758313858462
 40
0.9266344548631257
 40
0.9604862301433723
 40
0.983533543656923
 40
0.9930756629548356
 40
0.9972242292023621
 40
1.0
 40
1.0
 40
1.0
 40
1.0
 10
193.9544209064586
 20
193.0267676316904
 30
0.0
 10
195.1996783544572
 20
193.5152856909112
 30
0.0
 10
198.5034751599281
 20
194.8113746290364
 30
0.0
 10
202.3330995594877
 20
195.7010617290326
 30
0.0
 10
205.1480561328106
 20
196.1686989054702
 30
0.0
 10
206.0178902795686
 20
196.2940567393378
 30
0.0
 10
206.5461530786204
 20
196.3648744220257
 30
0.0
 10
206.7809970818472
 20
196.3961136471316
 30
0.0
 10
206.8590843873225
 20
196.4078174750949
 30
0.0
 10
206.8752823751964
 20
196.4110089671612
 30
0.0
 10
206.8763668126323
 20
196.4117067795965
 30
0.0
 10
206.8768015329164
 20
196.4119865128572
 30
0.0
  0
LINE
  5
23D
330
1F
100
AcDbEntity
  8
0
  6
Continuous
 62
     7
370
    25
100
AcDbLine
 10
192.4969607999
 20
192.5513078892
 30
0.0
 11
193.9544209065
 21
193.0267676317
 31
0.0
  0
ARC
  5
23E
330
1F
100
AcDbEntity
  8
0
  6
Continuous
 62
     7
370
    25
100
AcDbCircle
 10
199.875799451
 20
196.4389118679
 30
0.0
 40
6.834138728219669
100
AcDbArc
 50
209.9523325978
 51
225.0240262103
  0
SPLINE
  5
23F
330
1F
100
AcDbEntity
  8
0
  6
Continuous
 62
     7
370
    25
100
AcDbSpline
210
0.0
220
0.0
230
1.0
 70
     8
 71
     3
 72
    10
 73
     6
 74
     0
 42
0.00000001
 43
0.00000001
 40
0.0
 40
0.0
 40
0.0
 40
0.0
 40
0.5975855365574059
 40
0.9790563563181979
 40
1.0
 40
1.0
 40
1.0
 40
1.0
 10
206.986458226656
 20
196.399169307799
 30
0.0
 10
206.9891015377209
 20
196.4028218845858
 30
0.0
 10
206.9934322156599
 20
196.4088060965545
 30
0.0
 10
206.9191156979205
 20
196.411680370871
 30
0.0
 10
206.8788948264653
 20
196.4119713679278
 30
0.0
 10
206.8768015329164
 20
196.4119865128572
 30
0.0
  0
SPLINE
  5
240
330
1F
100
AcDbEntity
  8
0
  6
Continuous
 62
     7
370
    25
100
AcDbSpline
210
0.0
220
0.0
230
1.0
 70
     8
 71
     3
 72
    14
 73
    10
 74
     0
 42
0.00000001
 43
0.00000001
 40
0.0
 40
0.0
 40
0.0
 40
0.0
 40
0.0129036569231474
 40
0.0519665716781133
 40
0.1318891824261219
 40
0.2280032005552178
 40
0.4679440229400844
 40
0.7079115564493597
 40
0.9999999999999999
 40
0.9999999999999999
 40
0.9999999999999999
 40
0.9999999999999999
 10
206.986458226656
 20
196.399169307799
 30
0.0
 10
206.9527450418512
 20
196.3924528802596
 30
0.0
 10
206.8169727840262
 20
196.3654039812362
 30
0.0
 10
206.3745084430359
 20
196.2778337235234
 30
0.0
 10
205.5567407160491
 20
196.1028000967013
 30
0.0
 10
203.8885094611558
 20
195.6915488238726
 30
0.0
 10
201.5174141189144
 20
194.9333027245465
 30
0.0
 10
198.3255627561302
 20
193.5948130700799
 30
0.0
 10
196.2079105699424
 20
192.3098434826305
 30
0.0
 10
195.045360466731
 20
191.6044200253432
 30
0.0
  0
LWPOLYLINE
  5
241
330
1F
100
AcDbEntity
  8
0
  6
Continuous
 62
     7
370
    25
100
AcDbPolyline
 90
        4
 70
   128
 43
0.0
 10
207.0008991257
 20
196.2475031281
 10
206.9992387704
 20
196.2649268726
 10
206.9926008612
 20
196.3346218913
 10
206.9864582267
 20
196.3991693078
  0
LINE
  5
242
330
1F
100
AcDbEntity
  8
0
  6
Continuous
 62
     7
370
    25
100
AcDbLine
 10
205.1993570421
 20
195.8782762989
 30
0.0
 11
207.0008991257
 21
196.2475031281
 31
0.0
  0
ARC
  5
243
330
1F
100
AcDbEntity
  8
0
  6
Continuous
 62
     7
370
    25
100
AcDbCircle
 10
212.3583790819
 20
165.1948182083
 30
0.0
 40
31.50755777528336
100
AcDbArc
 50
103.1332227153
 51
123.2471548844
  0
LINE
  5
244
330
1F
100
AcDbEntity
  8
0
  6
Continuous
 62
     7
370
    25
100
AcDbLine
 10
195.0453604667
 20
191.6044200253
 30
0.0
 11
195.0843069156
 21
191.5450103852
 31
0.0
  0
SPLINE
  5
245
330
1F
100
AcDbEntity
  8
0
  6
Continuous
 62
     7
370
    25
100
AcDbSpline
210
0.0
220
0.0
230
1.0
 70
     8
 71
     3
 72
     9
 73
     5
 74
     0
 42
0.00000001
 43
0.00000001
 40
0.0
 40
0.0
 40
0.0
 40
0.0
 40
0.4998978730610189
 40
1.0
 40
1.0
 40
1.0
 40
1.0
 10
190.3941673523187
 20
192.5059185586076
 30
0.0
 10
190.2453854339465
 20
192.4909409581298
 30
0.0
 10
189.9477608062176
 20
192.4609796374581
 30
0.0
 10
189.6935868450041
 20
192.3032617341973
 30
0.0
 10
189.5664739063886
 20
192.2243866753202
 30
0.0
  0
ARC
  5
246
330
1F
100
AcDbEntity
  8
0
  6
Continuous
 62
     7
370
    25
100
AcDbCircle
 10
207.0712886006
 20
195.9063405811
 30
0.0
 40
0.5000763403709196
100
AcDbArc
 50
91.2378551073
 51
99.7665890293
  0
SPLINE
  5
247
330
1F
100
AcDbEntity
  8
0
  6
Continuous
 62
     7
370
    25
100
AcDbSpline
210
0.0
220
0.0
230
1.0
 70
     8
 71
     3
 72
    12
 73
     8
 74
     0
 42
0.00000001
 43
0.00000001
 40
0.0
 40
0.0
 40
0.0
 40
0.0
 40
0.0460726725321139
 40
0.2494576442748307
 40
0.4755636088397376
 40
0.7057929889265034
 40
1.0
 40
1.0
 40
1.0
 40
1.0
 10
178.634203476174
 20
210.5942182277086
 30
0.0
 10
178.7645658430118
 20
210.6523772166969
 30
0.0
 10
179.4704048392364
 20
210.9672754761006
 30
0.0
 10
180.8431163472954
 20
211.5370746598574
 30
0.0
 10
182.876972530343
 20
212.2766394293041
 30
0.0
 10
185.4001622564501
 20
213.0654573908523
 30
0.0
 10
187.3547191134078
 20
213.497402384405
 30
0.0
 10
188.4512187853441
 20
213.7397220396449
 30
0.0
  0
LINE
  5
248
330
1F
100
AcDbEntity
  8
0
  6
Continuous
 62
     7
370
    25
100
AcDbLine
 10
188.8390082368
 20
211.777987859
 30
0.0
 11
188.4512187853
 21
213.7397220396
 31
0.0
  0
SPLINE
  5
249
330
1F
100
AcDbEntity
  8
0
  6
Continuous
 62
     7
370
    25
100
AcDbSpline
210
0.0
220
0.0
230
1.0
 70
     8
 71
     3
 72
    13
 73
     9
 74
     0
 42
0.00000001
 43
0.00000001
 40
0.0
 40
0.0
 40
0.0
 40
0.0
 40
0.2574896950994386
 40
0.4890886589321009
 40
0.7206004760683454
 40
0.9447506334961244
 40
0.9460032291293291
 40
1.0
 40
1.0
 40
1.0
 40
1.0
 10
188.8390082368072
 20
211.7779878590353
 30
0.0
 10
187.9217435785401
 20
211.836892533072
 30
0.0
 10
186.1794457307586
 20
211.9487789835891
 30
0.0
 10
183.6807606825797
 20
211.8680935119605
 30
0.0
 10
181.3525332671782
 20
211.5327292533314
 30
0.0
 10
179.8594792760476
 20
211.0830660647893
 30
0.0
 10
178.976139589109
 20
210.7382977125601
 30
0.0
 10
178.8035363810477
 20
210.6650732615591
 30
0.0
 10
178.6348463766732
 20
210.5935089314494
 30
0.0
  0
LINE
  5
24A
330
1F
100
AcDbEntity
  8
0
  6
Continuous
 62
     7
370
    25
100
AcDbLine
 10
178.6348463767
 20
210.5935089314
 30
0.0
 11
178.6342034762
 21
210.5942182277
 31
0.0
  0
ARC
  5
24B
330
1F
100
AcDbEntity
  8
0
  6
Continuous
 62
     7
370
    25
100
AcDbCircle
 10
197.7808181842
 20
166.5435077977
 30
0.0
 40
48.10950076354639
100
AcDbArc
 50
100.9333063994
 51
101.1818887889
  0
LWPOLYLINE
  5
24C
330
1F
100
AcDbEntity
  8
0
  6
Continuous
 62
     7
370
    25
100
AcDbPolyline
 90
        3
 70
   128
 43
0.0
 10
178.6342034762
 20
210.5942182277
 10
178.5917910686
 20
210.6230504874
 10
178.4894886978
 20
210.6925237792
  0
ARC
  5
24D
330
1F
100
AcDbEntity
  8
0
  6
Continuous
 62
     7
370
    25
100
AcDbCircle
 10
197.7808181842
 20
166.5435077977
 30
0.0
 40
48.17977797259057
100
AcDbArc
 50
100.9333063994
 51
113.6033767663
  0
LINE
  5
24E
330
1F
100
AcDbEntity
  8
0
  6
Continuous
 62
     7
370
    25
100
AcDbLine
 10
188.6560705555
 20
213.7797549436
 30
0.0
 11
188.6427413423
 21
213.8487565246
 31
0.0
  0
LINE
  5
24F
330
1F
100
AcDbEntity
  8
0
  6
Continuous
 62
     7
370
    25
100
AcDbLine
 10
190.7259680522
 20
208.0271305998
 30
0.0
 11
190.9564298916
 21
210.6164989274
 31
0.0
  0
LINE
  5
250
330
1F
100
AcDbEntity
  8
0
  6
Continuous
 62
     7
370
    25
100
AcDbLine
 10
190.9564298916
 20
210.6164989274
 30
0.0
 11
194.8969544965
 21
210.2657799745
 31
0.0
  0
SPLINE
  5
251
330
1F
100
AcDbEntity
  8
0
  6
Continuous
 62
     7
370
    25
100
AcDbSpline
210
0.0
220
0.0
230
1.0
 70
     8
 71
     3
 72
    17
 73
    13
 74
     0
 42
0.00000001
 43
0.00000001
 40
0.0
 40
0.0
 40
0.0
 40
0.0
 40
0.0068264277560532
 40
0.008845000485384
 40
0.022399410288441
 40
0.0309598270239203
 40
0.0563228448230685
 40
0.1198844474831679
 40
0.195749369889379
 40
0.5558716060100621
 40
0.7769840750939088
 40
0.9999999999999999
 40
0.9999999999999999
 40
0.9999999999999999
 40
0.9999999999999999
 10
207.219876049972
 20
206.5591214580956
 30
0.0
 10
207.2162928171397
 20
206.5602806464106
 30
0.0
 10
207.2116500233868
 20
206.561782606378
 30
0.0
 10
207.168396799978
 20
206.5708304598716
 30
0.0
 10
207.0943016297407
 20
206.5850786649184
 30
0.0
 10
206.9284273496449
 20
206.6163864997741
 30
0.0
 10
206.5490317424735
 20
206.6876841867742
 30
0.0
 10
205.8701851555012
 20
206.8197564072257
 30
0.0
 10
203.7786893424465
 20
207.2574225300076
 30
0.0
 10
200.9934138460212
 20
207.9845496678205
 30
0.0
 10
197.6297716008135
 20
209.1106066590188
 30
0.0
 10
195.8104925674004
 20
209.8796235790967
 30
0.0
 10
194.8969544964522
 20
210.2657799744555
 30
0.0
  0
LINE
  5
252
330
1F
100
AcDbEntity
  8
0
  6
Continuous
 62
     7
370
    25
100
AcDbLine
 10
194.8969544965
 20
210.2657799745
 30
0.0
 11
196.0812175207
 21
211.8770846457
 31
0.0
  0
SPLINE
  5
253
330
1F
100
AcDbEntity
  8
0
  6
Continuous
 62
     7
370
    25
100
AcDbSpline
210
0.0
220
0.0
230
1.0
 70
     8
 71
     3
 72
    14
 73
    10
 74
     0
 42
0.00000001
 43
0.00000001
 40
0.0
 40
0.0
 40
0.0
 40
0.0
 40
0.2256458607195969
 40
0.4518169308148938
 40
0.8157761447763445
 40
0.8946140573305364
 40
0.9637846180221658
 40
0.9940799143125663
 40
1.0
 40
1.0
 40
1.0
 40
1.0
 10
196.0812175206787
 20
211.8770846456731
 30
0.0
 10
196.9081819912066
 20
211.3039620270737
 30
0.0
 10
198.5640357603623
 20
210.1563827996487
 30
0.0
 10
201.6898845418628
 20
208.4850097740079
 30
0.0
 10
204.3276339793484
 20
207.4424477387462
 30
0.0
 10
206.259547898294
 20
206.8557807476327
 30
0.0
 10
206.8980421892212
 20
206.6788549275579
 30
0.0
 10
207.2232705258791
 20
206.5923324965711
 30
0.0
 10
207.3150328222032
 20
206.567715782378
 30
0.0
 10
207.3300330963256
 20
206.5636917172044
 30
0.0
  0
SPLINE
  5
254
330
1F
100
AcDbEntity
  8
0
  6
Continuous
 62
     7
370
    25
100
AcDbSpline
210
0.0
220
0.0
230
1.0
 70
     8
 71
     3
 72
    11
 73
     7
 74
     0
 42
0.00000001
 43
0.00000001
 40
0.0
 40
0.0
 40
0.0
 40
0.0
 40
0.0195561212296432
 40
0.1681891996745257
 40
0.5898876540792964
 40
1.0
 40
1.0
 40
1.0
 40
1.0
 10
207.219876049972
 20
206.5591214580956
 30
0.0
 10
207.2218317061024
 20
206.5589975892143
 30
0.0
 10
207.2386510045484
 20
206.5579322753022
 30
0.0
 10
207.2904938563945
 20
206.5553431338424
 30
0.0
 10
207.3398208553639
 20
206.5557759141201
 30
0.0
 10
207.3332652454588
 20
206.5610777321261
 30
0.0
 10
207.3300330963256
 20
206.5636917172044
 30
0.0
  0
LINE
  5
255
330
1F
100
AcDbEntity
  8
0
  6
Continuous
 62
     7
370
    25
100
AcDbLine
 10
187.9448756599
 20
209.1861680035
 30
0.0
 11
189.6215055433
 21
211.1728368812
 31
0.0
  0
LINE
  5
256
330
1F
100
AcDbEntity
  8
0
  6
Continuous
 62
     7
370
    25
100
AcDbLine
 10
178.6348463767
 20
210.5935089314
 30
0.0
 11
178.6353942246
 21
210.592903148
 31
0.0
  0
ARC
  5
257
330
1F
100
AcDbEntity
  8
0
  6
Continuous
 62
     7
370
    25
100
AcDbCircle
 10
182.1454640429
 20
202.3143409635
 30
0.0
 40
11.59155496206736
100
AcDbArc
 50
49.8376326145
 51
54.7286069047
  0
LWPOLYLINE
  5
258
330
1F
100
AcDbEntity
  8
0
  6
Continuous
 62
     7
370
    25
100
AcDbPolyline
 90
        4
 70
   128
 43
0.0
 10
207.3300330963
 20
206.5636917172
 10
207.3328570951
 20
206.5809648674
 10
207.3441565803
 20
206.6500571922
 10
207.3521277307
 20
206.698777097
  0
ARC
  5
259
330
1F
100
AcDbEntity
  8
0
  6
Continuous
 62
     7
370
    25
100
AcDbCircle
 10
214.7822969642
 20
237.3217164949
 30
0.0
 40
31.57783498432757
100
AcDbArc
 50
232.9032960505
 51
233.6851734779
  0
LINE
  5
25A
330
1F
100
AcDbEntity
  8
0
  6
Continuous
 62
     7
370
    25
100
AcDbLine
 10
195.7357435693
 20
212.1346470728
 30
0.0
 11
195.7781321186
 21
212.1907014839
 31
0.0
  0
ARC
  5
25B
330
1F
100
AcDbEntity
  8
0
  6
Continuous
 62
     7
370
    25
100
AcDbCircle
 10
214.7822969642
 20
237.3217164949
 30
0.0
 40
31.5075577752834
100
AcDbArc
 50
232.9032960505
 51
253.0172282196
  0
LINE
  5
25C
330
1F
100
AcDbEntity
  8
0
  6
Continuous
 62
     7
370
    25
100
AcDbLine
 10
207.3521277307
 20
206.698777097
 30
0.0
 11
205.5794390152
 21
207.1881205839
 31
0.0
  0
LINE
  5
25D
330
1F
100
AcDbEntity
  8
0
  6
Continuous
 62
     7
370
    25
100
AcDbLine
 10
207.075041439
 20
196.2553356009
 30
0.0
 11
207.0008991257
 21
196.2475031281
 31
0.0
  0
SPLINE
  5
25E
330
1F
100
AcDbEntity
  8
0
  6
Continuous
 62
     7
370
    25
100
AcDbSpline
210
0.0
220
0.0
230
1.0
 70
     8
 71
     3
 72
    10
 73
     6
 74
     0
 42
0.00000001
 43
0.00000001
 40
0.0
 40
0.0
 40
0.0
 40
0.0
 40
0.049076908576186
 40
0.5995805843665285
 40
0.9999999999999999
 40
0.9999999999999999
 40
0.9999999999999999
 40
0.9999999999999999
 10
189.6215055432981
 20
211.1728368811719
 30
0.0
 10
189.6399512524915
 20
211.157585998605
 30
0.0
 10
189.8653054856343
 20
210.9712634826425
 30
0.0
 10
190.3030665097182
 20
210.722367832847
 30
0.0
 10
190.7628302806653
 20
210.6478691870091
 30
0.0
 10
190.9564298915616
 20
210.6164989274151
 30
0.0
  0
ARC
  5
25F
330
1F
100
AcDbEntity
  8
0
  6
Continuous
 62
     7
370
    25
100
AcDbCircle
 10
207.4477769528
 20
207.0497089295
 30
0.0
 40
0.5000763405077593
100
AcDbArc
 50
256.3817458054
 51
264.9125955021
  0
SPLINE
  5
260
330
1F
100
AcDbEntity
  8
0
  6
Continuous
 62
     7
370
    25
100
AcDbSpline
210
0.0
220
0.0
230
1.0
 70
     8
 71
     3
 72
     9
 73
     5
 74
     0
 42
0.00000001
 43
0.00000001
 40
0.0
 40
0.0
 40
0.0
 40
0.0
 40
0.8458911907785739
 40
1.0
 40
1.0
 40
1.0
 40
1.0
 10
207.3521277306987
 20
206.698777097032
 30
0.0
 10
207.3728284390608
 20
206.6942644623285
 30
0.0
 10
207.3973005089768
 20
206.6889296926176
 30
0.0
 10
207.4218011510933
 20
206.6863778778307
 30
0.0
 10
207.4255769158751
 20
206.6859846206924
 30
0.0
  0
LINE
  5
261
330
1F
100
AcDbEntity
  8
0
  6
Continuous
 62
     7
370
    25
100
AcDbLine
 10
225.3750311588
 20
205.0159121621
 30
0.0
 11
225.374574331
 21
205.0159526676
 31
0.0
  0
LINE
  5
262
330
1F
100
AcDbEntity
  8
0
  6
Continuous
 62
     7
370
    25
100
AcDbLine
 10
195.0453604667
 20
191.6044200253
 30
0.0
 11
193.1741716215
 21
190.669774696
 31
0.0
  0
LINE
  5
263
330
1F
100
AcDbEntity
  8
0
  6
Continuous
 62
     7
370
    25
100
AcDbLine
 10
192.4969607999
 20
192.5513078892
 30
0.0
 11
193.1741716215
 21
190.669774696
 31
0.0
  0
LINE
  5
264
330
1F
100
AcDbEntity
  8
0
  6
Continuous
 62
     7
370
    25
100
AcDbLine
 10
189.4957832361
 20
192.1727743838
 30
0.0
 11
189.3069785643
 21
190.1820121052
 31
0.0
  0
LINE
  5
265
330
1F
100
AcDbEntity
  8
0
  6
Continuous
 62
     7
370
    25
100
AcDbLine
 10
189.3069785643
 20
190.1820121052
 30
0.0
 11
187.87188124
 21
190.4386450605
 31
0.0
  0
ARC
  5
266
330
1F
100
AcDbEntity
  8
0
  6
Continuous
 62
     7
370
    25
100
AcDbCircle
 10
214.7822969642
 20
237.3217164949
 30
0.0
 40
33.57753037464035
100
AcDbArc
 50
232.9032960505
 51
233.6851734779
  0
LINE
  5
267
330
1F
100
AcDbEntity
  8
0
  6
Continuous
 62
     7
370
    25
100
AcDbLine
 10
194.52960309
 20
210.5396527788
 30
0.0
 11
195.7357435693
 21
212.1346470728
 31
0.0
  0
ARC
  5
268
330
1F
100
AcDbEntity
  8
0
  6
Continuous
 62
     7
370
    25
100
AcDbCircle
 10
190.3497220452
 20
205.0121984479
 30
0.0
 40
6.929946387144297
100
AcDbArc
 50
52.9032960505
 51
100.9333063994
  0
LINE
  5
269
330
1F
100
AcDbEntity
  8
0
  6
Continuous
 62
     7
370
    25
100
AcDbLine
 10
189.035345241
 20
211.8163567754
 30
0.0
 11
188.6560705555
 21
213.7797549436
 31
0.0
  0
ARC
  5
26A
330
1F
100
AcDbEntity
  8
0
  6
Continuous
 62
     7
370
    25
100
AcDbCircle
 10
190.3497220452
 20
205.0121984479
 30
0.0
 40
8.929641777457059
100
AcDbArc
 50
52.9032960505
 51
100.9333063994
  0
ARC
  5
26B
330
1F
100
AcDbEntity
  8
0
  6
Continuous
 62
     7
370
    25
100
AcDbCircle
 10
197.7808181842
 20
166.5435077977
 30
0.0
 40
46.10980537323363
100
AcDbArc
 50
100.9333063994
 51
101.1818887889
  0
ARC
  5
26C
330
1F
100
AcDbEntity
  8
0
  6
Continuous
 62
     7
370
    25
100
AcDbCircle
 10
190.1500860162
 20
199.0717630634
 30
0.0
 40
6.929946387144262
100
AcDbArc
 50
264.5822507961
 51
289.795071751
  0
ARC
  5
26D
330
1F
100
AcDbEntity
  8
0
  6
Continuous
 62
     7
370
    25
100
AcDbCircle
 10
190.1500860162
 20
199.0717630634
 30
0.0
 40
8.929641777457041
100
AcDbArc
 50
264.5822507961
 51
289.795071751
  0
ARC
  5
26E
330
1F
100
AcDbEntity
  8
0
  6
Continuous
 62
     7
370
    25
100
AcDbCircle
 10
190.1500860162
 20
199.0717630634
 30
0.0
 40
8.999918986501223
100
AcDbArc
 50
255.2171445356
 51
303.2471548844
  0
ARC
  5
26F
330
1F
100
AcDbEntity
  8
0
  6
Continuous
 62
     7
370
    25
100
AcDbCircle
 10
190.3497220452
 20
205.0121984479
 30
0.0
 40
8.999918986501225
100
AcDbArc
 50
52.9032960505
 51
100.9333063994
  0
LINE
  5
270
330
1F
100
AcDbEntity
  8
0
  6
Continuous
 62
     7
370
    25
100
AcDbLine
 10
199.5416739789
 20
221.7809217173
 30
0.0
 11
199.5416739789
 21
234.4477602098
 31
0.0
  0
SPLINE
  5
271
330
1F
100
AcDbEntity
  8
0
  6
Continuous
 62
     7
370
    25
100
AcDbSpline
210
0.0
220
0.0
230
1.0
 70
     8
 71
     3
 72
    11
 73
     7
 74
     0
 42
0.00000001
 43
0.00000001
 40
0.0
 40
0.0
 40
0.0
 40
0.0
 40
0.2646093757676088
 40
0.5349569643242564
 40
0.7653478824379792
 40
1.0
 40
1.0
 40
1.0
 40
1.0
 10
199.5416739789302
 20
221.7809217172701
 30
0.0
 10
198.0298891425026
 20
221.3318572302011
 30
0.0
 10
194.973535510056
 20
220.4239900237144
 30
0.0
 10
190.4451926151927
 20
220.0918964324073
 30
0.0
 10
186.1164568428941
 20
220.5793999112284
 30
0.0
 10
183.4627131334931
 20
221.3779753272885
 30
0.0
 10
182.123683123135
 20
221.7809217172698
 30
0.0
  0
LINE
  5
272
330
1F
100
AcDbEntity
  8
0
  6
Continuous
 62
     7
370
    25
100
AcDbLine
 10
182.1236831231
 20
221.7809217173
 30
0.0
 11
182.1236831231
 21
234.4477602098
 31
0.0
  0
SPLINE
  5
273
330
1F
100
AcDbEntity
  8
0
  6
Continuous
 62
     7
370
    25
100
AcDbSpline
210
0.0
220
0.0
230
1.0
 70
     8
 71
     3
 72
    11
 73
     7
 74
     0
 42
0.00000001
 43
0.00000001
 40
0.0
 40
0.0
 40
0.0
 40
0.0
 40
0.264609375767609
 40
0.5349569643242567
 40
0.7653478824379772
 40
0.9999999999999999
 40
0.9999999999999999
 40
0.9999999999999999
 40
0.9999999999999999
 10
182.1236831231348
 20
234.4477602098079
 30
0.0
 10
183.6354679595624
 20
234.896824696877
 30
0.0
 10
186.6918215920091
 20
235.8046919033637
 30
0.0
 10
191.2201644868722
 20
236.1367854946705
 30
0.0
 10
195.5489002591712
 20
235.6492820158498
 30
0.0
 10
198.202643968572
 20
234.8507065997896
 30
0.0
 10
199.54167397893
 20
234.4477602098082
 30
0.0
  0
LINE
  5
274
330
1F
100
AcDbEntity
  8
0
  6
Continuous
 62
     7
370
    25
100
AcDbLine
 10
197.9454640429
 20
221.3212271342
 30
0.0
 11
199.5634548987
 21
221.7809217173
 31
0.0
  0
LINE
  5
275
330
1F
100
AcDbEntity
  8
0
  6
Continuous
 62
     7
370
    25
100
AcDbLine
 10
164.7492541068
 20
221.7809217173
 30
0.0
 11
166.452768743
 21
221.3395960067
 31
0.0
  0
SPLINE
  5
276
330
1F
100
AcDbEntity
  8
0
  6
Continuous
 62
     7
370
    25
100
AcDbSpline
210
0.0
220
0.0
230
1.0
 70
     8
 71
     3
 72
    11
 73
     7
 74
     0
 42
0.00000001
 43
0.00000001
 40
0.0
 40
0.0
 40
0.0
 40
0.0
 40
0.26460937576761
 40
0.5349569643242567
 40
0.7653478824379777
 40
1.0
 40
1.0
 40
1.0
 40
1.0
 10
164.7274731870895
 20
221.7809217172694
 30
0.0
 10
164.7293636499146
 20
221.3318572302004
 30
0.0
 10
164.7331855713835
 20
220.423990023714
 30
0.0
 10
164.7388481919468
 20
220.0918964324069
 30
0.0
 10
164.744261206987
 20
220.5793999112279
 30
0.0
 10
164.7475796711687
 20
221.3779753272881
 30
0.0
 10
164.7492541068392
 20
221.7809217172694
 30
0.0
  0
SPLINE
  5
277
330
1F
100
AcDbEntity
  8
0
  6
Continuous
 62
     7
370
    25
100
AcDbSpline
210
0.0
220
0.0
230
1.0
 70
     8
 71
     3
 72
    12
 73
     8
 74
     0
 42
0.00000001
 43
0.00000001
 40
0.0
 40
0.0
 40
0.0
 40
0.0
 40
0.1820499033062403
 40
0.3656406087374416
 40
0.614961334899165
 40
0.8710066969717205
 40
1.0
 40
1.0
 40
1.0
 40
1.0
 10
182.123683123135
 20
221.7809217172698
 30
0.0
 10
181.0881183188403
 20
221.4619578323819
 30
0.0
 10
179.0082240780153
 20
220.8213304718747
 30
0.0
 10
175.4196375681081
 20
220.2113294905996
 30
0.0
 10
171.3481015713059
 20
220.1777756164122
 30
0.0
 10
167.645699389928
 20
220.8626575548089
 30
0.0
 10
165.4597849113152
 20
221.5504887194943
 30
0.0
 10
164.7274731870895
 20
221.7809217172694
 30
0.0
  0
SPLINE
  5
278
330
1F
100
AcDbEntity
  8
0
  6
Continuous
 62
     7
370
    25
100
AcDbSpline
210
0.0
220
0.0
230
1.0
 70
     8
 71
     3
 72
    11
 73
     7
 74
     0
 42
0.00000001
 43
0.00000001
 40
0.0
 40
0.0
 40
0.0
 40
0.0
 40
0.2646093757676108
 40
0.5349569643242568
 40
0.7653478824379781
 40
1.0
 40
1.0
 40
1.0
 40
1.0
 10
199.5634548986799
 20
221.7809217172701
 30
0.0
 10
199.5615644358548
 20
221.3318572302011
 30
0.0
 10
199.557742514386
 20
220.4239900237143
 30
0.0
 10
199.5520798938228
 20
220.0918964324076
 30
0.0
 10
199.5466668787824
 20
220.5793999112286
 30
0.0
 10
199.5433484146009
 20
221.3779753272889
 30
0.0
 10
199.5416739789302
 20
221.7809217172701
 30
0.0
  0
LINE
  5
279
330
1F
100
AcDbEntity
  8
0
  6
Continuous
 62
     7
370
    25
100
AcDbLine
 10
164.8641772139
 20
220.1643409635
 30
0.0
 11
199.4267508718
 21
220.1643409635
 31
0.0
  0
LINE
  5
27A
330
1F
100
AcDbEntity
  8
0
  6
Continuous
 62
     7
370
    25
100
AcDbLine
 10
164.7274731871
 20
221.7809217173
 30
0.0
 11
164.7274731871
 21
234.4477602098
 31
0.0
  0
SPLINE
  5
27B
330
1F
100
AcDbEntity
  8
0
  6
Continuous
 62
     7
370
    25
100
AcDbSpline
210
0.0
220
0.0
230
1.0
 70
     8
 71
     3
 72
    12
 73
     8
 74
     0
 42
0.00000001
 43
0.00000001
 40
0.0
 40
0.0
 40
0.0
 40
0.0
 40
0.1289937508738273
 40
0.3786272441489045
 40
0.6343574588057703
 40
0.8162656302547749
 40
1.0
 40
1.0
 40
1.0
 40
1.0
 10
164.7274731870893
 20
234.4477602098076
 30
0.0
 10
165.4597967204061
 20
234.6781986484586
 30
0.0
 10
167.6093399298005
 20
235.3545901044892
 30
0.0
 10
171.3095815216849
 20
236.0467255887024
 30
0.0
 10
175.3723686561849
 20
236.0239232134482
 30
0.0
 10
178.9984285710946
 20
235.4096880683922
 30
0.0
 10
181.0784686920613
 20
234.7694686859342
 30
0.0
 10
182.1236831231348
 20
234.4477602098079
 30
0.0
  0
LINE
  5
27C
330
1F
100
AcDbEntity
  8
0
  6
Continuous
 62
     7
370
    25
100
AcDbLine
 10
195.4454640429
 20
235.8143409635
 30
0.0
 11
195.1454640429
 21
235.8143409635
 31
0.0
  0
LINE
  5
27D
330
1F
100
AcDbEntity
  8
0
  6
Continuous
 62
     7
370
    25
100
AcDbLine
 10
169.1454640429
 20
235.8143409635
 30
0.0
 11
168.8454640429
 21
235.8143409635
 31
0.0
  0
LINE
  5
27E
330
1F
100
AcDbEntity
  8
0
  6
Continuous
 62
     7
370
    25
100
AcDbLine
 10
199.5634548987
 20
221.7809217173
 30
0.0
 11
199.5634548987
 21
234.4477602098
 31
0.0
  0
SPLINE
  5
27F
330
1F
100
AcDbEntity
  8
0
  6
Continuous
 62
     7
370
    25
100
AcDbSpline
210
0.0
220
0.0
230
1.0
 70
     8
 71
     3
 72
    11
 73
     7
 74
     0
 42
0.00000001
 43
0.00000001
 40
0.0
 40
0.0
 40
0.0
 40
0.0
 40
0.26460937576761
 40
0.5349569643242567
 40
0.7653478824379784
 40
1.0
 40
1.0
 40
1.0
 40
1.0
 10
199.54167397893
 20
234.4477602098082
 30
0.0
 10
199.5435644417551
 20
234.8968246968772
 30
0.0
 10
199.547386363224
 20
235.8046919033638
 30
0.0
 10
199.5530489837874
 20
236.1367854946712
 30
0.0
 10
199.5584619988275
 20
235.6492820158495
 30
0.0
 10
199.5617804630092
 20
234.8507065997895
 30
0.0
 10
199.5634548986798
 20
234.4477602098083
 30
0.0
  0
SPLINE
  5
280
330
1F
100
AcDbEntity
  8
0
  6
Continuous
 62
     7
370
    25
100
AcDbSpline
210
0.0
220
0.0
230
1.0
 70
     8
 71
     3
 72
    11
 73
     7
 74
     0
 42
0.00000001
 43
0.00000001
 40
0.0
 40
0.0
 40
0.0
 40
0.0
 40
0.2646093757676095
 40
0.5349569643242564
 40
0.7653478824379777
 40
1.0
 40
1.0
 40
1.0
 40
1.0
 10
-23.4236596226193
 20
234.4477602098044
 30
0.0
 10
-21.88872649922502
 20
234.8968246968735
 30
0.0
 10
-18.78557430837874
 20
235.80469190336
 30
0.0
 10
-14.18789391370209
 20
236.1367854946672
 30
0.0
 10
-9.792877004402346
 20
235.6492820158457
 30
0.0
 10
-7.098499456480778
 20
234.8507065997858
 30
0.0
 10
-5.738966362489495
 20
234.4477602098047
 30
0.0
  0
LINE
  5
281
330
1F
100
AcDbEntity
  8
0
  6
Continuous
 62
     7
370
    25
100
AcDbLine
 10
-5.7389663625
 20
221.7809217173
 30
0.0
 11
-5.7389663625
 21
234.4477602098
 31
0.0
  0
SPLINE
  5
282
330
1F
100
AcDbEntity
  8
0
  6
Continuous
 62
     7
370
    25
100
AcDbSpline
210
0.0
220
0.0
230
1.0
 70
     8
 71
     3
 72
    11
 73
     7
 74
     0
 42
0.00000001
 43
0.00000001
 40
0.0
 40
0.0
 40
0.0
 40
0.0
 40
0.2646093757676116
 40
0.5349569643242563
 40
0.765347882437978
 40
0.9999999999999999
 40
0.9999999999999999
 40
0.9999999999999999
 40
0.9999999999999999
 10
-5.738966362489273
 20
221.7809217172666
 30
0.0
 10
-7.273899485883556
 20
221.3318572301974
 30
0.0
 10
-10.37705167672984
 20
220.4239900237108
 30
0.0
 10
-14.97473207140646
 20
220.0918964324037
 30
0.0
 10
-19.3697489807064
 20
220.5793999112246
 30
0.0
 10
-22.06412652862782
 20
221.3779753272849
 30
0.0
 10
-23.42365962261908
 20
221.7809217172662
 30
0.0
  0
LINE
  5
283
330
1F
100
AcDbEntity
  8
0
  6
Continuous
 62
     7
370
    25
100
AcDbLine
 10
-23.4236596226
 20
221.7809217173
 30
0.0
 11
-23.4236596226
 21
234.4477602098
 31
0.0
  0
SPLINE
  5
284
330
1F
100
AcDbEntity
  8
0
  6
Continuous
 62
     7
370
    25
100
AcDbSpline
210
0.0
220
0.0
230
1.0
 70
     8
 71
     3
 72
    11
 73
     7
 74
     0
 42
0.00000001
 43
0.00000001
 40
0.0
 40
0.0
 40
0.0
 40
0.0
 40
0.2646093757676103
 40
0.5349569643242568
 40
0.765347882437978
 40
1.0
 40
1.0
 40
1.0
 40
1.0
 10
-5.738966362489495
 20
234.4477602098047
 30
0.0
 10
-5.689569590227761
 20
234.8968246968737
 30
0.0
 10
-5.589704847113907
 20
235.8046919033602
 30
0.0
 10
-5.441743631132089
 20
236.1367854946673
 30
0.0
 10
-5.300304472613593
 20
235.6492820158461
 30
0.0
 10
-5.213594796411175
 20
234.850706599786
 30
0.0
 10
-5.169842696985672
 20
234.4477602098047
 30
0.0
  0
SPLINE
  5
285
330
1F
100
AcDbEntity
  8
0
  6
Continuous
 62
     7
370
    25
100
AcDbSpline
210
0.0
220
0.0
230
1.0
 70
     8
 71
     3
 72
    12
 73
     8
 74
     0
 42
0.00000001
 43
0.00000001
 40
0.0
 40
0.0
 40
0.0
 40
0.0
 40
0.1820499033062394
 40
0.3656406087374419
 40
0.6149613348991659
 40
0.8710066969717204
 40
1.0
 40
1.0
 40
1.0
 40
1.0
 10
-40.53922921724523
 20
234.447760209804
 30
0.0
 10
-39.52037042312792
 20
234.7667240946919
 30
0.0
 10
-37.47402959606425
 20
235.4073514551991
 30
0.0
 10
-33.94333512971434
 20
236.0173524364744
 30
0.0
 10
-29.93748224759327
 20
236.0509063106617
 30
0.0
 10
-26.29480821482222
 20
235.3660243722649
 30
0.0
 10
-24.1441574969854
 20
234.6781932075796
 30
0.0
 10
-23.4236596226193
 20
234.4477602098044
 30
0.0
  0
SPLINE
  5
286
330
1F
100
AcDbEntity
  8
0
  6
Continuous
 62
     7
370
    25
100
AcDbSpline
210
0.0
220
0.0
230
1.0
 70
     8
 71
     3
 72
    11
 73
     7
 74
     0
 42
0.00000001
 43
0.00000001
 40
0.0
 40
0.0
 40
0.0
 40
0.0
 40
0.2646093757676099
 40
0.5349569643242565
 40
0.765347882437978
 40
1.0
 40
1.0
 40
1.0
 40
1.0
 10
-39.97010555174138
 20
234.447760209804
 30
0.0
 10
-40.01950232400308
 20
234.8968246968732
 30
0.0
 10
-40.11936706711705
 20
235.8046919033594
 30
0.0
 10
-40.26732828309881
 20
236.1367854946668
 30
0.0
 10
-40.40876744161742
 20
235.6492820158455
 30
0.0
 10
-40.49547711781978
 20
234.8507065997853
 30
0.0
 10
-40.53922921724523
 20
234.447760209804
 30
0.0
  0
SPLINE
  5
287
330
1F
100
AcDbEntity
  8
0
  6
Continuous
 62
     7
370
    25
100
AcDbSpline
210
0.0
220
0.0
230
1.0
 70
     8
 71
     3
 72
     9
 73
     5
 74
     0
 42
0.00000001
 43
0.00000001
 40
0.0
 40
0.0
 40
0.0
 40
0.0
 40
0.0036504154713571
 40
1.0
 40
1.0
 40
1.0
 40
1.0
 10
-35.85453595711552
 20
235.5334952288126
 30
0.0
 10
-35.85965233956176
 20
235.5329216135621
 30
0.0
 10
-37.26124141521972
 20
235.3757846369512
 30
0.0
 10
-38.61815012375195
 20
234.9109239560669
 30
0.0
 10
-39.97010555174138
 20
234.447760209804
 30
0.0
  0
SPLINE
  5
288
330
1F
100
AcDbEntity
  8
0
  6
Continuous
 62
     7
370
    25
100
AcDbSpline
210
0.0
220
0.0
230
1.0
 70
     8
 71
     3
 72
     9
 73
     5
 74
     0
 42
0.00000001
 43
0.00000001
 40
0.0
 40
0.0
 40
0.0
 40
0.0
 40
0.46789250564047
 40
1.0
 40
1.0
 40
1.0
 40
1.0
 10
-5.169842696985672
 20
234.4477602098047
 30
0.0
 10
-5.889130144815041
 20
234.6875882434459
 30
0.0
 10
-7.426422234682511
 20
235.200159038554
 30
0.0
 10
-9.011241662413378
 20
235.4444759076601
 30
0.0
 10
-9.854535957115523
 20
235.5744787447099
 30
0.0
  0
LINE
  5
289
330
1F
100
AcDbEntity
  8
0
  6
Continuous
 62
     7
370
    25
100
AcDbLine
 10
-5.5577517199
 20
236.0643409635
 30
0.0
 11
-40.1513201943
 21
236.0643409635
 31
0.0
  0
SPLINE
  5
28A
330
1F
100
AcDbEntity
  8
0
  6
Continuous
 62
     7
370
    25
100
AcDbSpline
210
0.0
220
0.0
230
1.0
 70
     8
 71
     3
 72
    12
 73
     8
 74
     0
 42
0.00000001
 43
0.00000001
 40
0.0
 40
0.0
 40
0.0
 40
0.0
 40
0.1289937508738273
 40
0.378627244148903
 40
0.63435745880577
 40
0.8162656302547752
 40
1.0
 40
1.0
 40
1.0
 40
1.0
 10
-23.42365962261908
 20
221.7809217172662
 30
0.0
 10
-24.14416911556877
 20
221.5504832786153
 30
0.0
 10
-26.2590353152927
 20
220.8740918225846
 30
0.0
 10
-29.89958361378184
 20
220.1819563383713
 30
0.0
 10
-33.89682877260236
 20
220.2047587136255
 30
0.0
 10
-37.4643921128979
 20
220.8189938586819
 30
0.0
 10
-39.51087646672555
 20
221.4592132411397
 30
0.0
 10
-40.53922921724501
 20
221.7809217172659
 30
0.0
  0
SPLINE
  5
28B
330
1F
100
AcDbEntity
  8
0
  6
Continuous
 62
     7
370
    25
100
AcDbSpline
210
0.0
220
0.0
230
1.0
 70
     8
 71
     3
 72
    11
 73
     7
 74
     0
 42
0.00000001
 43
0.00000001
 40
0.0
 40
0.0
 40
0.0
 40
0.0
 40
0.2646093757676103
 40
0.5349569643242568
 40
0.7653478824379781
 40
1.0
 40
1.0
 40
1.0
 40
1.0
 10
-5.16984269698545
 20
221.7809217172666
 30
0.0
 10
-5.219239469247183
 20
221.3318572301976
 30
0.0
 10
-5.319104212361037
 20
220.423990023711
 30
0.0
 10
-5.467065428342827
 20
220.0918964324038
 30
0.0
 10
-5.608504586861407
 20
220.5793999112253
 30
0.0
 10
-5.695214263063769
 20
221.3779753272853
 30
0.0
 10
-5.738966362489273
 20
221.7809217172666
 30
0.0
  0
SPLINE
  5
28C
330
1F
100
AcDbEntity
  8
0
  6
Continuous
 62
     7
370
    25
100
AcDbSpline
210
0.0
220
0.0
230
1.0
 70
     8
 71
     3
 72
     9
 73
     5
 74
     0
 42
0.00000001
 43
0.00000001
 40
0.0
 40
0.0
 40
0.0
 40
0.0
 40
0.5562029212208732
 40
1.0
 40
1.0
 40
1.0
 40
1.0
 10
-40.53922921724501
 20
221.7809217172659
 30
0.0
 10
-40.48985538595187
 20
221.3104720587578
 30
0.0
 10
-40.40108592896166
 20
220.4646482765393
 30
0.0
 10
-40.30928162606648
 20
220.3606310257992
 30
0.0
 10
-40.26853914462225
 20
220.3144684737779
 30
0.0
  0
LINE
  5
28D
330
1F
100
AcDbEntity
  8
0
  6
Continuous
 62
     7
370
    25
100
AcDbLine
 10
-40.5392292172
 20
221.7809217173
 30
0.0
 11
-40.5392292172
 21
234.4477602098
 31
0.0
  0
LINE
  5
28E
330
1F
100
AcDbEntity
  8
0
  6
Continuous
 62
     7
370
    25
100
AcDbLine
 10
-5.169842697
 20
221.7809217173
 30
0.0
 11
-5.169842697
 21
234.4477602098
 31
0.0
  0
LINE
  5
28F
330
1F
100
AcDbEntity
  8
0
  6
Continuous
 62
     7
370
    25
100
AcDbLine
 10
156.8454640429
 20
260.2643409635
 30
0.0
 11
207.4454491886
 21
260.2643409635
 31
0.0
  0
LINE
  5
290
330
1F
100
AcDbEntity
  8
0
  6
Continuous
 62
     7
370
    25
100
AcDbLine
 10
206.9454640429
 20
256.2643409635
 30
0.0
 11
157.3454786036
 21
256.2643409635
 31
0.0
  0
ELLIPSE
  5
291
330
1F
100
AcDbEntity
  8
0
  6
Continuous
 62
     7
370
    25
100
AcDbEllipse
 10
202.3527116003
 20
255.2643409635
 30
0.0
 11
1.733133418487085
 21
5.684341886080801E-14
 31
0.0
210
0.0
220
0.0
230
1.0
 40
0.5769896243
 41
1.570796326794878
 42
3.141592653589736
  0
LINE
  5
292
330
1F
100
AcDbEntity
  8
0
  6
Continuous
 62
     7
370
    25
100
AcDbLine
 10
200.6195781819
 20
255.2643409635
 30
0.0
 11
192.23229159
 21
255.2643409635
 31
0.0
  0
ELLIPSE
  5
293
330
1F
100
AcDbEntity
  8
0
  6
Continuous
 62
     7
370
    25
100
AcDbEllipse
 10
192.2301243343
 20
255.2643409635
 30
0.0
 11
-2.842170943040401E-14
 21
0.9999999999999716
 31
0.0
210
0.0
220
0.0
230
1.0
 40
0.0021672557
 41
4.71238898038469
 42
6.283185307179586
  0
ELLIPSE
  5
294
330
1F
100
AcDbEntity
  8
0
  6
Continuous
 62
     7
370
    25
100
AcDbEllipse
 10
192.2301243343
 20
255.2643409635
 30
0.0
 11
1.730966162790594
 21
5.684341886080801E-14
 31
0.0
210
0.0
220
0.0
230
1.0
 40
0.577712044
 41
1.570796326794878
 42
3.141592653589736
  0
LINE
  5
295
330
1F
100
AcDbEntity
  8
0
  6
Continuous
 62
     7
370
    25
100
AcDbLine
 10
190.4991581715
 20
255.2643409635
 30
0.0
 11
173.7560101953
 21
255.2643409635
 31
0.0
  0
ELLIPSE
  5
296
330
1F
100
AcDbEntity
  8
0
  6
Continuous
 62
     7
370
    25
100
AcDbEllipse
 10
172.0228767768
 20
255.2643409635
 30
0.0
 11
1.733133418487085
 21
5.684341886080801E-14
 31
0.0
210
0.0
220
0.0
230
1.0
 40
0.5769896243
 41
0.0
 42
1.570796326794878
  0
LINE
  5
297
330
1F
100
AcDbEntity
  8
0
  6
Continuous
 62
     7
370
    25
100
AcDbLine
 10
192.23229159
 20
255.2643409635
 30
0.0
 11
190.4991581715
 21
255.2643409635
 31
0.0
  0
LINE
  5
298
330
1F
100
AcDbEntity
  8
0
  6
Continuous
 62
     7
370
    25
100
AcDbLine
 10
173.7560101953
 20
255.2643409635
 30
0.0
 11
172.0250440325
 21
255.2643409635
 31
0.0
  0
ELLIPSE
  5
299
330
1F
100
AcDbEntity
  8
0
  6
Continuous
 62
     7
370
    25
100
AcDbEllipse
 10
172.0228767768
 20
255.2643409635
 30
0.0
 11
-2.842170943040401E-14
 21
0.9999999999999716
 31
0.0
210
0.0
220
0.0
230
1.0
 40
0.0021672557
 41
4.71238898038469
 42
6.283185307179586
  0
ELLIPSE
  5
29A
330
1F
100
AcDbEntity
  8
0
  6
Continuous
 62
     7
370
    25
100
AcDbEllipse
 10
161.9382164854
 20
255.2643409635
 30
0.0
 11
1.730966162790622
 21
5.684341886080801E-14
 31
0.0
210
0.0
220
0.0
230
1.0
 40
0.577712044
 41
0.0
 42
1.570796326794878
  0
LINE
  5
29B
330
1F
100
AcDbEntity
  8
0
  6
Continuous
 62
     7
370
    25
100
AcDbLine
 10
172.0250440325
 20
255.2643409635
 30
0.0
 11
163.6691826482
 21
255.2643409635
 31
0.0
  0
SPLINE
  5
29C
330
1F
100
AcDbEntity
  8
0
  6
Continuous
 62
     7
370
    25
100
AcDbSpline
210
0.0
220
0.0
230
1.0
 70
     8
 71
     3
 72
    11
 73
     7
 74
     0
 42
0.00000001
 43
0.00000001
 40
0.0
 40
0.0
 40
0.0
 40
0.0
 40
0.1755702971684292
 40
0.4954273686125881
 40
0.8115831191424532
 40
1.0
 40
1.0
 40
1.0
 40
1.0
 10
190.5964401480866
 20
241.8125866759399
 30
0.0
 10
190.6580876971888
 20
241.8180214941022
 30
0.0
 10
190.832045841167
 20
241.833357560079
 30
0.0
 10
191.1047543186663
 20
241.8422009677688
 30
0.0
 10
191.3378198160172
 20
241.8338864455868
 30
0.0
 10
191.4362346946593
 20
241.8183778691527
 30
0.0
 10
191.4729846555376
 20
241.8125866759399
 30
0.0
  0
ARC
  5
29D
330
1F
100
AcDbEntity
  8
0
  6
Continuous
 62
     7
370
    25
100
AcDbCircle
 10
523.1877543648
 20
275.3490249892
 30
0.0
 40
334.2778410052493
100
AcDbArc
 50
185.5892231584
 51
185.75788812
  0
SPLINE
  5
29E
330
1F
100
AcDbEntity
  8
0
  6
Continuous
 62
     7
370
    25
100
AcDbSpline
210
0.0
220
0.0
230
1.0
 70
     8
 71
     3
 72
    11
 73
     7
 74
     0
 42
0.00000001
 43
0.00000001
 40
0.0
 40
0.0
 40
0.0
 40
0.0
 40
0.188346734648225
 40
0.5045742105933796
 40
0.8244987390890889
 40
1.0
 40
1.0
 40
1.0
 40
1.0
 10
192.232291589973
 20
242.7917992160779
 30
0.0
 10
192.1599459119774
 20
242.797590661276
 30
0.0
 10
191.9661344109038
 20
242.8131057372044
 30
0.0
 10
191.5058242058927
 20
242.8214098933035
 30
0.0
 10
190.9662848436742
 20
242.8125770157497
 30
0.0
 10
190.6213492799243
 20
242.7972342779666
 30
0.0
 10
190.4991581714566
 20
242.7917992160778
 30
0.0
  0
ARC
  5
29F
330
1F
100
AcDbEntity
  8
0
  6
Continuous
 62
     7
370
    25
100
AcDbCircle
 10
191.2055840691
 20
242.8039355298
 30
0.0
 40
1.02677924774969
100
AcDbArc
 50
285.0953741522
 51
359.3227602269
  0
LINE
  5
2A0
330
1F
100
AcDbEntity
  8
0
  6
Continuous
 62
     7
370
    25
100
AcDbLine
 10
192.23229159
 20
255.2643409635
 30
0.0
 11
192.23229159
 21
242.7917992161
 31
0.0
  0
LINE
  5
2A1
330
1F
100
AcDbEntity
  8
0
  6
Continuous
 62
     7
370
    25
100
AcDbLine
 10
190.4991581715
 20
242.7917992161
 30
0.0
 11
190.4991581715
 21
255.2643409635
 31
0.0
  0
SPLINE
  5
2A2
330
1F
100
AcDbEntity
  8
0
  6
Continuous
 62
     7
370
    25
100
AcDbSpline
210
0.0
220
0.0
230
1.0
 70
     8
 71
     3
 72
    10
 73
     6
 74
     0
 42
0.00000001
 43
0.00000001
 40
0.0
 40
0.0
 40
0.0
 40
0.0
 40
0.5005066582626875
 40
0.8819976404752589
 40
1.0
 40
1.0
 40
1.0
 40
1.0
 10
190.5964401480866
 20
241.8125866759399
 30
0.0
 10
187.7720822136496
 20
241.6015076460906
 30
0.0
 10
182.7949715340876
 20
241.2295421523104
 30
0.0
 10
177.1365518026031
 20
241.4939032685435
 30
0.0
 10
174.3247745071595
 20
241.7516868284794
 30
0.0
 10
173.6605086849837
 20
241.8125866759396
 30
0.0
  0
ARC
  5
2A3
330
1F
100
AcDbEntity
  8
0
  6
Continuous
 62
     7
370
    25
100
AcDbCircle
 10
506.2061369084
 20
209.8740446326
 30
0.0
 40
334.0758376751593
100
AcDbArc
 50
174.3452548254
 51
174.5139918582
  0
SPLINE
  5
2A4
330
1F
100
AcDbEntity
  8
0
  6
Continuous
 62
     7
370
    25
100
AcDbSpline
210
0.0
220
0.0
230
1.0
 70
     8
 71
     3
 72
     9
 73
     5
 74
     0
 42
0.00000001
 43
0.00000001
 40
0.0
 40
0.0
 40
0.0
 40
0.0
 40
0.4994437068503684
 40
1.0
 40
1.0
 40
1.0
 40
1.0
 10
173.7560101953203
 20
242.7917992160775
 30
0.0
 10
176.543417398231
 20
242.5727757233102
 30
0.0
 10
182.1244411746423
 20
242.134240829862
 30
0.0
 10
187.7055160300454
 20
242.572450571954
 30
0.0
 10
190.4991581714566
 20
242.7917992160778
 30
0.0
  0
LINE
  5
2A5
330
1F
100
AcDbEntity
  8
0
  6
Continuous
 62
     7
370
    25
100
AcDbLine
 10
173.7560101953
 20
255.2643409635
 30
0.0
 11
173.7560101953
 21
242.7917992161
 31
0.0
  0
SPLINE
  5
2A6
330
1F
100
AcDbEntity
  8
0
  6
Continuous
 62
     7
370
    25
100
AcDbSpline
210
0.0
220
0.0
230
1.0
 70
     8
 71
     3
 72
    11
 73
     7
 74
     0
 42
0.00000001
 43
0.00000001
 40
0.0
 40
0.0
 40
0.0
 40
0.0
 40
0.1883467346500179
 40
0.504574210598114
 40
0.8244987390967978
 40
1.0
 40
1.0
 40
1.0
 40
1.0
 10
173.7560101953203
 20
242.7917992160775
 30
0.0
 10
173.6248553659686
 20
242.7975906612754
 30
0.0
 10
173.2734962377671
 20
242.8131057372043
 30
0.0
 10
172.7284926070923
 20
242.8214098933034
 30
0.0
 10
172.2802981726495
 20
242.8125770157485
 30
0.0
 10
172.0918134725333
 20
242.7972342779677
 30
0.0
 10
172.02504403251
 20
242.7917992160795
 30
0.0
  0
LINE
  5
2A7
330
1F
100
AcDbEntity
  8
0
  6
Continuous
 62
     7
370
    25
100
AcDbLine
 10
172.0250440325
 20
242.7917992161
 30
0.0
 11
172.0250440325
 21
255.2643409635
 31
0.0
  0
SPLINE
  5
2A8
330
1F
100
AcDbEntity
  8
0
  6
Continuous
 62
     7
370
    25
100
AcDbSpline
210
0.0
220
0.0
230
1.0
 70
     8
 71
     3
 72
    11
 73
     7
 74
     0
 42
0.00000001
 43
0.00000001
 40
0.0
 40
0.0
 40
0.0
 40
0.0
 40
0.1755702971684358
 40
0.4954273686125845
 40
0.811583119142427
 40
1.0
 40
1.0
 40
1.0
 40
1.0
 10
172.7850602824585
 20
241.8125866759396
 30
0.0
 10
172.818981225509
 20
241.8180214941017
 30
0.0
 10
172.9146999423276
 20
241.8333575600787
 30
0.0
 10
173.141647773895
 20
241.8422009677684
 30
0.0
 10
173.4171383050441
 20
241.8338864455862
 30
0.0
 10
173.5943387255961
 20
241.8183778691523
 30
0.0
 10
173.6605086849837
 20
241.8125866759396
 30
0.0
  0
ARC
  5
2A9
330
1F
100
AcDbEntity
  8
0
  6
Continuous
 62
     7
370
    25
100
AcDbCircle
 10
173.0516964334
 20
242.8040861893
 30
0.0
 40
1.026725923458304
100
AcDbArc
 50
180.6856829997
 51
254.9480022117
  0
SPLINE
  5
2AA
330
1F
100
AcDbEntity
  8
0
  6
Continuous
 62
     7
370
    25
100
AcDbSpline
210
0.0
220
0.0
230
1.0
 70
     8
 71
     3
 72
    10
 73
     6
 74
     0
 42
0.00000001
 43
0.00000001
 40
0.0
 40
0.0
 40
0.0
 40
0.0
 40
0.4999493505749385
 40
0.8818990399724878
 40
1.0
 40
1.0
 40
1.0
 40
1.0
 10
172.7850602824585
 20
241.8125866759396
 30
0.0
 10
171.3667282407342
 20
241.601667949568
 30
0.0
 10
168.8648234687398
 20
241.2296122161515
 30
0.0
 10
166.0555487886156
 20
241.4935785922378
 30
0.0
 10
164.662091921917
 20
241.7516385842971
 30
0.0
 10
164.3329880723306
 20
241.8125866759393
 30
0.0
  0
SPLINE
  5
2AB
330
1F
100
AcDbEntity
  8
0
  6
Continuous
 62
     7
370
    25
100
AcDbSpline
210
0.0
220
0.0
230
1.0
 70
     8
 71
     3
 72
    10
 73
     6
 74
     0
 42
0.00000001
 43
0.00000001
 40
0.0
 40
0.0
 40
0.0
 40
0.0
 40
0.4999493505749388
 40
0.8818990399724892
 40
1.0
 40
1.0
 40
1.0
 40
1.0
 10
199.9568439085125
 20
241.8125866759401
 30
0.0
 10
198.5539749100544
 20
241.6016679495687
 30
0.0
 10
196.0793465871562
 20
241.2296122161523
 30
0.0
 10
193.2301617469563
 20
241.493578592238
 30
0.0
 10
191.8087021369151
 20
241.7516385842977
 30
0.0
 10
191.4729846555376
 20
241.8125866759399
 30
0.0
  0
SPLINE
  5
2AC
330
1F
100
AcDbEntity
  8
0
  6
Continuous
 62
     7
370
    25
100
AcDbSpline
210
0.0
220
0.0
230
1.0
 70
     8
 71
     3
 72
     9
 73
     5
 74
     0
 42
0.00000001
 43
0.00000001
 40
0.0
 40
0.0
 40
0.0
 40
0.0
 40
0.4835383487029637
 40
1.0
 40
1.0
 40
1.0
 40
1.0
 10
199.9568439085125
 20
241.81258667594
 30
0.0
 10
199.9861054082994
 20
241.8183224124637
 30
0.0
 10
200.046620773555
 20
241.8301844220414
 30
0.0
 10
200.0604215679155
 20
241.8328475394867
 30
0.0
 10
200.06754914896
 20
241.8342229375199
 30
0.0
  0
SPLINE
  5
2AD
330
1F
100
AcDbEntity
  8
0
  6
Continuous
 62
     7
370
    25
100
AcDbSpline
210
0.0
220
0.0
230
1.0
 70
     8
 71
     3
 72
     9
 73
     5
 74
     0
 42
0.00000001
 43
0.00000001
 40
0.0
 40
0.0
 40
0.0
 40
0.0
 40
0.6085116260098383
 40
1.0
 40
1.0
 40
1.0
 40
1.0
 10
164.2033710255344
 20
241.8381031288003
 30
0.0
 10
164.2118009140167
 20
241.8364410534227
 30
0.0
 10
164.2256542047705
 20
241.8337096752423
 30
0.0
 10
164.3027902193908
 20
241.8185295273532
 30
0.0
 10
164.3329880723306
 20
241.8125866759393
 30
0.0
  0
ARC
  5
2AE
330
1F
100
AcDbEntity
  8
0
  6
Continuous
 62
     7
370
    25
100
AcDbCircle
 10
199.7123279852
 20
242.6919524984
 30
0.0
 40
0.9127279367081119
100
AcDbArc
 50
285.5390892353
 51
6.280368218
  0
SPLINE
  5
2AF
330
1F
100
AcDbEntity
  8
0
  6
Continuous
 62
     7
370
    25
100
AcDbSpline
210
0.0
220
0.0
230
1.0
 70
     8
 71
     3
 72
     9
 73
     5
 74
     0
 42
0.00000001
 43
0.00000001
 40
0.0
 40
0.0
 40
0.0
 40
0.0
 40
0.4999999999994134
 40
1.0
 40
1.0
 40
1.0
 40
1.0
 10
192.232291589973
 20
242.7917992160778
 30
0.0
 10
193.6301726886175
 20
242.5726130370788
 30
0.0
 10
196.4259348859101
 20
242.1342406790804
 30
0.0
 10
199.2216970832026
 20
242.5726130370799
 30
0.0
 10
200.6195781818504
 20
242.7917992160799
 30
0.0
  0
LINE
  5
2B0
330
1F
100
AcDbEntity
  8
0
  6
Continuous
 62
     7
370
    25
100
AcDbLine
 10
200.6195781819
 20
242.7917992161
 30
0.0
 11
200.6195781819
 21
255.2643409635
 31
0.0
  0
ARC
  5
2B1
330
1F
100
AcDbEntity
  8
0
  6
Continuous
 62
     7
370
    25
100
AcDbCircle
 10
164.5768253036
 20
242.6924854327
 30
0.0
 40
0.9130599199663906
100
AcDbArc
 50
173.755567523
 51
254.5109019979
  0
SPLINE
  5
2B2
330
1F
100
AcDbEntity
  8
0
  6
Continuous
 62
     7
370
    25
100
AcDbSpline
210
0.0
220
0.0
230
1.0
 70
     8
 71
     3
 72
     9
 73
     5
 74
     0
 42
0.00000001
 43
0.00000001
 40
0.0
 40
0.0
 40
0.0
 40
0.0
 40
0.4999999999994122
 40
1.0
 40
1.0
 40
1.0
 40
1.0
 10
163.6691826482316
 20
242.7917992160772
 30
0.0
 10
165.0618262122763
 20
242.5726130370785
 30
0.0
 10
167.8471133403693
 20
242.1342406790801
 30
0.0
 10
170.632400468462
 20
242.5726130370794
 30
0.0
 10
172.02504403251
 20
242.7917992160795
 30
0.0
  0
LINE
  5
2B3
330
1F
100
AcDbEntity
  8
0
  6
Continuous
 62
     7
370
    25
100
AcDbLine
 10
163.6691826482
 20
255.2643409635
 30
0.0
 11
163.6691826482
 21
242.7917992161
 31
0.0
  0
LINE
  5
2B4
330
1F
100
AcDbEntity
  8
0
  6
Continuous
 62
     7
370
    25
100
AcDbLine
 10
1.9454640429
 20
256.2643409635
 30
0.0
 11
-47.6545359571
 21
256.2643409635
 31
0.0
  0
LINE
  5
2B5
330
1F
100
AcDbEntity
  8
0
  6
Continuous
 62
     7
370
    25
100
AcDbLine
 10
-48.1545359571
 20
260.2643409635
 30
0.0
 11
2.4454640429
 21
260.2643409635
 31
0.0
  0
ELLIPSE
  5
2B6
330
1F
100
AcDbEntity
  8
0
  6
Continuous
 62
     7
370
    25
100
AcDbEllipse
 10
-2.6553784129
 20
255.2643409635
 30
0.0
 11
1.759670971157201
 21
5.684341886080800E-14
 31
0.0
210
0.0
220
0.0
230
1.0
 40
0.5682880586
 41
1.570796326794894
 42
3.141592653589737
  0
LINE
  5
2B7
330
1F
100
AcDbEntity
  8
0
  6
Continuous
 62
     7
370
    25
100
AcDbLine
 10
-4.4150493841
 20
255.2643409635
 30
0.0
 11
-13.1938336435
 21
255.2643409635
 31
0.0
  0
ELLIPSE
  5
2B8
330
1F
100
AcDbEntity
  8
0
  6
Continuous
 62
     7
370
    25
100
AcDbEllipse
 10
-13.2504628639
 20
255.2643409635
 30
0.0
 11
-2.664535259100376E-14
 21
1.0
 31
0.0
210
0.0
220
0.0
230
1.0
 40
0.0566292204
 41
4.712388980384689
 42
6.283185307179586
  0
LINE
  5
2B9
330
1F
100
AcDbEntity
  8
0
  6
Continuous
 62
     7
370
    25
100
AcDbLine
 10
-13.1938336435
 20
255.2643409635
 30
0.0
 11
-14.9535046146
 21
255.2643409635
 31
0.0
  0
ELLIPSE
  5
2BA
330
1F
100
AcDbEntity
  8
0
  6
Continuous
 62
     7
370
    25
100
AcDbEllipse
 10
-13.2504628639
 20
255.2643409635
 30
0.0
 11
1.703041750709039
 21
5.684341886080801E-14
 31
0.0
210
0.0
220
0.0
230
1.0
 40
0.5871846651
 41
1.570796326794893
 42
3.141592653589736
  0
LINE
  5
2BB
330
1F
100
AcDbEntity
  8
0
  6
Continuous
 62
     7
370
    25
100
AcDbLine
 10
-14.9535046146
 20
255.2643409635
 30
0.0
 11
-31.689949437
 21
255.2643409635
 31
0.0
  0
ELLIPSE
  5
2BC
330
1F
100
AcDbEntity
  8
0
  6
Continuous
 62
     7
370
    25
100
AcDbEllipse
 10
-33.4496204081
 20
255.2643409635
 30
0.0
 11
1.759670971157203
 21
5.684341886080801E-14
 31
0.0
210
0.0
220
0.0
230
1.0
 40
0.5682880586
 41
0.0
 42
1.570796326794894
  0
LINE
  5
2BD
330
1F
100
AcDbEntity
  8
0
  6
Continuous
 62
     7
370
    25
100
AcDbLine
 10
-31.689949437
 20
255.2643409635
 30
0.0
 11
-33.3929911877
 21
255.2643409635
 31
0.0
  0
ELLIPSE
  5
2BE
330
1F
100
AcDbEntity
  8
0
  6
Continuous
 62
     7
370
    25
100
AcDbEllipse
 10
-33.4496204081
 20
255.2643409635
 30
0.0
 11
-2.842170943040401E-14
 21
1.0
 31
0.0
210
0.0
220
0.0
230
1.0
 40
0.0566292204
 41
4.712388980384689
 42
6.283185307179586
  0
LINE
  5
2BF
330
1F
100
AcDbEntity
  8
0
  6
Continuous
 62
     7
370
    25
100
AcDbLine
 10
-33.3929911877
 20
255.2643409635
 30
0.0
 11
-41.3506517506
 21
255.2643409635
 31
0.0
  0
ELLIPSE
  5
2C0
330
1F
100
AcDbEntity
  8
0
  6
Continuous
 62
     7
370
    25
100
AcDbEllipse
 10
-43.0536935013
 20
255.2643409635
 30
0.0
 11
1.703041750709041
 21
5.684341886080801E-14
 31
0.0
210
0.0
220
0.0
230
1.0
 40
0.5871846651
 41
0.0
 42
1.570796326794894
  0
SPLINE
  5
2C1
330
1F
100
AcDbEntity
  8
0
  6
Continuous
 62
     7
370
    25
100
AcDbSpline
210
0.0
220
0.0
230
1.0
 70
     8
 71
     3
 72
    11
 73
     7
 74
     0
 42
0.00000001
 43
0.00000001
 40
0.0
 40
0.0
 40
0.0
 40
0.0
 40
0.1883467346499958
 40
0.5045742105980986
 40
0.8244987390967928
 40
1.0
 40
1.0
 40
1.0
 40
1.0
 10
-13.19383364346854
 20
242.7917992160741
 30
0.0
 10
-13.26913911694091
 20
242.7975906612721
 30
0.0
 10
-13.47087980494194
 20
242.8131057372005
 30
0.0
 10
-13.94091943951711
 20
242.8214098933
 30
0.0
 10
-14.48586912516531
 20
242.8125770157457
 30
0.0
 10
-14.83118040963061
 20
242.7972342779642
 30
0.0
 10
-14.95350461463602
 20
242.7917992160761
 30
0.0
  0
ARC
  5
2C2
330
1F
100
AcDbEntity
  8
0
  6
Continuous
 62
     7
370
    25
100
AcDbCircle
 10
-14.2212744413
 20
242.8019370436
 30
0.0
 40
1.02749081192736
100
AcDbArc
 50
285.6600875045
 51
359.4346770303
  0
SPLINE
  5
2C3
330
1F
100
AcDbEntity
  8
0
  6
Continuous
 62
     7
370
    25
100
AcDbSpline
210
0.0
220
0.0
230
1.0
 70
     8
 71
     3
 72
    11
 73
     7
 74
     0
 42
0.00000001
 43
0.00000001
 40
0.0
 40
0.0
 40
0.0
 40
0.0
 40
0.175570297168428
 40
0.495427368612586
 40
0.8115831191424503
 40
1.0
 40
1.0
 40
1.0
 40
1.0
 10
-14.83389015064546
 20
241.8125866759362
 30
0.0
 10
-14.77216807541162
 20
241.8180214940984
 30
0.0
 10
-14.59799963227759
 20
241.8333575600756
 30
0.0
 10
-14.3225436517776
 20
241.8422009677649
 30
0.0
 10
-14.08456629882035
 20
241.8338864455829
 30
0.0
 10
-13.98216329098018
 20
241.8183778691491
 30
0.0
 10
-13.94392408788545
 20
241.8125866759362
 30
0.0
  0
ARC
  5
2C4
330
1F
100
AcDbEntity
  8
0
  6
Continuous
 62
     7
370
    25
100
AcDbCircle
 10
-2.0885779392
 20
243.8663860458
 30
0.0
 40
12.90972792969519
100
AcDbArc
 50
184.77474132
 51
189.1540389589
  0
LINE
  5
2C5
330
1F
100
AcDbEntity
  8
0
  6
Continuous
 62
     7
370
    25
100
AcDbLine
 10
-13.1938336435
 20
255.2643409635
 30
0.0
 11
-13.1938336435
 21
242.7917992161
 31
0.0
  0
LINE
  5
2C6
330
1F
100
AcDbEntity
  8
0
  6
Continuous
 62
     7
370
    25
100
AcDbLine
 10
-14.9535046146
 20
242.7917992161
 30
0.0
 11
-14.9535046146
 21
255.2643409635
 31
0.0
  0
SPLINE
  5
2C7
330
1F
100
AcDbEntity
  8
0
  6
Continuous
 62
     7
370
    25
100
AcDbSpline
210
0.0
220
0.0
230
1.0
 70
     8
 71
     3
 72
    10
 73
     6
 74
     0
 42
0.00000001
 43
0.00000001
 40
0.0
 40
0.0
 40
0.0
 40
0.0
 40
0.4993920432232372
 40
0.8818015523862031
 40
1.0
 40
1.0
 40
1.0
 40
1.0
 10
-14.83389015064543
 20
241.8125866759364
 30
0.0
 10
-17.65113221034584
 20
241.6018284373598
 30
0.0
 10
-22.6256776709772
 20
241.2296820556202
 30
0.0
 10
-28.28145169800625
 20
241.4932543347191
 30
0.0
 10
-31.09802152330202
 20
241.7515908834929
 30
0.0
 10
-31.76304127865975
 20
241.8125866759361
 30
0.0
  0
ARC
  5
2C8
330
1F
100
AcDbEntity
  8
0
  6
Continuous
 62
     7
370
    25
100
AcDbCircle
 10
-19.0633943481
 20
241.3569748893
 30
0.0
 40
12.70781705332403
100
AcDbArc
 50
173.5169777305
 51
177.9453411859
  0
SPLINE
  5
2C9
330
1F
100
AcDbEntity
  8
0
  6
Continuous
 62
     7
370
    25
100
AcDbSpline
210
0.0
220
0.0
230
1.0
 70
     8
 71
     3
 72
     9
 73
     5
 74
     0
 42
0.00000001
 43
0.00000001
 40
0.0
 40
0.0
 40
0.0
 40
0.0
 40
0.5005562931490417
 40
1.0
 40
1.0
 40
1.0
 40
1.0
 10
-31.68994943696998
 20
242.7917992160739
 30
0.0
 10
-28.89742573595147
 20
242.5724505719502
 30
0.0
 10
-23.31858527537015
 20
242.1342408298577
 30
0.0
 10
-17.7397958733311
 20
242.5727757233081
 30
0.0
 10
-14.95350461463602
 20
242.7917992160761
 30
0.0
  0
LINE
  5
2CA
330
1F
100
AcDbEntity
  8
0
  6
Continuous
 62
     7
370
    25
100
AcDbLine
 10
-31.689949437
 20
255.2643409635
 30
0.0
 11
-31.689949437
 21
242.7917992161
 31
0.0
  0
SPLINE
  5
2CB
330
1F
100
AcDbEntity
  8
0
  6
Continuous
 62
     7
370
    25
100
AcDbSpline
210
0.0
220
0.0
230
1.0
 70
     8
 71
     3
 72
    10
 73
     6
 74
     0
 42
0.00000001
 43
0.00000001
 40
0.0
 40
0.0
 40
0.0
 40
0.0
 40
0.4890561215099952
 40
0.8793262989674555
 40
1.0
 40
1.0
 40
1.0
 40
1.0
 10
-32.79690764644036
 20
241.7938927469431
 30
0.0
 10
-34.09063056177633
 20
241.5930062397055
 30
0.0
 10
-36.41675333786859
 20
241.2318109061794
 30
0.0
 10
-39.03405814751859
 20
241.4937742292392
 30
0.0
 10
-40.3604003137322
 20
241.7516759617229
 30
0.0
 10
-40.6736531478899
 20
241.8125866759359
 30
0.0
  0
SPLINE
  5
2CC
330
1F
100
AcDbEntity
  8
0
  6
Continuous
 62
     7
370
    25
100
AcDbSpline
210
0.0
220
0.0
230
1.0
 70
     8
 71
     3
 72
    11
 73
     7
 74
     0
 42
0.00000001
 43
0.00000001
 40
0.0
 40
0.0
 40
0.0
 40
0.0
 40
0.1755702971684286
 40
0.4954273686125883
 40
0.8115831191424652
 40
1.0
 40
1.0
 40
1.0
 40
1.0
 10
-32.62436671190122
 20
241.812586675936
 30
0.0
 10
-32.59186349370097
 20
241.8180214940981
 30
0.0
 10
-32.50014533793028
 20
241.8333575600749
 30
0.0
 10
-32.27828865792673
 20
241.8422009677645
 30
0.0
 10
-32.00589755069749
 20
241.8338864455828
 30
0.0
 10
-31.82907145727787
 20
241.8183778691489
 30
0.0
 10
-31.76304127865975
 20
241.8125866759361
 30
0.0
  0
SPLINE
  5
2CD
330
1F
100
AcDbEntity
  8
0
  6
Continuous
 62
     7
370
    25
100
AcDbSpline
210
0.0
220
0.0
230
1.0
 70
     8
 71
     3
 72
    10
 73
     6
 74
     0
 42
0.00000001
 43
0.00000001
 40
0.0
 40
0.0
 40
0.0
 40
0.0
 40
0.4999493505749384
 40
0.8818990399724898
 40
1.0
 40
1.0
 40
1.0
 40
1.0
 10
-5.064059395859799
 20
241.8125866759365
 30
0.0
 10
-6.533062327268163
 20
241.601667949565
 30
0.0
 10
-9.124349371517765
 20
241.2296122161485
 30
0.0
 10
-12.10560780387976
 20
241.4935785922346
 30
0.0
 10
-13.59270455750591
 20
241.7516385842941
 30
0.0
 10
-13.94392408788545
 20
241.8125866759362
 30
0.0
  0
SPLINE
  5
2CE
330
1F
100
AcDbEntity
  8
0
  6
Continuous
 62
     7
370
    25
100
AcDbSpline
210
0.0
220
0.0
230
1.0
 70
     8
 71
     3
 72
     9
 73
     5
 74
     0
 42
0.00000001
 43
0.00000001
 40
0.0
 40
0.0
 40
0.0
 40
0.0
 40
0.0727884863178727
 40
1.0
 40
1.0
 40
1.0
 40
1.0
 10
-4.957446685034034
 20
241.8289919296925
 30
0.0
 10
-4.958079081631345
 20
241.8288396666013
 30
0.0
 10
-4.966767222150254
 20
241.8267478097873
 30
0.0
 10
-5.002389437824939
 20
241.8193998182719
 30
0.0
 10
-5.035418766341282
 20
241.8125866759365
 30
0.0
  0
ARC
  5
2CF
330
1F
100
AcDbEntity
  8
0
  6
Continuous
 62
     7
370
    25
100
AcDbCircle
 10
-32.367005185
 20
242.8058692583
 30
0.0
 40
1.026082474206017
100
AcDbArc
 50
180.7856866483
 51
255.4739867895
  0
SPLINE
  5
2D0
330
1F
100
AcDbEntity
  8
0
  6
Continuous
 62
     7
370
    25
100
AcDbSpline
210
0.0
220
0.0
230
1.0
 70
     8
 71
     3
 72
    11
 73
     7
 74
     0
 42
0.00000001
 43
0.00000001
 40
0.0
 40
0.0
 40
0.0
 40
0.0
 40
0.1883467346483164
 40
0.5045742105936618
 40
0.8244987390895705
 40
1.0
 40
1.0
 40
1.0
 40
1.0
 10
-31.68994943696998
 20
242.7917992160739
 30
0.0
 10
-31.82084280639322
 20
242.7975906612719
 30
0.0
 10
-32.17150149273576
 20
242.8131057372002
 30
0.0
 10
-32.71039754431035
 20
242.8214098932997
 30
0.0
 10
-33.14850697054369
 20
242.8125770157455
 30
0.0
 10
-33.32903894675251
 20
242.7972342779626
 30
0.0
 10
-33.39299118770722
 20
242.791799216074
 30
0.0
  0
LINE
  5
2D1
330
1F
100
AcDbEntity
  8
0
  6
Continuous
 62
     7
370
    25
100
AcDbLine
 10
-33.3929911877
 20
242.7917992161
 30
0.0
 11
-33.3929911877
 21
255.2643409635
 31
0.0
  0
ARC
  5
2D2
330
1F
100
AcDbEntity
  8
0
  6
Continuous
 62
     7
370
    25
100
AcDbCircle
 10
-5.317456887
 20
242.6852196037
 30
0.0
 40
0.9086795447912657
100
AcDbArc
 50
286.1923821461
 51
6.7357638105
  0
SPLINE
  5
2D3
330
1F
100
AcDbEntity
  8
0
  6
Continuous
 62
     7
370
    25
100
AcDbSpline
210
0.0
220
0.0
230
1.0
 70
     8
 71
     3
 72
     9
 73
     5
 74
     0
 42
0.00000001
 43
0.00000001
 40
0.0
 40
0.0
 40
0.0
 40
0.0
 40
0.5000000000003498
 40
1.0
 40
1.0
 40
1.0
 40
1.0
 10
-13.19383364346854
 20
242.7917992160741
 30
0.0
 10
-11.73070293356768
 20
242.5726130370753
 30
0.0
 10
-8.80444151376797
 20
242.1342406790777
 30
0.0
 10
-5.878180093968288
 20
242.5726130370749
 30
0.0
 10
-4.415049384069475
 20
242.7917992160733
 30
0.0
  0
LINE
  5
2D4
330
1F
100
AcDbEntity
  8
0
  6
Continuous
 62
     7
370
    25
100
AcDbLine
 10
-4.4150493841
 20
242.7917992161
 30
0.0
 11
-4.4150493841
 21
255.2643409635
 31
0.0
  0
ARC
  5
2D5
330
1F
100
AcDbEntity
  8
0
  6
Continuous
 62
     7
370
    25
100
AcDbCircle
 10
-40.438004052
 20
242.6991421749
 30
0.0
 40
0.9173391679912698
100
AcDbArc
 50
174.202878985
 51
255.1147928552
  0
SPLINE
  5
2D6
330
1F
100
AcDbEntity
  8
0
  6
Continuous
 62
     7
370
    25
100
AcDbSpline
210
0.0
220
0.0
230
1.0
 70
     8
 71
     3
 72
     9
 73
     5
 74
     0
 42
0.00000001
 43
0.00000001
 40
0.0
 40
0.0
 40
0.0
 40
0.0
 40
0.4999999999999593
 40
1.0
 40
1.0
 40
1.0
 40
1.0
 10
-41.35065175061698
 20
242.7917992160737
 30
0.0
 10
-40.02437499013212
 20
242.5726130370747
 30
0.0
 10
-37.37182146916221
 20
242.1342406790768
 30
0.0
 10
-34.7192679481923
 20
242.5726130370749
 30
0.0
 10
-33.39299118770725
 20
242.7917992160739
 30
0.0
  0
LINE
  5
2D7
330
1F
100
AcDbEntity
  8
0
  6
Continuous
 62
     7
370
    25
100
AcDbLine
 10
-41.3506517506
 20
255.2643409635
 30
0.0
 11
-41.3506517506
 21
242.7917992161
 31
0.0
  0
ARC
  5
2D8
330
1F
100
AcDbEntity
  8
0
  6
Continuous
 62
     7
370
    25
100
AcDbCircle
 10
-22.8545359571
 20
202.3143409635
 30
0.0
 40
10.30000000000003
100
AcDbArc
 50
356.7363618434
 51
11.2746399902
  0
SPLINE
  5
2D9
330
1F
100
AcDbEntity
  8
0
  6
Continuous
 62
     7
370
    25
100
AcDbSpline
210
0.0
220
0.0
230
1.0
 70
    24
 71
     3
 72
    13
 73
     9
 74
     0
 42
0.00000001
 43
0.00000001
 40
0.0
 40
0.0
 40
0.0
 40
0.0
 40
0.0295448902054277
 40
0.2606471239688225
 40
0.4913152552054801
 40
0.7308682638478772
 40
0.9709134921287357
 40
1.0
 40
1.0
 40
1.0
 40
1.0
 10
-12.57124103634302
 20
201.7279574947832
 30
0.0
 10
-12.60420135418952
 20
201.6603623580349
 30
0.0
 10
-12.89497962386832
 20
201.0640332512009
 30
0.0
 10
-13.46021916410917
 20
199.9048379971962
 30
0.0
 10
-14.29477871998078
 20
198.1933202998707
 30
0.0
 10
-15.14137486455269
 20
196.4571179237457
 30
0.0
 10
-15.72726349675385
 20
195.2555754387076
 30
0.0
 10
-16.02749661164782
 20
194.6398563017703
 30
0.0
 10
-16.05994441206127
 20
194.5733122375916
 30
0.0
  0
ARC
  5
2DA
330
1F
100
AcDbEntity
  8
0
  6
Continuous
 62
     7
370
    25
100
AcDbCircle
 10
-22.8545359571
 20
202.3143409635
 30
0.0
 40
10.30000000000003
100
AcDbArc
 50
296.7363618434
 51
311.2746399902
  0
SPLINE
  5
2DB
330
1F
100
AcDbEntity
  8
0
  6
Continuous
 62
     7
370
    25
100
AcDbSpline
210
0.0
220
0.0
230
1.0
 70
    24
 71
     3
 72
     9
 73
     5
 74
     0
 42
0.00000001
 43
0.00000001
 40
0.0
 40
0.0
 40
0.0
 40
0.0
 40
0.5117775781475451
 40
0.9999999999999999
 40
0.9999999999999999
 40
0.9999999999999999
 40
0.9999999999999999
 10
-18.22071147702761
 20
193.1155545931632
 30
0.0
 10
-18.84643917196327
 20
193.0717390805919
 30
0.0
 10
-20.06909471932147
 20
192.9861247152072
 30
0.0
 10
-21.35955529221356
 20
192.8957624187774
 30
0.0
 10
-21.989587078416
 20
192.8516455195704
 30
0.0
  0
SPLINE
  5
2DC
330
1F
100
AcDbEntity
  8
0
  6
Continuous
 62
     7
370
    25
100
AcDbSpline
210
0.0
220
0.0
230
1.0
 70
    24
 71
     3
 72
     9
 73
     5
 74
     0
 42
0.00000001
 43
0.00000001
 40
0.0
 40
0.0
 40
0.0
 40
0.0
 40
0.2429307709367194
 40
1.0
 40
1.0
 40
1.0
 40
1.0
 10
-22.22913635158233
 20
211.8813955133456
 30
0.0
 10
-22.00515555444971
 20
211.897079385918
 30
0.0
 10
-21.08316120902787
 20
211.9616404644182
 30
0.0
 10
-20.20940109640171
 20
212.022824023191
 30
0.0
 10
-19.54790420154961
 20
212.0691442128624
 30
0.0
  0
ARC
  5
2DD
330
1F
100
AcDbEntity
  8
0
  6
Continuous
 62
     7
370
    25
100
AcDbCircle
 10
-22.8545359571
 20
202.3143409635
 30
0.0
 40
10.29999999999998
100
AcDbArc
 50
56.7363618434
 51
71.2746399902
  0
SPLINE
  5
2DE
330
1F
100
AcDbEntity
  8
0
  6
Continuous
 62
     7
370
    25
100
AcDbSpline
210
0.0
220
0.0
230
1.0
 70
    24
 71
     3
 72
    11
 73
     7
 74
     0
 42
0.00000001
 43
0.00000001
 40
0.0
 40
0.0
 40
0.0
 40
0.0
 40
0.2431641197380878
 40
0.4936284730588954
 40
0.7421706076863348
 40
1.0
 40
1.0
 40
1.0
 40
1.0
 10
-17.20506551643044
 20
210.9267438651551
 30
0.0
 10
-16.85411195635453
 20
210.4065415552286
 30
0.0
 10
-16.14166856560481
 20
209.3505195063862
 30
0.0
 10
-15.01150304424373
 20
207.6753271684477
 30
0.0
 10
-13.85749220308291
 20
205.9647900104201
 30
0.0
 10
-13.1258455000566
 20
204.8803037755971
 30
0.0
 10
-12.75331265649587
 20
204.328115486919
 30
0.0
  0
ARC
  5
2DF
330
1F
100
AcDbEntity
  8
0
  6
Continuous
 62
     7
370
    25
100
AcDbCircle
 10
182.1454640429
 20
202.3143409635
 30
0.0
 40
10.30000000000002
100
AcDbArc
 50
199.9280483469
 51
214.4663264937
  0
SPLINE
  5
2E0
330
1F
100
AcDbEntity
  8
0
  6
Continuous
 62
     7
370
    25
100
AcDbSpline
210
0.0
220
0.0
230
1.0
 70
    24
 71
     3
 72
    13
 73
     9
 74
     0
 42
0.00000001
 43
0.00000001
 40
0.0
 40
0.0
 40
0.0
 40
0.0
 40
0.0295448902054207
 40
0.2606471239688238
 40
0.4913152552054776
 40
0.730868263847869
 40
0.9709134921287332
 40
1.0
 40
1.0
 40
1.0
 40
1.0
 10
172.4622137639487
 20
198.8036908762362
 30
0.0
 10
172.4658910984005
 20
198.8788038729537
 30
0.0
 10
172.4983328046343
 20
199.5414560754493
 30
0.0
 10
172.5613957533757
 20
200.8295758056189
 30
0.0
 10
172.6545063423336
 20
202.7314466999701
 30
0.0
 10
172.7489598358872
 20
204.6607476771179
 30
0.0
 10
172.8143265736157
 20
205.9959244527882
 30
0.0
 10
172.8478231431006
 20
206.6801232241285
 30
0.0
 10
172.8514432967321
 20
206.7540682490914
 30
0.0
  0
ARC
  5
2E1
330
1F
100
AcDbEntity
  8
0
  6
Continuous
 62
     7
370
    25
100
AcDbCircle
 10
182.1454640429
 20
202.3143409635
 30
0.0
 40
10.30000000000004
100
AcDbArc
 50
139.9280483469
 51
154.4663264937
  0
SPLINE
  5
2E2
330
1F
100
AcDbEntity
  8
0
  6
Continuous
 62
     7
370
    25
100
AcDbSpline
210
0.0
220
0.0
230
1.0
 70
    24
 71
     3
 72
    11
 73
     7
 74
     0
 42
0.00000001
 43
0.00000001
 40
0.0
 40
0.0
 40
0.0
 40
0.0
 40
0.2431641197380936
 40
0.4936284730588973
 40
0.7421706076863339
 40
1.0
 40
1.0
 40
1.0
 40
1.0
 10
174.2635267440146
 20
208.9449566526491
 30
0.0
 10
174.8216656105814
 20
209.2317664331837
 30
0.0
 10
175.9546996978267
 20
209.8139965507531
 30
0.0
 10
177.7520580234951
 20
210.7376017282565
 30
0.0
 10
179.5873387448301
 20
211.6806940166391
 30
0.0
 10
180.7509128127669
 20
212.278617657244
 30
0.0
 10
181.343370284972
 20
212.583062675783
 30
0.0
  0
ARC
  5
2E3
330
1F
100
AcDbEntity
  8
0
  6
Continuous
 62
     7
370
    25
100
AcDbCircle
 10
182.1454640429
 20
202.3143409635
 30
0.0
 40
10.29999999999995
100
AcDbArc
 50
82.8673793136
 51
94.4663264937
  0
ARC
  5
2E4
330
1F
100
AcDbEntity
  8
0
  6
Continuous
 62
     7
370
    25
100
AcDbCircle
 10
182.1454640429
 20
202.3143409635
 30
0.0
 40
10.30000000000004
100
AcDbArc
 50
259.9280483469
 51
273.2830716215
  0
SPLINE
  5
2E5
330
1F
100
AcDbEntity
  8
0
  6
Continuous
 62
     7
370
    25
100
AcDbSpline
210
0.0
220
0.0
230
1.0
 70
    24
 71
     3
 72
    11
 73
     7
 74
     0
 42
0.00000001
 43
0.00000001
 40
0.0
 40
0.0
 40
0.0
 40
0.0
 40
0.2431641197380875
 40
0.4936284730588945
 40
0.7421706076863298
 40
1.0
 40
1.0
 40
1.0
 40
1.0
 10
180.3441510628191
 20
192.173075187126
 30
0.0
 10
179.8166970735389
 20
192.5130327341449
 30
0.0
 10
178.745953957253
 20
193.2031539782685
 30
0.0
 10
177.0474092476335
 20
194.2979093592485
 30
0.0
 10
175.3130270071139
 20
195.4157629428094
 30
0.0
 10
174.2134229108581
 20
196.1244858245252
 30
0.0
 10
173.6535370546451
 20
196.4853465368471
 30
0.0
  0
LWPOLYLINE
  5
2E6
330
1F
100
AcDbEntity
  8
0
  6
Continuous
 62
     7
370
    25
100
AcDbPolyline
 90
        3
 70
   128
 43
0.0
 10
175.9040873648
 20
209.8048494351
 10
176.1285235501
 20
209.9862981523
 10
177.689184948
 20
210.9863693669
  0
ARC
  5
2E7
330
1F
100
AcDbEntity
  8
0
  6
Continuous
 62
     7
370
    25
100
AcDbCircle
 10
182.1454640429
 20
202.3143409635
 30
0.0
 40
14.87500000000006
100
AcDbArc
 50
51.4589725729
 51
304.6914783619
  0
ARC
  5
2E8
330
1F
100
AcDbEntity
  8
0
  6
Continuous
 62
     7
370
    25
100
AcDbCircle
 10
182.1454640429
 20
202.3143409635
 30
0.0
 40
10.57499999999998
100
AcDbArc
 50
79.7261272273
 51
276.4243237074
  0
SPLINE
  5
2E9
330
1F
100
AcDbEntity
  8
0
  6
Continuous
 62
     7
370
    25
100
AcDbSpline
210
0.0
220
0.0
230
1.0
 70
     8
 71
     3
 72
     9
 73
     5
 74
     0
 42
0.00000001
 43
0.00000001
 40
0.0
 40
0.0
 40
0.0
 40
0.0
 40
0.5850553834534293
 40
1.0
 40
1.0
 40
1.0
 40
1.0
 10
169.4768654584046
 20
214.0742988675996
 30
0.0
 10
169.0780786618728
 20
213.8337363678223
 30
0.0
 10
168.3964563611291
 20
213.4225573468595
 30
0.0
 10
167.8860168151591
 20
212.7748912578245
 30
0.0
 10
167.6742126734863
 20
212.5061457008596
 30
0.0
  0
SPLINE
  5
2EA
330
1F
100
AcDbEntity
  8
0
  6
Continuous
 62
     7
370
    25
100
AcDbSpline
210
0.0
220
0.0
230
1.0
 70
    24
 71
     3
 72
    11
 73
     7
 74
     0
 42
0.00000001
 43
0.00000001
 40
0.0
 40
0.0
 40
0.0
 40
0.0
 40
0.2379053903768507
 40
0.4814905141303165
 40
0.73665194443481
 40
1.0
 40
1.0
 40
1.0
 40
1.0
 10
179.9597989776061
 20
219.4611444039011
 30
0.0
 10
179.1473284468667
 20
219.0436416844694
 30
0.0
 10
177.5029905319429
 20
218.1986688206279
 30
0.0
 10
174.8767870843729
 20
216.8491465430087
 30
0.0
 10
172.151309294065
 20
215.4486103436599
 30
0.0
 10
170.3776812036193
 20
214.5371993779625
 30
0.0
 10
169.4768654584046
 20
214.0742988675996
 30
0.0
  0
SPLINE
  5
2EB
330
1F
100
AcDbEntity
  8
0
  6
Continuous
 62
     7
370
    25
100
AcDbSpline
210
0.0
220
0.0
230
1.0
 70
     8
 71
     3
 72
     9
 73
     5
 74
     0
 42
0.00000001
 43
0.00000001
 40
0.0
 40
0.0
 40
0.0
 40
0.0
 40
0.5841917497409918
 40
1.0
 40
1.0
 40
1.0
 40
1.0
 10
182.2842853734774
 20
220.0137965664146
 30
0.0
 10
181.8017297039836
 20
219.9806611725263
 30
0.0
 10
180.975706964519
 20
219.923941107748
 30
0.0
 10
180.2581606536205
 20
219.5970630126653
 30
0.0
 10
179.9597989776061
 20
219.4611444039011
 30
0.0
  0
ARC
  5
2EC
330
1F
100
AcDbEntity
  8
0
  6
Continuous
 62
     7
370
    25
100
AcDbCircle
 10
182.1454640429
 20
202.3143409635
 30
0.0
 40
17.70000000000001
100
AcDbArc
 50
84.8437509929
 51
89.5506238477
  0
SPLINE
  5
2ED
330
1F
100
AcDbEntity
  8
0
  6
Continuous
 62
     7
370
    25
100
AcDbSpline
210
0.0
220
0.0
230
1.0
 70
     8
 71
     3
 72
     9
 73
     5
 74
     0
 42
0.00000001
 43
0.00000001
 40
0.0
 40
0.0
 40
0.0
 40
0.0
 40
0.5850553834536163
 40
1.0
 40
1.0
 40
1.0
 40
1.0
 10
185.9955870429957
 20
219.1656481200777
 30
0.0
 10
185.5878604087248
 20
219.3907263666794
 30
0.0
 10
184.8909577806965
 20
219.7754390844275
 30
0.0
 10
184.0748427214378
 20
219.893659653816
 30
0.0
 10
183.7362001711161
 20
219.9427146426489
 30
0.0
  0
SPLINE
  5
2EE
330
1F
100
AcDbEntity
  8
0
  6
Continuous
 62
     7
370
    25
100
AcDbSpline
210
0.0
220
0.0
230
1.0
 70
    24
 71
     3
 72
    11
 73
     7
 74
     0
 42
0.00000001
 43
0.00000001
 40
0.0
 40
0.0
 40
0.0
 40
0.0
 40
0.2328716322111486
 40
0.4710265024313226
 40
0.7311421212560276
 40
1.0
 40
1.0
 40
1.0
 40
1.0
 10
195.9021988832976
 20
212.780584154416
 30
0.0
 10
195.150876789801
 20
213.2648304036003
 30
0.0
 10
193.6311871026594
 20
214.2443091615022
 30
0.0
 10
191.1703610260106
 20
215.830374322938
 30
0.0
 10
188.5755308747972
 20
217.5028085277508
 30
0.0
 10
186.8649915894833
 20
218.6052947186477
 30
0.0
 10
185.9955870429957
 20
219.1656481200777
 30
0.0
  0
SPLINE
  5
2EF
330
1F
100
AcDbEntity
  8
0
  6
Continuous
 62
     7
370
    25
100
AcDbSpline
210
0.0
220
0.0
230
1.0
 70
     8
 71
     3
 72
     9
 73
     5
 74
     0
 42
0.00000001
 43
0.00000001
 40
0.0
 40
0.0
 40
0.0
 40
0.0
 40
0.5841917497409274
 40
1.0
 40
1.0
 40
1.0
 40
1.0
 10
197.5430528934264
 20
211.0438459660967
 30
0.0
 10
197.2730789658079
 20
211.4451837376743
 30
0.0
 10
196.8109465790731
 20
212.1321803817649
 30
0.0
 10
196.1690886893417
 20
212.5901546678539
 30
0.0
 10
195.9021988832975
 20
212.7805841544159
 30
0.0
  0
ARC
  5
2F0
330
1F
100
AcDbEntity
  8
0
  6
Continuous
 62
     7
370
    25
100
AcDbCircle
 10
182.1454640429
 20
202.3143409635
 30
0.0
 40
17.7
100
AcDbArc
 50
324.8437509929
 51
327.1558348375
  0
SPLINE
  5
2F1
330
1F
100
AcDbEntity
  8
0
  6
Continuous
 62
     7
370
    25
100
AcDbSpline
210
0.0
220
0.0
230
1.0
 70
     8
 71
     3
 72
     9
 73
     5
 74
     0
 42
0.00000001
 43
0.00000001
 40
0.0
 40
0.0
 40
0.0
 40
0.0
 40
0.5850553834536061
 40
1.0
 40
1.0
 40
1.0
 40
1.0
 10
194.8140626273669
 20
190.5543830594787
 30
0.0
 10
195.2128494238987
 20
190.7949455592561
 30
0.0
 10
195.8944717246416
 20
191.2061245802187
 30
0.0
 10
196.4049112706112
 20
191.8537906692534
 30
0.0
 10
196.6167154122837
 20
192.1225362262179
 30
0.0
  0
SPLINE
  5
2F2
330
1F
100
AcDbEntity
  8
0
  6
Continuous
 62
     7
370
    25
100
AcDbSpline
210
0.0
220
0.0
230
1.0
 70
    24
 71
     3
 72
    11
 73
     7
 74
     0
 42
0.00000001
 43
0.00000001
 40
0.0
 40
0.0
 40
0.0
 40
0.0
 40
0.255627964438095
 40
0.5185037642963854
 40
0.7560467972580067
 40
1.0
 40
1.0
 40
1.0
 40
1.0
 10
184.3311291081643
 20
185.1675375231767
 30
0.0
 10
185.2050793705438
 20
185.6166327178782
 30
0.0
 10
186.9777590609197
 20
186.5275563309968
 30
0.0
 10
189.6820282219061
 20
187.9171940914704
 30
0.0
 10
192.3356079361532
 20
189.2807841602931
 30
0.0
 10
193.9806110761906
 20
190.1260988621257
 30
0.0
 10
194.814062627367
 20
190.5543830594789
 30
0.0
  0
SPLINE
  5
2F3
330
1F
100
AcDbEntity
  8
0
  6
Continuous
 62
     7
370
    25
100
AcDbSpline
210
0.0
220
0.0
230
1.0
 70
     8
 71
     3
 72
     9
 73
     5
 74
     0
 42
0.00000001
 43
0.00000001
 40
0.0
 40
0.0
 40
0.0
 40
0.0
 40
0.5841917497409176
 40
1.0
 40
1.0
 40
1.0
 40
1.0
 10
182.0066427122927
 20
184.614885360663
 30
0.0
 10
182.4891983817864
 20
184.6480207545513
 30
0.0
 10
183.3152211212512
 20
184.7047408193298
 30
0.0
 10
184.0327674321497
 20
185.0316189144124
 30
0.0
 10
184.3311291081643
 20
185.1675375231767
 30
0.0
  0
ARC
  5
2F4
330
1F
100
AcDbEntity
  8
0
  6
Continuous
 62
     7
370
    25
100
AcDbCircle
 10
182.1454640429
 20
202.3143409635
 30
0.0
 40
17.70000000000003
100
AcDbArc
 50
264.8437509929
 51
269.5506238477
  0
SPLINE
  5
2F5
330
1F
100
AcDbEntity
  8
0
  6
Continuous
 62
     7
370
    25
100
AcDbSpline
210
0.0
220
0.0
230
1.0
 70
     8
 71
     3
 72
     9
 73
     5
 74
     0
 42
0.00000001
 43
0.00000001
 40
0.0
 40
0.0
 40
0.0
 40
0.0
 40
0.5850553834536039
 40
1.0
 40
1.0
 40
1.0
 40
1.0
 10
178.2953410427743
 20
185.463033807
 30
0.0
 10
178.7030676770453
 20
185.2379555603984
 30
0.0
 10
179.3999703050737
 20
184.8532428426503
 30
0.0
 10
180.2160853643321
 20
184.7350222732615
 30
0.0
 10
180.554727914654
 20
184.6859672844287
 30
0.0
  0
SPLINE
  5
2F6
330
1F
100
AcDbEntity
  8
0
  6
Continuous
 62
     7
370
    25
100
AcDbSpline
210
0.0
220
0.0
230
1.0
 70
    24
 71
     3
 72
    11
 73
     7
 74
     0
 42
0.00000001
 43
0.00000001
 40
0.0
 40
0.0
 40
0.0
 40
0.0
 40
0.2328716322111498
 40
0.4710265024313244
 40
0.7311421212560301
 40
1.0
 40
1.0
 40
1.0
 40
1.0
 10
168.3887292024725
 20
191.8480977726617
 30
0.0
 10
169.1400512959692
 20
191.3638515234774
 30
0.0
 10
170.6597409831108
 20
190.3843727655756
 30
0.0
 10
173.1205670597594
 20
188.7983076041398
 30
0.0
 10
175.7153972109727
 20
187.1258733993266
 30
0.0
 10
177.4259364962865
 20
186.0233872084299
 30
0.0
 10
178.2953410427743
 20
185.463033807
 30
0.0
  0
SPLINE
  5
2F7
330
1F
100
AcDbEntity
  8
0
  6
Continuous
 62
     7
370
    25
100
AcDbSpline
210
0.0
220
0.0
230
1.0
 70
     8
 71
     3
 72
     9
 73
     5
 74
     0
 42
0.00000001
 43
0.00000001
 40
0.0
 40
0.0
 40
0.0
 40
0.0
 40
0.584191749740929
 40
1.0
 40
1.0
 40
1.0
 40
1.0
 10
166.7478751923436
 20
193.584835960981
 30
0.0
 10
167.0178491199621
 20
193.1834981894035
 30
0.0
 10
167.4799815066969
 20
192.4965015453126
 30
0.0
 10
168.1218393964284
 20
192.0385272592239
 30
0.0
 10
168.3887292024725
 20
191.8480977726617
 30
0.0
  0
ARC
  5
2F8
330
1F
100
AcDbEntity
  8
0
  6
Continuous
 62
     7
370
    25
100
AcDbCircle
 10
182.1454640429
 20
202.3143409635
 30
0.0
 40
17.69999999999999
100
AcDbArc
 50
204.8437509929
 51
209.5506238477
  0
SPLINE
  5
2F9
330
1F
100
AcDbEntity
  8
0
  6
Continuous
 62
     7
370
    25
100
AcDbSpline
210
0.0
220
0.0
230
1.0
 70
     8
 71
     3
 72
     9
 73
     5
 74
     0
 42
0.00000001
 43
0.00000001
 40
0.0
 40
0.0
 40
0.0
 40
0.0
 40
0.585055383453617
 40
1.0
 40
1.0
 40
1.0
 40
1.0
 10
165.6267424582925
 20
197.22299171106
 30
0.0
 10
165.6356822960317
 20
196.7573509646811
 30
0.0
 10
165.6509626233171
 20
195.9614592259703
 30
0.0
 10
165.9566381366058
 20
195.1955725675471
 30
0.0
 10
166.0834765452552
 20
194.8777720217496
 30
0.0
  0
SPLINE
  5
2FA
330
1F
100
AcDbEntity
  8
0
  6
Continuous
 62
     7
370
    25
100
AcDbSpline
210
0.0
220
0.0
230
1.0
 70
    24
 71
     3
 72
    11
 73
     7
 74
     0
 42
0.00000001
 43
0.00000001
 40
0.0
 40
0.0
 40
0.0
 40
0.0
 40
0.2328716322111479
 40
0.4710265024313228
 40
0.7311421212560291
 40
1.0
 40
1.0
 40
1.0
 40
1.0
 10
166.2030641371933
 20
208.994901213024
 30
0.0
 10
166.1593556304606
 20
208.1021140690392
 30
0.0
 10
166.0709469872212
 20
206.2962848151545
 30
0.0
 10
165.9277873036846
 20
203.3721143377635
 30
0.0
 10
165.7768318717654
 20
200.2887084059005
 30
0.0
 10
165.6773204657841
 20
198.256094835199
 30
0.0
 10
165.6267424582925
 20
197.22299171106
 30
0.0
  0
SPLINE
  5
2FB
330
1F
100
AcDbEntity
  8
0
  6
Continuous
 62
     7
370
    25
100
AcDbSpline
210
0.0
220
0.0
230
1.0
 70
     8
 71
     3
 72
     9
 73
     5
 74
     0
 42
0.00000001
 43
0.00000001
 40
0.0
 40
0.0
 40
0.0
 40
0.0
 40
0.584191749740934
 40
1.0
 40
1.0
 40
1.0
 40
1.0
 10
166.8866965229359
 20
211.2842915638568
 30
0.0
 10
166.6741147810608
 20
210.8498183983909
 30
0.0
 10
166.3102244283309
 20
210.1061016895214
 30
0.0
 10
166.2345360071637
 20
209.3212493083503
 30
0.0
 10
166.2030641371933
 20
208.994901213024
 30
0.0
  0
ARC
  5
2FC
330
1F
100
AcDbEntity
  8
0
  6
Continuous
 62
     7
370
    25
100
AcDbCircle
 10
182.1454640429
 20
202.3143409635
 30
0.0
 40
17.70000000000001
100
AcDbArc
 50
144.8437509929
 51
149.5506238477
  0
ARC
  5
2FD
330
1F
100
AcDbEntity
  8
0
  6
Continuous
 62
     7
370
    25
100
AcDbCircle
 10
182.1454640429
 20
202.3143409635
 30
0.0
 40
16.19999999999995
100
AcDbArc
 50
117.1971874203
 51
314.1501492002
  0
ARC
  5
2FE
330
1F
100
AcDbEntity
  8
0
  6
Continuous
 62
     7
370
    25
100
AcDbCircle
 10
182.1454640429
 20
202.3143409635
 30
0.0
 40
16.19999999999999
100
AcDbArc
 50
42.0003017748
 51
117.1971874203
  0
LINE
  5
2FF
330
1F
100
AcDbEntity
  8
0
  6
Continuous
 62
     7
370
    25
100
AcDbLine
 10
-22.1734765327
 20
192.5881568166
 30
0.0
 11
-22.5152437607
 21
192.5702463003
 31
0.0
  0
LWPOLYLINE
  5
300
330
1F
100
AcDbEntity
  8
0
  6
Continuous
 62
     7
370
    25
100
AcDbPolyline
 90
        3
 70
   128
 43
0.0
 10
-20.0673356005
 20
192.9712143898
 10
-20.345091711
 20
192.8928129783
 10
-22.1734765327
 20
192.5881568166
  0
ARC
  5
301
330
1F
100
AcDbEntity
  8
0
  6
Continuous
 62
     7
370
    25
100
AcDbCircle
 10
-22.8545359571
 20
202.3143409635
 30
0.0
 40
14.87499999999998
100
AcDbArc
 50
232.5576060541
 51
94.0055009168
  0
ARC
  5
302
330
1F
100
AcDbEntity
  8
0
  6
Continuous
 62
     7
370
    25
100
AcDbCircle
 10
-22.8545359571
 20
202.3143409635
 30
0.0
 40
14.87500000000002
100
AcDbArc
 50
94.0055009168
 51
125.7901119666
  0
ARC
  5
303
330
1F
100
AcDbEntity
  8
0
  6
Continuous
 62
     7
370
    25
100
AcDbCircle
 10
-22.8545359571
 20
202.3143409635
 30
0.0
 40
10.57500000000001
100
AcDbArc
 50
260.8247607777
 51
97.5229572563
  0
SPLINE
  5
304
330
1F
100
AcDbEntity
  8
0
  6
Continuous
 62
     7
370
    25
100
AcDbSpline
210
0.0
220
0.0
230
1.0
 70
     8
 71
     3
 72
     9
 73
     5
 74
     0
 42
0.00000001
 43
0.00000001
 40
0.0
 40
0.0
 40
0.0
 40
0.0
 40
0.5850553834534072
 40
1.0
 40
1.0
 40
1.0
 40
1.0
 10
-15.84082714565849
 20
186.5156736555603
 30
0.0
 10
-15.37952975026727
 20
186.579751252211
 30
0.0
 10
-14.59106184032627
 20
186.6892752365432
 30
0.0
 10
-13.86681320573485
 20
187.0835895886389
 30
0.0
 10
-13.56629013376992
 20
187.247208206268
 30
0.0
  0
SPLINE
  5
305
330
1F
100
AcDbEntity
  8
0
  6
Continuous
 62
     7
370
    25
100
AcDbSpline
210
0.0
220
0.0
230
1.0
 70
    24
 71
     3
 72
    11
 73
     7
 74
     0
 42
0.00000001
 43
0.00000001
 40
0.0
 40
0.0
 40
0.0
 40
0.0
 40
0.2379053903768481
 40
0.481490514130317
 40
0.7366519444348043
 40
1.0
 40
1.0
 40
1.0
 40
1.0
 10
-27.59804668715415
 20
185.6923944483401
 30
0.0
 10
-26.68681374044124
 20
185.756201978285
 30
0.0
 10
-24.84259314791792
 20
185.8853403738038
 30
0.0
 10
-21.89715326344713
 20
186.0915897684368
 30
0.0
 10
-18.84037143063005
 20
186.3056356927378
 30
0.0
 10
-16.85114438782417
 20
186.4449279171452
 30
0.0
 10
-15.84082714565849
 20
186.5156736555603
 30
0.0
  0
SPLINE
  5
306
330
1F
100
AcDbEntity
  8
0
  6
Continuous
 62
     7
370
    25
100
AcDbSpline
210
0.0
220
0.0
230
1.0
 70
     8
 71
     3
 72
     9
 73
     5
 74
     0
 42
0.00000001
 43
0.00000001
 40
0.0
 40
0.0
 40
0.0
 40
0.0
 40
0.5841917497409886
 40
1.0
 40
1.0
 40
1.0
 40
1.0
 10
-29.9523362664075
 20
186.099803326914
 30
0.0
 10
-29.49572571802037
 20
185.9402265880379
 30
0.0
 10
-28.71411497362083
 20
185.6670684358617
 30
0.0
 10
-27.92582440795804
 20
185.6849564602279
 30
0.0
 10
-27.59804668715415
 20
185.6923944483401
 30
0.0
  0
ARC
  5
307
330
1F
100
AcDbEntity
  8
0
  6
Continuous
 62
     7
370
    25
100
AcDbCircle
 10
-22.8545359571
 20
202.3143409635
 30
0.0
 40
17.70000000000002
100
AcDbArc
 50
241.6520644894
 51
246.3589373442
  0
SPLINE
  5
308
330
1F
100
AcDbEntity
  8
0
  6
Continuous
 62
     7
370
    25
100
AcDbSpline
210
0.0
220
0.0
230
1.0
 70
     8
 71
     3
 72
     9
 73
     5
 74
     0
 42
0.00000001
 43
0.00000001
 40
0.0
 40
0.0
 40
0.0
 40
0.0
 40
0.5850553834536304
 40
1.0
 40
1.0
 40
1.0
 40
1.0
 10
-33.02972878603092
 20
188.3409573040782
 30
0.0
 10
-32.74358726182222
 20
187.9735008392954
 30
0.0
 10
-32.25450275409647
 20
187.3454295913843
 30
0.0
 10
-31.55089219080956
 20
186.9153690512202
 30
0.0
 10
-31.25893277542849
 20
186.7369177452902
 30
0.0
  0
SPLINE
  5
309
330
1F
100
AcDbEntity
  8
0
  6
Continuous
 62
     7
370
    25
100
AcDbSpline
210
0.0
220
0.0
230
1.0
 70
    24
 71
     3
 72
     9
 73
     5
 74
     0
 42
0.00000001
 43
0.00000001
 40
0.0
 40
0.0
 40
0.0
 40
0.0
 40
0.2293586310767405
 40
1.0
 40
1.0
 40
1.0
 40
1.0
 10
-35.31460443595027
 20
191.7277233215702
 30
0.0
 10
-35.13538010923481
 20
191.4620673506427
 30
0.0
 10
-34.35396488246042
 20
190.3038115235989
 30
0.0
 10
-33.60607989588357
 20
189.1952560284145
 30
0.0
 10
-33.02972878603092
 20
188.3409573040782
 30
0.0
  0
SPLINE
  5
30A
330
1F
100
AcDbEntity
  8
0
  6
Continuous
 62
     7
370
    25
100
AcDbSpline
210
0.0
220
0.0
230
1.0
 70
     8
 71
     3
 72
     9
 73
     5
 74
     0
 42
0.00000001
 43
0.00000001
 40
0.0
 40
0.0
 40
0.0
 40
0.0
 40
0.5841917497409113
 40
1.0
 40
1.0
 40
1.0
 40
1.0
 10
-33.34783730640164
 20
216.5684851606823
 30
0.0
 10
-33.71434009031482
 20
216.2528371955812
 30
0.0
 10
-34.34170736155026
 20
215.7125215111483
 30
0.0
 10
-34.720361160857
 20
215.0208978435376
 30
0.0
 10
-34.87780853460071
 20
214.7333150164706
 30
0.0
  0
ARC
  5
30B
330
1F
100
AcDbEntity
  8
0
  6
Continuous
 62
     7
370
    25
100
AcDbCircle
 10
-22.8545359571
 20
202.3143409635
 30
0.0
 40
17.70000000000001
100
AcDbArc
 50
121.6520644894
 51
126.3589373442
  0
SPLINE
  5
30C
330
1F
100
AcDbEntity
  8
0
  6
Continuous
 62
     7
370
    25
100
AcDbSpline
210
0.0
220
0.0
230
1.0
 70
     8
 71
     3
 72
     9
 73
     5
 74
     0
 42
0.00000001
 43
0.00000001
 40
0.0
 40
0.0
 40
0.0
 40
0.0
 40
0.5850553834536183
 40
1.0
 40
1.0
 40
1.0
 40
1.0
 10
-29.86824476857311
 20
218.1130082715102
 30
0.0
 10
-30.32954216396422
 20
218.0489306748592
 30
0.0
 10
-31.11801007390466
 20
217.9394066905269
 30
0.0
 10
-31.84225870849547
 20
217.5450923384315
 30
0.0
 10
-32.14278178046004
 20
217.3814737208025
 30
0.0
  0
SPLINE
  5
30D
330
1F
100
AcDbEntity
  8
0
  6
Continuous
 62
     7
370
    25
100
AcDbSpline
210
0.0
220
0.0
230
1.0
 70
    24
 71
     3
 72
    11
 73
     7
 74
     0
 42
0.00000001
 43
0.00000001
 40
0.0
 40
0.0
 40
0.0
 40
0.0
 40
0.2556279644380972
 40
0.5185037642963862
 40
0.7560467972580095
 40
1.0
 40
1.0
 40
1.0
 40
1.0
 10
-18.11102522707611
 20
218.9362874787303
 30
0.0
 10
-19.09121126797031
 20
218.867651626195
 30
0.0
 10
-21.07937462494711
 20
218.7284338845699
 30
0.0
 10
-24.11236974666339
 20
218.5160535840667
 30
0.0
 10
-27.0885137061874
 20
218.307654189046
 30
0.0
 10
-28.93348038735946
 20
218.1784635499446
 30
0.0
 10
-29.86824476857314
 20
218.1130082715101
 30
0.0
  0
SPLINE
  5
30E
330
1F
100
AcDbEntity
  8
0
  6
Continuous
 62
     7
370
    25
100
AcDbSpline
210
0.0
220
0.0
230
1.0
 70
     8
 71
     3
 72
     9
 73
     5
 74
     0
 42
0.00000001
 43
0.00000001
 40
0.0
 40
0.0
 40
0.0
 40
0.0
 40
0.5841917497409178
 40
1.0
 40
1.0
 40
1.0
 40
1.0
 10
-15.75673564782251
 20
218.5288786001565
 30
0.0
 10
-16.21334619620962
 20
218.6884553390325
 30
0.0
 10
-16.99495694060926
 20
218.9616134912087
 30
0.0
 10
-17.78324750627208
 20
218.9437254668427
 30
0.0
 10
-18.11102522707611
 20
218.9362874787303
 30
0.0
  0
ARC
  5
30F
330
1F
100
AcDbEntity
  8
0
  6
Continuous
 62
     7
370
    25
100
AcDbCircle
 10
-22.8545359571
 20
202.3143409635
 30
0.0
 40
17.70000000000002
100
AcDbArc
 50
61.6520644894
 51
66.3589373442
  0
SPLINE
  5
310
330
1F
100
AcDbEntity
  8
0
  6
Continuous
 62
     7
370
    25
100
AcDbSpline
210
0.0
220
0.0
230
1.0
 70
     8
 71
     3
 72
     9
 73
     5
 74
     0
 42
0.00000001
 43
0.00000001
 40
0.0
 40
0.0
 40
0.0
 40
0.0
 40
0.58505538345363
 40
1.0
 40
1.0
 40
1.0
 40
1.0
 10
-12.6793431281991
 20
216.2877246229922
 30
0.0
 10
-12.96548465240779
 20
216.6551810877751
 30
0.0
 10
-13.45456916013354
 20
217.2832523356861
 30
0.0
 10
-14.15817972342043
 20
217.7133128758502
 30
0.0
 10
-14.45013913880153
 20
217.8917641817803
 30
0.0
  0
SPLINE
  5
311
330
1F
100
AcDbEntity
  8
0
  6
Continuous
 62
     7
370
    25
100
AcDbSpline
210
0.0
220
0.0
230
1.0
 70
    24
 71
     3
 72
    11
 73
     7
 74
     0
 42
0.00000001
 43
0.00000001
 40
0.0
 40
0.0
 40
0.0
 40
0.0
 40
0.2328716322111434
 40
0.4710265024313214
 40
0.731142121256028
 40
1.0
 40
1.0
 40
1.0
 40
1.0
 10
-6.087752649590383
 20
206.5173134257951
 30
0.0
 10
-6.587661966488579
 20
207.2583059985673
 30
0.0
 10
-7.598822213168487
 20
208.7571022949062
 30
0.0
 10
-9.236189054408984
 20
211.1840958060309
 30
0.0
 10
-10.96271856763384
 20
213.7432510422442
 30
0.0
 10
-12.10086495391818
 20
215.4302730489495
 30
0.0
 10
-12.6793431281991
 20
216.2877246229922
 30
0.0
  0
SPLINE
  5
312
330
1F
100
AcDbEntity
  8
0
  6
Continuous
 62
     7
370
    25
100
AcDbSpline
210
0.0
220
0.0
230
1.0
 70
     8
 71
     3
 72
     9
 73
     5
 74
     0
 42
0.00000001
 43
0.00000001
 40
0.0
 40
0.0
 40
0.0
 40
0.0
 40
0.5841917497409337
 40
1.0
 40
1.0
 40
1.0
 40
1.0
 10
-5.263434298535846
 20
204.2747344030095
 30
0.0
 10
-5.353542063009698
 20
204.7499591069867
 30
0.0
 10
-5.507785536173926
 20
205.5634329435959
 30
0.0
 10
-5.91742230253009
 20
206.2371685868404
 30
0.0
 10
-6.087752649590356
 20
206.5173134257952
 30
0.0
  0
ARC
  5
313
330
1F
100
AcDbEntity
  8
0
  6
Continuous
 62
     7
370
    25
100
AcDbCircle
 10
-22.8545359571
 20
202.3143409635
 30
0.0
 40
17.70000000000001
100
AcDbArc
 50
1.6520644894
 51
6.3589373442
  0
SPLINE
  5
314
330
1F
100
AcDbEntity
  8
0
  6
Continuous
 62
     7
370
    25
100
AcDbSpline
210
0.0
220
0.0
230
1.0
 70
     8
 71
     3
 72
     9
 73
     5
 74
     0
 42
0.00000001
 43
0.00000001
 40
0.0
 40
0.0
 40
0.0
 40
0.0
 40
0.5850553834536127
 40
1.0
 40
1.0
 40
1.0
 40
1.0
 10
-5.665634316740997
 20
200.4890573150172
 30
0.0
 10
-5.490478445558611
 20
200.9205913764511
 30
0.0
 10
-5.191095043343835
 20
201.6581866086946
 30
0.0
 10
-5.170456972039938
 20
202.4825615009539
 30
0.0
 10
-5.16189331545644
 20
202.8246314245132
 30
0.0
  0
SPLINE
  5
315
330
1F
100
AcDbEntity
  8
0
  6
Continuous
 62
     7
370
    25
100
AcDbSpline
210
0.0
220
0.0
230
1.0
 70
    24
 71
     3
 72
    11
 73
     7
 74
     0
 42
0.00000001
 43
0.00000001
 40
0.0
 40
0.0
 40
0.0
 40
0.0
 40
0.2328716322111489
 40
0.4710265024313289
 40
0.7311421212560318
 40
1.0
 40
1.0
 40
1.0
 40
1.0
 10
-10.83126337962928
 20
189.8953669106
 30
0.0
 10
-10.43949964604202
 20
190.6987973650084
 30
0.0
 10
-9.647084101654352
 20
192.3238859740996
 30
0.0
 10
-8.363929486820576
 20
194.9553840094905
 30
0.0
 10
-7.01090079664457
 20
197.7301800464333
 30
0.0
 10
-6.118970075236541
 20
199.5593547335336
 30
0.0
 10
-5.665634316740997
 20
200.4890573150172
 30
0.0
  0
SPLINE
  5
316
330
1F
100
AcDbEntity
  8
0
  6
Continuous
 62
     7
370
    25
100
AcDbSpline
210
0.0
220
0.0
230
1.0
 70
     8
 71
     3
 72
     9
 73
     5
 74
     0
 42
0.00000001
 43
0.00000001
 40
0.0
 40
0.0
 40
0.0
 40
0.0
 40
0.5841917497409014
 40
1.0
 40
1.0
 40
1.0
 40
1.0
 10
-12.36123460782831
 20
188.0601967663883
 30
0.0
 10
-11.99473182391508
 20
188.3758447314895
 30
0.0
 10
-11.3673645526797
 20
188.9161604159222
 30
0.0
 10
-10.98871075337293
 20
189.607784083533
 30
0.0
 10
-10.83126337962928
 20
189.8953669106
 30
0.0
  0
ARC
  5
317
330
1F
100
AcDbEntity
  8
0
  6
Continuous
 62
     7
370
    25
100
AcDbCircle
 10
-22.8545359571
 20
202.3143409635
 30
0.0
 40
17.70000000000009
100
AcDbArc
 50
301.6520644894
 51
306.3589373442
  0
ARC
  5
318
330
1F
100
AcDbEntity
  8
0
  6
Continuous
 62
     7
370
    25
100
AcDbCircle
 10
-22.8545359571
 20
202.3143409635
 30
0.0
 40
16.19999999999999
100
AcDbArc
 50
274.0055009168
 51
135.248782845
  0
ARC
  5
319
330
1F
100
AcDbEntity
  8
0
  6
Continuous
 62
     7
370
    25
100
AcDbCircle
 10
-22.8545359571
 20
202.3143409635
 30
0.0
 40
16.20000000000003
100
AcDbArc
 50
223.0989351841
 51
274.0055009168
  0
SPLINE
  5
31A
330
1F
100
AcDbEntity
  8
0
  6
Continuous
 62
     7
370
    25
100
AcDbSpline
210
0.0
220
0.0
230
1.0
 70
     8
 71
     3
 72
    13
 73
     9
 74
     0
 42
0.00000001
 43
0.00000001
 40
0.0
 40
0.0
 40
0.0
 40
0.0
 40
0.0232183060590407
 40
0.1847466198631829
 40
0.3905067705276642
 40
0.6007373694344601
 40
0.7974124807062016
 40
1.0
 40
1.0
 40
1.0
 40
1.0
 10
172.2927564608843
 20
189.3056052529408
 30
0.0
 10
172.1988406492221
 20
189.3267359995293
 30
0.0
 10
171.4515583663467
 20
189.4948720382848
 30
0.0
 10
169.4710348235763
 20
189.8875874285202
 30
0.0
 10
166.1114451624258
 20
190.4716787930006
 30
0.0
 10
161.7527872590758
 20
191.0353870928108
 30
0.0
 10
156.7767846280951
 20
191.4680860679741
 30
0.0
 10
153.0577364309017
 20
191.5319408046004
 30
0.0
 10
151.1706759080167
 20
191.5643409635382
 30
0.0
  0
SPLINE
  5
31B
330
1F
100
AcDbEntity
  8
0
  6
Continuous
 62
     7
370
    25
100
AcDbSpline
210
0.0
220
0.0
230
1.0
 70
     8
 71
     3
 72
    15
 73
    11
 74
     0
 42
0.00000001
 43
0.00000001
 40
0.0
 40
0.0
 40
0.0
 40
0.0
 40
0.1250000000000013
 40
0.2500000000000013
 40
0.3750000000000016
 40
0.5000000000000014
 40
0.6250000000000022
 40
0.7500000000000004
 40
0.8749999999999978
 40
1.0
 40
1.0
 40
1.0
 40
1.0
 10
151.1706759080167
 20
191.5643409635382
 30
0.0
 10
150.9286810239633
 20
191.6043493646523
 30
0.0
 10
150.4446912558564
 20
191.6843661668803
 30
0.0
 10
149.7466188657294
 20
192.3235895641618
 30
0.0
 10
149.1032198731667
 20
193.3170915107238
 30
0.0
 10
148.539468241395
 20
194.6643001806584
 30
0.0
 10
148.0761000213452
 20
196.3033661613398
 30
0.0
 10
147.7343881255804
 20
198.1740009254477
 30
0.0
 10
147.5145292318374
 20
200.2035945305506
 30
0.0
 10
147.4870077022854
 20
201.610758819209
 30
0.0
 10
147.4732469375092
 20
202.3143409635382
 30
0.0
  0
SPLINE
  5
31C
330
1F
100
AcDbEntity
  8
0
  6
Continuous
 62
     7
370
    25
100
AcDbSpline
210
0.0
220
0.0
230
1.0
 70
     8
 71
     3
 72
    15
 73
    11
 74
     0
 42
0.00000001
 43
0.00000001
 40
0.0
 40
0.0
 40
0.0
 40
0.0
 40
0.1250000000000008
 40
0.2500000000000004
 40
0.3750000000000012
 40
0.5000000000000011
 40
0.6250000000000014
 40
0.7500000000000003
 40
0.8749999999999977
 40
1.0
 40
1.0
 40
1.0
 40
1.0
 10
8.120252177753805
 20
191.5643409635358
 30
0.0
 10
8.362247061807187
 20
191.6043493646498
 30
0.0
 10
8.846236829914034
 20
191.6843661668777
 30
0.0
 10
9.54430922004107
 20
192.3235895641594
 30
0.0
 10
10.18770821260373
 20
193.3170915107214
 30
0.0
 10
10.75145984437531
 20
194.6643001806559
 30
0.0
 10
11.21482806442506
 20
196.3033661613374
 30
0.0
 10
11.55653996018991
 20
198.1740009254451
 30
0.0
 10
11.77639885393278
 20
200.2035945305484
 30
0.0
 10
11.8039203834848
 20
201.6107588192066
 30
0.0
 10
11.81768114826082
 20
202.3143409635358
 30
0.0
  0
SPLINE
  5
31D
330
1F
100
AcDbEntity
  8
0
  6
Continuous
 62
     7
370
    25
100
AcDbSpline
210
0.0
220
0.0
230
1.0
 70
     8
 71
     3
 72
    12
 73
     8
 74
     0
 42
0.00000001
 43
0.00000001
 40
0.0
 40
0.0
 40
0.0
 40
0.0
 40
0.0344585658384158
 40
0.278149614298155
 40
0.5271352167117889
 40
0.7600664423012333
 40
1.0
 40
1.0
 40
1.0
 40
1.0
 10
-10.77757278080321
 20
189.7580911091893
 30
0.0
 10
-10.63708730736548
 20
189.7865007527119
 30
0.0
 10
-9.503088276922783
 20
190.0158234536406
 30
0.0
 10
-6.780260326044591
 20
190.4741379111836
 30
0.0
 10
-2.471904681646237
 20
191.0347734543034
 30
0.0
 10
2.516670736858767
 20
191.468240448991
 30
0.0
 10
6.234042357025155
 20
191.5319927704698
 30
0.0
 10
8.120252177753779
 20
191.5643409635358
 30
0.0
  0
SPLINE
  5
31E
330
1F
100
AcDbEntity
  8
0
  6
Continuous
 62
     7
370
    25
100
AcDbSpline
210
0.0
220
0.0
230
1.0
 70
     8
 71
     3
 72
    15
 73
    11
 74
     0
 42
0.00000001
 43
0.00000001
 40
0.0
 40
0.0
 40
0.0
 40
0.0
 40
0.1250000000000006
 40
0.2500000000000008
 40
0.3750000000000012
 40
0.500000000000001
 40
0.6250000000000019
 40
0.7500000000000002
 40
0.8749999999999977
 40
1.0
 40
1.0
 40
1.0
 40
1.0
 10
151.1706759080163
 20
213.0643409635383
 30
0.0
 10
150.9286810239629
 20
213.0243325624242
 30
0.0
 10
150.444691255856
 20
212.9443157601962
 30
0.0
 10
149.7466188657291
 20
212.3050923629148
 30
0.0
 10
149.1032198731662
 20
211.3115904163527
 30
0.0
 10
148.5394682413948
 20
209.964381746418
 30
0.0
 10
148.076100021345
 20
208.3253157657367
 30
0.0
 10
147.7343881255803
 20
206.4546810016288
 30
0.0
 10
147.5145292318373
 20
204.4250873965256
 30
0.0
 10
147.4870077022853
 20
203.0179231078674
 30
0.0
 10
147.4732469375092
 20
202.3143409635382
 30
0.0
  0
SPLINE
  5
31F
330
1F
100
AcDbEntity
  8
0
  6
Continuous
 62
     7
370
    25
100
AcDbSpline
210
0.0
220
0.0
230
1.0
 70
     8
 71
     3
 72
    10
 73
     6
 74
     0
 42
0.00000001
 43
0.00000001
 40
0.0
 40
0.0
 40
0.0
 40
0.0
 40
0.0912770336737117
 40
0.5389101874809065
 40
1.0
 40
1.0
 40
1.0
 40
1.0
 10
162.4503592663132
 20
213.7025336966788
 30
0.0
 10
162.1492123984787
 20
213.6693083071147
 30
0.0
 10
160.3712063823742
 20
213.473141755699
 30
0.0
 10
156.7739388427684
 20
213.1603541017933
 30
0.0
 10
153.0567785170588
 20
213.0966597450545
 30
0.0
 10
151.1706759080164
 20
213.0643409635384
 30
0.0
  0
SPLINE
  5
320
330
1F
100
AcDbEntity
  8
0
  6
Continuous
 62
     7
370
    25
100
AcDbSpline
210
0.0
220
0.0
230
1.0
 70
     8
 71
     3
 72
    10
 73
     6
 74
     0
 42
0.00000001
 43
0.00000001
 40
0.0
 40
0.0
 40
0.0
 40
0.0
 40
0.1840120149020942
 40
0.5902523693614874
 40
1.0
 40
1.0
 40
1.0
 40
1.0
 10
168.816733455045
 20
214.6335700986969
 30
0.0
 10
168.3840961579149
 20
214.5560550000531
 30
0.0
 10
166.9963324847596
 20
214.3074110696
 30
0.0
 10
164.7995666147677
 20
213.96364522295
 30
0.0
 10
163.2356690285081
 20
213.7898199171723
 30
0.0
 10
162.4503592663133
 20
213.702533696679
 30
0.0
  0
SPLINE
  5
321
330
1F
100
AcDbEntity
  8
0
  6
Continuous
 62
     7
370
    25
100
AcDbSpline
210
0.0
220
0.0
230
1.0
 70
     8
 71
     3
 72
     9
 73
     5
 74
     0
 42
0.00000001
 43
0.00000001
 40
0.0
 40
0.0
 40
0.0
 40
0.0
 40
0.7296320066210518
 40
0.9999999999999999
 40
0.9999999999999999
 40
0.9999999999999999
 40
0.9999999999999999
 10
171.638018791432
 20
215.1848467084267
 30
0.0
 10
171.0010936904837
 20
215.0527690085781
 30
0.0
 10
170.1281535025962
 20
214.8717494005425
 30
0.0
 10
169.0958384140656
 20
214.6842609695626
 30
0.0
 10
168.816733455045
 20
214.6335700986969
 30
0.0
  0
SPLINE
  5
322
330
1F
100
AcDbEntity
  8
0
  6
Continuous
 62
     7
370
    25
100
AcDbSpline
210
0.0
220
0.0
230
1.0
 70
     8
 71
     3
 72
    10
 73
     6
 74
     0
 42
0.00000001
 43
0.00000001
 40
0.0
 40
0.0
 40
0.0
 40
0.0
 40
0.1840120149020942
 40
0.5902523693614864
 40
1.0
 40
1.0
 40
1.0
 40
1.0
 10
-9.525805369275304
 20
214.6335700986938
 30
0.0
 10
-9.093168072145108
 20
214.5560550000499
 30
0.0
 10
-7.705404398989923
 20
214.3074110695966
 30
0.0
 10
-5.508638528997994
 20
213.9636452229473
 30
0.0
 10
-3.944740942738445
 20
213.7898199171696
 30
0.0
 10
-3.159431180543542
 20
213.702533696676
 30
0.0
  0
SPLINE
  5
323
330
1F
100
AcDbEntity
  8
0
  6
Continuous
 62
     7
370
    25
100
AcDbSpline
210
0.0
220
0.0
230
1.0
 70
     8
 71
     3
 72
    10
 73
     6
 74
     0
 42
0.00000001
 43
0.00000001
 40
0.0
 40
0.0
 40
0.0
 40
0.0
 40
0.0912770336737117
 40
0.5389101874809065
 40
1.0
 40
1.0
 40
1.0
 40
1.0
 10
-3.159431180543542
 20
213.702533696676
 30
0.0
 10
-2.858284312708959
 20
213.6693083071118
 30
0.0
 10
-1.080278296604703
 20
213.4731417556962
 30
0.0
 10
2.516989243001283
 20
213.1603541017906
 30
0.0
 10
6.234149568710934
 20
213.0966597450519
 30
0.0
 10
8.120252177753445
 20
213.0643409635359
 30
0.0
  0
SPLINE
  5
324
330
1F
100
AcDbEntity
  8
0
  6
Continuous
 62
     7
370
    25
100
AcDbSpline
210
0.0
220
0.0
230
1.0
 70
     8
 71
     3
 72
    15
 73
    11
 74
     0
 42
0.00000001
 43
0.00000001
 40
0.0
 40
0.0
 40
0.0
 40
0.0
 40
0.1250000000000001
 40
0.2499999999999998
 40
0.3750000000000007
 40
0.5000000000000007
 40
0.6250000000000017
 40
0.7500000000000002
 40
0.8749999999999977
 40
1.0
 40
1.0
 40
1.0
 40
1.0
 10
8.120252177753445
 20
213.0643409635358
 30
0.0
 10
8.362247061806883
 20
213.0243325624218
 30
0.0
 10
8.846236829913728
 20
212.9443157601939
 30
0.0
 10
9.544309220040597
 20
212.305092362912
 30
0.0
 10
10.18770821260351
 20
211.3115904163503
 30
0.0
 10
10.75145984437506
 20
209.9643817464157
 30
0.0
 10
11.21482806442475
 20
208.3253157657342
 30
0.0
 10
11.55653996018982
 20
206.4546810016263
 30
0.0
 10
11.77639885393264
 20
204.4250873965234
 30
0.0
 10
11.8039203834848
 20
203.017923107865
 30
0.0
 10
11.81768114826082
 20
202.3143409635358
 30
0.0
  0
SPLINE
  5
325
330
1F
100
AcDbEntity
  8
0
  6
Continuous
 62
     7
370
    25
100
AcDbSpline
210
0.0
220
0.0
230
1.0
 70
     8
 71
     3
 72
     9
 73
     5
 74
     0
 42
0.00000001
 43
0.00000001
 40
0.0
 40
0.0
 40
0.0
 40
0.0
 40
0.6726449866773436
 40
0.9999999999999999
 40
0.9999999999999999
 40
0.9999999999999999
 40
0.9999999999999999
 10
-11.87095467417126
 20
215.0894876225974
 30
0.0
 10
-11.38431193872175
 20
214.9888541362046
 30
0.0
 10
-10.66083559520001
 20
214.8392455189013
 30
0.0
 10
-9.805728849429402
 20
214.6842941922833
 30
0.0
 10
-9.525805369275275
 20
214.633570098694
 30
0.0
  0
LINE
  5
326
330
1F
100
AcDbEntity
  8
0
  6
Continuous
 62
     7
370
    25
100
AcDbLine
 10
177.9174570999
 20
220.1643409635
 30
0.0
 11
182.1454640429
 21
220.1643409635
 31
0.0
  0
LINE
  5
327
330
1F
100
AcDbEntity
  8
0
  6
Continuous
 62
     7
370
    25
100
AcDbLine
 10
-18.6265290141
 20
220.1643409635
 30
0.0
 11
-22.8545359571
 21
220.1643409635
 31
0.0
  0
LINE
  5
328
330
1F
100
AcDbEntity
  8
0
  6
Continuous
 62
     7
370
    25
100
AcDbLine
 10
182.1454640429
 20
220.1643409635
 30
0.0
 11
189.1617568103
 21
220.1643409635
 31
0.0
  0
LINE
  5
329
330
1F
100
AcDbEntity
  8
0
  6
Continuous
 62
     7
370
    25
100
AcDbLine
 10
-22.8545359571
 20
220.1643409635
 30
0.0
 11
-29.8708287245
 21
220.1643409635
 31
0.0
  0
LINE
  5
32A
330
1F
100
AcDbEntity
  8
0
  6
Continuous
 62
     7
370
    25
100
AcDbLine
 10
173.5039651567
 20
220.1643409635
 30
0.0
 11
177.9174570999
 21
220.1643409635
 31
0.0
  0
LINE
  5
32B
330
1F
100
AcDbEntity
  8
0
  6
Continuous
 62
     7
370
    25
100
AcDbLine
 10
-14.213037071
 20
220.1643409635
 30
0.0
 11
-18.6265290141
 21
220.1643409635
 31
0.0
  0
SPLINE
  5
32C
330
1F
100
AcDbEntity
  8
0
  6
Continuous
 62
     7
370
    25
100
AcDbSpline
210
0.0
220
0.0
230
1.0
 70
     8
 71
     3
 72
     9
 73
     5
 74
     0
 42
0.00000001
 43
0.00000001
 40
0.0
 40
0.0
 40
0.0
 40
0.0
 40
0.6732537698586498
 40
1.0
 40
1.0
 40
1.0
 40
1.0
 10
171.0924380144027
 20
219.5551086419391
 30
0.0
 10
171.6157947890892
 20
219.6792110902039
 30
0.0
 10
172.3931491807273
 20
219.8635434383033
 30
0.0
 10
173.2303974432693
 20
220.0902616443941
 30
0.0
 10
173.5039651567472
 20
220.1643409635387
 30
0.0
  0
LWPOLYLINE
  5
32D
330
1F
100
AcDbEntity
  8
0
  6
Continuous
 62
     7
370
    25
100
AcDbPolyline
 90
        9
 70
   128
 43
0.0
 10
171.0924380144
 20
219.5551086419
 10
171.1368515235
 20
218.6568464978
 10
171.0750291673
 20
217.7883829522
 10
170.9090218167
 20
216.9785280766
 10
170.6443365347
 20
216.2541476812
 10
170.289753888
 20
215.6392720791
 10
169.857036663
 20
215.1542989141
 10
169.3605396525
 20
214.815316497
 10
168.816733455
 20
214.6335700987
  0
SPLINE
  5
32E
330
1F
100
AcDbEntity
  8
0
  6
Continuous
 62
     7
370
    25
100
AcDbSpline
210
0.0
220
0.0
230
1.0
 70
     8
 71
     3
 72
     9
 73
     5
 74
     0
 42
0.00000001
 43
0.00000001
 40
0.0
 40
0.0
 40
0.0
 40
0.0
 40
0.6732537698586581
 40
0.9999999999999999
 40
0.9999999999999999
 40
0.9999999999999999
 40
0.9999999999999999
 10
-11.80150992863316
 20
219.555108641936
 30
0.0
 10
-12.32486670331973
 20
219.6792110902008
 30
0.0
 10
-13.10222109495784
 20
219.8635434383001
 30
0.0
 10
-13.93946935749979
 20
220.0902616443908
 30
0.0
 10
-14.21303707097771
 20
220.1643409635354
 30
0.0
  0
LWPOLYLINE
  5
32F
330
1F
100
AcDbEntity
  8
0
  6
Continuous
 62
     7
370
    25
100
AcDbPolyline
 90
        9
 70
   128
 43
0.0
 10
-11.8015099286
 20
219.5551086419
 10
-11.8459234377
 20
218.6568464978
 10
-11.7841010816
 20
217.7883829522
 10
-11.6180937309
 20
216.9785280766
 10
-11.353408449
 20
216.2541476812
 10
-10.9988258022
 20
215.6392720791
 10
-10.5661085772
 20
215.1542989141
 10
-10.0696115668
 20
214.815316497
 10
-9.5258053693
 20
214.6335700987
  0
SPLINE
  5
330
330
1F
100
AcDbEntity
  8
0
  6
Continuous
 62
     7
370
    25
100
AcDbSpline
210
0.0
220
0.0
230
1.0
 70
     8
 71
     3
 72
    10
 73
     6
 74
     0
 42
0.00000001
 43
0.00000001
 40
0.0
 40
0.0
 40
0.0
 40
0.0
 40
0.8221941384101841
 40
0.9999856333282585
 40
1.0
 40
1.0
 40
1.0
 40
1.0
 10
93.10757199164293
 20
212.1293146124218
 30
0.0
 10
92.32928215980846
 20
212.4013728309866
 30
0.0
 10
91.38269471282817
 20
212.7322609963047
 30
0.0
 10
90.42317335495648
 20
212.8947990870065
 30
0.0
 10
90.2520201566202
 20
212.9208811407107
 30
0.0
 10
90.25200632748204
 20
212.9208832481343
 30
0.0
  0
SPLINE
  5
331
330
1F
100
AcDbEntity
  8
0
  6
Continuous
 62
     7
370
    25
100
AcDbSpline
210
0.0
220
0.0
230
1.0
 70
     8
 71
     3
 72
    10
 73
     6
 74
     0
 42
0.00000001
 43
0.00000001
 40
0.0
 40
0.0
 40
0.0
 40
0.0
 40
0.0000143666717578
 40
0.1778058615897094
 40
1.0
 40
1.0
 40
1.0
 40
1.0
 10
69.03892175828818
 20
191.7077986789398
 30
0.0
 10
69.03890792914986
 20
191.7078007863636
 30
0.0
 10
68.86775472856516
 20
191.7338828399465
 30
0.0
 10
67.90823337789809
 20
191.8964209310366
 30
0.0
 10
66.96164592819792
 20
192.2273090962079
 30
0.0
 10
66.18335609412712
 20
192.4993673146522
 30
0.0
  0
SPLINE
  5
332
330
1F
100
AcDbEntity
  8
0
  6
Continuous
 62
     7
370
    25
100
AcDbSpline
210
0.0
220
0.0
230
1.0
 70
     8
 71
     3
 72
    14
 73
    10
 74
     0
 42
0.00000001
 43
0.00000001
 40
0.0
 40
0.0
 40
0.0
 40
0.0
 40
0.0625227234691161
 40
0.2145654391951761
 40
0.3549174042288036
 40
0.4957363382923737
 40
0.7439305738224002
 40
0.947345168859286
 40
1.0
 40
1.0
 40
1.0
 40
1.0
 10
98.16564986834925
 20
203.1797109088077
 30
0.0
 10
98.02516528655059
 20
203.4056974207013
 30
0.0
 10
97.54305039581551
 20
204.1812377760509
 30
0.0
 10
97.01136286463746
 20
205.6191859021013
 30
0.0
 10
96.56685085711241
 20
207.2838484990971
 30
0.0
 10
96.06351981812217
 20
209.1233176112196
 30
0.0
 10
95.26412013575808
 20
210.7983159698637
 30
0.0
 10
94.10624984977616
 20
211.7551345023437
 30
0.0
 10
93.27790267586178
 20
212.0654958808343
 30
0.0
 10
93.10757199164293
 20
212.1293146124218
 30
0.0
  0
SPLINE
  5
333
330
1F
100
AcDbEntity
  8
0
  6
Continuous
 62
     7
370
    25
100
AcDbSpline
210
0.0
220
0.0
230
1.0
 70
     8
 71
     3
 72
    10
 73
     6
 74
     0
 42
0.00000001
 43
0.00000001
 40
0.0
 40
0.0
 40
0.0
 40
0.0
 40
0.0208786192184286
 40
0.5936280034167074
 40
1.0
 40
1.0
 40
1.0
 40
1.0
 10
94.75013225955725
 20
202.3143409635372
 30
0.0
 10
94.76884643435297
 20
202.3237844466907
 30
0.0
 10
95.30093421771191
 20
202.5922847718799
 30
0.0
 10
96.33845641308491
 20
202.9615741472037
 30
0.0
 10
97.62972507456075
 20
203.1157303277459
 30
0.0
 10
98.16564986834925
 20
203.1797109088077
 30
0.0
  0
SPLINE
  5
334
330
1F
100
AcDbEntity
  8
0
  6
Continuous
 62
     7
370
    25
100
AcDbSpline
210
0.0
220
0.0
230
1.0
 70
     8
 71
     3
 72
    10
 73
     6
 74
     0
 42
0.00000001
 43
0.00000001
 40
0.0
 40
0.0
 40
0.0
 40
0.0
 40
0.4063719965825431
 40
0.9791213808051974
 40
1.0
 40
1.0
 40
1.0
 40
1.0
 10
98.16564986834165
 20
201.4489710182558
 30
0.0
 10
97.62972507455741
 20
201.5129515993299
 30
0.0
 10
96.33845641305844
 20
201.6671077799052
 30
0.0
 10
95.30093421767027
 20
202.0363971551145
 30
0.0
 10
94.76884643433104
 20
202.3048974803915
 30
0.0
 10
94.75013225955725
 20
202.3143409635372
 30
0.0
  0
SPLINE
  5
335
330
1F
100
AcDbEntity
  8
0
  6
Continuous
 62
     7
370
    25
100
AcDbSpline
210
0.0
220
0.0
230
1.0
 70
     8
 71
     3
 72
    14
 73
    10
 74
     0
 42
0.00000001
 43
0.00000001
 40
0.0
 40
0.0
 40
0.0
 40
0.0
 40
0.1975570819264164
 40
0.2559404439678212
 40
0.5041840487204929
 40
0.6450309935929905
 40
0.7854108765490286
 40
0.9393620813605582
 40
0.9999999999999999
 40
0.9999999999999999
 40
0.9999999999999999
 40
0.9999999999999999
 10
93.10757199164327
 20
192.4993673146526
 30
0.0
 10
93.69985573917994
 20
192.7759862820188
 30
0.0
 10
94.46717505682356
 20
193.1343534973435
 30
0.0
 10
95.45180057127028
 20
194.2398076383872
 30
0.0
 10
96.06524383510457
 20
195.5054994811192
 30
0.0
 10
96.56652867629933
 20
197.3448137668097
 30
0.0
 10
97.0132844708057
 20
199.016687140495
 30
0.0
 10
97.54635804666911
 20
200.4551608372414
 30
0.0
 10
98.02920772656864
 20
201.2300151320839
 30
0.0
 10
98.16564986834165
 20
201.4489710182558
 30
0.0
  0
SPLINE
  5
336
330
1F
100
AcDbEntity
  8
0
  6
Continuous
 62
     7
370
    25
100
AcDbSpline
210
0.0
220
0.0
230
1.0
 70
     8
 71
     3
 72
    10
 73
     6
 74
     0
 42
0.00000001
 43
0.00000001
 40
0.0
 40
0.0
 40
0.0
 40
0.0
 40
0.0208786192184286
 40
0.5936280034167074
 40
1.0
 40
1.0
 40
1.0
 40
1.0
 10
64.5407958262128
 20
202.3143409635368
 30
0.0
 10
64.52208165141715
 20
202.3237844466902
 30
0.0
 10
63.98999386805726
 20
202.5922847718793
 30
0.0
 10
62.95247167268525
 20
202.961574147203
 30
0.0
 10
61.66120301120942
 20
203.1157303277453
 30
0.0
 10
61.12527821742081
 20
203.179710908807
 30
0.0
  0
SPLINE
  5
337
330
1F
100
AcDbEntity
  8
0
  6
Continuous
 62
     7
370
    25
100
AcDbSpline
210
0.0
220
0.0
230
1.0
 70
     8
 71
     3
 72
    14
 73
    10
 74
     0
 42
0.00000001
 43
0.00000001
 40
0.0
 40
0.0
 40
0.0
 40
0.0
 40
0.0625212926160809
 40
0.2145605287947187
 40
0.3523009272493094
 40
0.4957478785316796
 40
0.7439364340552138
 40
0.9473463738823684
 40
1.0
 40
1.0
 40
1.0
 40
1.0
 10
61.12527821742081
 20
203.179710908807
 30
0.0
 10
61.26572763178562
 20
203.4057114484143
 30
0.0
 10
61.74772183494598
 20
204.1812999440619
 30
0.0
 10
62.27734382597983
 20
205.6079453258608
 30
0.0
 10
62.71640516989019
 20
207.276414431011
 30
0.0
 10
63.22663882066687
 20
209.1146684748855
 30
0.0
 10
64.02604704110709
 20
210.7986468964098
 30
0.0
 10
65.18471413330661
 20
211.7551188902593
 30
0.0
 10
66.01303153241666
 20
212.0654932180963
 30
0.0
 10
66.18335609412685
 20
212.1293146124215
 30
0.0
  0
SPLINE
  5
338
330
1F
100
AcDbEntity
  8
0
  6
Continuous
 62
     7
370
    25
100
AcDbSpline
210
0.0
220
0.0
230
1.0
 70
     8
 71
     3
 72
    10
 73
     6
 74
     0
 42
0.00000001
 43
0.00000001
 40
0.0
 40
0.0
 40
0.0
 40
0.0
 40
0.4063719965825411
 40
0.9791213808051974
 40
1.0
 40
1.0
 40
1.0
 40
1.0
 10
61.12527821742842
 20
201.4489710182553
 30
0.0
 10
61.66120301121269
 20
201.5129515993293
 30
0.0
 10
62.95247167271156
 20
201.6671077799044
 30
0.0
 10
63.98999386810028
 20
202.0363971551149
 30
0.0
 10
64.52208165143902
 20
202.304897480391
 30
0.0
 10
64.5407958262128
 20
202.3143409635368
 30
0.0
  0
SPLINE
  5
339
330
1F
100
AcDbEntity
  8
0
  6
Continuous
 62
     7
370
    25
100
AcDbSpline
210
0.0
220
0.0
230
1.0
 70
     8
 71
     3
 72
    14
 73
    10
 74
     0
 42
0.00000001
 43
0.00000001
 40
0.0
 40
0.0
 40
0.0
 40
0.0
 40
0.1975570819264149
 40
0.2559404439678193
 40
0.5041840487204892
 40
0.6450309935929857
 40
0.7854108765490229
 40
0.9393620813605512
 40
1.0
 40
1.0
 40
1.0
 40
1.0
 10
66.18335609412712
 20
192.4993673146522
 30
0.0
 10
65.59107234659056
 20
192.7759862820183
 30
0.0
 10
64.823753028947
 20
193.1343534973428
 30
0.0
 10
63.83912751449972
 20
194.2398076383868
 30
0.0
 10
63.2256842506656
 20
195.5054994811183
 30
0.0
 10
62.724399409471
 20
197.3448137668092
 30
0.0
 10
62.27764361496446
 20
199.0166871404942
 30
0.0
 10
61.74457003910094
 20
200.4551608372408
 30
0.0
 10
61.26172035920141
 20
201.2300151320833
 30
0.0
 10
61.12527821742842
 20
201.4489710182553
 30
0.0
  0
ARC
  5
33A
330
1F
100
AcDbEntity
  8
0
  6
Continuous
 62
     7
370
    25
100
AcDbCircle
 10
161.6915620816
 20
218.3488246756
 30
0.0
 40
4.707843776969072
100
AcDbArc
 50
279.2752330304
 51
3.919444943
  0
SPLINE
  5
33B
330
1F
100
AcDbEntity
  8
0
  6
Continuous
 62
     7
370
    25
100
AcDbSpline
210
0.0
220
0.0
230
1.0
 70
     8
 71
     3
 72
    10
 73
     6
 74
     0
 42
0.00000001
 43
0.00000001
 40
0.0
 40
0.0
 40
0.0
 40
0.0
 40
0.4002088599189592
 40
0.8141959364606324
 40
0.9999999999999999
 40
0.9999999999999999
 40
0.9999999999999999
 40
0.9999999999999999
 10
166.3883948638397
 20
218.670624060022
 30
0.0
 10
166.8826250021058
 20
218.7356627465049
 30
0.0
 10
167.8881004189522
 20
218.8679792430905
 30
0.0
 10
169.5864629999536
 20
219.2055017136963
 30
0.0
 10
170.7362542240946
 20
219.4724217981172
 30
0.0
 10
171.0924380144026
 20
219.555108641939
 30
0.0
  0
SPLINE
  5
33C
330
1F
100
AcDbEntity
  8
0
  6
Continuous
 62
     7
370
    25
100
AcDbSpline
210
0.0
220
0.0
230
1.0
 70
     8
 71
     3
 72
    10
 73
     6
 74
     0
 42
0.00000001
 43
0.00000001
 40
0.0
 40
0.0
 40
0.0
 40
0.0
 40
0.4002088599189572
 40
0.8141959364606284
 40
1.0
 40
1.0
 40
1.0
 40
1.0
 10
-7.097466778070216
 20
218.6706240600189
 30
0.0
 10
-7.591696916336321
 20
218.7356627465018
 30
0.0
 10
-8.597172333182773
 20
218.8679792430876
 30
0.0
 10
-10.29553491418403
 20
219.205501713693
 30
0.0
 10
-11.44532613832508
 20
219.4724217981139
 30
0.0
 10
-11.80150992863316
 20
219.555108641936
 30
0.0
  0
ARC
  5
33D
330
1F
100
AcDbEntity
  8
0
  6
Continuous
 62
     7
370
    25
100
AcDbCircle
 10
-2.4006339958
 20
218.3488246756
 30
0.0
 40
4.707843776969032
100
AcDbArc
 50
176.080555057
 51
260.7247669696
  0
SPLINE
  5
33E
330
1F
100
AcDbEntity
  8
0
  6
Continuous
 62
     7
370
    25
100
AcDbSpline
210
0.0
220
0.0
230
1.0
 70
     8
 71
     3
 72
    10
 73
     6
 74
     0
 42
0.00000001
 43
0.00000001
 40
0.0
 40
0.0
 40
0.0
 40
0.0
 40
0.3644327143101648
 40
0.7393133379813293
 40
1.0
 40
1.0
 40
1.0
 40
1.0
 10
164.6454640428848
 20
218.4431067395596
 30
0.0
 10
164.6922675230177
 20
218.4485302692638
 30
0.0
 10
164.7872162906982
 20
218.4595328156648
 30
0.0
 10
165.4432998565762
 20
218.537324282574
 30
0.0
 10
166.1135021692368
 20
218.6318521537787
 30
0.0
 10
166.3883948638397
 20
218.670624060022
 30
0.0
  0
LINE
  5
33F
330
1F
100
AcDbEntity
  8
0
  6
Continuous
 62
     7
370
    25
100
AcDbLine
 10
189.1617568103
 20
220.1643409635
 30
0.0
 11
199.6454640429
 21
220.1643409635
 31
0.0
  0
LINE
  5
340
330
1F
100
AcDbEntity
  8
0
  6
Continuous
 62
     7
370
    25
100
AcDbLine
 10
164.6454640429
 20
220.1643409635
 30
0.0
 11
173.5039651567
 21
220.1643409635
 31
0.0
  0
SPLINE
  5
341
330
1F
100
AcDbEntity
  8
0
  6
Continuous
 62
     7
370
    25
100
AcDbSpline
210
0.0
220
0.0
230
1.0
 70
     8
 71
     3
 72
    10
 73
     6
 74
     0
 42
0.00000001
 43
0.00000001
 40
0.0
 40
0.0
 40
0.0
 40
0.0
 40
0.3644327143101642
 40
0.7393133379813295
 40
1.0
 40
1.0
 40
1.0
 40
1.0
 10
-5.354535957115269
 20
218.4431067395566
 30
0.0
 10
-5.401339437248215
 20
218.4485302692609
 30
0.0
 10
-5.496288204928756
 20
218.4595328156619
 30
0.0
 10
-6.152371770806492
 20
218.5373242825709
 30
0.0
 10
-6.822574083467369
 20
218.6318521537755
 30
0.0
 10
-7.097466778070216
 20
218.6706240600189
 30
0.0
  0
LINE
  5
342
330
1F
100
AcDbEntity
  8
0
  6
Continuous
 62
     7
370
    25
100
AcDbLine
 10
-29.8708287245
 20
220.1643409635
 30
0.0
 11
-40.3545359571
 21
220.1643409635
 31
0.0
  0
LINE
  5
343
330
1F
100
AcDbEntity
  8
0
  6
Continuous
 62
     7
370
    25
100
AcDbLine
 10
-5.3545359571
 20
220.1643409635
 30
0.0
 11
-14.213037071
 21
220.1643409635
 31
0.0
  0
ARC
  5
344
330
1F
100
AcDbEntity
  8
0
  6
Continuous
 62
     7
370
    25
100
AcDbCircle
 10
80.7729560155
 20
202.3143409636
 30
0.0
 40
17.41420869869338
100
AcDbArc
 50
357.1516090285
 51
2.848390971
  0
ARC
  5
345
330
1F
100
AcDbEntity
  8
0
  6
Continuous
 62
     7
370
    25
100
AcDbCircle
 10
78.5179720703
 20
202.3143409636
 30
0.0
 40
17.4142086987235
100
AcDbArc
 50
177.151609029
 51
182.8483909715
  0
SPLINE
  5
346
330
1F
100
AcDbEntity
  8
0
  6
Continuous
 62
     7
370
    25
100
AcDbSpline
210
0.0
220
0.0
230
1.0
 70
    24
 71
     3
 72
     9
 73
     5
 74
     0
 42
0.00000001
 43
0.00000001
 40
0.0
 40
0.0
 40
0.0
 40
0.0
 40
0.5056315204548594
 40
1.0
 40
1.0
 40
1.0
 40
1.0
 10
137.1548405081868
 20
202.3143409635381
 30
0.0
 10
138.934741345789
 20
202.3143409635381
 30
0.0
 10
142.4548953820741
 20
202.3143409635381
 30
0.0
 10
145.8130708415584
 20
202.3143409635381
 30
0.0
 10
147.4732469375093
 20
202.3143409635383
 30
0.0
  0
SPLINE
  5
347
330
1F
100
AcDbEntity
  8
0
  6
Continuous
 62
     7
370
    25
100
AcDbSpline
210
0.0
220
0.0
230
1.0
 70
    24
 71
     3
 72
    15
 73
    11
 74
     0
 42
0.00000001
 43
0.00000001
 40
0.0
 40
0.0
 40
0.0
 40
0.0
 40
0.1249999999999999
 40
0.2499999999999997
 40
0.3750000000000011
 40
0.500000000000001
 40
0.6250000000000017
 40
0.7500000000000003
 40
0.8749999999999978
 40
1.0
 40
1.0
 40
1.0
 40
1.0
 10
137.1548405081865
 20
213.0643409635381
 30
0.0
 10
137.1548405081865
 20
213.024332562424
 30
0.0
 10
137.1548405081865
 20
212.944315760196
 30
0.0
 10
137.1548405081865
 20
212.3050923629145
 30
0.0
 10
137.1548405081866
 20
211.3115904163525
 30
0.0
 10
137.1548405081865
 20
209.9643817464178
 30
0.0
 10
137.1548405081867
 20
208.3253157657364
 30
0.0
 10
137.1548405081867
 20
206.4546810016286
 30
0.0
 10
137.1548405081867
 20
204.4250873965255
 30
0.0
 10
137.1548405081867
 20
203.0179231078671
 30
0.0
 10
137.1548405081867
 20
202.314340963538
 30
0.0
  0
SPLINE
  5
348
330
1F
100
AcDbEntity
  8
0
  6
Continuous
 62
     7
370
    25
100
AcDbSpline
210
0.0
220
0.0
230
1.0
 70
    24
 71
     3
 72
     9
 73
     5
 74
     0
 42
0.00000001
 43
0.00000001
 40
0.0
 40
0.0
 40
0.0
 40
0.0
 40
0.4943684795451426
 40
0.9999999999999999
 40
0.9999999999999999
 40
0.9999999999999999
 40
0.9999999999999999
 10
151.1706759080164
 20
213.0643409635383
 30
0.0
 10
148.9156033776828
 20
213.0643409635381
 30
0.0
 10
144.3540817118835
 20
213.0643409635381
 30
0.0
 10
139.5725391459294
 20
213.0643409635381
 30
0.0
 10
137.1548405081865
 20
213.0643409635381
 30
0.0
  0
SPLINE
  5
349
330
1F
100
AcDbEntity
  8
0
  6
Continuous
 62
     7
370
    25
100
AcDbSpline
210
0.0
220
0.0
230
1.0
 70
    24
 71
     3
 72
     9
 73
     5
 74
     0
 42
0.00000001
 43
0.00000001
 40
0.0
 40
0.0
 40
0.0
 40
0.0
 40
0.4943684795451426
 40
0.9999999999999999
 40
0.9999999999999999
 40
0.9999999999999999
 40
0.9999999999999999
 10
151.1706759080168
 20
191.5643409635382
 30
0.0
 10
148.9156033776832
 20
191.5643409635381
 30
0.0
 10
144.3540817118839
 20
191.5643409635381
 30
0.0
 10
139.5725391459298
 20
191.5643409635379
 30
0.0
 10
137.1548405081869
 20
191.564340963538
 30
0.0
  0
SPLINE
  5
34A
330
1F
100
AcDbEntity
  8
0
  6
Continuous
 62
     7
370
    25
100
AcDbSpline
210
0.0
220
0.0
230
1.0
 70
    24
 71
     3
 72
    15
 73
    11
 74
     0
 42
0.00000001
 43
0.00000001
 40
0.0
 40
0.0
 40
0.0
 40
0.0
 40
0.1249999999999999
 40
0.2499999999999997
 40
0.3750000000000004
 40
0.5000000000000003
 40
0.6250000000000016
 40
0.7500000000000002
 40
0.8749999999999977
 40
0.9999999999999999
 40
0.9999999999999999
 40
0.9999999999999999
 40
0.9999999999999999
 10
137.1548405081869
 20
191.564340963538
 30
0.0
 10
137.1548405081869
 20
191.6043493646519
 30
0.0
 10
137.1548405081869
 20
191.6843661668801
 30
0.0
 10
137.1548405081868
 20
192.3235895641616
 30
0.0
 10
137.154840508187
 20
193.3170915107237
 30
0.0
 10
137.1548405081868
 20
194.6643001806581
 30
0.0
 10
137.1548405081868
 20
196.3033661613395
 30
0.0
 10
137.1548405081868
 20
198.1740009254474
 30
0.0
 10
137.1548405081868
 20
200.2035945305506
 30
0.0
 10
137.1548405081867
 20
201.6107588192088
 30
0.0
 10
137.1548405081867
 20
202.314340963538
 30
0.0
  0
SPLINE
  5
34B
330
1F
100
AcDbEntity
  8
0
  6
Continuous
 62
     7
370
    25
100
AcDbSpline
210
0.0
220
0.0
230
1.0
 70
    24
 71
     3
 72
     9
 73
     5
 74
     0
 42
0.00000001
 43
0.00000001
 40
0.0
 40
0.0
 40
0.0
 40
0.0
 40
0.4943684795451436
 40
1.0
 40
1.0
 40
1.0
 40
1.0
 10
8.120252177753361
 20
213.0643409635358
 30
0.0
 10
10.3753247080868
 20
213.0643409635358
 30
0.0
 10
14.93684637388618
 20
213.0643409635359
 30
0.0
 10
19.71838893984024
 20
213.064340963536
 30
0.0
 10
22.13608757758315
 20
213.064340963536
 30
0.0
  0
SPLINE
  5
34C
330
1F
100
AcDbEntity
  8
0
  6
Continuous
 62
     7
370
    25
100
AcDbSpline
210
0.0
220
0.0
230
1.0
 70
    24
 71
     3
 72
    15
 73
    11
 74
     0
 42
0.00000001
 43
0.00000001
 40
0.0
 40
0.0
 40
0.0
 40
0.0
 40
0.1249999999999999
 40
0.2500000000000004
 40
0.3750000000000011
 40
0.5000000000000004
 40
0.6250000000000016
 40
0.7500000000000003
 40
0.8749999999999977
 40
1.0
 40
1.0
 40
1.0
 40
1.0
 10
22.13608757758315
 20
213.064340963536
 30
0.0
 10
22.13608757758318
 20
213.0243325624222
 30
0.0
 10
22.13608757758315
 20
212.9443157601941
 30
0.0
 10
22.13608757758312
 20
212.3050923629123
 30
0.0
 10
22.13608757758318
 20
211.3115904163506
 30
0.0
 10
22.13608757758318
 20
209.9643817464159
 30
0.0
 10
22.1360875775832
 20
208.3253157657344
 30
0.0
 10
22.13608757758326
 20
206.4546810016267
 30
0.0
 10
22.13608757758334
 20
204.4250873965235
 30
0.0
 10
22.13608757758331
 20
203.0179231078651
 30
0.0
 10
22.13608757758331
 20
202.314340963536
 30
0.0
  0
SPLINE
  5
34D
330
1F
100
AcDbEntity
  8
0
  6
Continuous
 62
     7
370
    25
100
AcDbSpline
210
0.0
220
0.0
230
1.0
 70
    24
 71
     3
 72
     9
 73
     5
 74
     0
 42
0.00000001
 43
0.00000001
 40
0.0
 40
0.0
 40
0.0
 40
0.0
 40
0.5056315204548582
 40
1.0
 40
1.0
 40
1.0
 40
1.0
 10
22.13608757758331
 20
202.314340963536
 30
0.0
 10
20.3561867399811
 20
202.3143409635359
 30
0.0
 10
16.83603270369593
 20
202.3143409635358
 30
0.0
 10
13.47785724421177
 20
202.3143409635359
 30
0.0
 10
11.81768114826076
 20
202.3143409635358
 30
0.0
  0
SPLINE
  5
34E
330
1F
100
AcDbEntity
  8
0
  6
Continuous
 62
     7
370
    25
100
AcDbSpline
210
0.0
220
0.0
230
1.0
 70
    24
 71
     3
 72
    15
 73
    11
 74
     0
 42
0.00000001
 43
0.00000001
 40
0.0
 40
0.0
 40
0.0
 40
0.0
 40
0.1249999999999999
 40
0.2499999999999997
 40
0.3750000000000011
 40
0.5000000000000004
 40
0.6250000000000016
 40
0.7500000000000003
 40
0.8749999999999977
 40
1.0
 40
1.0
 40
1.0
 40
1.0
 10
22.13608757758351
 20
191.564340963536
 30
0.0
 10
22.13608757758348
 20
191.6043493646499
 30
0.0
 10
22.13608757758348
 20
191.684366166878
 30
0.0
 10
22.13608757758348
 20
192.3235895641597
 30
0.0
 10
22.13608757758356
 20
193.3170915107217
 30
0.0
 10
22.13608757758345
 20
194.6643001806562
 30
0.0
 10
22.13608757758342
 20
196.3033661613376
 30
0.0
 10
22.1360875775834
 20
198.1740009254455
 30
0.0
 10
22.13608757758342
 20
200.2035945305487
 30
0.0
 10
22.13608757758334
 20
201.6107588192068
 30
0.0
 10
22.13608757758331
 20
202.314340963536
 30
0.0
  0
SPLINE
  5
34F
330
1F
100
AcDbEntity
  8
0
  6
Continuous
 62
     7
370
    25
100
AcDbSpline
210
0.0
220
0.0
230
1.0
 70
    24
 71
     3
 72
     9
 73
     5
 74
     0
 42
0.00000001
 43
0.00000001
 40
0.0
 40
0.0
 40
0.0
 40
0.0
 40
0.4943684795451436
 40
1.0
 40
1.0
 40
1.0
 40
1.0
 10
8.120252177753724
 20
191.5643409635358
 30
0.0
 10
10.37532470808716
 20
191.5643409635356
 30
0.0
 10
14.93684637388654
 20
191.564340963536
 30
0.0
 10
19.7183889398406
 20
191.564340963536
 30
0.0
 10
22.13608757758351
 20
191.564340963536
 30
0.0
  0
ARC
  5
350
330
1F
100
AcDbEntity
  8
0
  6
Continuous
 62
     7
370
    25
100
AcDbCircle
 10
93.0271868235
 20
188.8044580601
 30
0.0
 40
3.695783567039339
100
AcDbArc
 50
71.647830712
 51
88.7536894373
  0
SPLINE
  5
351
330
1F
100
AcDbEntity
  8
0
  6
Continuous
 62
     7
370
    25
100
AcDbSpline
210
0.0
220
0.0
230
1.0
 70
     8
 71
     3
 72
    12
 73
     8
 74
     0
 42
0.00000001
 43
0.00000001
 40
0.0
 40
0.0
 40
0.0
 40
0.0
 40
0.0083795365781601
 40
0.0958567924053477
 40
0.1830705552997318
 40
0.3564922358642379
 40
0.9999999999999999
 40
0.9999999999999999
 40
0.9999999999999999
 40
0.9999999999999999
 10
100.5003792143743
 20
202.3143409635373
 30
0.0
 10
100.4943650120859
 20
202.3106567839037
 30
0.0
 10
100.4255662026458
 20
202.2685120138396
 30
0.0
 10
100.2900414902146
 20
202.1948021422931
 30
0.0
 10
100.025825910968
 20
202.0683917572401
 30
0.0
 10
99.32276555552988
 20
201.774651768095
 30
0.0
 10
98.67550604305691
 20
201.5924746826949
 30
0.0
 10
98.16564986834165
 20
201.4489710182558
 30
0.0
  0
SPLINE
  5
352
330
1F
100
AcDbEntity
  8
0
  6
Continuous
 62
     7
370
    25
100
AcDbSpline
210
0.0
220
0.0
230
1.0
 70
     8
 71
     3
 72
    14
 73
    10
 74
     0
 42
0.00000001
 43
0.00000001
 40
0.0
 40
0.0
 40
0.0
 40
0.0
 40
0.0036519633757383
 40
0.1287488180035151
 40
0.2542734475680392
 40
0.5068715809684015
 40
0.7404998306596399
 40
0.8703390027579804
 40
0.9999999999999999
 40
0.9999999999999999
 40
0.9999999999999999
 40
0.9999999999999999
 10
100.5003792143743
 20
202.3143409635373
 30
0.0
 10
100.4939693247246
 20
202.2977644100372
 30
0.0
 10
100.26799068501
 20
201.7133632400005
 30
0.0
 10
100.0052375773728
 20
200.4951319245237
 30
0.0
 10
99.54983248715705
 20
198.1563990015117
 30
0.0
 10
98.55228954071471
 20
195.6381084476268
 30
0.0
 10
97.13596137739906
 20
193.7945509020437
 30
0.0
 10
95.6565303828636
 20
192.7901894446399
 30
0.0
 10
94.6791727196457
 20
192.4715042550335
 30
0.0
 10
94.19082941876422
 20
192.3122710661084
 30
0.0
  0
SPLINE
  5
353
330
1F
100
AcDbEntity
  8
0
  6
Continuous
 62
     7
370
    25
100
AcDbSpline
210
0.0
220
0.0
230
1.0
 70
     8
 71
     3
 72
    12
 73
     8
 74
     0
 42
0.00000001
 43
0.00000001
 40
0.0
 40
0.0
 40
0.0
 40
0.0
 40
0.0083795365781602
 40
0.095856792405349
 40
0.1830705552997342
 40
0.3564922358642426
 40
1.0
 40
1.0
 40
1.0
 40
1.0
 10
58.79054887139579
 20
202.3143409635367
 30
0.0
 10
58.79656307368414
 20
202.310656783903
 30
0.0
 10
58.86536188312408
 20
202.2685120138385
 30
0.0
 10
59.00088659555541
 20
202.1948021422926
 30
0.0
 10
59.26510217480207
 20
202.0683917572395
 30
0.0
 10
59.96816253024006
 20
201.7746517680938
 30
0.0
 10
60.61542204271314
 20
201.5924746826941
 30
0.0
 10
61.12527821742842
 20
201.4489710182553
 30
0.0
  0
ARC
  5
354
330
1F
100
AcDbEntity
  8
0
  6
Continuous
 62
     7
370
    25
100
AcDbCircle
 10
66.2637412623
 20
188.8044580601
 30
0.0
 40
3.695783567042418
100
AcDbArc
 50
91.2463105627
 51
108.352169288
  0
SPLINE
  5
355
330
1F
100
AcDbEntity
  8
0
  6
Continuous
 62
     7
370
    25
100
AcDbSpline
210
0.0
220
0.0
230
1.0
 70
     8
 71
     3
 72
    14
 73
    10
 74
     0
 42
0.00000001
 43
0.00000001
 40
0.0
 40
0.0
 40
0.0
 40
0.0
 40
0.0036519633757383
 40
0.1287488180035151
 40
0.2542734475680392
 40
0.5068715809684015
 40
0.7404998306596399
 40
0.8703390027579804
 40
0.9999999999999999
 40
0.9999999999999999
 40
0.9999999999999999
 40
0.9999999999999999
 10
58.79054887139579
 20
202.3143409635367
 30
0.0
 10
58.79695876104552
 20
202.2977644100365
 30
0.0
 10
59.02293740075976
 20
201.7133632399998
 30
0.0
 10
59.28569050839761
 20
200.495131924523
 30
0.0
 10
59.74109559861313
 20
198.156399001511
 30
0.0
 10
60.73863854505546
 20
195.6381084476261
 30
0.0
 10
62.1549667083715
 20
193.7945509020431
 30
0.0
 10
63.63439770290663
 20
192.7901894446394
 30
0.0
 10
64.61175536612468
 20
192.4715042550331
 30
0.0
 10
65.10009866700616
 20
192.312271066108
 30
0.0
  0
ARC
  5
356
330
1F
100
AcDbEntity
  8
0
  6
Continuous
 62
     7
370
    25
100
AcDbCircle
 10
93.0271868235
 20
215.8242238669
 30
0.0
 40
3.695783567040737
100
AcDbArc
 50
271.2463105627
 51
288.352169288
  0
SPLINE
  5
357
330
1F
100
AcDbEntity
  8
0
  6
Continuous
 62
     7
370
    25
100
AcDbSpline
210
0.0
220
0.0
230
1.0
 70
     8
 71
     3
 72
    13
 73
     9
 74
     0
 42
0.00000001
 43
0.00000001
 40
0.0
 40
0.0
 40
0.0
 40
0.0
 40
0.1296625909659293
 40
0.2595033589782112
 40
0.4931344803034457
 40
0.7457357185055095
 40
0.8731652299838693
 40
1.0
 40
1.0
 40
1.0
 40
1.0
 10
94.19082941876388
 20
212.316410860966
 30
0.0
 10
94.6791206408476
 20
212.1571609580673
 30
0.0
 10
95.65637407490551
 20
211.8384423175456
 30
0.0
 10
97.13679621982746
 20
210.8343989562246
 30
0.0
 10
98.5460446489258
 20
208.9885692673322
 30
0.0
 10
99.57258536502039
 20
206.4707540331634
 30
0.0
 10
99.97555782908401
 20
204.0964603421419
 30
0.0
 10
100.325711763907
 20
202.907453700582
 30
0.0
 10
100.5003792143743
 20
202.3143409635373
 30
0.0
  0
SPLINE
  5
358
330
1F
100
AcDbEntity
  8
0
  6
Continuous
 62
     7
370
    25
100
AcDbSpline
210
0.0
220
0.0
230
1.0
 70
     8
 71
     3
 72
    12
 73
     8
 74
     0
 42
0.00000001
 43
0.00000001
 40
0.0
 40
0.0
 40
0.0
 40
0.0
 40
0.6435077641343233
 40
0.816929444699491
 40
0.9041432075942079
 40
0.9916204634217516
 40
1.0
 40
1.0
 40
1.0
 40
1.0
 10
98.16564986834925
 20
203.1797109088077
 30
0.0
 10
98.67550604306302
 20
203.0362072443746
 30
0.0
 10
99.32276555553521
 20
202.8540301589819
 30
0.0
 10
100.0258259109666
 20
202.5602901698327
 30
0.0
 10
100.2900414902169
 20
202.4338797847852
 30
0.0
 10
100.4255662026399
 20
202.3601699132262
 30
0.0
 10
100.4943650120854
 20
202.3180251431703
 30
0.0
 10
100.5003792143743
 20
202.3143409635373
 30
0.0
  0
SPLINE
  5
359
330
1F
100
AcDbEntity
  8
0
  6
Continuous
 62
     7
370
    25
100
AcDbSpline
210
0.0
220
0.0
230
1.0
 70
     8
 71
     3
 72
    12
 73
     8
 74
     0
 42
0.00000001
 43
0.00000001
 40
0.0
 40
0.0
 40
0.0
 40
0.0
 40
0.6435077641343233
 40
0.816929444699491
 40
0.9041432075942079
 40
0.9916204634217516
 40
1.0
 40
1.0
 40
1.0
 40
1.0
 10
61.12527821742081
 20
203.179710908807
 30
0.0
 10
60.61542204270698
 20
203.0362072443739
 30
0.0
 10
59.96816253023507
 20
202.8540301589812
 30
0.0
 10
59.26510217480357
 20
202.5602901698321
 30
0.0
 10
59.00088659555291
 20
202.4338797847845
 30
0.0
 10
58.8653618831304
 20
202.3601699132255
 30
0.0
 10
58.79656307368464
 20
202.3180251431696
 30
0.0
 10
58.79054887139579
 20
202.3143409635367
 30
0.0
  0
SPLINE
  5
35A
330
1F
100
AcDbEntity
  8
0
  6
Continuous
 62
     7
370
    25
100
AcDbSpline
210
0.0
220
0.0
230
1.0
 70
     8
 71
     3
 72
    13
 73
     9
 74
     0
 42
0.00000001
 43
0.00000001
 40
0.0
 40
0.0
 40
0.0
 40
0.0
 40
0.1296625909659293
 40
0.2595033589782112
 40
0.4931344803034457
 40
0.7457357185055095
 40
0.8731652299838693
 40
1.0
 40
1.0
 40
1.0
 40
1.0
 10
65.10009866700584
 20
212.3164108609656
 30
0.0
 10
64.61180744492212
 20
212.1571609580669
 30
0.0
 10
63.63455401086415
 20
211.8384423175451
 30
0.0
 10
62.15413186594238
 20
210.834398956224
 30
0.0
 10
60.74488343684381
 20
208.9885692673315
 30
0.0
 10
59.7183427207496
 20
206.4707540331628
 30
0.0
 10
59.31537025668598
 20
204.0964603421412
 30
0.0
 10
58.96521632186297
 20
202.9074537005813
 30
0.0
 10
58.79054887139579
 20
202.3143409635367
 30
0.0
  0
ARC
  5
35B
330
1F
100
AcDbEntity
  8
0
  6
Continuous
 62
     7
370
    25
100
AcDbCircle
 10
66.2637412623
 20
215.8242238669
 30
0.0
 40
3.695783567039226
100
AcDbArc
 50
251.647830712
 51
268.7536894373
  0
LINE
  5
35C
330
1F
100
AcDbEntity
  8
0
  6
Continuous
 62
     7
370
    25
100
AcDbLine
 10
137.1548405082
 20
191.5643409635
 30
0.0
 11
91.3403582628
 21
191.5643409635
 31
0.0
  0
LINE
  5
35D
330
1F
100
AcDbEntity
  8
0
  6
Continuous
 62
     7
370
    25
100
AcDbLine
 10
137.1548405082
 20
213.0643409635
 30
0.0
 11
89.1665565223
 21
213.0643409635
 31
0.0
  0
LINE
  5
35E
330
1F
100
AcDbEntity
  8
0
  6
Continuous
 62
     7
370
    25
100
AcDbLine
 10
22.1360875776
 20
191.5643409635
 30
0.0
 11
70.1243715635
 21
191.5643409635
 31
0.0
  0
LINE
  5
35F
330
1F
100
AcDbEntity
  8
0
  6
Continuous
 62
     7
370
    25
100
AcDbLine
 10
22.1360875776
 20
213.0643409635
 30
0.0
 11
67.950569823
 21
213.0643409635
 31
0.0
  0
ARC
  5
360
330
1F
100
AcDbEntity
  8
0
  6
Continuous
 62
     7
370
    25
100
AcDbCircle
 10
159.6454640429
 20
218.4431067396
 30
0.0
 40
5.000000000000028
100
AcDbArc
 50
275.1180625961
 51
0.0
  0
ARC
  5
361
330
1F
100
AcDbEntity
  8
0
  6
Continuous
 62
     7
370
    25
100
AcDbCircle
 10
-0.3545359571
 20
218.4431067396
 30
0.0
 40
5.000000000000011
100
AcDbArc
 50
180.0
 51
264.8819374039
  0
ARC
  5
362
330
1F
100
AcDbEntity
  8
0
  6
Continuous
 62
     7
370
    25
100
AcDbCircle
 10
169.2465752454
 20
184.8288136375
 30
0.0
 40
5.00000000000003
100
AcDbArc
 50
55.0204557102
 51
79.031305318
  0
ARC
  5
363
330
1F
100
AcDbEntity
  8
0
  6
Continuous
 62
     7
370
    25
100
AcDbCircle
 10
79.6454640429
 20
-51.6856590365
 30
0.0
 40
11.55000000000004
100
AcDbArc
 50
133.1556534408
 51
274.9657006069
  0
ARC
  5
364
330
1F
100
AcDbEntity
  8
0
  6
Continuous
 62
     7
370
    25
100
AcDbCircle
 10
79.6454640429
 20
-51.6856590365
 30
0.0
 40
11.55000000000002
100
AcDbArc
 50
274.9657006069
 51
46.8443465592
  0
LINE
  5
365
330
1F
100
AcDbEntity
  8
0
  6
Continuous
 62
     8
370
    25
100
AcDbLine
 10
71.5862301956
 20
194.7399799364
 30
0.0
 11
71.7454640429
 21
194.5740441233
 31
0.0
  0
ARC
  5
366
330
1F
100
AcDbEntity
  8
0
  6
Continuous
 62
     8
370
    25
100
AcDbCircle
 10
79.6454640429
 20
202.3143409635
 30
0.0
 40
11.05993649053896
100
AcDbArc
 50
315.5850271977
 51
223.2235523034
  0
ARC
  5
367
330
1F
100
AcDbEntity
  8
0
  6
Continuous
 62
     8
370
    25
100
AcDbCircle
 10
79.6454640429
 20
202.3143409635
 30
0.0
 40
11.30993649053898
100
AcDbArc
 50
314.3068486059
 51
225.6931513941
  0
LINE
  5
368
330
1F
100
AcDbEntity
  8
0
  6
Continuous
 62
     8
370
    25
100
AcDbLine
 10
87.5454640429
 20
189.9486046536
 30
0.0
 11
87.8027229015
 21
190.0552727725
 31
0.0
  0
ARC
  5
369
330
1F
100
AcDbEntity
  8
0
  6
Continuous
 62
     8
370
    25
100
AcDbCircle
 10
71.487973536
 20
190.3992867382
 30
0.0
 40
0.3529502268480264
100
AcDbArc
 50
279.5385256862
 51
316.8476542184
  0
ARC
  5
36A
330
1F
100
AcDbEntity
  8
0
  6
Continuous
 62
     8
370
    25
100
AcDbCircle
 10
79.6454640429
 20
202.3143409635
 30
0.0
 40
9.375000000000014
100
AcDbArc
 50
327.4227936768
 51
212.5772063232
  0
LWPOLYLINE
  5
36B
330
1F
100
AcDbEntity
  8
0
  6
Continuous
 62
     8
370
    25
100
AcDbPolyline
 90
       17
 70
   128
 43
0.0
 10
71.7454640429
 20
-4.3586471249
 10
71.7917741814
 20
-4.0578186397
 10
72.1590039905
 20
-3.470228075
 10
72.8762923512
 20
-2.9241789976
 10
73.9100996567
 20
-2.4452040556
 10
75.2120862265
 20
-2.0556995849
 10
76.7213726157
 20
-1.7738783815
 10
78.3673862701
 20
-1.6129180919
 10
80.0731614207
 20
-1.5803450402
 10
81.7589379173
 20
-1.6776823061
 10
83.3458907244
 20
-1.9003785072
 10
84.7598156927
 20
-2.2380206168
 10
85.934599262
 20
-2.6748208649
 10
86.8153098583
 20
-3.1903549576
 10
87.360766433
 20
-3.7605170935
 10
87.5454640429
 20
-4.3586471249
 10
87.5454640429
 20
-4.3586471249
  0
LWPOLYLINE
  5
36C
330
1F
100
AcDbEntity
  8
0
  6
Continuous
 62
     8
370
    25
100
AcDbPolyline
 90
       17
 70
   128
 43
0.0
 10
71.7454640429
 20
179.6413528751
 10
71.7917741814
 20
179.9421813603
 10
72.1590039905
 20
180.529771925
 10
72.8762923512
 20
181.0758210024
 10
73.9100996567
 20
181.5547959444
 10
75.2120862265
 20
181.9443004151
 10
76.7213726157
 20
182.2261216185
 10
78.3673862701
 20
182.3870819081
 10
80.0731614207
 20
182.4196549598
 10
81.7589379173
 20
182.3223176939
 10
83.3458907244
 20
182.0996214928
 10
84.7598156927
 20
181.7619793832
 10
85.934599262
 20
181.3251791351
 10
86.8153098583
 20
180.8096450424
 10
87.360766433
 20
180.2394829065
 10
87.5454640429
 20
179.6413528751
 10
87.5454640429
 20
179.6413528751
  0
ARC
  5
36D
330
1F
100
AcDbEntity
  8
0
  6
Continuous
 62
     8
370
    25
100
AcDbCircle
 10
79.6454640429
 20
-51.6856590365
 30
0.0
 40
8.410472292019536
100
AcDbArc
 50
159.9351921799
 51
0.0
  0
LWPOLYLINE
  5
36E
330
1F
100
AcDbEntity
  8
0
  6
Continuous
 62
     8
370
    25
100
AcDbPolyline
 90
        3
 70
   128
 43
0.0
 10
87.5454640429
 20
-48.800170486
 10
87.8721473364
 20
-49.9370235217
 10
88.0559363349
 20
-51.6856590365
  0
LINE
  5
36F
330
1F
100
AcDbEntity
  8
0
  6
Continuous
 62
     8
370
    25
100
AcDbLine
 10
156.3454791907
 20
257.2643409635
 30
0.0
 11
207.9454640429
 21
257.2643409635
 31
0.0
  0
LINE
  5
370
330
1F
100
AcDbEntity
  8
0
  6
Continuous
 62
     8
370
    25
100
AcDbLine
 10
207.9454488951
 20
259.7643409635
 30
0.0
 11
156.3454640429
 21
259.7643409635
 31
0.0
  0
SPLINE
  5
371
330
1F
100
AcDbEntity
  8
0
  6
Continuous
 62
     8
370
    25
100
AcDbSpline
210
0.0
220
0.0
230
1.0
 70
     8
 71
     3
 72
     9
 73
     5
 74
     0
 42
0.00000001
 43
0.00000001
 40
0.0
 40
0.0
 40
0.0
 40
0.0
 40
0.8503475205276124
 40
1.0
 40
1.0
 40
1.0
 40
1.0
 10
200.06754914896
 20
241.8342229375199
 30
0.0
 10
200.0820147797877
 20
241.8370432616987
 30
0.0
 10
200.0990262139115
 20
241.8403599341305
 30
0.0
 10
200.0890500220781
 20
241.8383969015015
 30
0.0
 10
200.0875570602343
 20
241.8381031288011
 30
0.0
  0
LINE
  5
372
330
1F
100
AcDbEntity
  8
0
  6
Continuous
 62
     8
370
    25
100
AcDbLine
 10
168.3483009262
 20
240.9794676091
 30
0.0
 11
195.9426190589
 21
240.9794676091
 31
0.0
  0
LINE
  5
373
330
1F
100
AcDbEntity
  8
0
  6
Continuous
 62
     8
370
    25
100
AcDbLine
 10
195.1454564103
 20
240.000255069
 30
0.0
 11
169.1454640429
 21
240.000255069
 31
0.0
  0
LINE
  5
374
330
1F
100
AcDbEntity
  8
0
  6
Continuous
 62
     8
370
    25
100
AcDbLine
 10
200.8886116216
 20
255.2643409635
 30
0.0
 11
200.6195781819
 21
255.2643409635
 31
0.0
  0
SPLINE
  5
375
330
1F
100
AcDbEntity
  8
0
  6
Continuous
 62
     8
370
    25
100
AcDbSpline
210
0.0
220
0.0
230
1.0
 70
     8
 71
     3
 72
    10
 73
     6
 74
     0
 42
0.00000001
 43
0.00000001
 40
0.0
 40
0.0
 40
0.0
 40
0.0
 40
0.0110620927799945
 40
0.6496753835087538
 40
0.9999999999999999
 40
0.9999999999999999
 40
0.9999999999999999
 40
0.9999999999999999
 10
200.8867352081975
 20
242.8178972080625
 30
0.0
 10
200.8873592060558
 20
242.8179586819068
 30
0.0
 10
200.9240065255105
 20
242.8215690334125
 30
0.0
 10
200.8235464417772
 20
242.811803500242
 30
0.0
 10
200.6729322488612
 20
242.7970319415936
 30
0.0
 10
200.6195781818504
 20
242.7917992160799
 30
0.0
  0
SPLINE
  5
376
330
1F
100
AcDbEntity
  8
0
  6
Continuous
 62
     8
370
    25
100
AcDbSpline
210
0.0
220
0.0
230
1.0
 70
     8
 71
     3
 72
     9
 73
     5
 74
     0
 42
0.00000001
 43
0.00000001
 40
0.0
 40
0.0
 40
0.0
 40
0.0
 40
0.3774889695044417
 40
1.0
 40
1.0
 40
1.0
 40
1.0
 10
163.6691826482316
 20
242.7917992160772
 30
0.0
 10
163.6090501138184
 20
242.797719557897
 30
0.0
 10
163.4497539773187
 20
242.8134030408542
 30
0.0
 10
163.4216910168829
 20
242.8161711857501
 30
0.0
 10
163.4042215144632
 20
242.8178943864818
 30
0.0
  0
LINE
  5
377
330
1F
100
AcDbEntity
  8
0
  6
Continuous
 62
     8
370
    25
100
AcDbLine
 10
163.6691826482
 20
255.2643409635
 30
0.0
 11
163.4023160667
 21
255.2643409635
 31
0.0
  0
LINE
  5
378
330
1F
100
AcDbEntity
  8
0
  6
Continuous
 62
     8
370
    25
100
AcDbLine
 10
2.9351198179
 20
257.2643409635
 30
0.0
 11
2.9454640429
 21
257.2643409635
 31
0.0
  0
LINE
  5
379
330
1F
100
AcDbEntity
  8
0
  6
Continuous
 62
     8
370
    25
100
AcDbLine
 10
-48.6545359571
 20
257.2643409635
 30
0.0
 11
2.9351198179
 21
257.2643409635
 31
0.0
  0
LINE
  5
37A
330
1F
100
AcDbEntity
  8
0
  6
Continuous
 62
     8
370
    25
100
AcDbLine
 10
2.9454640429
 20
259.7643409635
 30
0.0
 11
-48.6545359571
 21
259.7643409635
 31
0.0
  0
LINE
  5
37B
330
1F
100
AcDbEntity
  8
0
  6
Continuous
 62
     8
370
    25
100
AcDbLine
 10
-32.6243667119
 20
241.8125866759
 30
0.0
 11
-32.7969076464
 21
241.7938927469
 31
0.0
  0
SPLINE
  5
37C
330
1F
100
AcDbEntity
  8
0
  6
Continuous
 62
     8
370
    25
100
AcDbSpline
210
0.0
220
0.0
230
1.0
 70
     8
 71
     3
 72
    10
 73
     6
 74
     0
 42
0.00000001
 43
0.00000001
 40
0.0
 40
0.0
 40
0.0
 40
0.0
 40
0.2203464856976093
 40
0.6217776090421351
 40
1.0
 40
1.0
 40
1.0
 40
1.0
 10
-5.064059395859799
 20
241.8125866759365
 30
0.0
 10
-5.035048069238657
 20
241.8179809782453
 30
0.0
 10
-4.953183394862171
 20
241.8332027158713
 30
0.0
 10
-4.893529710840394
 20
241.8432576493805
 30
0.0
 10
-4.936568082506337
 20
241.8336518544604
 30
0.0
 10
-4.957446685034034
 20
241.8289919296925
 30
0.0
  0
LINE
  5
37D
330
1F
100
AcDbEntity
  8
0
  6
Continuous
 62
     8
370
    25
100
AcDbLine
 10
-36.6516990738
 20
240.9794676091
 30
0.0
 11
-9.0573728404
 21
240.9794676091
 31
0.0
  0
LINE
  5
37E
330
1F
100
AcDbEntity
  8
0
  6
Continuous
 62
     8
370
    25
100
AcDbLine
 10
-9.8545359571
 20
240.000255069
 30
0.0
 11
-35.8545359571
 21
240.000255069
 31
0.0
  0
LINE
  5
37F
330
1F
100
AcDbEntity
  8
0
  6
Continuous
 62
     8
370
    25
100
AcDbLine
 10
-4.118091362
 20
255.2643409635
 30
0.0
 11
-4.4150493841
 21
255.2643409635
 31
0.0
  0
SPLINE
  5
380
330
1F
100
AcDbEntity
  8
0
  6
Continuous
 62
     8
370
    25
100
AcDbSpline
210
0.0
220
0.0
230
1.0
 70
     8
 71
     3
 72
    10
 73
     6
 74
     0
 42
0.00000001
 43
0.00000001
 40
0.0
 40
0.0
 40
0.0
 40
0.0
 40
0.0595198163307544
 40
0.6668412068398877
 40
1.0
 40
1.0
 40
1.0
 40
1.0
 10
-4.127846992661582
 20
242.8170516616769
 30
0.0
 10
-4.124671428150456
 20
242.8174221643446
 30
0.0
 10
-4.08909340722341
 20
242.8215731591106
 30
0.0
 10
-4.198777726132253
 20
242.8119060962452
 30
0.0
 10
-4.358476991214055
 20
242.7970587786762
 30
0.0
 10
-4.415049384069475
 20
242.7917992160733
 30
0.0
  0
SPLINE
  5
381
330
1F
100
AcDbEntity
  8
0
  6
Continuous
 62
     8
370
    25
100
AcDbSpline
210
0.0
220
0.0
230
1.0
 70
     8
 71
     3
 72
     9
 73
     5
 74
     0
 42
0.00000001
 43
0.00000001
 40
0.0
 40
0.0
 40
0.0
 40
0.0
 40
0.3980127522004955
 40
1.0
 40
1.0
 40
1.0
 40
1.0
 10
-41.35065175061698
 20
242.7917992160737
 30
0.0
 10
-41.40790448206786
 20
242.7977529117607
 30
0.0
 10
-41.55175095717284
 20
242.8127114668677
 30
0.0
 10
-41.5701488947281
 20
242.8154206715996
 30
0.0
 10
-41.5812242185222
 20
242.8170515782998
 30
0.0
  0
LINE
  5
382
330
1F
100
AcDbEntity
  8
0
  6
Continuous
 62
     8
370
    25
100
AcDbLine
 10
-41.3506517506
 20
255.2643409635
 30
0.0
 11
-41.5909807795
 21
255.2643409635
 31
0.0
  0
SPLINE
  5
383
330
1F
100
AcDbEntity
  8
0
  6
Continuous
 62
     8
370
    25
100
AcDbSpline
210
0.0
220
0.0
230
1.0
 70
     8
 71
     3
 72
    13
 73
     9
 74
     0
 42
0.00000001
 43
0.00000001
 40
0.0
 40
0.0
 40
0.0
 40
0.0
 40
0.1896269386792339
 40
0.379291109764179
 40
0.5788446253056952
 40
0.7786725249372743
 40
0.9522882487192532
 40
1.0
 40
1.0
 40
1.0
 40
1.0
 10
147.4732469375092
 20
202.3143409635382
 30
0.0
 10
148.9782839840471
 20
202.2759298294226
 30
0.0
 10
151.9886535844508
 20
202.1991000193362
 30
0.0
 10
156.0939520528055
 20
201.5666706404334
 30
0.0
 10
159.7068223432934
 20
200.4996498788965
 30
0.0
 10
162.669621622415
 20
198.9487246861323
 30
0.0
 10
164.5281182285802
 20
197.4829860333317
 30
0.0
 10
165.497481015407
 20
196.5487418726823
 30
0.0
 10
165.7064473724884
 20
196.347346067594
 30
0.0
  0
SPLINE
  5
384
330
1F
100
AcDbEntity
  8
0
  6
Continuous
 62
     8
370
    25
100
AcDbSpline
210
0.0
220
0.0
230
1.0
 70
     8
 71
     3
 72
    14
 73
    10
 74
     0
 42
0.00000001
 43
0.00000001
 40
0.0
 40
0.0
 40
0.0
 40
0.0
 40
0.1586892998889442
 40
0.3226994796250599
 40
0.490175693141466
 40
0.6625115993806052
 40
0.8097228148047182
 40
0.9580334483029658
 40
1.0
 40
1.0
 40
1.0
 40
1.0
 10
11.81768114826082
 20
202.3143409635358
 30
0.0
 10
10.33543800737788
 20
202.2774910688144
 30
0.0
 10
7.321251855094912
 20
202.2025556959873
 30
0.0
 10
3.239954404261614
 20
201.5745686731348
 30
0.0
 10
-0.4153382364867897
 20
200.5070714282814
 30
0.0
 10
-3.353587942994757
 20
198.9703844550992
 30
0.0
 10
-5.813911216065365
 20
197.0106686786183
 30
0.0
 10
-7.467744197069193
 20
195.3299928240135
 30
0.0
 10
-8.537527747783018
 20
194.334950684949
 30
0.0
 10
-8.773473673930694
 20
194.1154893379311
 30
0.0
  0
SPLINE
  5
385
330
1F
100
AcDbEntity
  8
0
  6
Continuous
 62
     8
370
    25
100
AcDbSpline
210
0.0
220
0.0
230
1.0
 70
     8
 71
     3
 72
    13
 73
     9
 74
     0
 42
0.00000001
 43
0.00000001
 40
0.0
 40
0.0
 40
0.0
 40
0.0
 40
0.1799003222414495
 40
0.3658327336015987
 40
0.5556944621520713
 40
0.7510654486514159
 40
0.9179534814985408
 40
0.9999999999999999
 40
0.9999999999999999
 40
0.9999999999999999
 40
0.9999999999999999
 10
147.4732469375092
 20
202.3143409635382
 30
0.0
 10
148.9554535824053
 20
202.3511328970683
 30
0.0
 10
151.9695655189974
 20
202.4259504040635
 30
0.0
 10
156.0514379722866
 20
203.0548506184807
 30
0.0
 10
159.7044642198337
 20
204.1187484853961
 30
0.0
 10
162.6510272611554
 20
205.6686383017131
 30
0.0
 10
164.6894417971452
 20
207.2744211890913
 30
0.0
 10
165.8183948185067
 20
208.3752001834816
 30
0.0
 10
166.1904872598838
 20
208.7380067269687
 30
0.0
  0
SPLINE
  5
386
330
1F
100
AcDbEntity
  8
0
  6
Continuous
 62
     8
370
    25
100
AcDbSpline
210
0.0
220
0.0
230
1.0
 70
     8
 71
     3
 72
    14
 73
    10
 74
     0
 42
0.00000001
 43
0.00000001
 40
0.0
 40
0.0
 40
0.0
 40
0.0
 40
0.1584297727246407
 40
0.3221717233054598
 40
0.4893740391689515
 40
0.6614281000090297
 40
0.8083985600115773
 40
0.9564666400536386
 40
1.0
 40
1.0
 40
1.0
 40
1.0
 10
11.81768114826082
 20
202.3143409635358
 30
0.0
 10
10.33543838235806
 20
202.351190728653
 30
0.0
 10
7.321252992608635
 20
202.4261258379261
 30
0.0
 10
3.239949633878414
 20
203.054114902721
 30
0.0
 10
-0.415319720678653
 20
204.1216040991821
 30
0.0
 10
-3.353654843037873
 20
205.6583205945936
 30
0.0
 10
-5.8137012269531
 20
207.6179406700429
 30
0.0
 10
-7.476329073634213
 20
209.3070395222354
 30
0.0
 10
-8.555619333310311
 20
210.3107506928504
 30
0.0
 10
-8.800842601799003
 20
210.5388017955727
 30
0.0
  0
ARC
  5
387
330
1F
100
AcDbEntity
  8
0
  6
Continuous
 62
     8
370
    25
100
AcDbCircle
 10
158.371891195
 20
215.7501753143
 30
0.0
 40
20.03781437486754
100
AcDbArc
 50
8.0360447263
 51
12.7261707796
  0
LINE
  5
388
330
1F
100
AcDbEntity
  8
0
  6
Continuous
 62
     8
370
    25
100
AcDbLine
 10
-22.8545359571
 20
220.1643409635
 30
0.0
 11
-22.8545359571
 21
218.5992863852
 31
0.0
  0
LWPOLYLINE
  5
389
330
1F
100
AcDbEntity
  8
0
  6
Continuous
 62
     8
370
    25
100
AcDbPolyline
 90
        3
 70
   128
 43
0.0
 10
-18.6265290141
 20
220.1643409635
 10
-18.7687623084
 20
219.4751506287
 10
-18.8783026219
 20
218.8482336707
  0
ARC
  5
38A
330
1F
100
AcDbEntity
  8
0
  6
Continuous
 62
     8
370
    25
100
AcDbCircle
 10
197.8473441434
 20
216.2869384891
 30
0.0
 40
9.511765202579278
100
AcDbArc
 50
155.94315588
 51
172.5543197163
  0
ARC
  5
38B
330
1F
100
AcDbEntity
  8
0
  6
Continuous
 62
     8
370
    25
100
AcDbCircle
 10
-39.6680339219
 20
215.9126730282
 30
0.0
 40
10.67997705575048
100
AcDbArc
 50
11.98578437
 51
23.4592730309
  0
ARC
  5
38C
330
1F
100
AcDbEntity
  8
0
  6
Continuous
 62
     8
370
    25
100
AcDbCircle
 10
168.4787745903
 20
218.6730028245
 30
0.0
 40
5.241815494036363
100
AcDbArc
 50
325.7757798728
 51
16.5294381717
  0
ARC
  5
38D
330
1F
100
AcDbEntity
  8
0
  6
Continuous
 62
     8
370
    25
100
AcDbCircle
 10
-5.6743913278
 20
218.7033192214
 30
0.0
 40
8.662739500783077
100
AcDbArc
 50
170.2903231443
 51
186.6466132075
  0
SPLINE
  5
38E
330
1F
100
AcDbEntity
  8
0
  6
Continuous
 62
     8
370
    25
100
AcDbSpline
210
0.0
220
0.0
230
1.0
 70
     8
 71
     3
 72
    10
 73
     6
 74
     0
 42
0.00000001
 43
0.00000001
 40
0.0
 40
0.0
 40
0.0
 40
0.0
 40
0.4182737147096627
 40
0.738244778055182
 40
0.9999999999999999
 40
0.9999999999999999
 40
0.9999999999999999
 40
0.9999999999999999
 10
189.1617568102795
 20
220.1643409635389
 30
0.0
 10
190.2040431497003
 20
219.361037621775
 30
0.0
 10
192.0436577854177
 20
217.9432232184411
 30
0.0
 10
193.912272858389
 20
215.5355047888526
 30
0.0
 10
194.739779886465
 20
213.9867069369946
 30
0.0
 10
195.1121273138929
 20
213.2898054289969
 30
0.0
  0
SPLINE
  5
38F
330
1F
100
AcDbEntity
  8
0
  6
Continuous
 62
     8
370
    25
100
AcDbSpline
210
0.0
220
0.0
230
1.0
 70
     8
 71
     3
 72
    11
 73
     7
 74
     0
 42
0.00000001
 43
0.00000001
 40
0.0
 40
0.0
 40
0.0
 40
0.0
 40
0.3924482723024056
 40
0.6954681406405608
 40
0.9987514703352354
 40
1.0
 40
1.0
 40
1.0
 40
1.0
 10
-29.87082872450999
 20
220.1643409635352
 30
0.0
 10
-30.91894274315571
 20
219.3643773075527
 30
0.0
 10
-32.77633379102646
 20
217.9467401928772
 30
0.0
 10
-34.69872563789774
 20
215.3449974535356
 30
0.0
 10
-35.74320853651516
 20
213.6941097973683
 30
0.0
 10
-36.11228408619277
 20
212.7747393278983
 30
0.0
 10
-36.11379723418739
 20
212.7709700628158
 30
0.0
  0
SPLINE
  5
390
330
1F
100
AcDbEntity
  8
0
  6
Continuous
 62
     8
370
    25
100
AcDbSpline
210
0.0
220
0.0
230
1.0
 70
     8
 71
     3
 72
     9
 73
     5
 74
     0
 42
0.00000001
 43
0.00000001
 40
0.0
 40
0.0
 40
0.0
 40
0.0
 40
0.4340401513875713
 40
1.0
 40
1.0
 40
1.0
 40
1.0
 10
94.09211843921861
 20
201.3312913640675
 30
0.0
 10
94.17149473251463
 20
201.4956746547642
 30
0.0
 10
94.35437249864343
 20
201.8744029594409
 30
0.0
 10
94.60709913225696
 20
202.1553411996431
 30
0.0
 10
94.75013225955725
 20
202.3143409635372
 30
0.0
  0
SPLINE
  5
391
330
1F
100
AcDbEntity
  8
0
  6
Continuous
 62
     8
370
    25
100
AcDbSpline
210
0.0
220
0.0
230
1.0
 70
     8
 71
     3
 72
     9
 73
     5
 74
     0
 42
0.00000001
 43
0.00000001
 40
0.0
 40
0.0
 40
0.0
 40
0.0
 40
0.434040151387856
 40
1.0
 40
1.0
 40
1.0
 40
1.0
 10
65.19880964655172
 20
203.297390563007
 30
0.0
 10
65.11943335325566
 20
203.1330072723102
 30
0.0
 10
64.9365555871268
 20
202.7542789676333
 30
0.0
 10
64.68382895351299
 20
202.4733407274309
 30
0.0
 10
64.5407958262128
 20
202.3143409635368
 30
0.0
  0
LINE
  5
392
330
1F
100
AcDbEntity
  8
0
  6
Continuous
 62
     8
370
    25
100
AcDbLine
 10
93.1075719916
 20
192.4993673147
 30
0.0
 11
91.5657019213
 21
192.3118255113
 31
0.0
  0
LINE
  5
393
330
1F
100
AcDbEntity
  8
0
  6
Continuous
 62
     8
370
    25
100
AcDbLine
 10
91.4747134992
 20
192.0100089878
 30
0.0
 11
93.1075719916
 21
192.4993673147
 31
0.0
  0
SPLINE
  5
394
330
1F
100
AcDbEntity
  8
0
  6
Continuous
 62
     8
370
    25
100
AcDbSpline
210
0.0
220
0.0
230
1.0
 70
     8
 71
     3
 72
    10
 73
     6
 74
     0
 42
0.00000001
 43
0.00000001
 40
0.0
 40
0.0
 40
0.0
 40
0.0
 40
0.4789890081591162
 40
0.7639882280662104
 40
1.0
 40
1.0
 40
1.0
 40
1.0
 10
93.10757199164293
 20
212.1293146124218
 30
0.0
 10
92.4540777648325
 20
212.209119906366
 30
0.0
 10
91.41175343611523
 20
212.3364094768405
 30
0.0
 10
90.3509335873503
 20
212.4629188220073
 30
0.0
 10
89.82931763316549
 20
212.5645342605214
 30
0.0
 10
89.59303182049739
 20
212.6105648435132
 30
0.0
  0
SPLINE
  5
395
330
1F
100
AcDbEntity
  8
0
  6
Continuous
 62
     8
370
    25
100
AcDbSpline
210
0.0
220
0.0
230
1.0
 70
     8
 71
     3
 72
    10
 73
     6
 74
     0
 42
0.00000001
 43
0.00000001
 40
0.0
 40
0.0
 40
0.0
 40
0.0
 40
0.0000402927394354
 40
0.9351402059342159
 40
1.0
 40
1.0
 40
1.0
 40
1.0
 10
90.25200632748204
 20
212.9208832481343
 30
0.0
 10
90.25199280649993
 20
212.9208853568952
 30
0.0
 10
89.93818902657668
 20
212.969826857799
 30
0.0
 10
89.59758078346447
 20
213.0159348633671
 30
0.0
 10
89.22221653504737
 20
213.0301044077785
 30
0.0
 10
89.19786950618686
 20
213.0310234785429
 30
0.0
  0
LWPOLYLINE
  5
396
330
1F
100
AcDbEntity
  8
0
  6
Continuous
 62
     8
370
    25
100
AcDbPolyline
 90
        4
 70
   128
 43
0.0
 10
70.0634359768
 20
191.6291773426
 10
69.0389623212
 20
191.7077923527
 10
69.0389217583
 20
191.7077986789
 10
69.0389217583
 20
191.7077986789
  0
SPLINE
  5
397
330
1F
100
AcDbEntity
  8
0
  6
Continuous
 62
     8
370
    25
100
AcDbSpline
210
0.0
220
0.0
230
1.0
 70
     8
 71
     3
 72
    10
 73
     6
 74
     0
 42
0.00000001
 43
0.00000001
 40
0.0
 40
0.0
 40
0.0
 40
0.0
 40
0.4789890081591864
 40
0.7639882280663203
 40
1.0
 40
1.0
 40
1.0
 40
1.0
 10
66.18335609412718
 20
192.4993673146523
 30
0.0
 10
66.83685032093761
 20
192.4195620207082
 30
0.0
 10
67.87917464965498
 20
192.2922724502337
 30
0.0
 10
68.93999449841948
 20
192.1657631050666
 30
0.0
 10
69.46161045260429
 20
192.0641476665527
 30
0.0
 10
69.69789626527229
 20
192.0181170835612
 30
0.0
  0
LINE
  5
398
330
1F
100
AcDbEntity
  8
0
  6
Continuous
 62
     8
370
    25
100
AcDbLine
 10
66.1833560941
 20
212.1293146124
 30
0.0
 11
67.7252261644
 21
212.3168564158
 31
0.0
  0
LINE
  5
399
330
1F
100
AcDbEntity
  8
0
  6
Continuous
 62
     8
370
    25
100
AcDbLine
 10
66.1833560941
 20
212.1293146124
 30
0.0
 11
67.8162145866
 21
212.6186729392
 31
0.0
  0
LINE
  5
39A
330
1F
100
AcDbEntity
  8
0
  6
Continuous
 62
     8
370
    25
100
AcDbLine
 10
94.1908294188
 20
192.3122710661
 30
0.0
 11
91.4015154226
 21
191.7672045907
 31
0.0
  0
SPLINE
  5
39B
330
1F
100
AcDbEntity
  8
0
  6
Continuous
 62
     8
370
    25
100
AcDbSpline
210
0.0
220
0.0
230
1.0
 70
     8
 71
     3
 72
    10
 73
     6
 74
     0
 42
0.00000001
 43
0.00000001
 40
0.0
 40
0.0
 40
0.0
 40
0.0
 40
0.1114836391922162
 40
0.4169374919354501
 40
1.0
 40
1.0
 40
1.0
 40
1.0
 10
89.19018483790985
 20
213.0392000809603
 30
0.0
 10
89.38421725126366
 20
213.0341480299599
 30
0.0
 10
90.10987877760168
 20
213.0152538721405
 30
0.0
 10
91.77080900864742
 20
212.8584227712164
 30
0.0
 10
93.23197957405854
 20
212.531164436514
 30
0.0
 10
94.19082941876388
 20
212.316410860966
 30
0.0
  0
SPLINE
  5
39C
330
1F
100
AcDbEntity
  8
0
  6
Continuous
 62
     8
370
    25
100
AcDbSpline
210
0.0
220
0.0
230
1.0
 70
     8
 71
     3
 72
     9
 73
     5
 74
     0
 42
0.00000001
 43
0.00000001
 40
0.0
 40
0.0
 40
0.0
 40
0.0
 40
0.0120905238581571
 40
1.0
 40
1.0
 40
1.0
 40
1.0
 10
68.01886405163948
 20
212.8830454314909
 30
0.0
 10
68.00688551264899
 20
212.8819549590136
 30
0.0
 10
67.01614771410402
 20
212.7917626323507
 30
0.0
 10
66.05229645724653
 20
212.5526411949361
 30
0.0
 10
65.10009866700584
 20
212.3164108609656
 30
0.0
  0
SPLINE
  5
39D
330
1F
100
AcDbEntity
  8
0
  6
Continuous
 62
     8
370
    25
100
AcDbSpline
210
0.0
220
0.0
230
1.0
 70
     8
 71
     3
 72
    10
 73
     6
 74
     0
 42
0.00000001
 43
0.00000001
 40
0.0
 40
0.0
 40
0.0
 40
0.0
 40
0.5830625080645925
 40
0.8885163608078493
 40
1.0
 40
1.0
 40
1.0
 40
1.0
 10
65.10009866700622
 20
192.3122710661081
 30
0.0
 10
66.0589485117115
 20
192.0975174905598
 30
0.0
 10
67.52011907712263
 20
191.7702591558576
 30
0.0
 10
69.18104930816837
 20
191.6134280549336
 30
0.0
 10
69.90671083450628
 20
191.5945338971143
 30
0.0
 10
70.10074324785998
 20
191.5894818461141
 30
0.0
  0
SPLINE
  5
39E
330
1F
100
AcDbEntity
  8
0
  6
Continuous
 62
     8
370
    25
100
AcDbSpline
210
0.0
220
0.0
230
1.0
 70
     8
 71
     3
 72
     9
 73
     5
 74
     0
 42
0.00000001
 43
0.00000001
 40
0.0
 40
0.0
 40
0.0
 40
0.0
 40
0.4341123552591188
 40
1.0
 40
1.0
 40
1.0
 40
1.0
 10
173.2970348511659
 20
188.6845696123646
 30
0.0
 10
172.9840209861582
 20
188.7494849385751
 30
0.0
 10
172.2629775484039
 20
188.8990207106487
 30
0.0
 10
172.1671963659452
 20
188.9159930503546
 30
0.0
 10
172.1129949781933
 20
188.9255974876967
 30
0.0
  0
ENDSEC
  0
SECTION
  2
OBJECTS
  0
DICTIONARY
  5
C
330
0
100
AcDbDictionary
281
     1
  3
ACAD_GROUP
350
D
  3
ACAD_LAYOUT
350
1A
  3
ACAD_MLINESTYLE
350
17
  3
ACAD_PLOTSETTINGS
350
19
  3
ACAD_PLOTSTYLENAME
350
E
  3
ACAD_SCALELIST
350
47
  3
DWGPROPS
350
39F
  0
DICTIONARY
  5
D
102
{ACAD_REACTORS
330
C
102
}
330
C
100
AcDbDictionary
281
     1
  0
DICTIONARY
  5
1A
102
{ACAD_REACTORS
330
C
102
}
330
C
100
AcDbDictionary
281
     1
  3
Layout1
350
1E
  3
Layout2
350
26
  3
Model
350
22
  0
DICTIONARY
  5
17
102
{ACAD_REACTORS
330
C
102
}
330
C
100
AcDbDictionary
281
     1
  3
Standard
350
18
  0
DICTIONARY
  5
19
102
{ACAD_REACTORS
330
C
102
}
330
C
100
AcDbDictionary
281
     1
  0
ACDBDICTIONARYWDFLT
  5
E
102
{ACAD_REACTORS
330
C
102
}
330
C
100
AcDbDictionary
281
     1
  3
Normal
350
F
100
AcDbDictionaryWithDefault
340
F
  0
DICTIONARY
  5
47
102
{ACAD_REACTORS
330
C
102
}
330
C
100
AcDbDictionary
281
     1
  3
A0
350
48
  3
A1
350
49
  3
A2
350
4A
  3
A3
350
4B
  3
A4
350
4C
  3
A5
350
4D
  3
A6
350
4E
  3
A7
350
4F
  3
A8
350
50
  3
A9
350
51
  3
B0
350
52
  3
B1
350
53
  3
B2
350
54
  3
B3
350
55
  3
B4
350
56
  3
B5
350
57
  3
B6
350
58
  3
B7
350
59
  3
B8
350
5A
  3
B9
350
5B
  3
C0
350
5C
  3
C1
350
5D
  3
C2
350
5E
  3
C3
350
5F
  3
C4
350
60
  3
C5
350
61
  3
C6
350
62
  3
C7
350
63
  3
C8
350
64
  3
C9
350
65
  3
D0
350
66
  3
D1
350
67
  3
D2
350
68
  0
XRECORD
  5
39F
102
{ACAD_REACTORS
330
C
102
}
330
C
100
AcDbXrecord
280
     1
  1
DWGPROPS COOKIE
  2

  3

  4

  6

  7

  8
vishesh
  9

300
=
301
=
302
=
303
=
304
=
305
=
306
=
307
=
308
=
309
=
 40
0.0
 41
2460383.411332095
 42
2460383.411332465
  1

 90
        0
  0
LAYOUT
  5
1E
102
{ACAD_REACTORS
330
1A
102
}
330
1A
100
AcDbPlotSettings
  1

  2
none_device
  4

  6

 40
0.0
 41
0.0
 42
0.0
 43
0.0
 44
0.0
 45
0.0
 46
0.0
 47
0.0
 48
0.0
 49
0.0
140
0.0
141
0.0
142
1.0
143
1.0
 70
   688
 72
     1
 73
     0
 74
     5
  7

 75
    16
147
1.0
148
0.0
149
0.0
100
AcDbLayout
  1
Layout1
 70
     1
 71
     1
 10
0.0
 20
0.0
 11
420.0
 21
297.0
 12
0.0
 22
0.0
 32
0.0
 14
1.0000000000E+20
 24
1.0000000000E+20
 34
1.0000000000E+20
 15
-1.0000000000E+20
 25
-1.0000000000E+20
 35
-1.0000000000E+20
146
0.0
 13
0.0
 23
0.0
 33
0.0
 16
1.0
 26
0.0
 36
0.0
 17
0.0
 27
1.0
 37
0.0
 76
     0
330
1B
  0
LAYOUT
  5
26
102
{ACAD_REACTORS
330
1A
102
}
330
1A
100
AcDbPlotSettings
  1

  2
none_device
  4

  6

 40
0.0
 41
0.0
 42
0.0
 43
0.0
 44
0.0
 45
0.0
 46
0.0
 47
0.0
 48
0.0
 49
0.0
140
0.0
141
0.0
142
1.0
143
1.0
 70
   688
 72
     1
 73
     0
 74
     5
  7

 75
    16
147
1.0
148
0.0
149
0.0
100
AcDbLayout
  1
Layout2
 70
     1
 71
     2
 10
0.0
 20
0.0
 11
0.0
 21
0.0
 12
0.0
 22
0.0
 32
0.0
 14
0.0
 24
0.0
 34
0.0
 15
0.0
 25
0.0
 35
0.0
146
0.0
 13
0.0
 23
0.0
 33
0.0
 16
1.0
 26
0.0
 36
0.0
 17
0.0
 27
1.0
 37
0.0
 76
     0
330
23
  0
LAYOUT
  5
22
102
{ACAD_REACTORS
330
1A
102
}
330
1A
100
AcDbPlotSettings
  1

  2
none_device
  4
Letter_(8.50_x_11.00_Inches)
  6

 40
6.35
 41
6.35
 42
6.35000508
 43
6.35000508
 44
215.9
 45
279.4
 46
0.0
 47
0.0
 48
0.0
 49
0.0
140
0.0
141
0.0
142
1.0
143
1.0
 70
  1712
 72
     1
 73
     0
 74
     0
  7

 75
     0
147
1.0
148
0.0
149
0.0
100
AcDbLayout
  1
Model
 70
     1
 71
     0
 10
0.0
 20
0.0
 11
279.4
 21
215.9
 12
0.0
 22
0.0
 32
0.0
 14
0.0
 24
0.0
 34
0.0
 15
279.4
 25
215.9
 35
0.0
146
0.0
 13
0.0
 23
0.0
 33
0.0
 16
1.0
 26
0.0
 36
0.0
 17
0.0
 27
1.0
 37
0.0
 76
     0
330
1F
331
29
  0
MLINESTYLE
  5
18
102
{ACAD_REACTORS
330
17
102
}
330
17
100
AcDbMlineStyle
  2
Standard
 70
     0
  3

 62
   256
 51
90.0
 52
90.0
 71
     2
 49
0.5
 62
   256
  6
BYLAYER
 49
-0.5
 62
   256
  6
BYLAYER
  0
ACDBPLACEHOLDER
  5
F
102
{ACAD_REACTORS
330
E
102
}
330
E
  0
SCALE
  5
48
102
{ACAD_REACTORS
330
47
102
}
330
47
100
AcDbScale
 70
     0
300
1:1
140
1.0
141
1.0
290
     1
  0
SCALE
  5
49
102
{ACAD_REACTORS
330
47
102
}
330
47
100
AcDbScale
 70
     0
300
1:2
140
1.0
141
2.0
290
     0
  0
SCALE
  5
4A
102
{ACAD_REACTORS
330
47
102
}
330
47
100
AcDbScale
 70
     0
300
1:4
140
1.0
141
4.0
290
     0
  0
SCALE
  5
4B
102
{ACAD_REACTORS
330
47
102
}
330
47
100
AcDbScale
 70
     0
300
1:5
140
1.0
141
5.0
290
     0
  0
SCALE
  5
4C
102
{ACAD_REACTORS
330
47
102
}
330
47
100
AcDbScale
 70
     0
300
1:8
140
1.0
141
8.0
290
     0
  0
SCALE
  5
4D
102
{ACAD_REACTORS
330
47
102
}
330
47
100
AcDbScale
 70
     0
300
1:10
140
1.0
141
10.0
290
     0
  0
SCALE
  5
4E
102
{ACAD_REACTORS
330
47
102
}
330
47
100
AcDbScale
 70
     0
300
1:16
140
1.0
141
16.0
290
     0
  0
SCALE
  5
4F
102
{ACAD_REACTORS
330
47
102
}
330
47
100
AcDbScale
 70
     0
300
1:20
140
1.0
141
20.0
290
     0
  0
SCALE
  5
50
102
{ACAD_REACTORS
330
47
102
}
330
47
100
AcDbScale
 70
     0
300
1:30
140
1.0
141
30.0
290
     0
  0
SCALE
  5
51
102
{ACAD_REACTORS
330
47
102
}
330
47
100
AcDbScale
 70
     0
300
1:40
140
1.0
141
40.0
290
     0
  0
SCALE
  5
52
102
{ACAD_REACTORS
330
47
102
}
330
47
100
AcDbScale
 70
     0
300
1:50
140
1.0
141
50.0
290
     0
  0
SCALE
  5
53
102
{ACAD_REACTORS
330
47
102
}
330
47
100
AcDbScale
 70
     0
300
1:100
140
1.0
141
100.0
290
     0
  0
SCALE
  5
54
102
{ACAD_REACTORS
330
47
102
}
330
47
100
AcDbScale
 70
     0
300
2:1
140
2.0
141
1.0
290
     0
  0
SCALE
  5
55
102
{ACAD_REACTORS
330
47
102
}
330
47
100
AcDbScale
 70
     0
300
4:1
140
4.0
141
1.0
290
     0
  0
SCALE
  5
56
102
{ACAD_REACTORS
330
47
102
}
330
47
100
AcDbScale
 70
     0
300
8:1
140
8.0
141
1.0
290
     0
  0
SCALE
  5
57
102
{ACAD_REACTORS
330
47
102
}
330
47
100
AcDbScale
 70
     0
300
10:1
140
10.0
141
1.0
290
     0
  0
SCALE
  5
58
102
{ACAD_REACTORS
330
47
102
}
330
47
100
AcDbScale
 70
     0
300
100:1
140
100.0
141
1.0
290
     0
  0
SCALE
  5
59
102
{ACAD_REACTORS
330
47
102
}
330
47
100
AcDbScale
 70
     0
300
1/128" = 1'-0"
140
0.0078125
141
12.0
290
     0
  0
SCALE
  5
5A
102
{ACAD_REACTORS
330
47
102
}
330
47
100
AcDbScale
 70
     0
300
1/64" = 1'-0"
140
0.015625
141
12.0
290
     0
  0
SCALE
  5
5B
102
{ACAD_REACTORS
330
47
102
}
330
47
100
AcDbScale
 70
     0
300
1/32" = 1'-0"
140
0.03125
141
12.0
290
     0
  0
SCALE
  5
5C
102
{ACAD_REACTORS
330
47
102
}
330
47
100
AcDbScale
 70
     0
300
1/16" = 1'-0"
140
0.0625
141
12.0
290
     0
  0
SCALE
  5
5D
102
{ACAD_REACTORS
330
47
102
}
330
47
100
AcDbScale
 70
     0
300
3/32" = 1'-0"
140
0.09375
141
12.0
290
     0
  0
SCALE
  5
5E
102
{ACAD_REACTORS
330
47
102
}
330
47
100
AcDbScale
 70
     0
300
1/8" = 1'-0"
140
0.125
141
12.0
290
     0
  0
SCALE
  5
5F
102
{ACAD_REACTORS
330
47
102
}
330
47
100
AcDbScale
 70
     0
300
3/16" = 1'-0"
140
0.1875
141
12.0
290
     0
  0
SCALE
  5
60
102
{ACAD_REACTORS
330
47
102
}
330
47
100
AcDbScale
 70
     0
300
1/4" = 1'-0"
140
0.25
141
12.0
290
     0
  0
SCALE
  5
61
102
{ACAD_REACTORS
330
47
102
}
330
47
100
AcDbScale
 70
     0
300
3/8" = 1'-0"
140
0.375
141
12.0
290
     0
  0
SCALE
  5
62
102
{ACAD_REACTORS
330
47
102
}
330
47
100
AcDbScale
 70
     0
300
1/2" = 1'-0"
140
0.5
141
12.0
290
     0
  0
SCALE
  5
63
102
{ACAD_REACTORS
330
47
102
}
330
47
100
AcDbScale
 70
     0
300
3/4" = 1'-0"
140
0.75
141
12.0
290
     0
  0
SCALE
  5
64
102
{ACAD_REACTORS
330
47
102
}
330
47
100
AcDbScale
 70
     0
300
1" = 1'-0"
140
1.0
141
12.0
290
     0
  0
SCALE
  5
65
102
{ACAD_REACTORS
330
47
102
}
330
47
100
AcDbScale
 70
     0
300
1-1/2" = 1'-0"
140
1.5
141
12.0
290
     0
  0
SCALE
  5
66
102
{ACAD_REACTORS
330
47
102
}
330
47
100
AcDbScale
 70
     0
300
3" = 1'-0"
140
3.0
141
12.0
290
     0
  0
SCALE
  5
67
102
{ACAD_REACTORS
330
47
102
}
330
47
100
AcDbScale
 70
     0
300
6" = 1'-0"
140
6.0
141
12.0
290
     0
  0
SCALE
  5
68
102
{ACAD_REACTORS
330
47
102
}
330
47
100
AcDbScale
 70
     0
300
1'-0" = 1'-0"
140
12.0
141
12.0
290
     0
  0
ENDSEC
  0
EOF
