  0
SECTION
  2
HEADER
  9
$ACADVER
  1
AC1015
  9
$ACADMAINTVER
 70
     6
  9
$DWGCODEPAGE
  3
ANSI_1252
  9
$INSBASE
 10
0.0
 20
0.0
 30
0.0
  9
$EXTMIN
 10
0.0
 20
0.0
 30
0.0
  9
$EXTMAX
 10
1189.0
 20
841.0
 30
0.0
  9
$LIMMIN
 10
0.0
 20
0.0
  9
$LIMMAX
 10
1189.0
 20
841.0
  9
$ORTHOMODE
 70
     0
  9
$REGENMODE
 70
     1
  9
$FILLMODE
 70
     1
  9
$QTEXTMODE
 70
     0
  9
$MIRRTEXT
 70
     1
  9
$LTSCALE
 40
1.0
  9
$ATTMODE
 70
     1
  9
$TEXTSIZE
 40
3.5
  9
$TRACEWID
 40
1.0
  9
$TEXTSTYLE
  7
Standard
  9
$CLAYER
  8
0
  9
$CELTYPE
  6
ByLayer
  9
$CECOLOR
 62
   256
  9
$CELTSCALE
 40
1.0
  9
$DISPSILH
 70
     0
  9
$DIMSCALE
 40
1.0
  9
$DIMASZ
 40
3.302
  9
$DIMEXO
 40
1.0
  9
$DIMDLI
 40
3.75
  9
$DIMRND
 40
0.0
  9
$DIMDLE
 40
0.0
  9
$DIMEXE
 40
1.0
  9
$DIMTP
 40
0.0
  9
$DIMTM
 40
0.0
  9
$DIMTXT
 40
3.5
  9
$DIMCEN
 40
2.5
  9
$DIMTSZ
 40
0.0
  9
$DIMTOL
 70
     0
  9
$DIMLIM
 70
     0
  9
$DIMTIH
 70
     1
  9
$DIMTOH
 70
     1
  9
$DIMSE1
 70
     0
  9
$DIMSE2
 70
     0
  9
$DIMTAD
 70
     1
  9
$DIMZIN
 70
     1
  9
$DIMBLK
  1

  9
$DIMASO
 70
     1
  9
$DIMSHO
 70
     1
  9
$DIMPOST
  1

  9
$DIMAPOST
  1

  9
$DIMALT
 70
     0
  9
$DIMALTD
 70
     3
  9
$DIMALTF
 40
0.0393700787
  9
$DIMLFAC
 40
1.0
  9
$DIMTOFL
 70
     1
  9
$DIMTVP
 40
0.0
  9
$DIMTIX
 70
     0
  9
$DIMSOXD
 70
     0
  9
$DIMSAH
 70
     0
  9
$DIMBLK1
  1

  9
$DIMBLK2
  1

  9
$DIMSTYLE
  2
ISO-25
  9
$DIMCLRD
 70
     0
  9
$DIMCLRE
 70
     0
  9
$DIMCLRT
 70
     0
  9
$DIMTFAC
 40
1.0
  9
$DIMGAP
 40
1.524
  9
$DIMJUST
 70
     0
  9
$DIMSD1
 70
     0
  9
$DIMSD2
 70
     0
  9
$DIMTOLJ
 70
     0
  9
$DIMTZIN
 70
     1
  9
$DIMALTZ
 70
     0
  9
$DIMALTTZ
 70
     0
  9
$DIMUPT
 70
     0
  9
$DIMDEC
 70
     2
  9
$DIMTDEC
 70
     2
  9
$DIMALTU
 70
     2
  9
$DIMALTTD
 70
     3
  9
$DIMTXSTY
  7
Standard
  9
$DIMAUNIT
 70
     0
  9
$DIMADEC
 70
     2
  9
$DIMALTRND
 40
0.0
  9
$DIMAZIN
 70
     0
  9
$DIMDSEP
 70
    44
  9
$DIMATFIT
 70
     3
  9
$DIMFRAC
 70
     0
  9
$DIMLDRBLK
  1

  9
$DIMLUNIT
 70
     2
  9
$DIMLWD
 70
    -2
  9
$DIMLWE
 70
    -2
  9
$DIMTMOVE
 70
     0
  9
$LUNITS
 70
     2
  9
$LUPREC
 70
     2
  9
$SKETCHINC
 40
1.0
  9
$FILLETRAD
 40
10.0
  9
$AUNITS
 70
     0
  9
$AUPREC
 70
     2
  9
$MENU
  1
.
  9
$ELEVATION
 40
0.0
  9
$PELEVATION
 40
0.0
  9
$THICKNESS
 40
0.0
  9
$LIMCHECK
 70
     0
  9
$CHAMFERA
 40
0.0
  9
$CHAMFERB
 40
0.0
  9
$CHAMFERC
 40
0.0
  9
$CHAMFERD
 40
0.0
  9
$SKPOLY
 70
     0
  9
$TDCREATE
 40
2460383.591439445
  9
$TDUCREATE
 40
2460383.362272778
  9
$TDUPDATE
 40
2460383.591439988
  9
$TDUUPDATE
 40
2460383.362273322
  9
$TDINDWG
 40
0.0000000116
  9
$TDUSRTIMER
 40
0.0000000116
  9
$USRTIMER
 70
     1
  9
$ANGBASE
 50
0.0
  9
$ANGDIR
 70
     0
  9
$PDMODE
 70
     0
  9
$PDSIZE
 40
-1.0
  9
$PLINEWID
 40
0.0
  9
$SPLFRAME
 70
     0
  9
$SPLINETYPE
 70
     6
  9
$SPLINESEGS
 70
     8
  9
$HANDSEED
  5
24B
  9
$SURFTAB1
 70
     6
  9
$SURFTAB2
 70
     6
  9
$SURFTYPE
 70
     6
  9
$SURFU
 70
     6
  9
$SURFV
 70
     6
  9
$UCSBASE
  2

  9
$UCSNAME
  2

  9
$UCSORG
 10
0.0
 20
0.0
 30
0.0
  9
$UCSXDIR
 10
1.0
 20
0.0
 30
0.0
  9
$UCSYDIR
 10
0.0
 20
1.0
 30
0.0
  9
$UCSORTHOREF
  2

  9
$UCSORTHOVIEW
 70
     0
  9
$UCSORGTOP
 10
0.0
 20
0.0
 30
0.0
  9
$UCSORGBOTTOM
 10
0.0
 20
0.0
 30
0.0
  9
$UCSORGLEFT
 10
0.0
 20
0.0
 30
0.0
  9
$UCSORGRIGHT
 10
0.0
 20
0.0
 30
0.0
  9
$UCSORGFRONT
 10
0.0
 20
0.0
 30
0.0
  9
$UCSORGBACK
 10
0.0
 20
0.0
 30
0.0
  9
$PUCSBASE
  2

  9
$PUCSNAME
  2

  9
$PUCSORG
 10
0.0
 20
0.0
 30
0.0
  9
$PUCSXDIR
 10
1.0
 20
0.0
 30
0.0
  9
$PUCSYDIR
 10
0.0
 20
1.0
 30
0.0
  9
$PUCSORTHOREF
  2

  9
$PUCSORTHOVIEW
 70
     0
  9
$PUCSORGTOP
 10
0.0
 20
0.0
 30
0.0
  9
$PUCSORGBOTTOM
 10
0.0
 20
0.0
 30
0.0
  9
$PUCSORGLEFT
 10
0.0
 20
0.0
 30
0.0
  9
$PUCSORGRIGHT
 10
0.0
 20
0.0
 30
0.0
  9
$PUCSORGFRONT
 10
0.0
 20
0.0
 30
0.0
  9
$PUCSORGBACK
 10
0.0
 20
0.0
 30
0.0
  9
$USERI1
 70
     0
  9
$USERI2
 70
     0
  9
$USERI3
 70
     0
  9
$USERI4
 70
     0
  9
$USERI5
 70
     0
  9
$USERR1
 40
0.0
  9
$USERR2
 40
0.0
  9
$USERR3
 40
0.0
  9
$USERR4
 40
0.0
  9
$USERR5
 40
0.0
  9
$WORLDVIEW
 70
     1
  9
$SHADEDGE
 70
     3
  9
$SHADEDIF
 70
    70
  9
$TILEMODE
 70
     1
  9
$MAXACTVP
 70
    64
  9
$PINSBASE
 10
0.0
 20
0.0
 30
0.0
  9
$PLIMCHECK
 70
     0
  9
$PEXTMIN
 10
1.0000000000E+20
 20
1.0000000000E+20
 30
1.0000000000E+20
  9
$PEXTMAX
 10
-1.0000000000E+20
 20
-1.0000000000E+20
 30
-1.0000000000E+20
  9
$PLIMMIN
 10
0.0
 20
0.0
  9
$PLIMMAX
 10
420.0
 20
297.0
  9
$UNITMODE
 70
     0
  9
$VISRETAIN
 70
     1
  9
$PLINEGEN
 70
     0
  9
$PSLTSCALE
 70
     1
  9
$TREEDEPTH
 70
  3020
  9
$CMLSTYLE
  2
Standard
  9
$CMLJUST
 70
     0
  9
$CMLSCALE
 40
20.0
  9
$PROXYGRAPHICS
 70
     1
  9
$MEASUREMENT
 70
     1
  9
$CELWEIGHT
370
    -1
  9
$ENDCAPS
280
     0
  9
$JOINSTYLE
280
     0
  9
$LWDISPLAY
290
     1
  9
$INSUNITS
 70
     4
  9
$HYPERLINKBASE
  1

  9
$STYLESHEET
  1

  9
$XEDIT
290
     1
  9
$CEPSNTYPE
380
     0
  9
$PSTYLEMODE
290
     1
  9
$FINGERPRINTGUID
  2
{21b0df2f-7691-4517-a341-25b329649ebc}
  9
$VERSIONGUID
  2
{FAEB1C32-E019-11D5-929B-00C0DF256EC4}
  9
$EXTNAMES
290
     1
  9
$PSVPSCALE
 40
0.0
  9
$OLESTARTUP
290
     0
  0
ENDSEC
  0
SECTION
  2
CLASSES
  0
CLASS
  1
ACDBDICTIONARYWDFLT
  2
AcDbDictionaryWithDefault
  3
ObjectDBX Classes
 90
        0
280
     0
281
     0
  0
CLASS
  1
VISUALSTYLE
  2
AcDbVisualStyle
  3
ObjectDBX Classes
 90
     4095
280
     0
281
     0
  0
CLASS
  1
MATERIAL
  2
AcDbMaterial
  3
ObjectDBX Classes
 90
     1153
280
     0
281
     0
  0
CLASS
  1
SCALE
  2
AcDbScale
  3
ObjectDBX Classes
 90
     1153
280
     0
281
     0
  0
CLASS
  1
TABLESTYLE
  2
AcDbTableStyle
  3
ObjectDBX Classes
 90
     4095
280
     0
281
     0
  0
CLASS
  1
MLEADERSTYLE
  2
AcDbMLeaderStyle
  3
ACDB_MLEADERSTYLE_CLASS
 90
     4095
280
     0
281
     0
  0
CLASS
  1
SUN
  2
AcDbSun
  3
SCENEOE
 90
     1153
280
     0
281
     0
  0
CLASS
  1
ACDBPLACEHOLDER
  2
AcDbPlaceHolder
  3
ObjectDBX Classes
 90
        0
280
     0
281
     0
  0
CLASS
  1
LAYOUT
  2
AcDbLayout
  3
ObjectDBX Classes
 90
        0
280
     0
281
     0
  0
ENDSEC
  0
SECTION
  2
TABLES
  0
TABLE
  2
VPORT
  5
8
330
0
100
AcDbSymbolTable
 70
     1
  0
VPORT
  5
29
330
8
100
AcDbSymbolTableRecord
100
AcDbViewportTableRecord
  2
*Active
 70
     0
 10
0.0
 20
0.0
 11
1.0
 21
1.0
 12
594.5
 22
420.5
 13
0.0
 23
0.0
 14
10.0
 24
10.0
 15
10.0
 25
10.0
 16
0.0
 26
0.0
 36
1.0
 17
0.0
 27
0.0
 37
0.0
 40
841.0
 41
1.4137931034
 42
50.0
 43
0.0
 44
0.0
 50
0.0
 51
0.0
 71
     0
 72
  2000
 73
     1
 74
     3
 75
     0
 76
     0
 77
     0
 78
     0
281
     0
 65
     1
110
0.0
120
0.0
130
0.0
111
1.0
121
0.0
131
0.0
112
0.0
122
1.0
132
0.0
 79
     0
146
0.0
  0
ENDTAB
  0
TABLE
  2
LTYPE
  5
5
330
0
100
AcDbSymbolTable
 70
     6
  0
LTYPE
  5
14
330
5
100
AcDbSymbolTableRecord
100
AcDbLinetypeTableRecord
  2
ByBlock
 70
     0
  3

 72
    65
 73
     0
 40
0.0
  0
LTYPE
  5
15
330
5
100
AcDbSymbolTableRecord
100
AcDbLinetypeTableRecord
  2
ByLayer
 70
     0
  3

 72
    65
 73
     0
 40
0.0
  0
LTYPE
  5
16
330
5
100
AcDbSymbolTableRecord
100
AcDbLinetypeTableRecord
  2
Continuous
 70
     0
  3
Solid line
 72
    65
 73
     0
 40
0.0
  0
LTYPE
  5
6E
330
5
100
AcDbSymbolTableRecord
100
AcDbLinetypeTableRecord
  2
HIDDEN
 70
     0
  3
Hidden __ __ __ __ __ __ __ __ __ __ __ __ __ __
 72
    65
 73
     2
 40
1.905
 49
1.27
 74
     0
 49
-0.635
 74
     0
  0
LTYPE
  5
6F
330
5
100
AcDbSymbolTableRecord
100
AcDbLinetypeTableRecord
  2
PHANTOM
 70
     0
  3
Phantom ______  __  __  ______  __  __  ______
 72
    65
 73
     6
 40
12.7
 49
6.35
 74
     0
 49
-1.27
 74
     0
 49
1.27
 74
     0
 49
-1.27
 74
     0
 49
1.27
 74
     0
 49
-1.27
 74
     0
  0
LTYPE
  5
70
330
5
100
AcDbSymbolTableRecord
100
AcDbLinetypeTableRecord
  2
CENTER
 70
     0
  3
Center ____ _ ____ _ ____ _ ____ _ ____ _ ____
 72
    65
 73
     4
 40
10.16
 49
6.35
 74
     0
 49
-1.27
 74
     0
 49
1.27
 74
     0
 49
-1.27
 74
     0
  0
LTYPE
  5
71
330
5
100
AcDbSymbolTableRecord
100
AcDbLinetypeTableRecord
  2
CENTERX2
 70
     0
  3
Center (2x) ________  __  ________  __  _____
 72
    65
 73
     4
 40
20.32
 49
12.7
 74
     0
 49
-2.54
 74
     0
 49
2.54
 74
     0
 49
-2.54
 74
     0
  0
LTYPE
  5
72
330
5
100
AcDbSymbolTableRecord
100
AcDbLinetypeTableRecord
  2
DOT2
 70
     0
  3
Dot (.5x) ........................................
 72
    65
 73
     2
 40
0.635
 49
0.0
 74
     0
 49
-0.635
 74
     0
  0
ENDTAB
  0
TABLE
  2
LAYER
  5
2
330
0
100
AcDbSymbolTable
 70
     1
  0
LAYER
  5
10
330
2
100
AcDbSymbolTableRecord
100
AcDbLayerTableRecord
  2
0
 70
     0
 62
     7
  6
Continuous
370
    -3
390
F
  0
ENDTAB
  0
TABLE
  2
STYLE
  5
3
330
0
100
AcDbSymbolTable
 70
     1
  0
STYLE
  5
11
330
3
100
AcDbSymbolTableRecord
100
AcDbTextStyleTableRecord
  2
Standard
 70
     0
 40
0.0
 41
1.0
 50
0.0
 71
     0
 42
3.5
  3
txt
  4

  0
ENDTAB
  0
TABLE
  2
VIEW
  5
6
330
0
100
AcDbSymbolTable
 70
     0
  0
ENDTAB
  0
TABLE
  2
UCS
  5
7
330
0
100
AcDbSymbolTable
 70
     0
  0
ENDTAB
  0
TABLE
  2
APPID
  5
9
330
0
100
AcDbSymbolTable
 70
     1
  0
APPID
  5
12
330
9
100
AcDbSymbolTableRecord
100
AcDbRegAppTableRecord
  2
ACAD
 70
     0
  0
ENDTAB
  0
TABLE
  2
DIMSTYLE
  5
A
330
0
100
AcDbSymbolTable
 70
     1
100
AcDbDimStyleTable
  0
DIMSTYLE
105
27
330
A
100
AcDbSymbolTableRecord
100
AcDbDimStyleTableRecord
  2
ISO-25
 70
     0
 41
2.5
 42
0.625
 43
3.75
 44
1.25
 73
     0
 74
     0
 77
     1
 78
     8
140
2.5
141
2.5
143
0.0393700787
147
0.625
171
     3
172
     1
178
     0
271
     2
272
     2
274
     3
278
    44
283
     0
284
     8
340
11
  0
ENDTAB
  0
TABLE
  2
BLOCK_RECORD
  5
1
330
0
100
AcDbSymbolTable
 70
     1
  0
BLOCK_RECORD
  5
1F
330
1
100
AcDbSymbolTableRecord
100
AcDbBlockTableRecord
  2
*Model_Space
340
22
  0
BLOCK_RECORD
  5
1B
330
1
100
AcDbSymbolTableRecord
100
AcDbBlockTableRecord
  2
*Paper_Space
340
1E
  0
BLOCK_RECORD
  5
23
330
1
100
AcDbSymbolTableRecord
100
AcDbBlockTableRecord
  2
*Paper_Space0
340
26
  0
ENDTAB
  0
ENDSEC
  0
SECTION
  2
BLOCKS
  0
BLOCK
  5
20
330
1F
100
AcDbEntity
  8
0
100
AcDbBlockBegin
  2
*Model_Space
 70
     0
 10
0.0
 20
0.0
 30
0.0
  3
*Model_Space
  1

  0
ENDBLK
  5
21
330
1F
100
AcDbEntity
  8
0
100
AcDbBlockEnd
  0
BLOCK
  5
1C
330
1B
100
AcDbEntity
 67
     1
  8
0
100
AcDbBlockBegin
  2
*Paper_Space
 70
     0
 10
0.0
 20
0.0
 30
0.0
  3
*Paper_Space
  1

  0
ENDBLK
  5
1D
330
1B
100
AcDbEntity
 67
     1
  8
0
100
AcDbBlockEnd
  0
BLOCK
  5
24
330
23
100
AcDbEntity
  8
0
100
AcDbBlockBegin
  2
*Paper_Space0
 70
     0
 10
0.0
 20
0.0
 30
0.0
  3
*Paper_Space0
  1

  0
ENDBLK
  5
25
330
23
100
AcDbEntity
  8
0
100
AcDbBlockEnd
  0
ENDSEC
  0
SECTION
  2
ENTITIES
  0
SPLINE
  5
73
330
1F
100
AcDbEntity
  8
0
  6
Continuous
 62
     7
370
    25
100
AcDbSpline
210
0.0
220
0.0
230
1.0
 70
     8
 71
     3
 72
    18
 73
    14
 74
     0
 42
0.00000001
 43
0.00000001
 40
0.0
 40
0.0
 40
0.0
 40
0.0
 40
0.1372836389911373
 40
0.3004939076311394
 40
0.4511726454099912
 40
0.5872591158662932
 40
0.7058271920141688
 40
0.801786033118907
 40
0.8661491732609835
 40
0.9087617913677457
 40
0.9381394745758315
 40
0.9742103254556764
 40
1.0
 40
1.0
 40
1.0
 40
1.0
 10
528.3668087530995
 20
497.2878717053342
 30
0.0
 10
528.1138683408064
 20
497.2892000763064
 30
0.0
 10
527.5602185873009
 20
497.2921076870542
 30
0.0
 10
526.7368025030861
 20
497.4209609200484
 30
0.0
 10
525.9335327839591
 20
497.6263609871621
 30
0.0
 10
525.232422378215
 20
497.8843901953455
 30
0.0
 10
524.6480545561432
 20
498.1593817730035
 30
0.0
 10
524.202706078809
 20
498.4107302654995
 30
0.0
 10
523.8922866255533
 20
498.6094460470922
 30
0.0
 10
523.7135984260601
 20
498.7330714166243
 30
0.0
 10
523.6208295995494
 20
498.7997348567644
 30
0.0
 10
523.5691953449722
 20
498.8377032155519
 30
0.0
 10
523.5538013540098
 20
498.8493079262851
 30
0.0
 10
523.5473835938287
 20
498.8541459342222
 30
0.0
  0
SPLINE
  5
74
330
1F
100
AcDbEntity
  8
0
  6
Continuous
 62
     7
370
    25
100
AcDbSpline
210
0.0
220
0.0
230
1.0
 70
     8
 71
     3
 72
    16
 73
    12
 74
     0
 42
0.00000001
 43
0.00000001
 40
0.0
 40
0.0
 40
0.0
 40
0.0
 40
0.0608176008307431
 40
0.0968997408521809
 40
0.1398929502087367
 40
0.2234719586586126
 40
0.3846497950794576
 40
0.5416277650053158
 40
0.7562339951635922
 40
0.9657422803955236
 40
1.0
 40
1.0
 40
1.0
 40
1.0
 10
704.3186584727483
 20
498.8536376138614
 30
0.0
 10
704.3010363697018
 20
498.8403337040412
 30
0.0
 10
704.2729593460256
 20
498.8191367907087
 30
0.0
 10
704.1495364555698
 20
498.7302495721052
 30
0.0
 10
703.9331886164161
 20
498.5813143426239
 30
0.0
 10
703.4858134583733
 20
498.3002623493109
 30
0.0
 10
702.8317722410611
 20
497.9640234306829
 30
0.0
 10
701.91708239809
 20
497.6105660796768
 30
0.0
 10
700.8777732430252
 20
497.3689144152196
 30
0.0
 10
700.0364963249236
 20
497.2600718021238
 30
0.0
 10
699.5897881721173
 20
497.2850579937069
 30
0.0
 10
699.5270099243705
 20
497.2885694347129
 30
0.0
  0
SPLINE
  5
75
330
1F
100
AcDbEntity
  8
0
  6
Continuous
 62
     7
370
    25
100
AcDbSpline
210
0.0
220
0.0
230
1.0
 70
     8
 71
     3
 72
    15
 73
    11
 74
     0
 42
0.00000001
 43
0.00000001
 40
0.0
 40
0.0
 40
0.0
 40
0.0
 40
0.0047654233888084
 40
0.0544595332183641
 40
0.1147484587117602
 40
0.2089619987894952
 40
0.3539550192037088
 40
0.5657539860578329
 40
0.8221420077613328
 40
1.0
 40
1.0
 40
1.0
 40
1.0
 10
523.52888624918
 20
471.6835397309978
 30
0.0
 10
523.5307237378777
 20
471.6849519046527
 30
0.0
 10
523.5517226646483
 20
471.7010903065933
 30
0.0
 10
523.6656819704881
 20
471.7855295075989
 30
0.0
 10
523.922896339258
 20
471.9651068322933
 30
0.0
 10
524.3727771507428
 20
472.2471723870124
 30
0.0
 10
525.080218089728
 20
472.6152313579558
 30
0.0
 10
526.1034753946993
 20
472.9985503073178
 30
0.0
 10
527.2323111199499
 20
473.2466120767922
 30
0.0
 10
528.0045223422254
 20
473.2655765554319
 30
0.0
 10
528.3208037430176
 20
473.2733440051871
 30
0.0
  0
SPLINE
  5
76
330
1F
100
AcDbEntity
  8
0
  6
Continuous
 62
     7
370
    25
100
AcDbSpline
210
0.0
220
0.0
230
1.0
 70
     8
 71
     3
 72
    17
 73
    13
 74
     0
 42
0.00000001
 43
0.00000001
 40
0.0
 40
0.0
 40
0.0
 40
0.0
 40
0.0362809402551607
 40
0.2143297503948905
 40
0.3806400909327796
 40
0.5335409418387614
 40
0.6705479283094864
 40
0.7873071285703911
 40
0.8748352393204208
 40
0.9334036778876195
 40
0.9763626683379348
 40
1.0
 40
1.0
 40
1.0
 40
1.0
 10
699.5469058537708
 20
473.2721631021323
 30
0.0
 10
699.6113842412783
 20
473.2752199890275
 30
0.0
 10
699.9922904858014
 20
473.293278556436
 30
0.0
 10
700.6689279716373
 20
473.2138859069241
 30
0.0
 10
701.5373729526567
 20
473.0460852811571
 30
0.0
 10
702.3122413488294
 20
472.7998127435017
 30
0.0
 10
702.9782606235742
 20
472.5166988623626
 30
0.0
 10
703.5128479953722
 20
472.2336314139225
 30
0.0
 10
703.9058829293247
 20
471.9898674860567
 30
0.0
 10
704.1577661531579
 20
471.816437682191
 30
0.0
 10
704.285893916079
 20
471.7228647334421
 30
0.0
 10
704.3242103119915
 20
471.6938605433171
 30
0.0
 10
704.3378101224547
 20
471.683565955871
 30
0.0
  0
LINE
  5
77
330
1F
100
AcDbEntity
  8
0
  6
Continuous
 62
     7
370
    25
100
AcDbLine
 10
607.2210544337
 20
497.2781693364
 30
0.0
 11
528.3650385965
 21
497.2781693364
 31
0.0
  0
LINE
  5
78
330
1F
100
AcDbEntity
  8
0
  6
Continuous
 62
     7
370
    25
100
AcDbLine
 10
699.524600851
 20
497.2781693364
 30
0.0
 11
620.6458471681
 21
497.2781693364
 31
0.0
  0
LINE
  5
79
330
1F
100
AcDbEntity
  8
0
  6
Continuous
 62
     7
370
    25
100
AcDbLine
 10
620.6458471681
 20
473.2781693364
 30
0.0
 11
699.5534633166
 21
473.2781693364
 31
0.0
  0
LINE
  5
7A
330
1F
100
AcDbEntity
  8
0
  6
Continuous
 62
     7
370
    25
100
AcDbLine
 10
528.3134382853
 20
473.2781693364
 30
0.0
 11
607.2210544337
 21
473.2781693364
 31
0.0
  0
SPLINE
  5
7B
330
1F
100
AcDbEntity
  8
0
  6
Continuous
 62
     7
370
    25
100
AcDbSpline
210
0.0
220
0.0
230
1.0
 70
     8
 71
     3
 72
    17
 73
    13
 74
     0
 42
0.00000001
 43
0.00000001
 40
0.0
 40
0.0
 40
0.0
 40
0.0
 40
0.0756138487460528
 40
0.1928461826949764
 40
0.290230631890745
 40
0.3728833251025044
 40
0.4404952146675832
 40
0.490188326631717
 40
0.5335457575164184
 40
0.594652783850326
 40
0.734663574165603
 40
1.0
 40
1.0
 40
1.0
 40
1.0
 10
454.9114757774083
 20
482.4762086755991
 30
0.0
 10
454.9125037302193
 20
482.4435937720405
 30
0.0
 10
454.9151254295358
 20
482.3604124533463
 30
0.0
 10
454.9754393204619
 20
482.2470262201595
 30
0.0
 10
455.0575793790709
 20
482.1499320984216
 30
0.0
 10
455.1433030551418
 20
482.0879315564635
 30
0.0
 10
455.21820382614
 20
482.0528453028216
 30
0.0
 10
455.2720678945528
 20
482.0359730874626
 30
0.0
 10
455.3095180755509
 20
482.0272573039145
 30
0.0
 10
455.3509564803936
 20
482.019929095668
 30
0.0
 10
455.4068633948061
 20
482.0123453600934
 30
0.0
 10
455.4975326258023
 20
482.0046754442934
 30
0.0
 10
455.556883840581
 20
481.9996547904842
 30
0.0
  0
SPLINE
  5
7C
330
1F
100
AcDbEntity
  8
0
  6
Continuous
 62
     7
370
    25
100
AcDbSpline
210
0.0
220
0.0
230
1.0
 70
     8
 71
     3
 72
    17
 73
    13
 74
     0
 42
0.00000001
 43
0.00000001
 40
0.0
 40
0.0
 40
0.0
 40
0.0
 40
0.1513647537108885
 40
0.4475182806907183
 40
0.5789354960012268
 40
0.6280176547256692
 40
0.6630272802656292
 40
0.7126248279455079
 40
0.7784900679382417
 40
0.8626893568132037
 40
0.9532828515404264
 40
1.0
 40
1.0
 40
1.0
 40
1.0
 10
455.9159090822421
 20
488.5849063867302
 30
0.0
 10
455.8432464331824
 20
488.5797357420313
 30
0.0
 10
455.628415285373
 20
488.5644484445003
 30
0.0
 10
455.4422885831882
 20
488.5477437472923
 30
0.0
 10
455.3544406613378
 20
488.5373181870365
 30
0.0
 10
455.2952730757353
 20
488.526411461884
 30
0.0
 10
455.2330106340186
 20
488.5091732749617
 30
0.0
 10
455.1468533458215
 20
488.4717962899924
 30
0.0
 10
455.0422961651946
 20
488.3954599848783
 30
0.0
 10
454.948950594031
 20
488.2695718229557
 30
0.0
 10
454.8965275308955
 20
488.1299041204776
 30
0.0
 10
454.9057017083226
 20
488.0409833034104
 30
0.0
 10
454.9088230352563
 20
488.0107298072818
 30
0.0
  0
LINE
  5
7D
330
1F
100
AcDbEntity
  8
0
  6
Continuous
 62
     7
370
    25
100
AcDbLine
 10
455.9159090822
 20
481.971432286
 30
0.0
 11
459.3992297731
 21
481.7292647577
 31
0.0
  0
LINE
  5
7E
330
1F
100
AcDbEntity
  8
0
  6
Continuous
 62
     7
370
    25
100
AcDbLine
 10
459.3992297731
 20
488.8270739151
 30
0.0
 11
455.9159090822
 21
488.5849063867
 31
0.0
  0
ARC
  5
7F
330
1F
100
AcDbEntity
  8
0
  6
Continuous
 62
     7
370
    25
100
AcDbCircle
 10
512.3334508009
 20
485.2781693364
 30
0.0
 40
9.141196303513889
100
AcDbArc
 50
295.4997205711
 51
0.0
  0
ARC
  5
80
330
1F
100
AcDbEntity
  8
0
  6
Continuous
 62
     7
370
    25
100
AcDbCircle
 10
512.3334508009
 20
485.2781693364
 30
0.0
 40
9.141196303513988
100
AcDbArc
 50
0.0
 51
64.500208444
  0
SPLINE
  5
81
330
1F
100
AcDbEntity
  8
0
  6
Continuous
 62
     7
370
    25
100
AcDbSpline
210
0.0
220
0.0
230
1.0
 70
     8
 71
     3
 72
    17
 73
    13
 74
     0
 42
0.00000001
 43
0.00000001
 40
0.0
 40
0.0
 40
0.0
 40
0.0
 40
0.1513647537108919
 40
0.4475182806907285
 40
0.57893549600124
 40
0.6280176547256835
 40
0.6630272802656443
 40
0.7126248279455241
 40
0.7784900679382596
 40
0.8626893568132168
 40
0.9532828515404382
 40
0.9999999999999999
 40
0.9999999999999999
 40
0.9999999999999999
 40
0.9999999999999999
 10
771.9509925195886
 20
482.2168535748671
 30
0.0
 10
772.0236551686482
 20
482.2220242195659
 30
0.0
 10
772.2384863164577
 20
482.2373115170971
 30
0.0
 10
772.4246130186425
 20
482.254016214305
 30
0.0
 10
772.5124609404927
 20
482.2644417745607
 30
0.0
 10
772.5716285260953
 20
482.2753484997133
 30
0.0
 10
772.6338909678121
 20
482.2925866866357
 30
0.0
 10
772.7200482560091
 20
482.3299636716049
 30
0.0
 10
772.8246054366361
 20
482.4062999767189
 30
0.0
 10
772.9179510077997
 20
482.5321881386416
 30
0.0
 10
772.970374070935
 20
482.6718558411197
 30
0.0
 10
772.9611998935081
 20
482.7607766581868
 30
0.0
 10
772.9580785665744
 20
482.7910301543155
 30
0.0
  0
SPLINE
  5
82
330
1F
100
AcDbEntity
  8
0
  6
Continuous
 62
     7
370
    25
100
AcDbSpline
210
0.0
220
0.0
230
1.0
 70
     8
 71
     3
 72
    17
 73
    13
 74
     0
 42
0.00000001
 43
0.00000001
 40
0.0
 40
0.0
 40
0.0
 40
0.0
 40
0.0756138487460533
 40
0.1928461826949768
 40
0.290230631890747
 40
0.3728833251025052
 40
0.4404952146675839
 40
0.4901883266317176
 40
0.533545757516419
 40
0.5946527838503266
 40
0.7346635741656032
 40
1.0
 40
1.0
 40
1.0
 40
1.0
 10
772.9554258244224
 20
488.3255512859981
 30
0.0
 10
772.9543978716114
 20
488.3581661895568
 30
0.0
 10
772.9517761722948
 20
488.4413475082509
 30
0.0
 10
772.8914622813688
 20
488.5547337414378
 30
0.0
 10
772.8093222227598
 20
488.6518278631758
 30
0.0
 10
772.7235985466888
 20
488.7138284051337
 30
0.0
 10
772.6486977756906
 20
488.7489146587757
 30
0.0
 10
772.5948337072779
 20
488.7657868741347
 30
0.0
 10
772.5573835262798
 20
488.7745026576828
 30
0.0
 10
772.5159451214372
 20
488.7818308659293
 30
0.0
 10
772.4600382070246
 20
488.7894146015039
 30
0.0
 10
772.3693689760283
 20
488.7970845173039
 30
0.0
 10
772.3100177612496
 20
488.8021051711131
 30
0.0
  0
LINE
  5
83
330
1F
100
AcDbEntity
  8
0
  6
Continuous
 62
     7
370
    25
100
AcDbLine
 10
771.9509925196
 20
488.8303276756
 30
0.0
 11
768.4676718287
 21
489.0724952039
 31
0.0
  0
LINE
  5
84
330
1F
100
AcDbEntity
  8
0
  6
Continuous
 62
     7
370
    25
100
AcDbLine
 10
768.4676718287
 20
481.9746860465
 30
0.0
 11
771.9509925196
 21
482.2168535749
 31
0.0
  0
ARC
  5
85
330
1F
100
AcDbEntity
  8
0
  6
Continuous
 62
     7
370
    25
100
AcDbCircle
 10
723.6424660061
 20
482.5516961494
 30
0.0
 40
8.999995138923012
100
AcDbArc
 50
257.1419190681
 51
270.0
  0
ARC
  5
86
330
1F
100
AcDbEntity
  8
0
  6
Continuous
 62
     7
370
    25
100
AcDbCircle
 10
723.6424660061
 20
482.5516961494
 30
0.0
 40
8.999995138922998
100
AcDbArc
 50
270.0
 51
305.1719294169
  0
SPLINE
  5
87
330
1F
100
AcDbEntity
  8
0
  6
Continuous
 62
     7
370
    25
100
AcDbSpline
210
0.0
220
0.0
230
1.0
 70
     8
 71
     3
 72
    18
 73
    14
 74
     0
 42
0.00000001
 43
0.00000001
 40
0.0
 40
0.0
 40
0.0
 40
0.0
 40
0.2499999999999997
 40
0.2499999999999997
 40
0.3749999999999997
 40
0.3749999999999997
 40
0.4999999999999998
 40
0.4999999999999998
 40
0.6249999999999998
 40
0.6249999999999998
 40
0.7499999999999999
 40
0.7499999999999999
 40
1.0
 40
1.0
 40
1.0
 40
1.0
 10
613.9334508009154
 20
493.3646332318867
 30
0.0
 10
614.5716872229
 20
493.3186716782004
 30
0.0
 10
615.1912443173261
 20
493.1970792899957
 30
0.0
 10
616.0935128967084
 20
492.9051717141073
 30
0.0
 10
616.3913626487843
 20
492.7886194870528
 30
0.0
 10
616.9694880928213
 20
492.5206397533386
 30
0.0
 10
617.2478993818239
 20
492.370351475555
 30
0.0
 10
617.7840642816772
 20
492.0381647524707
 30
0.0
 10
618.0418165285162
 20
491.8562642311254
 30
0.0
 10
618.5363986970668
 20
491.4604445368768
 30
0.0
 10
618.7745290037765
 20
491.2447442447103
 30
0.0
 10
619.4383681561792
 20
490.5600965568101
 30
0.0
 10
619.8180942351325
 20
490.0541970585278
 30
0.0
 10
620.1337720992177
 20
489.4978868385187
 30
0.0
  0
ARC
  5
88
330
1F
100
AcDbEntity
  8
0
  6
Continuous
 62
     7
370
    25
100
AcDbCircle
 10
613.9334508009
 20
485.2781693364
 30
0.0
 40
7.499999999999992
100
AcDbArc
 50
34.2378063236
 51
108.92548196
  0
ARC
  5
89
330
1F
100
AcDbEntity
  8
0
  6
Continuous
 62
     7
370
    25
100
AcDbCircle
 10
613.9334508009
 20
485.2781693364
 30
0.0
 40
8.500000000000057
100
AcDbArc
 50
90.0
 51
50.5764334286
  0
LINE
  5
8A
330
1F
100
AcDbEntity
  8
0
  6
Continuous
 62
     7
370
    25
100
AcDbLine
 10
613.9334508009
 20
493.7781693364
 30
0.0
 11
613.9334508009
 21
493.3646332319
 31
0.0
  0
SPLINE
  5
8B
330
1F
100
AcDbEntity
  8
0
  6
Continuous
 62
     7
370
    25
100
AcDbSpline
210
0.0
220
0.0
230
1.0
 70
     8
 71
     3
 72
    86
 73
    82
 74
     0
 42
0.00000001
 43
0.00000001
 40
0.0
 40
0.0
 40
0.0
 40
0.0
 40
0.0312499999999999
 40
0.0312499999999999
 40
0.0624999999999999
 40
0.0624999999999999
 40
0.0937499999999999
 40
0.0937499999999999
 40
0.1093749999999998
 40
0.1093749999999998
 40
0.1249999999999998
 40
0.1249999999999998
 40
0.1562499999999998
 40
0.1562499999999998
 40
0.1718749999999998
 40
0.1718749999999998
 40
0.1874999999999998
 40
0.1874999999999998
 40
0.2187499999999997
 40
0.2187499999999997
 40
0.2343749999999997
 40
0.2343749999999997
 40
0.2499999999999997
 40
0.2499999999999997
 40
0.2812499999999996
 40
0.2812499999999996
 40
0.2968749999999996
 40
0.2968749999999996
 40
0.3124999999999996
 40
0.3124999999999996
 40
0.3437499999999994
 40
0.3437499999999994
 40
0.3593749999999994
 40
0.3593749999999994
 40
0.3749999999999993
 40
0.3749999999999993
 40
0.4062499999999993
 40
0.4062499999999993
 40
0.4218749999999993
 40
0.4218749999999993
 40
0.4374999999999992
 40
0.4374999999999992
 40
0.4687499999999992
 40
0.4687499999999992
 40
0.4843749999999992
 40
0.4843749999999992
 40
0.4999999999999991
 40
0.4999999999999991
 40
0.5312499999999991
 40
0.5312499999999991
 40
0.5468749999999991
 40
0.5468749999999991
 40
0.5624999999999991
 40
0.5624999999999991
 40
0.5937499999999991
 40
0.5937499999999991
 40
0.6249999999999992
 40
0.6249999999999992
 40
0.6562499999999992
 40
0.6562499999999992
 40
0.6874999999999993
 40
0.6874999999999993
 40
0.7499999999999993
 40
0.7499999999999993
 40
0.7812499999999994
 40
0.7812499999999994
 40
0.8124999999999994
 40
0.8124999999999994
 40
0.8437499999999996
 40
0.8437499999999996
 40
0.8749999999999996
 40
0.8749999999999996
 40
0.8906249999999997
 40
0.8906249999999997
 40
0.9062499999999998
 40
0.9062499999999998
 40
0.9374999999999998
 40
0.9374999999999998
 40
0.9687499999999999
 40
0.9687499999999999
 40
1.0
 40
1.0
 40
1.0
 40
1.0
 10
611.5009146606685
 20
492.3727283731672
 30
0.0
 10
611.0781387524619
 20
492.2398238609659
 30
0.0
 10
610.6733892418584
 20
492.0717068347229
 30
0.0
 10
609.8984326632244
 20
491.6679984240321
 30
0.0
 10
609.5268744196076
 20
491.4310981064903
 30
0.0
 10
608.8257274630523
 20
490.8921929337043
 30
0.0
 10
608.5031040452815
 20
490.596015068616
 30
0.0
 10
608.0596781648235
 20
490.1130139585525
 30
0.0
 10
607.9186599108947
 20
489.9455207419678
 30
0.0
 10
607.6504295736867
 20
489.5973330634277
 30
0.0
 10
607.5226536077689
 20
489.4157092318093
 30
0.0
 10
607.1658026339413
 20
488.8582673163008
 30
0.0
 10
606.9628798092981
 20
488.4706682651847
 30
0.0
 10
606.7094864588032
 20
487.8659870985884
 30
0.0
 10
606.6336131338016
 20
487.6605026670094
 30
0.0
 10
606.4990346662634
 20
487.2417024555382
 30
0.0
 10
606.4401421137823
 20
487.0273898043319
 30
0.0
 10
606.2924705022577
 20
486.3829860728582
 30
0.0
 10
606.2315859114655
 20
485.9498475639307
 30
0.0
 10
606.1952824971544
 20
485.2949600654446
 30
0.0
 10
606.1924018762895
 20
485.0757962440127
 30
0.0
 10
606.2054678392691
 20
484.6356962766925
 30
0.0
 10
606.2215745728846
 20
484.4139544652712
 30
0.0
 10
606.297579460105
 20
483.7579070835804
 30
0.0
 10
606.3847877492277
 20
483.3295216511798
 30
0.0
 10
606.5692746000291
 20
482.700134466631
 30
0.0
 10
606.6396613594582
 20
482.4925264368322
 30
0.0
 10
606.7985051815277
 20
482.0817591973935
 30
0.0
 10
606.8873430319078
 20
481.8780241196535
 30
0.0
 10
607.1764662974547
 20
481.2845512141204
 30
0.0
 10
607.40026986531
 20
480.909043520564
 30
0.0
 10
607.7816660692529
 20
480.3754152839179
 30
0.0
 10
607.916453162585
 20
480.2025039574691
 30
0.0
 10
608.2016770380359
 20
479.8668310990728
 30
0.0
 10
608.3526088203187
 20
479.703689157637
 30
0.0
 10
608.8208320166808
 20
479.2385160935067
 30
0.0
 10
609.1557799916012
 20
478.9577405937067
 30
0.0
 10
609.69122080237
 20
478.5791009865484
 30
0.0
 10
609.8752102829975
 20
478.4599842610764
 30
0.0
 10
610.2544454988955
 20
478.2362500770936
 30
0.0
 10
610.4503552072413
 20
478.1313889649423
 30
0.0
 10
611.0447812411381
 20
477.844294713344
 30
0.0
 10
611.4527503693881
 20
477.6874487009056
 30
0.0
 10
612.0818753060428
 20
477.5029510687016
 30
0.0
 10
612.294460078519
 20
477.4499568877527
 30
0.0
 10
612.7255008335468
 20
477.3613283866677
 30
0.0
 10
612.9448263220601
 20
477.3256455634101
 30
0.0
 10
613.6005931505968
 20
477.2467583812224
 30
0.0
 10
614.0374512184887
 20
477.2308655023363
 30
0.0
 10
614.6922528907512
 20
477.2596740147328
 30
0.0
 10
614.9104390846574
 20
477.2781155291275
 30
0.0
 10
615.3466464170235
 20
477.3330049273791
 30
0.0
 10
615.5656399032428
 20
477.3696930813689
 30
0.0
 10
616.2125648490738
 20
477.5055499650567
 30
0.0
 10
616.6316992468052
 20
477.6301136832083
 30
0.0
 10
617.4463156989582
 20
477.9454200087235
 30
0.0
 10
617.8439992034897
 20
478.1374846422016
 30
0.0
 10
618.6045791439485
 20
478.5853974880147
 30
0.0
 10
618.9620669813652
 20
478.8376619749364
 30
0.0
 10
619.6337865324552
 20
479.3958366887316
 30
0.0
 10
619.9487306204953
 20
479.7027975459442
 30
0.0
 10
620.8202902664407
 20
480.7024740052868
 30
0.0
 10
621.281750571565
 20
481.4435762574451
 30
0.0
 10
621.7943701103331
 20
482.6673317815361
 30
0.0
 10
621.9306645716848
 20
483.0850549781036
 30
0.0
 10
622.1363248059574
 20
483.9337811781631
 30
0.0
 10
622.2058815649201
 20
484.3656891785764
 30
0.0
 10
622.2763892962413
 20
485.2450619791994
 30
0.0
 10
622.2764291597779
 20
485.6869177988953
 30
0.0
 10
622.2081577154293
 20
486.5576214028958
 30
0.0
 10
622.1400904274449
 20
486.9891754305473
 30
0.0
 10
621.9859844267639
 20
487.6306857116071
 30
0.0
 10
621.9255531699663
 20
487.8443588125284
 30
0.0
 10
621.7891554805261
 20
488.2630924379753
 30
0.0
 10
621.7131374937228
 20
488.4687172241185
 30
0.0
 10
621.4621286882216
 20
489.0746060594608
 30
0.0
 10
621.2643193102307
 20
489.4639498116929
 30
0.0
 10
620.8070718729472
 20
490.2131437181037
 30
0.0
 10
620.5462441615088
 20
490.5738246519331
 30
0.0
 10
619.9769696018388
 20
491.243615397945
 30
0.0
 10
619.6670715474959
 20
491.5556037734563
 30
0.0
 10
619.3313613155783
 20
491.8441850290013
 30
0.0
  0
SPLINE
  5
8C
330
1F
100
AcDbEntity
  8
0
  6
Continuous
 62
     7
370
    25
100
AcDbSpline
210
0.0
220
0.0
230
1.0
 70
     8
 71
     3
 72
    10
 73
     6
 74
     0
 42
0.00000001
 43
0.00000001
 40
0.0
 40
0.0
 40
0.0
 40
0.0
 40
0.5
 40
0.5
 40
1.0
 40
1.0
 40
1.0
 40
1.0
 10
613.9334508009154
 20
494.1007446689742
 30
0.0
 10
614.1621284978089
 20
494.1007446689742
 30
0.0
 10
614.3907776777221
 20
494.0903816029475
 30
0.0
 10
614.8459238100539
 20
494.0476663208623
 30
0.0
 10
615.0728326769522
 20
494.0172844698888
 30
0.0
 10
615.2961724825985
 20
493.9676269180245
 30
0.0
  0
SPLINE
  5
8D
330
1F
100
AcDbEntity
  8
0
  6
Continuous
 62
     7
370
    25
100
AcDbSpline
210
0.0
220
0.0
230
1.0
 70
     8
 71
     3
 72
     9
 73
     5
 74
     0
 42
0.00000001
 43
0.00000001
 40
0.0
 40
0.0
 40
0.0
 40
0.0
 40
0.6261882518869315
 40
0.9999999999999999
 40
0.9999999999999999
 40
0.9999999999999999
 40
0.9999999999999999
 10
613.9334508009154
 20
494.073832099636
 30
0.0
 10
614.5295598430797
 20
494.0509656820034
 30
0.0
 10
615.4815244325908
 20
494.0144488397219
 30
0.0
 10
616.3755729059872
 20
493.6962890392408
 30
0.0
 10
616.7097787287252
 20
493.5773571680435
 30
0.0
  0
SPLINE
  5
8E
330
1F
100
AcDbEntity
  8
0
  6
Continuous
 62
     7
370
    25
100
AcDbSpline
210
0.0
220
0.0
230
1.0
 70
     8
 71
     3
 72
    10
 73
     6
 74
     0
 42
0.00000001
 43
0.00000001
 40
0.0
 40
0.0
 40
0.0
 40
0.0
 40
0.413523593288765
 40
0.8238430077412389
 40
1.0
 40
1.0
 40
1.0
 40
1.0
 10
615.2961724825981
 20
493.9676269180245
 30
0.0
 10
615.943615986439
 20
493.8151516956326
 30
0.0
 10
617.2334862917938
 20
493.5113827018918
 30
0.0
 10
618.7193341484599
 20
492.7849899204408
 30
0.0
 10
619.3824375989388
 20
492.1085939513724
 30
0.0
 10
619.5816106740295
 20
491.9054282687915
 30
0.0
  0
CIRCLE
  5
8F
330
1F
100
AcDbEntity
  8
0
  6
Continuous
 62
     7
370
    25
100
AcDbCircle
 10
613.9334508009
 20
485.2781693364
 30
0.0
 40
12.74977327051846
  0
LINE
  5
90
330
1F
100
AcDbEntity
  8
0
  6
Continuous
 62
     7
370
    25
100
AcDbLine
 10
613.9334508009
 20
493.7781693364
 30
0.0
 11
613.9334508009
 21
494.100744669
 31
0.0
  0
SPLINE
  5
91
330
1F
100
AcDbEntity
  8
0
  6
Continuous
 62
     7
370
    25
100
AcDbSpline
210
0.0
220
0.0
230
1.0
 70
     8
 71
     3
 72
    12
 73
     8
 74
     0
 42
0.00000001
 43
0.00000001
 40
0.0
 40
0.0
 40
0.0
 40
0.0
 40
0.4999999999999998
 40
0.4999999999999998
 40
0.7499999999999999
 40
0.7499999999999999
 40
1.0
 40
1.0
 40
1.0
 40
1.0
 10
615.2961724825982
 20
493.9676269180245
 30
0.0
 10
616.0542732854052
 20
493.799070176315
 30
0.0
 10
616.7731754220931
 20
493.5344605814439
 30
0.0
 10
617.7943871167463
 20
492.9975259882175
 30
0.0
 10
618.1271057786123
 20
492.7932117265119
 30
0.0
 10
618.7548456640593
 20
492.3474642748041
 30
0.0
 10
619.0518863581608
 20
492.1056890097323
 30
0.0
 10
619.3313613155783
 20
491.8441850290013
 30
0.0
  0
CIRCLE
  5
92
330
1F
100
AcDbEntity
  8
0
  6
Continuous
 62
     7
370
    25
100
AcDbCircle
 10
613.9334508009
 20
485.2781693364
 30
0.0
 40
13.74977327051846
  0
SPLINE
  5
93
330
1F
100
AcDbEntity
  8
0
  6
Continuous
 62
     7
370
    25
100
AcDbSpline
210
0.0
220
0.0
230
1.0
 70
     8
 71
     3
 72
    22
 73
    18
 74
     0
 42
0.00000001
 43
0.00000001
 40
0.0
 40
0.0
 40
0.0
 40
0.0
 40
0.0545256833415887
 40
0.1220247930516644
 40
0.1899737973934448
 40
0.2573999960378472
 40
0.3254111647022261
 40
0.3927781581921529
 40
0.4608385598383134
 40
0.5281601223008195
 40
0.5962567696666364
 40
0.6635467276842993
 40
0.7316665922621062
 40
0.7989388089650314
 40
0.8670688357935047
 40
0.9343371948482406
 40
1.0
 40
1.0
 40
1.0
 40
1.0
 10
620.1337720992177
 20
489.4978868385186
 30
0.0
 10
620.4416007525948
 20
488.9673328939355
 30
0.0
 10
621.1305004677691
 20
487.7799890346221
 30
0.0
 10
621.5351664136487
 20
485.6441794941486
 30
0.0
 10
621.3046336818489
 20
483.3551156648736
 30
0.0
 10
620.3857453289573
 20
481.230964705616
 30
0.0
 10
618.8791762044416
 20
479.4856459911737
 30
0.0
 10
616.9126119160721
 20
478.2682155181643
 30
0.0
 10
614.6785547070413
 20
477.6980471437923
 30
0.0
 10
612.3688369465423
 20
477.8238820677662
 30
0.0
 10
610.2104156881859
 20
478.6334138084492
 30
0.0
 10
608.3871691563262
 20
480.0577096532272
 30
0.0
 10
607.0800770537627
 20
481.9553133091612
 30
0.0
 10
606.3964917515348
 20
484.1683867339345
 30
0.0
 10
606.4175907875014
 20
486.4653469033993
 30
0.0
 10
607.0830717815921
 20
488.671142510953
 30
0.0
 10
608.0230277252742
 20
489.8397287748526
 30
0.0
 10
608.4873292632144
 20
490.4169647646787
 30
0.0
  0
SPLINE
  5
94
330
1F
100
AcDbEntity
  8
0
  6
Continuous
 62
     7
370
    25
100
AcDbSpline
210
0.0
220
0.0
230
1.0
 70
     8
 71
     3
 72
    14
 73
    10
 74
     0
 42
0.00000001
 43
0.00000001
 40
0.0
 40
0.0
 40
0.0
 40
0.0
 40
0.25
 40
0.25
 40
0.5
 40
0.5
 40
0.75
 40
0.75
 40
1.0
 40
1.0
 40
1.0
 40
1.0
 10
627.2778733926305
 20
481.9641610858837
 30
0.0
 10
627.4130015798521
 20
482.5082779069768
 30
0.0
 10
627.5229161365463
 20
483.0557112128819
 30
0.0
 10
627.6734262135822
 20
484.1596957314127
 30
0.0
 10
627.7137827717805
 20
484.716278376018
 30
0.0
 10
627.7137827717805
 20
485.8400602967509
 30
0.0
 10
627.6734262135817
 20
486.3966429413562
 30
0.0
 10
627.522916136546
 20
487.500627459887
 30
0.0
 10
627.4130015798521
 20
488.0480607657921
 30
0.0
 10
627.2778733926305
 20
488.5921775868852
 30
0.0
  0
SPLINE
  5
95
330
1F
100
AcDbEntity
  8
0
  6
Continuous
 62
     7
370
    25
100
AcDbSpline
210
0.0
220
0.0
230
1.0
 70
     8
 71
     3
 72
    14
 73
    10
 74
     0
 42
0.00000001
 43
0.00000001
 40
0.0
 40
0.0
 40
0.0
 40
0.0
 40
0.25
 40
0.25
 40
0.5
 40
0.5
 40
0.75
 40
0.75
 40
1.0
 40
1.0
 40
1.0
 40
1.0
 10
600.5890282092003
 20
481.9641610858837
 30
0.0
 10
600.4539000219785
 20
482.5082779069768
 30
0.0
 10
600.3439854652844
 20
483.0557112128819
 30
0.0
 10
600.1934753882485
 20
484.1596957314127
 30
0.0
 10
600.1531188300501
 20
484.716278376018
 30
0.0
 10
600.1531188300501
 20
485.8400602967509
 30
0.0
 10
600.193475388249
 20
486.3966429413562
 30
0.0
 10
600.3439854652846
 20
487.500627459887
 30
0.0
 10
600.4539000219785
 20
488.0480607657921
 30
0.0
 10
600.5890282092003
 20
488.5921775868852
 30
0.0
  0
ARC
  5
96
330
1F
100
AcDbEntity
  8
0
  6
Continuous
 62
     7
370
    25
100
AcDbCircle
 10
715.5334508009
 20
485.2781693364
 30
0.0
 40
17.60000000000017
100
AcDbArc
 50
152.0468131166
 51
172.6855498258
  0
ARC
  5
97
330
1F
100
AcDbEntity
  8
0
  6
Continuous
 62
     7
370
    25
100
AcDbCircle
 10
715.5334508009
 20
485.2781693364
 30
0.0
 40
17.60000000000017
100
AcDbArc
 50
187.5610415472
 51
207.9531868834
  0
ARC
  5
98
330
1F
100
AcDbEntity
  8
0
  6
Continuous
 62
     7
370
    25
100
AcDbCircle
 10
715.5334508009
 20
485.2781693364
 30
0.0
 40
17.60000000000017
100
AcDbArc
 50
207.9531868834
 51
233.7937126472
  0
ARC
  5
99
330
1F
100
AcDbEntity
  8
0
  6
Continuous
 62
     7
370
    25
100
AcDbCircle
 10
715.5334508009
 20
485.2781693364
 30
0.0
 40
17.60000000000011
100
AcDbArc
 50
246.5898974735
 51
292.7547486749
  0
ARC
  5
9A
330
1F
100
AcDbEntity
  8
0
  6
Continuous
 62
     7
370
    25
100
AcDbCircle
 10
715.5334508009
 20
485.2781693364
 30
0.0
 40
17.60000000000007
100
AcDbArc
 50
307.7256009654
 51
329.914091969
  0
ARC
  5
9B
330
1F
100
AcDbEntity
  8
0
  6
Continuous
 62
     7
370
    25
100
AcDbCircle
 10
715.5334508009
 20
485.2781693364
 30
0.0
 40
17.60000000000013
100
AcDbArc
 50
33.0957362986
 51
52.7144743473
  0
ARC
  5
9C
330
1F
100
AcDbEntity
  8
0
  6
Continuous
 62
     7
370
    25
100
AcDbCircle
 10
715.5334508009
 20
485.2781693364
 30
0.0
 40
17.60000000000014
100
AcDbArc
 50
67.7120434363
 51
113.9266816516
  0
ARC
  5
9D
330
1F
100
AcDbEntity
  8
0
  6
Continuous
 62
     7
370
    25
100
AcDbCircle
 10
715.5334508009
 20
485.2781693364
 30
0.0
 40
17.60000000000017
100
AcDbArc
 50
126.0360312502
 51
152.0468131166
  0
ARC
  5
9E
330
1F
100
AcDbEntity
  8
0
  6
Continuous
 62
     7
370
    25
100
AcDbCircle
 10
512.3334508009
 20
485.2781693364
 30
0.0
 40
17.60000000000007
100
AcDbArc
 50
7.7259016593
 51
27.9531868834
  0
ARC
  5
9F
330
1F
100
AcDbEntity
  8
0
  6
Continuous
 62
     7
370
    25
100
AcDbCircle
 10
512.3334508009
 20
485.2781693364
 30
0.0
 40
17.60000000000007
100
AcDbArc
 50
332.0468131166
 51
352.8063905722
  0
ARC
  5
A0
330
1F
100
AcDbEntity
  8
0
  6
Continuous
 62
     7
370
    25
100
AcDbCircle
 10
512.3334508009
 20
485.2781693364
 30
0.0
 40
17.60000000000007
100
AcDbArc
 50
306.9758724862
 51
332.0468131166
  0
ARC
  5
A1
330
1F
100
AcDbEntity
  8
0
  6
Continuous
 62
     7
370
    25
100
AcDbCircle
 10
512.3334508009
 20
485.2781693364
 30
0.0
 40
17.60000000000013
100
AcDbArc
 50
247.6152343271
 51
293.5806338926
  0
ARC
  5
A2
330
1F
100
AcDbEntity
  8
0
  6
Continuous
 62
     7
370
    25
100
AcDbCircle
 10
512.3334508009
 20
485.2781693364
 30
0.0
 40
17.60000000000016
100
AcDbArc
 50
211.5427743269
 51
232.671990055
  0
ARC
  5
A3
330
1F
100
AcDbEntity
  8
0
  6
Continuous
 62
     7
370
    25
100
AcDbCircle
 10
512.3334508009
 20
485.2781693364
 30
0.0
 40
17.60000000000015
100
AcDbArc
 50
127.6598021196
 51
148.4572256731
  0
ARC
  5
A4
330
1F
100
AcDbEntity
  8
0
  6
Continuous
 62
     7
370
    25
100
AcDbCircle
 10
512.3334508009
 20
485.2781693364
 30
0.0
 40
17.60000000000018
100
AcDbArc
 50
65.8323897575
 51
112.6748165815
  0
ARC
  5
A5
330
1F
100
AcDbEntity
  8
0
  6
Continuous
 62
     7
370
    25
100
AcDbCircle
 10
512.3334508009
 20
485.2781693364
 30
0.0
 40
17.6000000000001
100
AcDbArc
 50
27.9531868834
 51
53.8290805082
  0
SPLINE
  5
A6
330
1F
100
AcDbEntity
  8
0
  6
Continuous
 62
     7
370
    25
100
AcDbSpline
210
0.0
220
0.0
230
1.0
 70
     8
 71
     3
 72
    26
 73
    22
 74
     0
 42
0.00000001
 43
0.00000001
 40
0.0
 40
0.0
 40
0.0
 40
0.0
 40
0.1250000000000003
 40
0.1250000000000003
 40
0.1875
 40
0.1875
 40
0.2499999999999997
 40
0.2499999999999997
 40
0.3749999999999996
 40
0.3749999999999996
 40
0.4374999999999996
 40
0.4374999999999996
 40
0.4999999999999997
 40
0.4999999999999997
 40
0.6249999999999998
 40
0.6249999999999998
 40
0.7499999999999998
 40
0.7499999999999998
 40
0.8749999999999999
 40
0.8749999999999999
 40
1.0
 40
1.0
 40
1.0
 40
1.0
 10
534.9467212410709
 20
492.4781693363942
 30
0.0
 10
535.3394963986722
 20
492.0340727933452
 30
0.0
 10
535.66343315627
 20
491.5410521070226
 30
0.0
 10
536.0543058487647
 20
490.7200880102667
 30
0.0
 10
536.1689819957425
 20
490.4318577765324
 30
0.0
 10
536.3659297567591
 20
489.8370465850498
 30
0.0
 10
536.44827073897
 20
489.5306982193623
 30
0.0
 10
536.6534728496639
 20
488.598144266178
 30
0.0
 10
536.7367023011609
 20
487.9539673109362
 30
0.0
 10
536.8148168356736
 20
486.9575548913195
 30
0.0
 10
536.8328301729317
 20
486.6207734576459
 30
0.0
 10
536.8561515890773
 20
485.9509048206783
 30
0.0
 10
536.8616177189828
 20
485.6161049270651
 30
0.0
 10
536.8617261266475
 20
484.6120959951385
 30
0.0
 10
536.8413857477323
 20
483.9413848794342
 30
0.0
 10
536.7375039871121
 20
482.6089507699917
 30
0.0
 10
536.6543464476313
 20
481.9636337518739
 30
0.0
 10
536.3812230451178
 20
480.7194806683634
 30
0.0
 10
536.1875054474507
 20
480.1169286934763
 30
0.0
 10
535.6643121850053
 20
479.0162253302864
 30
0.0
 10
535.3394242320251
 20
478.52218428323
 30
0.0
 10
534.9467212410796
 20
478.0781693363844
 30
0.0
  0
LWPOLYLINE
  5
A7
330
1F
100
AcDbEntity
  8
0
  6
Continuous
 62
     7
370
    25
100
AcDbPolyline
 90
        9
 70
   128
 43
0.0
 10
527.8800742285
 20
477.0281693364
 10
528.3025582947
 20
477.6043856292
 10
528.8962820955
 20
478.06910253
 10
529.6459436121
 20
478.4103429092
 10
530.5322218495
 20
478.619311993
 10
531.5322747957
 20
478.6906240297
 10
532.6203281278
 20
478.6224410973
 10
533.7683394926
 20
478.4165204716
 10
534.9467212411
 20
478.0781693364
  0
LWPOLYLINE
  5
A8
330
1F
100
AcDbEntity
  8
0
  6
Continuous
 62
     7
370
    25
100
AcDbPolyline
 90
        9
 70
   128
 43
0.0
 10
534.9467212411
 20
492.4781693364
 10
533.7683394926
 20
492.1398182011
 10
532.6203281278
 20
491.9338975755
 10
531.5322747957
 20
491.8657146431
 10
530.5322218495
 20
491.9370266798
 10
529.6459436121
 20
492.1459957636
 10
528.8962820955
 20
492.4872361428
 10
528.3025582947
 20
492.9519530435
 10
527.8800742285
 20
493.5281693364
  0
LWPOLYLINE
  5
A9
330
1F
100
AcDbEntity
  8
0
  6
Continuous
 62
     7
370
    25
100
AcDbPolyline
 90
        9
 70
   128
 43
0.0
 10
699.9868273733
 20
477.0281693364
 10
699.5643433071
 20
477.6043856292
 10
698.9706195064
 20
478.06910253
 10
698.2209579897
 20
478.4103429092
 10
697.3346797523
 20
478.619311993
 10
696.3346268061
 20
478.6906240297
 10
695.246573474
 20
478.6224410973
 10
694.0985621092
 20
478.4165204716
 10
692.9201803608
 20
478.0781693364
  0
SPLINE
  5
AA
330
1F
100
AcDbEntity
  8
0
  6
Continuous
 62
     7
370
    25
100
AcDbSpline
210
0.0
220
0.0
230
1.0
 70
     8
 71
     3
 72
    30
 73
    26
 74
     0
 42
0.00000001
 43
0.00000001
 40
0.0
 40
0.0
 40
0.0
 40
0.0
 40
0.1250000000000007
 40
0.1250000000000007
 40
0.1875000000000002
 40
0.1875000000000002
 40
0.2499999999999997
 40
0.2499999999999997
 40
0.3749999999999995
 40
0.3749999999999995
 40
0.4999999999999993
 40
0.4999999999999993
 40
0.5624999999999992
 40
0.5624999999999992
 40
0.6249999999999991
 40
0.6249999999999991
 40
0.7499999999999992
 40
0.7499999999999992
 40
0.8124999999999994
 40
0.8124999999999994
 40
0.8749999999999997
 40
0.8749999999999997
 40
0.9374999999999999
 40
0.9374999999999999
 40
1.0
 40
1.0
 40
1.0
 40
1.0
 10
692.9201803607511
 20
478.0781693363845
 30
0.0
 10
692.52706773267
 20
478.5226474449965
 30
0.0
 10
692.2019121735887
 20
479.0172559766418
 30
0.0
 10
691.8093054529592
 20
479.8438211832661
 30
0.0
 10
691.6956245955057
 20
480.131030987854
 30
0.0
 10
691.5012673383582
 20
480.7187847722106
 30
0.0
 10
691.4199088063364
 20
481.020723082939
 30
0.0
 10
691.2149177648984
 20
481.949672967028
 30
0.0
 10
691.1298658920864
 20
482.6044319939293
 30
0.0
 10
691.0255819729687
 20
483.9390568597297
 30
0.0
 10
691.0052192626008
 20
484.6096443688619
 30
0.0
 10
691.0052617652569
 20
485.6143511730803
 30
0.0
 10
691.0107132880808
 20
485.9493838708061
 30
0.0
 10
691.0340185347209
 20
486.6197184683079
 30
0.0
 10
691.0520302943426
 20
486.9567344879932
 30
0.0
 10
691.1301711359076
 20
487.9538588619
 30
0.0
 10
691.2134553732644
 20
488.5984830480602
 30
0.0
 10
691.4188663246797
 20
489.5316591921817
 30
0.0
 10
691.5015294547591
 20
489.8388628883628
 30
0.0
 10
691.6980470019864
 20
490.4321098289602
 30
0.0
 10
691.8111323646865
 20
490.716445397115
 30
0.0
 10
692.0699019443832
 20
491.2610762256138
 30
0.0
 10
692.2155786874333
 20
491.5213728533935
 30
0.0
 10
692.5420736267404
 20
492.0185049393531
 30
0.0
 10
692.7235374200802
 20
492.2558323365084
 30
0.0
 10
692.9201803607506
 20
492.4781693363848
 30
0.0
  0
LWPOLYLINE
  5
AB
330
1F
100
AcDbEntity
  8
0
  6
Continuous
 62
     7
370
    25
100
AcDbPolyline
 90
        9
 70
   128
 43
0.0
 10
692.9201803608
 20
492.4781693364
 10
694.0985621092
 20
492.1398182011
 10
695.246573474
 20
491.9338975754
 10
696.3346268061
 20
491.865714643
 10
697.3346797523
 20
491.9370266798
 10
698.2209579897
 20
492.1459957635
 10
698.9706195064
 20
492.4872361428
 10
699.5643433071
 20
492.9519530435
 10
699.9868273733
 20
493.5281693364
  0
CIRCLE
  5
AC
330
1F
100
AcDbEntity
  8
0
  6
Continuous
 62
     7
370
    25
100
AcDbCircle
 10
613.9334508009
 20
485.2781693364
 30
0.0
 40
6.0
  0
CIRCLE
  5
AD
330
1F
100
AcDbEntity
  8
0
  6
Continuous
 62
     7
370
    25
100
AcDbCircle
 10
715.5334508009
 20
485.2781693364
 30
0.0
 40
5.328914336627577
  0
CIRCLE
  5
AE
330
1F
100
AcDbEntity
  8
0
  6
Continuous
 62
     7
370
    25
100
AcDbCircle
 10
715.5334508009
 20
485.2781693364
 30
0.0
 40
5.074569253689162
  0
CIRCLE
  5
AF
330
1F
100
AcDbEntity
  8
0
  6
Continuous
 62
     7
370
    25
100
AcDbCircle
 10
715.5334508009
 20
485.2781693364
 30
0.0
 40
5.925127771161385
  0
CIRCLE
  5
B0
330
1F
100
AcDbEntity
  8
0
  6
Continuous
 62
     7
370
    25
100
AcDbCircle
 10
715.5334508009
 20
485.2781693364
 30
0.0
 40
7.149999999999977
  0
LINE
  5
B1
330
1F
100
AcDbEntity
  8
0
  6
Continuous
 62
     7
370
    25
100
AcDbLine
 10
513.4968084103
 20
482.8767949231
 30
0.0
 11
512.3268778417
 21
482.6098446192
 31
0.0
  0
LINE
  5
B2
330
1F
100
AcDbEntity
  8
0
  6
Continuous
 62
     7
370
    25
100
AcDbLine
 10
513.2187351771
 20
484.0954725987
 30
0.0
 11
513.4968084103
 21
482.8767949231
 31
0.0
  0
LINE
  5
B3
330
1F
100
AcDbEntity
  8
0
  6
Continuous
 62
     7
370
    25
100
AcDbLine
 10
515.0017755181
 20
485.2715963772
 30
0.0
 11
513.7830978425
 21
484.993523144
 31
0.0
  0
LINE
  5
B4
330
1F
100
AcDbEntity
  8
0
  6
Continuous
 62
     7
370
    25
100
AcDbLine
 10
514.7348252142
 20
486.4415269458
 30
0.0
 11
515.0017755181
 21
485.2715963772
 31
0.0
  0
LINE
  5
B5
330
1F
100
AcDbEntity
  8
0
  6
Continuous
 62
     7
370
    25
100
AcDbLine
 10
513.5161475386
 20
486.1634537125
 30
0.0
 11
514.7348252142
 21
486.4415269458
 31
0.0
  0
LINE
  5
B6
330
1F
100
AcDbEntity
  8
0
  6
Continuous
 62
     7
370
    25
100
AcDbLine
 10
512.3400237601
 20
487.9464940535
 30
0.0
 11
512.6180969933
 21
486.727816378
 31
0.0
  0
LINE
  5
B7
330
1F
100
AcDbEntity
  8
0
  6
Continuous
 62
     7
370
    25
100
AcDbLine
 10
511.1700931915
 20
487.6795437496
 30
0.0
 11
512.3400237601
 21
487.9464940535
 31
0.0
  0
LINE
  5
B8
330
1F
100
AcDbEntity
  8
0
  6
Continuous
 62
     7
370
    25
100
AcDbLine
 10
511.4481664248
 20
486.4608660741
 30
0.0
 11
511.1700931915
 21
487.6795437496
 31
0.0
  0
LINE
  5
B9
330
1F
100
AcDbEntity
  8
0
  6
Continuous
 62
     7
370
    25
100
AcDbLine
 10
509.6651260838
 20
485.2847422956
 30
0.0
 11
510.8838037593
 21
485.5628155288
 31
0.0
  0
LINE
  5
BA
330
1F
100
AcDbEntity
  8
0
  6
Continuous
 62
     7
370
    25
100
AcDbLine
 10
509.9320763877
 20
484.114811727
 30
0.0
 11
509.6651260838
 21
485.2847422956
 31
0.0
  0
LINE
  5
BB
330
1F
100
AcDbEntity
  8
0
  6
Continuous
 62
     7
370
    25
100
AcDbLine
 10
511.1507540632
 20
484.3928849602
 30
0.0
 11
509.9320763877
 21
484.114811727
 31
0.0
  0
LINE
  5
BC
330
1F
100
AcDbEntity
  8
0
  6
Continuous
 62
     7
370
    25
100
AcDbLine
 10
512.3268778417
 20
482.6098446192
 30
0.0
 11
512.0488046085
 21
483.8285222948
 31
0.0
  0
CIRCLE
  5
BD
330
1F
100
AcDbEntity
  8
0
  6
Continuous
 62
     7
370
    25
100
AcDbCircle
 10
512.3334508009
 20
485.2781693364
 30
0.0
 40
4.197433366238932
  0
SPLINE
  5
BE
330
1F
100
AcDbEntity
  8
0
  6
Continuous
 62
     7
370
    25
100
AcDbSpline
210
0.0
220
0.0
230
1.0
 70
     8
 71
     3
 72
    12
 73
     8
 74
     0
 42
0.00000001
 43
0.00000001
 40
0.0
 40
0.0
 40
0.0
 40
0.0
 40
0.213353439547612
 40
0.426791931363448
 40
0.63835397390915
 40
0.8490950351927569
 40
1.0
 40
1.0
 40
1.0
 40
1.0
 10
510.8838037593374
 20
485.5628155287785
 30
0.0
 10
510.9634031102663
 20
485.5892879912409
 30
0.0
 10
511.1226335440026
 20
485.6422434692788
 30
0.0
 10
511.3125199612695
 20
485.8162466044096
 30
0.0
 10
511.4356813479914
 20
486.0365594978648
 30
0.0
 10
511.479087604801
 20
486.262862281048
 30
0.0
 10
511.4572702206071
 20
486.402569912419
 30
0.0
 10
511.4481664247504
 20
486.4608660740642
 30
0.0
  0
SPLINE
  5
BF
330
1F
100
AcDbEntity
  8
0
  6
Continuous
 62
     7
370
    25
100
AcDbSpline
210
0.0
220
0.0
230
1.0
 70
     8
 71
     3
 72
    12
 73
     8
 74
     0
 42
0.00000001
 43
0.00000001
 40
0.0
 40
0.0
 40
0.0
 40
0.0
 40
0.2133534395476159
 40
0.4267919313634425
 40
0.6383539739091564
 40
0.849095035192758
 40
1.0
 40
1.0
 40
1.0
 40
1.0
 10
512.6180969933093
 20
486.7278163779624
 30
0.0
 10
512.6445694557717
 20
486.6482170270334
 30
0.0
 10
512.6975249338097
 20
486.4889865932972
 30
0.0
 10
512.8715280689405
 20
486.2991001760303
 30
0.0
 10
513.0918409623956
 20
486.1759387893083
 30
0.0
 10
513.3181437455788
 20
486.1325325324988
 30
0.0
 10
513.4578513769497
 20
486.1543499166926
 30
0.0
 10
513.516147538595
 20
486.1634537125494
 30
0.0
  0
SPLINE
  5
C0
330
1F
100
AcDbEntity
  8
0
  6
Continuous
 62
     7
370
    25
100
AcDbSpline
210
0.0
220
0.0
230
1.0
 70
     8
 71
     3
 72
    12
 73
     8
 74
     0
 42
0.00000001
 43
0.00000001
 40
0.0
 40
0.0
 40
0.0
 40
0.0
 40
0.2133534395476119
 40
0.4267919313634478
 40
0.6383539739091497
 40
0.849095035192757
 40
0.9999999999999999
 40
0.9999999999999999
 40
0.9999999999999999
 40
0.9999999999999999
 10
513.7830978424932
 20
484.9935231439904
 30
0.0
 10
513.7034984915641
 20
484.967050681528
 30
0.0
 10
513.544268057828
 20
484.9140952034901
 30
0.0
 10
513.3543816405611
 20
484.7400920683593
 30
0.0
 10
513.2312202538392
 20
484.5197791749042
 30
0.0
 10
513.1878139970296
 20
484.293476391721
 30
0.0
 10
513.2096313812234
 20
484.1537687603499
 30
0.0
 10
513.2187351770802
 20
484.0954725987047
 30
0.0
  0
SPLINE
  5
C1
330
1F
100
AcDbEntity
  8
0
  6
Continuous
 62
     7
370
    25
100
AcDbSpline
210
0.0
220
0.0
230
1.0
 70
     8
 71
     3
 72
    12
 73
     8
 74
     0
 42
0.00000001
 43
0.00000001
 40
0.0
 40
0.0
 40
0.0
 40
0.0
 40
0.2133534395476155
 40
0.4267919313634422
 40
0.6383539739091563
 40
0.8490950351927579
 40
0.9999999999999999
 40
0.9999999999999999
 40
0.9999999999999999
 40
0.9999999999999999
 10
512.0488046085212
 20
483.8285222948065
 30
0.0
 10
512.0223321460588
 20
483.9081216457355
 30
0.0
 10
511.9693766680209
 20
484.0673520794717
 30
0.0
 10
511.7953735328902
 20
484.2572384967386
 30
0.0
 10
511.5750606394349
 20
484.3803998834606
 30
0.0
 10
511.3487578562518
 20
484.4238061402702
 30
0.0
 10
511.2090502248809
 20
484.4019887560763
 30
0.0
 10
511.1507540632356
 20
484.3928849602195
 30
0.0
  0
CIRCLE
  5
C2
330
1F
100
AcDbEntity
  8
0
  6
Continuous
 62
     7
370
    25
100
AcDbCircle
 10
512.3334508009
 20
485.2781693364
 30
0.0
 40
4.500000000000044
  0
LINE
  5
C3
330
1F
100
AcDbEntity
  8
0
  6
Continuous
 62
     7
370
    25
100
AcDbLine
 10
715.5268778417
 20
487.9464940535
 30
0.0
 11
716.6968084103
 21
487.6795437496
 31
0.0
  0
LINE
  5
C4
330
1F
100
AcDbEntity
  8
0
  6
Continuous
 62
     7
370
    25
100
AcDbLine
 10
715.2488046085
 20
486.727816378
 30
0.0
 11
715.5268778417
 21
487.9464940535
 31
0.0
  0
SPLINE
  5
C5
330
1F
100
AcDbEntity
  8
0
  6
Continuous
 62
     7
370
    25
100
AcDbSpline
210
0.0
220
0.0
230
1.0
 70
     8
 71
     3
 72
    12
 73
     8
 74
     0
 42
0.00000001
 43
0.00000001
 40
0.0
 40
0.0
 40
0.0
 40
0.0
 40
0.2133534395476135
 40
0.4267919313634461
 40
0.638353973909149
 40
0.8490950351927548
 40
0.9999999999999999
 40
0.9999999999999999
 40
0.9999999999999999
 40
0.9999999999999999
 10
714.3507540632356
 20
486.1634537125494
 30
0.0
 10
714.4339579373897
 20
486.1527783548082
 30
0.0
 10
714.6003988545008
 20
486.1314233836485
 30
0.0
 10
714.8469682201677
 20
486.2058376995593
 30
0.0
 10
715.0535044227142
 20
486.3509214520593
 30
0.0
 10
715.1907775363017
 20
486.5359975042451
 30
0.0
 10
715.231720311648
 20
486.671341176662
 30
0.0
 10
715.2488046085214
 20
486.7278163779624
 30
0.0
  0
LINE
  5
C6
330
1F
100
AcDbEntity
  8
0
  6
Continuous
 62
     7
370
    25
100
AcDbLine
 10
713.1320763877
 20
486.4415269458
 30
0.0
 11
714.3507540632
 21
486.1634537125
 31
0.0
  0
LINE
  5
C7
330
1F
100
AcDbEntity
  8
0
  6
Continuous
 62
     7
370
    25
100
AcDbLine
 10
712.8651260838
 20
485.2715963772
 30
0.0
 11
713.1320763877
 21
486.4415269458
 31
0.0
  0
LINE
  5
C8
330
1F
100
AcDbEntity
  8
0
  6
Continuous
 62
     7
370
    25
100
AcDbLine
 10
714.0838037593
 20
484.993523144
 30
0.0
 11
712.8651260838
 21
485.2715963772
 31
0.0
  0
LINE
  5
C9
330
1F
100
AcDbEntity
  8
0
  6
Continuous
 62
     7
370
    25
100
AcDbLine
 10
714.3700931915
 20
482.8767949231
 30
0.0
 11
714.6481664248
 21
484.0954725987
 31
0.0
  0
LINE
  5
CA
330
1F
100
AcDbEntity
  8
0
  6
Continuous
 62
     7
370
    25
100
AcDbLine
 10
715.5400237601
 20
482.6098446192
 30
0.0
 11
714.3700931915
 21
482.8767949231
 31
0.0
  0
LINE
  5
CB
330
1F
100
AcDbEntity
  8
0
  6
Continuous
 62
     7
370
    25
100
AcDbLine
 10
715.8180969933
 20
483.8285222948
 30
0.0
 11
715.5400237601
 21
482.6098446192
 31
0.0
  0
LINE
  5
CC
330
1F
100
AcDbEntity
  8
0
  6
Continuous
 62
     7
370
    25
100
AcDbLine
 10
717.9348252142
 20
484.114811727
 30
0.0
 11
716.7161475386
 21
484.3928849602
 31
0.0
  0
LINE
  5
CD
330
1F
100
AcDbEntity
  8
0
  6
Continuous
 62
     7
370
    25
100
AcDbLine
 10
718.2017755181
 20
485.2847422956
 30
0.0
 11
717.9348252142
 21
484.114811727
 31
0.0
  0
LINE
  5
CE
330
1F
100
AcDbEntity
  8
0
  6
Continuous
 62
     7
370
    25
100
AcDbLine
 10
716.9830978425
 20
485.5628155288
 30
0.0
 11
718.2017755181
 21
485.2847422956
 31
0.0
  0
SPLINE
  5
CF
330
1F
100
AcDbEntity
  8
0
  6
Continuous
 62
     7
370
    25
100
AcDbSpline
210
0.0
220
0.0
230
1.0
 70
     8
 71
     3
 72
    12
 73
     8
 74
     0
 42
0.00000001
 43
0.00000001
 40
0.0
 40
0.0
 40
0.0
 40
0.0
 40
0.2133534395476131
 40
0.4267919313634476
 40
0.6383539739091537
 40
0.8490950351927532
 40
1.0
 40
1.0
 40
1.0
 40
1.0
 10
716.4187351770803
 20
486.4608660740642
 30
0.0
 10
716.4080598193391
 20
486.3776621999101
 30
0.0
 10
716.3867048481794
 20
486.211221282799
 30
0.0
 10
716.4611191640902
 20
485.9646519171322
 30
0.0
 10
716.6062029165902
 20
485.7581157145856
 30
0.0
 10
716.791278968776
 20
485.6208426009981
 30
0.0
 10
716.9266226411929
 20
485.5798998256518
 30
0.0
 10
716.9830978424933
 20
485.5628155287785
 30
0.0
  0
LINE
  5
D0
330
1F
100
AcDbEntity
  8
0
  6
Continuous
 62
     7
370
    25
100
AcDbLine
 10
716.6968084103
 20
487.6795437496
 30
0.0
 11
716.4187351771
 21
486.4608660741
 31
0.0
  0
CIRCLE
  5
D1
330
1F
100
AcDbEntity
  8
0
  6
Continuous
 62
     7
370
    25
100
AcDbCircle
 10
715.5334508009
 20
485.2781693364
 30
0.0
 40
4.197433366238932
  0
SPLINE
  5
D2
330
1F
100
AcDbEntity
  8
0
  6
Continuous
 62
     7
370
    25
100
AcDbSpline
210
0.0
220
0.0
230
1.0
 70
     8
 71
     3
 72
    12
 73
     8
 74
     0
 42
0.00000001
 43
0.00000001
 40
0.0
 40
0.0
 40
0.0
 40
0.0
 40
0.2133534395476136
 40
0.4267919313634463
 40
0.6383539739091494
 40
0.8490950351927551
 40
1.0
 40
1.0
 40
1.0
 40
1.0
 10
716.716147538595
 20
484.3928849602195
 30
0.0
 10
716.6329436644411
 20
484.4035603179607
 30
0.0
 10
716.46650274733
 20
484.4249152891204
 30
0.0
 10
716.2199333816632
 20
484.3505009732096
 30
0.0
 10
716.0133971791166
 20
484.2054172207096
 30
0.0
 10
715.876124065529
 20
484.0203411685238
 30
0.0
 10
715.8351812901826
 20
483.8849974961069
 30
0.0
 10
715.8180969933094
 20
483.8285222948065
 30
0.0
  0
SPLINE
  5
D3
330
1F
100
AcDbEntity
  8
0
  6
Continuous
 62
     7
370
    25
100
AcDbSpline
210
0.0
220
0.0
230
1.0
 70
     8
 71
     3
 72
    12
 73
     8
 74
     0
 42
0.00000001
 43
0.00000001
 40
0.0
 40
0.0
 40
0.0
 40
0.0
 40
0.2133534395476132
 40
0.4267919313634478
 40
0.638353973909154
 40
0.8490950351927532
 40
1.0
 40
1.0
 40
1.0
 40
1.0
 10
714.6481664247505
 20
484.0954725987047
 30
0.0
 10
714.6588417824917
 20
484.1786764728587
 30
0.0
 10
714.6801967536513
 20
484.3451173899699
 30
0.0
 10
714.6057824377406
 20
484.5916867556367
 30
0.0
 10
714.4606986852405
 20
484.7982229581833
 30
0.0
 10
714.2756226330547
 20
484.9354960717708
 30
0.0
 10
714.1402789606378
 20
484.9764388471172
 30
0.0
 10
714.0838037593375
 20
484.9935231439904
 30
0.0
  0
CIRCLE
  5
D4
330
1F
100
AcDbEntity
  8
0
  6
Continuous
 62
     7
370
    25
100
AcDbCircle
 10
715.5334508009
 20
485.2781693364
 30
0.0
 40
4.500000000000044
  0
SPLINE
  5
D5
330
1F
100
AcDbEntity
  8
0
  6
Continuous
 62
     7
370
    25
100
AcDbSpline
210
0.0
220
0.0
230
1.0
 70
     8
 71
     3
 72
    11
 73
     7
 74
     0
 42
0.00000001
 43
0.00000001
 40
0.0
 40
0.0
 40
0.0
 40
0.0
 40
0.2200386424382255
 40
0.6637869905998169
 40
0.8890365590789576
 40
1.0
 40
1.0
 40
1.0
 40
1.0
 10
505.6558606563234
 20
479.5032723182618
 30
0.0
 10
505.4516391933219
 20
479.7682909295206
 30
0.0
 10
504.8355676304383
 20
480.5677682598254
 30
0.0
 10
504.3120182794212
 20
481.8309375303532
 30
0.0
 10
504.06038907966
 20
482.9975073436773
 30
0.0
 10
504.0810962743823
 20
483.5087871423368
 30
0.0
 10
504.0879304584084
 20
483.6775294698091
 30
0.0
  0
SPLINE
  5
D6
330
1F
100
AcDbEntity
  8
0
  6
Continuous
 62
     7
370
    25
100
AcDbSpline
210
0.0
220
0.0
230
1.0
 70
     8
 71
     3
 72
     9
 73
     5
 74
     0
 42
0.00000001
 43
0.00000001
 40
0.0
 40
0.0
 40
0.0
 40
0.0
 40
0.9209630919903056
 40
1.0
 40
1.0
 40
1.0
 40
1.0
 10
504.0158182930761
 20
479.8235955938954
 30
0.0
 10
504.5302398309489
 20
479.7667685349768
 30
0.0
 10
505.0888089444637
 20
479.7050645867807
 30
0.0
 10
505.614325456133
 20
479.5180531258928
 30
0.0
 10
505.6558606563234
 20
479.5032723182618
 30
0.0
  0
SPLINE
  5
D7
330
1F
100
AcDbEntity
  8
0
  6
Continuous
 62
     7
370
    25
100
AcDbSpline
210
0.0
220
0.0
230
1.0
 70
     8
 71
     3
 72
    10
 73
     6
 74
     0
 42
0.00000001
 43
0.00000001
 40
0.0
 40
0.0
 40
0.0
 40
0.0
 40
0.2596150688488836
 40
0.629760644481066
 40
0.9999999999999999
 40
0.9999999999999999
 40
0.9999999999999999
 40
0.9999999999999999
 10
456.8406573391389
 20
482.4151531628845
 30
0.0
 10
460.9184775578619
 20
482.115399025786
 30
0.0
 10
470.8102403912272
 20
481.3882711306219
 30
0.0
 10
486.5398130739003
 20
480.5624242607317
 30
0.0
 10
498.1899913351651
 20
480.0698926114661
 30
0.0
 10
504.0158182930761
 20
479.8235955938954
 30
0.0
  0
SPLINE
  5
D8
330
1F
100
AcDbEntity
  8
0
  6
Continuous
 62
     7
370
    25
100
AcDbSpline
210
0.0
220
0.0
230
1.0
 70
     8
 71
     3
 72
    11
 73
     7
 74
     0
 42
0.00000001
 43
0.00000001
 40
0.0
 40
0.0
 40
0.0
 40
0.0
 40
0.061464119541392
 40
0.4999988937835378
 40
0.9375097801832794
 40
1.0
 40
1.0
 40
1.0
 40
1.0
 10
456.8406573391391
 20
488.1411855098864
 30
0.0
 10
456.8289881429367
 20
488.0247285374343
 30
0.0
 10
456.7340614566673
 20
487.0773732701031
 30
0.0
 10
456.6503586294012
 20
485.2801290716549
 30
0.0
 10
456.7339285529212
 20
483.480931047414
 30
0.0
 10
456.8288002579666
 20
482.533556222981
 30
0.0
 10
456.8406573391389
 20
482.4151531628845
 30
0.0
  0
SPLINE
  5
D9
330
1F
100
AcDbEntity
  8
0
  6
Continuous
 62
     7
370
    25
100
AcDbSpline
210
0.0
220
0.0
230
1.0
 70
     8
 71
     3
 72
    11
 73
     7
 74
     0
 42
0.00000001
 43
0.00000001
 40
0.0
 40
0.0
 40
0.0
 40
0.0
 40
0.259458927729189
 40
0.6296002946237427
 40
0.8147836738016297
 40
1.0
 40
1.0
 40
1.0
 40
1.0
 10
504.0158182930761
 20
490.7327430788736
 30
0.0
 10
499.9328176437311
 20
490.5672444924526
 30
0.0
 10
490.0250513769266
 20
490.1656473700011
 30
0.0
 10
477.2099144179656
 20
489.4873945539777
 30
0.0
 10
465.5656421517061
 20
488.8099736617656
 30
0.0
 10
459.7491580685735
 20
488.3641281131533
 30
0.0
 10
456.8406573391391
 20
488.1411855098864
 30
0.0
  0
SPLINE
  5
DA
330
1F
100
AcDbEntity
  8
0
  6
Continuous
 62
     7
370
    25
100
AcDbSpline
210
0.0
220
0.0
230
1.0
 70
     8
 71
     3
 72
     9
 73
     5
 74
     0
 42
0.00000001
 43
0.00000001
 40
0.0
 40
0.0
 40
0.0
 40
0.0
 40
0.0790369080192139
 40
1.0
 40
1.0
 40
1.0
 40
1.0
 10
505.6558606563226
 20
491.0530663545069
 30
0.0
 10
505.6143254561273
 20
491.0382855468742
 30
0.0
 10
505.0888089444581
 20
490.8512740859863
 30
0.0
 10
504.5302398309435
 20
490.789570137791
 30
0.0
 10
504.0158182930761
 20
490.7327430788736
 30
0.0
  0
SPLINE
  5
DB
330
1F
100
AcDbEntity
  8
0
  6
Continuous
 62
     7
370
    25
100
AcDbSpline
210
0.0
220
0.0
230
1.0
 70
     8
 71
     3
 72
    11
 73
     7
 74
     0
 42
0.00000001
 43
0.00000001
 40
0.0
 40
0.0
 40
0.0
 40
0.0
 40
0.0728838064943292
 40
0.4140719411596029
 40
0.9209668754550567
 40
1.0
 40
1.0
 40
1.0
 40
1.0
 10
504.0879304584121
 20
486.878809202945
 30
0.0
 10
504.0802153092745
 20
486.989255637184
 30
0.0
 10
504.03638353191
 20
487.616730677515
 30
0.0
 10
504.380875243348
 20
488.9997227079801
 30
0.0
 10
505.0205645928345
 20
490.2696542257576
 30
0.0
 10
505.5803533422671
 20
490.9599548919306
 30
0.0
 10
505.6558606563226
 20
491.0530663545069
 30
0.0
  0
SPLINE
  5
DC
330
1F
100
AcDbEntity
  8
0
  6
Continuous
 62
     7
370
    25
100
AcDbSpline
210
0.0
220
0.0
230
1.0
 70
     8
 71
     3
 72
    10
 73
     6
 74
     0
 42
0.00000001
 43
0.00000001
 40
0.0
 40
0.0
 40
0.0
 40
0.0
 40
0.3880207377811389
 40
0.979063776650686
 40
1.0
 40
1.0
 40
1.0
 40
1.0
 10
504.0879304584085
 20
483.6775294698091
 30
0.0
 10
504.1612449891678
 20
484.0883693316648
 30
0.0
 10
504.3462340744911
 20
485.1250109015131
 30
0.0
 10
504.2505271486601
 20
486.2187802230844
 30
0.0
 10
504.0933089974122
 20
486.8569760918039
 30
0.0
 10
504.0879304584121
 20
486.878809202945
 30
0.0
  0
ARC
  5
DD
330
1F
100
AcDbEntity
  8
0
  6
Continuous
 62
     7
370
    25
100
AcDbCircle
 10
512.3334508009
 20
485.2781693364
 30
0.0
 40
8.399443654264516
100
AcDbArc
 50
190.985757993
 51
169.0142420071
  0
SPLINE
  5
DE
330
1F
100
AcDbEntity
  8
0
  6
Continuous
 62
     7
370
    25
100
AcDbSpline
210
0.0
220
0.0
230
1.0
 70
     8
 71
     3
 72
     9
 73
     5
 74
     0
 42
0.00000001
 43
0.00000001
 40
0.0
 40
0.0
 40
0.0
 40
0.0
 40
0.6817923421274312
 40
1.0
 40
1.0
 40
1.0
 40
1.0
 10
505.6558606563226
 20
491.0530663545069
 30
0.0
 10
505.7981242169657
 20
491.242976709612
 30
0.0
 10
506.0067853471261
 20
491.5215224534855
 30
0.0
 10
506.2362111810065
 20
491.7544268264286
 30
0.0
 10
506.309216238261
 20
491.8285387814511
 30
0.0
  0
ARC
  5
DF
330
1F
100
AcDbEntity
  8
0
  6
Continuous
 62
     7
370
    25
100
AcDbCircle
 10
512.3334508009
 20
485.2781693364
 30
0.0
 40
8.899367501836373
100
AcDbArc
 50
227.3959191961
 51
132.6040808039
  0
LINE
  5
E0
330
1F
100
AcDbEntity
  8
0
  6
Continuous
 62
     7
370
    25
100
AcDbLine
 10
506.3092162383
 20
478.7277998913
 30
0.0
 11
505.6558606563
 21
479.5032723183
 31
0.0
  0
SPLINE
  5
E1
330
1F
100
AcDbEntity
  8
0
  6
Continuous
 62
     7
370
    25
100
AcDbSpline
210
0.0
220
0.0
230
1.0
 70
     8
 71
     3
 72
    10
 73
     6
 74
     0
 42
0.00000001
 43
0.00000001
 40
0.0
 40
0.0
 40
0.0
 40
0.0
 40
0.3702896688583046
 40
0.7405318123903298
 40
0.9999999999999999
 40
0.9999999999999999
 40
0.9999999999999999
 40
0.9999999999999999
 10
456.8291378759606
 20
488.5840450907196
 30
0.0
 10
462.649201722179
 20
488.9042361052459
 30
0.0
 10
474.2885824306827
 20
489.5445770389514
 30
0.0
 10
490.0074508374573
 20
490.4138113708148
 30
0.0
 10
499.9046246534672
 20
490.9625523724239
 30
0.0
 10
503.9826929739313
 20
491.1886576562558
 30
0.0
  0
ARC
  5
E2
330
1F
100
AcDbEntity
  8
0
  6
Continuous
 62
     7
370
    25
100
AcDbCircle
 10
496.7676037667
 20
490.4352712896
 30
0.0
 40
7.254316183202814
100
AcDbArc
 50
2.3501399448
 51
5.9611177314
  0
ARC
  5
E3
330
1F
100
AcDbEntity
  8
0
  6
Continuous
 62
     7
370
    25
100
AcDbCircle
 10
461.0896604172
 20
488.4732882667
 30
0.0
 40
4.261961918899079
100
AcDbArc
 50
178.5108705387
 51
184.4691613065
  0
SPLINE
  5
E4
330
1F
100
AcDbEntity
  8
0
  6
Continuous
 62
     7
370
    25
100
AcDbSpline
210
0.0
220
0.0
230
1.0
 70
     8
 71
     3
 72
    10
 73
     6
 74
     0
 42
0.00000001
 43
0.00000001
 40
0.0
 40
0.0
 40
0.0
 40
0.0
 40
0.3702717503651152
 40
0.7405122151371749
 40
1.0
 40
1.0
 40
1.0
 40
1.0
 10
503.9826929739314
 20
479.3676810165132
 30
0.0
 10
498.1630209122621
 20
479.6902095021812
 30
0.0
 10
486.5241685139653
 20
480.3352392219242
 30
0.0
 10
470.8050289300106
 20
481.2040537094032
 30
0.0
 10
460.907531506312
 20
481.74810862017
 30
0.0
 10
456.829137875964
 20
481.9722935820491
 30
0.0
  0
ARC
  5
E5
330
1F
100
AcDbEntity
  8
0
  6
Continuous
 62
     7
370
    25
100
AcDbCircle
 10
461.0896604201
 20
482.083050406
 30
0.0
 40
4.261961921795193
100
AcDbArc
 50
175.530838696
 51
181.4891294598
  0
ARC
  5
E6
330
1F
100
AcDbEntity
  8
0
  6
Continuous
 62
     7
370
    25
100
AcDbCircle
 10
496.7676037665
 20
480.1210673832
 30
0.0
 40
7.254316183425112
100
AcDbArc
 50
354.0388822687
 51
357.6498600551
  0
SPLINE
  5
E7
330
1F
100
AcDbEntity
  8
0
  6
Continuous
 62
     7
370
    25
100
AcDbSpline
210
0.0
220
0.0
230
1.0
 70
     8
 71
     3
 72
    12
 73
     8
 74
     0
 42
0.00000001
 43
0.00000001
 40
0.0
 40
0.0
 40
0.0
 40
0.0
 40
0.1224290494151349
 40
0.3423522449770471
 40
0.5614228816909413
 40
0.7807229538533572
 40
1.0
 40
1.0
 40
1.0
 40
1.0
 10
454.9049299062914
 20
482.5258275325407
 30
0.0
 10
454.9139339821554
 20
482.5234688480998
 30
0.0
 10
454.9391123658864
 20
482.516873183775
 30
0.0
 10
455.1551000495312
 20
482.4998652160358
 30
0.0
 10
455.5909981792602
 20
482.4743542418813
 30
0.0
 10
456.1749237926904
 20
482.4448020593221
 30
0.0
 10
456.6187539242586
 20
482.425035782443
 30
0.0
 10
456.8406573391389
 20
482.4151531628845
 30
0.0
  0
SPLINE
  5
E8
330
1F
100
AcDbEntity
  8
0
  6
Continuous
 62
     7
370
    25
100
AcDbSpline
210
0.0
220
0.0
230
1.0
 70
     8
 71
     3
 72
    11
 73
     7
 74
     0
 42
0.00000001
 43
0.00000001
 40
0.0
 40
0.0
 40
0.0
 40
0.0
 40
0.0800485240044433
 40
0.5000005853538798
 40
0.9209248322279645
 40
1.0
 40
1.0
 40
1.0
 40
1.0
 10
454.9049299062914
 20
482.5258275325407
 30
0.0
 10
454.9052161507055
 20
482.6720719576413
 30
0.0
 10
454.9070040959101
 20
483.5855466164744
 30
0.0
 10
454.9082397927401
 20
485.2799562042329
 30
0.0
 10
454.9070020946452
 20
486.9725830560876
 30
0.0
 10
454.9052128726772
 20
487.8860464317315
 30
0.0
 10
454.9049299062913
 20
488.0305111402227
 30
0.0
  0
SPLINE
  5
E9
330
1F
100
AcDbEntity
  8
0
  6
Continuous
 62
     7
370
    25
100
AcDbSpline
210
0.0
220
0.0
230
1.0
 70
     8
 71
     3
 72
    12
 73
     8
 74
     0
 42
0.00000001
 43
0.00000001
 40
0.0
 40
0.0
 40
0.0
 40
0.0
 40
0.1130367476169362
 40
0.3328594693548023
 40
0.5544127937945006
 40
0.7774207483513244
 40
1.0
 40
1.0
 40
1.0
 40
1.0
 10
456.8406573391391
 20
488.1411855098864
 30
0.0
 10
456.7265864991522
 20
488.136170264185
 30
0.0
 10
456.3906819365442
 20
488.1214018631291
 30
0.0
 10
455.8566140801495
 20
488.0958096590199
 30
0.0
 10
455.3400884422624
 20
488.0679343961488
 30
0.0
 10
454.9831937251079
 20
488.0444925225583
 30
0.0
 10
454.9310011075895
 20
488.0351686107987
 30
0.0
 10
454.9049299062913
 20
488.0305111402227
 30
0.0
  0
SPLINE
  5
EA
330
1F
100
AcDbEntity
  8
0
  6
Continuous
 62
     7
370
    25
100
AcDbSpline
210
0.0
220
0.0
230
1.0
 70
     8
 71
     3
 72
     9
 73
     5
 74
     0
 42
0.00000001
 43
0.00000001
 40
0.0
 40
0.0
 40
0.0
 40
0.0
 40
0.500010612381544
 40
1.0
 40
1.0
 40
1.0
 40
1.0
 10
506.8088240871039
 20
478.2959682020715
 30
0.0
 10
506.3791027202831
 20
478.5838087401648
 30
0.0
 10
505.5196782277225
 20
479.1594775979163
 30
0.0
 10
504.4950141424442
 20
479.2982808590031
 30
0.0
 10
503.9826929739314
 20
479.3676810165132
 30
0.0
  0
SPLINE
  5
EB
330
1F
100
AcDbEntity
  8
0
  6
Continuous
 62
     7
370
    25
100
AcDbSpline
210
0.0
220
0.0
230
1.0
 70
     8
 71
     3
 72
     9
 73
     5
 74
     0
 42
0.00000001
 43
0.00000001
 40
0.0
 40
0.0
 40
0.0
 40
0.0
 40
0.9838702326459385
 40
1.0
 40
1.0
 40
1.0
 40
1.0
 10
506.309216238261
 20
478.7277998913179
 30
0.0
 10
506.4705570531956
 20
478.5829674782989
 30
0.0
 10
506.6345429220441
 20
478.4357606534421
 30
0.0
 10
506.8060575953261
 20
478.2981872293955
 30
0.0
 10
506.8088240871039
 20
478.2959682020715
 30
0.0
  0
SPLINE
  5
EC
330
1F
100
AcDbEntity
  8
0
  6
Continuous
 62
     7
370
    25
100
AcDbSpline
210
0.0
220
0.0
230
1.0
 70
     8
 71
     3
 72
     9
 73
     5
 74
     0
 42
0.00000001
 43
0.00000001
 40
0.0
 40
0.0
 40
0.0
 40
0.0
 40
0.5055561057107305
 40
1.0
 40
1.0
 40
1.0
 40
1.0
 10
503.9826929739313
 20
491.1886576562558
 30
0.0
 10
504.5007524912643
 20
491.2593136905257
 30
0.0
 10
505.5254844873397
 20
491.3990727271031
 30
0.0
 10
506.3842250561012
 20
491.9754060018989
 30
0.0
 10
506.8088240871039
 20
492.2603704706974
 30
0.0
  0
SPLINE
  5
ED
330
1F
100
AcDbEntity
  8
0
  6
Continuous
 62
     7
370
    25
100
AcDbSpline
210
0.0
220
0.0
230
1.0
 70
     8
 71
     3
 72
     9
 73
     5
 74
     0
 42
0.00000001
 43
0.00000001
 40
0.0
 40
0.0
 40
0.0
 40
0.0
 40
0.0161297673533178
 40
0.9999999999999999
 40
0.9999999999999999
 40
0.9999999999999999
 40
0.9999999999999999
 10
506.8088240871039
 20
492.2603704706974
 30
0.0
 10
506.8060575953261
 20
492.2581514433734
 30
0.0
 10
506.63454292204
 20
492.1205780193238
 30
0.0
 10
506.4705570531937
 20
491.9733711944685
 30
0.0
 10
506.309216238261
 20
491.8285387814511
 30
0.0
  0
SPLINE
  5
EE
330
1F
100
AcDbEntity
  8
0
  6
Continuous
 62
     7
370
    25
100
AcDbSpline
210
0.0
220
0.0
230
1.0
 70
     8
 71
     3
 72
    12
 73
     8
 74
     0
 42
0.00000001
 43
0.00000001
 40
0.0
 40
0.0
 40
0.0
 40
0.0
 40
0.2230315344150378
 40
0.4461337558340359
 40
0.6675099896777023
 40
0.8870667292265011
 40
1.0
 40
1.0
 40
1.0
 40
1.0
 10
455.3772841713758
 20
488.5296742112712
 30
0.0
 10
455.3968179575018
 20
488.5277839639764
 30
0.0
 10
455.4358917207383
 20
488.5240028702971
 30
0.0
 10
455.7034809027945
 20
488.5309457065677
 30
0.0
 10
456.0910099866196
 20
488.5465345290576
 30
0.0
 10
456.4917320990826
 20
488.5658718091217
 30
0.0
 10
456.7435915213405
 20
488.5794374102982
 30
0.0
 10
456.8291378759606
 20
488.5840450907196
 30
0.0
  0
ARC
  5
EF
330
1F
100
AcDbEntity
  8
0
  6
Continuous
 62
     7
370
    25
100
AcDbCircle
 10
455.4050297939
 20
488.0303445549
 30
0.0
 40
0.5000999153470271
100
AcDbArc
 50
93.1804119247
 51
179.9809145383
  0
SPLINE
  5
F0
330
1F
100
AcDbEntity
  8
0
  6
Continuous
 62
     7
370
    25
100
AcDbSpline
210
0.0
220
0.0
230
1.0
 70
     8
 71
     3
 72
    12
 73
     8
 74
     0
 42
0.00000001
 43
0.00000001
 40
0.0
 40
0.0
 40
0.0
 40
0.0
 40
0.2190444340109334
 40
0.4380981679380241
 40
0.6571027493691853
 40
0.8772791087290019
 40
1.0
 40
1.0
 40
1.0
 40
1.0
 10
456.829137875964
 20
481.9722935820491
 30
0.0
 10
456.6627201351932
 20
481.9811223949989
 30
0.0
 10
456.3298775880941
 20
481.9987803957412
 30
0.0
 10
455.891719145451
 20
482.0182988851502
 30
0.0
 10
455.5647533186913
 20
482.0296046687826
 30
0.0
 10
455.4029094416772
 20
482.0314285368592
 30
0.0
 10
455.384038109265
 20
482.0279201075344
 30
0.0
 10
455.3772841713759
 20
482.0266644614978
 30
0.0
  0
ARC
  5
F1
330
1F
100
AcDbEntity
  8
0
  6
Continuous
 62
     7
370
    25
100
AcDbCircle
 10
455.4050297939
 20
482.5259941179
 30
0.0
 40
0.5000999153469722
100
AcDbArc
 50
180.0190854623
 51
266.8195880753
  0
LINE
  5
F2
330
1F
100
AcDbEntity
  8
0
  6
Continuous
 62
     7
370
    25
100
AcDbLine
 10
503.9826929739
 20
491.1886576563
 30
0.0
 11
503.9557067922
 21
491.2599479316
 31
0.0
  0
LINE
  5
F3
330
1F
100
AcDbEntity
  8
0
  6
Continuous
 62
     7
370
    25
100
AcDbLine
 10
455.3725938107
 20
488.5341126643
 30
0.0
 11
455.3772841714
 21
488.5296742113
 31
0.0
  0
ELLIPSE
  5
F4
330
1F
100
AcDbEntity
  8
0
  6
Continuous
 62
     7
370
    25
100
AcDbEllipse
 10
456.8723653534
 20
488.6174051143
 30
0.0
 11
1.499999304622804
 21
0.08287263343873974
 31
0.0
210
0.0
220
0.0
230
1.0
 40
0.0174284859
 41
2.25512531669547
 42
3.158083049610884
  0
LINE
  5
F5
330
1F
100
AcDbEntity
  8
0
  6
Continuous
 62
     7
370
    25
100
AcDbLine
 10
459.3879800225
 20
488.8261647024
 30
0.0
 11
455.923016813
 21
488.5852734234
 31
0.0
  0
LINE
  5
F6
330
1F
100
AcDbEntity
  8
0
  6
Continuous
 62
     7
370
    25
100
AcDbLine
 10
459.3879800225
 20
488.8260663111
 30
0.0
 11
459.3879800225
 21
488.8261647024
 31
0.0
  0
ELLIPSE
  5
F7
330
1F
100
AcDbEntity
  8
0
  6
Continuous
 62
     7
370
    25
100
AcDbEllipse
 10
468.8374664434
 20
489.1557123626
 30
0.0
 11
14.49999327802044
 21
0.8011021232406962
 31
0.0
210
0.0
220
0.0
230
1.0
 40
0.0174284859
 41
1.543516838852423
 42
2.279642175407982
  0
ELLIPSE
  5
F8
330
1F
100
AcDbEntity
  8
0
  6
Continuous
 62
     7
370
    25
100
AcDbEllipse
 10
470.158476359
 20
490.1059959119
 30
0.0
 11
35.70262504606001
 21
1.972514619921981
 31
0.0
210
0.0
220
0.0
230
1.0
 40
0.0174284859
 41
4.685109492442209
 42
5.167309992307955
  0
ELLIPSE
  5
F9
330
1F
100
AcDbEntity
  8
0
  6
Continuous
 62
     7
370
    25
100
AcDbEllipse
 10
489.178703831
 20
490.4783919716
 30
0.0
 11
7.499996523114022
 21
0.4143631671934145
 31
0.0
210
0.0
220
0.0
230
1.0
 40
0.0174284859
 41
1.834826681007968
 42
2.025717338718137
  0
LINE
  5
FA
330
1F
100
AcDbEntity
  8
0
  6
Continuous
 62
     7
370
    25
100
AcDbLine
 10
487.23405143
 20
490.3460475204
 30
0.0
 11
487.2144331726
 21
490.496438065
 31
0.0
  0
SPLINE
  5
FB
330
1F
100
AcDbEntity
  8
0
  6
Continuous
 62
     7
370
    25
100
AcDbSpline
210
0.0
220
0.0
230
1.0
 70
     8
 71
     3
 72
    10
 73
     6
 74
     0
 42
0.00000001
 43
0.00000001
 40
0.0
 40
0.0
 40
0.0
 40
0.0
 40
0.0186368637457253
 40
0.3939469944633057
 40
1.0
 40
1.0
 40
1.0
 40
1.0
 10
487.4178227156616
 20
490.3465338876596
 30
0.0
 10
487.4153665084129
 20
490.3464461371802
 30
0.0
 10
487.3634470719359
 20
490.3445912629874
 30
0.0
 10
487.259448223458
 20
490.3419112816092
 30
0.0
 10
487.2437475661087
 20
490.3444683630068
 30
0.0
 10
487.2340514299651
 20
490.3460475204147
 30
0.0
  0
LINE
  5
FC
330
1F
100
AcDbEntity
  8
0
  6
Continuous
 62
     7
370
    25
100
AcDbLine
 10
503.9557067922
 20
491.2599479316
 30
0.0
 11
487.4178227157
 21
490.3465338877
 31
0.0
  0
LINE
  5
FD
330
1F
100
AcDbEntity
  8
0
  6
Continuous
 62
     7
370
    25
100
AcDbLine
 10
487.4157569837
 20
480.1936011363
 30
0.0
 11
503.9496654072
 21
479.2804066741
 31
0.0
  0
SPLINE
  5
FE
330
1F
100
AcDbEntity
  8
0
  6
Continuous
 62
     7
370
    25
100
AcDbSpline
210
0.0
220
0.0
230
1.0
 70
     8
 71
     3
 72
    11
 73
     7
 74
     0
 42
0.00000001
 43
0.00000001
 40
0.0
 40
0.0
 40
0.0
 40
0.0
 40
0.4177469294495291
 40
0.8392770662410922
 40
0.9817832068819584
 40
1.0
 40
1.0
 40
1.0
 40
1.0
 10
487.2320515430932
 20
480.1949505815678
 30
0.0
 10
487.2366885711251
 20
480.1960337727514
 30
0.0
 10
487.2460046211264
 20
480.1982099647345
 30
0.0
 10
487.3215010868767
 20
480.1970077878431
 30
0.0
 10
487.3917612874486
 20
480.1945372605031
 30
0.0
 10
487.4133141241063
 20
480.1936964375461
 30
0.0
 10
487.4157569837363
 20
480.1936011362876
 30
0.0
  0
LINE
  5
FF
330
1F
100
AcDbEntity
  8
0
  6
Continuous
 62
     7
370
    25
100
AcDbLine
 10
487.2144331726
 20
480.0599006078
 30
0.0
 11
487.2320515431
 21
480.1949505816
 31
0.0
  0
ELLIPSE
  5
100
330
1F
100
AcDbEntity
  8
0
  6
Continuous
 62
     7
370
    25
100
AcDbEllipse
 10
489.178703831
 20
480.0779467012
 30
0.0
 11
7.499996523114021
 21
-0.4143631671934713
 31
0.0
210
0.0
220
0.0
230
1.0
 40
0.0174284859
 41
4.257467968461688
 42
4.448358626171816
  0
ELLIPSE
  5
101
330
1F
100
AcDbEntity
  8
0
  6
Continuous
 62
     7
370
    25
100
AcDbEllipse
 10
470.158476359
 20
480.4503427609
 30
0.0
 11
35.70262504606001
 21
-1.972514619921924
 31
0.0
210
0.0
220
0.0
230
1.0
 40
0.0174284859
 41
1.115875314871773
 42
1.598075814737378
  0
ELLIPSE
  5
102
330
1F
100
AcDbEntity
  8
0
  6
Continuous
 62
     7
370
    25
100
AcDbEllipse
 10
468.8374664434
 20
481.4006263102
 30
0.0
 11
14.49999327802044
 21
-0.8011021232406962
 31
0.0
210
0.0
220
0.0
230
1.0
 40
0.0174284859
 41
4.003543131771944
 42
4.739668468327164
  0
LINE
  5
103
330
1F
100
AcDbEntity
  8
0
  6
Continuous
 62
     7
370
    25
100
AcDbLine
 10
459.3879800225
 20
481.7301739704
 30
0.0
 11
459.3879800225
 21
481.7302723616
 31
0.0
  0
LINE
  5
104
330
1F
100
AcDbEntity
  8
0
  6
Continuous
 62
     7
370
    25
100
AcDbLine
 10
455.923016813
 20
481.9710652494
 30
0.0
 11
459.3879800225
 21
481.7301739704
 31
0.0
  0
ELLIPSE
  5
105
330
1F
100
AcDbEntity
  8
0
  6
Continuous
 62
     7
370
    25
100
AcDbEllipse
 10
456.8723653534
 20
481.9389335584
 30
0.0
 11
1.499999304622804
 21
-0.08287263343873974
 31
0.0
210
0.0
220
0.0
230
1.0
 40
0.0174284859
 41
3.639090378510184
 42
4.02805999048544
  0
LINE
  5
106
330
1F
100
AcDbEntity
  8
0
  6
Continuous
 62
     7
370
    25
100
AcDbLine
 10
455.3772841714
 20
482.0266644615
 30
0.0
 11
455.3725938107
 21
482.0222260084
 31
0.0
  0
LINE
  5
107
330
1F
100
AcDbEntity
  8
0
  6
Continuous
 62
     7
370
    25
100
AcDbLine
 10
503.9496654072
 20
479.2804066741
 30
0.0
 11
503.9826929739
 21
479.3676810165
 31
0.0
  0
SPLINE
  5
108
330
1F
100
AcDbEntity
  8
0
  6
Continuous
 62
     7
370
    25
100
AcDbSpline
210
0.0
220
0.0
230
1.0
 70
     8
 71
     3
 72
     9
 73
     5
 74
     0
 42
0.00000001
 43
0.00000001
 40
0.0
 40
0.0
 40
0.0
 40
0.0
 40
0.5001021276704695
 40
1.0
 40
1.0
 40
1.0
 40
1.0
 10
506.7756052210485
 20
492.3260619176575
 30
0.0
 10
506.3466574453411
 20
492.039536283569
 30
0.0
 10
505.4889370878906
 20
491.4666020402712
 30
0.0
 10
504.4667139592756
 20
491.3288232538171
 30
0.0
 10
503.9557067922348
 20
491.2599479316165
 30
0.0
  0
LINE
  5
109
330
1F
100
AcDbEntity
  8
0
  6
Continuous
 62
     7
370
    25
100
AcDbLine
 10
506.775605221
 20
492.3260619177
 30
0.0
 11
506.8088240871
 21
492.2603704707
 31
0.0
  0
SPLINE
  5
10A
330
1F
100
AcDbEntity
  8
0
  6
Continuous
 62
     7
370
    25
100
AcDbSpline
210
0.0
220
0.0
230
1.0
 70
     8
 71
     3
 72
     9
 73
     5
 74
     0
 42
0.00000001
 43
0.00000001
 40
0.0
 40
0.0
 40
0.0
 40
0.0
 40
0.400722737156528
 40
1.0
 40
1.0
 40
1.0
 40
1.0
 10
503.9496654071831
 20
479.280406674073
 30
0.0
 10
504.3583515305924
 20
479.2319994120074
 30
0.0
 10
505.3782240896322
 20
479.1111995232636
 30
0.0
 10
506.2473001334581
 20
478.55109224991
 30
0.0
 10
506.7681176462049
 20
478.2154326962359
 30
0.0
  0
LINE
  5
10B
330
1F
100
AcDbEntity
  8
0
  6
Continuous
 62
     7
370
    25
100
AcDbLine
 10
506.8088240871
 20
478.2959682021
 30
0.0
 11
506.7681176462
 21
478.2154326962
 31
0.0
  0
ARC
  5
10C
330
1F
100
AcDbEntity
  8
0
  6
Continuous
 62
     7
370
    25
100
AcDbCircle
 10
512.3334508009
 20
485.2781693364
 30
0.0
 40
8.975658044222133
100
AcDbArc
 50
65.1648853947
 51
128.2586979829
  0
LWPOLYLINE
  5
10D
330
1F
100
AcDbEntity
  8
0
  6
Continuous
 62
     7
370
    25
100
AcDbPolyline
 90
        3
 70
   128
 43
0.0
 10
516.2687642252
 20
493.5288290597
 10
516.164182661
 20
493.4625766484
 10
516.1033021183
 20
493.4237606821
  0
ARC
  5
10E
330
1F
100
AcDbEntity
  8
0
  6
Continuous
 62
     7
370
    25
100
AcDbCircle
 10
512.3334508009
 20
485.2781693364
 30
0.0
 40
9.141120151092156
100
AcDbArc
 50
295.4997164176
 51
64.5002794289
  0
LWPOLYLINE
  5
10F
330
1F
100
AcDbEntity
  8
0
  6
Continuous
 62
     7
370
    25
100
AcDbPolyline
 90
        3
 70
   128
 43
0.0
 10
516.1195950287
 20
477.1221719199
 10
516.164182661
 20
477.0937620243
 10
516.2687642255
 20
477.0275096129
  0
ARC
  5
110
330
1F
100
AcDbEntity
  8
0
  6
Continuous
 62
     7
370
    25
100
AcDbCircle
 10
512.3334508009
 20
485.2781693364
 30
0.0
 40
8.991950954660766
100
AcDbArc
 50
231.762407147
 51
294.9014811666
  0
LINE
  5
111
330
1F
100
AcDbEntity
  8
0
  6
Continuous
 62
     7
370
    25
100
AcDbLine
 10
454.9002395456
 20
482.5213890795
 30
0.0
 11
454.9049299063
 21
482.5258275325
 31
0.0
  0
LINE
  5
112
330
1F
100
AcDbEntity
  8
0
  6
Continuous
 62
     7
370
    25
100
AcDbLine
 10
454.9002395456
 20
488.0349495933
 30
0.0
 11
454.9002395456
 21
482.5213890795
 31
0.0
  0
LINE
  5
113
330
1F
100
AcDbEntity
  8
0
  6
Continuous
 62
     7
370
    25
100
AcDbLine
 10
454.9049299063
 20
488.0305111402
 30
0.0
 11
454.9002395456
 21
488.0349495933
 31
0.0
  0
ARC
  5
114
330
1F
100
AcDbEntity
  8
0
  6
Continuous
 62
     7
370
    25
100
AcDbCircle
 10
455.4003394332
 20
482.5215556648
 30
0.0
 40
0.500099915347134
100
AcDbArc
 50
180.0190854617
 51
266.8195880753
  0
ARC
  5
115
330
1F
100
AcDbEntity
  8
0
  6
Continuous
 62
     7
370
    25
100
AcDbCircle
 10
455.4003394332
 20
488.0347830079
 30
0.0
 40
0.5000999153467778
100
AcDbArc
 50
93.1804119247
 51
179.9809145383
  0
LINE
  5
116
330
1F
100
AcDbEntity
  8
0
  6
Continuous
 62
     7
370
    25
100
AcDbLine
 10
455.923016813
 20
481.9710652494
 30
0.0
 11
455.9159090822
 21
481.971432286
 31
0.0
  0
LINE
  5
117
330
1F
100
AcDbEntity
  8
0
  6
Continuous
 62
     7
370
    25
100
AcDbLine
 10
455.923016813
 20
488.5852734234
 30
0.0
 11
455.9159090822
 21
488.5849063867
 31
0.0
  0
SPLINE
  5
118
330
1F
100
AcDbEntity
  8
0
  6
Continuous
 62
     7
370
    25
100
AcDbSpline
210
0.0
220
0.0
230
1.0
 70
     8
 71
     3
 72
    12
 73
     8
 74
     0
 42
0.00000001
 43
0.00000001
 40
0.0
 40
0.0
 40
0.0
 40
0.0
 40
0.1662426524176545
 40
0.3368059756191297
 40
0.6054181071254586
 40
0.8801435087136193
 40
1.0
 40
1.0
 40
1.0
 40
1.0
 10
506.2113915536048
 20
496.9548297180554
 30
0.0
 10
506.8490730741408
 20
496.7993445425724
 30
0.0
 10
508.1410095509414
 20
496.4843331092172
 30
0.0
 10
510.3251959332908
 20
495.8213680042186
 30
0.0
 10
512.6871702768507
 20
494.9691730874133
 30
0.0
 10
514.6527078387431
 20
494.1265444088012
 30
0.0
 10
515.7664828235388
 20
493.588686316106
 30
0.0
 10
516.1047983016963
 20
493.4253088652787
 30
0.0
  0
LINE
  5
119
330
1F
100
AcDbEntity
  8
0
  6
Continuous
 62
     7
370
    25
100
AcDbLine
 10
506.2113915536
 20
496.9548297181
 30
0.0
 11
506.2272496305
 21
497.0243032496
 31
0.0
  0
ARC
  5
11A
330
1F
100
AcDbEntity
  8
0
  6
Continuous
 62
     7
370
    25
100
AcDbCircle
 10
495.5054713941
 20
450.0526684374
 30
0.0
 40
48.17977797259049
100
AcDbArc
 50
64.4718479123
 51
77.1419190681
  0
LWPOLYLINE
  5
11B
330
1F
100
AcDbEntity
  8
0
  6
Continuous
 62
     7
370
    25
100
AcDbPolyline
 90
        3
 70
   128
 43
0.0
 10
516.1047983017
 20
493.4253088653
 10
516.164186152
 20
493.4628325688
 10
516.2687642249
 20
493.5288305987
  0
SPLINE
  5
11C
330
1F
100
AcDbEntity
  8
0
  6
Continuous
 62
     7
370
    25
100
AcDbSpline
210
0.0
220
0.0
230
1.0
 70
     8
 71
     3
 72
    12
 73
     8
 74
     0
 42
0.00000001
 43
0.00000001
 40
0.0
 40
0.0
 40
0.0
 40
0.0
 40
0.1345419440893866
 40
0.4125227334043395
 40
0.6966514762099312
 40
0.8475579366075728
 40
1.0
 40
1.0
 40
1.0
 40
1.0
 10
516.1040807247392
 20
493.4245672992048
 30
0.0
 10
515.6747233013093
 20
493.6153927457972
 30
0.0
 10
514.3582587658847
 20
494.2004878651236
 30
0.0
 10
511.9846308218624
 20
494.8254365139145
 30
0.0
 10
509.4596843897886
 20
495.126792149407
 30
0.0
 10
507.3147466710116
 20
495.2323788190115
 30
0.0
 10
506.1783989643258
 20
495.2380117867081
 30
0.0
 10
505.6073489161037
 20
495.2408425280876
 30
0.0
  0
ARC
  5
11D
330
1F
100
AcDbEntity
  8
0
  6
Continuous
 62
     7
370
    25
100
AcDbCircle
 10
510.0998799091
 20
494.6210184835
 30
0.0
 40
4.535087272520013
100
AcDbArc
 50
149.0284626407
 51
172.1446266983
  0
LINE
  5
11E
330
1F
100
AcDbEntity
  8
0
  6
Continuous
 62
     7
370
    25
100
AcDbLine
 10
516.1047983017
 20
493.4253088653
 30
0.0
 11
516.1040807247
 21
493.4245672992
 31
0.0
  0
LINE
  5
11F
330
1F
100
AcDbEntity
  8
0
  6
Continuous
 62
     7
370
    25
100
AcDbLine
 10
506.775605221
 20
492.3260619177
 30
0.0
 11
504.5777333009
 21
495.113178792
 31
0.0
  0
ARC
  5
120
330
1F
100
AcDbEntity
  8
0
  6
Continuous
 62
     7
370
    25
100
AcDbCircle
 10
512.3334508009
 20
485.2781693364
 30
0.0
 40
12.5251173620273
100
AcDbArc
 50
127.8583068702
 51
128.2586979829
  0
LINE
  5
121
330
1F
100
AcDbEntity
  8
0
  6
Continuous
 62
     7
370
    25
100
AcDbLine
 10
505.6073489161
 20
495.2408425281
 30
0.0
 11
504.6466505672
 21
495.1671362743
 31
0.0
  0
LINE
  5
122
330
1F
100
AcDbEntity
  8
0
  6
Continuous
 62
     7
370
    25
100
AcDbLine
 10
516.1033021183
 20
493.4237606821
 30
0.0
 11
516.1040807247
 21
493.4245672992
 31
0.0
  0
ARC
  5
123
330
1F
100
AcDbEntity
  8
0
  6
Continuous
 62
     7
370
    25
100
AcDbCircle
 10
494.4157790872
 20
490.5547687245
 30
0.0
 40
6.834138728218596
100
AcDbArc
 50
31.8771071303
 51
46.9488007428
  0
SPLINE
  5
124
330
1F
100
AcDbEntity
  8
0
  6
Continuous
 62
     7
370
    25
100
AcDbSpline
210
0.0
220
0.0
230
1.0
 70
     8
 71
     3
 72
    17
 73
    13
 74
     0
 42
0.00000001
 43
0.00000001
 40
0.0
 40
0.0
 40
0.0
 40
0.0
 40
0.2859834379244703
 40
0.5215922644122238
 40
0.759239901680938
 40
0.85214924050605
 40
0.9266708633836014
 40
0.9605058393195369
 40
0.9835417153308584
 40
0.9930790992390832
 40
0.9972256067114875
 40
1.0
 40
1.0
 40
1.0
 40
1.0
 10
500.2192118783557
 20
494.1638711053697
 30
0.0
 10
498.9904336946084
 20
493.6320029813492
 30
0.0
 10
496.7493207127777
 20
492.6619527533016
 30
0.0
 10
493.4103720258758
 20
491.6197220825169
 30
0.0
 10
490.9077166591691
 20
491.0019035215903
 30
0.0
 10
489.1374103751328
 20
490.6479282123721
 30
0.0
 10
488.2722895397956
 20
490.4932271777593
 30
0.0
 10
487.7467021105201
 20
490.4047271869276
 30
0.0
 10
487.5130399968629
 20
490.365615424105
 30
0.0
 10
487.4353898373735
 20
490.3512956573431
 30
0.0
 10
487.4193081831734
 20
490.3475619050257
 30
0.0
 10
487.4182477951975
 20
490.3468280638307
 30
0.0
 10
487.4178227156616
 20
490.3465338876596
 30
0.0
  0
SPLINE
  5
125
330
1F
100
AcDbEntity
  8
0
  6
Continuous
 62
     7
370
    25
100
AcDbSpline
210
0.0
220
0.0
230
1.0
 70
     8
 71
     3
 72
    10
 73
     6
 74
     0
 42
0.00000001
 43
0.00000001
 40
0.0
 40
0.0
 40
0.0
 40
0.0
 40
0.5975855365574454
 40
0.9790563563181981
 40
1.0
 40
1.0
 40
1.0
 40
1.0
 10
487.3077973959739
 20
490.355660784999
 30
0.0
 10
487.3052782566205
 20
490.3519214872726
 30
0.0
 10
487.3011510158398
 20
490.3457951957491
 30
0.0
 10
487.3755221423954
 20
490.3454186368926
 30
0.0
 10
487.4157300944997
 20
490.346478715893
 30
0.0
 10
487.4178227156616
 20
490.3465338876596
 30
0.0
  0
SPLINE
  5
126
330
1F
100
AcDbEntity
  8
0
  6
Continuous
 62
     7
370
    25
100
AcDbSpline
210
0.0
220
0.0
230
1.0
 70
     8
 71
     3
 72
    15
 73
    11
 74
     0
 42
0.00000001
 43
0.00000001
 40
0.0
 40
0.0
 40
0.0
 40
0.0
 40
0.0128981401598393
 40
0.0519443541565596
 40
0.1318327952014335
 40
0.2279057212361197
 40
0.4677439605522729
 40
0.7076088995729002
 40
0.8538517081976984
 40
1.0
 40
1.0
 40
1.0
 40
1.0
 10
487.3077973959739
 20
490.355660784999
 30
0.0
 10
487.3412659994981
 20
490.3635056822865
 30
0.0
 10
487.4760532613085
 20
490.3950992390302
 30
0.0
 10
487.9153236412752
 20
490.4974899823391
 30
0.0
 10
488.7267792612598
 20
490.6998114778278
 30
0.0
 10
490.3800455930487
 20
491.167460377058
 30
0.0
 10
492.7264047238129
 20
491.9990471550931
 30
0.0
 10
495.2700005656401
 20
493.1926377501682
 30
0.0
 10
497.3887779852814
 20
494.3995597948585
 30
0.0
 10
498.5171242268615
 20
495.1657854613607
 30
0.0
 10
499.0811149759904
 20
495.5487744515549
 30
0.0
  0
LINE
  5
127
330
1F
100
AcDbEntity
  8
0
  6
Continuous
 62
     7
370
    25
100
AcDbLine
 10
501.6598802404
 20
494.6880147874
 30
0.0
 11
503.7599627565
 21
494.8040057361
 31
0.0
  0
LINE
  5
128
330
1F
100
AcDbEntity
  8
0
  6
Continuous
 62
     7
370
    25
100
AcDbLine
 10
503.9557067922
 20
491.2599479316
 30
0.0
 11
503.7599627565
 21
494.8040057361
 31
0.0
  0
LINE
  5
129
330
1F
100
AcDbEntity
  8
0
  6
Continuous
 62
     7
370
    25
100
AcDbLine
 10
501.6598802404
 20
494.6880147874
 30
0.0
 11
500.2192118784
 21
494.1638711054
 31
0.0
  0
LWPOLYLINE
  5
12A
330
1F
100
AcDbEntity
  8
0
  6
Continuous
 62
     7
370
    25
100
AcDbPolyline
 90
        4
 70
   128
 43
0.0
 10
487.2882705819
 20
490.5067563613
 10
487.2905152176
 20
490.4893982144
 10
487.2994902515
 20
490.4199654682
 10
487.307797396
 20
490.355660785
  0
LINE
  5
12B
330
1F
100
AcDbEntity
  8
0
  6
Continuous
 62
     7
370
    25
100
AcDbLine
 10
489.0763948657
 20
490.9362838646
 30
0.0
 11
487.2882705819
 21
490.5067563613
 31
0.0
  0
ARC
  5
12C
330
1F
100
AcDbEntity
  8
0
  6
Continuous
 62
     7
370
    25
100
AcDbCircle
 10
480.8908364671
 20
521.3619774584
 30
0.0
 40
31.50755777528332
100
AcDbArc
 50
285.0579972479
 51
305.1719294169
  0
LINE
  5
12D
330
1F
100
AcDbEntity
  8
0
  6
Continuous
 62
     7
370
    25
100
AcDbLine
 10
499.081114976
 20
495.5487744516
 30
0.0
 11
499.0401950898
 21
495.6068424646
 31
0.0
  0
SPLINE
  5
12E
330
1F
100
AcDbEntity
  8
0
  6
Continuous
 62
     7
370
    25
100
AcDbSpline
210
0.0
220
0.0
230
1.0
 70
     8
 71
     3
 72
     9
 73
     5
 74
     0
 42
0.00000001
 43
0.00000001
 40
0.0
 40
0.0
 40
0.0
 40
0.0
 40
0.4998978730609624
 40
1.0
 40
1.0
 40
1.0
 40
1.0
 10
503.7599627565295
 20
494.8040057360604
 30
0.0
 10
503.9081576724254
 20
494.8239720740626
 30
0.0
 10
504.2046080553573
 20
494.8639129081373
 30
0.0
 10
504.4533412841339
 20
495.0300788507079
 30
0.0
 10
504.5777333008855
 20
495.1131787920123
 30
0.0
  0
ARC
  5
12F
330
1F
100
AcDbEntity
  8
0
  6
Continuous
 62
     7
370
    25
100
AcDbCircle
 10
487.2064620811
 20
490.8453622248
 30
0.0
 40
0.5000763403724913
100
AcDbArc
 50
273.1626296398
 51
281.6913635617
  0
ARC
  5
130
330
1F
100
AcDbEntity
  8
0
  6
Continuous
 62
     7
370
    25
100
AcDbCircle
 10
495.5054713941
 20
520.5036702354
 30
0.0
 40
48.10950076354631
100
AcDbArc
 50
282.8580809319
 51
283.1066633214
  0
SPLINE
  5
131
330
1F
100
AcDbEntity
  8
0
  6
Continuous
 62
     7
370
    25
100
AcDbSpline
210
0.0
220
0.0
230
1.0
 70
     8
 71
     3
 72
    13
 73
     9
 74
     0
 42
0.00000001
 43
0.00000001
 40
0.0
 40
0.0
 40
0.0
 40
0.0
 40
0.0460329529079877
 40
0.249242584819372
 40
0.4775225570272876
 40
0.7051721168687834
 40
0.8526808263814666
 40
1.0
 40
1.0
 40
1.0
 40
1.0
 10
516.1208292753865
 20
477.1208975762819
 30
0.0
 10
515.9924946233481
 20
477.0583886078454
 30
0.0
 10
515.2976345638626
 20
476.719937652968
 30
0.0
 10
513.937971329286
 20
476.1019602289391
 30
0.0
 10
511.9299987124676
 20
475.2914879022259
 30
0.0
 10
509.9154884505645
 20
474.5988631009612
 30
0.0
 10
508.0532051693191
 20
474.0486292992632
 30
0.0
 10
506.9608356060804
 20
473.7811131881572
 30
0.0
 10
506.4150019500734
 20
473.6474411215969
 30
0.0
  0
LWPOLYLINE
  5
132
330
1F
100
AcDbEntity
  8
0
  6
Continuous
 62
     7
370
    25
100
AcDbPolyline
 90
        3
 70
   128
 43
0.0
 10
516.1208292754
 20
477.1208975763
 10
516.164186152
 20
477.0935061039
 10
516.2687642252
 20
477.0275080738
  0
ARC
  5
133
330
1F
100
AcDbEntity
  8
0
  6
Continuous
 62
     7
370
    25
100
AcDbCircle
 10
495.5054713941
 20
520.5036702354
 30
0.0
 40
48.17977797259049
100
AcDbArc
 50
282.8580809319
 51
295.5281512988
  0
LINE
  5
134
330
1F
100
AcDbEntity
  8
0
  6
Continuous
 62
     7
370
    25
100
AcDbLine
 10
506.2116103586
 20
473.6005503798
 30
0.0
 11
506.2272496305
 21
473.5320354231
 31
0.0
  0
LINE
  5
135
330
1F
100
AcDbEntity
  8
0
  6
Continuous
 62
     7
370
    25
100
AcDbLine
 10
505.9615418722
 20
475.5950436508
 30
0.0
 11
506.4150019501
 21
473.6474411216
 31
0.0
  0
SPLINE
  5
136
330
1F
100
AcDbEntity
  8
0
  6
Continuous
 62
     7
370
    25
100
AcDbSpline
210
0.0
220
0.0
230
1.0
 70
     8
 71
     3
 72
    13
 73
     9
 74
     0
 42
0.00000001
 43
0.00000001
 40
0.0
 40
0.0
 40
0.0
 40
0.0
 40
0.2574896950994368
 40
0.4890886589321025
 40
0.7206004760683485
 40
0.9447506334961274
 40
0.9460032291293288
 40
1.0
 40
1.0
 40
1.0
 40
1.0
 10
505.9615418721863
 20
475.595043650811
 30
0.0
 10
506.8802674481743
 20
475.5669806866962
 30
0.0
 10
508.6253402353124
 20
475.5136765050308
 30
0.0
 10
511.1199054812259
 20
475.6782406238688
 30
0.0
 10
513.4355552872266
 20
476.091614618879
 30
0.0
 10
514.9126638888307
 20
476.5911718054422
 30
0.0
 10
515.7839253333714
 20
476.9654146603722
 30
0.0
 10
515.9539717421943
 20
477.0443950788573
 30
0.0
 10
516.1201629142496
 20
477.1215848790321
 30
0.0
  0
LINE
  5
137
330
1F
100
AcDbEntity
  8
0
  6
Continuous
 62
     7
370
    25
100
AcDbLine
 10
516.1201629142
 20
477.121584879
 30
0.0
 11
516.1208292754
 21
477.1208975763
 31
0.0
  0
LINE
  5
138
330
1F
100
AcDbEntity
  8
0
  6
Continuous
 62
     7
370
    25
100
AcDbLine
 10
499.8562225564
 20
476.9029280583
 30
0.0
 11
498.7267471389
 21
475.2527562687
 31
0.0
  0
SPLINE
  5
139
330
1F
100
AcDbEntity
  8
0
  6
Continuous
 62
     7
370
    25
100
AcDbSpline
210
0.0
220
0.0
230
1.0
 70
     8
 71
     3
 72
    15
 73
    11
 74
     0
 42
0.00000001
 43
0.00000001
 40
0.0
 40
0.0
 40
0.0
 40
0.0
 40
0.2255198391625377
 40
0.4515645943751947
 40
0.6337799820516974
 40
0.8158790324473547
 40
0.8946729146060268
 40
0.9638048440471935
 40
0.9940832206369723
 40
0.9999999999999999
 40
0.9999999999999999
 40
0.9999999999999999
 40
0.9999999999999999
 10
498.7267471389176
 20
475.2527562686543
 30
0.0
 10
497.8812985980637
 20
475.7977639379957
 30
0.0
 10
496.1884336650559
 20
476.8890478270382
 30
0.0
 10
493.7121174713764
 20
478.1061512166308
 30
0.0
 10
491.3837065566652
 20
479.037051025066
 30
0.0
 10
489.6432270668428
 20
479.5928415698795
 30
0.0
 10
488.3855582104732
 20
479.929394396844
 30
0.0
 10
487.7414253125608
 20
480.0847415031684
 30
0.0
 10
487.4134800224788
 20
480.1602949014359
 30
0.0
 10
487.3209425788546
 20
480.1818156094859
 30
0.0
 10
487.3058155923193
 20
480.1853335741946
 30
0.0
  0
SPLINE
  5
13A
330
1F
100
AcDbEntity
  8
0
  6
Continuous
 62
     7
370
    25
100
AcDbSpline
210
0.0
220
0.0
230
1.0
 70
     8
 71
     3
 72
    11
 73
     7
 74
     0
 42
0.00000001
 43
0.00000001
 40
0.0
 40
0.0
 40
0.0
 40
0.0
 40
0.0195561212295927
 40
0.1681891996744411
 40
0.5898876540792777
 40
1.0
 40
1.0
 40
1.0
 40
1.0
 10
487.4157569837363
 20
480.1936011362876
 30
0.0
 10
487.4137982705883
 20
480.1936592500033
 30
0.0
 10
487.3969526807655
 20
480.194159047444
 30
0.0
 10
487.3450521170064
 20
480.1950054648576
 30
0.0
 10
487.2957674849408
 20
480.1929161663355
 30
0.0
 10
487.3024974700172
 20
480.187837525152
 30
0.0
 10
487.3058155923192
 20
480.1853335741946
 30
0.0
  0
SPLINE
  5
13B
330
1F
100
AcDbEntity
  8
0
  6
Continuous
 62
     7
370
    25
100
AcDbSpline
210
0.0
220
0.0
230
1.0
 70
     8
 71
     3
 72
    17
 73
    13
 74
     0
 42
0.00000001
 43
0.00000001
 40
0.0
 40
0.0
 40
0.0
 40
0.0
 40
0.0068263121770685
 40
0.0088448507297254
 40
0.0223990310416126
 40
0.0309593028397538
 40
0.0563218912149143
 40
0.1198824177066684
 40
0.1957460556357056
 40
0.5558621944880031
 40
0.77803360979772
 40
1.0
 40
1.0
 40
1.0
 40
1.0
 10
487.4157569837363
 20
480.1936011362876
 30
0.0
 10
487.419377128898
 20
480.1925629532425
 30
0.0
 10
487.4240677499454
 20
480.1912177797688
 30
0.0
 10
487.4676004626487
 20
480.1836277916939
 30
0.0
 10
487.5421323850812
 20
480.1718762848873
 30
0.0
 10
487.7089646305831
 20
480.1461573896641
 30
0.0
 10
488.0905407476504
 20
480.0876428106419
 30
0.0
 10
488.7734417143848
 20
479.9784458260547
 30
0.0
 10
490.8784410313025
 20
479.6112735936306
 30
0.0
 10
493.6913756130886
 20
478.9770959096653
 30
0.0
 10
497.0901598276553
 20
477.9641556178068
 30
0.0
 10
498.934485442419
 20
477.2565616971201
 30
0.0
 10
499.8562225564096
 20
476.902928058293
 30
0.0
  0
LINE
  5
13C
330
1F
100
AcDbEntity
  8
0
  6
Continuous
 62
     7
370
    25
100
AcDbLine
 10
503.9496654072
 20
479.2804066741
 30
0.0
 11
503.8063035782
 21
476.6847587046
 31
0.0
  0
LINE
  5
13D
330
1F
100
AcDbEntity
  8
0
  6
Continuous
 62
     7
370
    25
100
AcDbLine
 10
503.8063035782
 20
476.6847587046
 30
0.0
 11
499.8562225564
 21
476.9029280583
 31
0.0
  0
LINE
  5
13E
330
1F
100
AcDbEntity
  8
0
  6
Continuous
 62
     7
370
    25
100
AcDbLine
 10
506.7681176462
 20
478.2154326962
 30
0.0
 11
505.1591606529
 21
476.1735711953
 31
0.0
  0
LINE
  5
13F
330
1F
100
AcDbEntity
  8
0
  6
Continuous
 62
     7
370
    25
100
AcDbLine
 10
516.1201629142
 20
477.121584879
 30
0.0
 11
516.1195950287
 21
477.1221719199
 31
0.0
  0
ARC
  5
140
330
1F
100
AcDbEntity
  8
0
  6
Continuous
 62
     7
370
    25
100
AcDbCircle
 10
512.3334508009
 20
485.2781693364
 30
0.0
 40
11.5915549620674
100
AcDbArc
 50
231.762407147
 51
236.6533814372
  0
LWPOLYLINE
  5
141
330
1F
100
AcDbEntity
  8
0
  6
Continuous
 62
     7
370
    25
100
AcDbPolyline
 90
        4
 70
   128
 43
0.0
 10
487.3058155923
 20
480.1853335742
 10
487.303573346
 20
480.1679753192
 10
487.2946008631
 20
480.0985424576
 10
487.2882705819
 20
480.0495823115
  0
ARC
  5
142
330
1F
100
AcDbEntity
  8
0
  6
Continuous
 62
     7
370
    25
100
AcDbCircle
 10
480.8908364671
 20
449.1943612144
 30
0.0
 40
31.57783498432753
100
AcDbArc
 50
54.8280705831
 51
55.6099480104
  0
LINE
  5
143
330
1F
100
AcDbEntity
  8
0
  6
Continuous
 62
     7
370
    25
100
AcDbLine
 10
499.0806770046
 20
475.006942711
 30
0.0
 11
499.0401950898
 21
474.9494962082
 31
0.0
  0
ARC
  5
144
330
1F
100
AcDbEntity
  8
0
  6
Continuous
 62
     7
370
    25
100
AcDbCircle
 10
480.8908364671
 20
449.1943612144
 30
0.0
 40
31.50755777528337
100
AcDbArc
 50
54.8280705831
 51
74.9420027521
  0
LINE
  5
145
330
1F
100
AcDbEntity
  8
0
  6
Continuous
 62
     7
370
    25
100
AcDbLine
 10
487.2882705819
 20
480.0495823115
 30
0.0
 11
489.0763948657
 21
479.6200548082
 31
0.0
  0
LINE
  5
146
330
1F
100
AcDbEntity
  8
0
  6
Continuous
 62
     7
370
    25
100
AcDbLine
 10
487.2144331726
 20
490.496438065
 30
0.0
 11
487.2882705819
 21
490.5067563613
 31
0.0
  0
SPLINE
  5
147
330
1F
100
AcDbEntity
  8
0
  6
Continuous
 62
     7
370
    25
100
AcDbSpline
210
0.0
220
0.0
230
1.0
 70
     8
 71
     3
 72
    10
 73
     6
 74
     0
 42
0.00000001
 43
0.00000001
 40
0.0
 40
0.0
 40
0.0
 40
0.0
 40
0.0490769085761659
 40
0.599580584366531
 40
1.0
 40
1.0
 40
1.0
 40
1.0
 10
505.1591606529464
 20
476.1735711952596
 30
0.0
 10
505.1402131145774
 20
476.1881939308609
 30
0.0
 10
504.9087279526709
 20
476.3668422730501
 30
0.0
 10
504.4628541778535
 20
476.6008942664713
 30
0.0
 10
504.0008476009691
 20
476.6599086394889
 30
0.0
 10
503.8063035782154
 20
476.6847587046212
 30
0.0
  0
ARC
  5
148
330
1F
100
AcDbEntity
  8
0
  6
Continuous
 62
     7
370
    25
100
AcDbCircle
 10
487.2044621914
 20
479.6956358772
 30
0.0
 40
0.5000763405147034
100
AcDbArc
 50
78.3065203379
 51
86.8373700345
  0
SPLINE
  5
149
330
1F
100
AcDbEntity
  8
0
  6
Continuous
 62
     7
370
    25
100
AcDbSpline
210
0.0
220
0.0
230
1.0
 70
     8
 71
     3
 72
     9
 73
     5
 74
     0
 42
0.00000001
 43
0.00000001
 40
0.0
 40
0.0
 40
0.0
 40
0.0
 40
0.8458911907785839
 40
1.0
 40
1.0
 40
1.0
 40
1.0
 10
487.2882705819087
 20
480.0495823115083
 30
0.0
 10
487.2674299857977
 20
480.0533971185007
 30
0.0
 10
487.2427925426628
 20
480.057906926658
 30
0.0
 10
487.2182200154865
 20
480.059634390409
 30
0.0
 10
487.2144331725838
 20
480.0599006077907
 30
0.0
  0
LINE
  5
14A
330
1F
100
AcDbEntity
  8
0
  6
Continuous
 62
     7
370
    25
100
AcDbLine
 10
469.2190129749
 20
481.1261564611
 30
0.0
 11
469.2194709947
 21
481.1261313746
 31
0.0
  0
LINE
  5
14B
330
1F
100
AcDbEntity
  8
0
  6
Continuous
 62
     7
370
    25
100
AcDbLine
 10
499.081114976
 20
495.5487744516
 30
0.0
 11
500.9198558253
 21
496.5457406872
 31
0.0
  0
LINE
  5
14C
330
1F
100
AcDbEntity
  8
0
  6
Continuous
 62
     7
370
    25
100
AcDbLine
 10
501.6598802404
 20
494.6880147874
 30
0.0
 11
500.9198558253
 21
496.5457406872
 31
0.0
  0
LINE
  5
14D
330
1F
100
AcDbEntity
  8
0
  6
Continuous
 62
     7
370
    25
100
AcDbLine
 10
504.6466505672
 20
495.1671362743
 30
0.0
 11
504.7684843139
 21
497.1631167833
 31
0.0
  0
LINE
  5
14E
330
1F
100
AcDbEntity
  8
0
  6
Continuous
 62
     7
370
    25
100
AcDbLine
 10
504.7684843139
 20
497.1631167833
 30
0.0
 11
506.2113915536
 21
496.9548297181
 31
0.0
  0
ARC
  5
14F
330
1F
100
AcDbEntity
  8
0
  6
Continuous
 62
     7
370
    25
100
AcDbCircle
 10
504.2244355957
 20
488.2500638122
 30
0.0
 40
6.929946387144257
100
AcDbArc
 50
86.5070253286
 51
111.7198462835
  0
ARC
  5
150
330
1F
100
AcDbEntity
  8
0
  6
Continuous
 62
     7
370
    25
100
AcDbCircle
 10
504.2244355957
 20
488.2500638122
 30
0.0
 40
8.929641777457055
100
AcDbArc
 50
86.5070253286
 51
111.7198462835
  0
ARC
  5
151
330
1F
100
AcDbEntity
  8
0
  6
Continuous
 62
     7
370
    25
100
AcDbCircle
 10
480.8908364671
 20
449.1943612144
 30
0.0
 40
33.5775303746403
100
AcDbArc
 50
54.8280705831
 51
55.6099480104
  0
ARC
  5
152
330
1F
100
AcDbEntity
  8
0
  6
Continuous
 62
     7
370
    25
100
AcDbCircle
 10
495.5054713941
 20
520.5036702354
 30
0.0
 40
46.10980537323349
100
AcDbArc
 50
282.8580809319
 51
283.1066633214
  0
ARC
  5
153
330
1F
100
AcDbEntity
  8
0
  6
Continuous
 62
     7
370
    25
100
AcDbCircle
 10
504.2244355957
 20
482.3062748606
 30
0.0
 40
6.929946387144266
100
AcDbArc
 50
234.8280705831
 51
282.8580809319
  0
LINE
  5
154
330
1F
100
AcDbEntity
  8
0
  6
Continuous
 62
     7
370
    25
100
AcDbLine
 10
505.7666043536
 20
475.5501019461
 30
0.0
 11
506.2116103586
 21
473.6005503798
 31
0.0
  0
LINE
  5
155
330
1F
100
AcDbEntity
  8
0
  6
Continuous
 62
     7
370
    25
100
AcDbLine
 10
500.2325653558
 20
476.6415481314
 30
0.0
 11
499.0806770046
 21
475.006942711
 31
0.0
  0
ARC
  5
156
330
1F
100
AcDbEntity
  8
0
  6
Continuous
 62
     7
370
    25
100
AcDbCircle
 10
504.2244355957
 20
482.3062748606
 30
0.0
 40
8.929641777457046
100
AcDbArc
 50
234.8280705831
 51
282.8580809319
  0
ARC
  5
157
330
1F
100
AcDbEntity
  8
0
  6
Continuous
 62
     7
370
    25
100
AcDbCircle
 10
504.2244355957
 20
488.2500638122
 30
0.0
 40
8.999918986501244
100
AcDbArc
 50
77.1419190681
 51
125.1719294169
  0
ARC
  5
158
330
1F
100
AcDbEntity
  8
0
  6
Continuous
 62
     7
370
    25
100
AcDbCircle
 10
504.2244355957
 20
482.3062748606
 30
0.0
 40
8.999918986501244
100
AcDbArc
 50
234.8280705831
 51
282.8580809319
  0
SPLINE
  5
159
330
1F
100
AcDbEntity
  8
0
  6
Continuous
 62
     7
370
    25
100
AcDbSpline
210
0.0
220
0.0
230
1.0
 70
     8
 71
     3
 72
    11
 73
     7
 74
     0
 42
0.00000001
 43
0.00000001
 40
0.0
 40
0.0
 40
0.0
 40
0.0
 40
0.2200386424382255
 40
0.6637869905998169
 40
0.8890365590789576
 40
1.0
 40
1.0
 40
1.0
 40
1.0
 10
722.2110409455073
 20
491.2984876433354
 30
0.0
 10
722.4152624085087
 20
491.0334690320766
 30
0.0
 10
723.0313339713923
 20
490.2339917017719
 30
0.0
 10
723.5548833224095
 20
488.970822431244
 30
0.0
 10
723.8065125221707
 20
487.8042526179199
 30
0.0
 10
723.7858053274483
 20
487.2929728192605
 30
0.0
 10
723.7789711434223
 20
487.1242304917882
 30
0.0
  0
SPLINE
  5
15A
330
1F
100
AcDbEntity
  8
0
  6
Continuous
 62
     7
370
    25
100
AcDbSpline
210
0.0
220
0.0
230
1.0
 70
     8
 71
     3
 72
     9
 73
     5
 74
     0
 42
0.00000001
 43
0.00000001
 40
0.0
 40
0.0
 40
0.0
 40
0.0
 40
0.9209630919903056
 40
1.0
 40
1.0
 40
1.0
 40
1.0
 10
723.8510833087546
 20
490.9781643677019
 30
0.0
 10
723.3366617708817
 20
491.0349914266205
 30
0.0
 10
722.7780926573669
 20
491.0966953748165
 30
0.0
 10
722.2525761456976
 20
491.2837068357044
 30
0.0
 10
722.2110409455073
 20
491.2984876433354
 30
0.0
  0
SPLINE
  5
15B
330
1F
100
AcDbEntity
  8
0
  6
Continuous
 62
     7
370
    25
100
AcDbSpline
210
0.0
220
0.0
230
1.0
 70
     8
 71
     3
 72
    10
 73
     6
 74
     0
 42
0.00000001
 43
0.00000001
 40
0.0
 40
0.0
 40
0.0
 40
0.0
 40
0.2596150688488836
 40
0.629760644481066
 40
0.9999999999999999
 40
0.9999999999999999
 40
0.9999999999999999
 40
0.9999999999999999
 10
771.0262442626919
 20
488.3866067987128
 30
0.0
 10
766.9484240439688
 20
488.6863609358113
 30
0.0
 10
757.0566612106035
 20
489.4134888309753
 30
0.0
 10
741.3270885279303
 20
490.2393357008655
 30
0.0
 10
729.6769102666656
 20
490.7318673501312
 30
0.0
 10
723.8510833087546
 20
490.9781643677019
 30
0.0
  0
SPLINE
  5
15C
330
1F
100
AcDbEntity
  8
0
  6
Continuous
 62
     7
370
    25
100
AcDbSpline
210
0.0
220
0.0
230
1.0
 70
     8
 71
     3
 72
    11
 73
     7
 74
     0
 42
0.00000001
 43
0.00000001
 40
0.0
 40
0.0
 40
0.0
 40
0.0
 40
0.061464119541392
 40
0.4999988937835377
 40
0.9375097801832794
 40
1.0
 40
1.0
 40
1.0
 40
1.0
 10
771.0262442626916
 20
482.6605744517109
 30
0.0
 10
771.037913458894
 20
482.7770314241629
 30
0.0
 10
771.1328401451634
 20
483.7243866914942
 30
0.0
 10
771.2165429724297
 20
485.5216308899425
 30
0.0
 10
771.1329730489093
 20
487.3208289141833
 30
0.0
 10
771.0381013438641
 20
488.2682037386164
 30
0.0
 10
771.0262442626919
 20
488.3866067987128
 30
0.0
  0
SPLINE
  5
15D
330
1F
100
AcDbEntity
  8
0
  6
Continuous
 62
     7
370
    25
100
AcDbSpline
210
0.0
220
0.0
230
1.0
 70
     8
 71
     3
 72
    11
 73
     7
 74
     0
 42
0.00000001
 43
0.00000001
 40
0.0
 40
0.0
 40
0.0
 40
0.0
 40
0.259458927729189
 40
0.6296002946237427
 40
0.8147836738016297
 40
1.0
 40
1.0
 40
1.0
 40
1.0
 10
723.8510833087546
 20
480.0690168827237
 30
0.0
 10
727.9340839580996
 20
480.2345154691446
 30
0.0
 10
737.841850224904
 20
480.6361125915962
 30
0.0
 10
750.656987183865
 20
481.3143654076196
 30
0.0
 10
762.3012594501246
 20
481.9917862998317
 30
0.0
 10
768.1177435332571
 20
482.437631848444
 30
0.0
 10
771.0262442626916
 20
482.6605744517109
 30
0.0
  0
SPLINE
  5
15E
330
1F
100
AcDbEntity
  8
0
  6
Continuous
 62
     7
370
    25
100
AcDbSpline
210
0.0
220
0.0
230
1.0
 70
     8
 71
     3
 72
     9
 73
     5
 74
     0
 42
0.00000001
 43
0.00000001
 40
0.0
 40
0.0
 40
0.0
 40
0.0
 40
0.0790369080192139
 40
1.0
 40
1.0
 40
1.0
 40
1.0
 10
722.211040945508
 20
479.7486936070904
 30
0.0
 10
722.2525761457034
 20
479.7634744147231
 30
0.0
 10
722.7780926573726
 20
479.950485875611
 30
0.0
 10
723.3366617708872
 20
480.0121898238064
 30
0.0
 10
723.8510833087546
 20
480.0690168827237
 30
0.0
  0
SPLINE
  5
15F
330
1F
100
AcDbEntity
  8
0
  6
Continuous
 62
     7
370
    25
100
AcDbSpline
210
0.0
220
0.0
230
1.0
 70
     8
 71
     3
 72
    11
 73
     7
 74
     0
 42
0.00000001
 43
0.00000001
 40
0.0
 40
0.0
 40
0.0
 40
0.0
 40
0.0728838064943292
 40
0.4140719411596028
 40
0.9209668754550567
 40
1.0
 40
1.0
 40
1.0
 40
1.0
 10
723.7789711434185
 20
483.9229507586522
 30
0.0
 10
723.7866862925562
 20
483.8125043244132
 30
0.0
 10
723.8305180699207
 20
483.1850292840822
 30
0.0
 10
723.4860263584827
 20
481.8020372536172
 30
0.0
 10
722.8463370089964
 20
480.5321057358397
 30
0.0
 10
722.2865482595635
 20
479.8418050696667
 30
0.0
 10
722.211040945508
 20
479.7486936070904
 30
0.0
  0
SPLINE
  5
160
330
1F
100
AcDbEntity
  8
0
  6
Continuous
 62
     7
370
    25
100
AcDbSpline
210
0.0
220
0.0
230
1.0
 70
     8
 71
     3
 72
    10
 73
     6
 74
     0
 42
0.00000001
 43
0.00000001
 40
0.0
 40
0.0
 40
0.0
 40
0.0
 40
0.3880207377811385
 40
0.9790637766506849
 40
1.0
 40
1.0
 40
1.0
 40
1.0
 10
723.7789711434222
 20
487.1242304917882
 30
0.0
 10
723.7056566126629
 20
486.7133906299325
 30
0.0
 10
723.5206675273395
 20
485.6767490600841
 30
0.0
 10
723.6163744531706
 20
484.5829797385128
 30
0.0
 10
723.7735926044185
 20
483.9447838697934
 30
0.0
 10
723.7789711434185
 20
483.9229507586522
 30
0.0
  0
ARC
  5
161
330
1F
100
AcDbEntity
  8
0
  6
Continuous
 62
     7
370
    25
100
AcDbCircle
 10
715.5334508009
 20
485.5235906252
 30
0.0
 40
8.399443654264472
100
AcDbArc
 50
10.985757993
 51
349.0142420071
  0
SPLINE
  5
162
330
1F
100
AcDbEntity
  8
0
  6
Continuous
 62
     7
370
    25
100
AcDbSpline
210
0.0
220
0.0
230
1.0
 70
     8
 71
     3
 72
     9
 73
     5
 74
     0
 42
0.00000001
 43
0.00000001
 40
0.0
 40
0.0
 40
0.0
 40
0.0
 40
0.681792342127431
 40
1.0
 40
1.0
 40
1.0
 40
1.0
 10
722.211040945508
 20
479.7486936070904
 30
0.0
 10
722.0687773848649
 20
479.5587832519852
 30
0.0
 10
721.8601162547046
 20
479.2802375081117
 30
0.0
 10
721.6306904208242
 20
479.0473331351687
 30
0.0
 10
721.5576853635697
 20
478.9732211801463
 30
0.0
  0
ARC
  5
163
330
1F
100
AcDbEntity
  8
0
  6
Continuous
 62
     7
370
    25
100
AcDbCircle
 10
715.5334508009
 20
485.5235906252
 30
0.0
 40
8.899367501836332
100
AcDbArc
 50
47.3959191961
 51
312.6040808039
  0
LINE
  5
164
330
1F
100
AcDbEntity
  8
0
  6
Continuous
 62
     7
370
    25
100
AcDbLine
 10
721.5576853636
 20
492.0739600703
 30
0.0
 11
722.2110409455
 21
491.2984876433
 31
0.0
  0
SPLINE
  5
165
330
1F
100
AcDbEntity
  8
0
  6
Continuous
 62
     7
370
    25
100
AcDbSpline
210
0.0
220
0.0
230
1.0
 70
     8
 71
     3
 72
    10
 73
     6
 74
     0
 42
0.00000001
 43
0.00000001
 40
0.0
 40
0.0
 40
0.0
 40
0.0
 40
0.3702896688583046
 40
0.7405318123903298
 40
0.9999999999999999
 40
0.9999999999999999
 40
0.9999999999999999
 40
0.9999999999999999
 10
771.03776372587
 20
482.2177148708777
 30
0.0
 10
765.2176998796516
 20
481.8975238563514
 30
0.0
 10
753.578319171148
 20
481.2571829226458
 30
0.0
 10
737.8594507643733
 20
480.3879485907826
 30
0.0
 10
727.9622769483634
 20
479.8392075891734
 30
0.0
 10
723.8842086278994
 20
479.6131023053416
 30
0.0
  0
ARC
  5
166
330
1F
100
AcDbEntity
  8
0
  6
Continuous
 62
     7
370
    25
100
AcDbCircle
 10
731.0992978351
 20
480.366488672
 30
0.0
 40
7.254316183174429
100
AcDbArc
 50
182.3501399448
 51
185.9611177314
  0
ARC
  5
167
330
1F
100
AcDbEntity
  8
0
  6
Continuous
 62
     7
370
    25
100
AcDbCircle
 10
766.7772411847
 20
482.3284716949
 30
0.0
 40
4.261961918913477
100
AcDbArc
 50
358.5108705386
 51
4.4691613064
  0
SPLINE
  5
168
330
1F
100
AcDbEntity
  8
0
  6
Continuous
 62
     7
370
    25
100
AcDbSpline
210
0.0
220
0.0
230
1.0
 70
     8
 71
     3
 72
    10
 73
     6
 74
     0
 42
0.00000001
 43
0.00000001
 40
0.0
 40
0.0
 40
0.0
 40
0.0
 40
0.3702717503651152
 40
0.7405122151371749
 40
1.0
 40
1.0
 40
1.0
 40
1.0
 10
723.8842086278993
 20
491.4340789450841
 30
0.0
 10
729.7038806895685
 20
491.1115504594162
 30
0.0
 10
741.3427330878653
 20
490.4665207396731
 30
0.0
 10
757.06187267182
 20
489.5977062521941
 30
0.0
 10
766.9593700955186
 20
489.0536513414273
 30
0.0
 10
771.0377637258666
 20
488.8294663795481
 30
0.0
  0
ARC
  5
169
330
1F
100
AcDbEntity
  8
0
  6
Continuous
 62
     7
370
    25
100
AcDbCircle
 10
766.7772411818
 20
488.7187095556
 30
0.0
 40
4.261961921797899
100
AcDbArc
 50
355.530838696
 51
1.4891294598
  0
ARC
  5
16A
330
1F
100
AcDbEntity
  8
0
  6
Continuous
 62
     7
370
    25
100
AcDbCircle
 10
731.0992978355
 20
490.6806925784
 30
0.0
 40
7.254316183521046
100
AcDbArc
 50
174.0388822687
 51
177.6498600551
  0
SPLINE
  5
16B
330
1F
100
AcDbEntity
  8
0
  6
Continuous
 62
     7
370
    25
100
AcDbSpline
210
0.0
220
0.0
230
1.0
 70
     8
 71
     3
 72
    12
 73
     8
 74
     0
 42
0.00000001
 43
0.00000001
 40
0.0
 40
0.0
 40
0.0
 40
0.0
 40
0.1224290494151348
 40
0.3423522449770467
 40
0.5614228816909441
 40
0.7807229538533574
 40
1.0
 40
1.0
 40
1.0
 40
1.0
 10
772.9619716955393
 20
488.2759324290566
 30
0.0
 10
772.9529676196753
 20
488.2782911134975
 30
0.0
 10
772.9277892359441
 20
488.2848867778223
 30
0.0
 10
772.7118015522994
 20
488.3018947455615
 30
0.0
 10
772.2759034225703
 20
488.3274057197159
 30
0.0
 10
771.6919778091402
 20
488.3569579022752
 30
0.0
 10
771.2481476775721
 20
488.3767241791542
 30
0.0
 10
771.0262442626919
 20
488.3866067987128
 30
0.0
  0
SPLINE
  5
16C
330
1F
100
AcDbEntity
  8
0
  6
Continuous
 62
     7
370
    25
100
AcDbSpline
210
0.0
220
0.0
230
1.0
 70
     8
 71
     3
 72
    11
 73
     7
 74
     0
 42
0.00000001
 43
0.00000001
 40
0.0
 40
0.0
 40
0.0
 40
0.0
 40
0.0800485240044433
 40
0.5000005853538798
 40
0.9209248322279645
 40
1.0
 40
1.0
 40
1.0
 40
1.0
 10
772.9619716955393
 20
488.2759324290566
 30
0.0
 10
772.961685451125
 20
488.1296880039559
 30
0.0
 10
772.9598975059205
 20
487.2162133451228
 30
0.0
 10
772.9586618090906
 20
485.5218037573643
 30
0.0
 10
772.9598995071855
 20
483.8291769055097
 30
0.0
 10
772.9616887291535
 20
482.9157135298658
 30
0.0
 10
772.9619716955393
 20
482.7712488213745
 30
0.0
  0
SPLINE
  5
16D
330
1F
100
AcDbEntity
  8
0
  6
Continuous
 62
     7
370
    25
100
AcDbSpline
210
0.0
220
0.0
230
1.0
 70
     8
 71
     3
 72
    12
 73
     8
 74
     0
 42
0.00000001
 43
0.00000001
 40
0.0
 40
0.0
 40
0.0
 40
0.0
 40
0.1130367476169362
 40
0.3328594693548023
 40
0.5544127937945006
 40
0.7774207483513244
 40
1.0
 40
1.0
 40
1.0
 40
1.0
 10
771.0262442626916
 20
482.6605744517109
 30
0.0
 10
771.1403151026784
 20
482.6655896974123
 30
0.0
 10
771.4762196652864
 20
482.6803580984681
 30
0.0
 10
772.0102875216811
 20
482.7059503025774
 30
0.0
 10
772.5268131595683
 20
482.7338255654485
 30
0.0
 10
772.8837078767228
 20
482.757267439039
 30
0.0
 10
772.9359004942412
 20
482.7665913507986
 30
0.0
 10
772.9619716955393
 20
482.7712488213745
 30
0.0
  0
SPLINE
  5
16E
330
1F
100
AcDbEntity
  8
0
  6
Continuous
 62
     7
370
    25
100
AcDbSpline
210
0.0
220
0.0
230
1.0
 70
     8
 71
     3
 72
     9
 73
     5
 74
     0
 42
0.00000001
 43
0.00000001
 40
0.0
 40
0.0
 40
0.0
 40
0.0
 40
0.500010612381544
 40
1.0
 40
1.0
 40
1.0
 40
1.0
 10
721.0580775147267
 20
492.5057917595257
 30
0.0
 10
721.4877988815475
 20
492.2179512214324
 30
0.0
 10
722.3472233741081
 20
491.642282363681
 30
0.0
 10
723.3718874593864
 20
491.5034791025942
 30
0.0
 10
723.8842086278993
 20
491.4340789450841
 30
0.0
  0
SPLINE
  5
16F
330
1F
100
AcDbEntity
  8
0
  6
Continuous
 62
     7
370
    25
100
AcDbSpline
210
0.0
220
0.0
230
1.0
 70
     8
 71
     3
 72
     9
 73
     5
 74
     0
 42
0.00000001
 43
0.00000001
 40
0.0
 40
0.0
 40
0.0
 40
0.0
 40
0.9838702326459385
 40
1.0
 40
1.0
 40
1.0
 40
1.0
 10
721.5576853635697
 20
492.0739600702794
 30
0.0
 10
721.3963445486349
 20
492.2187924832984
 30
0.0
 10
721.2323586797866
 20
492.3659993081552
 30
0.0
 10
721.0608440065045
 20
492.5035727322017
 30
0.0
 10
721.0580775147267
 20
492.5057917595257
 30
0.0
  0
SPLINE
  5
170
330
1F
100
AcDbEntity
  8
0
  6
Continuous
 62
     7
370
    25
100
AcDbSpline
210
0.0
220
0.0
230
1.0
 70
     8
 71
     3
 72
     9
 73
     5
 74
     0
 42
0.00000001
 43
0.00000001
 40
0.0
 40
0.0
 40
0.0
 40
0.0
 40
0.5055561057107305
 40
1.0
 40
1.0
 40
1.0
 40
1.0
 10
723.8842086278994
 20
479.6131023053416
 30
0.0
 10
723.3661491105663
 20
479.5424462710716
 30
0.0
 10
722.3414171144909
 20
479.4026872344941
 30
0.0
 10
721.4826765457294
 20
478.8263539596984
 30
0.0
 10
721.0580775147267
 20
478.5413894908999
 30
0.0
  0
SPLINE
  5
171
330
1F
100
AcDbEntity
  8
0
  6
Continuous
 62
     7
370
    25
100
AcDbSpline
210
0.0
220
0.0
230
1.0
 70
     8
 71
     3
 72
     9
 73
     5
 74
     0
 42
0.00000001
 43
0.00000001
 40
0.0
 40
0.0
 40
0.0
 40
0.0
 40
0.0161297673533178
 40
0.9999999999999999
 40
0.9999999999999999
 40
0.9999999999999999
 40
0.9999999999999999
 10
721.0580775147267
 20
478.5413894908999
 30
0.0
 10
721.0608440065045
 20
478.5436085182238
 30
0.0
 10
721.2323586797907
 20
478.6811819422734
 30
0.0
 10
721.396344548637
 20
478.8283887671287
 30
0.0
 10
721.5576853635697
 20
478.9732211801463
 30
0.0
  0
SPLINE
  5
172
330
1F
100
AcDbEntity
  8
0
  6
Continuous
 62
     7
370
    25
100
AcDbSpline
210
0.0
220
0.0
230
1.0
 70
     8
 71
     3
 72
    12
 73
     8
 74
     0
 42
0.00000001
 43
0.00000001
 40
0.0
 40
0.0
 40
0.0
 40
0.0
 40
0.2230315344150434
 40
0.4461337558340359
 40
0.6675099896777019
 40
0.8870667292265005
 40
1.0
 40
1.0
 40
1.0
 40
1.0
 10
772.4896174304547
 20
482.2720857503261
 30
0.0
 10
772.470083644329
 20
482.2739759976209
 30
0.0
 10
772.4310098810923
 20
482.2777570913002
 30
0.0
 10
772.1634206990362
 20
482.2708142550296
 30
0.0
 10
771.7758916152111
 20
482.2552254325398
 30
0.0
 10
771.375169502748
 20
482.2358881524755
 30
0.0
 10
771.1233100804902
 20
482.222322551299
 30
0.0
 10
771.03776372587
 20
482.2177148708777
 30
0.0
  0
ARC
  5
173
330
1F
100
AcDbEntity
  8
0
  6
Continuous
 62
     7
370
    25
100
AcDbCircle
 10
772.4618718079
 20
482.7714154067
 30
0.0
 40
0.5000999153468849
100
AcDbArc
 50
273.1804119247
 51
359.9809145383
  0
SPLINE
  5
174
330
1F
100
AcDbEntity
  8
0
  6
Continuous
 62
     7
370
    25
100
AcDbSpline
210
0.0
220
0.0
230
1.0
 70
     8
 71
     3
 72
    12
 73
     8
 74
     0
 42
0.00000001
 43
0.00000001
 40
0.0
 40
0.0
 40
0.0
 40
0.0
 40
0.2190444340109334
 40
0.4380981679380241
 40
0.6571027493691853
 40
0.8772791087290019
 40
1.0
 40
1.0
 40
1.0
 40
1.0
 10
771.0377637258666
 20
488.8294663795481
 30
0.0
 10
771.2041814666375
 20
488.8206375665984
 30
0.0
 10
771.5370240137365
 20
488.8029795658561
 30
0.0
 10
771.9751824563797
 20
488.7834610764471
 30
0.0
 10
772.3021482831393
 20
488.7721552928147
 30
0.0
 10
772.4639921601535
 20
488.7703314247381
 30
0.0
 10
772.4828634925657
 20
488.7738398540629
 30
0.0
 10
772.4896174304547
 20
488.7750955000995
 30
0.0
  0
ARC
  5
175
330
1F
100
AcDbEntity
  8
0
  6
Continuous
 62
     7
370
    25
100
AcDbCircle
 10
772.4618718079
 20
488.2757658437
 30
0.0
 40
0.5000999153471427
100
AcDbArc
 50
0.0190854624
 51
86.8195880753
  0
LINE
  5
176
330
1F
100
AcDbEntity
  8
0
  6
Continuous
 62
     7
370
    25
100
AcDbLine
 10
723.8842086279
 20
479.6131023053
 30
0.0
 11
723.9111948096
 21
479.54181203
 31
0.0
  0
LINE
  5
177
330
1F
100
AcDbEntity
  8
0
  6
Continuous
 62
     7
370
    25
100
AcDbLine
 10
772.4943077911
 20
482.2676472973
 30
0.0
 11
772.4896174305
 21
482.2720857503
 31
0.0
  0
ELLIPSE
  5
178
330
1F
100
AcDbEntity
  8
0
  6
Continuous
 62
     7
370
    25
100
AcDbEllipse
 10
770.9945362484
 20
482.1843548473
 30
0.0
 11
1.499999304622747
 21
0.08287263343868288
 31
0.0
210
0.0
220
0.0
230
1.0
 40
0.0174284859
 41
5.396717970286519
 42
6.299675703199751
  0
LINE
  5
179
330
1F
100
AcDbEntity
  8
0
  6
Continuous
 62
     7
370
    25
100
AcDbLine
 10
768.4789215794
 20
481.9755952592
 30
0.0
 11
771.9438847888
 21
482.2164865382
 31
0.0
  0
LINE
  5
17A
330
1F
100
AcDbEntity
  8
0
  6
Continuous
 62
     7
370
    25
100
AcDbLine
 10
768.4789215794
 20
481.9756936505
 30
0.0
 11
768.4789215794
 21
481.9755952592
 31
0.0
  0
ELLIPSE
  5
17B
330
1F
100
AcDbEntity
  8
0
  6
Continuous
 62
     7
370
    25
100
AcDbEllipse
 10
759.0294351584
 20
481.646047599
 30
0.0
 11
14.49999327802038
 21
0.8011021232406392
 31
0.0
210
0.0
220
0.0
230
1.0
 40
0.0174284859
 41
4.685109492442212
 42
5.421234828998202
  0
ELLIPSE
  5
17C
330
1F
100
AcDbEntity
  8
0
  6
Continuous
 62
     7
370
    25
100
AcDbEllipse
 10
757.7084252429
 20
480.6957640497
 30
0.0
 11
35.70262504606012
 21
1.972514619921981
 31
0.0
210
0.0
220
0.0
230
1.0
 40
0.0174284859
 41
1.543516838852421
 42
2.025717338718003
  0
ELLIPSE
  5
17D
330
1F
100
AcDbEntity
  8
0
  6
Continuous
 62
     7
370
    25
100
AcDbEllipse
 10
738.6881977708
 20
480.32336799
 30
0.0
 11
7.499996523114078
 21
0.4143631671934145
 31
0.0
210
0.0
220
0.0
230
1.0
 40
0.0174284859
 41
4.976419334597704
 42
5.167309992307896
  0
LINE
  5
17E
330
1F
100
AcDbEntity
  8
0
  6
Continuous
 62
     7
370
    25
100
AcDbLine
 10
740.6328501719
 20
480.4557124412
 30
0.0
 11
740.6524684292
 21
480.3053218966
 31
0.0
  0
SPLINE
  5
17F
330
1F
100
AcDbEntity
  8
0
  6
Continuous
 62
     7
370
    25
100
AcDbSpline
210
0.0
220
0.0
230
1.0
 70
     8
 71
     3
 72
    10
 73
     6
 74
     0
 42
0.00000001
 43
0.00000001
 40
0.0
 40
0.0
 40
0.0
 40
0.0
 40
0.0186368637457253
 40
0.3939469944633057
 40
1.0
 40
1.0
 40
1.0
 40
1.0
 10
740.4490788861691
 20
480.4552260739376
 30
0.0
 10
740.4515350934178
 20
480.455313824417
 30
0.0
 10
740.5034545298947
 20
480.4571686986099
 30
0.0
 10
740.6074533783726
 20
480.4598486799881
 30
0.0
 10
740.623154035722
 20
480.4572915985905
 30
0.0
 10
740.6328501718656
 20
480.4557124411826
 30
0.0
  0
LINE
  5
180
330
1F
100
AcDbEntity
  8
0
  6
Continuous
 62
     7
370
    25
100
AcDbLine
 10
723.9111948096
 20
479.54181203
 30
0.0
 11
740.4490788862
 21
480.4552260739
 31
0.0
  0
LINE
  5
181
330
1F
100
AcDbEntity
  8
0
  6
Continuous
 62
     7
370
    25
100
AcDbLine
 10
740.4511446181
 20
490.6081588253
 30
0.0
 11
723.9172361946
 21
491.5213532875
 31
0.0
  0
SPLINE
  5
182
330
1F
100
AcDbEntity
  8
0
  6
Continuous
 62
     7
370
    25
100
AcDbSpline
210
0.0
220
0.0
230
1.0
 70
     8
 71
     3
 72
    11
 73
     7
 74
     0
 42
0.00000001
 43
0.00000001
 40
0.0
 40
0.0
 40
0.0
 40
0.0
 40
0.4177469294495291
 40
0.8392770662410922
 40
0.9817832068819584
 40
1.0
 40
1.0
 40
1.0
 40
1.0
 10
740.6348500587375
 20
490.6068093800295
 30
0.0
 10
740.6302130307055
 20
490.6057261888458
 30
0.0
 10
740.6208969807042
 20
490.6035499968628
 30
0.0
 10
740.5454005149538
 20
490.6047521737542
 30
0.0
 10
740.4751403143821
 20
490.6072227010942
 30
0.0
 10
740.4535874777243
 20
490.6080635240511
 30
0.0
 10
740.4511446180943
 20
490.6081588253096
 30
0.0
  0
LINE
  5
183
330
1F
100
AcDbEntity
  8
0
  6
Continuous
 62
     7
370
    25
100
AcDbLine
 10
740.6524684292
 20
490.7418593538
 30
0.0
 11
740.6348500587
 21
490.60680938
 31
0.0
  0
ELLIPSE
  5
184
330
1F
100
AcDbEntity
  8
0
  6
Continuous
 62
     7
370
    25
100
AcDbEllipse
 10
738.6881977708
 20
490.7238132604
 30
0.0
 11
7.499996523114079
 21
-0.4143631671934714
 31
0.0
210
0.0
220
0.0
230
1.0
 40
0.0174284859
 41
1.115875314871912
 42
1.306765972581955
  0
ELLIPSE
  5
185
330
1F
100
AcDbEntity
  8
0
  6
Continuous
 62
     7
370
    25
100
AcDbEllipse
 10
757.7084252429
 20
490.3514172007
 30
0.0
 11
35.70262504606012
 21
-1.972514619921981
 31
0.0
210
0.0
220
0.0
230
1.0
 40
0.0174284859
 41
4.257467968461734
 42
4.739668468327166
  0
ELLIPSE
  5
186
330
1F
100
AcDbEntity
  8
0
  6
Continuous
 62
     7
370
    25
100
AcDbEllipse
 10
759.0294351584
 20
489.4011336514
 30
0.0
 11
14.49999327802038
 21
-0.8011021232406961
 31
0.0
210
0.0
220
0.0
230
1.0
 40
0.0174284859
 41
0.8619504781818109
 42
1.598075814737375
  0
LINE
  5
187
330
1F
100
AcDbEntity
  8
0
  6
Continuous
 62
     7
370
    25
100
AcDbLine
 10
768.4789215794
 20
489.0715859912
 30
0.0
 11
768.4789215794
 21
489.0714876
 31
0.0
  0
LINE
  5
188
330
1F
100
AcDbEntity
  8
0
  6
Continuous
 62
     7
370
    25
100
AcDbLine
 10
771.9438847888
 20
488.8306947122
 30
0.0
 11
768.4789215794
 21
489.0715859912
 31
0.0
  0
ELLIPSE
  5
189
330
1F
100
AcDbEntity
  8
0
  6
Continuous
 62
     7
370
    25
100
AcDbEllipse
 10
770.9945362484
 20
488.8628264032
 30
0.0
 11
1.499999304622747
 21
-0.08287263343868288
 31
0.0
210
0.0
220
0.0
230
1.0
 40
0.0174284859
 41
0.4974977249173457
 42
0.8864673368933832
  0
LINE
  5
18A
330
1F
100
AcDbEntity
  8
0
  6
Continuous
 62
     7
370
    25
100
AcDbLine
 10
772.4896174305
 20
488.7750955001
 30
0.0
 11
772.4943077911
 21
488.7795339532
 31
0.0
  0
LINE
  5
18B
330
1F
100
AcDbEntity
  8
0
  6
Continuous
 62
     7
370
    25
100
AcDbLine
 10
723.9172361946
 20
491.5213532875
 30
0.0
 11
723.8842086279
 21
491.4340789451
 31
0.0
  0
SPLINE
  5
18C
330
1F
100
AcDbEntity
  8
0
  6
Continuous
 62
     7
370
    25
100
AcDbSpline
210
0.0
220
0.0
230
1.0
 70
     8
 71
     3
 72
     9
 73
     5
 74
     0
 42
0.00000001
 43
0.00000001
 40
0.0
 40
0.0
 40
0.0
 40
0.0
 40
0.5001021276704695
 40
1.0
 40
1.0
 40
1.0
 40
1.0
 10
721.0912963807822
 20
478.4756980439398
 30
0.0
 10
721.5202441564895
 20
478.7622236780283
 30
0.0
 10
722.3779645139401
 20
479.3351579213261
 30
0.0
 10
723.4001876425551
 20
479.4729367077803
 30
0.0
 10
723.9111948095958
 20
479.5418120299808
 30
0.0
  0
LINE
  5
18D
330
1F
100
AcDbEntity
  8
0
  6
Continuous
 62
     7
370
    25
100
AcDbLine
 10
721.0912963808
 20
478.4756980439
 30
0.0
 11
721.0580775147
 21
478.5413894909
 31
0.0
  0
SPLINE
  5
18E
330
1F
100
AcDbEntity
  8
0
  6
Continuous
 62
     7
370
    25
100
AcDbSpline
210
0.0
220
0.0
230
1.0
 70
     8
 71
     3
 72
     9
 73
     5
 74
     0
 42
0.00000001
 43
0.00000001
 40
0.0
 40
0.0
 40
0.0
 40
0.0
 40
0.400722737156528
 40
1.0
 40
1.0
 40
1.0
 40
1.0
 10
723.9172361946476
 20
491.5213532875242
 30
0.0
 10
723.5085500712382
 20
491.5697605495898
 30
0.0
 10
722.4886775121985
 20
491.6905604383336
 30
0.0
 10
721.6196014683726
 20
492.2506677116873
 30
0.0
 10
721.0987839556258
 20
492.5863272653614
 30
0.0
  0
LINE
  5
18F
330
1F
100
AcDbEntity
  8
0
  6
Continuous
 62
     7
370
    25
100
AcDbLine
 10
721.0580775147
 20
492.5057917595
 30
0.0
 11
721.0987839556
 21
492.5863272654
 31
0.0
  0
ARC
  5
190
330
1F
100
AcDbEntity
  8
0
  6
Continuous
 62
     7
370
    25
100
AcDbCircle
 10
715.5334508009
 20
485.5235906252
 30
0.0
 40
8.975658044222099
100
AcDbArc
 50
245.1648853947
 51
308.2586979829
  0
LWPOLYLINE
  5
191
330
1F
100
AcDbEntity
  8
0
  6
Continuous
 62
     7
370
    25
100
AcDbPolyline
 90
        3
 70
   128
 43
0.0
 10
711.5981373767
 20
477.2729309019
 10
711.7027189408
 20
477.3391833132
 10
711.7635994835
 20
477.3779992795
  0
ARC
  5
192
330
1F
100
AcDbEntity
  8
0
  6
Continuous
 62
     7
370
    25
100
AcDbCircle
 10
715.5334508009
 20
485.5235906252
 30
0.0
 40
9.14112015109221
100
AcDbArc
 50
115.4997164176
 51
244.5002794289
  0
LWPOLYLINE
  5
193
330
1F
100
AcDbEntity
  8
0
  6
Continuous
 62
     7
370
    25
100
AcDbPolyline
 90
        3
 70
   128
 43
0.0
 10
711.7473065731
 20
493.6795880417
 10
711.7027189408
 20
493.7079979373
 10
711.5981373764
 20
493.7742503487
  0
ARC
  5
194
330
1F
100
AcDbEntity
  8
0
  6
Continuous
 62
     7
370
    25
100
AcDbCircle
 10
715.5334508009
 20
485.5235906252
 30
0.0
 40
8.991950954660714
100
AcDbArc
 50
51.762407147
 51
114.9014811666
  0
LINE
  5
195
330
1F
100
AcDbEntity
  8
0
  6
Continuous
 62
     7
370
    25
100
AcDbLine
 10
772.9666620562
 20
488.2803708821
 30
0.0
 11
772.9619716955
 21
488.2759324291
 31
0.0
  0
LINE
  5
196
330
1F
100
AcDbEntity
  8
0
  6
Continuous
 62
     7
370
    25
100
AcDbLine
 10
772.9666620562
 20
482.7668103683
 30
0.0
 11
772.9666620562
 21
488.2803708821
 31
0.0
  0
LINE
  5
197
330
1F
100
AcDbEntity
  8
0
  6
Continuous
 62
     7
370
    25
100
AcDbLine
 10
772.9619716955
 20
482.7712488214
 30
0.0
 11
772.9666620562
 21
482.7668103683
 31
0.0
  0
ARC
  5
198
330
1F
100
AcDbEntity
  8
0
  6
Continuous
 62
     7
370
    25
100
AcDbCircle
 10
772.4665621686
 20
488.2802042968
 30
0.0
 40
0.5000999153470271
100
AcDbArc
 50
0.0190854617
 51
86.8195880753
  0
ARC
  5
199
330
1F
100
AcDbEntity
  8
0
  6
Continuous
 62
     7
370
    25
100
AcDbCircle
 10
772.4665621686
 20
482.7669769537
 30
0.0
 40
0.5000999153471408
100
AcDbArc
 50
273.1804119248
 51
359.9809145383
  0
LINE
  5
19A
330
1F
100
AcDbEntity
  8
0
  6
Continuous
 62
     7
370
    25
100
AcDbLine
 10
771.9438847888
 20
482.2164865382
 30
0.0
 11
771.9509925196
 21
482.2168535749
 31
0.0
  0
LINE
  5
19B
330
1F
100
AcDbEntity
  8
0
  6
Continuous
 62
     7
370
    25
100
AcDbLine
 10
771.9438847888
 20
488.8306947122
 30
0.0
 11
771.9509925196
 21
488.8303276756
 31
0.0
  0
SPLINE
  5
19C
330
1F
100
AcDbEntity
  8
0
  6
Continuous
 62
     7
370
    25
100
AcDbSpline
210
0.0
220
0.0
230
1.0
 70
     8
 71
     3
 72
    12
 73
     8
 74
     0
 42
0.00000001
 43
0.00000001
 40
0.0
 40
0.0
 40
0.0
 40
0.0
 40
0.1662426524176545
 40
0.3368059756191297
 40
0.6054181071254586
 40
0.8801435087136193
 40
1.0
 40
1.0
 40
1.0
 40
1.0
 10
721.6555100482259
 20
473.8469302435419
 30
0.0
 10
721.0178285276899
 20
474.0024154190248
 30
0.0
 10
719.7258920508892
 20
474.3174268523801
 30
0.0
 10
717.5417056685399
 20
474.9803919573786
 30
0.0
 10
715.17973132498
 20
475.832586874184
 30
0.0
 10
713.2141937630875
 20
476.6752155527961
 30
0.0
 10
712.1004187782919
 20
477.2130736454912
 30
0.0
 10
711.7621033001343
 20
477.3764510963185
 30
0.0
  0
LINE
  5
19D
330
1F
100
AcDbEntity
  8
0
  6
Continuous
 62
     7
370
    25
100
AcDbLine
 10
721.6555100482
 20
473.8469302435
 30
0.0
 11
721.6396519713
 21
473.777456712
 31
0.0
  0
ARC
  5
19E
330
1F
100
AcDbEntity
  8
0
  6
Continuous
 62
     7
370
    25
100
AcDbCircle
 10
732.3614302078
 20
520.7490915242
 30
0.0
 40
48.17977797259049
100
AcDbArc
 50
244.4718479123
 51
257.1419190681
  0
LWPOLYLINE
  5
19F
330
1F
100
AcDbEntity
  8
0
  6
Continuous
 62
     7
370
    25
100
AcDbPolyline
 90
        3
 70
   128
 43
0.0
 10
711.7621033001
 20
477.3764510963
 10
711.7027154498
 20
477.3389273927
 10
711.598137377
 20
477.2729293629
  0
SPLINE
  5
1A0
330
1F
100
AcDbEntity
  8
0
  6
Continuous
 62
     7
370
    25
100
AcDbSpline
210
0.0
220
0.0
230
1.0
 70
     8
 71
     3
 72
    12
 73
     8
 74
     0
 42
0.00000001
 43
0.00000001
 40
0.0
 40
0.0
 40
0.0
 40
0.0
 40
0.1345419440893866
 40
0.4125227334043395
 40
0.6966514762099312
 40
0.8475579366075728
 40
1.0
 40
1.0
 40
1.0
 40
1.0
 10
711.7628208770914
 20
477.3771926623925
 30
0.0
 10
712.1921783005214
 20
477.1863672158001
 30
0.0
 10
713.5086428359459
 20
476.6012720964737
 30
0.0
 10
715.8822707799683
 20
475.9763234476828
 30
0.0
 10
718.407217212042
 20
475.6749678121902
 30
0.0
 10
720.552154930819
 20
475.5693811425857
 30
0.0
 10
721.6885026375048
 20
475.5637481748892
 30
0.0
 10
722.2595526857269
 20
475.5609174335097
 30
0.0
  0
ARC
  5
1A1
330
1F
100
AcDbEntity
  8
0
  6
Continuous
 62
     7
370
    25
100
AcDbCircle
 10
717.7670216927
 20
476.1807414781
 30
0.0
 40
4.535087272517355
100
AcDbArc
 50
329.0284626407
 51
352.1446266983
  0
LINE
  5
1A2
330
1F
100
AcDbEntity
  8
0
  6
Continuous
 62
     7
370
    25
100
AcDbLine
 10
711.7621033001
 20
477.3764510963
 30
0.0
 11
711.7628208771
 21
477.3771926624
 31
0.0
  0
LINE
  5
1A3
330
1F
100
AcDbEntity
  8
0
  6
Continuous
 62
     7
370
    25
100
AcDbLine
 10
721.0912963808
 20
478.4756980439
 30
0.0
 11
723.2891683009
 21
475.6885811696
 31
0.0
  0
ARC
  5
1A4
330
1F
100
AcDbEntity
  8
0
  6
Continuous
 62
     7
370
    25
100
AcDbCircle
 10
715.5334508009
 20
485.5235906252
 30
0.0
 40
12.52511736202727
100
AcDbArc
 50
307.8583068702
 51
308.2586979829
  0
LINE
  5
1A5
330
1F
100
AcDbEntity
  8
0
  6
Continuous
 62
     7
370
    25
100
AcDbLine
 10
722.2595526857
 20
475.5609174335
 30
0.0
 11
723.2202510346
 21
475.6346236873
 31
0.0
  0
LINE
  5
1A6
330
1F
100
AcDbEntity
  8
0
  6
Continuous
 62
     7
370
    25
100
AcDbLine
 10
711.7635994835
 20
477.3779992795
 30
0.0
 11
711.7628208771
 21
477.3771926624
 31
0.0
  0
ARC
  5
1A7
330
1F
100
AcDbEntity
  8
0
  6
Continuous
 62
     7
370
    25
100
AcDbCircle
 10
733.4511225146
 20
480.2469912371
 30
0.0
 40
6.834138728203404
100
AcDbArc
 50
211.8771071303
 51
226.9488007428
  0
SPLINE
  5
1A8
330
1F
100
AcDbEntity
  8
0
  6
Continuous
 62
     7
370
    25
100
AcDbSpline
210
0.0
220
0.0
230
1.0
 70
     8
 71
     3
 72
    17
 73
    13
 74
     0
 42
0.00000001
 43
0.00000001
 40
0.0
 40
0.0
 40
0.0
 40
0.0
 40
0.2859834379244703
 40
0.521592264412224
 40
0.759239901680938
 40
0.85214924050605
 40
0.9266708633836014
 40
0.9605058393195369
 40
0.9835417153308584
 40
0.9930790992390832
 40
0.9972256067114875
 40
1.0
 40
1.0
 40
1.0
 40
1.0
 10
727.647689723475
 20
476.6378888562277
 30
0.0
 10
728.8764679072221
 20
477.1697569802481
 30
0.0
 10
731.117580889053
 20
478.1398072082956
 30
0.0
 10
734.4565295759548
 20
479.1820378790803
 30
0.0
 10
736.9591849426615
 20
479.799856440007
 30
0.0
 10
738.7294912266979
 20
480.1538317492252
 30
0.0
 10
739.5946120620351
 20
480.308532783838
 30
0.0
 10
740.1201994913105
 20
480.3970327746697
 30
0.0
 10
740.3538616049678
 20
480.4361445374923
 30
0.0
 10
740.4315117644571
 20
480.4504643042542
 30
0.0
 10
740.4475934186573
 20
480.4541980565716
 30
0.0
 10
740.4486538066332
 20
480.4549318977666
 30
0.0
 10
740.4490788861691
 20
480.4552260739376
 30
0.0
  0
SPLINE
  5
1A9
330
1F
100
AcDbEntity
  8
0
  6
Continuous
 62
     7
370
    25
100
AcDbSpline
210
0.0
220
0.0
230
1.0
 70
     8
 71
     3
 72
    10
 73
     6
 74
     0
 42
0.00000001
 43
0.00000001
 40
0.0
 40
0.0
 40
0.0
 40
0.0
 40
0.5975855365574454
 40
0.9790563563181981
 40
1.0
 40
1.0
 40
1.0
 40
1.0
 10
740.5591042058568
 20
480.4460991765983
 30
0.0
 10
740.5616233452101
 20
480.4498384743247
 30
0.0
 10
740.5657505859908
 20
480.4559647658482
 30
0.0
 10
740.4913794594352
 20
480.4563413247047
 30
0.0
 10
740.451171507331
 20
480.4552812457043
 30
0.0
 10
740.4490788861691
 20
480.4552260739376
 30
0.0
  0
SPLINE
  5
1AA
330
1F
100
AcDbEntity
  8
0
  6
Continuous
 62
     7
370
    25
100
AcDbSpline
210
0.0
220
0.0
230
1.0
 70
     8
 71
     3
 72
    15
 73
    11
 74
     0
 42
0.00000001
 43
0.00000001
 40
0.0
 40
0.0
 40
0.0
 40
0.0
 40
0.0128981401598393
 40
0.0519443541565596
 40
0.131832795201433
 40
0.2279057212361197
 40
0.4677439605522729
 40
0.7076088995729001
 40
0.8538517081976984
 40
1.0
 40
1.0
 40
1.0
 40
1.0
 10
740.5591042058568
 20
480.4460991765983
 30
0.0
 10
740.5256356023325
 20
480.4382542793107
 30
0.0
 10
740.3908483405222
 20
480.4066607225671
 30
0.0
 10
739.9515779605555
 20
480.3042699792582
 30
0.0
 10
739.1401223405707
 20
480.1019484837695
 30
0.0
 10
737.486856008782
 20
479.6342995845392
 30
0.0
 10
735.1404968780176
 20
478.8027128065041
 30
0.0
 10
732.5969010361906
 20
477.6091222114291
 30
0.0
 10
730.4781236165493
 20
476.4022001667388
 30
0.0
 10
729.3497773749691
 20
475.6359745002367
 30
0.0
 10
728.7857866258403
 20
475.2529855100424
 30
0.0
  0
LINE
  5
1AB
330
1F
100
AcDbEntity
  8
0
  6
Continuous
 62
     7
370
    25
100
AcDbLine
 10
726.2070213614
 20
476.1137451742
 30
0.0
 11
724.1069388453
 21
475.9977542255
 31
0.0
  0
LINE
  5
1AC
330
1F
100
AcDbEntity
  8
0
  6
Continuous
 62
     7
370
    25
100
AcDbLine
 10
723.9111948096
 20
479.54181203
 30
0.0
 11
724.1069388453
 21
475.9977542255
 31
0.0
  0
LINE
  5
1AD
330
1F
100
AcDbEntity
  8
0
  6
Continuous
 62
     7
370
    25
100
AcDbLine
 10
726.2070213614
 20
476.1137451742
 30
0.0
 11
727.6476897235
 21
476.6378888562
 31
0.0
  0
LWPOLYLINE
  5
1AE
330
1F
100
AcDbEntity
  8
0
  6
Continuous
 62
     7
370
    25
100
AcDbPolyline
 90
        4
 70
   128
 43
0.0
 10
740.5786310199
 20
480.2950036003
 10
740.5763863843
 20
480.3123617472
 10
740.5674113503
 20
480.3817944934
 10
740.5591042059
 20
480.4460991766
  0
LINE
  5
1AF
330
1F
100
AcDbEntity
  8
0
  6
Continuous
 62
     7
370
    25
100
AcDbLine
 10
738.7905067362
 20
479.865476097
 30
0.0
 11
740.5786310199
 21
480.2950036003
 31
0.0
  0
ARC
  5
1B0
330
1F
100
AcDbEntity
  8
0
  6
Continuous
 62
     7
370
    25
100
AcDbCircle
 10
746.9760651347
 20
449.4397825032
 30
0.0
 40
31.50755777528331
100
AcDbArc
 50
105.0579972479
 51
125.1719294169
  0
LINE
  5
1B1
330
1F
100
AcDbEntity
  8
0
  6
Continuous
 62
     7
370
    25
100
AcDbLine
 10
728.7857866258
 20
475.25298551
 30
0.0
 11
728.826706512
 21
475.194917497
 31
0.0
  0
SPLINE
  5
1B2
330
1F
100
AcDbEntity
  8
0
  6
Continuous
 62
     7
370
    25
100
AcDbSpline
210
0.0
220
0.0
230
1.0
 70
     8
 71
     3
 72
     9
 73
     5
 74
     0
 42
0.00000001
 43
0.00000001
 40
0.0
 40
0.0
 40
0.0
 40
0.0
 40
0.4998978730609624
 40
1.0
 40
1.0
 40
1.0
 40
1.0
 10
724.1069388453011
 20
475.9977542255369
 30
0.0
 10
723.9587439294053
 20
475.9777878875346
 30
0.0
 10
723.6622935464734
 20
475.9378470534599
 30
0.0
 10
723.4135603176968
 20
475.7716811108893
 30
0.0
 10
723.2891683009451
 20
475.6885811695849
 30
0.0
  0
ARC
  5
1B3
330
1F
100
AcDbEntity
  8
0
  6
Continuous
 62
     7
370
    25
100
AcDbCircle
 10
740.6604395208
 20
479.9563977368
 30
0.0
 40
0.5000763403949354
100
AcDbArc
 50
93.1626296401
 51
101.6913635616
  0
SPLINE
  5
1B4
330
1F
100
AcDbEntity
  8
0
  6
Continuous
 62
     7
370
    25
100
AcDbSpline
210
0.0
220
0.0
230
1.0
 70
     8
 71
     3
 72
    13
 73
     9
 74
     0
 42
0.00000001
 43
0.00000001
 40
0.0
 40
0.0
 40
0.0
 40
0.0
 40
0.0460329529079886
 40
0.2492425848193727
 40
0.477522557027288
 40
0.7051721168687837
 40
0.8526808263814667
 40
0.9999999999999999
 40
0.9999999999999999
 40
0.9999999999999999
 40
0.9999999999999999
 10
711.7460723264442
 20
493.6808623853153
 30
0.0
 10
711.8744069784825
 20
493.7433713537519
 30
0.0
 10
712.5692670379681
 20
494.0818223086292
 30
0.0
 10
713.9289302725447
 20
494.6997997326582
 30
0.0
 10
715.9369028893631
 20
495.5102720593713
 30
0.0
 10
717.9514131512663
 20
496.202896860636
 30
0.0
 10
719.8136964325116
 20
496.7531306623341
 30
0.0
 10
720.9060659957503
 20
497.02064677344
 30
0.0
 10
721.4518996517572
 20
497.1543188400004
 30
0.0
  0
LINE
  5
1B5
330
1F
100
AcDbEntity
  8
0
  6
Continuous
 62
     7
370
    25
100
AcDbLine
 10
721.9053597296
 20
495.2067163108
 30
0.0
 11
721.4518996518
 21
497.15431884
 31
0.0
  0
SPLINE
  5
1B6
330
1F
100
AcDbEntity
  8
0
  6
Continuous
 62
     7
370
    25
100
AcDbSpline
210
0.0
220
0.0
230
1.0
 70
     8
 71
     3
 72
    13
 73
     9
 74
     0
 42
0.00000001
 43
0.00000001
 40
0.0
 40
0.0
 40
0.0
 40
0.0
 40
0.2574896950994368
 40
0.4890886589321025
 40
0.7206004760683485
 40
0.9447506334961274
 40
0.9460032291293288
 40
1.0
 40
1.0
 40
1.0
 40
1.0
 10
721.9053597296443
 20
495.2067163107863
 30
0.0
 10
720.9866341536564
 20
495.2347792749011
 30
0.0
 10
719.2415613665183
 20
495.2880834565665
 30
0.0
 10
716.7469961206048
 20
495.1235193377284
 30
0.0
 10
714.4313463146041
 20
494.7101453427183
 30
0.0
 10
712.9542377129999
 20
494.210588156155
 30
0.0
 10
712.0829762684593
 20
493.836345301225
 30
0.0
 10
711.9129298596364
 20
493.7573648827399
 30
0.0
 10
711.7467386875811
 20
493.6801750825653
 30
0.0
  0
LINE
  5
1B7
330
1F
100
AcDbEntity
  8
0
  6
Continuous
 62
     7
370
    25
100
AcDbLine
 10
711.7467386876
 20
493.6801750826
 30
0.0
 11
711.7460723264
 21
493.6808623853
 31
0.0
  0
ARC
  5
1B8
330
1F
100
AcDbEntity
  8
0
  6
Continuous
 62
     7
370
    25
100
AcDbCircle
 10
732.3614302078
 20
450.2980897262
 30
0.0
 40
48.10950076354639
100
AcDbArc
 50
102.8580809319
 51
103.1066633214
  0
LWPOLYLINE
  5
1B9
330
1F
100
AcDbEntity
  8
0
  6
Continuous
 62
     7
370
    25
100
AcDbPolyline
 90
        3
 70
   128
 43
0.0
 10
711.7460723264
 20
493.6808623853
 10
711.7027154498
 20
493.7082538577
 10
711.5981373767
 20
493.7742518878
  0
ARC
  5
1BA
330
1F
100
AcDbEntity
  8
0
  6
Continuous
 62
     7
370
    25
100
AcDbCircle
 10
732.3614302078
 20
450.2980897262
 30
0.0
 40
48.17977797259056
100
AcDbArc
 50
102.8580809319
 51
115.5281512988
  0
LINE
  5
1BB
330
1F
100
AcDbEntity
  8
0
  6
Continuous
 62
     7
370
    25
100
AcDbLine
 10
721.6552912432
 20
497.2012095818
 30
0.0
 11
721.6396519713
 21
497.2697245385
 31
0.0
  0
LINE
  5
1BC
330
1F
100
AcDbEntity
  8
0
  6
Continuous
 62
     7
370
    25
100
AcDbLine
 10
723.9172361946
 20
491.5213532875
 30
0.0
 11
724.0605980236
 21
494.117001257
 31
0.0
  0
LINE
  5
1BD
330
1F
100
AcDbEntity
  8
0
  6
Continuous
 62
     7
370
    25
100
AcDbLine
 10
724.0605980236
 20
494.117001257
 30
0.0
 11
728.0106790454
 21
493.8988319033
 31
0.0
  0
SPLINE
  5
1BE
330
1F
100
AcDbEntity
  8
0
  6
Continuous
 62
     7
370
    25
100
AcDbSpline
210
0.0
220
0.0
230
1.0
 70
     8
 71
     3
 72
    17
 73
    13
 74
     0
 42
0.00000001
 43
0.00000001
 40
0.0
 40
0.0
 40
0.0
 40
0.0
 40
0.0068263121770685
 40
0.0088448507297254
 40
0.0223990310416126
 40
0.0309593028397538
 40
0.0563218912149143
 40
0.1198824177066684
 40
0.1957460556357056
 40
0.5558621944880031
 40
0.77803360979772
 40
1.0
 40
1.0
 40
1.0
 40
1.0
 10
740.4511446180943
 20
490.6081588253096
 30
0.0
 10
740.4475244729327
 20
490.6091970083547
 30
0.0
 10
740.4428338518851
 20
490.6105421818285
 30
0.0
 10
740.399301139182
 20
490.6181321699033
 30
0.0
 10
740.3247692167495
 20
490.6298836767099
 30
0.0
 10
740.1579369712475
 20
490.6556025719331
 30
0.0
 10
739.7763608541802
 20
490.7141171509554
 30
0.0
 10
739.0934598874459
 20
490.8233141355426
 30
0.0
 10
736.9884605705281
 20
491.1904863679666
 30
0.0
 10
734.175525988742
 20
491.8246640519319
 30
0.0
 10
730.7767417741754
 20
492.8376043437905
 30
0.0
 10
728.9324161594117
 20
493.5451982644771
 30
0.0
 10
728.010679045421
 20
493.8988319033043
 30
0.0
  0
LINE
  5
1BF
330
1F
100
AcDbEntity
  8
0
  6
Continuous
 62
     7
370
    25
100
AcDbLine
 10
728.0106790454
 20
493.8988319033
 30
0.0
 11
729.1401544629
 21
495.5490036929
 31
0.0
  0
SPLINE
  5
1C0
330
1F
100
AcDbEntity
  8
0
  6
Continuous
 62
     7
370
    25
100
AcDbSpline
210
0.0
220
0.0
230
1.0
 70
     8
 71
     3
 72
    15
 73
    11
 74
     0
 42
0.00000001
 43
0.00000001
 40
0.0
 40
0.0
 40
0.0
 40
0.0
 40
0.2255198391625378
 40
0.451564594375195
 40
0.6337799820516977
 40
0.8158790324473547
 40
0.8946729146060269
 40
0.9638048440471935
 40
0.9940832206369723
 40
1.0
 40
1.0
 40
1.0
 40
1.0
 10
729.1401544629131
 20
495.549003692943
 30
0.0
 10
729.985603003767
 20
495.0039960236016
 30
0.0
 10
731.6784679367747
 20
493.9127121345591
 30
0.0
 10
734.1547841304542
 20
492.6956087449664
 30
0.0
 10
736.4831950451653
 20
491.7647089365312
 30
0.0
 10
738.2236745349878
 20
491.2089183917177
 30
0.0
 10
739.4813433913575
 20
490.8723655647534
 30
0.0
 10
740.1254762892698
 20
490.7170184584289
 30
0.0
 10
740.4534215793519
 20
490.6414650601614
 30
0.0
 10
740.545959022976
 20
490.6199443521114
 30
0.0
 10
740.5610860095114
 20
490.6164263874027
 30
0.0
  0
SPLINE
  5
1C1
330
1F
100
AcDbEntity
  8
0
  6
Continuous
 62
     7
370
    25
100
AcDbSpline
210
0.0
220
0.0
230
1.0
 70
     8
 71
     3
 72
    11
 73
     7
 74
     0
 42
0.00000001
 43
0.00000001
 40
0.0
 40
0.0
 40
0.0
 40
0.0
 40
0.019556121229571
 40
0.168189199674442
 40
0.5898876540792781
 40
1.0
 40
1.0
 40
1.0
 40
1.0
 10
740.4511446180943
 20
490.6081588253096
 30
0.0
 10
740.4531033312423
 20
490.6081007115939
 30
0.0
 10
740.469948921065
 20
490.6076009141532
 30
0.0
 10
740.5218494848244
 20
490.6067544967397
 30
0.0
 10
740.5711341168899
 20
490.6088437952617
 30
0.0
 10
740.5644041318135
 20
490.6139224364453
 30
0.0
 10
740.5610860095114
 20
490.6164263874027
 30
0.0
  0
LINE
  5
1C2
330
1F
100
AcDbEntity
  8
0
  6
Continuous
 62
     7
370
    25
100
AcDbLine
 10
721.0987839556
 20
492.5863272654
 30
0.0
 11
722.7077409489
 21
494.6281887663
 31
0.0
  0
LINE
  5
1C3
330
1F
100
AcDbEntity
  8
0
  6
Continuous
 62
     7
370
    25
100
AcDbLine
 10
711.7467386876
 20
493.6801750826
 30
0.0
 11
711.7473065731
 21
493.6795880417
 31
0.0
  0
ARC
  5
1C4
330
1F
100
AcDbEntity
  8
0
  6
Continuous
 62
     7
370
    25
100
AcDbCircle
 10
715.5334508009
 20
485.5235906252
 30
0.0
 40
11.59155496206734
100
AcDbArc
 50
51.762407147
 51
56.6533814372
  0
LWPOLYLINE
  5
1C5
330
1F
100
AcDbEntity
  8
0
  6
Continuous
 62
     7
370
    25
100
AcDbPolyline
 90
        4
 70
   128
 43
0.0
 10
740.5610860095
 20
490.6164263874
 10
740.5633282558
 20
490.6337846424
 10
740.5723007387
 20
490.703217504
 10
740.5786310199
 20
490.7521776501
  0
ARC
  5
1C6
330
1F
100
AcDbEntity
  8
0
  6
Continuous
 62
     7
370
    25
100
AcDbCircle
 10
746.9760651347
 20
521.6073987472
 30
0.0
 40
31.57783498432761
100
AcDbArc
 50
234.8280705831
 51
235.6099480104
  0
LINE
  5
1C7
330
1F
100
AcDbEntity
  8
0
  6
Continuous
 62
     7
370
    25
100
AcDbLine
 10
728.7862245972
 20
495.7948172506
 30
0.0
 11
728.826706512
 21
495.8522637534
 31
0.0
  0
ARC
  5
1C8
330
1F
100
AcDbEntity
  8
0
  6
Continuous
 62
     7
370
    25
100
AcDbCircle
 10
746.9760651347
 20
521.6073987472
 30
0.0
 40
31.50755777528338
100
AcDbArc
 50
234.8280705831
 51
254.9420027521
  0
LINE
  5
1C9
330
1F
100
AcDbEntity
  8
0
  6
Continuous
 62
     7
370
    25
100
AcDbLine
 10
740.5786310199
 20
490.7521776501
 30
0.0
 11
738.7905067362
 21
491.1817051534
 31
0.0
  0
LINE
  5
1CA
330
1F
100
AcDbEntity
  8
0
  6
Continuous
 62
     7
370
    25
100
AcDbLine
 10
740.6524684292
 20
480.3053218966
 30
0.0
 11
740.5786310199
 21
480.2950036003
 31
0.0
  0
SPLINE
  5
1CB
330
1F
100
AcDbEntity
  8
0
  6
Continuous
 62
     7
370
    25
100
AcDbSpline
210
0.0
220
0.0
230
1.0
 70
     8
 71
     3
 72
    10
 73
     6
 74
     0
 42
0.00000001
 43
0.00000001
 40
0.0
 40
0.0
 40
0.0
 40
0.0
 40
0.0490769085761659
 40
0.599580584366531
 40
1.0
 40
1.0
 40
1.0
 40
1.0
 10
722.7077409488843
 20
494.6281887663377
 30
0.0
 10
722.7266884872533
 20
494.6135660307363
 30
0.0
 10
722.9581736491598
 20
494.4349176885472
 30
0.0
 10
723.4040474239771
 20
494.200865695126
 30
0.0
 10
723.8660540008616
 20
494.1418513221084
 30
0.0
 10
724.0605980236152
 20
494.117001256976
 30
0.0
  0
ARC
  5
1CC
330
1F
100
AcDbEntity
  8
0
  6
Continuous
 62
     7
370
    25
100
AcDbCircle
 10
740.6624394105
 20
491.1061240844
 30
0.0
 40
0.5000763405132626
100
AcDbArc
 50
258.3065203379
 51
266.8373700345
  0
SPLINE
  5
1CD
330
1F
100
AcDbEntity
  8
0
  6
Continuous
 62
     7
370
    25
100
AcDbSpline
210
0.0
220
0.0
230
1.0
 70
     8
 71
     3
 72
     9
 73
     5
 74
     0
 42
0.00000001
 43
0.00000001
 40
0.0
 40
0.0
 40
0.0
 40
0.0
 40
0.8458911907785723
 40
1.0
 40
1.0
 40
1.0
 40
1.0
 10
740.5786310199219
 20
490.7521776500889
 30
0.0
 10
740.599471616033
 20
490.7483628430965
 30
0.0
 10
740.6241090591678
 20
490.7438530349393
 30
0.0
 10
740.6486815863441
 20
490.7421255711882
 30
0.0
 10
740.6524684292468
 20
490.7418593538066
 30
0.0
  0
LINE
  5
1CE
330
1F
100
AcDbEntity
  8
0
  6
Continuous
 62
     7
370
    25
100
AcDbLine
 10
758.6478886269
 20
489.6756035005
 30
0.0
 11
758.6474306071
 21
489.675628587
 31
0.0
  0
LINE
  5
1CF
330
1F
100
AcDbEntity
  8
0
  6
Continuous
 62
     7
370
    25
100
AcDbLine
 10
728.7857866258
 20
475.25298551
 30
0.0
 11
726.9470457765
 21
474.2560192744
 31
0.0
  0
LINE
  5
1D0
330
1F
100
AcDbEntity
  8
0
  6
Continuous
 62
     7
370
    25
100
AcDbLine
 10
726.2070213614
 20
476.1137451742
 30
0.0
 11
726.9470457765
 21
474.2560192744
 31
0.0
  0
LINE
  5
1D1
330
1F
100
AcDbEntity
  8
0
  6
Continuous
 62
     7
370
    25
100
AcDbLine
 10
723.2202510346
 20
475.6346236873
 30
0.0
 11
723.098417288
 21
473.6386431783
 31
0.0
  0
LINE
  5
1D2
330
1F
100
AcDbEntity
  8
0
  6
Continuous
 62
     7
370
    25
100
AcDbLine
 10
723.098417288
 20
473.6386431783
 30
0.0
 11
721.6555100482
 21
473.8469302435
 31
0.0
  0
ARC
  5
1D3
330
1F
100
AcDbEntity
  8
0
  6
Continuous
 62
     7
370
    25
100
AcDbCircle
 10
732.3614302078
 20
450.2980897262
 30
0.0
 40
46.10980537323363
100
AcDbArc
 50
102.8580809319
 51
103.1066633214
  0
LINE
  5
1D4
330
1F
100
AcDbEntity
  8
0
  6
Continuous
 62
     7
370
    25
100
AcDbLine
 10
722.1002972482
 20
495.2516580155
 30
0.0
 11
721.6552912432
 21
497.2012095818
 31
0.0
  0
ARC
  5
1D5
330
1F
100
AcDbEntity
  8
0
  6
Continuous
 62
     7
370
    25
100
AcDbCircle
 10
723.6424660061
 20
488.495485101
 30
0.0
 40
6.929946387144365
100
AcDbArc
 50
54.8280705831
 51
102.8580809319
  0
ARC
  5
1D6
330
1F
100
AcDbEntity
  8
0
  6
Continuous
 62
     7
370
    25
100
AcDbCircle
 10
723.6424660061
 20
488.495485101
 30
0.0
 40
8.929641777457102
100
AcDbArc
 50
54.8280705831
 51
102.8580809319
  0
LINE
  5
1D7
330
1F
100
AcDbEntity
  8
0
  6
Continuous
 62
     7
370
    25
100
AcDbLine
 10
727.6343362461
 20
494.1602118302
 30
0.0
 11
728.7862245972
 21
495.7948172506
 31
0.0
  0
ARC
  5
1D8
330
1F
100
AcDbEntity
  8
0
  6
Continuous
 62
     7
370
    25
100
AcDbCircle
 10
723.6424660061
 20
482.5516961494
 30
0.0
 40
6.929946387144304
100
AcDbArc
 50
266.5070253286
 51
291.7198462835
  0
ARC
  5
1D9
330
1F
100
AcDbEntity
  8
0
  6
Continuous
 62
     7
370
    25
100
AcDbCircle
 10
746.9760651347
 20
521.6073987472
 30
0.0
 40
33.57753037464029
100
AcDbArc
 50
234.8280705831
 51
235.6099480104
  0
ARC
  5
1DA
330
1F
100
AcDbEntity
  8
0
  6
Continuous
 62
     7
370
    25
100
AcDbCircle
 10
723.6424660061
 20
482.5516961494
 30
0.0
 40
8.929641777457107
100
AcDbArc
 50
266.5070253286
 51
291.7198462835
  0
ARC
  5
1DB
330
1F
100
AcDbEntity
  8
0
  6
Continuous
 62
     7
370
    25
100
AcDbCircle
 10
723.6424660061
 20
482.5516961494
 30
0.0
 40
8.999918986501271
100
AcDbArc
 50
257.1419190681
 51
305.1719294169
  0
ARC
  5
1DC
330
1F
100
AcDbEntity
  8
0
  6
Continuous
 62
     7
370
    25
100
AcDbCircle
 10
723.6424660061
 20
488.495485101
 30
0.0
 40
8.999918986501244
100
AcDbArc
 50
54.8280705831
 51
102.8580809319
  0
CIRCLE
  5
1DD
330
1F
100
AcDbEntity
  8
0
  6
Continuous
 62
     7
370
    25
100
AcDbCircle
 10
512.3334508009
 20
485.2781693364
 30
0.0
 40
5.074569253689162
  0
CIRCLE
  5
1DE
330
1F
100
AcDbEntity
  8
0
  6
Continuous
 62
     7
370
    25
100
AcDbCircle
 10
512.3334508009
 20
485.2781693364
 30
0.0
 40
5.328914336627577
  0
CIRCLE
  5
1DF
330
1F
100
AcDbEntity
  8
0
  6
Continuous
 62
     7
370
    25
100
AcDbCircle
 10
512.3334508009
 20
485.2781693364
 30
0.0
 40
5.925127771161385
  0
CIRCLE
  5
1E0
330
1F
100
AcDbEntity
  8
0
  6
Continuous
 62
     7
370
    25
100
AcDbCircle
 10
512.3334508009
 20
485.2781693364
 30
0.0
 40
7.149999999999977
  0
SPLINE
  5
1E1
330
1F
100
AcDbEntity
  8
0
  6
Continuous
 62
     7
370
    25
100
AcDbSpline
210
0.0
220
0.0
230
1.0
 70
    24
 71
     3
 72
    10
 73
     6
 74
     0
 42
0.00000001
 43
0.00000001
 40
0.0
 40
0.0
 40
0.0
 40
0.0
 40
0.089139344459601
 40
0.542295029662487
 40
1.0
 40
1.0
 40
1.0
 40
1.0
 10
729.6030789811875
 20
495.7230797166846
 30
0.0
 10
729.4813893511531
 20
495.9338523386584
 30
0.0
 10
728.7410688795458
 20
497.2161250093657
 30
0.0
 10
727.3894018270258
 20
499.5572810192472
 30
0.0
 10
726.1874355461165
 20
501.6391476867668
 30
0.0
 10
725.5834508009153
 20
502.6852799524517
 30
0.0
  0
SPLINE
  5
1E2
330
1F
100
AcDbEntity
  8
0
  6
Continuous
 62
     7
370
    25
100
AcDbSpline
210
0.0
220
0.0
230
1.0
 70
    24
 71
     3
 72
    10
 73
     6
 74
     0
 42
0.00000001
 43
0.00000001
 40
0.0
 40
0.0
 40
0.0
 40
0.0
 40
0.6475617557641864
 40
0.9787115174962898
 40
1.0
 40
1.0
 40
1.0
 40
1.0
 10
725.5834508009153
 20
467.8710587203173
 30
0.0
 10
726.455838233338
 20
469.382078077158
 30
0.0
 10
727.7743466539342
 20
471.6658016518381
 30
0.0
 10
729.1566700895011
 20
474.0600560747325
 30
0.0
 10
729.6460088210499
 20
474.9076156198867
 30
0.0
 10
729.6755665639889
 20
474.958811132414
 30
0.0
  0
SPLINE
  5
1E3
330
1F
100
AcDbEntity
  8
0
  6
Continuous
 62
     7
370
    25
100
AcDbSpline
210
0.0
220
0.0
230
1.0
 70
    24
 71
     3
 72
     9
 73
     5
 74
     0
 42
0.00000001
 43
0.00000001
 40
0.0
 40
0.0
 40
0.0
 40
0.0
 40
0.6765295200434728
 40
1.0
 40
1.0
 40
1.0
 40
1.0
 10
705.4834508009153
 20
467.8710587203172
 30
0.0
 10
707.2271609122031
 20
467.8710587203172
 30
0.0
 10
709.8045948003437
 20
467.8710587203172
 30
0.0
 10
712.4547901008539
 20
467.8710587203172
 30
0.0
 10
713.3120500466885
 20
467.8710587203172
 30
0.0
  0
SPLINE
  5
1E4
330
1F
100
AcDbEntity
  8
0
  6
Continuous
 62
     7
370
    25
100
AcDbSpline
210
0.0
220
0.0
230
1.0
 70
    24
 71
     3
 72
     9
 73
     5
 74
     0
 42
0.00000001
 43
0.00000001
 40
0.0
 40
0.0
 40
0.0
 40
0.0
 40
0.4110093939367135
 40
1.0
 40
1.0
 40
1.0
 40
1.0
 10
717.6006321230382
 20
467.8710587203172
 30
0.0
 10
718.7130045209375
 20
467.8710587203172
 30
0.0
 10
721.4194448464123
 20
467.8710587203173
 30
0.0
 10
724.0399801337916
 20
467.8710587203173
 30
0.0
 10
725.5834508009153
 20
467.8710587203173
 30
0.0
  0
SPLINE
  5
1E5
330
1F
100
AcDbEntity
  8
0
  6
Continuous
 62
     7
370
    25
100
AcDbSpline
210
0.0
220
0.0
230
1.0
 70
    24
 71
     3
 72
     9
 73
     5
 74
     0
 42
0.00000001
 43
0.00000001
 40
0.0
 40
0.0
 40
0.0
 40
0.0
 40
0.5285981635262347
 40
1.0
 40
1.0
 40
1.0
 40
1.0
 10
702.7528998525273
 20
472.6005116955806
 30
0.0
 10
703.2413113838763
 20
471.7545581082817
 30
0.0
 10
704.1652864656112
 20
470.1541863217894
 30
0.0
 10
705.0611425822946
 20
468.6025180114224
 30
0.0
 10
705.4834508009153
 20
467.8710587203172
 30
0.0
  0
SPLINE
  5
1E6
330
1F
100
AcDbEntity
  8
0
  6
Continuous
 62
     7
370
    25
100
AcDbSpline
210
0.0
220
0.0
230
1.0
 70
    24
 71
     3
 72
     9
 73
     5
 74
     0
 42
0.00000001
 43
0.00000001
 40
0.0
 40
0.0
 40
0.0
 40
0.0
 40
0.9630807777097637
 40
1.0
 40
1.0
 40
1.0
 40
1.0
 10
705.4834508009153
 20
502.6852799524517
 30
0.0
 10
704.6139466711718
 20
501.1792546223449
 30
0.0
 10
703.7111105333651
 20
499.6154965607541
 30
0.0
 10
702.7827182612612
 20
498.007473976116
 30
0.0
 10
702.7484427405948
 20
497.948107032866
 30
0.0
  0
SPLINE
  5
1E7
330
1F
100
AcDbEntity
  8
0
  6
Continuous
 62
     7
370
    25
100
AcDbSpline
210
0.0
220
0.0
230
1.0
 70
    24
 71
     3
 72
    10
 73
     6
 74
     0
 42
0.00000001
 43
0.00000001
 40
0.0
 40
0.0
 40
0.0
 40
0.0
 40
0.6515364104488996
 40
0.9847187288292196
 40
1.0
 40
1.0
 40
1.0
 40
1.0
 10
725.5834508009153
 20
502.6852799524517
 30
0.0
 10
723.8386602108183
 20
502.6852799524517
 30
0.0
 10
721.2016196028039
 20
502.6852799524517
 30
0.0
 10
718.4539235753607
 20
502.6852799524517
 30
0.0
 10
717.4922095351654
 20
502.6852799524517
 30
0.0
 10
717.4500352206097
 20
502.6852799524517
 30
0.0
  0
SPLINE
  5
1E8
330
1F
100
AcDbEntity
  8
0
  6
Continuous
 62
     7
370
    25
100
AcDbSpline
210
0.0
220
0.0
230
1.0
 70
    24
 71
     3
 72
     9
 73
     5
 74
     0
 42
0.00000001
 43
0.00000001
 40
0.0
 40
0.0
 40
0.0
 40
0.0
 40
0.4342553837826628
 40
1.0
 40
1.0
 40
1.0
 40
1.0
 10
713.7984350590679
 20
502.6852799524517
 30
0.0
 10
712.5745562726415
 20
502.6852799524517
 30
0.0
 10
709.7562174975054
 20
502.6852799524517
 30
0.0
 10
707.0273135291734
 20
502.6852799524517
 30
0.0
 10
705.4834508009153
 20
502.6852799524517
 30
0.0
  0
SPLINE
  5
1E9
330
1F
100
AcDbEntity
  8
0
  6
Continuous
 62
     7
370
    25
100
AcDbSpline
210
0.0
220
0.0
230
1.0
 70
    24
 71
     3
 72
    10
 73
     6
 74
     0
 42
0.00000001
 43
0.00000001
 40
0.0
 40
0.0
 40
0.0
 40
0.0
 40
0.104989073836372
 40
0.5502594750143925
 40
1.0
 40
1.0
 40
1.0
 40
1.0
 10
498.1913350378418
 20
474.958811132414
 30
0.0
 10
498.3372126549853
 20
474.7061436878344
 30
0.0
 10
499.1017735573021
 20
473.3818853595409
 30
0.0
 10
500.4775452208998
 20
470.9989789385761
 30
0.0
 10
501.6794812547687
 20
468.9171646604674
 30
0.0
 10
502.2834508009153
 20
467.8710587203172
 30
0.0
  0
SPLINE
  5
1EA
330
1F
100
AcDbEntity
  8
0
  6
Continuous
 62
     7
370
    25
100
AcDbSpline
210
0.0
220
0.0
230
1.0
 70
    24
 71
     3
 72
    10
 73
     6
 74
     0
 42
0.00000001
 43
0.00000001
 40
0.0
 40
0.0
 40
0.0
 40
0.0
 40
0.6590316814841356
 40
0.9960469272962303
 40
1.0
 40
1.0
 40
1.0
 40
1.0
 10
502.2834508009153
 20
502.6852799524517
 30
0.0
 10
501.4110401109684
 20
501.1742203123971
 30
0.0
 10
500.0924965394283
 20
498.8904358544963
 30
0.0
 10
498.7343560724224
 20
496.5380675618279
 30
0.0
 10
498.2692153071849
 20
495.7324201237644
 30
0.0
 10
498.2638226206431
 20
495.7230797166845
 30
0.0
  0
SPLINE
  5
1EB
330
1F
100
AcDbEntity
  8
0
  6
Continuous
 62
     7
370
    25
100
AcDbSpline
210
0.0
220
0.0
230
1.0
 70
    24
 71
     3
 72
    10
 73
     6
 74
     0
 42
0.00000001
 43
0.00000001
 40
0.0
 40
0.0
 40
0.0
 40
0.0
 40
0.6375541872194508
 40
0.963586284250685
 40
1.0
 40
1.0
 40
1.0
 40
1.0
 10
522.3834508009153
 20
502.6852799524517
 30
0.0
 10
520.6387138051011
 20
502.6852799524517
 30
0.0
 10
518.0017541983837
 20
502.6852799524517
 30
0.0
 10
515.1935012651842
 20
502.6852799524517
 30
0.0
 10
514.1711761226022
 20
502.6852799524517
 30
0.0
 10
514.0684665427626
 20
502.6852799524517
 30
0.0
  0
SPLINE
  5
1EC
330
1F
100
AcDbEntity
  8
0
  6
Continuous
 62
     7
370
    25
100
AcDbSpline
210
0.0
220
0.0
230
1.0
 70
    24
 71
     3
 72
     9
 73
     5
 74
     0
 42
0.00000001
 43
0.00000001
 40
0.0
 40
0.0
 40
0.0
 40
0.0
 40
0.4217810224342866
 40
1.0
 40
1.0
 40
1.0
 40
1.0
 10
510.416866381221
 20
502.6852799524517
 30
0.0
 10
509.2539432464604
 20
502.6852799524517
 30
0.0
 10
506.4967705124935
 20
502.6852799524517
 30
0.0
 10
503.8271031396698
 20
502.6852799524517
 30
0.0
 10
502.2834508009153
 20
502.6852799524517
 30
0.0
  0
SPLINE
  5
1ED
330
1F
100
AcDbEntity
  8
0
  6
Continuous
 62
     7
370
    25
100
AcDbSpline
210
0.0
220
0.0
230
1.0
 70
    24
 71
     3
 72
     9
 73
     5
 74
     0
 42
0.00000001
 43
0.00000001
 40
0.0
 40
0.0
 40
0.0
 40
0.0
 40
0.5293984353547673
 40
1.0
 40
1.0
 40
1.0
 40
1.0
 10
525.1186902138204
 20
497.9477063184351
 30
0.0
 10
524.628703457879
 20
498.7963882747615
 30
0.0
 10
523.7031496155957
 20
500.3994945547369
 30
0.0
 10
522.8057625554923
 20
501.9538145368907
 30
0.0
 10
522.3834508009153
 20
502.6852799524517
 30
0.0
  0
SPLINE
  5
1EE
330
1F
100
AcDbEntity
  8
0
  6
Continuous
 62
     7
370
    25
100
AcDbSpline
210
0.0
220
0.0
230
1.0
 70
    24
 71
     3
 72
     9
 73
     5
 74
     0
 42
0.00000001
 43
0.00000001
 40
0.0
 40
0.0
 40
0.0
 40
0.0
 40
0.9648810078187092
 40
1.0
 40
1.0
 40
1.0
 40
1.0
 10
522.3834508009153
 20
467.8710587203173
 30
0.0
 10
523.2529401611978
 20
469.3770584689674
 30
0.0
 10
524.1540765223003
 20
470.9378724309446
 30
0.0
 10
525.0807213362531
 20
472.5428683292809
 30
0.0
 10
525.1132641682291
 20
472.5992341676854
 30
0.0
  0
SPLINE
  5
1EF
330
1F
100
AcDbEntity
  8
0
  6
Continuous
 62
     7
370
    25
100
AcDbSpline
210
0.0
220
0.0
230
1.0
 70
    24
 71
     3
 72
     9
 73
     5
 74
     0
 42
0.00000001
 43
0.00000001
 40
0.0
 40
0.0
 40
0.0
 40
0.0
 40
0.6636189244109024
 40
1.0
 40
1.0
 40
1.0
 40
1.0
 10
502.2834508009153
 20
467.8710587203172
 30
0.0
 10
504.027372754607
 20
467.8710587203172
 30
0.0
 10
506.6552694126775
 20
467.8710587203173
 30
0.0
 10
509.3573430442748
 20
467.8710587203173
 30
0.0
 10
510.2662694787925
 20
467.8710587203173
 30
0.0
  0
SPLINE
  5
1F0
330
1F
100
AcDbEntity
  8
0
  6
Continuous
 62
     7
370
    25
100
AcDbSpline
210
0.0
220
0.0
230
1.0
 70
    24
 71
     3
 72
     9
 73
     5
 74
     0
 42
0.00000001
 43
0.00000001
 40
0.0
 40
0.0
 40
0.0
 40
0.0
 40
0.39955464499183
 40
1.0
 40
1.0
 40
1.0
 40
1.0
 10
514.5548515551426
 20
467.8710587203173
 30
0.0
 10
515.6154643959851
 20
467.8710587203173
 30
0.0
 10
518.2699519714315
 20
467.8710587203173
 30
0.0
 10
520.8401733267634
 20
467.8710587203173
 30
0.0
 10
522.3834508009153
 20
467.8710587203173
 30
0.0
  0
ARC
  5
1F1
330
1F
100
AcDbEntity
  8
0
  6
Continuous
 62
     7
370
    25
100
AcDbCircle
 10
715.5334508009
 20
485.2781693364
 30
0.0
 40
25.80000000000003
100
AcDbArc
 50
207.7177476896
 51
270.0
  0
ARC
  5
1F2
330
1F
100
AcDbEntity
  8
0
  6
Continuous
 62
     7
370
    25
100
AcDbCircle
 10
715.5334508009
 20
485.2781693364
 30
0.0
 40
25.80000000000003
100
AcDbArc
 50
12.2901576753
 51
152.2822523104
  0
ARC
  5
1F3
330
1F
100
AcDbEntity
  8
0
  6
Continuous
 62
     7
370
    25
100
AcDbCircle
 10
715.5334508009
 20
485.2781693364
 30
0.0
 40
25.80000000000003
100
AcDbArc
 50
270.0
 51
348.9141211324
  0
ARC
  5
1F4
330
1F
100
AcDbEntity
  8
0
  6
Continuous
 62
     7
370
    25
100
AcDbCircle
 10
512.3334508009
 20
485.2781693364
 30
0.0
 40
25.80000000000007
100
AcDbArc
 50
27.7177476896
 51
90.0
  0
ARC
  5
1F5
330
1F
100
AcDbEntity
  8
0
  6
Continuous
 62
     7
370
    25
100
AcDbCircle
 10
512.3334508009
 20
485.2781693364
 30
0.0
 40
25.79999999999998
100
AcDbArc
 50
191.840230684
 51
332.2822523104
  0
ARC
  5
1F6
330
1F
100
AcDbEntity
  8
0
  6
Continuous
 62
     7
370
    25
100
AcDbCircle
 10
512.3334508009
 20
485.2781693364
 30
0.0
 40
25.80000000000007
100
AcDbArc
 50
90.0
 51
168.1704246492
  0
SPLINE
  5
1F7
330
1F
100
AcDbEntity
  8
0
  6
Continuous
 62
     7
370
    25
100
AcDbSpline
210
0.0
220
0.0
230
1.0
 70
    24
 71
     3
 72
    10
 73
     6
 74
     0
 42
0.00000001
 43
0.00000001
 40
0.0
 40
0.0
 40
0.0
 40
0.0
 40
0.4418452601943839
 40
0.9396772284649354
 40
1.0
 40
1.0
 40
1.0
 40
1.0
 10
715.3895967952948
 20
475.7781693363845
 30
0.0
 10
714.810569221109
 20
475.7781693363845
 30
0.0
 10
713.5791448399214
 20
475.7781693363845
 30
0.0
 10
712.3125655358522
 20
475.7781693363845
 30
0.0
 10
711.6275358760204
 20
475.7781693363845
 30
0.0
 10
711.553501052489
 20
475.7781693363845
 30
0.0
  0
ARC
  5
1F8
330
1F
100
AcDbEntity
  8
0
  6
Continuous
 62
     7
370
    25
100
AcDbCircle
 10
715.5334508009
 20
485.2781693364
 30
0.0
 40
10.30000000000002
100
AcDbArc
 50
232.7308609266
 51
247.2691390734
  0
SPLINE
  5
1F9
330
1F
100
AcDbEntity
  8
0
  6
Continuous
 62
     7
370
    25
100
AcDbSpline
210
0.0
220
0.0
230
1.0
 70
    24
 71
     3
 72
    11
 73
     7
 74
     0
 42
0.00000001
 43
0.00000001
 40
0.0
 40
0.0
 40
0.0
 40
0.0
 40
0.2431641197380911
 40
0.4936284730588937
 40
0.7421706076863289
 40
1.0
 40
1.0
 40
1.0
 40
1.0
 10
709.2961843391764
 20
477.0814317484616
 30
0.0
 10
708.9824253374796
 20
477.6248782807324
 30
0.0
 10
708.3454877124598
 20
478.7280866085193
 30
0.0
 10
707.3350987434532
 20
480.4781316382458
 30
0.0
 10
706.3033916156172
 20
482.2651008021887
 30
0.0
 10
705.6492858727189
 20
483.398045182411
 30
0.0
 10
705.31623459075
 20
483.9749069243073
 30
0.0
  0
ARC
  5
1FA
330
1F
100
AcDbEntity
  8
0
  6
Continuous
 62
     7
370
    25
100
AcDbCircle
 10
715.5334508009
 20
485.2781693364
 30
0.0
 40
10.29999999999995
100
AcDbArc
 50
172.7308609266
 51
187.2691390734
  0
SPLINE
  5
1FB
330
1F
100
AcDbEntity
  8
0
  6
Continuous
 62
     7
370
    25
100
AcDbSpline
210
0.0
220
0.0
230
1.0
 70
    24
 71
     3
 72
    11
 73
     7
 74
     0
 42
0.00000001
 43
0.00000001
 40
0.0
 40
0.0
 40
0.0
 40
0.0
 40
0.2431641197380909
 40
0.4936284730588934
 40
0.7421706076863288
 40
1.0
 40
1.0
 40
1.0
 40
1.0
 10
705.31623459075
 20
486.5814317484616
 30
0.0
 10
705.6299935924467
 20
487.1248782807325
 30
0.0
 10
706.2669312174667
 20
488.2280866085193
 30
0.0
 10
707.2773201864732
 20
489.9781316382458
 30
0.0
 10
708.3090273143092
 20
491.7651008021887
 30
0.0
 10
708.9631330572075
 20
492.898045182411
 30
0.0
 10
709.2961843391764
 20
493.4749069243073
 30
0.0
  0
ARC
  5
1FC
330
1F
100
AcDbEntity
  8
0
  6
Continuous
 62
     7
370
    25
100
AcDbCircle
 10
715.5334508009
 20
485.2781693364
 30
0.0
 40
10.30000000000002
100
AcDbArc
 50
112.7308609266
 51
127.2691390734
  0
SPLINE
  5
1FD
330
1F
100
AcDbEntity
  8
0
  6
Continuous
 62
     7
370
    25
100
AcDbSpline
210
0.0
220
0.0
230
1.0
 70
    24
 71
     3
 72
    10
 73
     6
 74
     0
 42
0.00000001
 43
0.00000001
 40
0.0
 40
0.0
 40
0.0
 40
0.0
 40
0.0958549693876203
 40
0.8869271775174373
 40
1.0
 40
1.0
 40
1.0
 40
1.0
 10
711.553501052489
 20
494.7781693363845
 30
0.0
 10
711.6275563286856
 20
494.7781693363845
 30
0.0
 10
712.3127752330053
 20
494.7781693363845
 30
0.0
 10
713.1041404973896
 20
494.7781693363845
 30
0.0
 10
713.8470143863154
 20
494.7781693363845
 30
0.0
 10
713.939918560453
 20
494.7781693363845
 30
0.0
  0
ARC
  5
1FE
330
1F
100
AcDbEntity
  8
0
  6
Continuous
 62
     7
370
    25
100
AcDbCircle
 10
512.3334508009
 20
485.2781693364
 30
0.0
 40
10.30000000000002
100
AcDbArc
 50
292.7308609266
 51
307.2691390734
  0
SPLINE
  5
1FF
330
1F
100
AcDbEntity
  8
0
  6
Continuous
 62
     7
370
    25
100
AcDbSpline
210
0.0
220
0.0
230
1.0
 70
    24
 71
     3
 72
    10
 73
     6
 74
     0
 42
0.00000001
 43
0.00000001
 40
0.0
 40
0.0
 40
0.0
 40
0.0
 40
0.0789816847302723
 40
0.6967820434606656
 40
1.0
 40
1.0
 40
1.0
 40
1.0
 10
516.3134005493417
 20
475.7781693363845
 30
0.0
 10
516.238187039256
 20
475.7781693363845
 30
0.0
 10
515.5746481006728
 20
475.7781693363845
 30
0.0
 10
514.5961397694047
 20
475.7781693363845
 30
0.0
 10
513.6620305090754
 20
475.7781693363845
 30
0.0
 10
513.3545027472431
 20
475.7781693363845
 30
0.0
  0
SPLINE
  5
200
330
1F
100
AcDbEntity
  8
0
  6
Continuous
 62
     7
370
    25
100
AcDbSpline
210
0.0
220
0.0
230
1.0
 70
    24
 71
     3
 72
    10
 73
     6
 74
     0
 42
0.00000001
 43
0.00000001
 40
0.0
 40
0.0
 40
0.0
 40
0.0
 40
0.3572302055693681
 40
0.9271407153294048
 40
1.0
 40
1.0
 40
1.0
 40
1.0
 10
513.0998159853494
 20
494.7781693363845
 30
0.0
 10
513.4928015136861
 20
494.7781693363845
 30
0.0
 10
514.5127401363886
 20
494.7781693363845
 30
0.0
 10
515.574682077545
 20
494.7781693363845
 30
0.0
 10
516.2381904984929
 20
494.7781693363845
 30
0.0
 10
516.3134005493417
 20
494.7781693363845
 30
0.0
  0
ARC
  5
201
330
1F
100
AcDbEntity
  8
0
  6
Continuous
 62
     7
370
    25
100
AcDbCircle
 10
512.3334508009
 20
485.2781693364
 30
0.0
 40
10.30000000000002
100
AcDbArc
 50
52.7308609266
 51
67.2691390734
  0
SPLINE
  5
202
330
1F
100
AcDbEntity
  8
0
  6
Continuous
 62
     7
370
    25
100
AcDbSpline
210
0.0
220
0.0
230
1.0
 70
    24
 71
     3
 72
    11
 73
     7
 74
     0
 42
0.00000001
 43
0.00000001
 40
0.0
 40
0.0
 40
0.0
 40
0.0
 40
0.2431641197380913
 40
0.4936284730588932
 40
0.7421706076863291
 40
1.0
 40
1.0
 40
1.0
 40
1.0
 10
518.5707172626543
 20
493.4749069243073
 30
0.0
 10
518.884476264351
 20
492.9314603920365
 30
0.0
 10
519.5214138893709
 20
491.8282520642496
 30
0.0
 10
520.5318028583774
 20
490.0782070345231
 30
0.0
 10
521.5635099862135
 20
488.2912378705802
 30
0.0
 10
522.2176157291117
 20
487.1582934903579
 30
0.0
 10
522.5506670110807
 20
486.5814317484616
 30
0.0
  0
ARC
  5
203
330
1F
100
AcDbEntity
  8
0
  6
Continuous
 62
     7
370
    25
100
AcDbCircle
 10
512.3334508009
 20
485.2781693364
 30
0.0
 40
10.29999999999995
100
AcDbArc
 50
352.7308609266
 51
7.2691390734
  0
SPLINE
  5
204
330
1F
100
AcDbEntity
  8
0
  6
Continuous
 62
     7
370
    25
100
AcDbSpline
210
0.0
220
0.0
230
1.0
 70
    24
 71
     3
 72
    11
 73
     7
 74
     0
 42
0.00000001
 43
0.00000001
 40
0.0
 40
0.0
 40
0.0
 40
0.0
 40
0.2431641197380911
 40
0.493628473058894
 40
0.742170607686329
 40
1.0
 40
1.0
 40
1.0
 40
1.0
 10
522.5506670110807
 20
483.9749069243073
 30
0.0
 10
522.2369080093839
 20
483.4314603920365
 30
0.0
 10
521.599970384364
 20
482.3282520642496
 30
0.0
 10
520.5895814153574
 20
480.5782070345231
 30
0.0
 10
519.5578742875214
 20
478.7912378705802
 30
0.0
 10
518.9037685446233
 20
477.6582934903579
 30
0.0
 10
518.5707172626543
 20
477.0814317484616
 30
0.0
  0
LWPOLYLINE
  5
205
330
1F
100
AcDbEntity
  8
0
  6
Continuous
 62
     7
370
    25
100
AcDbPolyline
 90
        3
 70
   128
 43
0.0
 10
707.089703114
 20
480.4031693364
 10
706.4310416426
 20
481.7840818283
 10
706.360992353
 20
481.9723402391
  0
LINE
  5
206
330
1F
100
AcDbEntity
  8
0
  6
Continuous
 62
     7
370
    25
100
AcDbLine
 10
713.8663162096
 20
475.6717567773
 30
0.0
 11
713.4849329764
 21
475.7457994987
 31
0.0
  0
LWPOLYLINE
  5
207
330
1F
100
AcDbEntity
  8
0
  6
Continuous
 62
     7
370
    25
100
AcDbPolyline
 90
        3
 70
   128
 43
0.0
 10
708.0381805752
 20
479.0425118536
 10
707.9562776767
 20
479.1422955236
 10
707.089703114
 20
480.4031693364
  0
ARC
  5
208
330
1F
100
AcDbEntity
  8
0
  6
Continuous
 62
     7
370
    25
100
AcDbCircle
 10
715.5334508009
 20
485.2781693364
 30
0.0
 40
10.57500000000003
100
AcDbArc
 50
84.5490172093
 51
281.0490866707
  0
ARC
  5
209
330
1F
100
AcDbEntity
  8
0
  6
Continuous
 62
     7
370
    25
100
AcDbCircle
 10
715.5334508009
 20
485.2781693364
 30
0.0
 40
14.875
100
AcDbArc
 50
55.1611835908
 51
308.4167037132
  0
ARC
  5
20A
330
1F
100
AcDbEntity
  8
0
  6
Continuous
 62
     7
370
    25
100
AcDbCircle
 10
715.5334508009
 20
485.2781693364
 30
0.0
 40
16.20000000000002
100
AcDbArc
 50
210.0
 51
318.1420914366
  0
ARC
  5
20B
330
1F
100
AcDbEntity
  8
0
  6
Continuous
 62
     7
370
    25
100
AcDbCircle
 10
715.5334508009
 20
485.2781693364
 30
0.0
 40
16.19999999999995
100
AcDbArc
 50
45.9729863763
 51
210.0
  0
SPLINE
  5
20C
330
1F
100
AcDbEntity
  8
0
  6
Continuous
 62
     7
370
    25
100
AcDbSpline
210
0.0
220
0.0
230
1.0
 70
     8
 71
     3
 72
     9
 73
     5
 74
     0
 42
0.00000001
 43
0.00000001
 40
0.0
 40
0.0
 40
0.0
 40
0.0
 40
0.5850553834534097
 40
1.0
 40
1.0
 40
1.0
 40
1.0
 10
704.4070401530005
 20
472.0496778844482
 30
0.0
 10
704.6668150728094
 20
471.6631313588842
 30
0.0
 10
705.1108327284977
 20
471.002430617559
 30
0.0
 10
705.7826839205305
 20
470.5242717854329
 30
0.0
 10
706.061464955785
 20
470.325862352188
 30
0.0
  0
SPLINE
  5
20D
330
1F
100
AcDbEntity
  8
0
  6
Continuous
 62
     7
370
    25
100
AcDbSpline
210
0.0
220
0.0
230
1.0
 70
    24
 71
     3
 72
    11
 73
     7
 74
     0
 42
0.00000001
 43
0.00000001
 40
0.0
 40
0.0
 40
0.0
 40
0.0
 40
0.2379053903768482
 40
0.4814905141303176
 40
0.7366519444348056
 40
0.9999999999999999
 40
0.9999999999999999
 40
0.9999999999999999
 40
0.9999999999999999
 10
698.514035825835
 20
482.2566607883223
 30
0.0
 10
698.9707679366102
 20
481.4655775670114
 30
0.0
 10
699.8951361423437
 20
479.8645248697796
 30
0.0
 10
701.3714622348634
 20
477.3074530689959
 30
0.0
 10
702.9035956193269
 20
474.6537202031327
 30
0.0
 10
703.9006445839734
 20
472.926780738731
 30
0.0
 10
704.4070401530005
 20
472.0496778844482
 30
0.0
  0
SPLINE
  5
20E
330
1F
100
AcDbEntity
  8
0
  6
Continuous
 62
     7
370
    25
100
AcDbSpline
210
0.0
220
0.0
230
1.0
 70
     8
 71
     3
 72
     9
 73
     5
 74
     0
 42
0.00000001
 43
0.00000001
 40
0.0
 40
0.0
 40
0.0
 40
0.0
 40
0.5841917497409942
 40
1.0
 40
1.0
 40
1.0
 40
1.0
 10
697.8483801848525
 20
484.5513424623132
 30
0.0
 10
697.9050723332607
 20
484.070984336747
 30
0.0
 10
698.0021160666467
 20
483.2487232798607
 30
0.0
 10
698.3636902834198
 20
482.5480192887963
 30
0.0
 10
698.514035825835
 20
482.2566607883223
 30
0.0
  0
ARC
  5
20F
330
1F
100
AcDbEntity
  8
0
  6
Continuous
 62
     7
370
    25
100
AcDbCircle
 10
715.5334508009
 20
485.2781693364
 30
0.0
 40
17.70000000000003
100
AcDbArc
 50
177.6465635726
 51
182.3534364274
  0
SPLINE
  5
210
330
1F
100
AcDbEntity
  8
0
  6
Continuous
 62
     7
370
    25
100
AcDbSpline
210
0.0
220
0.0
230
1.0
 70
     8
 71
     3
 72
     9
 73
     5
 74
     0
 42
0.00000001
 43
0.00000001
 40
0.0
 40
0.0
 40
0.0
 40
0.0
 40
0.5850553834536183
 40
1.0
 40
1.0
 40
1.0
 40
1.0
 10
698.5140358258352
 20
488.2996778844469
 30
0.0
 10
698.3091641748566
 20
487.8814329418444
 30
0.0
 10
697.9589893764145
 20
487.1665520016272
 30
0.0
 10
697.8808172767659
 20
486.3456323857014
 30
0.0
 10
697.8483801848525
 20
486.0049962104557
 30
0.0
  0
SPLINE
  5
211
330
1F
100
AcDbEntity
  8
0
  6
Continuous
 62
     7
370
    25
100
AcDbSpline
210
0.0
220
0.0
230
1.0
 70
    24
 71
     3
 72
    11
 73
     7
 74
     0
 42
0.00000001
 43
0.00000001
 40
0.0
 40
0.0
 40
0.0
 40
0.0
 40
0.2328716322111468
 40
0.4710265024313225
 40
0.7311421212560294
 40
1.0
 40
1.0
 40
1.0
 40
1.0
 10
704.4070401530014
 20
498.5066607883221
 30
0.0
 10
703.9601119378411
 20
497.7325584123285
 30
0.0
 10
703.0561158949315
 20
496.1667913361678
 30
0.0
 10
701.5922795246499
 20
493.631352368873
 30
0.0
 10
700.048730069411
 20
490.9578462884039
 30
0.0
 10
699.0312060589179
 20
489.1954430043086
 30
0.0
 10
698.5140358258351
 20
488.2996778844469
 30
0.0
  0
SPLINE
  5
212
330
1F
100
AcDbEntity
  8
0
  6
Continuous
 62
     7
370
    25
100
AcDbSpline
210
0.0
220
0.0
230
1.0
 70
     8
 71
     3
 72
     9
 73
     5
 74
     0
 42
0.00000001
 43
0.00000001
 40
0.0
 40
0.0
 40
0.0
 40
0.0
 40
0.584191749740925
 40
1.0
 40
1.0
 40
1.0
 40
1.0
 10
706.061464955785
 20
500.2304763205809
 30
0.0
 10
705.6738086903345
 20
499.9412004170812
 30
0.0
 10
705.0102315932213
 20
499.4460275502477
 30
0.0
 10
704.5841912448128
 20
498.7825430976364
 30
0.0
 10
704.4070401530014
 20
498.5066607883221
 30
0.0
  0
ARC
  5
213
330
1F
100
AcDbEntity
  8
0
  6
Continuous
 62
     7
370
    25
100
AcDbCircle
 10
715.5334508009
 20
485.2781693364
 30
0.0
 40
17.70000000000002
100
AcDbArc
 50
117.6465635726
 51
122.3534364274
  0
SPLINE
  5
214
330
1F
100
AcDbEntity
  8
0
  6
Continuous
 62
     7
370
    25
100
AcDbSpline
210
0.0
220
0.0
230
1.0
 70
     8
 71
     3
 72
     9
 73
     5
 74
     0
 42
0.00000001
 43
0.00000001
 40
0.0
 40
0.0
 40
0.0
 40
0.0
 40
0.5850553834536162
 40
1.0
 40
1.0
 40
1.0
 40
1.0
 10
709.6404464737491
 20
501.5281693363845
 30
0.0
 10
709.1757999029618
 20
501.4964709193458
 30
0.0
 10
708.3816074488312
 20
501.4422907204533
 30
0.0
 10
707.6315841571503
 20
501.0995299366532
 30
0.0
 10
707.3203660299828
 20
500.9573031946521
 30
0.0
  0
SPLINE
  5
215
330
1F
100
AcDbEntity
  8
0
  6
Continuous
 62
     7
370
    25
100
AcDbSpline
210
0.0
220
0.0
230
1.0
 70
    24
 71
     3
 72
    11
 73
     7
 74
     0
 42
0.00000001
 43
0.00000001
 40
0.0
 40
0.0
 40
0.0
 40
0.0
 40
0.2328716322111479
 40
0.4710265024313248
 40
0.7311421212560302
 40
0.9999999999999999
 40
0.9999999999999999
 40
0.9999999999999999
 40
0.9999999999999999
 10
721.4264551280816
 20
501.5281693363845
 30
0.0
 10
720.5325986977612
 20
501.5281693363845
 30
0.0
 10
718.7246066119418
 20
501.5281693363845
 30
0.0
 10
715.7969338713789
 20
501.5281693363845
 30
0.0
 10
712.7098349609009
 20
501.5281693363845
 30
0.0
 10
710.6747869399147
 20
501.5281693363845
 30
0.0
 10
709.6404464737491
 20
501.5281693363845
 30
0.0
  0
SPLINE
  5
216
330
1F
100
AcDbEntity
  8
0
  6
Continuous
 62
     7
370
    25
100
AcDbSpline
210
0.0
220
0.0
230
1.0
 70
     8
 71
     3
 72
     9
 73
     5
 74
     0
 42
0.00000001
 43
0.00000001
 40
0.0
 40
0.0
 40
0.0
 40
0.0
 40
0.5841917497409234
 40
1.0
 40
1.0
 40
1.0
 40
1.0
 10
723.7465355718479
 20
500.9573031946521
 30
0.0
 10
723.3021871579891
 20
501.1483854167187
 30
0.0
 10
722.5415663274899
 20
501.4754736067715
 30
0.0
 10
721.7539517623082
 20
501.5126931452247
 30
0.0
 10
721.4264551280816
 20
501.5281693363845
 30
0.0
  0
ARC
  5
217
330
1F
100
AcDbEntity
  8
0
  6
Continuous
 62
     7
370
    25
100
AcDbCircle
 10
715.5334508009
 20
485.2781693364
 30
0.0
 40
17.69999999999997
100
AcDbArc
 50
57.6465635726
 51
62.3534364274
  0
SPLINE
  5
218
330
1F
100
AcDbEntity
  8
0
  6
Continuous
 62
     7
370
    25
100
AcDbSpline
210
0.0
220
0.0
230
1.0
 70
     8
 71
     3
 72
     9
 73
     5
 74
     0
 42
0.00000001
 43
0.00000001
 40
0.0
 40
0.0
 40
0.0
 40
0.0
 40
0.5850553834536193
 40
1.0
 40
1.0
 40
1.0
 40
1.0
 10
726.6598614488294
 20
498.5066607883221
 30
0.0
 10
726.4000865290204
 20
498.8932073138859
 30
0.0
 10
725.9560688733322
 20
499.5539080552106
 30
0.0
 10
725.2842176812998
 20
500.0320668873363
 30
0.0
 10
725.0054366460456
 20
500.2304763205809
 30
0.0
  0
LINE
  5
219
330
1F
100
AcDbEntity
  8
0
  6
Continuous
 62
     7
370
    25
100
AcDbLine
 10
727.9455478375
 20
496.2797866406
 30
0.0
 11
726.6598614488
 21
498.5066607883
 31
0.0
  0
SPLINE
  5
21A
330
1F
100
AcDbEntity
  8
0
  6
Continuous
 62
     7
370
    25
100
AcDbSpline
210
0.0
220
0.0
230
1.0
 70
    24
 71
     3
 72
     9
 73
     5
 74
     0
 42
0.00000001
 43
0.00000001
 40
0.0
 40
0.0
 40
0.0
 40
0.0
 40
0.7971934934843136
 40
1.0
 40
1.0
 40
1.0
 40
1.0
 10
726.6598614488294
 20
472.0496778844469
 30
0.0
 10
727.10469294192
 20
472.8201486312865
 30
0.0
 10
727.6626898356808
 20
473.7866276017459
 30
0.0
 10
728.2456059169047
 20
474.7962678709746
 30
0.0
 10
728.3638250909295
 20
475.0010294868144
 30
0.0
  0
SPLINE
  5
21B
330
1F
100
AcDbEntity
  8
0
  6
Continuous
 62
     7
370
    25
100
AcDbSpline
210
0.0
220
0.0
230
1.0
 70
     8
 71
     3
 72
     9
 73
     5
 74
     0
 42
0.00000001
 43
0.00000001
 40
0.0
 40
0.0
 40
0.0
 40
0.0
 40
0.5841917497409237
 40
1.0
 40
1.0
 40
1.0
 40
1.0
 10
725.0054366460456
 20
470.325862352188
 30
0.0
 10
725.3930929114962
 20
470.6151382556877
 30
0.0
 10
726.0566700086094
 20
471.1103111225213
 30
0.0
 10
726.4827103570178
 20
471.7737955751325
 30
0.0
 10
726.6598614488294
 20
472.0496778844469
 30
0.0
  0
ARC
  5
21C
330
1F
100
AcDbEntity
  8
0
  6
Continuous
 62
     7
370
    25
100
AcDbCircle
 10
715.5334508009
 20
485.2781693364
 30
0.0
 40
17.69999999999997
100
AcDbArc
 50
297.6465635726
 51
302.3534364274
  0
SPLINE
  5
21D
330
1F
100
AcDbEntity
  8
0
  6
Continuous
 62
     7
370
    25
100
AcDbSpline
210
0.0
220
0.0
230
1.0
 70
     8
 71
     3
 72
     9
 73
     5
 74
     0
 42
0.00000001
 43
0.00000001
 40
0.0
 40
0.0
 40
0.0
 40
0.0
 40
0.5850553834536171
 40
1.0
 40
1.0
 40
1.0
 40
1.0
 10
721.4264551280816
 20
469.0281693363845
 30
0.0
 10
721.891101698869
 20
469.0598677534231
 30
0.0
 10
722.6852941529994
 20
469.1140479523157
 30
0.0
 10
723.4353174446803
 20
469.4568087361156
 30
0.0
 10
723.7465355718479
 20
469.5990354781167
 30
0.0
  0
SPLINE
  5
21E
330
1F
100
AcDbEntity
  8
0
  6
Continuous
 62
     7
370
    25
100
AcDbSpline
210
0.0
220
0.0
230
1.0
 70
    24
 71
     3
 72
    11
 73
     7
 74
     0
 42
0.00000001
 43
0.00000001
 40
0.0
 40
0.0
 40
0.0
 40
0.0
 40
0.2328716322111485
 40
0.471026502431326
 40
0.7311421212560308
 40
1.0
 40
1.0
 40
1.0
 40
1.0
 10
709.6404464737491
 20
469.0281693363845
 30
0.0
 10
710.5343029040695
 20
469.0281693363845
 30
0.0
 10
712.3422949898888
 20
469.0281693363845
 30
0.0
 10
715.2699677304519
 20
469.0281693363845
 30
0.0
 10
718.3570666409298
 20
469.0281693363845
 30
0.0
 10
720.3921146619159
 20
469.0281693363845
 30
0.0
 10
721.4264551280816
 20
469.0281693363845
 30
0.0
  0
SPLINE
  5
21F
330
1F
100
AcDbEntity
  8
0
  6
Continuous
 62
     7
370
    25
100
AcDbSpline
210
0.0
220
0.0
230
1.0
 70
     8
 71
     3
 72
     9
 73
     5
 74
     0
 42
0.00000001
 43
0.00000001
 40
0.0
 40
0.0
 40
0.0
 40
0.0
 40
0.5841917497409266
 40
1.0
 40
1.0
 40
1.0
 40
1.0
 10
707.3203660299829
 20
469.5990354781167
 30
0.0
 10
707.7647144438416
 20
469.4079532560502
 30
0.0
 10
708.5253352743408
 20
469.0808650659974
 30
0.0
 10
709.3129498395224
 20
469.0436455275442
 30
0.0
 10
709.6404464737491
 20
469.0281693363845
 30
0.0
  0
ARC
  5
220
330
1F
100
AcDbEntity
  8
0
  6
Continuous
 62
     7
370
    25
100
AcDbCircle
 10
715.5334508009
 20
485.2781693364
 30
0.0
 40
17.70000000000002
100
AcDbArc
 50
237.6465635726
 51
242.3534364274
  0
ARC
  5
221
330
1F
100
AcDbEntity
  8
0
  6
Continuous
 62
     7
370
    25
100
AcDbCircle
 10
512.3334508009
 20
485.2781693364
 30
0.0
 40
14.87500000000001
100
AcDbArc
 50
233.3837470415
 51
30.0
  0
ARC
  5
222
330
1F
100
AcDbEntity
  8
0
  6
Continuous
 62
     7
370
    25
100
AcDbCircle
 10
512.3334508009
 20
485.2781693364
 30
0.0
 40
14.87500000000003
100
AcDbArc
 50
30.0
 51
126.6162529585
  0
ARC
  5
223
330
1F
100
AcDbEntity
  8
0
  6
Continuous
 62
     7
370
    25
100
AcDbCircle
 10
512.3334508009
 20
485.2781693364
 30
0.0
 40
10.57499999999999
100
AcDbArc
 50
261.6509017607
 51
30.0
  0
ARC
  5
224
330
1F
100
AcDbEntity
  8
0
  6
Continuous
 62
     7
370
    25
100
AcDbCircle
 10
512.3334508009
 20
485.2781693364
 30
0.0
 40
10.575
100
AcDbArc
 50
30.0
 51
98.3490982393
  0
ARC
  5
225
330
1F
100
AcDbEntity
  8
0
  6
Continuous
 62
     7
370
    25
100
AcDbCircle
 10
512.3334508009
 20
485.2781693364
 30
0.0
 40
16.20000000000004
100
AcDbArc
 50
223.9250761661
 51
136.0749238339
  0
SPLINE
  5
226
330
1F
100
AcDbEntity
  8
0
  6
Continuous
 62
     7
370
    25
100
AcDbSpline
210
0.0
220
0.0
230
1.0
 70
     8
 71
     3
 72
     9
 73
     5
 74
     0
 42
0.00000001
 43
0.00000001
 40
0.0
 40
0.0
 40
0.0
 40
0.0
 40
0.5850553834534097
 40
1.0
 40
1.0
 40
1.0
 40
1.0
 10
501.2070401530004
 20
472.0496778844482
 30
0.0
 10
501.4668150728093
 20
471.6631313588842
 30
0.0
 10
501.9108327284977
 20
471.002430617559
 30
0.0
 10
502.5826839205305
 20
470.5242717854329
 30
0.0
 10
502.861464955785
 20
470.325862352188
 30
0.0
  0
LINE
  5
227
330
1F
100
AcDbEntity
  8
0
  6
Continuous
 62
     7
370
    25
100
AcDbLine
 10
499.7245235828
 20
474.6174719071
 30
0.0
 11
501.207040153
 21
472.0496778844
 31
0.0
  0
SPLINE
  5
228
330
1F
100
AcDbEntity
  8
0
  6
Continuous
 62
     7
370
    25
100
AcDbSpline
210
0.0
220
0.0
230
1.0
 70
    24
 71
     3
 72
     9
 73
     5
 74
     0
 42
0.00000001
 43
0.00000001
 40
0.0
 40
0.0
 40
0.0
 40
0.0
 40
0.94465035664721
 40
1.0
 40
1.0
 40
1.0
 40
1.0
 10
501.2070401530013
 20
498.5066607883221
 30
0.0
 10
500.7631850904606
 20
497.737881268805
 30
0.0
 10
500.2933233480524
 20
496.9240568584214
 30
0.0
 10
499.8024322226896
 20
496.0738084883081
 30
0.0
 10
499.7752615739757
 20
496.026747544261
 30
0.0
  0
SPLINE
  5
229
330
1F
100
AcDbEntity
  8
0
  6
Continuous
 62
     7
370
    25
100
AcDbSpline
210
0.0
220
0.0
230
1.0
 70
     8
 71
     3
 72
     9
 73
     5
 74
     0
 42
0.00000001
 43
0.00000001
 40
0.0
 40
0.0
 40
0.0
 40
0.0
 40
0.584191749740925
 40
1.0
 40
1.0
 40
1.0
 40
1.0
 10
502.861464955785
 20
500.2304763205809
 30
0.0
 10
502.4738086903344
 20
499.9412004170812
 30
0.0
 10
501.8102315932213
 20
499.4460275502477
 30
0.0
 10
501.3841912448127
 20
498.7825430976364
 30
0.0
 10
501.2070401530013
 20
498.5066607883221
 30
0.0
  0
ARC
  5
22A
330
1F
100
AcDbEntity
  8
0
  6
Continuous
 62
     7
370
    25
100
AcDbCircle
 10
512.3334508009
 20
485.2781693364
 30
0.0
 40
17.70000000000001
100
AcDbArc
 50
117.6465635726
 51
122.3534364274
  0
SPLINE
  5
22B
330
1F
100
AcDbEntity
  8
0
  6
Continuous
 62
     7
370
    25
100
AcDbSpline
210
0.0
220
0.0
230
1.0
 70
     8
 71
     3
 72
     9
 73
     5
 74
     0
 42
0.00000001
 43
0.00000001
 40
0.0
 40
0.0
 40
0.0
 40
0.0
 40
0.5850553834536162
 40
1.0
 40
1.0
 40
1.0
 40
1.0
 10
506.4404464737491
 20
501.5281693363845
 30
0.0
 10
505.9757999029617
 20
501.4964709193458
 30
0.0
 10
505.1816074488312
 20
501.4422907204533
 30
0.0
 10
504.4315841571503
 20
501.0995299366532
 30
0.0
 10
504.1203660299828
 20
500.9573031946521
 30
0.0
  0
SPLINE
  5
22C
330
1F
100
AcDbEntity
  8
0
  6
Continuous
 62
     7
370
    25
100
AcDbSpline
210
0.0
220
0.0
230
1.0
 70
    24
 71
     3
 72
    11
 73
     7
 74
     0
 42
0.00000001
 43
0.00000001
 40
0.0
 40
0.0
 40
0.0
 40
0.0
 40
0.2328716322111479
 40
0.4710265024313248
 40
0.7311421212560302
 40
0.9999999999999999
 40
0.9999999999999999
 40
0.9999999999999999
 40
0.9999999999999999
 10
518.2264551280815
 20
501.5281693363845
 30
0.0
 10
517.332598697761
 20
501.5281693363845
 30
0.0
 10
515.5246066119417
 20
501.5281693363845
 30
0.0
 10
512.5969338713788
 20
501.5281693363845
 30
0.0
 10
509.5098349609008
 20
501.5281693363845
 30
0.0
 10
507.4747869399148
 20
501.5281693363845
 30
0.0
 10
506.4404464737491
 20
501.5281693363845
 30
0.0
  0
SPLINE
  5
22D
330
1F
100
AcDbEntity
  8
0
  6
Continuous
 62
     7
370
    25
100
AcDbSpline
210
0.0
220
0.0
230
1.0
 70
     8
 71
     3
 72
     9
 73
     5
 74
     0
 42
0.00000001
 43
0.00000001
 40
0.0
 40
0.0
 40
0.0
 40
0.0
 40
0.5841917497409234
 40
1.0
 40
1.0
 40
1.0
 40
1.0
 10
520.5465355718478
 20
500.9573031946521
 30
0.0
 10
520.1021871579891
 20
501.1483854167187
 30
0.0
 10
519.3415663274899
 20
501.4754736067715
 30
0.0
 10
518.5539517623082
 20
501.5126931452247
 30
0.0
 10
518.2264551280815
 20
501.5281693363845
 30
0.0
  0
ARC
  5
22E
330
1F
100
AcDbEntity
  8
0
  6
Continuous
 62
     7
370
    25
100
AcDbCircle
 10
512.3334508009
 20
485.2781693364
 30
0.0
 40
17.69999999999997
100
AcDbArc
 50
57.6465635726
 51
62.3534364274
  0
SPLINE
  5
22F
330
1F
100
AcDbEntity
  8
0
  6
Continuous
 62
     7
370
    25
100
AcDbSpline
210
0.0
220
0.0
230
1.0
 70
     8
 71
     3
 72
     9
 73
     5
 74
     0
 42
0.00000001
 43
0.00000001
 40
0.0
 40
0.0
 40
0.0
 40
0.0
 40
0.5850553834536193
 40
1.0
 40
1.0
 40
1.0
 40
1.0
 10
523.4598614488293
 20
498.5066607883221
 30
0.0
 10
523.2000865290204
 20
498.8932073138859
 30
0.0
 10
522.7560688733322
 20
499.5539080552106
 30
0.0
 10
522.0842176812997
 20
500.0320668873363
 30
0.0
 10
521.8054366460456
 20
500.2304763205809
 30
0.0
  0
SPLINE
  5
230
330
1F
100
AcDbEntity
  8
0
  6
Continuous
 62
     7
370
    25
100
AcDbSpline
210
0.0
220
0.0
230
1.0
 70
    24
 71
     3
 72
    11
 73
     7
 74
     0
 42
0.00000001
 43
0.00000001
 40
0.0
 40
0.0
 40
0.0
 40
0.0
 40
0.2556279644380972
 40
0.5185037642963867
 40
0.7560467972580103
 40
1.0
 40
1.0
 40
1.0
 40
1.0
 10
529.3528657759956
 20
488.2996778844469
 30
0.0
 10
528.8615726977274
 20
489.1506224574143
 30
0.0
 10
527.8650568782833
 20
490.8766384872375
 30
0.0
 10
526.3448459718302
 20
493.5097210154347
 30
0.0
 10
524.8531302502819
 20
496.0934484356054
 30
0.0
 10
523.9283880867755
 20
497.6951488466998
 30
0.0
 10
523.4598614488293
 20
498.5066607883221
 30
0.0
  0
SPLINE
  5
231
330
1F
100
AcDbEntity
  8
0
  6
Continuous
 62
     7
370
    25
100
AcDbSpline
210
0.0
220
0.0
230
1.0
 70
     8
 71
     3
 72
     9
 73
     5
 74
     0
 42
0.00000001
 43
0.00000001
 40
0.0
 40
0.0
 40
0.0
 40
0.0
 40
0.5841917497409242
 40
1.0
 40
1.0
 40
1.0
 40
1.0
 10
530.0185214169782
 20
486.0049962104557
 30
0.0
 10
529.9618292685699
 20
486.4853543360219
 30
0.0
 10
529.864785535184
 20
487.3076153929083
 30
0.0
 10
529.5032113184109
 20
488.0083193839728
 30
0.0
 10
529.3528657759956
 20
488.2996778844469
 30
0.0
  0
ARC
  5
232
330
1F
100
AcDbEntity
  8
0
  6
Continuous
 62
     7
370
    25
100
AcDbCircle
 10
512.3334508009
 20
485.2781693364
 30
0.0
 40
17.70000000000003
100
AcDbArc
 50
357.6465635726
 51
2.3534364274
  0
SPLINE
  5
233
330
1F
100
AcDbEntity
  8
0
  6
Continuous
 62
     7
370
    25
100
AcDbSpline
210
0.0
220
0.0
230
1.0
 70
     8
 71
     3
 72
     9
 73
     5
 74
     0
 42
0.00000001
 43
0.00000001
 40
0.0
 40
0.0
 40
0.0
 40
0.0
 40
0.5850553834536182
 40
0.9999999999999999
 40
0.9999999999999999
 40
0.9999999999999999
 40
0.9999999999999999
 10
529.3528657759956
 20
482.2566607883221
 30
0.0
 10
529.557737426974
 20
482.6749057309245
 30
0.0
 10
529.9079122254162
 20
483.3897866711417
 30
0.0
 10
529.9860843250648
 20
484.2107062870675
 30
0.0
 10
530.0185214169782
 20
484.5513424623132
 30
0.0
  0
SPLINE
  5
234
330
1F
100
AcDbEntity
  8
0
  6
Continuous
 62
     7
370
    25
100
AcDbSpline
210
0.0
220
0.0
230
1.0
 70
    24
 71
     3
 72
    11
 73
     7
 74
     0
 42
0.00000001
 43
0.00000001
 40
0.0
 40
0.0
 40
0.0
 40
0.0
 40
0.2328716322111471
 40
0.471026502431323
 40
0.7311421212560296
 40
1.0
 40
1.0
 40
1.0
 40
1.0
 10
523.4598614488293
 20
472.0496778844469
 30
0.0
 10
523.9067896639895
 20
472.8237802604404
 30
0.0
 10
524.8107857068991
 20
474.3895473366011
 30
0.0
 10
526.2746220771807
 20
476.9249863038959
 30
0.0
 10
527.8181715324196
 20
479.5984923843651
 30
0.0
 10
528.8356955429127
 20
481.3608956684603
 30
0.0
 10
529.3528657759956
 20
482.2566607883221
 30
0.0
  0
SPLINE
  5
235
330
1F
100
AcDbEntity
  8
0
  6
Continuous
 62
     7
370
    25
100
AcDbSpline
210
0.0
220
0.0
230
1.0
 70
     8
 71
     3
 72
     9
 73
     5
 74
     0
 42
0.00000001
 43
0.00000001
 40
0.0
 40
0.0
 40
0.0
 40
0.0
 40
0.5841917497409237
 40
1.0
 40
1.0
 40
1.0
 40
1.0
 10
521.8054366460456
 20
470.325862352188
 30
0.0
 10
522.1930929114961
 20
470.6151382556877
 30
0.0
 10
522.8566700086094
 20
471.1103111225213
 30
0.0
 10
523.2827103570178
 20
471.7737955751325
 30
0.0
 10
523.4598614488293
 20
472.0496778844469
 30
0.0
  0
ARC
  5
236
330
1F
100
AcDbEntity
  8
0
  6
Continuous
 62
     7
370
    25
100
AcDbCircle
 10
512.3334508009
 20
485.2781693364
 30
0.0
 40
17.69999999999995
100
AcDbArc
 50
297.6465635726
 51
302.3534364274
  0
SPLINE
  5
237
330
1F
100
AcDbEntity
  8
0
  6
Continuous
 62
     7
370
    25
100
AcDbSpline
210
0.0
220
0.0
230
1.0
 70
     8
 71
     3
 72
     9
 73
     5
 74
     0
 42
0.00000001
 43
0.00000001
 40
0.0
 40
0.0
 40
0.0
 40
0.0
 40
0.5850553834536171
 40
1.0
 40
1.0
 40
1.0
 40
1.0
 10
518.2264551280815
 20
469.0281693363845
 30
0.0
 10
518.6911016988689
 20
469.0598677534231
 30
0.0
 10
519.4852941529994
 20
469.1140479523157
 30
0.0
 10
520.2353174446803
 20
469.4568087361156
 30
0.0
 10
520.5465355718477
 20
469.5990354781167
 30
0.0
  0
SPLINE
  5
238
330
1F
100
AcDbEntity
  8
0
  6
Continuous
 62
     7
370
    25
100
AcDbSpline
210
0.0
220
0.0
230
1.0
 70
    24
 71
     3
 72
    11
 73
     7
 74
     0
 42
0.00000001
 43
0.00000001
 40
0.0
 40
0.0
 40
0.0
 40
0.0
 40
0.2328716322111485
 40
0.471026502431326
 40
0.7311421212560308
 40
1.0
 40
1.0
 40
1.0
 40
1.0
 10
506.4404464737491
 20
469.0281693363845
 30
0.0
 10
507.3343029040695
 20
469.0281693363845
 30
0.0
 10
509.1422949898889
 20
469.0281693363845
 30
0.0
 10
512.0699677304518
 20
469.0281693363845
 30
0.0
 10
515.1570666409298
 20
469.0281693363845
 30
0.0
 10
517.192114661916
 20
469.0281693363845
 30
0.0
 10
518.2264551280815
 20
469.0281693363845
 30
0.0
  0
SPLINE
  5
239
330
1F
100
AcDbEntity
  8
0
  6
Continuous
 62
     7
370
    25
100
AcDbSpline
210
0.0
220
0.0
230
1.0
 70
     8
 71
     3
 72
     9
 73
     5
 74
     0
 42
0.00000001
 43
0.00000001
 40
0.0
 40
0.0
 40
0.0
 40
0.0
 40
0.5841917497409266
 40
1.0
 40
1.0
 40
1.0
 40
1.0
 10
504.1203660299829
 20
469.5990354781168
 30
0.0
 10
504.5647144438415
 20
469.4079532560502
 30
0.0
 10
505.3253352743408
 20
469.0808650659974
 30
0.0
 10
506.1129498395224
 20
469.0436455275442
 30
0.0
 10
506.4404464737491
 20
469.0281693363845
 30
0.0
  0
ARC
  5
23A
330
1F
100
AcDbEntity
  8
0
  6
Continuous
 62
     7
370
    25
100
AcDbCircle
 10
512.3334508009
 20
485.2781693364
 30
0.0
 40
17.70000000000001
100
AcDbArc
 50
237.6465635726
 51
242.3534364274
  0
SPLINE
  5
23B
330
1F
100
AcDbEntity
  8
0
  6
Continuous
 62
     8
370
    25
100
AcDbSpline
210
0.0
220
0.0
230
1.0
 70
     8
 71
     3
 72
    17
 73
    13
 74
     0
 42
0.00000001
 43
0.00000001
 40
0.0
 40
0.0
 40
0.0
 40
0.0
 40
0.0731124840980329
 40
0.1443343424838147
 40
0.2157386920128448
 40
0.2234831063124843
 40
0.3261734937305342
 40
0.4291419816829798
 40
0.5720883790299164
 40
0.7152429553981424
 40
0.9579010451139218
 40
1.0
 40
1.0
 40
1.0
 40
1.0
 10
592.1531188300501
 20
485.2781693363845
 30
0.0
 10
592.1875428886343
 20
485.8087362016034
 30
0.0
 10
592.2555008293701
 20
486.856149931007
 30
0.0
 10
592.7683888822279
 20
488.3210145517137
 30
0.0
 10
593.2677853204035
 20
489.2449805660877
 30
0.0
 10
593.9571484336142
 20
490.2879065186052
 30
0.0
 10
594.8898027190173
 20
491.4019982325412
 30
0.0
 10
596.637734739713
 20
492.9038580628913
 30
0.0
 10
598.7728504767013
 20
494.2525616893272
 30
0.0
 10
601.8509209716964
 20
495.6112621626914
 30
0.0
 10
604.4204313071095
 20
496.46596906423
 30
0.0
 10
606.1960560349673
 20
496.6810621392872
 30
0.0
 10
606.4585673467321
 20
496.7128618570986
 30
0.0
  0
SPLINE
  5
23C
330
1F
100
AcDbEntity
  8
0
  6
Continuous
 62
     8
370
    25
100
AcDbSpline
210
0.0
220
0.0
230
1.0
 70
     8
 71
     3
 72
    26
 73
    22
 74
     0
 42
0.00000001
 43
0.00000001
 40
0.0
 40
0.0
 40
0.0
 40
0.0
 40
0.1041072338226704
 40
0.1866347226931851
 40
0.269024441434068
 40
0.3236499034228841
 40
0.3781271565573828
 40
0.4135131222792844
 40
0.4488175402633555
 40
0.499078779591128
 40
0.5182311021157263
 40
0.5473923062686816
 40
0.5765949454646547
 40
0.5894870906046614
 40
0.6359809908997205
 40
0.6826100039865055
 40
0.7508118876703398
 40
0.8194646843039982
 40
0.8879912057755704
 40
0.9976676436157385
 40
1.0
 40
1.0
 40
1.0
 40
1.0
 10
621.4079911762942
 20
496.7266922641975
 30
0.0
 10
622.6860936613031
 20
496.4636472879251
 30
0.0
 10
624.977368667893
 20
495.992082302479
 30
0.0
 10
628.1636212755823
 20
494.727604291995
 30
0.0
 10
630.6339650797297
 20
493.3336380834643
 30
0.0
 10
632.610114800374
 20
491.7633351547712
 30
0.0
 10
633.9264656231309
 20
490.3143107169761
 30
0.0
 10
634.8505478967959
 20
488.8424002977433
 30
0.0
 10
635.5161252081613
 20
487.2577146110025
 30
0.0
 10
635.7569414908979
 20
485.7288665094864
 30
0.0
 10
635.672958085595
 20
484.2991407756396
 30
0.0
 10
635.443081781739
 20
483.1992562615694
 30
0.0
 10
635.0805694074453
 20
482.2502189841554
 30
0.0
 10
634.5184947462517
 20
481.1437999839267
 30
0.0
 10
633.6818508313355
 20
479.9383080808088
 30
0.0
 10
632.1653672259498
 20
478.3919493899035
 30
0.0
 10
630.2270194553238
 20
476.958978674671
 30
0.0
 10
627.8933234894376
 20
475.7161416903246
 30
0.0
 10
624.9611071458437
 20
474.6155262229333
 30
0.0
 10
622.7800967558792
 20
473.9532129010581
 30
0.0
 10
621.3781021630356
 20
473.7950906813689
 30
0.0
 10
621.3489084638984
 20
473.7917981062533
 30
0.0
  0
SPLINE
  5
23D
330
1F
100
AcDbEntity
  8
0
  6
Continuous
 62
     8
370
    25
100
AcDbSpline
210
0.0
220
0.0
230
1.0
 70
     8
 71
     3
 72
    16
 73
    12
 74
     0
 42
0.00000001
 43
0.00000001
 40
0.0
 40
0.0
 40
0.0
 40
0.0
 40
0.0019351227175561
 40
0.2324544328782281
 40
0.4108667056623194
 40
0.5888117282674202
 40
0.6901725377898332
 40
0.7912396868338857
 40
0.8604989409368538
 40
0.929593534796815
 40
1.0
 40
1.0
 40
1.0
 40
1.0
 10
606.4977861801312
 20
473.7917331833799
 30
0.0
 10
606.4856541852935
 20
473.7930582779537
 30
0.0
 10
605.0283119949869
 20
473.9522337684044
 30
0.0
 10
602.5495119430759
 20
474.7163370106969
 30
0.0
 10
599.0800516908054
 20
476.0990073055107
 30
0.0
 10
596.5524047881565
 20
477.6875859170505
 30
0.0
 10
594.6725326683963
 20
479.3801084621359
 30
0.0
 10
593.5129978795359
 20
480.8382233100442
 30
0.0
 10
592.7315306154837
 20
482.3239243825662
 30
0.0
 10
592.2487505060262
 20
483.7512758368058
 30
0.0
 10
592.1851952803368
 20
484.7660239312934
 30
0.0
 10
592.1531188300501
 20
485.2781693363845
 30
0.0
  0
SPLINE
  5
23E
330
1F
100
AcDbEntity
  8
0
  6
Continuous
 62
     8
370
    25
100
AcDbSpline
210
0.0
220
0.0
230
1.0
 70
     8
 71
     3
 72
    14
 73
    10
 74
     0
 42
0.00000001
 43
0.00000001
 40
0.0
 40
0.0
 40
0.0
 40
0.0
 40
0.0342159020861206
 40
0.1230473070782401
 40
0.2395927606111548
 40
0.3607581212653399
 40
0.5547330794471566
 40
0.7533497162187199
 40
1.0
 40
1.0
 40
1.0
 40
1.0
 10
528.36583324892
 20
497.2528890665052
 30
0.0
 10
528.3490565206092
 20
497.2609922791435
 30
0.0
 10
528.2887240110341
 20
497.2901330713783
 30
0.0
 10
528.5419910698108
 20
497.1684816924367
 30
0.0
 10
529.0425619297858
 20
496.9190005802578
 30
0.0
 10
530.0036169459806
 20
496.4062564547143
 30
0.0
 10
531.3422870827178
 20
495.5935048451611
 30
0.0
 10
533.1216396915981
 20
494.3308166734092
 30
0.0
 10
534.2961276739769
 20
493.1385893816814
 30
0.0
 10
534.9467212410709
 20
492.4781693363942
 30
0.0
  0
SPLINE
  5
23F
330
1F
100
AcDbEntity
  8
0
  6
Continuous
 62
     8
370
    25
100
AcDbSpline
210
0.0
220
0.0
230
1.0
 70
     8
 71
     3
 72
    13
 73
     9
 74
     0
 42
0.00000001
 43
0.00000001
 40
0.0
 40
0.0
 40
0.0
 40
0.0
 40
0.246778961757465
 40
0.441212030354192
 40
0.6395717491695092
 40
0.7566823310778297
 40
0.8773981741612065
 40
1.0
 40
1.0
 40
1.0
 40
1.0
 10
692.9201803607511
 20
492.4781693363845
 30
0.0
 10
693.5710115796851
 20
493.1387851213865
 30
0.0
 10
694.7346219680209
 20
494.3198891738108
 30
0.0
 10
696.5103798282466
 20
495.5846765991017
 30
0.0
 10
697.8495819727949
 20
496.3977947974634
 30
0.0
 10
698.8018935317393
 20
496.9080573368192
 30
0.0
 10
699.4268150837387
 20
497.2182504032164
 30
0.0
 10
699.4926984049692
 20
497.2492186904703
 30
0.0
 10
699.5258954001196
 20
497.2648228534447
 30
0.0
  0
SPLINE
  5
240
330
1F
100
AcDbEntity
  8
0
  6
Continuous
 62
     8
370
    25
100
AcDbSpline
210
0.0
220
0.0
230
1.0
 70
     8
 71
     3
 72
    15
 73
    11
 74
     0
 42
0.00000001
 43
0.00000001
 40
0.0
 40
0.0
 40
0.0
 40
0.0
 40
0.1537339382694103
 40
0.3075430996963078
 40
0.5120770135507831
 40
0.7158169904488905
 40
0.8814680048255724
 40
0.9339496428103082
 40
0.9967904374929384
 40
1.0
 40
1.0
 40
1.0
 40
1.0
 10
534.9467212410796
 20
478.0781693363844
 30
0.0
 10
534.5458971233973
 20
477.655019864972
 30
0.0
 10
533.7440527618157
 20
476.8085138719689
 30
0.0
 10
532.3297358067931
 20
475.6545365214114
 30
0.0
 10
530.7749622054431
 20
474.5959662301367
 30
0.0
 10
529.3574100200199
 20
473.7929771635588
 30
0.0
 10
528.5817974470117
 20
473.4077436901466
 30
0.0
 10
528.3660396769502
 20
473.3034548156694
 30
0.0
 10
528.268606194579
 20
473.2563182708348
 30
0.0
 10
528.3179931579133
 20
473.2803898837611
 30
0.0
 10
528.320393001799
 20
473.2815595874482
 30
0.0
  0
SPLINE
  5
241
330
1F
100
AcDbEntity
  8
0
  6
Continuous
 62
     8
370
    25
100
AcDbSpline
210
0.0
220
0.0
230
1.0
 70
     8
 71
     3
 72
    16
 73
    12
 74
     0
 42
0.00000001
 43
0.00000001
 40
0.0
 40
0.0
 40
0.0
 40
0.0
 40
0.0031934499928734
 40
0.0660118192542301
 40
0.1534790974993416
 40
0.2411497264125002
 40
0.2844434535093475
 40
0.4899270297799082
 40
0.696222920564114
 40
0.8481477611435603
 40
1.0
 40
1.0
 40
1.0
 40
1.0
 10
699.5465410435261
 20
473.2815437720527
 30
0.0
 10
699.5489273236598
 20
473.2803806684601
 30
0.0
 10
699.5982541311021
 20
473.2563381488339
 30
0.0
 10
699.4779197856569
 20
473.3145626101552
 30
0.0
 10
699.2637465135101
 20
473.4180223921848
 30
0.0
 10
698.8869291865924
 20
473.6075758549734
 30
0.0
 10
698.2098222886613
 20
473.9629106114905
 30
0.0
 10
697.075360333557
 20
474.6054198032256
 30
0.0
 10
695.5172338862989
 20
475.6693219392735
 30
0.0
 10
694.1080812626485
 20
476.8230364828319
 30
0.0
 10
693.316084233155
 20
477.6598583844278
 30
0.0
 10
692.9201803607511
 20
478.0781693363845
 30
0.0
  0
ELLIPSE
  5
242
330
1F
100
AcDbEntity
  8
0
  6
Continuous
 62
     8
370
    25
100
AcDbEllipse
 10
456.8723653534
 20
481.9389335584
 30
0.0
 11
1.499999304622804
 21
-0.08287263343873974
 31
0.0
210
0.0
220
0.0
230
1.0
 40
0.0174284859
 41
3.125102257571635
 42
3.639090378510184
  0
ELLIPSE
  5
243
330
1F
100
AcDbEntity
  8
0
  6
Continuous
 62
     8
370
    25
100
AcDbEllipse
 10
770.9945362484
 20
488.8628264032
 30
0.0
 11
1.499999304622747
 21
-0.08287263343868288
 31
0.0
210
0.0
220
0.0
230
1.0
 40
0.0174284859
 41
6.266694911160209
 42
6.78068303209694
  0
ARC
  5
244
330
1F
100
AcDbEntity
  8
0
  6
Continuous
 62
     8
370
    25
100
AcDbCircle
 10
715.5334508009
 20
485.2781693364
 30
0.0
 40
24.79999999999995
100
AcDbArc
 50
270.0
 51
347.9421248963
  0
ARC
  5
245
330
1F
100
AcDbEntity
  8
0
  6
Continuous
 62
     8
370
    25
100
AcDbCircle
 10
715.5334508009
 20
485.2781693364
 30
0.0
 40
24.80000000000001
100
AcDbArc
 50
13.3765667549
 51
151.0614722598
  0
ARC
  5
246
330
1F
100
AcDbEntity
  8
0
  6
Continuous
 62
     8
370
    25
100
AcDbCircle
 10
715.5334508009
 20
485.2781693364
 30
0.0
 40
24.80000000000001
100
AcDbArc
 50
208.9385277402
 51
270.0
  0
ARC
  5
247
330
1F
100
AcDbEntity
  8
0
  6
Continuous
 62
     8
370
    25
100
AcDbCircle
 10
512.3334508009
 20
485.2781693364
 30
0.0
 40
24.80000000000007
100
AcDbArc
 50
90.0
 51
167.299233962
  0
ARC
  5
248
330
1F
100
AcDbEntity
  8
0
  6
Continuous
 62
     8
370
    25
100
AcDbCircle
 10
512.3334508009
 20
485.2781693364
 30
0.0
 40
24.80000000000001
100
AcDbArc
 50
192.740446451
 51
331.0614722598
  0
ARC
  5
249
330
1F
100
AcDbEntity
  8
0
  6
Continuous
 62
     8
370
    25
100
AcDbCircle
 10
512.3334508009
 20
485.2781693364
 30
0.0
 40
24.80000000000007
100
AcDbArc
 50
28.9385277402
 51
90.0
  0
ENDSEC
  0
SECTION
  2
OBJECTS
  0
DICTIONARY
  5
C
330
0
100
AcDbDictionary
281
     1
  3
ACAD_GROUP
350
D
  3
ACAD_LAYOUT
350
1A
  3
ACAD_MLINESTYLE
350
17
  3
ACAD_PLOTSETTINGS
350
19
  3
ACAD_PLOTSTYLENAME
350
E
  3
ACAD_SCALELIST
350
47
  3
DWGPROPS
350
24A
  0
DICTIONARY
  5
D
102
{ACAD_REACTORS
330
C
102
}
330
C
100
AcDbDictionary
281
     1
  0
DICTIONARY
  5
1A
102
{ACAD_REACTORS
330
C
102
}
330
C
100
AcDbDictionary
281
     1
  3
Layout1
350
1E
  3
Layout2
350
26
  3
Model
350
22
  0
DICTIONARY
  5
17
102
{ACAD_REACTORS
330
C
102
}
330
C
100
AcDbDictionary
281
     1
  3
Standard
350
18
  0
DICTIONARY
  5
19
102
{ACAD_REACTORS
330
C
102
}
330
C
100
AcDbDictionary
281
     1
  0
ACDBDICTIONARYWDFLT
  5
E
102
{ACAD_REACTORS
330
C
102
}
330
C
100
AcDbDictionary
281
     1
  3
Normal
350
F
100
AcDbDictionaryWithDefault
340
F
  0
DICTIONARY
  5
47
102
{ACAD_REACTORS
330
C
102
}
330
C
100
AcDbDictionary
281
     1
  3
A0
350
48
  3
A1
350
49
  3
A2
350
4A
  3
A3
350
4B
  3
A4
350
4C
  3
A5
350
4D
  3
A6
350
4E
  3
A7
350
4F
  3
A8
350
50
  3
A9
350
51
  3
B0
350
52
  3
B1
350
53
  3
B2
350
54
  3
B3
350
55
  3
B4
350
56
  3
B5
350
57
  3
B6
350
58
  3
B7
350
59
  3
B8
350
5A
  3
B9
350
5B
  3
C0
350
5C
  3
C1
350
5D
  3
C2
350
5E
  3
C3
350
5F
  3
C4
350
60
  3
C5
350
61
  3
C6
350
62
  3
C7
350
63
  3
C8
350
64
  3
C9
350
65
  3
D0
350
66
  3
D1
350
67
  3
D2
350
68
  0
XRECORD
  5
24A
102
{ACAD_REACTORS
330
C
102
}
330
C
100
AcDbXrecord
280
     1
  1
DWGPROPS COOKIE
  2

  3

  4

  6

  7

  8
designer5
  9

300
=
301
=
302
=
303
=
304
=
305
=
306
=
307
=
308
=
309
=
 40
0.0
 41
2460383.362272778
 42
2460383.362273322
  1

 90
        0
  0
LAYOUT
  5
1E
102
{ACAD_REACTORS
330
1A
102
}
330
1A
100
AcDbPlotSettings
  1

  2
none_device
  4

  6

 40
0.0
 41
0.0
 42
0.0
 43
0.0
 44
0.0
 45
0.0
 46
0.0
 47
0.0
 48
0.0
 49
0.0
140
0.0
141
0.0
142
1.0
143
1.0
 70
   688
 72
     1
 73
     0
 74
     5
  7

 75
    16
147
1.0
148
0.0
149
0.0
100
AcDbLayout
  1
Layout1
 70
     1
 71
     1
 10
0.0
 20
0.0
 11
420.0
 21
297.0
 12
0.0
 22
0.0
 32
0.0
 14
1.0000000000E+20
 24
1.0000000000E+20
 34
1.0000000000E+20
 15
-1.0000000000E+20
 25
-1.0000000000E+20
 35
-1.0000000000E+20
146
0.0
 13
0.0
 23
0.0
 33
0.0
 16
1.0
 26
0.0
 36
0.0
 17
0.0
 27
1.0
 37
0.0
 76
     0
330
1B
  0
LAYOUT
  5
26
102
{ACAD_REACTORS
330
1A
102
}
330
1A
100
AcDbPlotSettings
  1

  2
none_device
  4

  6

 40
0.0
 41
0.0
 42
0.0
 43
0.0
 44
0.0
 45
0.0
 46
0.0
 47
0.0
 48
0.0
 49
0.0
140
0.0
141
0.0
142
1.0
143
1.0
 70
   688
 72
     1
 73
     0
 74
     5
  7

 75
    16
147
1.0
148
0.0
149
0.0
100
AcDbLayout
  1
Layout2
 70
     1
 71
     2
 10
0.0
 20
0.0
 11
0.0
 21
0.0
 12
0.0
 22
0.0
 32
0.0
 14
0.0
 24
0.0
 34
0.0
 15
0.0
 25
0.0
 35
0.0
146
0.0
 13
0.0
 23
0.0
 33
0.0
 16
1.0
 26
0.0
 36
0.0
 17
0.0
 27
1.0
 37
0.0
 76
     0
330
23
  0
LAYOUT
  5
22
102
{ACAD_REACTORS
330
1A
102
}
330
1A
100
AcDbPlotSettings
  1

  2
none_device
  4
Letter_(8.50_x_11.00_Inches)
  6

 40
6.35
 41
6.35
 42
6.35000508
 43
6.35000508
 44
215.9
 45
279.4
 46
0.0
 47
0.0
 48
0.0
 49
0.0
140
0.0
141
0.0
142
1.0
143
1.0
 70
  1712
 72
     1
 73
     0
 74
     0
  7

 75
     0
147
1.0
148
0.0
149
0.0
100
AcDbLayout
  1
Model
 70
     1
 71
     0
 10
0.0
 20
0.0
 11
1189.0
 21
841.0
 12
0.0
 22
0.0
 32
0.0
 14
0.0
 24
0.0
 34
0.0
 15
1189.0
 25
841.0
 35
0.0
146
0.0
 13
0.0
 23
0.0
 33
0.0
 16
1.0
 26
0.0
 36
0.0
 17
0.0
 27
1.0
 37
0.0
 76
     0
330
1F
331
29
  0
MLINESTYLE
  5
18
102
{ACAD_REACTORS
330
17
102
}
330
17
100
AcDbMlineStyle
  2
Standard
 70
     0
  3

 62
   256
 51
90.0
 52
90.0
 71
     2
 49
0.5
 62
   256
  6
BYLAYER
 49
-0.5
 62
   256
  6
BYLAYER
  0
ACDBPLACEHOLDER
  5
F
102
{ACAD_REACTORS
330
E
102
}
330
E
  0
SCALE
  5
48
102
{ACAD_REACTORS
330
47
102
}
330
47
100
AcDbScale
 70
     0
300
1:1
140
1.0
141
1.0
290
     1
  0
SCALE
  5
49
102
{ACAD_REACTORS
330
47
102
}
330
47
100
AcDbScale
 70
     0
300
1:2
140
1.0
141
2.0
290
     0
  0
SCALE
  5
4A
102
{ACAD_REACTORS
330
47
102
}
330
47
100
AcDbScale
 70
     0
300
1:4
140
1.0
141
4.0
290
     0
  0
SCALE
  5
4B
102
{ACAD_REACTORS
330
47
102
}
330
47
100
AcDbScale
 70
     0
300
1:5
140
1.0
141
5.0
290
     0
  0
SCALE
  5
4C
102
{ACAD_REACTORS
330
47
102
}
330
47
100
AcDbScale
 70
     0
300
1:8
140
1.0
141
8.0
290
     0
  0
SCALE
  5
4D
102
{ACAD_REACTORS
330
47
102
}
330
47
100
AcDbScale
 70
     0
300
1:10
140
1.0
141
10.0
290
     0
  0
SCALE
  5
4E
102
{ACAD_REACTORS
330
47
102
}
330
47
100
AcDbScale
 70
     0
300
1:16
140
1.0
141
16.0
290
     0
  0
SCALE
  5
4F
102
{ACAD_REACTORS
330
47
102
}
330
47
100
AcDbScale
 70
     0
300
1:20
140
1.0
141
20.0
290
     0
  0
SCALE
  5
50
102
{ACAD_REACTORS
330
47
102
}
330
47
100
AcDbScale
 70
     0
300
1:30
140
1.0
141
30.0
290
     0
  0
SCALE
  5
51
102
{ACAD_REACTORS
330
47
102
}
330
47
100
AcDbScale
 70
     0
300
1:40
140
1.0
141
40.0
290
     0
  0
SCALE
  5
52
102
{ACAD_REACTORS
330
47
102
}
330
47
100
AcDbScale
 70
     0
300
1:50
140
1.0
141
50.0
290
     0
  0
SCALE
  5
53
102
{ACAD_REACTORS
330
47
102
}
330
47
100
AcDbScale
 70
     0
300
1:100
140
1.0
141
100.0
290
     0
  0
SCALE
  5
54
102
{ACAD_REACTORS
330
47
102
}
330
47
100
AcDbScale
 70
     0
300
2:1
140
2.0
141
1.0
290
     0
  0
SCALE
  5
55
102
{ACAD_REACTORS
330
47
102
}
330
47
100
AcDbScale
 70
     0
300
4:1
140
4.0
141
1.0
290
     0
  0
SCALE
  5
56
102
{ACAD_REACTORS
330
47
102
}
330
47
100
AcDbScale
 70
     0
300
8:1
140
8.0
141
1.0
290
     0
  0
SCALE
  5
57
102
{ACAD_REACTORS
330
47
102
}
330
47
100
AcDbScale
 70
     0
300
10:1
140
10.0
141
1.0
290
     0
  0
SCALE
  5
58
102
{ACAD_REACTORS
330
47
102
}
330
47
100
AcDbScale
 70
     0
300
100:1
140
100.0
141
1.0
290
     0
  0
SCALE
  5
59
102
{ACAD_REACTORS
330
47
102
}
330
47
100
AcDbScale
 70
     0
300
1/128" = 1'-0"
140
0.0078125
141
12.0
290
     0
  0
SCALE
  5
5A
102
{ACAD_REACTORS
330
47
102
}
330
47
100
AcDbScale
 70
     0
300
1/64" = 1'-0"
140
0.015625
141
12.0
290
     0
  0
SCALE
  5
5B
102
{ACAD_REACTORS
330
47
102
}
330
47
100
AcDbScale
 70
     0
300
1/32" = 1'-0"
140
0.03125
141
12.0
290
     0
  0
SCALE
  5
5C
102
{ACAD_REACTORS
330
47
102
}
330
47
100
AcDbScale
 70
     0
300
1/16" = 1'-0"
140
0.0625
141
12.0
290
     0
  0
SCALE
  5
5D
102
{ACAD_REACTORS
330
47
102
}
330
47
100
AcDbScale
 70
     0
300
3/32" = 1'-0"
140
0.09375
141
12.0
290
     0
  0
SCALE
  5
5E
102
{ACAD_REACTORS
330
47
102
}
330
47
100
AcDbScale
 70
     0
300
1/8" = 1'-0"
140
0.125
141
12.0
290
     0
  0
SCALE
  5
5F
102
{ACAD_REACTORS
330
47
102
}
330
47
100
AcDbScale
 70
     0
300
3/16" = 1'-0"
140
0.1875
141
12.0
290
     0
  0
SCALE
  5
60
102
{ACAD_REACTORS
330
47
102
}
330
47
100
AcDbScale
 70
     0
300
1/4" = 1'-0"
140
0.25
141
12.0
290
     0
  0
SCALE
  5
61
102
{ACAD_REACTORS
330
47
102
}
330
47
100
AcDbScale
 70
     0
300
3/8" = 1'-0"
140
0.375
141
12.0
290
     0
  0
SCALE
  5
62
102
{ACAD_REACTORS
330
47
102
}
330
47
100
AcDbScale
 70
     0
300
1/2" = 1'-0"
140
0.5
141
12.0
290
     0
  0
SCALE
  5
63
102
{ACAD_REACTORS
330
47
102
}
330
47
100
AcDbScale
 70
     0
300
3/4" = 1'-0"
140
0.75
141
12.0
290
     0
  0
SCALE
  5
64
102
{ACAD_REACTORS
330
47
102
}
330
47
100
AcDbScale
 70
     0
300
1" = 1'-0"
140
1.0
141
12.0
290
     0
  0
SCALE
  5
65
102
{ACAD_REACTORS
330
47
102
}
330
47
100
AcDbScale
 70
     0
300
1-1/2" = 1'-0"
140
1.5
141
12.0
290
     0
  0
SCALE
  5
66
102
{ACAD_REACTORS
330
47
102
}
330
47
100
AcDbScale
 70
     0
300
3" = 1'-0"
140
3.0
141
12.0
290
     0
  0
SCALE
  5
67
102
{ACAD_REACTORS
330
47
102
}
330
47
100
AcDbScale
 70
     0
300
6" = 1'-0"
140
6.0
141
12.0
290
     0
  0
SCALE
  5
68
102
{ACAD_REACTORS
330
47
102
}
330
47
100
AcDbScale
 70
     0
300
1'-0" = 1'-0"
140
12.0
141
12.0
290
     0
  0
ENDSEC
  0
EOF
