  0
SECTION
  2
HEADER
  9
$ACADVER
  1
AC1015
  9
$ACADMAINTVER
 70
     6
  9
$DWGCODEPAGE
  3
ANSI_1252
  9
$INSBASE
 10
0.0
 20
0.0
 30
0.0
  9
$EXTMIN
 10
0.0
 20
0.0
 30
0.0
  9
$EXTMAX
 10
1189.0
 20
841.0
 30
0.0
  9
$LIMMIN
 10
0.0
 20
0.0
  9
$LIMMAX
 10
1189.0
 20
841.0
  9
$ORTHOMODE
 70
     0
  9
$REGENMODE
 70
     1
  9
$FILLMODE
 70
     1
  9
$QTEXTMODE
 70
     0
  9
$MIRRTEXT
 70
     1
  9
$LTSCALE
 40
1.0
  9
$ATTMODE
 70
     1
  9
$TEXTSIZE
 40
3.5
  9
$TRACEWID
 40
1.0
  9
$TEXTSTYLE
  7
Standard
  9
$CLAYER
  8
0
  9
$CELTYPE
  6
ByLayer
  9
$CECOLOR
 62
   256
  9
$CELTSCALE
 40
1.0
  9
$DISPSILH
 70
     0
  9
$DIMSCALE
 40
1.0
  9
$DIMASZ
 40
3.302
  9
$DIMEXO
 40
1.0
  9
$DIMDLI
 40
3.75
  9
$DIMRND
 40
0.0
  9
$DIMDLE
 40
0.0
  9
$DIMEXE
 40
1.0
  9
$DIMTP
 40
0.0
  9
$DIMTM
 40
0.0
  9
$DIMTXT
 40
3.5
  9
$DIMCEN
 40
2.5
  9
$DIMTSZ
 40
0.0
  9
$DIMTOL
 70
     0
  9
$DIMLIM
 70
     0
  9
$DIMTIH
 70
     1
  9
$DIMTOH
 70
     1
  9
$DIMSE1
 70
     0
  9
$DIMSE2
 70
     0
  9
$DIMTAD
 70
     1
  9
$DIMZIN
 70
     1
  9
$DIMBLK
  1

  9
$DIMASO
 70
     1
  9
$DIMSHO
 70
     1
  9
$DIMPOST
  1

  9
$DIMAPOST
  1

  9
$DIMALT
 70
     0
  9
$DIMALTD
 70
     3
  9
$DIMALTF
 40
0.0393700787
  9
$DIMLFAC
 40
2.0
  9
$DIMTOFL
 70
     1
  9
$DIMTVP
 40
0.0
  9
$DIMTIX
 70
     0
  9
$DIMSOXD
 70
     0
  9
$DIMSAH
 70
     0
  9
$DIMBLK1
  1

  9
$DIMBLK2
  1

  9
$DIMSTYLE
  2
ISO-25
  9
$DIMCLRD
 70
     0
  9
$DIMCLRE
 70
     0
  9
$DIMCLRT
 70
     0
  9
$DIMTFAC
 40
1.0
  9
$DIMGAP
 40
1.524
  9
$DIMJUST
 70
     0
  9
$DIMSD1
 70
     0
  9
$DIMSD2
 70
     0
  9
$DIMTOLJ
 70
     0
  9
$DIMTZIN
 70
     1
  9
$DIMALTZ
 70
     0
  9
$DIMALTTZ
 70
     0
  9
$DIMUPT
 70
     0
  9
$DIMDEC
 70
     2
  9
$DIMTDEC
 70
     2
  9
$DIMALTU
 70
     2
  9
$DIMALTTD
 70
     3
  9
$DIMTXSTY
  7
Standard
  9
$DIMAUNIT
 70
     0
  9
$DIMADEC
 70
     2
  9
$DIMALTRND
 40
0.0
  9
$DIMAZIN
 70
     0
  9
$DIMDSEP
 70
    44
  9
$DIMATFIT
 70
     3
  9
$DIMFRAC
 70
     0
  9
$DIMLDRBLK
  1

  9
$DIMLUNIT
 70
     2
  9
$DIMLWD
 70
    -2
  9
$DIMLWE
 70
    -2
  9
$DIMTMOVE
 70
     0
  9
$LUNITS
 70
     2
  9
$LUPREC
 70
     2
  9
$SKETCHINC
 40
1.0
  9
$FILLETRAD
 40
10.0
  9
$AUNITS
 70
     0
  9
$AUPREC
 70
     2
  9
$MENU
  1
.
  9
$ELEVATION
 40
0.0
  9
$PELEVATION
 40
0.0
  9
$THICKNESS
 40
0.0
  9
$LIMCHECK
 70
     0
  9
$CHAMFERA
 40
0.0
  9
$CHAMFERB
 40
0.0
  9
$CHAMFERC
 40
0.0
  9
$CHAMFERD
 40
0.0
  9
$SKPOLY
 70
     0
  9
$TDCREATE
 40
2460383.460451007
  9
$TDUCREATE
 40
2460383.23128434
  9
$TDUPDATE
 40
2460383.460451643
  9
$TDUUPDATE
 40
2460383.231284977
  9
$TDINDWG
 40
0.0000000116
  9
$TDUSRTIMER
 40
0.0000000116
  9
$USRTIMER
 70
     1
  9
$ANGBASE
 50
0.0
  9
$ANGDIR
 70
     0
  9
$PDMODE
 70
     0
  9
$PDSIZE
 40
-1.0
  9
$PLINEWID
 40
0.0
  9
$SPLFRAME
 70
     0
  9
$SPLINETYPE
 70
     6
  9
$SPLINESEGS
 70
     8
  9
$HANDSEED
  5
2D8
  9
$SURFTAB1
 70
     6
  9
$SURFTAB2
 70
     6
  9
$SURFTYPE
 70
     6
  9
$SURFU
 70
     6
  9
$SURFV
 70
     6
  9
$UCSBASE
  2

  9
$UCSNAME
  2

  9
$UCSORG
 10
0.0
 20
0.0
 30
0.0
  9
$UCSXDIR
 10
1.0
 20
0.0
 30
0.0
  9
$UCSYDIR
 10
0.0
 20
1.0
 30
0.0
  9
$UCSORTHOREF
  2

  9
$UCSORTHOVIEW
 70
     0
  9
$UCSORGTOP
 10
0.0
 20
0.0
 30
0.0
  9
$UCSORGBOTTOM
 10
0.0
 20
0.0
 30
0.0
  9
$UCSORGLEFT
 10
0.0
 20
0.0
 30
0.0
  9
$UCSORGRIGHT
 10
0.0
 20
0.0
 30
0.0
  9
$UCSORGFRONT
 10
0.0
 20
0.0
 30
0.0
  9
$UCSORGBACK
 10
0.0
 20
0.0
 30
0.0
  9
$PUCSBASE
  2

  9
$PUCSNAME
  2

  9
$PUCSORG
 10
0.0
 20
0.0
 30
0.0
  9
$PUCSXDIR
 10
1.0
 20
0.0
 30
0.0
  9
$PUCSYDIR
 10
0.0
 20
1.0
 30
0.0
  9
$PUCSORTHOREF
  2

  9
$PUCSORTHOVIEW
 70
     0
  9
$PUCSORGTOP
 10
0.0
 20
0.0
 30
0.0
  9
$PUCSORGBOTTOM
 10
0.0
 20
0.0
 30
0.0
  9
$PUCSORGLEFT
 10
0.0
 20
0.0
 30
0.0
  9
$PUCSORGRIGHT
 10
0.0
 20
0.0
 30
0.0
  9
$PUCSORGFRONT
 10
0.0
 20
0.0
 30
0.0
  9
$PUCSORGBACK
 10
0.0
 20
0.0
 30
0.0
  9
$USERI1
 70
     0
  9
$USERI2
 70
     0
  9
$USERI3
 70
     0
  9
$USERI4
 70
     0
  9
$USERI5
 70
     0
  9
$USERR1
 40
0.0
  9
$USERR2
 40
0.0
  9
$USERR3
 40
0.0
  9
$USERR4
 40
0.0
  9
$USERR5
 40
0.0
  9
$WORLDVIEW
 70
     1
  9
$SHADEDGE
 70
     3
  9
$SHADEDIF
 70
    70
  9
$TILEMODE
 70
     1
  9
$MAXACTVP
 70
    64
  9
$PINSBASE
 10
0.0
 20
0.0
 30
0.0
  9
$PLIMCHECK
 70
     0
  9
$PEXTMIN
 10
1.0000000000E+20
 20
1.0000000000E+20
 30
1.0000000000E+20
  9
$PEXTMAX
 10
-1.0000000000E+20
 20
-1.0000000000E+20
 30
-1.0000000000E+20
  9
$PLIMMIN
 10
0.0
 20
0.0
  9
$PLIMMAX
 10
420.0
 20
297.0
  9
$UNITMODE
 70
     0
  9
$VISRETAIN
 70
     1
  9
$PLINEGEN
 70
     0
  9
$PSLTSCALE
 70
     1
  9
$TREEDEPTH
 70
  3020
  9
$CMLSTYLE
  2
Standard
  9
$CMLJUST
 70
     0
  9
$CMLSCALE
 40
20.0
  9
$PROXYGRAPHICS
 70
     1
  9
$MEASUREMENT
 70
     1
  9
$CELWEIGHT
370
    -1
  9
$ENDCAPS
280
     0
  9
$JOINSTYLE
280
     0
  9
$LWDISPLAY
290
     1
  9
$INSUNITS
 70
     4
  9
$HYPERLINKBASE
  1

  9
$STYLESHEET
  1

  9
$XEDIT
290
     1
  9
$CEPSNTYPE
380
     0
  9
$PSTYLEMODE
290
     1
  9
$FINGERPRINTGUID
  2
{bb9e0291-3f77-4179-aa01-6da66e3c4bb9}
  9
$VERSIONGUID
  2
{FAEB1C32-E019-11D5-929B-00C0DF256EC4}
  9
$EXTNAMES
290
     1
  9
$PSVPSCALE
 40
0.0
  9
$OLESTARTUP
290
     0
  0
ENDSEC
  0
SECTION
  2
CLASSES
  0
CLASS
  1
ACDBDICTIONARYWDFLT
  2
AcDbDictionaryWithDefault
  3
ObjectDBX Classes
 90
        0
280
     0
281
     0
  0
CLASS
  1
VISUALSTYLE
  2
AcDbVisualStyle
  3
ObjectDBX Classes
 90
     4095
280
     0
281
     0
  0
CLASS
  1
MATERIAL
  2
AcDbMaterial
  3
ObjectDBX Classes
 90
     1153
280
     0
281
     0
  0
CLASS
  1
SCALE
  2
AcDbScale
  3
ObjectDBX Classes
 90
     1153
280
     0
281
     0
  0
CLASS
  1
TABLESTYLE
  2
AcDbTableStyle
  3
ObjectDBX Classes
 90
     4095
280
     0
281
     0
  0
CLASS
  1
MLEADERSTYLE
  2
AcDbMLeaderStyle
  3
ACDB_MLEADERSTYLE_CLASS
 90
     4095
280
     0
281
     0
  0
CLASS
  1
SUN
  2
AcDbSun
  3
SCENEOE
 90
     1153
280
     0
281
     0
  0
CLASS
  1
ACDBPLACEHOLDER
  2
AcDbPlaceHolder
  3
ObjectDBX Classes
 90
        0
280
     0
281
     0
  0
CLASS
  1
LAYOUT
  2
AcDbLayout
  3
ObjectDBX Classes
 90
        0
280
     0
281
     0
  0
ENDSEC
  0
SECTION
  2
TABLES
  0
TABLE
  2
VPORT
  5
8
330
0
100
AcDbSymbolTable
 70
     1
  0
VPORT
  5
29
330
8
100
AcDbSymbolTableRecord
100
AcDbViewportTableRecord
  2
*Active
 70
     0
 10
0.0
 20
0.0
 11
1.0
 21
1.0
 12
594.5
 22
420.5
 13
0.0
 23
0.0
 14
10.0
 24
10.0
 15
10.0
 25
10.0
 16
0.0
 26
0.0
 36
1.0
 17
0.0
 27
0.0
 37
0.0
 40
841.0
 41
1.4137931034
 42
50.0
 43
0.0
 44
0.0
 50
0.0
 51
0.0
 71
     0
 72
  2000
 73
     1
 74
     3
 75
     0
 76
     0
 77
     0
 78
     0
281
     0
 65
     1
110
0.0
120
0.0
130
0.0
111
1.0
121
0.0
131
0.0
112
0.0
122
1.0
132
0.0
 79
     0
146
0.0
  0
ENDTAB
  0
TABLE
  2
LTYPE
  5
5
330
0
100
AcDbSymbolTable
 70
     6
  0
LTYPE
  5
14
330
5
100
AcDbSymbolTableRecord
100
AcDbLinetypeTableRecord
  2
ByBlock
 70
     0
  3

 72
    65
 73
     0
 40
0.0
  0
LTYPE
  5
15
330
5
100
AcDbSymbolTableRecord
100
AcDbLinetypeTableRecord
  2
ByLayer
 70
     0
  3

 72
    65
 73
     0
 40
0.0
  0
LTYPE
  5
16
330
5
100
AcDbSymbolTableRecord
100
AcDbLinetypeTableRecord
  2
Continuous
 70
     0
  3
Solid line
 72
    65
 73
     0
 40
0.0
  0
LTYPE
  5
6E
330
5
100
AcDbSymbolTableRecord
100
AcDbLinetypeTableRecord
  2
HIDDEN
 70
     0
  3
Hidden __ __ __ __ __ __ __ __ __ __ __ __ __ __
 72
    65
 73
     2
 40
1.905
 49
1.27
 74
     0
 49
-0.635
 74
     0
  0
LTYPE
  5
6F
330
5
100
AcDbSymbolTableRecord
100
AcDbLinetypeTableRecord
  2
PHANTOM
 70
     0
  3
Phantom ______  __  __  ______  __  __  ______
 72
    65
 73
     6
 40
12.7
 49
6.35
 74
     0
 49
-1.27
 74
     0
 49
1.27
 74
     0
 49
-1.27
 74
     0
 49
1.27
 74
     0
 49
-1.27
 74
     0
  0
LTYPE
  5
70
330
5
100
AcDbSymbolTableRecord
100
AcDbLinetypeTableRecord
  2
CENTER
 70
     0
  3
Center ____ _ ____ _ ____ _ ____ _ ____ _ ____
 72
    65
 73
     4
 40
10.16
 49
6.35
 74
     0
 49
-1.27
 74
     0
 49
1.27
 74
     0
 49
-1.27
 74
     0
  0
LTYPE
  5
71
330
5
100
AcDbSymbolTableRecord
100
AcDbLinetypeTableRecord
  2
CENTERX2
 70
     0
  3
Center (2x) ________  __  ________  __  _____
 72
    65
 73
     4
 40
20.32
 49
12.7
 74
     0
 49
-2.54
 74
     0
 49
2.54
 74
     0
 49
-2.54
 74
     0
  0
LTYPE
  5
72
330
5
100
AcDbSymbolTableRecord
100
AcDbLinetypeTableRecord
  2
DOT2
 70
     0
  3
Dot (.5x) ........................................
 72
    65
 73
     2
 40
0.635
 49
0.0
 74
     0
 49
-0.635
 74
     0
  0
ENDTAB
  0
TABLE
  2
LAYER
  5
2
330
0
100
AcDbSymbolTable
 70
     1
  0
LAYER
  5
10
330
2
100
AcDbSymbolTableRecord
100
AcDbLayerTableRecord
  2
0
 70
     0
 62
     7
  6
Continuous
370
    -3
390
F
  0
ENDTAB
  0
TABLE
  2
STYLE
  5
3
330
0
100
AcDbSymbolTable
 70
     1
  0
STYLE
  5
11
330
3
100
AcDbSymbolTableRecord
100
AcDbTextStyleTableRecord
  2
Standard
 70
     0
 40
0.0
 41
1.0
 50
0.0
 71
     0
 42
3.5
  3
txt
  4

  0
ENDTAB
  0
TABLE
  2
VIEW
  5
6
330
0
100
AcDbSymbolTable
 70
     0
  0
ENDTAB
  0
TABLE
  2
UCS
  5
7
330
0
100
AcDbSymbolTable
 70
     0
  0
ENDTAB
  0
TABLE
  2
APPID
  5
9
330
0
100
AcDbSymbolTable
 70
     1
  0
APPID
  5
12
330
9
100
AcDbSymbolTableRecord
100
AcDbRegAppTableRecord
  2
ACAD
 70
     0
  0
ENDTAB
  0
TABLE
  2
DIMSTYLE
  5
A
330
0
100
AcDbSymbolTable
 70
     1
100
AcDbDimStyleTable
  0
DIMSTYLE
105
27
330
A
100
AcDbSymbolTableRecord
100
AcDbDimStyleTableRecord
  2
ISO-25
 70
     0
 41
2.5
 42
0.625
 43
3.75
 44
1.25
 73
     0
 74
     0
 77
     1
 78
     8
140
2.5
141
2.5
143
0.0393700787
147
0.625
171
     3
172
     1
178
     0
271
     2
272
     2
274
     3
278
    44
283
     0
284
     8
340
11
  0
ENDTAB
  0
TABLE
  2
BLOCK_RECORD
  5
1
330
0
100
AcDbSymbolTable
 70
     1
  0
BLOCK_RECORD
  5
1F
330
1
100
AcDbSymbolTableRecord
100
AcDbBlockTableRecord
  2
*Model_Space
340
22
  0
BLOCK_RECORD
  5
1B
330
1
100
AcDbSymbolTableRecord
100
AcDbBlockTableRecord
  2
*Paper_Space
340
1E
  0
BLOCK_RECORD
  5
23
330
1
100
AcDbSymbolTableRecord
100
AcDbBlockTableRecord
  2
*Paper_Space0
340
26
  0
ENDTAB
  0
ENDSEC
  0
SECTION
  2
BLOCKS
  0
BLOCK
  5
20
330
1F
100
AcDbEntity
  8
0
100
AcDbBlockBegin
  2
*Model_Space
 70
     0
 10
0.0
 20
0.0
 30
0.0
  3
*Model_Space
  1

  0
ENDBLK
  5
21
330
1F
100
AcDbEntity
  8
0
100
AcDbBlockEnd
  0
BLOCK
  5
1C
330
1B
100
AcDbEntity
 67
     1
  8
0
100
AcDbBlockBegin
  2
*Paper_Space
 70
     0
 10
0.0
 20
0.0
 30
0.0
  3
*Paper_Space
  1

  0
ENDBLK
  5
1D
330
1B
100
AcDbEntity
 67
     1
  8
0
100
AcDbBlockEnd
  0
BLOCK
  5
24
330
23
100
AcDbEntity
  8
0
100
AcDbBlockBegin
  2
*Paper_Space0
 70
     0
 10
0.0
 20
0.0
 30
0.0
  3
*Paper_Space0
  1

  0
ENDBLK
  5
25
330
23
100
AcDbEntity
  8
0
100
AcDbBlockEnd
  0
ENDSEC
  0
SECTION
  2
ENTITIES
  0
SPLINE
  5
73
330
1F
100
AcDbEntity
  8
0
  6
Continuous
 62
     7
370
    25
100
AcDbSpline
210
0.0
220
0.0
230
1.0
 70
     8
 71
     3
 72
    14
 73
    10
 74
     0
 42
0.00000001
 43
0.00000001
 40
0.0
 40
0.0
 40
0.0
 40
0.0
 40
0.0448253250034099
 40
0.1133358803014566
 40
0.2277760918181505
 40
0.4388104702659604
 40
0.6547102108778067
 40
0.9115892327977393
 40
1.0
 40
1.0
 40
1.0
 40
1.0
 10
528.9934483743888
 20
510.8727391272294
 30
0.0
 10
529.0308268992824
 20
510.9003823660177
 30
0.0
 10
529.1253343685057
 20
510.9702752402404
 30
0.0
 10
529.4363958184832
 20
511.1845174169505
 30
0.0
 10
530.016465448283
 20
511.534270541641
 30
0.0
 10
530.8754285608968
 20
511.9376554409334
 30
0.0
 10
532.0175849024466
 20
512.279276249931
 30
0.0
 10
532.9910015274073
 20
512.4463442178737
 30
0.0
 10
533.59304024721
 20
512.4284702057597
 30
0.0
 10
533.7471910700261
 20
512.4238936003292
 30
0.0
  0
SPLINE
  5
74
330
1F
100
AcDbEntity
  8
0
  6
Continuous
 62
     7
370
    25
100
AcDbSpline
210
0.0
220
0.0
230
1.0
 70
     8
 71
     3
 72
    18
 73
    14
 74
     0
 42
0.00000001
 43
0.00000001
 40
0.0
 40
0.0
 40
0.0
 40
0.0
 40
0.0135679078290358
 40
0.202984797586274
 40
0.3779841907025412
 40
0.5365537371425639
 40
0.6758454650363288
 40
0.7915833423584531
 40
0.8750772778473785
 40
0.9261619569398597
 40
0.9577647990466402
 40
0.9913020880706226
 40
1.0
 40
1.0
 40
1.0
 40
1.0
 10
533.7911381432801
 20
536.444157960717
 30
0.0
 10
533.766967272533
 20
536.4424881049663
 30
0.0
 10
533.4053551973385
 20
536.4175059680149
 30
0.0
 10
532.7288635262905
 20
536.4923312564678
 30
0.0
 10
531.8100185101586
 20
536.6569149353263
 30
0.0
 10
531.00197995896
 20
536.9094230487025
 30
0.0
 10
530.3209853094402
 20
537.1967224296372
 30
0.0
 10
529.7868396065793
 20
537.4784967308018
 30
0.0
 10
529.4089159773989
 20
537.7111667036014
 30
0.0
 10
529.1802676370435
 20
537.8666386326242
 30
0.0
 10
529.0710902078146
 20
537.9444455960866
 30
0.0
 10
529.0217475614925
 20
537.9804395507865
 30
0.0
 10
529.0078015084346
 20
537.9908438208859
 30
0.0
 10
529.0049294600361
 20
537.9929864749508
 30
0.0
  0
SPLINE
  5
75
330
1F
100
AcDbEntity
  8
0
  6
Continuous
 62
     7
370
    25
100
AcDbSpline
210
0.0
220
0.0
230
1.0
 70
     8
 71
     3
 72
    16
 73
    12
 74
     0
 42
0.00000001
 43
0.00000001
 40
0.0
 40
0.0
 40
0.0
 40
0.0
 40
0.1385479469806598
 40
0.3261436952527592
 40
0.4981308198300837
 40
0.6519741483644008
 40
0.7835288344445287
 40
0.884015364777018
 40
0.9498463228306531
 40
0.9944085225522301
 40
0.9999999999999999
 40
0.9999999999999999
 40
0.9999999999999999
 40
0.9999999999999999
 10
704.9735154395041
 20
512.4284598099731
 30
0.0
 10
705.2153974583547
 20
512.4279700454298
 30
0.0
 10
705.7847909222226
 20
512.4268171332327
 30
0.0
 10
706.6453517215019
 20
512.2819234107553
 30
0.0
 10
707.5097243073525
 20
512.0457461142028
 30
0.0
 10
708.2525320117649
 20
511.7508439671897
 30
0.0
 10
708.8505104232697
 20
511.4472756603556
 30
0.0
 10
709.2927703680834
 20
511.1782871800846
 30
0.0
 10
709.570339585234
 20
510.988380056747
 30
0.0
 10
709.6940688915396
 20
510.8983354780798
 30
0.0
 10
709.7246194282632
 20
510.8753403884492
 30
0.0
 10
709.7280254125649
 20
510.8727767374401
 30
0.0
  0
SPLINE
  5
76
330
1F
100
AcDbEntity
  8
0
  6
Continuous
 62
     7
370
    25
100
AcDbSpline
210
0.0
220
0.0
230
1.0
 70
     8
 71
     3
 72
    15
 73
    11
 74
     0
 42
0.00000001
 43
0.00000001
 40
0.0
 40
0.0
 40
0.0
 40
0.0
 40
0.0269386374644705
 40
0.0657044370611607
 40
0.1074800872866615
 40
0.2177220808354522
 40
0.4625752118900859
 40
0.6461123354518177
 40
0.9012406844525953
 40
1.0
 40
1.0
 40
1.0
 40
1.0
 10
709.7152751947917
 20
537.9922474354697
 30
0.0
 10
709.706154355893
 20
537.9854388415952
 30
0.0
 10
709.6839082572861
 20
537.9688324030444
 30
0.0
 10
709.5954001457995
 20
537.9048569220902
 30
0.0
 10
709.3596512143195
 20
537.7412934389971
 30
0.0
 10
708.7475047257539
 20
537.3588621581148
 30
0.0
 10
707.8822880249357
 20
536.9537584506141
 30
0.0
 10
706.7124049743894
 20
536.6046080119083
 30
0.0
 10
705.7606018742446
 20
536.4365100990299
 30
0.0
 10
705.1296580224439
 20
536.4557899834037
 30
0.0
 10
704.953580726751
 20
536.4611704144709
 30
0.0
  0
LINE
  5
77
330
1F
100
AcDbEntity
  8
0
  6
Continuous
 62
     7
370
    25
100
AcDbLine
 10
608.7776969192
 20
536.4395604719
 30
0.0
 11
533.792289959
 21
536.4395604719
 31
0.0
  0
LINE
  5
78
330
1F
100
AcDbEntity
  8
0
  6
Continuous
 62
     7
370
    25
100
AcDbLine
 10
704.9518522135
 20
536.4395604719
 30
0.0
 11
627.7069991891
 21
536.4395604719
 31
0.0
  0
LINE
  5
79
330
1F
100
AcDbEntity
  8
0
  6
Continuous
 62
     7
370
    25
100
AcDbLine
 10
629.9437074077
 20
512.4395604719
 30
0.0
 11
704.9807146791
 21
512.4395604719
 31
0.0
  0
LINE
  5
7A
330
1F
100
AcDbEntity
  8
0
  6
Continuous
 62
     7
370
    25
100
AcDbLine
 10
533.7406896478
 20
512.4395604719
 30
0.0
 11
611.0144051377
 21
512.4395604719
 31
0.0
  0
LINE
  5
7B
330
1F
100
AcDbEntity
  8
0
  6
Continuous
 62
     7
370
    25
100
AcDbLine
 10
611.4607021634
 20
419.3665723835
 30
0.0
 11
611.4607021634
 21
372.0395604719
 31
0.0
  0
LINE
  5
7C
330
1F
100
AcDbEntity
  8
0
  6
Continuous
 62
     7
370
    25
100
AcDbLine
 10
627.2607021634
 20
372.0395604719
 30
0.0
 11
627.2607021634
 21
419.3665723835
 31
0.0
  0
LINE
  5
7D
330
1F
100
AcDbEntity
  8
0
  6
Continuous
 62
     7
370
    25
100
AcDbLine
 10
627.2607021634
 20
419.3665723835
 30
0.0
 11
627.2607021634
 21
501.7665723835
 31
0.0
  0
LINE
  5
7E
330
1F
100
AcDbEntity
  8
0
  6
Continuous
 62
     7
370
    25
100
AcDbLine
 10
611.4607021634
 20
501.7665723835
 30
0.0
 11
611.4607021634
 21
419.3665723835
 31
0.0
  0
LINE
  5
7F
330
1F
100
AcDbEntity
  8
0
  6
Continuous
 62
     7
370
    25
100
AcDbLine
 10
611.4607021634
 20
524.4395604719
 30
0.0
 11
611.4607021634
 21
501.7665723835
 31
0.0
  0
LINE
  5
80
330
1F
100
AcDbEntity
  8
0
  6
Continuous
 62
     7
370
    25
100
AcDbLine
 10
627.2607021634
 20
501.7665723835
 30
0.0
 11
627.2607021634
 21
524.4395604719
 31
0.0
  0
SPLINE
  5
81
330
1F
100
AcDbEntity
  8
0
  6
Continuous
 62
     7
370
    25
100
AcDbSpline
210
0.0
220
0.0
230
1.0
 70
     8
 71
     3
 72
    17
 73
    13
 74
     0
 42
0.00000001
 43
0.00000001
 40
0.0
 40
0.0
 40
0.0
 40
0.0
 40
0.1647992595819616
 40
0.4615602239409393
 40
0.5842234827483656
 40
0.6275279594246342
 40
0.6629036727986047
 40
0.7152335449629927
 40
0.7805128173616354
 40
0.86313367774382
 40
0.9535848186765016
 40
1.0
 40
1.0
 40
1.0
 40
1.0
 10
461.3431604447584
 20
527.7462975222121
 30
0.0
 10
461.2638761576193
 20
527.7406479400986
 30
0.0
 10
461.0418213169617
 20
527.7248249176403
 30
0.0
 10
460.8600227453637
 20
527.7080515774973
 30
0.0
 10
460.7761053446684
 20
527.6979917598335
 30
0.0
 10
460.7160528573352
 20
527.6862568842898
 30
0.0
 10
460.652382367998
 20
527.6679207804568
 30
0.0
 10
460.5640602749382
 20
527.6274607421504
 30
0.0
 10
460.4606456391475
 20
527.5475745308223
 30
0.0
 10
460.3706974976521
 20
527.4199299542308
 30
0.0
 10
460.3216354198686
 20
527.2794676711814
 30
0.0
 10
460.3329578046299
 20
527.1905400145425
 30
0.0
 10
460.3367975406077
 20
527.1603821697234
 30
0.0
  0
SPLINE
  5
82
330
1F
100
AcDbEntity
  8
0
  6
Continuous
 62
     7
370
    25
100
AcDbSpline
210
0.0
220
0.0
230
1.0
 70
     8
 71
     3
 72
    17
 73
    13
 74
     0
 42
0.00000001
 43
0.00000001
 40
0.0
 40
0.0
 40
0.0
 40
0.0
 40
0.0759179192604756
 40
0.1944731514035723
 40
0.2934352796589234
 40
0.377343494988272
 40
0.4455643067646699
 40
0.4954729082011099
 40
0.5405197705076346
 40
0.6063785860488163
 40
0.7647760586888395
 40
1.0
 40
1.0
 40
1.0
 40
1.0
 10
460.3399074366113
 20
521.6222559243006
 30
0.0
 10
460.3419546290145
 20
521.5905030954256
 30
0.0
 10
460.3471987658673
 20
521.5091642921832
 30
0.0
 10
460.408889902735
 20
521.3993157193042
 30
0.0
 10
460.4916555340711
 20
521.3052944032066
 30
0.0
 10
460.5769771088898
 20
521.2456872100507
 30
0.0
 10
460.650553033004
 20
521.2123792423237
 30
0.0
 10
460.7026528368409
 20
521.1964999995806
 30
0.0
 10
460.7395346302105
 20
521.1880866892436
 30
0.0
 10
460.7827887033604
 20
521.1806322640599
 30
0.0
 10
460.8342997889168
 20
521.1736759764128
 30
0.0
 10
460.9247775935647
 20
521.1662061775799
 30
0.0
 10
460.9788461606094
 20
521.1617423057984
 30
0.0
  0
LINE
  5
83
330
1F
100
AcDbEntity
  8
0
  6
Continuous
 62
     7
370
    25
100
AcDbLine
 10
461.3431604448
 20
521.1328234215
 30
0.0
 11
464.8264811356
 21
520.8906558931
 31
0.0
  0
LINE
  5
84
330
1F
100
AcDbEntity
  8
0
  6
Continuous
 62
     7
370
    25
100
AcDbLine
 10
464.8264811356
 20
527.9884650506
 30
0.0
 11
461.3431604448
 21
527.7462975222
 31
0.0
  0
ARC
  5
85
330
1F
100
AcDbEntity
  8
0
  6
Continuous
 62
     7
370
    25
100
AcDbCircle
 10
517.7607021634
 20
524.4395604719
 30
0.0
 40
9.141196303513993
100
AcDbArc
 50
295.4997205711
 51
0.0
  0
ARC
  5
86
330
1F
100
AcDbEntity
  8
0
  6
Continuous
 62
     7
370
    25
100
AcDbCircle
 10
517.7607021634
 20
524.4395604719
 30
0.0
 40
9.141196303513993
100
AcDbArc
 50
0.0
 51
64.4833252895
  0
SPLINE
  5
87
330
1F
100
AcDbEntity
  8
0
  6
Continuous
 62
     7
370
    25
100
AcDbSpline
210
0.0
220
0.0
230
1.0
 70
     8
 71
     3
 72
    17
 73
    13
 74
     0
 42
0.00000001
 43
0.00000001
 40
0.0
 40
0.0
 40
0.0
 40
0.0
 40
0.1647992595819616
 40
0.4615602239409455
 40
0.5842234827483653
 40
0.6275279594246339
 40
0.6629036727986045
 40
0.7152335449629925
 40
0.780512817361635
 40
0.8631336777438207
 40
0.9535848186765019
 40
1.0
 40
1.0
 40
1.0
 40
1.0
 10
777.3782438821048
 20
521.3782447103491
 30
0.0
 10
777.457528169244
 20
521.3838942924625
 30
0.0
 10
777.6795830099015
 20
521.399717314921
 30
0.0
 10
777.8613815814997
 20
521.416490655064
 30
0.0
 10
777.9452989821949
 20
521.4265504727277
 30
0.0
 10
778.0053514695281
 20
521.4382853482713
 30
0.0
 10
778.0690219588654
 20
521.4566214521044
 30
0.0
 10
778.157344051925
 20
521.4970814904108
 30
0.0
 10
778.2607586877159
 20
521.5769677017388
 30
0.0
 10
778.3507068292112
 20
521.7046122783304
 30
0.0
 10
778.3997689069947
 20
521.8450745613799
 30
0.0
 10
778.3884465222334
 20
521.9340022180187
 30
0.0
 10
778.3846067862555
 20
521.9641600628378
 30
0.0
  0
SPLINE
  5
88
330
1F
100
AcDbEntity
  8
0
  6
Continuous
 62
     7
370
    25
100
AcDbSpline
210
0.0
220
0.0
230
1.0
 70
     8
 71
     3
 72
    17
 73
    13
 74
     0
 42
0.00000001
 43
0.00000001
 40
0.0
 40
0.0
 40
0.0
 40
0.0
 40
0.0759179192604767
 40
0.1944731514035741
 40
0.2934352796589267
 40
0.3773434949882759
 40
0.4455643067646744
 40
0.4954729082011149
 40
0.54051977050764
 40
0.6063785860488223
 40
0.764776058688847
 40
0.9999999999999999
 40
0.9999999999999999
 40
0.9999999999999999
 40
0.9999999999999999
 10
778.3814968902519
 20
527.5022863082606
 30
0.0
 10
778.3794496978488
 20
527.5340391371357
 30
0.0
 10
778.374205560996
 20
527.615377940378
 30
0.0
 10
778.3125144241283
 20
527.725226513257
 30
0.0
 10
778.2297487927922
 20
527.8192478293546
 30
0.0
 10
778.1444272179735
 20
527.8788550225105
 30
0.0
 10
778.0708512938593
 20
527.9121629902376
 30
0.0
 10
778.0187514900224
 20
527.9280422329806
 30
0.0
 10
777.9818696966529
 20
527.9364555433176
 30
0.0
 10
777.9386156235029
 20
527.9439099685014
 30
0.0
 10
777.8871045379465
 20
527.9508662561484
 30
0.0
 10
777.7966267332986
 20
527.9583360549815
 30
0.0
 10
777.7425581662538
 20
527.9627999267628
 30
0.0
  0
LINE
  5
89
330
1F
100
AcDbEntity
  8
0
  6
Continuous
 62
     7
370
    25
100
AcDbLine
 10
777.3782438821
 20
527.991718811
 30
0.0
 11
773.8949231912
 21
528.2338863394
 31
0.0
  0
LINE
  5
8A
330
1F
100
AcDbEntity
  8
0
  6
Continuous
 62
     7
370
    25
100
AcDbLine
 10
773.8949231912
 20
521.136077182
 30
0.0
 11
777.3782438821
 21
521.3782447103
 31
0.0
  0
ARC
  5
8B
330
1F
100
AcDbEntity
  8
0
  6
Continuous
 62
     7
370
    25
100
AcDbCircle
 10
729.0697173687
 20
521.7130872849
 30
0.0
 40
8.999995138923122
100
AcDbArc
 50
257.1419190681
 51
270.0
  0
ARC
  5
8C
330
1F
100
AcDbEntity
  8
0
  6
Continuous
 62
     7
370
    25
100
AcDbCircle
 10
729.0697173687
 20
521.7130872849
 30
0.0
 40
8.999995138923055
100
AcDbArc
 50
270.0
 51
305.1719294169
  0
SPLINE
  5
8D
330
1F
100
AcDbEntity
  8
0
  6
Continuous
 62
     7
370
    25
100
AcDbSpline
210
0.0
220
0.0
230
1.0
 70
     8
 71
     3
 72
    22
 73
    18
 74
     0
 42
0.00000001
 43
0.00000001
 40
0.0
 40
0.0
 40
0.0
 40
0.0
 40
0.0572864194646092
 40
0.1229381135129736
 40
0.1889690539883536
 40
0.2549999944638645
 40
0.3212149049680316
 40
0.387433337705234
 40
0.4538274481666407
 40
0.5202215586272289
 40
0.5870010590344668
 40
0.6537806686213689
 40
0.7205436780598871
 40
0.7873066874969191
 40
0.854645852371198
 40
0.9219850172464725
 40
1.0
 40
1.0
 40
1.0
 40
1.0
 10
611.4607021634316
 20
515.0503225439198
 30
0.0
 10
611.008342074621
 20
515.4466260721496
 30
0.0
 10
610.0375658161872
 20
516.2971035255224
 30
0.0
 10
608.8455549063077
 20
517.8964055108452
 30
0.0
 10
607.8759222874764
 20
519.7347193568991
 30
0.0
 10
607.2257980162531
 20
521.719005765631
 30
0.0
 10
606.9230587089162
 20
523.7856944149831
 30
0.0
 10
606.9640057490063
 20
525.8781769451897
 30
0.0
 10
607.3605003538863
 20
527.934935295153
 30
0.0
 10
608.090098136549
 20
529.9047286952615
 30
0.0
 10
609.1475219482172
 20
531.72456018061
 30
0.0
 10
610.4925828560924
 20
533.3485803261875
 30
0.0
 10
612.0946655092978
 20
534.7186727963044
 30
0.0
 10
613.9037031513803
 20
535.8143674712776
 30
0.0
 10
615.8783284759642
 20
536.5806123040657
 30
0.0
 10
618.070641895463
 20
537.0632693881752
 30
0.0
 10
619.5982698257267
 20
537.0352391854491
 30
0.0
 10
620.418183592052
 20
537.0201947177271
 30
0.0
  0
LINE
  5
8E
330
1F
100
AcDbEntity
  8
0
  6
Continuous
 62
     7
370
    25
100
AcDbLine
 10
630.1342627052
 20
519.3981152994
 30
0.0
 11
629.4373589712
 21
518.1961640702
 31
0.0
  0
SPLINE
  5
8F
330
1F
100
AcDbEntity
  8
0
  6
Continuous
 62
     7
370
    25
100
AcDbSpline
210
0.0
220
0.0
230
1.0
 70
     8
 71
     3
 72
    10
 73
     6
 74
     0
 42
0.00000001
 43
0.00000001
 40
0.0
 40
0.0
 40
0.0
 40
0.0
 40
0.1614861643795523
 40
0.5801934759773504
 40
1.0
 40
1.0
 40
1.0
 40
1.0
 10
627.2607021634317
 20
515.387765151325
 30
0.0
 10
627.4634122224344
 20
515.5628171637399
 30
0.0
 10
628.1917164347503
 20
516.1917505212821
 30
0.0
 10
629.2070980851464
 20
517.5291608021112
 30
0.0
 10
629.8249378553289
 20
518.7745862552899
 30
0.0
 10
630.1342627052062
 20
519.3981152994367
 30
0.0
  0
ARC
  5
90
330
1F
100
AcDbEntity
  8
0
  6
Continuous
 62
     7
370
    25
100
AcDbCircle
 10
517.7607021634
 20
524.4395604719
 30
0.0
 40
17.60000000000023
100
AcDbArc
 50
7.8901172072
 51
27.9531868834
  0
ARC
  5
91
330
1F
100
AcDbEntity
  8
0
  6
Continuous
 62
     7
370
    25
100
AcDbCircle
 10
517.7607021634
 20
524.4395604719
 30
0.0
 40
17.60000000000019
100
AcDbArc
 50
332.0468131166
 51
352.3827966281
  0
ARC
  5
92
330
1F
100
AcDbEntity
  8
0
  6
Continuous
 62
     7
370
    25
100
AcDbCircle
 10
517.7607021634
 20
524.4395604719
 30
0.0
 40
17.60000000000019
100
AcDbArc
 50
307.8609831499
 51
332.0468131166
  0
ARC
  5
93
330
1F
100
AcDbEntity
  8
0
  6
Continuous
 62
     7
370
    25
100
AcDbCircle
 10
517.7607021634
 20
524.4395604719
 30
0.0
 40
17.6000000000001
100
AcDbArc
 50
247.5081924143
 51
292.6483586619
  0
ARC
  5
94
330
1F
100
AcDbEntity
  8
0
  6
Continuous
 62
     7
370
    25
100
AcDbCircle
 10
517.7607021634
 20
524.4395604719
 30
0.0
 40
17.6000000000002
100
AcDbArc
 50
211.5427743269
 51
232.9408333345
  0
ARC
  5
95
330
1F
100
AcDbEntity
  8
0
  6
Continuous
 62
     7
370
    25
100
AcDbCircle
 10
517.7607021634
 20
524.4395604719
 30
0.0
 40
17.60000000000009
100
AcDbArc
 50
126.4566771873
 51
148.4572256731
  0
ARC
  5
96
330
1F
100
AcDbEntity
  8
0
  6
Continuous
 62
     7
370
    25
100
AcDbCircle
 10
517.7607021634
 20
524.4395604719
 30
0.0
 40
17.6000000000001
100
AcDbArc
 50
67.1263602263
 51
113.7119435249
  0
ARC
  5
97
330
1F
100
AcDbEntity
  8
0
  6
Continuous
 62
     7
370
    25
100
AcDbCircle
 10
517.7607021634
 20
524.4395604719
 30
0.0
 40
17.60000000000018
100
AcDbArc
 50
27.9531868834
 51
53.8420316611
  0
ARC
  5
98
330
1F
100
AcDbEntity
  8
0
  6
Continuous
 62
     7
370
    25
100
AcDbCircle
 10
720.9607021634
 20
524.4395604719
 30
0.0
 40
17.60000000000015
100
AcDbArc
 50
152.0468131166
 51
172.4437162544
  0
ARC
  5
99
330
1F
100
AcDbEntity
  8
0
  6
Continuous
 62
     7
370
    25
100
AcDbCircle
 10
720.9607021634
 20
524.4395604719
 30
0.0
 40
17.60000000000009
100
AcDbArc
 50
187.9958512714
 51
207.9531868834
  0
ARC
  5
9A
330
1F
100
AcDbEntity
  8
0
  6
Continuous
 62
     7
370
    25
100
AcDbCircle
 10
720.9607021634
 20
524.4395604719
 30
0.0
 40
17.60000000000009
100
AcDbArc
 50
207.9531868834
 51
232.5957320048
  0
ARC
  5
9B
330
1F
100
AcDbEntity
  8
0
  6
Continuous
 62
     7
370
    25
100
AcDbCircle
 10
720.9607021634
 20
524.4395604719
 30
0.0
 40
17.60000000000019
100
AcDbArc
 50
247.6853859541
 51
293.101238457
  0
ARC
  5
9C
330
1F
100
AcDbEntity
  8
0
  6
Continuous
 62
     7
370
    25
100
AcDbCircle
 10
720.9607021634
 20
524.4395604719
 30
0.0
 40
17.60000000000021
100
AcDbArc
 50
307.4037107444
 51
329.914091969
  0
ARC
  5
9D
330
1F
100
AcDbEntity
  8
0
  6
Continuous
 62
     7
370
    25
100
AcDbCircle
 10
720.9607021634
 20
524.4395604719
 30
0.0
 40
17.60000000000019
100
AcDbArc
 50
33.0957362986
 51
53.6354119152
  0
ARC
  5
9E
330
1F
100
AcDbEntity
  8
0
  6
Continuous
 62
     7
370
    25
100
AcDbCircle
 10
720.9607021634
 20
524.4395604719
 30
0.0
 40
17.60000000000014
100
AcDbArc
 50
66.2910093051
 51
113.232196715
  0
ARC
  5
9F
330
1F
100
AcDbEntity
  8
0
  6
Continuous
 62
     7
370
    25
100
AcDbCircle
 10
720.9607021634
 20
524.4395604719
 30
0.0
 40
17.60000000000008
100
AcDbArc
 50
126.9919300849
 51
152.0468131166
  0
LWPOLYLINE
  5
A0
330
1F
100
AcDbEntity
  8
0
  6
Continuous
 62
     7
370
    25
100
AcDbPolyline
 90
        9
 70
   128
 43
0.0
 10
705.4140787358
 20
516.1895604719
 10
704.9915946696
 20
516.7657767647
 10
704.3978708689
 20
517.2304936654
 10
703.6482093523
 20
517.5717340447
 10
702.7619311148
 20
517.7807031285
 10
701.7618781686
 20
517.8520151652
 10
700.6738248365
 20
517.7838322328
 10
699.5258134717
 20
517.5779116071
 10
698.3474317233
 20
517.2395604719
  0
SPLINE
  5
A1
330
1F
100
AcDbEntity
  8
0
  6
Continuous
 62
     7
370
    25
100
AcDbSpline
210
0.0
220
0.0
230
1.0
 70
     8
 71
     3
 72
    30
 73
    26
 74
     0
 42
0.00000001
 43
0.00000001
 40
0.0
 40
0.0
 40
0.0
 40
0.0
 40
0.1250000000000007
 40
0.1250000000000007
 40
0.1875000000000002
 40
0.1875000000000002
 40
0.2499999999999997
 40
0.2499999999999997
 40
0.3749999999999995
 40
0.3749999999999995
 40
0.4999999999999993
 40
0.4999999999999993
 40
0.5624999999999992
 40
0.5624999999999992
 40
0.6249999999999991
 40
0.6249999999999991
 40
0.7499999999999992
 40
0.7499999999999992
 40
0.8124999999999994
 40
0.8124999999999994
 40
0.8749999999999997
 40
0.8749999999999997
 40
0.9374999999999999
 40
0.9374999999999999
 40
1.0
 40
1.0
 40
1.0
 40
1.0
 10
698.3474317232674
 20
517.2395604718665
 30
0.0
 10
697.9543190951863
 20
517.6840385804785
 30
0.0
 10
697.6291635361049
 20
518.1786471121237
 30
0.0
 10
697.2365568154755
 20
519.005212318748
 30
0.0
 10
697.1228759580221
 20
519.292422123336
 30
0.0
 10
696.9285187008745
 20
519.8801759076925
 30
0.0
 10
696.8471601688526
 20
520.1821142184209
 30
0.0
 10
696.6421691274147
 20
521.11106410251
 30
0.0
 10
696.5571172546028
 20
521.7658231294114
 30
0.0
 10
696.452833335485
 20
523.1004479952118
 30
0.0
 10
696.4324706251172
 20
523.7710355043439
 30
0.0
 10
696.4325131277732
 20
524.7757423085623
 30
0.0
 10
696.437964650597
 20
525.1107750062881
 30
0.0
 10
696.4612698972372
 20
525.7811096037899
 30
0.0
 10
696.4792816568589
 20
526.1181256234752
 30
0.0
 10
696.5574224984239
 20
527.115249997382
 30
0.0
 10
696.6407067357807
 20
527.7598741835423
 30
0.0
 10
696.846117687196
 20
528.6930503276636
 30
0.0
 10
696.9287808172754
 20
529.0002540238447
 30
0.0
 10
697.1252983645028
 20
529.5935009644422
 30
0.0
 10
697.2383837272029
 20
529.877836532597
 30
0.0
 10
697.4971533068996
 20
530.4224673610958
 30
0.0
 10
697.6428300499497
 20
530.6827639888754
 30
0.0
 10
697.9693249892567
 20
531.179896074835
 30
0.0
 10
698.1507887825965
 20
531.4172234719904
 30
0.0
 10
698.3474317232668
 20
531.6395604718667
 30
0.0
  0
LWPOLYLINE
  5
A2
330
1F
100
AcDbEntity
  8
0
  6
Continuous
 62
     7
370
    25
100
AcDbPolyline
 90
        9
 70
   128
 43
0.0
 10
698.3474317233
 20
531.6395604719
 10
699.5258134717
 20
531.3012093366
 10
700.6738248365
 20
531.0952887109
 10
701.7618781686
 20
531.0271057785
 10
702.7619311148
 20
531.0984178153
 10
703.6482093523
 20
531.307386899
 10
704.3978708689
 20
531.6486272783
 10
704.9915946696
 20
532.113344179
 10
705.4140787358
 20
532.6895604719
  0
LWPOLYLINE
  5
A3
330
1F
100
AcDbEntity
  8
0
  6
Continuous
 62
     7
370
    25
100
AcDbPolyline
 90
        9
 70
   128
 43
0.0
 10
533.307325591
 20
516.1895604719
 10
533.7298096572
 20
516.7657767647
 10
534.323533458
 20
517.2304936654
 10
535.0731949746
 20
517.5717340447
 10
535.959473212
 20
517.7807031285
 10
536.9595261582
 20
517.8520151652
 10
538.0475794903
 20
517.7838322328
 10
539.1955908551
 20
517.5779116071
 10
540.3739726036
 20
517.2395604719
  0
SPLINE
  5
A4
330
1F
100
AcDbEntity
  8
0
  6
Continuous
 62
     7
370
    25
100
AcDbSpline
210
0.0
220
0.0
230
1.0
 70
     8
 71
     3
 72
    26
 73
    22
 74
     0
 42
0.00000001
 43
0.00000001
 40
0.0
 40
0.0
 40
0.0
 40
0.0
 40
0.1250000000000003
 40
0.1250000000000003
 40
0.1875
 40
0.1875
 40
0.2499999999999997
 40
0.2499999999999997
 40
0.3749999999999996
 40
0.3749999999999996
 40
0.4374999999999996
 40
0.4374999999999996
 40
0.4999999999999997
 40
0.4999999999999997
 40
0.6249999999999998
 40
0.6249999999999998
 40
0.7499999999999998
 40
0.7499999999999998
 40
0.8749999999999999
 40
0.8749999999999999
 40
1.0
 40
1.0
 40
1.0
 40
1.0
 10
540.3739726035872
 20
531.6395604718762
 30
0.0
 10
540.7667477611885
 20
531.1954639288272
 30
0.0
 10
541.0906845187862
 20
530.7024432425045
 30
0.0
 10
541.481557211281
 20
529.8814791457487
 30
0.0
 10
541.5962333582588
 20
529.5932489120144
 30
0.0
 10
541.7931811192755
 20
528.9984377205318
 30
0.0
 10
541.8755221014862
 20
528.6920893548443
 30
0.0
 10
542.0807242121803
 20
527.75953540166
 30
0.0
 10
542.1639536636773
 20
527.1153584464181
 30
0.0
 10
542.2420681981898
 20
526.1189460268014
 30
0.0
 10
542.260081535448
 20
525.7821645931278
 30
0.0
 10
542.2834029515935
 20
525.1122959561603
 30
0.0
 10
542.2888690814991
 20
524.7774960625471
 30
0.0
 10
542.2889774891638
 20
523.7734871306204
 30
0.0
 10
542.2686371102485
 20
523.1027760149161
 30
0.0
 10
542.1647553496283
 20
521.7703419054736
 30
0.0
 10
542.0815978101476
 20
521.1250248873558
 30
0.0
 10
541.8084744076341
 20
519.8808718038454
 30
0.0
 10
541.6147568099669
 20
519.2783198289584
 30
0.0
 10
541.0915635475218
 20
518.1776164657683
 30
0.0
 10
540.7666755945414
 20
517.683575418712
 30
0.0
 10
540.3739726035959
 20
517.2395604718664
 30
0.0
  0
LWPOLYLINE
  5
A5
330
1F
100
AcDbEntity
  8
0
  6
Continuous
 62
     7
370
    25
100
AcDbPolyline
 90
        9
 70
   128
 43
0.0
 10
540.3739726036
 20
531.6395604719
 10
539.1955908551
 20
531.3012093366
 10
538.0475794903
 20
531.0952887109
 10
536.9595261582
 20
531.0271057785
 10
535.959473212
 20
531.0984178153
 10
535.0731949746
 20
531.307386899
 10
534.323533458
 20
531.6486272783
 10
533.7298096572
 20
532.113344179
 10
533.307325591
 20
532.6895604719
  0
ARC
  5
A6
330
1F
100
AcDbEntity
  8
0
  6
Continuous
 62
     7
370
    25
100
AcDbCircle
 10
619.3607021634
 20
524.4395604719
 30
0.0
 40
9.600000000000023
100
AcDbArc
 50
0.0
 51
214.6221618397
  0
ARC
  5
A7
330
1F
100
AcDbEntity
  8
0
  6
Continuous
 62
     7
370
    25
100
AcDbCircle
 10
619.3607021634
 20
524.4395604719
 30
0.0
 40
9.600000000000104
100
AcDbArc
 50
325.3778381603
 51
0.0
  0
ARC
  5
A8
330
1F
100
AcDbEntity
  8
0
  6
Continuous
 62
     7
370
    25
100
AcDbCircle
 10
619.3607021634
 20
524.4395604719
 30
0.0
 40
10.50000000000006
100
AcDbArc
 50
0.0
 51
221.2029536038
  0
ARC
  5
A9
330
1F
100
AcDbEntity
  8
0
  6
Continuous
 62
     7
370
    25
100
AcDbCircle
 10
619.3607021634
 20
524.4395604719
 30
0.0
 40
10.50000000000014
100
AcDbArc
 50
318.7970463962
 51
0.0
  0
ARC
  5
AA
330
1F
100
AcDbEntity
  8
0
  6
Continuous
 62
     7
370
    25
100
AcDbCircle
 10
619.3607021634
 20
372.0395604719
 30
0.0
 40
11.55000000000002
100
AcDbArc
 50
133.1556534408
 51
274.9657006069
  0
ARC
  5
AB
330
1F
100
AcDbEntity
  8
0
  6
Continuous
 62
     7
370
    25
100
AcDbCircle
 10
619.3607021634
 20
372.0395604719
 30
0.0
 40
11.5500000000001
100
AcDbArc
 50
274.9657006069
 51
46.8443465592
  0
ARC
  5
AC
330
1F
100
AcDbEntity
  8
0
  6
Continuous
 62
     7
370
    25
100
AcDbCircle
 10
619.3607021634
 20
524.4395604719
 30
0.0
 40
14.22500000000002
100
AcDbArc
 50
303.7355336397
 51
223.2235523034
  0
LWPOLYLINE
  5
AD
330
1F
100
AcDbEntity
  8
0
  6
Continuous
 62
     7
370
    25
100
AcDbPolyline
 90
        3
 70
   128
 43
0.0
 10
611.4607021634
 20
512.6099102234
 10
610.4870569772
 20
513.3215999526
 10
608.9951271372
 20
514.6976161395
  0
LINE
  5
AE
330
1F
100
AcDbEntity
  8
0
  6
Continuous
 62
     7
370
    25
100
AcDbLine
 10
627.2354820774
 20
536.5762165594
 30
0.0
 11
627.1034498963
 21
536.3727278027
 31
0.0
  0
SPLINE
  5
AF
330
1F
100
AcDbEntity
  8
0
  6
Continuous
 62
     7
370
    25
100
AcDbSpline
210
0.0
220
0.0
230
1.0
 70
     8
 71
     3
 72
    11
 73
     7
 74
     0
 42
0.00000001
 43
0.00000001
 40
0.0
 40
0.0
 40
0.0
 40
0.0
 40
0.1446702591042557
 40
0.3907520209323692
 40
0.5962314811354859
 40
0.9999999999999999
 40
0.9999999999999999
 40
0.9999999999999999
 40
0.9999999999999999
 10
631.962031791602
 20
531.5470967034765
 30
0.0
 10
631.7629138950869
 20
531.8145946634721
 30
0.0
 10
631.2250996895353
 20
532.5371023102457
 30
0.0
 10
630.3355217355833
 20
533.5868964223107
 30
0.0
 10
628.9927144494983
 20
535.0335422731994
 30
0.0
 10
627.9358804555649
 20
535.9613368285247
 30
0.0
 10
627.2354820774378
 20
536.5762165594147
 30
0.0
  0
LINE
  5
B0
330
1F
100
AcDbEntity
  8
0
  6
Continuous
 62
     7
370
    25
100
AcDbLine
 10
631.7507521046
 20
531.4279284828
 30
0.0
 11
631.9620317916
 21
531.5470967035
 31
0.0
  0
LINE
  5
B1
330
1F
100
AcDbEntity
  8
0
  6
Continuous
 62
     7
370
    25
100
AcDbLine
 10
604.9126597176
 20
525.1909918828
 30
0.0
 11
605.1549022409
 21
525.1783930383
 31
0.0
  0
SPLINE
  5
B2
330
1F
100
AcDbEntity
  8
0
  6
Continuous
 62
     7
370
    25
100
AcDbSpline
210
0.0
220
0.0
230
1.0
 70
     8
 71
     3
 72
    11
 73
     7
 74
     0
 42
0.00000001
 43
0.00000001
 40
0.0
 40
0.0
 40
0.0
 40
0.0
 40
0.144670259104256
 40
0.3907520209323621
 40
0.5962314811354645
 40
1.0
 40
1.0
 40
1.0
 40
1.0
 10
606.9047304144535
 20
531.7988639355182
 30
0.0
 10
606.7726293338944
 20
531.4926737987902
 30
0.0
 10
606.4158264601359
 20
530.6656592108797
 30
0.0
 10
605.9514670673203
 20
529.3703650480782
 30
0.0
 10
605.3700386532138
 20
527.4841369004973
 30
0.0
 10
605.0949619957757
 20
526.1049945365053
 30
0.0
 10
604.9126597176164
 20
525.1909918828329
 30
0.0
  0
LINE
  5
B3
330
1F
100
AcDbEntity
  8
0
  6
Continuous
 62
     7
370
    25
100
AcDbLine
 10
606.9047304145
 20
531.7988639355
 30
0.0
 11
607.1135729644
 21
531.6754744696
 31
0.0
  0
LINE
  5
B4
330
1F
100
AcDbEntity
  8
0
  6
Continuous
 62
     7
370
    25
100
AcDbLine
 10
612.7874396316
 20
537.3276479704
 30
0.0
 11
612.8976499738
 21
537.1115603691
 31
0.0
  0
SPLINE
  5
B5
330
1F
100
AcDbEntity
  8
0
  6
Continuous
 62
     7
370
    25
100
AcDbSpline
210
0.0
220
0.0
230
1.0
 70
     8
 71
     3
 72
    11
 73
     7
 74
     0
 42
0.00000001
 43
0.00000001
 40
0.0
 40
0.0
 40
0.0
 40
0.0
 40
0.1446702591042559
 40
0.390752020932366
 40
0.5962314811354593
 40
1.0
 40
1.0
 40
1.0
 40
1.0
 10
619.5060600426239
 20
538.9064001671286
 30
0.0
 10
619.1748410655498
 20
538.8677079903961
 30
0.0
 10
618.2802239862397
 20
538.763201049259
 30
0.0
 10
616.926286639472
 20
538.5177009985225
 30
0.0
 10
615.0020509392806
 20
538.0781187018305
 30
0.0
 10
613.6701402879091
 20
537.6267708931639
 30
0.0
 10
612.7874396316228
 20
537.3276479703813
 30
0.0
  0
LINE
  5
B6
330
1F
100
AcDbEntity
  8
0
  6
Continuous
 62
     7
370
    25
100
AcDbLine
 10
619.5060600426
 20
538.9064001671
 30
0.0
 11
619.5036229056
 21
538.6638424805
 31
0.0
  0
SPLINE
  5
B7
330
1F
100
AcDbEntity
  8
0
  6
Continuous
 62
     7
370
    25
100
AcDbSpline
210
0.0
220
0.0
230
1.0
 70
     8
 71
     3
 72
    11
 73
     7
 74
     0
 42
0.00000001
 43
0.00000001
 40
0.0
 40
0.0
 40
0.0
 40
0.0
 40
0.1446702591042542
 40
0.3907520209323655
 40
0.596231481135479
 40
1.0
 40
1.0
 40
1.0
 40
1.0
 10
606.7593725352612
 20
517.3320242402558
 30
0.0
 10
606.9584904317763
 20
517.0645262802603
 30
0.0
 10
607.496304637328
 20
516.3420186334869
 30
0.0
 10
608.3858825912799
 20
515.2922245214218
 30
0.0
 10
609.7286898773649
 20
513.8455786705332
 30
0.0
 10
610.7855238712983
 20
512.9177841152077
 30
0.0
 10
611.4859222494255
 20
512.3029043843177
 30
0.0
  0
LINE
  5
B8
330
1F
100
AcDbEntity
  8
0
  6
Continuous
 62
     7
370
    25
100
AcDbLine
 10
606.7593725353
 20
517.3320242403
 30
0.0
 11
606.9706522223
 21
517.451192461
 31
0.0
  0
LINE
  5
B9
330
1F
100
AcDbEntity
  8
0
  6
Continuous
 62
     7
370
    25
100
AcDbLine
 10
633.566502086
 20
523.7007279055
 30
0.0
 11
633.8087446092
 21
523.6881290609
 31
0.0
  0
SPLINE
  5
BA
330
1F
100
AcDbEntity
  8
0
  6
Continuous
 62
     7
370
    25
100
AcDbSpline
210
0.0
220
0.0
230
1.0
 70
     8
 71
     3
 72
    11
 73
     7
 74
     0
 42
0.00000001
 43
0.00000001
 40
0.0
 40
0.0
 40
0.0
 40
0.0
 40
0.1446702591042545
 40
0.3907520209323574
 40
0.596231481135475
 40
0.9999999999999999
 40
0.9999999999999999
 40
0.9999999999999999
 40
0.9999999999999999
 10
631.8166739124097
 20
517.0802570082144
 30
0.0
 10
631.9487749929688
 20
517.3864471449423
 30
0.0
 10
632.3055778667274
 20
518.2134617328529
 30
0.0
 10
632.769937259543
 20
519.5087558956544
 30
0.0
 10
633.3513656736495
 20
521.3949840432351
 30
0.0
 10
633.6264423310874
 20
522.7741264072272
 30
0.0
 10
633.8087446092468
 20
523.6881290608997
 30
0.0
  0
LINE
  5
BB
330
1F
100
AcDbEntity
  8
0
  6
Continuous
 62
     7
370
    25
100
AcDbLine
 10
631.6078313624
 20
517.2036464741
 30
0.0
 11
631.8166739124
 21
517.0802570082
 31
0.0
  0
SPLINE
  5
BC
330
1F
100
AcDbEntity
  8
0
  6
Continuous
 62
     7
370
    25
100
AcDbSpline
210
0.0
220
0.0
230
1.0
 70
     8
 71
     3
 72
     9
 73
     5
 74
     0
 42
0.00000001
 43
0.00000001
 40
0.0
 40
0.0
 40
0.0
 40
0.0
 40
0.586384789828358
 40
1.0
 40
1.0
 40
1.0
 40
1.0
 10
631.090703334933
 20
515.53828542182
 30
0.0
 10
631.2382798813655
 20
515.8374234635086
 30
0.0
 10
631.4899517340335
 20
516.3475629604355
 30
0.0
 10
631.7210769907691
 20
516.8658751874876
 30
0.0
 10
631.8166739124097
 20
517.0802570082144
 30
0.0
  0
ARC
  5
BD
330
1F
100
AcDbEntity
  8
0
  6
Continuous
 62
     7
370
    25
100
AcDbCircle
 10
619.3607021634
 20
524.4395604719
 30
0.0
 40
14.72500000000004
100
AcDbArc
 50
303.6400367407
 51
322.8070678661
  0
SPLINE
  5
BE
330
1F
100
AcDbEntity
  8
0
  6
Continuous
 62
     7
370
    25
100
AcDbSpline
210
0.0
220
0.0
230
1.0
 70
     8
 71
     3
 72
     9
 73
     5
 74
     0
 42
0.00000001
 43
0.00000001
 40
0.0
 40
0.0
 40
0.0
 40
0.0
 40
0.5862283062032674
 40
0.9999999999999999
 40
0.9999999999999999
 40
0.9999999999999999
 40
0.9999999999999999
 10
604.9126597176164
 20
525.1909918828329
 30
0.0
 10
604.8584070803605
 20
524.8626660278171
 30
0.0
 10
604.7658618438343
 20
524.3026012006131
 30
0.0
 10
604.6948082286366
 20
523.7382243400788
 30
0.0
 10
604.665408253926
 20
523.5047011705557
 30
0.0
  0
SPLINE
  5
BF
330
1F
100
AcDbEntity
  8
0
  6
Continuous
 62
     7
370
    25
100
AcDbSpline
210
0.0
220
0.0
230
1.0
 70
     8
 71
     3
 72
     9
 73
     5
 74
     0
 42
0.00000001
 43
0.00000001
 40
0.0
 40
0.0
 40
0.0
 40
0.0
 40
0.5863847898283641
 40
1.0
 40
1.0
 40
1.0
 40
1.0
 10
605.7869712582683
 20
518.731718995948
 30
0.0
 10
605.9722441283927
 20
518.4543449368904
 30
0.0
 10
606.288201965871
 20
517.9813209705987
 30
0.0
 10
606.6215108932225
 20
517.5220045132836
 30
0.0
 10
606.7593725352612
 20
517.3320242402558
 30
0.0
  0
ARC
  5
C0
330
1F
100
AcDbEntity
  8
0
  6
Continuous
 62
     7
370
    25
100
AcDbCircle
 10
619.3607021634
 20
524.4395604719
 30
0.0
 40
14.72499999999998
100
AcDbArc
 50
183.6400367407
 51
202.8070678661
  0
SPLINE
  5
C1
330
1F
100
AcDbEntity
  8
0
  6
Continuous
 62
     7
370
    25
100
AcDbSpline
210
0.0
220
0.0
230
1.0
 70
     8
 71
     3
 72
     9
 73
     5
 74
     0
 42
0.00000001
 43
0.00000001
 40
0.0
 40
0.0
 40
0.0
 40
0.0
 40
0.586228306203287
 40
1.0
 40
1.0
 40
1.0
 40
1.0
 10
633.8087446092468
 20
523.6881290608997
 30
0.0
 10
633.8629972465028
 20
524.0164549159155
 30
0.0
 10
633.955542483029
 20
524.5765197431193
 30
0.0
 10
634.0265960982265
 20
525.1408966036538
 30
0.0
 10
634.0559960729373
 20
525.3744197731768
 30
0.0
  0
SPLINE
  5
C2
330
1F
100
AcDbEntity
  8
0
  6
Continuous
 62
     7
370
    25
100
AcDbSpline
210
0.0
220
0.0
230
1.0
 70
     8
 71
     3
 72
     9
 73
     5
 74
     0
 42
0.00000001
 43
0.00000001
 40
0.0
 40
0.0
 40
0.0
 40
0.0
 40
0.5863847898283613
 40
1.0
 40
1.0
 40
1.0
 40
1.0
 10
632.934433068595
 20
530.1474019477845
 30
0.0
 10
632.7491601984706
 20
530.4247760068421
 30
0.0
 10
632.4332023609921
 20
530.8977999731337
 30
0.0
 10
632.0998934336405
 20
531.357116430449
 30
0.0
 10
631.962031791602
 20
531.5470967034765
 30
0.0
  0
ARC
  5
C3
330
1F
100
AcDbEntity
  8
0
  6
Continuous
 62
     7
370
    25
100
AcDbCircle
 10
619.3607021634
 20
524.4395604719
 30
0.0
 40
14.7250000000001
100
AcDbArc
 50
3.6400367407
 51
22.8070678661
  0
SPLINE
  5
C4
330
1F
100
AcDbEntity
  8
0
  6
Continuous
 62
     7
370
    25
100
AcDbSpline
210
0.0
220
0.0
230
1.0
 70
     8
 71
     3
 72
     9
 73
     5
 74
     0
 42
0.00000001
 43
0.00000001
 40
0.0
 40
0.0
 40
0.0
 40
0.0
 40
0.58622830620327
 40
1.0
 40
1.0
 40
1.0
 40
1.0
 10
612.7874396316228
 20
537.3276479703813
 30
0.0
 10
612.4759747818318
 20
537.2104692049594
 30
0.0
 10
611.9446717954439
 20
537.0105833171883
 30
0.0
 10
611.4203802893143
 20
536.7899291227129
 30
0.0
 10
611.2034433047797
 20
536.6986286629216
 30
0.0
  0
SPLINE
  5
C5
330
1F
100
AcDbEntity
  8
0
  6
Continuous
 62
     7
370
    25
100
AcDbSpline
210
0.0
220
0.0
230
1.0
 70
     8
 71
     3
 72
     9
 73
     5
 74
     0
 42
0.00000001
 43
0.00000001
 40
0.0
 40
0.0
 40
0.0
 40
0.0
 40
0.5863847898283645
 40
1.0
 40
1.0
 40
1.0
 40
1.0
 10
607.6307009919302
 20
533.3408355219125
 30
0.0
 10
607.4831244454977
 20
533.0416974802239
 30
0.0
 10
607.2314525928297
 20
532.531557983297
 30
0.0
 10
607.0003273360941
 20
532.0132457562448
 30
0.0
 10
606.9047304144535
 20
531.7988639355182
 30
0.0
  0
ARC
  5
C6
330
1F
100
AcDbEntity
  8
0
  6
Continuous
 62
     7
370
    25
100
AcDbCircle
 10
619.3607021634
 20
524.4395604719
 30
0.0
 40
14.72499999999999
100
AcDbArc
 50
123.6400367407
 51
142.8070678661
  0
SPLINE
  5
C7
330
1F
100
AcDbEntity
  8
0
  6
Continuous
 62
     7
370
    25
100
AcDbSpline
210
0.0
220
0.0
230
1.0
 70
     8
 71
     3
 72
     9
 73
     5
 74
     0
 42
0.00000001
 43
0.00000001
 40
0.0
 40
0.0
 40
0.0
 40
0.0
 40
0.5862283062032709
 40
1.0
 40
1.0
 40
1.0
 40
1.0
 10
627.2354820774378
 20
536.5762165594147
 30
0.0
 10
626.9782698649029
 20
536.7873636490086
 30
0.0
 10
626.5395121150412
 20
537.1475425884415
 30
0.0
 10
626.0862742241092
 20
537.4912652545005
 30
0.0
 10
625.8987372142853
 20
537.6334879642321
 30
0.0
  0
SPLINE
  5
C8
330
1F
100
AcDbEntity
  8
0
  6
Continuous
 62
     7
370
    25
100
AcDbSpline
210
0.0
220
0.0
230
1.0
 70
     8
 71
     3
 72
     9
 73
     5
 74
     0
 42
0.00000001
 43
0.00000001
 40
0.0
 40
0.0
 40
0.0
 40
0.0
 40
0.5863847898283634
 40
1.0
 40
1.0
 40
1.0
 40
1.0
 10
621.2044318970936
 20
539.0486769978307
 30
0.0
 10
620.8715824805366
 20
539.0269130151997
 30
0.0
 10
620.3039527903902
 20
538.9897974845644
 30
0.0
 10
619.7395186063031
 20
538.9308017148276
 30
0.0
 10
619.5060600426239
 20
538.9064001671286
 30
0.0
  0
ARC
  5
C9
330
1F
100
AcDbEntity
  8
0
  6
Continuous
 62
     7
370
    25
100
AcDbCircle
 10
619.3607021634
 20
524.4395604719
 30
0.0
 40
14.72500000000003
100
AcDbArc
 50
63.6400367407
 51
82.8070678661
  0
SPLINE
  5
CA
330
1F
100
AcDbEntity
  8
0
  6
Continuous
 62
     7
370
    25
100
AcDbSpline
210
0.0
220
0.0
230
1.0
 70
    24
 71
     3
 72
    12
 73
     8
 74
     0
 42
0.00000001
 43
0.00000001
 40
0.0
 40
0.0
 40
0.0
 40
0.0
 40
0.3013828945620945
 40
0.4108442493795588
 40
0.6247185195336505
 40
0.6986171054378635
 40
0.9999999999999999
 40
0.9999999999999999
 40
0.9999999999999999
 40
0.9999999999999999
 10
611.2616993023049
 20
512.1764357680969
 30
0.0
 10
610.7965958504635
 20
512.6713128234912
 30
0.0
 10
610.1625682330924
 20
513.3459277270812
 30
0.0
 10
609.1938522845577
 20
514.3766560397319
 30
0.0
 10
608.5767274796088
 20
515.0332860971412
 30
0.0
 10
607.6634772530879
 20
516.0049980488579
 30
0.0
 10
607.0843445954115
 20
516.6212038911904
 30
0.0
 10
606.6192518962218
 20
517.1160695056019
 30
0.0
  0
ARC
  5
CB
330
1F
100
AcDbEntity
  8
0
  6
Continuous
 62
     7
370
    25
100
AcDbCircle
 10
606.9974177052
 20
517.0241348953
 30
0.0
 40
0.3891803587957661
100
AcDbArc
 50
127.7094634933
 51
166.3360839426
  0
SPLINE
  5
CC
330
1F
100
AcDbEntity
  8
0
  6
Continuous
 62
     7
370
    25
100
AcDbSpline
210
0.0
220
0.0
230
1.0
 70
    24
 71
     3
 72
    12
 73
     8
 74
     0
 42
0.00000001
 43
0.00000001
 40
0.0
 40
0.0
 40
0.0
 40
0.0
 40
0.3013828945620993
 40
0.4108442493795574
 40
0.6247185195336497
 40
0.6986171054378605
 40
1.0
 40
1.0
 40
1.0
 40
1.0
 10
634.0303811172357
 20
523.5571806006924
 30
0.0
 10
633.8343567414348
 20
522.9069506683127
 30
0.0
 10
633.56713690584
 20
522.0205591931734
 30
0.0
 10
633.1588579769519
 20
520.666262416366
 30
0.0
 10
632.8987620688215
 20
519.80350162927
 30
0.0
 10
632.5138599467342
 20
518.5267477572327
 30
0.0
 10
632.2697763621522
 20
517.7171012423573
 30
0.0
 10
632.0737565182073
 20
517.0668863425387
 30
0.0
  0
ARC
  5
CD
330
1F
100
AcDbEntity
  8
0
  6
Continuous
 62
     7
370
    25
100
AcDbCircle
 10
631.9642913217
 20
517.4403548451
 30
0.0
 40
0.3891803587963698
100
AcDbArc
 50
247.7094634933
 51
286.3360839426
  0
ARC
  5
CE
330
1F
100
AcDbEntity
  8
0
  6
Continuous
 62
     7
370
    25
100
AcDbCircle
 10
633.732736955
 20
523.3064430798
 30
0.0
 40
0.3891803587989703
100
AcDbArc
 50
40.1110206644
 51
78.7376411133
  0
ARC
  5
CF
330
1F
100
AcDbEntity
  8
0
  6
Continuous
 62
     7
370
    25
100
AcDbCircle
 10
604.9886673718
 20
525.572677864
 30
0.0
 40
0.3891803588347006
100
AcDbArc
 50
220.1110206662
 51
258.7376411115
  0
SPLINE
  5
D0
330
1F
100
AcDbEntity
  8
0
  6
Continuous
 62
     7
370
    25
100
AcDbSpline
210
0.0
220
0.0
230
1.0
 70
    24
 71
     3
 72
    12
 73
     8
 74
     0
 42
0.00000001
 43
0.00000001
 40
0.0
 40
0.0
 40
0.0
 40
0.0
 40
0.3013828945621505
 40
0.4108442493795785
 40
0.6247185195336594
 40
0.6986171054378614
 40
1.0
 40
1.0
 40
1.0
 40
1.0
 10
604.6910232096276
 20
525.3219403430403
 30
0.0
 10
604.8870475854285
 20
525.97217027542
 30
0.0
 10
605.1542674210234
 20
526.8585617505593
 30
0.0
 10
605.5625463499114
 20
528.2128585273667
 30
0.0
 10
605.8226422580418
 20
529.0756193144625
 30
0.0
 10
606.2075443801289
 20
530.3523731865
 30
0.0
 10
606.451627964711
 20
531.1620197013751
 30
0.0
 10
606.647647808656
 20
531.8122346011937
 30
0.0
  0
ARC
  5
D1
330
1F
100
AcDbEntity
  8
0
  6
Continuous
 62
     7
370
    25
100
AcDbCircle
 10
606.7571130052
 20
531.4387660986
 30
0.0
 40
0.3891803587963034
100
AcDbArc
 50
67.7094634934
 51
106.3360839426
  0
ARC
  5
D2
330
1F
100
AcDbEntity
  8
0
  6
Continuous
 62
     7
370
    25
100
AcDbCircle
 10
613.1559932147
 20
537.4526664015
 30
0.0
 40
0.3891803588375556
100
AcDbArc
 50
160.1110206664
 51
198.7376411114
  0
SPLINE
  5
D3
330
1F
100
AcDbEntity
  8
0
  6
Continuous
 62
     7
370
    25
100
AcDbSpline
210
0.0
220
0.0
230
1.0
 70
    24
 71
     3
 72
    12
 73
     8
 74
     0
 42
0.00000001
 43
0.00000001
 40
0.0
 40
0.0
 40
0.0
 40
0.0
 40
0.3013828945621499
 40
0.4108442493795587
 40
0.6247185195336379
 40
0.6986171054378637
 40
1.0
 40
1.0
 40
1.0
 40
1.0
 10
612.7900260707543
 20
537.5850650468095
 30
0.0
 10
613.4511538983967
 20
537.7404179237948
 30
0.0
 10
614.3524013513626
 20
537.9521944953441
 30
0.0
 10
615.7293962287853
 20
538.275762959501
 30
0.0
 10
616.6066169418644
 20
538.4818936891875
 30
0.0
 10
617.9047692904727
 20
538.7869356095082
 30
0.0
 10
618.7279855327313
 20
538.980376282051
 30
0.0
 10
619.3890980758657
 20
539.1357255674582
 30
0.0
  0
ARC
  5
D4
330
1F
100
AcDbEntity
  8
0
  6
Continuous
 62
     7
370
    25
100
AcDbCircle
 10
619.1203974634
 20
538.8541916752
 30
0.0
 40
0.3891803587975984
100
AcDbArc
 50
7.7094634934
 51
46.3360839425
  0
SPLINE
  5
D5
330
1F
100
AcDbEntity
  8
0
  6
Continuous
 62
     7
370
    25
100
AcDbSpline
210
0.0
220
0.0
230
1.0
 70
    24
 71
     3
 72
    12
 73
     8
 74
     0
 42
0.00000001
 43
0.00000001
 40
0.0
 40
0.0
 40
0.0
 40
0.0
 40
0.3013828945621527
 40
0.4108442493795539
 40
0.6247185195336458
 40
0.6986171054378585
 40
1.0
 40
1.0
 40
1.0
 40
1.0
 10
627.4597050245584
 20
536.7026851756356
 30
0.0
 10
627.9248084763998
 20
536.207808120241
 30
0.0
 10
628.5588360937709
 20
535.5331932166512
 30
0.0
 10
629.5275520423056
 20
534.5024649040006
 30
0.0
 10
630.1446768472542
 20
533.8458348465913
 30
0.0
 10
631.0579270737753
 20
532.8741228948745
 30
0.0
 10
631.6370597314518
 20
532.2579170525421
 30
0.0
 10
632.1021524306414
 20
531.7630514381307
 30
0.0
  0
ARC
  5
D6
330
1F
100
AcDbEntity
  8
0
  6
Continuous
 62
     7
370
    25
100
AcDbCircle
 10
631.7239866216
 20
531.8549860484
 30
0.0
 40
0.3891803587950811
100
AcDbArc
 50
307.7094634933
 51
346.3360839427
  0
ARC
  5
D7
330
1F
100
AcDbEntity
  8
0
  6
Continuous
 62
     7
370
    25
100
AcDbCircle
 10
627.5280280062
 20
536.3195490094
 30
0.0
 40
0.3891803587986385
100
AcDbArc
 50
100.1110206644
 51
138.7376411134
  0
LINE
  5
D8
330
1F
100
AcDbEntity
  8
0
  6
Continuous
 62
     7
370
    25
100
AcDbLine
 10
632.0737565182
 20
517.0668863425
 30
0.0
 11
631.5694224487
 21
515.3939662959
 31
0.0
  0
LINE
  5
D9
330
1F
100
AcDbEntity
  8
0
  6
Continuous
 62
     7
370
    25
100
AcDbLine
 10
631.5694224487
 20
515.3939662959
 30
0.0
 11
631.0907033349
 21
515.5382854218
 31
0.0
  0
LINE
  5
DA
330
1F
100
AcDbEntity
  8
0
  6
Continuous
 62
     7
370
    25
100
AcDbLine
 10
606.6192518962
 20
517.1160695056
 30
0.0
 11
605.4226276721
 21
518.3892956451
 31
0.0
  0
LINE
  5
DB
330
1F
100
AcDbEntity
  8
0
  6
Continuous
 62
     7
370
    25
100
AcDbLine
 10
605.7869712583
 20
518.7317189959
 30
0.0
 11
605.4226276721
 21
518.3892956451
 31
0.0
  0
LINE
  5
DC
330
1F
100
AcDbEntity
  8
0
  6
Continuous
 62
     7
370
    25
100
AcDbLine
 10
632.1021524306
 20
531.7630514381
 30
0.0
 11
633.2987766548
 21
530.4898252987
 31
0.0
  0
LINE
  5
DD
330
1F
100
AcDbEntity
  8
0
  6
Continuous
 62
     7
370
    25
100
AcDbLine
 10
633.2987766548
 20
530.4898252987
 30
0.0
 11
632.9344330686
 21
530.1474019478
 31
0.0
  0
LINE
  5
DE
330
1F
100
AcDbEntity
  8
0
  6
Continuous
 62
     7
370
    25
100
AcDbLine
 10
606.6476478087
 20
531.8122346012
 30
0.0
 11
607.1519818781
 21
533.4851546478
 31
0.0
  0
LINE
  5
DF
330
1F
100
AcDbEntity
  8
0
  6
Continuous
 62
     7
370
    25
100
AcDbLine
 10
607.1519818781
 20
533.4851546478
 30
0.0
 11
607.6307009919
 21
533.3408355219
 31
0.0
  0
LINE
  5
E0
330
1F
100
AcDbEntity
  8
0
  6
Continuous
 62
     7
370
    25
100
AcDbLine
 10
619.3890980759
 20
539.1357255675
 30
0.0
 11
621.0900563695
 21
539.5354194746
 31
0.0
  0
LINE
  5
E1
330
1F
100
AcDbEntity
  8
0
  6
Continuous
 62
     7
370
    25
100
AcDbLine
 10
621.0900563695
 20
539.5354194746
 30
0.0
 11
621.2044318971
 21
539.0486769978
 31
0.0
  0
LINE
  5
E2
330
1F
100
AcDbEntity
  8
0
  6
Continuous
 62
     7
370
    25
100
AcDbLine
 10
611.4607021634
 20
511.9646937362
 30
0.0
 11
611.2616993023
 21
512.1764357681
 31
0.0
  0
LINE
  5
E3
330
1F
100
AcDbEntity
  8
0
  6
Continuous
 62
     7
370
    25
100
AcDbLine
 10
627.6323365497
 20
511.6937498041
 30
0.0
 11
627.2607021634
 21
511.6064225601
 31
0.0
  0
LINE
  5
E4
330
1F
100
AcDbEntity
  8
0
  6
Continuous
 62
     7
370
    25
100
AcDbLine
 10
627.6323365497
 20
511.6937498041
 30
0.0
 11
627.5179610221
 21
512.1804922808
 31
0.0
  0
LINE
  5
E5
330
1F
100
AcDbEntity
  8
0
  6
Continuous
 62
     7
370
    25
100
AcDbLine
 10
604.6654082539
 20
523.5047011706
 30
0.0
 11
604.1866891401
 21
523.6490202964
 31
0.0
  0
LINE
  5
E6
330
1F
100
AcDbEntity
  8
0
  6
Continuous
 62
     7
370
    25
100
AcDbLine
 10
604.1866891401
 20
523.6490202964
 30
0.0
 11
604.6910232096
 21
525.321940343
 31
0.0
  0
LINE
  5
E7
330
1F
100
AcDbEntity
  8
0
  6
Continuous
 62
     7
370
    25
100
AcDbLine
 10
634.5347151867
 20
525.2301006473
 30
0.0
 11
634.0303811172
 21
523.5571806007
 31
0.0
  0
LINE
  5
E8
330
1F
100
AcDbEntity
  8
0
  6
Continuous
 62
     7
370
    25
100
AcDbLine
 10
634.0559960729
 20
525.3744197732
 30
0.0
 11
634.5347151867
 21
525.2301006473
 31
0.0
  0
LINE
  5
E9
330
1F
100
AcDbEntity
  8
0
  6
Continuous
 62
     7
370
    25
100
AcDbLine
 10
626.2630808004
 20
537.9759113151
 30
0.0
 11
627.4597050246
 21
536.7026851756
 31
0.0
  0
LINE
  5
EA
330
1F
100
AcDbEntity
  8
0
  6
Continuous
 62
     7
370
    25
100
AcDbLine
 10
625.8987372143
 20
537.6334879642
 30
0.0
 11
626.2630808004
 21
537.9759113151
 31
0.0
  0
LINE
  5
EB
330
1F
100
AcDbEntity
  8
0
  6
Continuous
 62
     7
370
    25
100
AcDbLine
 10
611.2034433048
 20
536.6986286629
 30
0.0
 11
611.0890677772
 21
537.1853711397
 31
0.0
  0
LINE
  5
EC
330
1F
100
AcDbEntity
  8
0
  6
Continuous
 62
     7
370
    25
100
AcDbLine
 10
611.0890677772
 20
537.1853711397
 30
0.0
 11
612.7900260708
 21
537.5850650468
 31
0.0
  0
LINE
  5
ED
330
1F
100
AcDbEntity
  8
0
  6
Continuous
 62
     7
370
    25
100
AcDbLine
 10
629.5023291267
 20
512.1331636581
 30
0.0
 11
627.6323365497
 21
511.6937498041
 31
0.0
  0
LINE
  5
EE
330
1F
100
AcDbEntity
  8
0
  6
Continuous
 62
     7
370
    25
100
AcDbLine
 10
627.5179610221
 20
512.1804922808
 30
0.0
 11
629.3879535991
 21
512.6199061349
 31
0.0
  0
LINE
  5
EF
330
1F
100
AcDbEntity
  8
0
  6
Continuous
 62
     7
370
    25
100
AcDbLine
 10
629.5023291267
 20
512.1331636581
 30
0.0
 11
629.3879535991
 21
512.6199061349
 31
0.0
  0
LINE
  5
F0
330
1F
100
AcDbEntity
  8
0
  6
Continuous
 62
     7
370
    25
100
AcDbLine
 10
629.7114133228
 20
512.2386269627
 30
0.0
 11
629.3879535991
 21
512.6199061349
 31
0.0
  0
ARC
  5
F1
330
1F
100
AcDbEntity
  8
0
  6
Continuous
 62
     7
370
    25
100
AcDbCircle
 10
629.3879535991
 20
512.6199061349
 30
0.0
 40
0.5000000000000199
100
AcDbArc
 50
283.2235523034
 51
310.309742062
  0
ARC
  5
F2
330
1F
100
AcDbEntity
  8
0
  6
Continuous
 62
     7
370
    25
100
AcDbCircle
 10
619.3607021634
 20
524.4395604719
 30
0.0
 40
15.99999999999999
100
AcDbArc
 50
310.309742062
 51
316.1373625449
  0
ARC
  5
F3
330
1F
100
AcDbEntity
  8
0
  6
Continuous
 62
     7
370
    25
100
AcDbCircle
 10
619.3607021634
 20
524.4395604719
 30
0.0
 40
15.50000000000002
100
AcDbArc
 50
310.309742062
 51
316.1373625449
  0
LINE
  5
F4
330
1F
100
AcDbEntity
  8
0
  6
Continuous
 62
     7
370
    25
100
AcDbLine
 10
630.8967521695
 20
513.3526515132
 30
0.0
 11
630.5362506068
 21
513.6991174182
 31
0.0
  0
LINE
  5
F5
330
1F
100
AcDbEntity
  8
0
  6
Continuous
 62
     7
370
    25
100
AcDbLine
 10
630.5362506068
 20
513.6991174182
 30
0.0
 11
631.0907033349
 21
515.5382854218
 31
0.0
  0
LINE
  5
F6
330
1F
100
AcDbEntity
  8
0
  6
Continuous
 62
     7
370
    25
100
AcDbLine
 10
604.4714314093
 20
520.1314731455
 30
0.0
 11
605.7869712583
 21
518.7317189959
 31
0.0
  0
LINE
  5
F7
330
1F
100
AcDbEntity
  8
0
  6
Continuous
 62
     7
370
    25
100
AcDbLine
 10
605.4226276721
 20
518.3892956451
 30
0.0
 11
604.1070878232
 21
519.7890497946
 31
0.0
  0
LINE
  5
F8
330
1F
100
AcDbEntity
  8
0
  6
Continuous
 62
     7
370
    25
100
AcDbLine
 10
604.4714314093
 20
520.1314731455
 30
0.0
 11
604.1070878232
 21
519.7890497946
 31
0.0
  0
LINE
  5
F9
330
1F
100
AcDbEntity
  8
0
  6
Continuous
 62
     7
370
    25
100
AcDbLine
 10
631.0149697206
 20
513.5547982923
 30
0.0
 11
630.5362506068
 21
513.6991174182
 31
0.0
  0
ARC
  5
FA
330
1F
100
AcDbEntity
  8
0
  6
Continuous
 62
     7
370
    25
100
AcDbCircle
 10
630.5362506068
 20
513.6991174182
 30
0.0
 40
0.5000000000000329
100
AcDbArc
 50
316.1373625449
 51
343.2235523034
  0
LINE
  5
FB
330
1F
100
AcDbEntity
  8
0
  6
Continuous
 62
     7
370
    25
100
AcDbLine
 10
631.5694224487
 20
515.3939662959
 30
0.0
 11
631.0149697206
 21
513.5547982923
 31
0.0
  0
ARC
  5
FC
330
1F
100
AcDbEntity
  8
0
  6
Continuous
 62
     7
370
    25
100
AcDbCircle
 10
619.3607021634
 20
524.4395604719
 30
0.0
 40
15.50000000000005
100
AcDbArc
 50
190.309742062
 51
196.1373625449
  0
LINE
  5
FD
330
1F
100
AcDbEntity
  8
0
  6
Continuous
 62
     7
370
    25
100
AcDbLine
 10
604.4714314093
 20
520.1314731455
 30
0.0
 11
603.9911323528
 21
519.9925025866
 31
0.0
  0
ARC
  5
FE
330
1F
100
AcDbEntity
  8
0
  6
Continuous
 62
     7
370
    25
100
AcDbCircle
 10
619.3607021634
 20
524.4395604719
 30
0.0
 40
16.00000000000001
100
AcDbArc
 50
190.309742062
 51
196.1373625449
  0
LINE
  5
FF
330
1F
100
AcDbEntity
  8
0
  6
Continuous
 62
     7
370
    25
100
AcDbLine
 10
604.1109555258
 20
521.6655331669
 30
0.0
 11
603.6190282149
 21
521.5760484151
 31
0.0
  0
ARC
  5
100
330
1F
100
AcDbEntity
  8
0
  6
Continuous
 62
     7
370
    25
100
AcDbCircle
 10
604.4714314093
 20
520.1314731455
 30
0.0
 40
0.4999999999999656
100
AcDbArc
 50
196.1373625448
 51
223.2235523034
  0
LINE
  5
101
330
1F
100
AcDbEntity
  8
0
  6
Continuous
 62
     7
370
    25
100
AcDbLine
 10
604.6654082539
 20
523.5047011706
 30
0.0
 11
604.1109555258
 21
521.6655331669
 31
0.0
  0
ARC
  5
102
330
1F
100
AcDbEntity
  8
0
  6
Continuous
 62
     7
370
    25
100
AcDbCircle
 10
604.1109555258
 20
521.6655331669
 30
0.0
 40
0.5000000000000048
100
AcDbArc
 50
163.2235523034
 51
190.309742062
  0
LINE
  5
103
330
1F
100
AcDbEntity
  8
0
  6
Continuous
 62
     7
370
    25
100
AcDbLine
 10
604.1109555258
 20
521.6655331669
 30
0.0
 11
603.632236412
 21
521.8098522928
 31
0.0
  0
LINE
  5
104
330
1F
100
AcDbEntity
  8
0
  6
Continuous
 62
     7
370
    25
100
AcDbLine
 10
603.632236412
 20
521.8098522928
 30
0.0
 11
604.1866891401
 21
523.6490202964
 31
0.0
  0
LINE
  5
105
330
1F
100
AcDbEntity
  8
0
  6
Continuous
 62
     7
370
    25
100
AcDbLine
 10
634.0559960729
 20
525.3744197732
 30
0.0
 11
634.610448801
 21
527.2135877768
 31
0.0
  0
LINE
  5
106
330
1F
100
AcDbEntity
  8
0
  6
Continuous
 62
     7
370
    25
100
AcDbLine
 10
634.610448801
 20
527.2135877768
 30
0.0
 11
635.0891679148
 21
527.0692686509
 31
0.0
  0
LINE
  5
107
330
1F
100
AcDbEntity
  8
0
  6
Continuous
 62
     7
370
    25
100
AcDbLine
 10
635.0891679148
 20
527.0692686509
 30
0.0
 11
634.5347151867
 21
525.2301006473
 31
0.0
  0
LINE
  5
108
330
1F
100
AcDbEntity
  8
0
  6
Continuous
 62
     7
370
    25
100
AcDbLine
 10
634.2499729175
 20
528.7476477982
 30
0.0
 11
632.9344330686
 21
530.1474019478
 31
0.0
  0
ARC
  5
109
330
1F
100
AcDbEntity
  8
0
  6
Continuous
 62
     7
370
    25
100
AcDbCircle
 10
619.3607021634
 20
524.4395604719
 30
0.0
 40
15.50000000000007
100
AcDbArc
 50
10.309742062
 51
16.1373625448
  0
ARC
  5
10A
330
1F
100
AcDbEntity
  8
0
  6
Continuous
 62
     7
370
    25
100
AcDbCircle
 10
619.3607021634
 20
524.4395604719
 30
0.0
 40
16.00000000000009
100
AcDbArc
 50
10.309742062
 51
16.1373625449
  0
LINE
  5
10B
330
1F
100
AcDbEntity
  8
0
  6
Continuous
 62
     7
370
    25
100
AcDbLine
 10
635.1023761119
 20
527.3030725286
 30
0.0
 11
634.610448801
 21
527.2135877768
 31
0.0
  0
LINE
  5
10C
330
1F
100
AcDbEntity
  8
0
  6
Continuous
 62
     7
370
    25
100
AcDbLine
 10
634.7302719741
 20
528.8866183571
 30
0.0
 11
634.2499729175
 21
528.7476477982
 31
0.0
  0
LINE
  5
10D
330
1F
100
AcDbEntity
  8
0
  6
Continuous
 62
     7
370
    25
100
AcDbLine
 10
633.2987766548
 20
530.4898252987
 30
0.0
 11
634.6143165037
 21
529.0900711491
 31
0.0
  0
LINE
  5
10E
330
1F
100
AcDbEntity
  8
0
  6
Continuous
 62
     7
370
    25
100
AcDbLine
 10
634.6143165037
 20
529.0900711491
 30
0.0
 11
634.2499729175
 21
528.7476477982
 31
0.0
  0
ARC
  5
10F
330
1F
100
AcDbEntity
  8
0
  6
Continuous
 62
     7
370
    25
100
AcDbCircle
 10
634.2499729175
 20
528.7476477982
 30
0.0
 40
0.5000000000000013
100
AcDbArc
 50
16.1373625449
 51
43.2235523034
  0
ARC
  5
110
330
1F
100
AcDbEntity
  8
0
  6
Continuous
 62
     7
370
    25
100
AcDbCircle
 10
634.610448801
 20
527.2135877768
 30
0.0
 40
0.5000000000000252
100
AcDbArc
 50
343.2235523034
 51
10.309742062
  0
ARC
  5
111
330
1F
100
AcDbEntity
  8
0
  6
Continuous
 62
     7
370
    25
100
AcDbCircle
 10
608.18515372
 20
535.1800035255
 30
0.0
 40
0.5000000000000656
100
AcDbArc
 50
136.1373625448
 51
163.2235523034
  0
LINE
  5
112
330
1F
100
AcDbEntity
  8
0
  6
Continuous
 62
     7
370
    25
100
AcDbLine
 10
608.18515372
 20
535.1800035255
 30
0.0
 11
607.8246521573
 21
535.5264694305
 31
0.0
  0
LINE
  5
113
330
1F
100
AcDbEntity
  8
0
  6
Continuous
 62
     7
370
    25
100
AcDbLine
 10
607.7064346063
 20
535.3243226514
 30
0.0
 11
608.18515372
 21
535.1800035255
 31
0.0
  0
LINE
  5
114
330
1F
100
AcDbEntity
  8
0
  6
Continuous
 62
     7
370
    25
100
AcDbLine
 10
611.2034433048
 20
536.6986286629
 30
0.0
 11
609.3334507278
 21
536.2592148088
 31
0.0
  0
LINE
  5
115
330
1F
100
AcDbEntity
  8
0
  6
Continuous
 62
     7
370
    25
100
AcDbLine
 10
609.3334507278
 20
536.2592148088
 30
0.0
 11
609.2190752001
 21
536.7459572856
 31
0.0
  0
LINE
  5
116
330
1F
100
AcDbEntity
  8
0
  6
Continuous
 62
     7
370
    25
100
AcDbLine
 10
609.2190752001
 20
536.7459572856
 30
0.0
 11
611.0890677772
 21
537.1853711397
 31
0.0
  0
LINE
  5
117
330
1F
100
AcDbEntity
  8
0
  6
Continuous
 62
     7
370
    25
100
AcDbLine
 10
625.8987372143
 20
537.6334879642
 30
0.0
 11
624.5831973654
 21
539.0332421138
 31
0.0
  0
LINE
  5
118
330
1F
100
AcDbEntity
  8
0
  6
Continuous
 62
     7
370
    25
100
AcDbLine
 10
623.0744244741
 20
539.4880908519
 30
0.0
 11
621.2044318971
 21
539.0486769978
 31
0.0
  0
ARC
  5
119
330
1F
100
AcDbEntity
  8
0
  6
Continuous
 62
     7
370
    25
100
AcDbCircle
 10
619.3607021634
 20
524.4395604719
 30
0.0
 40
15.50000000000005
100
AcDbArc
 50
70.309742062
 51
76.1373625449
  0
ARC
  5
11A
330
1F
100
AcDbEntity
  8
0
  6
Continuous
 62
     7
370
    25
100
AcDbCircle
 10
619.3607021634
 20
524.4395604719
 30
0.0
 40
15.50000000000011
100
AcDbArc
 50
130.309742062
 51
136.1373625449
  0
ARC
  5
11B
330
1F
100
AcDbEntity
  8
0
  6
Continuous
 62
     7
370
    25
100
AcDbCircle
 10
619.3607021634
 20
524.4395604719
 30
0.0
 40
15.99999999999999
100
AcDbArc
 50
130.309742062
 51
136.1373625448
  0
LINE
  5
11C
330
1F
100
AcDbEntity
  8
0
  6
Continuous
 62
     7
370
    25
100
AcDbLine
 10
609.3334507278
 20
536.2592148088
 30
0.0
 11
609.009991004
 21
536.640493981
 31
0.0
  0
LINE
  5
11D
330
1F
100
AcDbEntity
  8
0
  6
Continuous
 62
     7
370
    25
100
AcDbLine
 10
607.1519818781
 20
533.4851546478
 30
0.0
 11
607.7064346063
 21
535.3243226514
 31
0.0
  0
LINE
  5
11E
330
1F
100
AcDbEntity
  8
0
  6
Continuous
 62
     7
370
    25
100
AcDbLine
 10
608.18515372
 20
535.1800035255
 30
0.0
 11
607.6307009919
 21
533.3408355219
 31
0.0
  0
ARC
  5
11F
330
1F
100
AcDbEntity
  8
0
  6
Continuous
 62
     7
370
    25
100
AcDbCircle
 10
609.3334507278
 20
536.2592148088
 30
0.0
 40
0.4999999999999092
100
AcDbArc
 50
103.2235523034
 51
130.309742062
  0
LINE
  5
120
330
1F
100
AcDbEntity
  8
0
  6
Continuous
 62
     7
370
    25
100
AcDbLine
 10
624.5831973654
 20
539.0332421138
 30
0.0
 11
624.9475409515
 21
539.3756654647
 31
0.0
  0
LINE
  5
121
330
1F
100
AcDbEntity
  8
0
  6
Continuous
 62
     7
370
    25
100
AcDbLine
 10
624.9475409515
 20
539.3756654647
 30
0.0
 11
626.2630808004
 21
537.9759113151
 31
0.0
  0
LINE
  5
122
330
1F
100
AcDbEntity
  8
0
  6
Continuous
 62
     7
370
    25
100
AcDbLine
 10
621.0900563695
 20
539.5354194746
 30
0.0
 11
622.9600489465
 21
539.9748333287
 31
0.0
  0
LINE
  5
123
330
1F
100
AcDbEntity
  8
0
  6
Continuous
 62
     7
370
    25
100
AcDbLine
 10
622.9600489465
 20
539.9748333287
 30
0.0
 11
623.0744244741
 21
539.4880908519
 31
0.0
  0
ARC
  5
124
330
1F
100
AcDbEntity
  8
0
  6
Continuous
 62
     7
370
    25
100
AcDbCircle
 10
619.3607021634
 20
524.4395604719
 30
0.0
 40
16.00000000000008
100
AcDbArc
 50
70.309742062
 51
76.1373625448
  0
LINE
  5
125
330
1F
100
AcDbEntity
  8
0
  6
Continuous
 62
     7
370
    25
100
AcDbLine
 10
624.7516649525
 20
539.5040060377
 30
0.0
 11
624.5831973654
 21
539.0332421138
 31
0.0
  0
LINE
  5
126
330
1F
100
AcDbEntity
  8
0
  6
Continuous
 62
     7
370
    25
100
AcDbLine
 10
623.0744244741
 20
539.4880908519
 30
0.0
 11
623.194221968
 21
539.9735273158
 31
0.0
  0
ARC
  5
127
330
1F
100
AcDbEntity
  8
0
  6
Continuous
 62
     7
370
    25
100
AcDbCircle
 10
623.0744244741
 20
539.4880908519
 30
0.0
 40
0.500000000000021
100
AcDbArc
 50
76.1373625448
 51
103.2235523034
  0
ARC
  5
128
330
1F
100
AcDbEntity
  8
0
  6
Continuous
 62
     7
370
    25
100
AcDbCircle
 10
624.5831973654
 20
539.0332421138
 30
0.0
 40
0.5000000000000627
100
AcDbArc
 50
43.2235523034
 51
70.309742062
  0
ARC
  5
129
330
1F
100
AcDbEntity
  8
0
  6
Continuous
 62
     7
370
    25
100
AcDbCircle
 10
619.3607021634
 20
524.4395604719
 30
0.0
 40
8.050000000000098
100
AcDbArc
 50
348.9219835539
 51
191.0780164461
  0
ARC
  5
12A
330
1F
100
AcDbEntity
  8
0
  6
Continuous
 62
     7
370
    25
100
AcDbCircle
 10
619.3607021634
 20
524.4395604719
 30
0.0
 40
8.250000000000124
100
AcDbArc
 50
343.2508741362
 51
196.7491258638
  0
ARC
  5
12B
330
1F
100
AcDbEntity
  8
0
  6
Continuous
 62
     7
370
    25
100
AcDbCircle
 10
619.3607021634
 20
524.4395604719
 30
0.0
 40
9.575000000000028
100
AcDbArc
 50
325.5951096848
 51
214.4048903152
  0
ARC
  5
12C
330
1F
100
AcDbEntity
  8
0
  6
Continuous
 62
     7
370
    25
100
AcDbCircle
 10
619.3607021634
 20
372.0395604719
 30
0.0
 40
7.900000000000091
100
AcDbArc
 50
180.0
 51
0.0
  0
ARC
  5
12D
330
1F
100
AcDbEntity
  8
0
  6
Continuous
 62
     7
370
    25
100
AcDbCircle
 10
619.3607021634
 20
524.4395604719
 30
0.0
 40
7.900000000000091
100
AcDbArc
 50
0.0
 51
180.0
  0
ARC
  5
12E
330
1F
100
AcDbEntity
  8
0
  6
Continuous
 62
     7
370
    25
100
AcDbCircle
 10
619.3607021634
 20
372.0395604719
 30
0.0
 40
10.82499999999998
100
AcDbArc
 50
136.8689719021
 51
180.0
  0
ARC
  5
12F
330
1F
100
AcDbEntity
  8
0
  6
Continuous
 62
     7
370
    25
100
AcDbCircle
 10
619.3607021634
 20
372.0395604719
 30
0.0
 40
10.82499999999998
100
AcDbArc
 50
180.0
 51
43.1310280979
  0
LWPOLYLINE
  5
130
330
1F
100
AcDbEntity
  8
0
  6
Continuous
 62
     7
370
    25
100
AcDbPolyline
 90
       22
 70
   128
 43
0.0
 10
624.4309836692
 20
530.3668235477
 10
626.1333303212
 20
528.5066857264
 10
627.0978695618
 20
526.0352548816
 10
627.1898329325
 20
523.3837615322
 10
626.3988407202
 20
520.8514403991
 10
624.8140595703
 20
518.7237146908
 10
622.6142927002
 20
517.2406613464
 10
620.0475987381
 20
516.5694795895
 10
617.4033794309
 20
516.7858758873
 10
614.9799768242
 20
517.8654258899
 10
613.0505469647
 20
519.6864623909
 10
611.8328364622
 20
522.0434724134
 10
611.4640868104
 20
524.6707875589
 10
611.9859142949
 20
527.2719629671
 10
613.339449595
 20
529.5537092287
 10
615.3720917272
 20
531.2587236748
 10
617.8545016224
 20
532.1946465404
 10
620.506880058
 20
532.255971172
 10
623.0298926553
 20
531.4357766731
 10
625.139171131
 20
529.826516606
 10
625.4896708246
 20
529.424110918
 10
625.4896708246
 20
529.424110918
  0
CIRCLE
  5
131
330
1F
100
AcDbEntity
  8
0
  6
Continuous
 62
     7
370
    25
100
AcDbCircle
 10
720.9607021634
 20
524.4395604719
 30
0.0
 40
5.328914336627577
  0
CIRCLE
  5
132
330
1F
100
AcDbEntity
  8
0
  6
Continuous
 62
     7
370
    25
100
AcDbCircle
 10
720.9607021634
 20
524.4395604719
 30
0.0
 40
5.925127771161442
  0
CIRCLE
  5
133
330
1F
100
AcDbEntity
  8
0
  6
Continuous
 62
     7
370
    25
100
AcDbCircle
 10
720.9607021634
 20
524.4395604719
 30
0.0
 40
4.452105871057256
  0
CIRCLE
  5
134
330
1F
100
AcDbEntity
  8
0
  6
Continuous
 62
     7
370
    25
100
AcDbCircle
 10
720.9607021634
 20
524.4395604719
 30
0.0
 40
5.074569253689219
  0
CIRCLE
  5
135
330
1F
100
AcDbEntity
  8
0
  6
Continuous
 62
     7
370
    25
100
AcDbCircle
 10
720.9607021634
 20
524.4395604719
 30
0.0
 40
7.149999999999977
  0
LINE
  5
136
330
1F
100
AcDbEntity
  8
0
  6
Continuous
 62
     7
370
    25
100
AcDbLine
 10
518.9240597728
 20
522.0381860586
 30
0.0
 11
517.7541292043
 21
521.7712357547
 31
0.0
  0
LINE
  5
137
330
1F
100
AcDbEntity
  8
0
  6
Continuous
 62
     7
370
    25
100
AcDbLine
 10
518.6459865396
 20
523.2568637342
 30
0.0
 11
518.9240597728
 21
522.0381860586
 31
0.0
  0
LINE
  5
138
330
1F
100
AcDbEntity
  8
0
  6
Continuous
 62
     7
370
    25
100
AcDbLine
 10
520.4290268806
 20
524.4329875127
 30
0.0
 11
519.210349205
 21
524.1549142795
 31
0.0
  0
LINE
  5
139
330
1F
100
AcDbEntity
  8
0
  6
Continuous
 62
     7
370
    25
100
AcDbLine
 10
520.1620765767
 20
525.6029180813
 30
0.0
 11
520.4290268806
 21
524.4329875127
 31
0.0
  0
LINE
  5
13A
330
1F
100
AcDbEntity
  8
0
  6
Continuous
 62
     7
370
    25
100
AcDbLine
 10
518.9433989011
 20
525.324844848
 30
0.0
 11
520.1620765767
 21
525.6029180813
 31
0.0
  0
LINE
  5
13B
330
1F
100
AcDbEntity
  8
0
  6
Continuous
 62
     7
370
    25
100
AcDbLine
 10
517.7672751226
 20
527.107885189
 30
0.0
 11
518.0453483558
 21
525.8892075134
 31
0.0
  0
LINE
  5
13C
330
1F
100
AcDbEntity
  8
0
  6
Continuous
 62
     7
370
    25
100
AcDbLine
 10
516.597344554
 20
526.8409348851
 30
0.0
 11
517.7672751226
 21
527.107885189
 31
0.0
  0
LINE
  5
13D
330
1F
100
AcDbEntity
  8
0
  6
Continuous
 62
     7
370
    25
100
AcDbLine
 10
516.8754177873
 20
525.6222572095
 30
0.0
 11
516.597344554
 21
526.8409348851
 31
0.0
  0
LINE
  5
13E
330
1F
100
AcDbEntity
  8
0
  6
Continuous
 62
     7
370
    25
100
AcDbLine
 10
515.0923774463
 20
524.446133431
 30
0.0
 11
516.3110551219
 21
524.7242066643
 31
0.0
  0
LINE
  5
13F
330
1F
100
AcDbEntity
  8
0
  6
Continuous
 62
     7
370
    25
100
AcDbLine
 10
515.3593277502
 20
523.2762028625
 30
0.0
 11
515.0923774463
 21
524.446133431
 31
0.0
  0
LINE
  5
140
330
1F
100
AcDbEntity
  8
0
  6
Continuous
 62
     7
370
    25
100
AcDbLine
 10
516.5780054258
 20
523.5542760957
 30
0.0
 11
515.3593277502
 21
523.2762028625
 31
0.0
  0
LINE
  5
141
330
1F
100
AcDbEntity
  8
0
  6
Continuous
 62
     7
370
    25
100
AcDbLine
 10
517.7541292043
 20
521.7712357547
 30
0.0
 11
517.476055971
 21
522.9899134303
 31
0.0
  0
CIRCLE
  5
142
330
1F
100
AcDbEntity
  8
0
  6
Continuous
 62
     7
370
    25
100
AcDbCircle
 10
517.7607021634
 20
524.4395604719
 30
0.0
 40
4.197433366238919
  0
SPLINE
  5
143
330
1F
100
AcDbEntity
  8
0
  6
Continuous
 62
     7
370
    25
100
AcDbSpline
210
0.0
220
0.0
230
1.0
 70
     8
 71
     3
 72
    12
 73
     8
 74
     0
 42
0.00000001
 43
0.00000001
 40
0.0
 40
0.0
 40
0.0
 40
0.0
 40
0.213353439547612
 40
0.426791931363448
 40
0.63835397390915
 40
0.8490950351927569
 40
1.0
 40
1.0
 40
1.0
 40
1.0
 10
516.3110551218538
 20
524.7242066642605
 30
0.0
 10
516.3906544727827
 20
524.750679126723
 30
0.0
 10
516.5498849065189
 20
524.8036346047609
 30
0.0
 10
516.7397713237858
 20
524.9776377398916
 30
0.0
 10
516.8629327105077
 20
525.1979506333467
 30
0.0
 10
516.9063389673173
 20
525.42425341653
 30
0.0
 10
516.8845215831235
 20
525.5639610479009
 30
0.0
 10
516.8754177872668
 20
525.6222572095461
 30
0.0
  0
SPLINE
  5
144
330
1F
100
AcDbEntity
  8
0
  6
Continuous
 62
     7
370
    25
100
AcDbSpline
210
0.0
220
0.0
230
1.0
 70
     8
 71
     3
 72
    12
 73
     8
 74
     0
 42
0.00000001
 43
0.00000001
 40
0.0
 40
0.0
 40
0.0
 40
0.0
 40
0.2133534395476119
 40
0.4267919313634478
 40
0.6383539739091497
 40
0.849095035192757
 40
0.9999999999999999
 40
0.9999999999999999
 40
0.9999999999999999
 40
0.9999999999999999
 10
519.2103492050095
 20
524.1549142794723
 30
0.0
 10
519.1307498540805
 20
524.1284418170101
 30
0.0
 10
518.9715194203444
 20
524.075486338972
 30
0.0
 10
518.7816330030774
 20
523.9014832038412
 30
0.0
 10
518.6584716163554
 20
523.681170310386
 30
0.0
 10
518.615065359546
 20
523.454867527203
 30
0.0
 10
518.6368827437398
 20
523.3151598958319
 30
0.0
 10
518.6459865395965
 20
523.2568637341867
 30
0.0
  0
SPLINE
  5
145
330
1F
100
AcDbEntity
  8
0
  6
Continuous
 62
     7
370
    25
100
AcDbSpline
210
0.0
220
0.0
230
1.0
 70
     8
 71
     3
 72
    12
 73
     8
 74
     0
 42
0.00000001
 43
0.00000001
 40
0.0
 40
0.0
 40
0.0
 40
0.0
 40
0.2133534395476155
 40
0.4267919313634422
 40
0.6383539739091563
 40
0.8490950351927579
 40
0.9999999999999999
 40
0.9999999999999999
 40
0.9999999999999999
 40
0.9999999999999999
 10
517.4760559710377
 20
522.9899134302885
 30
0.0
 10
517.4495835085752
 20
523.0695127812174
 30
0.0
 10
517.3966280305372
 20
523.2287432149536
 30
0.0
 10
517.2226248954065
 20
523.4186296322206
 30
0.0
 10
517.0023120019514
 20
523.5417910189426
 30
0.0
 10
516.7760092187681
 20
523.5851972757522
 30
0.0
 10
516.6363015873972
 20
523.5633798915583
 30
0.0
 10
516.5780054257518
 20
523.5542760957015
 30
0.0
  0
SPLINE
  5
146
330
1F
100
AcDbEntity
  8
0
  6
Continuous
 62
     7
370
    25
100
AcDbSpline
210
0.0
220
0.0
230
1.0
 70
     8
 71
     3
 72
    12
 73
     8
 74
     0
 42
0.00000001
 43
0.00000001
 40
0.0
 40
0.0
 40
0.0
 40
0.0
 40
0.2133534395476159
 40
0.4267919313634425
 40
0.6383539739091564
 40
0.849095035192758
 40
1.0
 40
1.0
 40
1.0
 40
1.0
 10
518.0453483558256
 20
525.8892075134444
 30
0.0
 10
518.0718208182881
 20
525.8096081625154
 30
0.0
 10
518.124776296326
 20
525.6503777287792
 30
0.0
 10
518.2987794314569
 20
525.4604913115123
 30
0.0
 10
518.5190923249119
 20
525.3373299247903
 30
0.0
 10
518.7453951080952
 20
525.2939236679808
 30
0.0
 10
518.8851027394661
 20
525.3157410521745
 30
0.0
 10
518.9433989011114
 20
525.3248448480314
 30
0.0
  0
LINE
  5
147
330
1F
100
AcDbEntity
  8
0
  6
Continuous
 62
     7
370
    25
100
AcDbLine
 10
720.9541292043
 20
527.107885189
 30
0.0
 11
722.1240597728
 21
526.8409348851
 31
0.0
  0
LINE
  5
148
330
1F
100
AcDbEntity
  8
0
  6
Continuous
 62
     7
370
    25
100
AcDbLine
 10
720.676055971
 20
525.8892075134
 30
0.0
 11
720.9541292043
 21
527.107885189
 31
0.0
  0
LINE
  5
149
330
1F
100
AcDbEntity
  8
0
  6
Continuous
 62
     7
370
    25
100
AcDbLine
 10
718.5593277502
 20
525.6029180813
 30
0.0
 11
719.7780054258
 21
525.324844848
 31
0.0
  0
LINE
  5
14A
330
1F
100
AcDbEntity
  8
0
  6
Continuous
 62
     7
370
    25
100
AcDbLine
 10
718.2923774463
 20
524.4329875127
 30
0.0
 11
718.5593277502
 21
525.6029180813
 31
0.0
  0
LINE
  5
14B
330
1F
100
AcDbEntity
  8
0
  6
Continuous
 62
     7
370
    25
100
AcDbLine
 10
719.5110551219
 20
524.1549142795
 30
0.0
 11
718.2923774463
 21
524.4329875127
 31
0.0
  0
LINE
  5
14C
330
1F
100
AcDbEntity
  8
0
  6
Continuous
 62
     7
370
    25
100
AcDbLine
 10
719.797344554
 20
522.0381860586
 30
0.0
 11
720.0754177873
 21
523.2568637342
 31
0.0
  0
LINE
  5
14D
330
1F
100
AcDbEntity
  8
0
  6
Continuous
 62
     7
370
    25
100
AcDbLine
 10
720.9672751226
 20
521.7712357547
 30
0.0
 11
719.797344554
 21
522.0381860586
 31
0.0
  0
LINE
  5
14E
330
1F
100
AcDbEntity
  8
0
  6
Continuous
 62
     7
370
    25
100
AcDbLine
 10
721.2453483558
 20
522.9899134303
 30
0.0
 11
720.9672751226
 21
521.7712357547
 31
0.0
  0
LINE
  5
14F
330
1F
100
AcDbEntity
  8
0
  6
Continuous
 62
     7
370
    25
100
AcDbLine
 10
723.3620765767
 20
523.2762028625
 30
0.0
 11
722.1433989011
 21
523.5542760957
 31
0.0
  0
LINE
  5
150
330
1F
100
AcDbEntity
  8
0
  6
Continuous
 62
     7
370
    25
100
AcDbLine
 10
723.6290268806
 20
524.446133431
 30
0.0
 11
723.3620765767
 21
523.2762028625
 31
0.0
  0
LINE
  5
151
330
1F
100
AcDbEntity
  8
0
  6
Continuous
 62
     7
370
    25
100
AcDbLine
 10
722.410349205
 20
524.7242066643
 30
0.0
 11
723.6290268806
 21
524.446133431
 31
0.0
  0
LINE
  5
152
330
1F
100
AcDbEntity
  8
0
  6
Continuous
 62
     7
370
    25
100
AcDbLine
 10
722.1240597728
 20
526.8409348851
 30
0.0
 11
721.8459865396
 21
525.6222572095
 31
0.0
  0
CIRCLE
  5
153
330
1F
100
AcDbEntity
  8
0
  6
Continuous
 62
     7
370
    25
100
AcDbCircle
 10
720.9607021634
 20
524.4395604719
 30
0.0
 40
4.197433366238919
  0
SPLINE
  5
154
330
1F
100
AcDbEntity
  8
0
  6
Continuous
 62
     7
370
    25
100
AcDbSpline
210
0.0
220
0.0
230
1.0
 70
     8
 71
     3
 72
    12
 73
     8
 74
     0
 42
0.00000001
 43
0.00000001
 40
0.0
 40
0.0
 40
0.0
 40
0.0
 40
0.2133534395476132
 40
0.4267919313634478
 40
0.638353973909154
 40
0.8490950351927532
 40
1.0
 40
1.0
 40
1.0
 40
1.0
 10
720.0754177872668
 20
523.2568637341867
 30
0.0
 10
720.0860931450079
 20
523.3400676083407
 30
0.0
 10
720.1074481161677
 20
523.5065085254519
 30
0.0
 10
720.0330338002568
 20
523.7530778911188
 30
0.0
 10
719.8879500477567
 20
523.9596140936653
 30
0.0
 10
719.7028739955709
 20
524.0968872072527
 30
0.0
 10
719.5675303231541
 20
524.1378299825992
 30
0.0
 10
719.5110551218538
 20
524.1549142794723
 30
0.0
  0
SPLINE
  5
155
330
1F
100
AcDbEntity
  8
0
  6
Continuous
 62
     7
370
    25
100
AcDbSpline
210
0.0
220
0.0
230
1.0
 70
     8
 71
     3
 72
    12
 73
     8
 74
     0
 42
0.00000001
 43
0.00000001
 40
0.0
 40
0.0
 40
0.0
 40
0.0
 40
0.2133534395476136
 40
0.4267919313634463
 40
0.6383539739091494
 40
0.8490950351927551
 40
1.0
 40
1.0
 40
1.0
 40
1.0
 10
722.1433989011115
 20
523.5542760957015
 30
0.0
 10
722.0601950269574
 20
523.5649514534427
 30
0.0
 10
721.8937541098462
 20
523.5863064246023
 30
0.0
 10
721.6471847441794
 20
523.5118921086917
 30
0.0
 10
721.4406485416329
 20
523.3668083561915
 30
0.0
 10
721.3033754280453
 20
523.1817323040058
 30
0.0
 10
721.262432652699
 20
523.0463886315889
 30
0.0
 10
721.2453483558256
 20
522.9899134302885
 30
0.0
  0
SPLINE
  5
156
330
1F
100
AcDbEntity
  8
0
  6
Continuous
 62
     7
370
    25
100
AcDbSpline
210
0.0
220
0.0
230
1.0
 70
     8
 71
     3
 72
    12
 73
     8
 74
     0
 42
0.00000001
 43
0.00000001
 40
0.0
 40
0.0
 40
0.0
 40
0.0
 40
0.2133534395476131
 40
0.4267919313634476
 40
0.6383539739091537
 40
0.8490950351927532
 40
1.0
 40
1.0
 40
1.0
 40
1.0
 10
721.8459865395965
 20
525.6222572095461
 30
0.0
 10
721.8353111818554
 20
525.539053335392
 30
0.0
 10
721.8139562106958
 20
525.372612418281
 30
0.0
 10
721.8883705266065
 20
525.1260430526141
 30
0.0
 10
722.0334542791065
 20
524.9195068500676
 30
0.0
 10
722.2185303312923
 20
524.7822337364802
 30
0.0
 10
722.3538740037092
 20
524.7412909611337
 30
0.0
 10
722.4103492050095
 20
524.7242066642605
 30
0.0
  0
SPLINE
  5
157
330
1F
100
AcDbEntity
  8
0
  6
Continuous
 62
     7
370
    25
100
AcDbSpline
210
0.0
220
0.0
230
1.0
 70
     8
 71
     3
 72
    12
 73
     8
 74
     0
 42
0.00000001
 43
0.00000001
 40
0.0
 40
0.0
 40
0.0
 40
0.0
 40
0.2133534395476135
 40
0.4267919313634461
 40
0.638353973909149
 40
0.8490950351927548
 40
0.9999999999999999
 40
0.9999999999999999
 40
0.9999999999999999
 40
0.9999999999999999
 10
719.7780054257519
 20
525.3248448480314
 30
0.0
 10
719.8612092999059
 20
525.3141694902902
 30
0.0
 10
720.0276502170171
 20
525.2928145191305
 30
0.0
 10
720.274219582684
 20
525.3672288350413
 30
0.0
 10
720.4807557852304
 20
525.5123125875413
 30
0.0
 10
720.618028898818
 20
525.6973886397271
 30
0.0
 10
720.6589716741644
 20
525.832732312144
 30
0.0
 10
720.6760559710377
 20
525.8892075134444
 30
0.0
  0
CIRCLE
  5
158
330
1F
100
AcDbEntity
  8
0
  6
Continuous
 62
     7
370
    25
100
AcDbCircle
 10
517.7607021634
 20
524.4395604719
 30
0.0
 40
5.32891433662769
  0
CIRCLE
  5
159
330
1F
100
AcDbEntity
  8
0
  6
Continuous
 62
     7
370
    25
100
AcDbCircle
 10
517.7607021634
 20
524.4395604719
 30
0.0
 40
5.925127771161328
  0
CIRCLE
  5
15A
330
1F
100
AcDbEntity
  8
0
  6
Continuous
 62
     7
370
    25
100
AcDbCircle
 10
517.7607021634
 20
524.4395604719
 30
0.0
 40
4.452105871057256
  0
CIRCLE
  5
15B
330
1F
100
AcDbEntity
  8
0
  6
Continuous
 62
     7
370
    25
100
AcDbCircle
 10
517.7607021634
 20
524.4395604719
 30
0.0
 40
5.074569253689219
  0
CIRCLE
  5
15C
330
1F
100
AcDbEntity
  8
0
  6
Continuous
 62
     7
370
    25
100
AcDbCircle
 10
517.7607021634
 20
524.4395604719
 30
0.0
 40
7.149999999999977
  0
SPLINE
  5
15D
330
1F
100
AcDbEntity
  8
0
  6
Continuous
 62
     7
370
    25
100
AcDbSpline
210
0.0
220
0.0
230
1.0
 70
     8
 71
     3
 72
    11
 73
     7
 74
     0
 42
0.00000001
 43
0.00000001
 40
0.0
 40
0.0
 40
0.0
 40
0.0
 40
0.2200386424382255
 40
0.6637869905998169
 40
0.8890365590789576
 40
1.0
 40
1.0
 40
1.0
 40
1.0
 10
511.0831120188397
 20
518.6646634537439
 30
0.0
 10
510.8788905558382
 20
518.9296820650027
 30
0.0
 10
510.2628189929547
 20
519.7291593953074
 30
0.0
 10
509.7392696419375
 20
520.9923286658352
 30
0.0
 10
509.4876404421764
 20
522.1588984791593
 30
0.0
 10
509.5083476368987
 20
522.6701782778186
 30
0.0
 10
509.5151818209247
 20
522.838920605291
 30
0.0
  0
SPLINE
  5
15E
330
1F
100
AcDbEntity
  8
0
  6
Continuous
 62
     7
370
    25
100
AcDbSpline
210
0.0
220
0.0
230
1.0
 70
     8
 71
     3
 72
     9
 73
     5
 74
     0
 42
0.00000001
 43
0.00000001
 40
0.0
 40
0.0
 40
0.0
 40
0.0
 40
0.9209630919903056
 40
1.0
 40
1.0
 40
1.0
 40
1.0
 10
509.4430696555924
 20
518.9849867293773
 30
0.0
 10
509.9574911934652
 20
518.9281596704587
 30
0.0
 10
510.51606030698
 20
518.8664557222628
 30
0.0
 10
511.0415768186494
 20
518.6794442613748
 30
0.0
 10
511.0831120188397
 20
518.6646634537439
 30
0.0
  0
SPLINE
  5
15F
330
1F
100
AcDbEntity
  8
0
  6
Continuous
 62
     7
370
    25
100
AcDbSpline
210
0.0
220
0.0
230
1.0
 70
     8
 71
     3
 72
    10
 73
     6
 74
     0
 42
0.00000001
 43
0.00000001
 40
0.0
 40
0.0
 40
0.0
 40
0.0
 40
0.2596150688488836
 40
0.629760644481066
 40
0.9999999999999999
 40
0.9999999999999999
 40
0.9999999999999999
 40
0.9999999999999999
 10
462.2679087016552
 20
521.5765442983665
 30
0.0
 10
466.3457289203782
 20
521.2767901612681
 30
0.0
 10
476.2374917537435
 20
520.5496622661038
 30
0.0
 10
491.9670644364167
 20
519.7238153962137
 30
0.0
 10
503.6172426976814
 20
519.2312837469481
 30
0.0
 10
509.4430696555924
 20
518.9849867293773
 30
0.0
  0
SPLINE
  5
160
330
1F
100
AcDbEntity
  8
0
  6
Continuous
 62
     7
370
    25
100
AcDbSpline
210
0.0
220
0.0
230
1.0
 70
     8
 71
     3
 72
    11
 73
     7
 74
     0
 42
0.00000001
 43
0.00000001
 40
0.0
 40
0.0
 40
0.0
 40
0.0
 40
0.061464119541392
 40
0.4999988937835378
 40
0.9375097801832794
 40
1.0
 40
1.0
 40
1.0
 40
1.0
 10
462.2679087016554
 20
527.3025766453683
 30
0.0
 10
462.256239505453
 20
527.1861196729163
 30
0.0
 10
462.1613128191836
 20
526.238764405585
 30
0.0
 10
462.0776099919175
 20
524.4415202071368
 30
0.0
 10
462.1611799154375
 20
522.642322182896
 30
0.0
 10
462.2560516204829
 20
521.6949473584629
 30
0.0
 10
462.2679087016552
 20
521.5765442983665
 30
0.0
  0
SPLINE
  5
161
330
1F
100
AcDbEntity
  8
0
  6
Continuous
 62
     7
370
    25
100
AcDbSpline
210
0.0
220
0.0
230
1.0
 70
     8
 71
     3
 72
    11
 73
     7
 74
     0
 42
0.00000001
 43
0.00000001
 40
0.0
 40
0.0
 40
0.0
 40
0.0
 40
0.259458927729189
 40
0.6296002946237427
 40
0.8147836738016297
 40
1.0
 40
1.0
 40
1.0
 40
1.0
 10
509.4430696555924
 20
529.8941342143555
 30
0.0
 10
505.3600690062474
 20
529.7286356279346
 30
0.0
 10
495.452302739443
 20
529.327038505483
 30
0.0
 10
482.637165780482
 20
528.6487856894597
 30
0.0
 10
470.9928935142224
 20
527.9713647972475
 30
0.0
 10
465.1764094310898
 20
527.5255192486352
 30
0.0
 10
462.2679087016554
 20
527.3025766453683
 30
0.0
  0
SPLINE
  5
162
330
1F
100
AcDbEntity
  8
0
  6
Continuous
 62
     7
370
    25
100
AcDbSpline
210
0.0
220
0.0
230
1.0
 70
     8
 71
     3
 72
     9
 73
     5
 74
     0
 42
0.00000001
 43
0.00000001
 40
0.0
 40
0.0
 40
0.0
 40
0.0
 40
0.0790369080192139
 40
1.0
 40
1.0
 40
1.0
 40
1.0
 10
511.083112018839
 20
530.2144574899888
 30
0.0
 10
511.0415768186436
 20
530.1996766823561
 30
0.0
 10
510.5160603069744
 20
530.0126652214683
 30
0.0
 10
509.9574911934598
 20
529.9509612732729
 30
0.0
 10
509.4430696555924
 20
529.8941342143555
 30
0.0
  0
SPLINE
  5
163
330
1F
100
AcDbEntity
  8
0
  6
Continuous
 62
     7
370
    25
100
AcDbSpline
210
0.0
220
0.0
230
1.0
 70
     8
 71
     3
 72
    11
 73
     7
 74
     0
 42
0.00000001
 43
0.00000001
 40
0.0
 40
0.0
 40
0.0
 40
0.0
 40
0.0728838064943292
 40
0.4140719411596029
 40
0.9209668754550567
 40
1.0
 40
1.0
 40
1.0
 40
1.0
 10
509.5151818209285
 20
526.040200338427
 30
0.0
 10
509.5074666717908
 20
526.1506467726659
 30
0.0
 10
509.4636348944263
 20
526.778121812997
 30
0.0
 10
509.8081266058643
 20
528.1611138434621
 30
0.0
 10
510.4478159553508
 20
529.4310453612396
 30
0.0
 10
511.0076047047834
 20
530.1213460274125
 30
0.0
 10
511.083112018839
 20
530.2144574899888
 30
0.0
  0
SPLINE
  5
164
330
1F
100
AcDbEntity
  8
0
  6
Continuous
 62
     7
370
    25
100
AcDbSpline
210
0.0
220
0.0
230
1.0
 70
     8
 71
     3
 72
    10
 73
     6
 74
     0
 42
0.00000001
 43
0.00000001
 40
0.0
 40
0.0
 40
0.0
 40
0.0
 40
0.3880207377811389
 40
0.979063776650686
 40
1.0
 40
1.0
 40
1.0
 40
1.0
 10
509.5151818209247
 20
522.838920605291
 30
0.0
 10
509.5884963516841
 20
523.2497604671468
 30
0.0
 10
509.7734854370074
 20
524.286402036995
 30
0.0
 10
509.6777785111765
 20
525.3801713585664
 30
0.0
 10
509.5205603599285
 20
526.0183672272858
 30
0.0
 10
509.5151818209285
 20
526.040200338427
 30
0.0
  0
ARC
  5
165
330
1F
100
AcDbEntity
  8
0
  6
Continuous
 62
     7
370
    25
100
AcDbCircle
 10
517.7607021634
 20
524.4395604719
 30
0.0
 40
8.399443654264582
100
AcDbArc
 50
190.985757993
 51
169.0142420071
  0
SPLINE
  5
166
330
1F
100
AcDbEntity
  8
0
  6
Continuous
 62
     7
370
    25
100
AcDbSpline
210
0.0
220
0.0
230
1.0
 70
     8
 71
     3
 72
     9
 73
     5
 74
     0
 42
0.00000001
 43
0.00000001
 40
0.0
 40
0.0
 40
0.0
 40
0.0
 40
0.6817923421274312
 40
1.0
 40
1.0
 40
1.0
 40
1.0
 10
511.083112018839
 20
530.2144574899888
 30
0.0
 10
511.225375579482
 20
530.404367845094
 30
0.0
 10
511.4340367096424
 20
530.6829135889676
 30
0.0
 10
511.6634625435228
 20
530.9158179619105
 30
0.0
 10
511.7364676007773
 20
530.9899299169331
 30
0.0
  0
ARC
  5
167
330
1F
100
AcDbEntity
  8
0
  6
Continuous
 62
     7
370
    25
100
AcDbCircle
 10
517.7607021634
 20
524.4395604719
 30
0.0
 40
8.899367501836336
100
AcDbArc
 50
227.3959191961
 51
132.6040808039
  0
LINE
  5
168
330
1F
100
AcDbEntity
  8
0
  6
Continuous
 62
     7
370
    25
100
AcDbLine
 10
511.7364676008
 20
517.8891910268
 30
0.0
 11
511.0831120188
 21
518.6646634537
 31
0.0
  0
SPLINE
  5
169
330
1F
100
AcDbEntity
  8
0
  6
Continuous
 62
     7
370
    25
100
AcDbSpline
210
0.0
220
0.0
230
1.0
 70
     8
 71
     3
 72
    10
 73
     6
 74
     0
 42
0.00000001
 43
0.00000001
 40
0.0
 40
0.0
 40
0.0
 40
0.0
 40
0.3702896688583046
 40
0.7405318123903298
 40
0.9999999999999999
 40
0.9999999999999999
 40
0.9999999999999999
 40
0.9999999999999999
 10
462.256389238477
 20
527.7454362262015
 30
0.0
 10
468.0764530846953
 20
528.0656272407278
 30
0.0
 10
479.715833793199
 20
528.7059681744335
 30
0.0
 10
495.4347021999736
 20
529.5752025062967
 30
0.0
 10
505.3318760159835
 20
530.1239435079059
 30
0.0
 10
509.4099443364477
 20
530.3500487917378
 30
0.0
  0
ARC
  5
16A
330
1F
100
AcDbEntity
  8
0
  6
Continuous
 62
     7
370
    25
100
AcDbCircle
 10
502.194855129
 20
529.5966624251
 30
0.0
 40
7.254316183424548
100
AcDbArc
 50
2.3501399449
 51
5.9611177313
  0
ARC
  5
16B
330
1F
100
AcDbEntity
  8
0
  6
Continuous
 62
     7
370
    25
100
AcDbCircle
 10
466.5169117797
 20
527.6346794022
 30
0.0
 40
4.26196191887406
100
AcDbArc
 50
178.5108705386
 51
184.4691613065
  0
SPLINE
  5
16C
330
1F
100
AcDbEntity
  8
0
  6
Continuous
 62
     7
370
    25
100
AcDbSpline
210
0.0
220
0.0
230
1.0
 70
     8
 71
     3
 72
    10
 73
     6
 74
     0
 42
0.00000001
 43
0.00000001
 40
0.0
 40
0.0
 40
0.0
 40
0.0
 40
0.3702717503651152
 40
0.7405122151371749
 40
1.0
 40
1.0
 40
1.0
 40
1.0
 10
509.4099443364477
 20
518.5290721519951
 30
0.0
 10
503.5902722747785
 20
518.8516006376631
 30
0.0
 10
491.9514198764816
 20
519.4966303574063
 30
0.0
 10
476.232280292527
 20
520.3654448448851
 30
0.0
 10
466.3347828688283
 20
520.9094997556521
 30
0.0
 10
462.2563892384803
 20
521.1336847175312
 30
0.0
  0
ARC
  5
16D
330
1F
100
AcDbEntity
  8
0
  6
Continuous
 62
     7
370
    25
100
AcDbCircle
 10
466.5169117826
 20
521.2444415415
 30
0.0
 40
4.261961921792643
100
AcDbArc
 50
175.530838696
 51
181.4891294598
  0
ARC
  5
16E
330
1F
100
AcDbEntity
  8
0
  6
Continuous
 62
     7
370
    25
100
AcDbCircle
 10
502.1948551289
 20
519.2824585187
 30
0.0
 40
7.254316183549815
100
AcDbArc
 50
354.0388822687
 51
357.6498600551
  0
SPLINE
  5
16F
330
1F
100
AcDbEntity
  8
0
  6
Continuous
 62
     7
370
    25
100
AcDbSpline
210
0.0
220
0.0
230
1.0
 70
     8
 71
     3
 72
    12
 73
     8
 74
     0
 42
0.00000001
 43
0.00000001
 40
0.0
 40
0.0
 40
0.0
 40
0.0
 40
0.1224290494151349
 40
0.3423522449770471
 40
0.5614228816909413
 40
0.7807229538533572
 40
1.0
 40
1.0
 40
1.0
 40
1.0
 10
460.3321812688077
 20
521.6872186680228
 30
0.0
 10
460.3411853446717
 20
521.6848599835818
 30
0.0
 10
460.3663637284028
 20
521.678264319257
 30
0.0
 10
460.5823514120475
 20
521.6612563515177
 30
0.0
 10
461.0182495417766
 20
521.6357453773634
 30
0.0
 10
461.6021751552067
 20
521.606193194804
 30
0.0
 10
462.0460052867749
 20
521.586426917925
 30
0.0
 10
462.2679087016552
 20
521.5765442983665
 30
0.0
  0
SPLINE
  5
170
330
1F
100
AcDbEntity
  8
0
  6
Continuous
 62
     7
370
    25
100
AcDbSpline
210
0.0
220
0.0
230
1.0
 70
     8
 71
     3
 72
    11
 73
     7
 74
     0
 42
0.00000001
 43
0.00000001
 40
0.0
 40
0.0
 40
0.0
 40
0.0
 40
0.0800485240044433
 40
0.5000005853538798
 40
0.9209248322279645
 40
1.0
 40
1.0
 40
1.0
 40
1.0
 10
460.3321812688077
 20
521.6872186680228
 30
0.0
 10
460.3324675132219
 20
521.8334630931233
 30
0.0
 10
460.3342554584264
 20
522.7469377519564
 30
0.0
 10
460.3354911552564
 20
524.441347339715
 30
0.0
 10
460.3342534571615
 20
526.1339741915696
 30
0.0
 10
460.3324642351935
 20
527.0474375672134
 30
0.0
 10
460.3321812688076
 20
527.1919022757047
 30
0.0
  0
SPLINE
  5
171
330
1F
100
AcDbEntity
  8
0
  6
Continuous
 62
     7
370
    25
100
AcDbSpline
210
0.0
220
0.0
230
1.0
 70
     8
 71
     3
 72
    12
 73
     8
 74
     0
 42
0.00000001
 43
0.00000001
 40
0.0
 40
0.0
 40
0.0
 40
0.0
 40
0.1130367476169362
 40
0.3328594693548023
 40
0.5544127937945006
 40
0.7774207483513244
 40
1.0
 40
1.0
 40
1.0
 40
1.0
 10
462.2679087016554
 20
527.3025766453683
 30
0.0
 10
462.1538378616685
 20
527.2975613996668
 30
0.0
 10
461.8179332990605
 20
527.2827929986112
 30
0.0
 10
461.2838654426658
 20
527.2572007945017
 30
0.0
 10
460.7673398047787
 20
527.2293255316308
 30
0.0
 10
460.4104450876242
 20
527.2058836580403
 30
0.0
 10
460.3582524701058
 20
527.1965597462806
 30
0.0
 10
460.3321812688076
 20
527.1919022757047
 30
0.0
  0
SPLINE
  5
172
330
1F
100
AcDbEntity
  8
0
  6
Continuous
 62
     7
370
    25
100
AcDbSpline
210
0.0
220
0.0
230
1.0
 70
     8
 71
     3
 72
     9
 73
     5
 74
     0
 42
0.00000001
 43
0.00000001
 40
0.0
 40
0.0
 40
0.0
 40
0.0
 40
0.500010612381544
 40
1.0
 40
1.0
 40
1.0
 40
1.0
 10
512.2360754496202
 20
517.4573593375535
 30
0.0
 10
511.8063540827994
 20
517.7451998756468
 30
0.0
 10
510.9469295902388
 20
518.3208687333982
 30
0.0
 10
509.9222655049605
 20
518.459671994485
 30
0.0
 10
509.4099443364477
 20
518.5290721519951
 30
0.0
  0
SPLINE
  5
173
330
1F
100
AcDbEntity
  8
0
  6
Continuous
 62
     7
370
    25
100
AcDbSpline
210
0.0
220
0.0
230
1.0
 70
     8
 71
     3
 72
     9
 73
     5
 74
     0
 42
0.00000001
 43
0.00000001
 40
0.0
 40
0.0
 40
0.0
 40
0.0
 40
0.9838702326459385
 40
1.0
 40
1.0
 40
1.0
 40
1.0
 10
511.7364676007774
 20
517.8891910267998
 30
0.0
 10
511.8978084157119
 20
517.7443586137808
 30
0.0
 10
512.0617942845604
 20
517.5971517889241
 30
0.0
 10
512.2333089578424
 20
517.4595783648775
 30
0.0
 10
512.2360754496202
 20
517.4573593375535
 30
0.0
  0
SPLINE
  5
174
330
1F
100
AcDbEntity
  8
0
  6
Continuous
 62
     7
370
    25
100
AcDbSpline
210
0.0
220
0.0
230
1.0
 70
     8
 71
     3
 72
     9
 73
     5
 74
     0
 42
0.00000001
 43
0.00000001
 40
0.0
 40
0.0
 40
0.0
 40
0.0
 40
0.5055561057107305
 40
1.0
 40
1.0
 40
1.0
 40
1.0
 10
509.4099443364477
 20
530.3500487917378
 30
0.0
 10
509.9280038537807
 20
530.4207048260076
 30
0.0
 10
510.952735849856
 20
530.5604638625852
 30
0.0
 10
511.8114764186176
 20
531.1367971373808
 30
0.0
 10
512.2360754496202
 20
531.4217616061794
 30
0.0
  0
SPLINE
  5
175
330
1F
100
AcDbEntity
  8
0
  6
Continuous
 62
     7
370
    25
100
AcDbSpline
210
0.0
220
0.0
230
1.0
 70
     8
 71
     3
 72
     9
 73
     5
 74
     0
 42
0.00000001
 43
0.00000001
 40
0.0
 40
0.0
 40
0.0
 40
0.0
 40
0.0161297673533178
 40
0.9999999999999999
 40
0.9999999999999999
 40
0.9999999999999999
 40
0.9999999999999999
 10
512.2360754496202
 20
531.4217616061794
 30
0.0
 10
512.2333089578425
 20
531.4195425788555
 30
0.0
 10
512.0617942845564
 20
531.2819691548059
 30
0.0
 10
511.89780841571
 20
531.1347623299505
 30
0.0
 10
511.7364676007773
 20
530.9899299169331
 30
0.0
  0
SPLINE
  5
176
330
1F
100
AcDbEntity
  8
0
  6
Continuous
 62
     7
370
    25
100
AcDbSpline
210
0.0
220
0.0
230
1.0
 70
     8
 71
     3
 72
    12
 73
     8
 74
     0
 42
0.00000001
 43
0.00000001
 40
0.0
 40
0.0
 40
0.0
 40
0.0
 40
0.2230315344150378
 40
0.4461337558340359
 40
0.6675099896777023
 40
0.8870667292265011
 40
1.0
 40
1.0
 40
1.0
 40
1.0
 10
460.8045355338922
 20
527.6910653467531
 30
0.0
 10
460.8240693200181
 20
527.6891750994583
 30
0.0
 10
460.8631430832546
 20
527.685394005779
 30
0.0
 10
461.1307322653108
 20
527.6923368420496
 30
0.0
 10
461.5182613491359
 20
527.7079256645395
 30
0.0
 10
461.9189834615989
 20
527.7272629446037
 30
0.0
 10
462.1708428838568
 20
527.7408285457802
 30
0.0
 10
462.256389238477
 20
527.7454362262015
 30
0.0
  0
ARC
  5
177
330
1F
100
AcDbEntity
  8
0
  6
Continuous
 62
     7
370
    25
100
AcDbCircle
 10
460.8322811564
 20
527.1917356904
 30
0.0
 40
0.500099915346948
100
AcDbArc
 50
93.1804119247
 51
179.9809145383
  0
SPLINE
  5
178
330
1F
100
AcDbEntity
  8
0
  6
Continuous
 62
     7
370
    25
100
AcDbSpline
210
0.0
220
0.0
230
1.0
 70
     8
 71
     3
 72
    12
 73
     8
 74
     0
 42
0.00000001
 43
0.00000001
 40
0.0
 40
0.0
 40
0.0
 40
0.0
 40
0.2190444340109334
 40
0.4380981679380241
 40
0.6571027493691853
 40
0.8772791087290019
 40
1.0
 40
1.0
 40
1.0
 40
1.0
 10
462.2563892384803
 20
521.1336847175312
 30
0.0
 10
462.0899714977095
 20
521.1425135304809
 30
0.0
 10
461.7571289506104
 20
521.1601715312232
 30
0.0
 10
461.3189705079673
 20
521.1796900206323
 30
0.0
 10
460.9920046812076
 20
521.1909958042645
 30
0.0
 10
460.8301608041936
 20
521.1928196723411
 30
0.0
 10
460.8112894717813
 20
521.1893112430164
 30
0.0
 10
460.8045355338922
 20
521.1880555969798
 30
0.0
  0
ARC
  5
179
330
1F
100
AcDbEntity
  8
0
  6
Continuous
 62
     7
370
    25
100
AcDbCircle
 10
460.8322811564
 20
521.6873852534
 30
0.0
 40
0.500099915346948
100
AcDbArc
 50
180.0190854623
 51
266.8195880753
  0
LINE
  5
17A
330
1F
100
AcDbEntity
  8
0
  6
Continuous
 62
     7
370
    25
100
AcDbLine
 10
509.4099443364
 20
530.3500487917
 30
0.0
 11
509.3829581548
 21
530.4213390671
 31
0.0
  0
LINE
  5
17B
330
1F
100
AcDbEntity
  8
0
  6
Continuous
 62
     7
370
    25
100
AcDbLine
 10
460.7998451732
 20
527.6955037998
 30
0.0
 11
460.8045355339
 21
527.6910653468
 31
0.0
  0
ELLIPSE
  5
17C
330
1F
100
AcDbEntity
  8
0
  6
Continuous
 62
     7
370
    25
100
AcDbEllipse
 10
462.299616716
 20
527.7787962498
 30
0.0
 11
1.499999304622804
 21
0.0828726334386829
 31
0.0
210
0.0
220
0.0
230
1.0
 40
0.0174284859
 41
2.255125316696344
 42
3.158083049610755
  0
LINE
  5
17D
330
1F
100
AcDbEntity
  8
0
  6
Continuous
 62
     7
370
    25
100
AcDbLine
 10
464.815231385
 20
527.9875558378
 30
0.0
 11
461.3502681755
 21
527.7466645588
 31
0.0
  0
LINE
  5
17E
330
1F
100
AcDbEntity
  8
0
  6
Continuous
 62
     7
370
    25
100
AcDbLine
 10
464.815231385
 20
527.9874574466
 30
0.0
 11
464.815231385
 21
527.9875558378
 31
0.0
  0
ELLIPSE
  5
17F
330
1F
100
AcDbEntity
  8
0
  6
Continuous
 62
     7
370
    25
100
AcDbEllipse
 10
474.2647178059
 20
528.3171034981
 30
0.0
 11
14.49999327802044
 21
0.8011021232405255
 31
0.0
210
0.0
220
0.0
230
1.0
 40
0.0174284859
 41
1.54351683885242
 42
2.279642175408455
  0
ELLIPSE
  5
180
330
1F
100
AcDbEntity
  8
0
  6
Continuous
 62
     7
370
    25
100
AcDbEllipse
 10
475.5857277215
 20
529.2673870474
 30
0.0
 11
35.70262504606018
 21
1.972514619921981
 31
0.0
210
0.0
220
0.0
230
1.0
 40
0.0174284859
 41
4.685109492442213
 42
5.167309992307874
  0
ELLIPSE
  5
181
330
1F
100
AcDbEntity
  8
0
  6
Continuous
 62
     7
370
    25
100
AcDbEllipse
 10
494.6059551935
 20
529.6397831071
 30
0.0
 11
7.499996523113906
 21
0.4143631671935281
 31
0.0
210
0.0
220
0.0
230
1.0
 40
0.0174284859
 41
1.834826681007688
 42
2.025717338717974
  0
LINE
  5
182
330
1F
100
AcDbEntity
  8
0
  6
Continuous
 62
     7
370
    25
100
AcDbLine
 10
492.6613027925
 20
529.5074386559
 30
0.0
 11
492.6416845351
 21
529.6578292005
 31
0.0
  0
SPLINE
  5
183
330
1F
100
AcDbEntity
  8
0
  6
Continuous
 62
     7
370
    25
100
AcDbSpline
210
0.0
220
0.0
230
1.0
 70
     8
 71
     3
 72
    10
 73
     6
 74
     0
 42
0.00000001
 43
0.00000001
 40
0.0
 40
0.0
 40
0.0
 40
0.0
 40
0.0186368637457253
 40
0.3939469944633057
 40
1.0
 40
1.0
 40
1.0
 40
1.0
 10
492.8450740781779
 20
529.5079250231416
 30
0.0
 10
492.8426178709292
 20
529.5078372726623
 30
0.0
 10
492.7906984344522
 20
529.5059823984693
 30
0.0
 10
492.6866995859743
 20
529.5033024170912
 30
0.0
 10
492.670998928625
 20
529.5058594984887
 30
0.0
 10
492.6613027924814
 20
529.5074386558966
 30
0.0
  0
LINE
  5
184
330
1F
100
AcDbEntity
  8
0
  6
Continuous
 62
     7
370
    25
100
AcDbLine
 10
509.3829581548
 20
530.4213390671
 30
0.0
 11
492.8450740782
 21
529.5079250231
 31
0.0
  0
LINE
  5
185
330
1F
100
AcDbEntity
  8
0
  6
Continuous
 62
     7
370
    25
100
AcDbLine
 10
492.8430083463
 20
519.3549922718
 30
0.0
 11
509.3769167697
 21
518.4417978096
 31
0.0
  0
SPLINE
  5
186
330
1F
100
AcDbEntity
  8
0
  6
Continuous
 62
     7
370
    25
100
AcDbSpline
210
0.0
220
0.0
230
1.0
 70
     8
 71
     3
 72
    11
 73
     7
 74
     0
 42
0.00000001
 43
0.00000001
 40
0.0
 40
0.0
 40
0.0
 40
0.0
 40
0.4177469294495291
 40
0.8392770662410922
 40
0.9817832068819584
 40
1.0
 40
1.0
 40
1.0
 40
1.0
 10
492.6593029056095
 20
519.3563417170496
 30
0.0
 10
492.6639399336414
 20
519.3574249082334
 30
0.0
 10
492.6732559836428
 20
519.3596011002164
 30
0.0
 10
492.748752449393
 20
519.358398923325
 30
0.0
 10
492.8190126499649
 20
519.355928395985
 30
0.0
 10
492.8405654866226
 20
519.3550875730281
 30
0.0
 10
492.8430083462526
 20
519.3549922717697
 30
0.0
  0
LINE
  5
187
330
1F
100
AcDbEntity
  8
0
  6
Continuous
 62
     7
370
    25
100
AcDbLine
 10
492.6416845351
 20
519.2212917433
 30
0.0
 11
492.6593029056
 21
519.356341717
 31
0.0
  0
ELLIPSE
  5
188
330
1F
100
AcDbEntity
  8
0
  6
Continuous
 62
     7
370
    25
100
AcDbEllipse
 10
494.6059551935
 20
519.2393378366
 30
0.0
 11
7.499996523114021
 21
-0.4143631671935282
 31
0.0
210
0.0
220
0.0
230
1.0
 40
0.0174284859
 41
4.257467968461772
 42
4.448358626171732
  0
ELLIPSE
  5
189
330
1F
100
AcDbEntity
  8
0
  6
Continuous
 62
     7
370
    25
100
AcDbEllipse
 10
475.5857277215
 20
519.6117338964
 30
0.0
 11
35.70262504606006
 21
-1.972514619921981
 31
0.0
210
0.0
220
0.0
230
1.0
 40
0.0174284859
 41
1.11587531487179
 42
1.598075814737374
  0
ELLIPSE
  5
18A
330
1F
100
AcDbEntity
  8
0
  6
Continuous
 62
     7
370
    25
100
AcDbEllipse
 10
474.2647178059
 20
520.5620174457
 30
0.0
 11
14.49999327802044
 21
-0.8011021232406392
 31
0.0
210
0.0
220
0.0
230
1.0
 40
0.0174284859
 41
4.003543131771659
 42
4.739668468327168
  0
LINE
  5
18B
330
1F
100
AcDbEntity
  8
0
  6
Continuous
 62
     7
370
    25
100
AcDbLine
 10
464.815231385
 20
520.8915651059
 30
0.0
 11
464.815231385
 21
520.8916634971
 31
0.0
  0
LINE
  5
18C
330
1F
100
AcDbEntity
  8
0
  6
Continuous
 62
     7
370
    25
100
AcDbLine
 10
461.3502681755
 20
521.1324563849
 30
0.0
 11
464.815231385
 21
520.8915651059
 31
0.0
  0
ELLIPSE
  5
18D
330
1F
100
AcDbEntity
  8
0
  6
Continuous
 62
     7
370
    25
100
AcDbEllipse
 10
462.299616716
 20
521.1003246939
 30
0.0
 11
1.499999304622804
 21
-0.0828726334387966
 31
0.0
210
0.0
220
0.0
230
1.0
 40
0.0174284859
 41
3.624333447076722
 42
4.028059990488096
  0
LINE
  5
18E
330
1F
100
AcDbEntity
  8
0
  6
Continuous
 62
     7
370
    25
100
AcDbLine
 10
460.8045355339
 20
521.188055597
 30
0.0
 11
460.7998451732
 21
521.1836171439
 31
0.0
  0
LINE
  5
18F
330
1F
100
AcDbEntity
  8
0
  6
Continuous
 62
     7
370
    25
100
AcDbLine
 10
509.3769167697
 20
518.4417978096
 30
0.0
 11
509.4099443364
 21
518.529072152
 31
0.0
  0
SPLINE
  5
190
330
1F
100
AcDbEntity
  8
0
  6
Continuous
 62
     7
370
    25
100
AcDbSpline
210
0.0
220
0.0
230
1.0
 70
     8
 71
     3
 72
     9
 73
     5
 74
     0
 42
0.00000001
 43
0.00000001
 40
0.0
 40
0.0
 40
0.0
 40
0.0
 40
0.5001021276704695
 40
1.0
 40
1.0
 40
1.0
 40
1.0
 10
512.2028565835648
 20
531.4874530531395
 30
0.0
 10
511.7739088078574
 20
531.200927419051
 30
0.0
 10
510.916188450407
 20
530.6279931757532
 30
0.0
 10
509.8939653217919
 20
530.490214389299
 30
0.0
 10
509.3829581547511
 20
530.4213390670984
 30
0.0
  0
LINE
  5
191
330
1F
100
AcDbEntity
  8
0
  6
Continuous
 62
     7
370
    25
100
AcDbLine
 10
512.2028565836
 20
531.4874530531
 30
0.0
 11
512.2360754496
 21
531.4217616062
 31
0.0
  0
SPLINE
  5
192
330
1F
100
AcDbEntity
  8
0
  6
Continuous
 62
     7
370
    25
100
AcDbSpline
210
0.0
220
0.0
230
1.0
 70
     8
 71
     3
 72
     9
 73
     5
 74
     0
 42
0.00000001
 43
0.00000001
 40
0.0
 40
0.0
 40
0.0
 40
0.0
 40
0.400722737156528
 40
1.0
 40
1.0
 40
1.0
 40
1.0
 10
509.3769167696994
 20
518.441797809555
 30
0.0
 10
509.7856028931087
 20
518.3933905474895
 30
0.0
 10
510.8054754521485
 20
518.2725906587456
 30
0.0
 10
511.6745514959744
 20
517.7124833853919
 30
0.0
 10
512.1953690087213
 20
517.3768238317178
 30
0.0
  0
LINE
  5
193
330
1F
100
AcDbEntity
  8
0
  6
Continuous
 62
     7
370
    25
100
AcDbLine
 10
512.2360754496
 20
517.4573593376
 30
0.0
 11
512.1953690087
 21
517.3768238317
 31
0.0
  0
ARC
  5
194
330
1F
100
AcDbEntity
  8
0
  6
Continuous
 62
     7
370
    25
100
AcDbCircle
 10
517.7607021634
 20
524.4395604719
 30
0.0
 40
8.975658044222099
100
AcDbArc
 50
65.1648853947
 51
128.2586979829
  0
LWPOLYLINE
  5
195
330
1F
100
AcDbEntity
  8
0
  6
Continuous
 62
     7
370
    25
100
AcDbPolyline
 90
        3
 70
   128
 43
0.0
 10
521.6960155877
 20
532.6902201952
 10
521.5914340235
 20
532.6239677839
 10
521.5305534808
 20
532.5851518176
  0
ARC
  5
196
330
1F
100
AcDbEntity
  8
0
  6
Continuous
 62
     7
370
    25
100
AcDbCircle
 10
517.7607021634
 20
524.4395604719
 30
0.0
 40
9.141120151092256
100
AcDbArc
 50
295.4997164176
 51
64.5002794289
  0
LWPOLYLINE
  5
197
330
1F
100
AcDbEntity
  8
0
  6
Continuous
 62
     7
370
    25
100
AcDbPolyline
 90
        3
 70
   128
 43
0.0
 10
521.5468463913
 20
516.2835630554
 10
521.5914340235
 20
516.2551531598
 10
521.696015588
 20
516.1889007484
  0
ARC
  5
198
330
1F
100
AcDbEntity
  8
0
  6
Continuous
 62
     7
370
    25
100
AcDbCircle
 10
517.7607021634
 20
524.4395604719
 30
0.0
 40
8.991950954660814
100
AcDbArc
 50
231.762407147
 51
294.9014811666
  0
LINE
  5
199
330
1F
100
AcDbEntity
  8
0
  6
Continuous
 62
     7
370
    25
100
AcDbLine
 10
460.3274909081
 20
521.682780215
 30
0.0
 11
460.3321812688
 21
521.687218668
 31
0.0
  0
LINE
  5
19A
330
1F
100
AcDbEntity
  8
0
  6
Continuous
 62
     7
370
    25
100
AcDbLine
 10
460.3274909081
 20
527.1963407288
 30
0.0
 11
460.3274909081
 21
521.682780215
 31
0.0
  0
LINE
  5
19B
330
1F
100
AcDbEntity
  8
0
  6
Continuous
 62
     7
370
    25
100
AcDbLine
 10
460.3321812688
 20
527.1919022757
 30
0.0
 11
460.3274909081
 21
527.1963407288
 31
0.0
  0
ARC
  5
19C
330
1F
100
AcDbEntity
  8
0
  6
Continuous
 62
     7
370
    25
100
AcDbCircle
 10
460.8275907957
 20
521.6829468003
 30
0.0
 40
0.5000999153469704
100
AcDbArc
 50
180.0190854617
 51
266.8195880753
  0
ARC
  5
19D
330
1F
100
AcDbEntity
  8
0
  6
Continuous
 62
     7
370
    25
100
AcDbCircle
 10
460.8275907957
 20
527.1961741434
 30
0.0
 40
0.5000999153468376
100
AcDbArc
 50
93.1804119247
 51
179.9809145383
  0
LINE
  5
19E
330
1F
100
AcDbEntity
  8
0
  6
Continuous
 62
     7
370
    25
100
AcDbLine
 10
461.3502681755
 20
527.7466645588
 30
0.0
 11
461.3431604448
 21
527.7462975222
 31
0.0
  0
LINE
  5
19F
330
1F
100
AcDbEntity
  8
0
  6
Continuous
 62
     7
370
    25
100
AcDbLine
 10
461.3502681755
 20
521.1324563849
 30
0.0
 11
461.3431604448
 21
521.1328234215
 31
0.0
  0
SPLINE
  5
1A0
330
1F
100
AcDbEntity
  8
0
  6
Continuous
 62
     7
370
    25
100
AcDbSpline
210
0.0
220
0.0
230
1.0
 70
     8
 71
     3
 72
    12
 73
     8
 74
     0
 42
0.00000001
 43
0.00000001
 40
0.0
 40
0.0
 40
0.0
 40
0.0
 40
0.1662426524176545
 40
0.3368059756191297
 40
0.6054181071254586
 40
0.8801435087136193
 40
1.0
 40
1.0
 40
1.0
 40
1.0
 10
511.6386429161211
 20
536.1162208535374
 30
0.0
 10
512.2763244366572
 20
535.9607356780544
 30
0.0
 10
513.5682609134577
 20
535.6457242446992
 30
0.0
 10
515.7524472958072
 20
534.9827591397006
 30
0.0
 10
518.1144216393669
 20
534.1305642228953
 30
0.0
 10
520.0799592012595
 20
533.2879355442832
 30
0.0
 10
521.193734186055
 20
532.750077451588
 30
0.0
 10
521.5320496642126
 20
532.5867000007607
 30
0.0
  0
LINE
  5
1A1
330
1F
100
AcDbEntity
  8
0
  6
Continuous
 62
     7
370
    25
100
AcDbLine
 10
511.6386429161
 20
536.1162208535
 30
0.0
 11
511.6545009931
 21
536.1856943851
 31
0.0
  0
ARC
  5
1A2
330
1F
100
AcDbEntity
  8
0
  6
Continuous
 62
     7
370
    25
100
AcDbCircle
 10
500.9327227566
 20
489.2140595729
 30
0.0
 40
48.17977797259054
100
AcDbArc
 50
64.4718479123
 51
77.1419190681
  0
LWPOLYLINE
  5
1A3
330
1F
100
AcDbEntity
  8
0
  6
Continuous
 62
     7
370
    25
100
AcDbPolyline
 90
        3
 70
   128
 43
0.0
 10
521.5320496642
 20
532.5867000008
 10
521.5914375146
 20
532.6242237043
 10
521.6960155874
 20
532.6902217342
  0
SPLINE
  5
1A4
330
1F
100
AcDbEntity
  8
0
  6
Continuous
 62
     7
370
    25
100
AcDbSpline
210
0.0
220
0.0
230
1.0
 70
     8
 71
     3
 72
    11
 73
     7
 74
     0
 42
0.00000001
 43
0.00000001
 40
0.0
 40
0.0
 40
0.0
 40
0.0
 40
0.1345990676765959
 40
0.4126978815969493
 40
0.6969472592954598
 40
1.0
 40
1.0
 40
1.0
 40
1.0
 10
521.5313320872556
 20
532.5859584346869
 30
0.0
 10
521.1020260670073
 20
532.7768423198479
 30
0.0
 10
519.785719140283
 20
533.3621166192677
 30
0.0
 10
517.4099090893998
 20
533.9845845032913
 30
0.0
 10
514.3562197045187
 20
534.3610871857917
 30
0.0
 10
512.165189796158
 20
534.3882285141245
 30
0.0
 10
511.03460027862
 20
534.4022336635695
 30
0.0
  0
ARC
  5
1A5
330
1F
100
AcDbEntity
  8
0
  6
Continuous
 62
     7
370
    25
100
AcDbCircle
 10
515.5271312716
 20
533.782409619
 30
0.0
 40
4.535087272518982
100
AcDbArc
 50
149.0284626407
 51
172.1446266983
  0
LINE
  5
1A6
330
1F
100
AcDbEntity
  8
0
  6
Continuous
 62
     7
370
    25
100
AcDbLine
 10
521.5320496642
 20
532.5867000008
 30
0.0
 11
521.5313320873
 21
532.5859584347
 31
0.0
  0
LINE
  5
1A7
330
1F
100
AcDbEntity
  8
0
  6
Continuous
 62
     7
370
    25
100
AcDbLine
 10
512.2028565836
 20
531.4874530531
 30
0.0
 11
510.0049846634
 21
534.2745699275
 31
0.0
  0
ARC
  5
1A8
330
1F
100
AcDbEntity
  8
0
  6
Continuous
 62
     7
370
    25
100
AcDbCircle
 10
517.7607021634
 20
524.4395604719
 30
0.0
 40
12.52511736202722
100
AcDbArc
 50
127.8583068702
 51
128.2586979829
  0
LINE
  5
1A9
330
1F
100
AcDbEntity
  8
0
  6
Continuous
 62
     7
370
    25
100
AcDbLine
 10
511.0346002786
 20
534.4022336636
 30
0.0
 11
510.0739019297
 21
534.3285274098
 31
0.0
  0
LINE
  5
1AA
330
1F
100
AcDbEntity
  8
0
  6
Continuous
 62
     7
370
    25
100
AcDbLine
 10
521.5305534808
 20
532.5851518176
 30
0.0
 11
521.5313320873
 21
532.5859584347
 31
0.0
  0
ARC
  5
1AB
330
1F
100
AcDbEntity
  8
0
  6
Continuous
 62
     7
370
    25
100
AcDbCircle
 10
499.8430304497
 20
529.71615986
 30
0.0
 40
6.834138728221622
100
AcDbArc
 50
31.8771071303
 51
46.9488007428
  0
SPLINE
  5
1AC
330
1F
100
AcDbEntity
  8
0
  6
Continuous
 62
     7
370
    25
100
AcDbSpline
210
0.0
220
0.0
230
1.0
 70
     8
 71
     3
 72
    17
 73
    13
 74
     0
 42
0.00000001
 43
0.00000001
 40
0.0
 40
0.0
 40
0.0
 40
0.0
 40
0.2859834379244703
 40
0.5215922644122238
 40
0.759239901680938
 40
0.85214924050605
 40
0.9266708633836014
 40
0.9605058393195369
 40
0.9835417153308584
 40
0.9930790992390832
 40
0.9972256067114875
 40
1.0
 40
1.0
 40
1.0
 40
1.0
 10
505.6464632408722
 20
533.3252622408517
 30
0.0
 10
504.4176850571248
 20
532.7933941168312
 30
0.0
 10
502.176572075294
 20
531.8233438887836
 30
0.0
 10
498.8376233883921
 20
530.781113217999
 30
0.0
 10
496.3349680216854
 20
530.1632946570722
 30
0.0
 10
494.5646617376491
 20
529.8093193478542
 30
0.0
 10
493.6995409023119
 20
529.6546183132413
 30
0.0
 10
493.1739534730364
 20
529.5661183224095
 30
0.0
 10
492.9402913593792
 20
529.527006559587
 30
0.0
 10
492.8626411998898
 20
529.5126867928251
 30
0.0
 10
492.8465595456897
 20
529.5089530405077
 30
0.0
 10
492.8454991577138
 20
529.5082191993126
 30
0.0
 10
492.8450740781779
 20
529.5079250231416
 30
0.0
  0
SPLINE
  5
1AD
330
1F
100
AcDbEntity
  8
0
  6
Continuous
 62
     7
370
    25
100
AcDbSpline
210
0.0
220
0.0
230
1.0
 70
     8
 71
     3
 72
    10
 73
     6
 74
     0
 42
0.00000001
 43
0.00000001
 40
0.0
 40
0.0
 40
0.0
 40
0.0
 40
0.5975855365574454
 40
0.9790563563181981
 40
1.0
 40
1.0
 40
1.0
 40
1.0
 10
492.7350487584902
 20
529.517051920481
 30
0.0
 10
492.7325296191368
 20
529.5133126227546
 30
0.0
 10
492.7284023783561
 20
529.5071863312311
 30
0.0
 10
492.8027735049117
 20
529.5068097723745
 30
0.0
 10
492.842981457016
 20
529.507869851375
 30
0.0
 10
492.8450740781779
 20
529.5079250231416
 30
0.0
  0
SPLINE
  5
1AE
330
1F
100
AcDbEntity
  8
0
  6
Continuous
 62
     7
370
    25
100
AcDbSpline
210
0.0
220
0.0
230
1.0
 70
     8
 71
     3
 72
    14
 73
    10
 74
     0
 42
0.00000001
 43
0.00000001
 40
0.0
 40
0.0
 40
0.0
 40
0.0
 40
0.0129036569231464
 40
0.0519665716781148
 40
0.131889182426121
 40
0.2280032005552168
 40
0.4679440229400842
 40
0.7079115564493631
 40
0.9999999999999999
 40
0.9999999999999999
 40
0.9999999999999999
 40
0.9999999999999999
 10
492.7350487584902
 20
529.517051920481
 30
0.0
 10
492.7685173349545
 20
529.5248968945423
 30
0.0
 10
492.9033044877872
 20
529.5564907604748
 30
0.0
 10
493.3425779327798
 20
529.6588728077686
 30
0.0
 10
494.1540053510056
 20
529.8612743165855
 30
0.0
 10
495.8074825328262
 20
530.3283249973518
 30
0.0
 10
498.1517726050699
 20
531.1657820567422
 30
0.0
 10
501.2968667815671
 20
532.6107222970925
 30
0.0
 10
503.3701654557597
 20
533.9660931798871
 30
0.0
 10
504.5083663385067
 20
534.7101655870368
 30
0.0
  0
LINE
  5
1AF
330
1F
100
AcDbEntity
  8
0
  6
Continuous
 62
     7
370
    25
100
AcDbLine
 10
507.087131603
 20
533.8494059228
 30
0.0
 11
509.187214119
 21
533.9653968715
 31
0.0
  0
LINE
  5
1B0
330
1F
100
AcDbEntity
  8
0
  6
Continuous
 62
     7
370
    25
100
AcDbLine
 10
509.3829581548
 20
530.4213390671
 30
0.0
 11
509.187214119
 21
533.9653968715
 31
0.0
  0
LINE
  5
1B1
330
1F
100
AcDbEntity
  8
0
  6
Continuous
 62
     7
370
    25
100
AcDbLine
 10
507.087131603
 20
533.8494059228
 30
0.0
 11
505.6464632409
 21
533.3252622409
 31
0.0
  0
LWPOLYLINE
  5
1B2
330
1F
100
AcDbEntity
  8
0
  6
Continuous
 62
     7
370
    25
100
AcDbPolyline
 90
        4
 70
   128
 43
0.0
 10
492.7155219444
 20
529.6681474967
 10
492.7177665801
 20
529.6507893499
 10
492.726741614
 20
529.5813566037
 10
492.7350487585
 20
529.5170519205
  0
LINE
  5
1B3
330
1F
100
AcDbEntity
  8
0
  6
Continuous
 62
     7
370
    25
100
AcDbLine
 10
494.5036462282
 20
530.097675
 30
0.0
 11
492.7155219444
 21
529.6681474967
 31
0.0
  0
ARC
  5
1B4
330
1F
100
AcDbEntity
  8
0
  6
Continuous
 62
     7
370
    25
100
AcDbCircle
 10
486.3180878296
 20
560.5233685939
 30
0.0
 40
31.50755777528337
100
AcDbArc
 50
285.0579972479
 51
305.1719294169
  0
LINE
  5
1B5
330
1F
100
AcDbEntity
  8
0
  6
Continuous
 62
     7
370
    25
100
AcDbLine
 10
504.5083663385
 20
534.710165587
 30
0.0
 11
504.4674464523
 21
534.7682336001
 31
0.0
  0
SPLINE
  5
1B6
330
1F
100
AcDbEntity
  8
0
  6
Continuous
 62
     7
370
    25
100
AcDbSpline
210
0.0
220
0.0
230
1.0
 70
     8
 71
     3
 72
     9
 73
     5
 74
     0
 42
0.00000001
 43
0.00000001
 40
0.0
 40
0.0
 40
0.0
 40
0.0
 40
0.4998978730609624
 40
1.0
 40
1.0
 40
1.0
 40
1.0
 10
509.1872141190459
 20
533.9653968715423
 30
0.0
 10
509.3354090349416
 20
533.9853632095446
 30
0.0
 10
509.6318594178736
 20
534.0253040436194
 30
0.0
 10
509.8805926466502
 20
534.1914699861899
 30
0.0
 10
510.0049846634018
 20
534.2745699274942
 30
0.0
  0
ARC
  5
1B7
330
1F
100
AcDbEntity
  8
0
  6
Continuous
 62
     7
370
    25
100
AcDbCircle
 10
492.6337134436
 20
530.0067533603
 30
0.0
 40
0.5000763403839016
100
AcDbArc
 50
273.16262964
 51
281.6913635617
  0
SPLINE
  5
1B8
330
1F
100
AcDbEntity
  8
0
  6
Continuous
 62
     7
370
    25
100
AcDbSpline
210
0.0
220
0.0
230
1.0
 70
     8
 71
     3
 72
    13
 73
     9
 74
     0
 42
0.00000001
 43
0.00000001
 40
0.0
 40
0.0
 40
0.0
 40
0.0
 40
0.0460329529079877
 40
0.249242584819372
 40
0.4775225570272876
 40
0.7051721168687834
 40
0.8526808263814666
 40
1.0
 40
1.0
 40
1.0
 40
1.0
 10
521.5480806379028
 20
516.282288711764
 30
0.0
 10
521.4197459858643
 20
516.2197797433273
 30
0.0
 10
520.724885926379
 20
515.8813287884501
 30
0.0
 10
519.3652226918023
 20
515.263351364421
 30
0.0
 10
517.3572500749839
 20
514.4528790377078
 30
0.0
 10
515.3427398130808
 20
513.7602542364432
 30
0.0
 10
513.4804565318353
 20
513.2100204347452
 30
0.0
 10
512.3880869685967
 20
512.9425043236394
 30
0.0
 10
511.8422533125897
 20
512.8088322570788
 30
0.0
  0
LINE
  5
1B9
330
1F
100
AcDbEntity
  8
0
  6
Continuous
 62
     7
370
    25
100
AcDbLine
 10
511.3887932347
 20
514.7564347863
 30
0.0
 11
511.8422533126
 21
512.8088322571
 31
0.0
  0
SPLINE
  5
1BA
330
1F
100
AcDbEntity
  8
0
  6
Continuous
 62
     7
370
    25
100
AcDbSpline
210
0.0
220
0.0
230
1.0
 70
     8
 71
     3
 72
    13
 73
     9
 74
     0
 42
0.00000001
 43
0.00000001
 40
0.0
 40
0.0
 40
0.0
 40
0.0
 40
0.2574896950994368
 40
0.4890886589321025
 40
0.7206004760683485
 40
0.9447506334961274
 40
0.9460032291293288
 40
1.0
 40
1.0
 40
1.0
 40
1.0
 10
511.3887932347027
 20
514.756434786293
 30
0.0
 10
512.3075188106906
 20
514.7283718221781
 30
0.0
 10
514.0525915978287
 20
514.6750676405128
 30
0.0
 10
516.5471568437422
 20
514.8396317593508
 30
0.0
 10
518.8628066497429
 20
515.253005754361
 30
0.0
 10
520.3399152513471
 20
515.7525629409242
 30
0.0
 10
521.2111766958877
 20
516.1268057958542
 30
0.0
 10
521.3812231047106
 20
516.2057862143394
 30
0.0
 10
521.5474142767658
 20
516.282976014514
 30
0.0
  0
LINE
  5
1BB
330
1F
100
AcDbEntity
  8
0
  6
Continuous
 62
     7
370
    25
100
AcDbLine
 10
521.5474142768
 20
516.2829760145
 30
0.0
 11
521.5480806379
 21
516.2822887118
 31
0.0
  0
ARC
  5
1BC
330
1F
100
AcDbEntity
  8
0
  6
Continuous
 62
     7
370
    25
100
AcDbCircle
 10
500.9327227566
 20
559.6650613709
 30
0.0
 40
48.10950076354642
100
AcDbArc
 50
282.8580809319
 51
283.1066633214
  0
LWPOLYLINE
  5
1BD
330
1F
100
AcDbEntity
  8
0
  6
Continuous
 62
     7
370
    25
100
AcDbPolyline
 90
        3
 70
   128
 43
0.0
 10
521.5480806379
 20
516.2822887118
 10
521.5914375146
 20
516.2548972394
 10
521.6960155877
 20
516.1888992093
  0
ARC
  5
1BE
330
1F
100
AcDbEntity
  8
0
  6
Continuous
 62
     7
370
    25
100
AcDbCircle
 10
500.9327227566
 20
559.6650613709
 30
0.0
 40
48.17977797259048
100
AcDbArc
 50
282.8580809319
 51
295.5281512988
  0
LINE
  5
1BF
330
1F
100
AcDbEntity
  8
0
  6
Continuous
 62
     7
370
    25
100
AcDbLine
 10
511.6388617211
 20
512.7619415153
 30
0.0
 11
511.6545009931
 21
512.6934265586
 31
0.0
  0
LINE
  5
1C0
330
1F
100
AcDbEntity
  8
0
  6
Continuous
 62
     7
370
    25
100
AcDbLine
 10
505.2834739189
 20
516.0643191938
 30
0.0
 11
504.1539985014
 21
514.4141474041
 31
0.0
  0
SPLINE
  5
1C1
330
1F
100
AcDbEntity
  8
0
  6
Continuous
 62
     7
370
    25
100
AcDbSpline
210
0.0
220
0.0
230
1.0
 70
     8
 71
     3
 72
    15
 73
    11
 74
     0
 42
0.00000001
 43
0.00000001
 40
0.0
 40
0.0
 40
0.0
 40
0.0
 40
0.2255198391625377
 40
0.4515645943751947
 40
0.6337799820516974
 40
0.8158790324473547
 40
0.8946729146060268
 40
0.9638048440471935
 40
0.9940832206369723
 40
0.9999999999999999
 40
0.9999999999999999
 40
0.9999999999999999
 40
0.9999999999999999
 10
504.1539985014339
 20
514.4141474041362
 30
0.0
 10
503.3085499605801
 20
514.9591550734776
 30
0.0
 10
501.6156850275722
 20
516.0504389625203
 30
0.0
 10
499.1393688338927
 20
517.2675423521129
 30
0.0
 10
496.8109579191816
 20
518.1984421605481
 30
0.0
 10
495.0704784293591
 20
518.7542327053616
 30
0.0
 10
493.8128095729895
 20
519.0907855323259
 30
0.0
 10
493.1686766750771
 20
519.2461326386504
 30
0.0
 10
492.8407313849951
 20
519.3216860369179
 30
0.0
 10
492.7481939413709
 20
519.3432067449679
 30
0.0
 10
492.7330669548356
 20
519.3467247096766
 30
0.0
  0
SPLINE
  5
1C2
330
1F
100
AcDbEntity
  8
0
  6
Continuous
 62
     7
370
    25
100
AcDbSpline
210
0.0
220
0.0
230
1.0
 70
     8
 71
     3
 72
    11
 73
     7
 74
     0
 42
0.00000001
 43
0.00000001
 40
0.0
 40
0.0
 40
0.0
 40
0.0
 40
0.0195561212295927
 40
0.1681891996744411
 40
0.5898876540792777
 40
1.0
 40
1.0
 40
1.0
 40
1.0
 10
492.8430083462526
 20
519.3549922717697
 30
0.0
 10
492.8410496331046
 20
519.3550503854854
 30
0.0
 10
492.8242040432818
 20
519.3555501829261
 30
0.0
 10
492.7723034795227
 20
519.3563966003396
 30
0.0
 10
492.7230188474571
 20
519.3543073018176
 30
0.0
 10
492.7297488325335
 20
519.349228660634
 30
0.0
 10
492.7330669548355
 20
519.3467247096766
 30
0.0
  0
SPLINE
  5
1C3
330
1F
100
AcDbEntity
  8
0
  6
Continuous
 62
     7
370
    25
100
AcDbSpline
210
0.0
220
0.0
230
1.0
 70
     8
 71
     3
 72
    17
 73
    13
 74
     0
 42
0.00000001
 43
0.00000001
 40
0.0
 40
0.0
 40
0.0
 40
0.0
 40
0.0068263121770685
 40
0.0088448507297254
 40
0.0223990310416126
 40
0.0309593028397538
 40
0.0563218912149143
 40
0.1198824177066684
 40
0.1957460556357056
 40
0.5558621944880031
 40
0.77803360979772
 40
1.0
 40
1.0
 40
1.0
 40
1.0
 10
492.8430083462526
 20
519.3549922717697
 30
0.0
 10
492.8466284914143
 20
519.3539540887245
 30
0.0
 10
492.8513191124618
 20
519.3526089152508
 30
0.0
 10
492.894851825165
 20
519.3450189271758
 30
0.0
 10
492.9693837475975
 20
519.3332674203692
 30
0.0
 10
493.1362159930994
 20
519.3075485251461
 30
0.0
 10
493.5177921101668
 20
519.2490339461239
 30
0.0
 10
494.2006930769011
 20
519.1398369615366
 30
0.0
 10
496.3056923938188
 20
518.7726647291126
 30
0.0
 10
499.1186269756049
 20
518.1384870451473
 30
0.0
 10
502.5174111901716
 20
517.1255467532889
 30
0.0
 10
504.3617368049353
 20
516.417952832602
 30
0.0
 10
505.2834739189259
 20
516.0643191937751
 30
0.0
  0
LINE
  5
1C4
330
1F
100
AcDbEntity
  8
0
  6
Continuous
 62
     7
370
    25
100
AcDbLine
 10
509.3769167697
 20
518.4417978096
 30
0.0
 11
509.2335549407
 21
515.8461498401
 31
0.0
  0
LINE
  5
1C5
330
1F
100
AcDbEntity
  8
0
  6
Continuous
 62
     7
370
    25
100
AcDbLine
 10
509.2335549407
 20
515.8461498401
 30
0.0
 11
505.2834739189
 21
516.0643191938
 31
0.0
  0
LINE
  5
1C6
330
1F
100
AcDbEntity
  8
0
  6
Continuous
 62
     7
370
    25
100
AcDbLine
 10
512.1953690087
 20
517.3768238317
 30
0.0
 11
510.5864120155
 21
515.3349623307
 31
0.0
  0
LINE
  5
1C7
330
1F
100
AcDbEntity
  8
0
  6
Continuous
 62
     7
370
    25
100
AcDbLine
 10
521.5474142768
 20
516.2829760145
 30
0.0
 11
521.5468463913
 21
516.2835630554
 31
0.0
  0
ARC
  5
1C8
330
1F
100
AcDbEntity
  8
0
  6
Continuous
 62
     7
370
    25
100
AcDbCircle
 10
517.7607021634
 20
524.4395604719
 30
0.0
 40
11.5915549620673
100
AcDbArc
 50
231.762407147
 51
236.6533814372
  0
LWPOLYLINE
  5
1C9
330
1F
100
AcDbEntity
  8
0
  6
Continuous
 62
     7
370
    25
100
AcDbPolyline
 90
        4
 70
   128
 43
0.0
 10
492.7330669548
 20
519.3467247097
 10
492.7308247085
 20
519.3293664547
 10
492.7218522257
 20
519.2599335931
 10
492.7155219444
 20
519.210973447
  0
ARC
  5
1CA
330
1F
100
AcDbEntity
  8
0
  6
Continuous
 62
     7
370
    25
100
AcDbCircle
 10
486.3180878296
 20
488.3557523499
 30
0.0
 40
31.57783498432746
100
AcDbArc
 50
54.8280705831
 51
55.6099480104
  0
LINE
  5
1CB
330
1F
100
AcDbEntity
  8
0
  6
Continuous
 62
     7
370
    25
100
AcDbLine
 10
504.5079283671
 20
514.1683338465
 30
0.0
 11
504.4674464523
 21
514.1108873437
 31
0.0
  0
ARC
  5
1CC
330
1F
100
AcDbEntity
  8
0
  6
Continuous
 62
     7
370
    25
100
AcDbCircle
 10
486.3180878296
 20
488.3557523499
 30
0.0
 40
31.50755777528333
100
AcDbArc
 50
54.8280705831
 51
74.9420027521
  0
LINE
  5
1CD
330
1F
100
AcDbEntity
  8
0
  6
Continuous
 62
     7
370
    25
100
AcDbLine
 10
492.7155219444
 20
519.210973447
 30
0.0
 11
494.5036462282
 21
518.7814459437
 31
0.0
  0
LINE
  5
1CE
330
1F
100
AcDbEntity
  8
0
  6
Continuous
 62
     7
370
    25
100
AcDbLine
 10
492.6416845351
 20
529.6578292005
 30
0.0
 11
492.7155219444
 21
529.6681474967
 31
0.0
  0
SPLINE
  5
1CF
330
1F
100
AcDbEntity
  8
0
  6
Continuous
 62
     7
370
    25
100
AcDbSpline
210
0.0
220
0.0
230
1.0
 70
     8
 71
     3
 72
    10
 73
     6
 74
     0
 42
0.00000001
 43
0.00000001
 40
0.0
 40
0.0
 40
0.0
 40
0.0
 40
0.0490769085761659
 40
0.599580584366531
 40
1.0
 40
1.0
 40
1.0
 40
1.0
 10
510.5864120154627
 20
515.3349623307415
 30
0.0
 10
510.5674644770937
 20
515.349585066343
 30
0.0
 10
510.3359793151872
 20
515.5282334085321
 30
0.0
 10
509.8901055403699
 20
515.7622854019532
 30
0.0
 10
509.4280989634854
 20
515.821299774971
 30
0.0
 10
509.2335549407317
 20
515.8461498401033
 30
0.0
  0
ARC
  5
1D0
330
1F
100
AcDbEntity
  8
0
  6
Continuous
 62
     7
370
    25
100
AcDbCircle
 10
492.6317135539
 20
518.8570270127
 30
0.0
 40
0.500076340490795
100
AcDbArc
 50
78.3065203377
 51
86.8373700347
  0
SPLINE
  5
1D1
330
1F
100
AcDbEntity
  8
0
  6
Continuous
 62
     7
370
    25
100
AcDbSpline
210
0.0
220
0.0
230
1.0
 70
     8
 71
     3
 72
     9
 73
     5
 74
     0
 42
0.00000001
 43
0.00000001
 40
0.0
 40
0.0
 40
0.0
 40
0.0
 40
0.8458911907785839
 40
1.0
 40
1.0
 40
1.0
 40
1.0
 10
492.715521944425
 20
519.2109734469904
 30
0.0
 10
492.694681348314
 20
519.2147882539828
 30
0.0
 10
492.6700439051792
 20
519.21929806214
 30
0.0
 10
492.6454713780029
 20
519.221025525891
 30
0.0
 10
492.6416845351002
 20
519.2212917432727
 30
0.0
  0
LINE
  5
1D2
330
1F
100
AcDbEntity
  8
0
  6
Continuous
 62
     7
370
    25
100
AcDbLine
 10
474.6462643375
 20
520.2875475965
 30
0.0
 11
474.6467223573
 21
520.2875225101
 31
0.0
  0
LINE
  5
1D3
330
1F
100
AcDbEntity
  8
0
  6
Continuous
 62
     7
370
    25
100
AcDbLine
 10
504.5083663385
 20
534.710165587
 30
0.0
 11
506.3471071878
 21
535.7071318227
 31
0.0
  0
LINE
  5
1D4
330
1F
100
AcDbEntity
  8
0
  6
Continuous
 62
     7
370
    25
100
AcDbLine
 10
507.087131603
 20
533.8494059228
 30
0.0
 11
506.3471071878
 21
535.7071318227
 31
0.0
  0
LINE
  5
1D5
330
1F
100
AcDbEntity
  8
0
  6
Continuous
 62
     7
370
    25
100
AcDbLine
 10
510.0739019297
 20
534.3285274098
 30
0.0
 11
510.1957356764
 21
536.3245079188
 31
0.0
  0
LINE
  5
1D6
330
1F
100
AcDbEntity
  8
0
  6
Continuous
 62
     7
370
    25
100
AcDbLine
 10
510.1957356764
 20
536.3245079188
 30
0.0
 11
511.6386429161
 21
536.1162208535
 31
0.0
  0
ARC
  5
1D7
330
1F
100
AcDbEntity
  8
0
  6
Continuous
 62
     7
370
    25
100
AcDbCircle
 10
509.6516869582
 20
527.4114549477
 30
0.0
 40
6.929946387144304
100
AcDbArc
 50
86.5070253286
 51
111.7198462835
  0
ARC
  5
1D8
330
1F
100
AcDbEntity
  8
0
  6
Continuous
 62
     7
370
    25
100
AcDbCircle
 10
509.6516869582
 20
527.4114549477
 30
0.0
 40
8.929641777457142
100
AcDbArc
 50
86.5070253286
 51
111.7198462835
  0
ARC
  5
1D9
330
1F
100
AcDbEntity
  8
0
  6
Continuous
 62
     7
370
    25
100
AcDbCircle
 10
486.3180878296
 20
488.3557523499
 30
0.0
 40
33.57753037464031
100
AcDbArc
 50
54.8280705831
 51
55.6099480104
  0
ARC
  5
1DA
330
1F
100
AcDbEntity
  8
0
  6
Continuous
 62
     7
370
    25
100
AcDbCircle
 10
500.9327227566
 20
559.6650613709
 30
0.0
 40
46.10980537323366
100
AcDbArc
 50
282.8580809319
 51
283.1066633214
  0
ARC
  5
1DB
330
1F
100
AcDbEntity
  8
0
  6
Continuous
 62
     7
370
    25
100
AcDbCircle
 10
509.6516869582
 20
521.4676659961
 30
0.0
 40
6.92994638714442
100
AcDbArc
 50
234.8280705831
 51
282.8580809319
  0
LINE
  5
1DC
330
1F
100
AcDbEntity
  8
0
  6
Continuous
 62
     7
370
    25
100
AcDbLine
 10
511.1938557161
 20
514.7114930815
 30
0.0
 11
511.6388617211
 21
512.7619415153
 31
0.0
  0
ARC
  5
1DD
330
1F
100
AcDbEntity
  8
0
  6
Continuous
 62
     7
370
    25
100
AcDbCircle
 10
509.6516869582
 20
521.4676659961
 30
0.0
 40
8.929641777457183
100
AcDbArc
 50
234.8280705831
 51
282.8580809319
  0
LINE
  5
1DE
330
1F
100
AcDbEntity
  8
0
  6
Continuous
 62
     7
370
    25
100
AcDbLine
 10
505.6598167183
 20
515.8029392669
 30
0.0
 11
504.5079283671
 21
514.1683338465
 31
0.0
  0
ARC
  5
1DF
330
1F
100
AcDbEntity
  8
0
  6
Continuous
 62
     7
370
    25
100
AcDbCircle
 10
509.6516869582
 20
527.4114549477
 30
0.0
 40
8.999918986501244
100
AcDbArc
 50
77.1419190681
 51
125.1719294169
  0
ARC
  5
1E0
330
1F
100
AcDbEntity
  8
0
  6
Continuous
 62
     7
370
    25
100
AcDbCircle
 10
509.6516869582
 20
521.4676659961
 30
0.0
 40
8.999918986501244
100
AcDbArc
 50
234.8280705831
 51
282.8580809319
  0
SPLINE
  5
1E1
330
1F
100
AcDbEntity
  8
0
  6
Continuous
 62
     7
370
    25
100
AcDbSpline
210
0.0
220
0.0
230
1.0
 70
     8
 71
     3
 72
    11
 73
     7
 74
     0
 42
0.00000001
 43
0.00000001
 40
0.0
 40
0.0
 40
0.0
 40
0.0
 40
0.2200386424382255
 40
0.6637869905998169
 40
0.8890365590789576
 40
1.0
 40
1.0
 40
1.0
 40
1.0
 10
727.6382923080236
 20
530.4598787788174
 30
0.0
 10
727.8425137710251
 20
530.1948601675585
 30
0.0
 10
728.4585853339086
 20
529.3953828372538
 30
0.0
 10
728.9821346849258
 20
528.132213566726
 30
0.0
 10
729.2337638846868
 20
526.9656437534019
 30
0.0
 10
729.2130566899646
 20
526.4543639547426
 30
0.0
 10
729.2062225059386
 20
526.2856216272702
 30
0.0
  0
SPLINE
  5
1E2
330
1F
100
AcDbEntity
  8
0
  6
Continuous
 62
     7
370
    25
100
AcDbSpline
210
0.0
220
0.0
230
1.0
 70
     8
 71
     3
 72
     9
 73
     5
 74
     0
 42
0.00000001
 43
0.00000001
 40
0.0
 40
0.0
 40
0.0
 40
0.0
 40
0.9209630919903056
 40
1.0
 40
1.0
 40
1.0
 40
1.0
 10
729.278334671271
 20
530.1395555031838
 30
0.0
 10
728.7639131333981
 20
530.1963825621025
 30
0.0
 10
728.2053440198832
 20
530.2580865102985
 30
0.0
 10
727.6798275082139
 20
530.4450979711864
 30
0.0
 10
727.6382923080236
 20
530.4598787788174
 30
0.0
  0
SPLINE
  5
1E3
330
1F
100
AcDbEntity
  8
0
  6
Continuous
 62
     7
370
    25
100
AcDbSpline
210
0.0
220
0.0
230
1.0
 70
     8
 71
     3
 72
    10
 73
     6
 74
     0
 42
0.00000001
 43
0.00000001
 40
0.0
 40
0.0
 40
0.0
 40
0.0
 40
0.2596150688488836
 40
0.629760644481066
 40
0.9999999999999999
 40
0.9999999999999999
 40
0.9999999999999999
 40
0.9999999999999999
 10
776.453495625208
 20
527.5479979341948
 30
0.0
 10
772.375675406485
 20
527.8477520712931
 30
0.0
 10
762.4839125731197
 20
528.5748799664574
 30
0.0
 10
746.7543398904465
 20
529.4007268363475
 30
0.0
 10
735.1041616291819
 20
529.8932584856132
 30
0.0
 10
729.278334671271
 20
530.1395555031838
 30
0.0
  0
SPLINE
  5
1E4
330
1F
100
AcDbEntity
  8
0
  6
Continuous
 62
     7
370
    25
100
AcDbSpline
210
0.0
220
0.0
230
1.0
 70
     8
 71
     3
 72
    11
 73
     7
 74
     0
 42
0.00000001
 43
0.00000001
 40
0.0
 40
0.0
 40
0.0
 40
0.0
 40
0.061464119541392
 40
0.4999988937835377
 40
0.9375097801832794
 40
1.0
 40
1.0
 40
1.0
 40
1.0
 10
776.4534956252078
 20
521.8219655871928
 30
0.0
 10
776.4651648214102
 20
521.938422559645
 30
0.0
 10
776.5600915076797
 20
522.8857778269762
 30
0.0
 10
776.643794334946
 20
524.6830220254244
 30
0.0
 10
776.5602244114256
 20
526.4822200496653
 30
0.0
 10
776.4653527063804
 20
527.4295948740984
 30
0.0
 10
776.453495625208
 20
527.5479979341948
 30
0.0
  0
SPLINE
  5
1E5
330
1F
100
AcDbEntity
  8
0
  6
Continuous
 62
     7
370
    25
100
AcDbSpline
210
0.0
220
0.0
230
1.0
 70
     8
 71
     3
 72
    11
 73
     7
 74
     0
 42
0.00000001
 43
0.00000001
 40
0.0
 40
0.0
 40
0.0
 40
0.0
 40
0.259458927729189
 40
0.6296002946237427
 40
0.8147836738016297
 40
1.0
 40
1.0
 40
1.0
 40
1.0
 10
729.278334671271
 20
519.2304080182057
 30
0.0
 10
733.3613353206159
 20
519.3959066046266
 30
0.0
 10
743.2691015874203
 20
519.7975037270782
 30
0.0
 10
756.0842385463812
 20
520.4757565431015
 30
0.0
 10
767.7285108126408
 20
521.1531774353136
 30
0.0
 10
773.5449948957736
 20
521.599022983926
 30
0.0
 10
776.4534956252078
 20
521.8219655871928
 30
0.0
  0
SPLINE
  5
1E6
330
1F
100
AcDbEntity
  8
0
  6
Continuous
 62
     7
370
    25
100
AcDbSpline
210
0.0
220
0.0
230
1.0
 70
     8
 71
     3
 72
     9
 73
     5
 74
     0
 42
0.00000001
 43
0.00000001
 40
0.0
 40
0.0
 40
0.0
 40
0.0
 40
0.0790369080192139
 40
1.0
 40
1.0
 40
1.0
 40
1.0
 10
727.6382923080243
 20
518.9100847425724
 30
0.0
 10
727.6798275082197
 20
518.9248655502051
 30
0.0
 10
728.2053440198889
 20
519.1118770110929
 30
0.0
 10
728.7639131334035
 20
519.1735809592883
 30
0.0
 10
729.278334671271
 20
519.2304080182057
 30
0.0
  0
SPLINE
  5
1E7
330
1F
100
AcDbEntity
  8
0
  6
Continuous
 62
     7
370
    25
100
AcDbSpline
210
0.0
220
0.0
230
1.0
 70
     8
 71
     3
 72
    11
 73
     7
 74
     0
 42
0.00000001
 43
0.00000001
 40
0.0
 40
0.0
 40
0.0
 40
0.0
 40
0.0728838064943292
 40
0.4140719411596028
 40
0.9209668754550567
 40
1.0
 40
1.0
 40
1.0
 40
1.0
 10
729.2062225059348
 20
523.0843418941342
 30
0.0
 10
729.2139376550725
 20
522.9738954598953
 30
0.0
 10
729.257769432437
 20
522.3464204195642
 30
0.0
 10
728.913277720999
 20
520.9634283890991
 30
0.0
 10
728.2735883715128
 20
519.6934968713216
 30
0.0
 10
727.7137996220798
 20
519.0031962051487
 30
0.0
 10
727.6382923080243
 20
518.9100847425724
 30
0.0
  0
SPLINE
  5
1E8
330
1F
100
AcDbEntity
  8
0
  6
Continuous
 62
     7
370
    25
100
AcDbSpline
210
0.0
220
0.0
230
1.0
 70
     8
 71
     3
 72
    10
 73
     6
 74
     0
 42
0.00000001
 43
0.00000001
 40
0.0
 40
0.0
 40
0.0
 40
0.0
 40
0.3880207377811385
 40
0.9790637766506849
 40
1.0
 40
1.0
 40
1.0
 40
1.0
 10
729.2062225059386
 20
526.2856216272702
 30
0.0
 10
729.1329079751791
 20
525.8747817654145
 30
0.0
 10
728.9479188898558
 20
524.8381401955662
 30
0.0
 10
729.0436258156869
 20
523.7443708739949
 30
0.0
 10
729.2008439669347
 20
523.1061750052754
 30
0.0
 10
729.2062225059348
 20
523.0843418941342
 30
0.0
  0
ARC
  5
1E9
330
1F
100
AcDbEntity
  8
0
  6
Continuous
 62
     7
370
    25
100
AcDbCircle
 10
720.9607021634
 20
524.6849817607
 30
0.0
 40
8.399443654264694
100
AcDbArc
 50
10.985757993
 51
349.0142420071
  0
SPLINE
  5
1EA
330
1F
100
AcDbEntity
  8
0
  6
Continuous
 62
     7
370
    25
100
AcDbSpline
210
0.0
220
0.0
230
1.0
 70
     8
 71
     3
 72
     9
 73
     5
 74
     0
 42
0.00000001
 43
0.00000001
 40
0.0
 40
0.0
 40
0.0
 40
0.0
 40
0.681792342127431
 40
1.0
 40
1.0
 40
1.0
 40
1.0
 10
727.6382923080243
 20
518.9100847425724
 30
0.0
 10
727.4960287473813
 20
518.7201743874672
 30
0.0
 10
727.2873676172209
 20
518.4416286435936
 30
0.0
 10
727.0579417833405
 20
518.2087242706507
 30
0.0
 10
726.984936726086
 20
518.1346123156281
 30
0.0
  0
ARC
  5
1EB
330
1F
100
AcDbEntity
  8
0
  6
Continuous
 62
     7
370
    25
100
AcDbCircle
 10
720.9607021634
 20
524.6849817607
 30
0.0
 40
8.899367501836373
100
AcDbArc
 50
47.3959191961
 51
312.6040808039
  0
LINE
  5
1EC
330
1F
100
AcDbEntity
  8
0
  6
Continuous
 62
     7
370
    25
100
AcDbLine
 10
726.9849367261
 20
531.2353512058
 30
0.0
 11
727.638292308
 21
530.4598787788
 31
0.0
  0
SPLINE
  5
1ED
330
1F
100
AcDbEntity
  8
0
  6
Continuous
 62
     7
370
    25
100
AcDbSpline
210
0.0
220
0.0
230
1.0
 70
     8
 71
     3
 72
    10
 73
     6
 74
     0
 42
0.00000001
 43
0.00000001
 40
0.0
 40
0.0
 40
0.0
 40
0.0
 40
0.3702896688583046
 40
0.7405318123903298
 40
0.9999999999999999
 40
0.9999999999999999
 40
0.9999999999999999
 40
0.9999999999999999
 10
776.4650150883863
 20
521.3791060063596
 30
0.0
 10
770.644951242168
 20
521.0589149918334
 30
0.0
 10
759.0055705336642
 20
520.4185740581278
 30
0.0
 10
743.2867021268896
 20
519.5493397262645
 30
0.0
 10
733.3895283108798
 20
519.0005987246553
 30
0.0
 10
729.3114599904155
 20
518.7744934408234
 30
0.0
  0
ARC
  5
1EE
330
1F
100
AcDbEntity
  8
0
  6
Continuous
 62
     7
370
    25
100
AcDbCircle
 10
736.5265491978
 20
519.5278798075
 30
0.0
 40
7.254316183329676
100
AcDbArc
 50
182.3501399448
 51
185.9611177313
  0
ARC
  5
1EF
330
1F
100
AcDbEntity
  8
0
  6
Continuous
 62
     7
370
    25
100
AcDbCircle
 10
772.2044925472
 20
521.4898628304
 30
0.0
 40
4.261961918837355
100
AcDbArc
 50
358.5108705386
 51
4.4691613065
  0
SPLINE
  5
1F0
330
1F
100
AcDbEntity
  8
0
  6
Continuous
 62
     7
370
    25
100
AcDbSpline
210
0.0
220
0.0
230
1.0
 70
     8
 71
     3
 72
    10
 73
     6
 74
     0
 42
0.00000001
 43
0.00000001
 40
0.0
 40
0.0
 40
0.0
 40
0.0
 40
0.3702717503651152
 40
0.7405122151371749
 40
1.0
 40
1.0
 40
1.0
 40
1.0
 10
729.3114599904155
 20
530.595470080566
 30
0.0
 10
735.1311320520848
 20
530.2729415948982
 30
0.0
 10
746.7699844503817
 20
529.6279118751551
 30
0.0
 10
762.4891240343363
 20
528.759097387676
 30
0.0
 10
772.386621458035
 20
528.2150424769092
 30
0.0
 10
776.465015088383
 20
527.99085751503
 30
0.0
  0
ARC
  5
1F1
330
1F
100
AcDbEntity
  8
0
  6
Continuous
 62
     7
370
    25
100
AcDbCircle
 10
772.2044925443
 20
527.8801006911
 30
0.0
 40
4.261961921788977
100
AcDbArc
 50
355.530838696
 51
1.4891294598
  0
ARC
  5
1F2
330
1F
100
AcDbEntity
  8
0
  6
Continuous
 62
     7
370
    25
100
AcDbCircle
 10
736.5265491979
 20
529.8420837139
 30
0.0
 40
7.254316183429143
100
AcDbArc
 50
174.0388822687
 51
177.6498600552
  0
SPLINE
  5
1F3
330
1F
100
AcDbEntity
  8
0
  6
Continuous
 62
     7
370
    25
100
AcDbSpline
210
0.0
220
0.0
230
1.0
 70
     8
 71
     3
 72
    12
 73
     8
 74
     0
 42
0.00000001
 43
0.00000001
 40
0.0
 40
0.0
 40
0.0
 40
0.0
 40
0.1224290494151348
 40
0.3423522449770467
 40
0.5614228816909441
 40
0.7807229538533574
 40
1.0
 40
1.0
 40
1.0
 40
1.0
 10
778.3892230580556
 20
527.4373235645386
 30
0.0
 10
778.3802189821915
 20
527.4396822489796
 30
0.0
 10
778.3550405984605
 20
527.4462779133042
 30
0.0
 10
778.1390529148158
 20
527.4632858810435
 30
0.0
 10
777.7031547850868
 20
527.4887968551978
 30
0.0
 10
777.1192291716565
 20
527.5183490377572
 30
0.0
 10
776.6753990400885
 20
527.5381153146362
 30
0.0
 10
776.453495625208
 20
527.5479979341948
 30
0.0
  0
SPLINE
  5
1F4
330
1F
100
AcDbEntity
  8
0
  6
Continuous
 62
     7
370
    25
100
AcDbSpline
210
0.0
220
0.0
230
1.0
 70
     8
 71
     3
 72
    11
 73
     7
 74
     0
 42
0.00000001
 43
0.00000001
 40
0.0
 40
0.0
 40
0.0
 40
0.0
 40
0.0800485240044433
 40
0.5000005853538798
 40
0.9209248322279645
 40
1.0
 40
1.0
 40
1.0
 40
1.0
 10
778.3892230580556
 20
527.4373235645386
 30
0.0
 10
778.3889368136414
 20
527.291079139438
 30
0.0
 10
778.3871488684368
 20
526.3776044806048
 30
0.0
 10
778.3859131716068
 20
524.6831948928464
 30
0.0
 10
778.3871508697018
 20
522.9905680409917
 30
0.0
 10
778.3889400916697
 20
522.0771046653477
 30
0.0
 10
778.3892230580556
 20
521.9326399568564
 30
0.0
  0
SPLINE
  5
1F5
330
1F
100
AcDbEntity
  8
0
  6
Continuous
 62
     7
370
    25
100
AcDbSpline
210
0.0
220
0.0
230
1.0
 70
     8
 71
     3
 72
    12
 73
     8
 74
     0
 42
0.00000001
 43
0.00000001
 40
0.0
 40
0.0
 40
0.0
 40
0.0
 40
0.1130367476169362
 40
0.3328594693548023
 40
0.5544127937945006
 40
0.7774207483513244
 40
1.0
 40
1.0
 40
1.0
 40
1.0
 10
776.4534956252078
 20
521.8219655871928
 30
0.0
 10
776.5675664651948
 20
521.8269808328943
 30
0.0
 10
776.9034710278027
 20
521.84174923395
 30
0.0
 10
777.4375388841975
 20
521.8673414380594
 30
0.0
 10
777.9540645220846
 20
521.8952167009304
 30
0.0
 10
778.3109592392391
 20
521.9186585745209
 30
0.0
 10
778.3631518567576
 20
521.9279824862806
 30
0.0
 10
778.3892230580556
 20
521.9326399568564
 30
0.0
  0
SPLINE
  5
1F6
330
1F
100
AcDbEntity
  8
0
  6
Continuous
 62
     7
370
    25
100
AcDbSpline
210
0.0
220
0.0
230
1.0
 70
     8
 71
     3
 72
     9
 73
     5
 74
     0
 42
0.00000001
 43
0.00000001
 40
0.0
 40
0.0
 40
0.0
 40
0.0
 40
0.500010612381544
 40
1.0
 40
1.0
 40
1.0
 40
1.0
 10
726.4853288772431
 20
531.6671828950077
 30
0.0
 10
726.9150502440639
 20
531.3793423569144
 30
0.0
 10
727.7744747366245
 20
530.803673499163
 30
0.0
 10
728.7991388219027
 20
530.6648702380762
 30
0.0
 10
729.3114599904155
 20
530.595470080566
 30
0.0
  0
SPLINE
  5
1F7
330
1F
100
AcDbEntity
  8
0
  6
Continuous
 62
     7
370
    25
100
AcDbSpline
210
0.0
220
0.0
230
1.0
 70
     8
 71
     3
 72
     9
 73
     5
 74
     0
 42
0.00000001
 43
0.00000001
 40
0.0
 40
0.0
 40
0.0
 40
0.0
 40
0.9838702326459385
 40
1.0
 40
1.0
 40
1.0
 40
1.0
 10
726.9849367260858
 20
531.2353512057614
 30
0.0
 10
726.8235959111513
 20
531.3801836187804
 30
0.0
 10
726.6596100423028
 20
531.5273904436372
 30
0.0
 10
726.4880953690209
 20
531.6649638676837
 30
0.0
 10
726.4853288772431
 20
531.6671828950077
 30
0.0
  0
SPLINE
  5
1F8
330
1F
100
AcDbEntity
  8
0
  6
Continuous
 62
     7
370
    25
100
AcDbSpline
210
0.0
220
0.0
230
1.0
 70
     8
 71
     3
 72
     9
 73
     5
 74
     0
 42
0.00000001
 43
0.00000001
 40
0.0
 40
0.0
 40
0.0
 40
0.0
 40
0.5055561057107305
 40
1.0
 40
1.0
 40
1.0
 40
1.0
 10
729.3114599904155
 20
518.7744934408234
 30
0.0
 10
728.7934004730826
 20
518.7038374065536
 30
0.0
 10
727.7686684770073
 20
518.5640783699761
 30
0.0
 10
726.9099279082457
 20
517.9877450951805
 30
0.0
 10
726.4853288772431
 20
517.7027806263818
 30
0.0
  0
SPLINE
  5
1F9
330
1F
100
AcDbEntity
  8
0
  6
Continuous
 62
     7
370
    25
100
AcDbSpline
210
0.0
220
0.0
230
1.0
 70
     8
 71
     3
 72
     9
 73
     5
 74
     0
 42
0.00000001
 43
0.00000001
 40
0.0
 40
0.0
 40
0.0
 40
0.0
 40
0.0161297673533178
 40
0.9999999999999999
 40
0.9999999999999999
 40
0.9999999999999999
 40
0.9999999999999999
 10
726.4853288772431
 20
517.7027806263818
 30
0.0
 10
726.4880953690208
 20
517.7049996537057
 30
0.0
 10
726.6596100423068
 20
517.8425730777553
 30
0.0
 10
726.8235959111533
 20
517.9897799026106
 30
0.0
 10
726.984936726086
 20
518.1346123156281
 30
0.0
  0
SPLINE
  5
1FA
330
1F
100
AcDbEntity
  8
0
  6
Continuous
 62
     7
370
    25
100
AcDbSpline
210
0.0
220
0.0
230
1.0
 70
     8
 71
     3
 72
    12
 73
     8
 74
     0
 42
0.00000001
 43
0.00000001
 40
0.0
 40
0.0
 40
0.0
 40
0.0
 40
0.2230315344150434
 40
0.4461337558340359
 40
0.6675099896777019
 40
0.8870667292265005
 40
1.0
 40
1.0
 40
1.0
 40
1.0
 10
777.9168687929712
 20
521.4334768858081
 30
0.0
 10
777.8973350068452
 20
521.4353671331029
 30
0.0
 10
777.8582612436087
 20
521.4391482267822
 30
0.0
 10
777.5906720615525
 20
521.4322053905116
 30
0.0
 10
777.2031429777276
 20
521.4166165680217
 30
0.0
 10
776.8024208652643
 20
521.3972792879575
 30
0.0
 10
776.5505614430065
 20
521.383713686781
 30
0.0
 10
776.4650150883863
 20
521.3791060063596
 30
0.0
  0
ARC
  5
1FB
330
1F
100
AcDbEntity
  8
0
  6
Continuous
 62
     7
370
    25
100
AcDbCircle
 10
777.8891231705
 20
521.9328065422
 30
0.0
 40
0.5000999153467998
100
AcDbArc
 50
273.1804119247
 51
359.9809145383
  0
SPLINE
  5
1FC
330
1F
100
AcDbEntity
  8
0
  6
Continuous
 62
     7
370
    25
100
AcDbSpline
210
0.0
220
0.0
230
1.0
 70
     8
 71
     3
 72
    12
 73
     8
 74
     0
 42
0.00000001
 43
0.00000001
 40
0.0
 40
0.0
 40
0.0
 40
0.0
 40
0.2190444340109334
 40
0.4380981679380241
 40
0.6571027493691853
 40
0.8772791087290019
 40
1.0
 40
1.0
 40
1.0
 40
1.0
 10
776.465015088383
 20
527.99085751503
 30
0.0
 10
776.6314328291538
 20
527.9820287020804
 30
0.0
 10
776.9642753762529
 20
527.9643707013381
 30
0.0
 10
777.402433818896
 20
527.944852211929
 30
0.0
 10
777.7293996456557
 20
527.9335464282967
 30
0.0
 10
777.8912435226697
 20
527.93172256022
 30
0.0
 10
777.910114855082
 20
527.9352309895448
 30
0.0
 10
777.9168687929711
 20
527.9364866355814
 30
0.0
  0
ARC
  5
1FD
330
1F
100
AcDbEntity
  8
0
  6
Continuous
 62
     7
370
    25
100
AcDbCircle
 10
777.8891231705
 20
527.4371569792
 30
0.0
 40
0.5000999153470679
100
AcDbArc
 50
0.0190854624
 51
86.8195880753
  0
LINE
  5
1FE
330
1F
100
AcDbEntity
  8
0
  6
Continuous
 62
     7
370
    25
100
AcDbLine
 10
729.3114599904
 20
518.7744934408
 30
0.0
 11
729.3384461721
 21
518.7032031655
 31
0.0
  0
LINE
  5
1FF
330
1F
100
AcDbEntity
  8
0
  6
Continuous
 62
     7
370
    25
100
AcDbLine
 10
777.9215591536
 20
521.4290384327
 30
0.0
 11
777.916868793
 21
521.4334768858
 31
0.0
  0
ELLIPSE
  5
200
330
1F
100
AcDbEntity
  8
0
  6
Continuous
 62
     7
370
    25
100
AcDbEllipse
 10
776.4217876109
 20
521.3457459827
 30
0.0
 11
1.499999304622861
 21
0.0828726334386829
 31
0.0
210
0.0
220
0.0
230
1.0
 40
0.0174284859
 41
5.396717970286284
 42
6.299675703199756
  0
LINE
  5
201
330
1F
100
AcDbEntity
  8
0
  6
Continuous
 62
     7
370
    25
100
AcDbLine
 10
773.9061729419
 20
521.1369863947
 30
0.0
 11
777.3711361513
 21
521.3778776737
 31
0.0
  0
LINE
  5
202
330
1F
100
AcDbEntity
  8
0
  6
Continuous
 62
     7
370
    25
100
AcDbLine
 10
773.9061729419
 20
521.1370847859
 30
0.0
 11
773.9061729419
 21
521.1369863947
 31
0.0
  0
ELLIPSE
  5
203
330
1F
100
AcDbEntity
  8
0
  6
Continuous
 62
     7
370
    25
100
AcDbEllipse
 10
764.4566865209
 20
520.8074387345
 30
0.0
 11
14.49999327802038
 21
0.801102123240753
 31
0.0
210
0.0
220
0.0
230
1.0
 40
0.0174284859
 41
4.6851094924422
 42
5.421234828998442
  0
ELLIPSE
  5
204
330
1F
100
AcDbEntity
  8
0
  6
Continuous
 62
     7
370
    25
100
AcDbEllipse
 10
763.1356766054
 20
519.8571551852
 30
0.0
 11
35.70262504606012
 21
1.972514619921981
 31
0.0
210
0.0
220
0.0
230
1.0
 40
0.0174284859
 41
1.543516838852417
 42
2.025717338717928
  0
ELLIPSE
  5
205
330
1F
100
AcDbEntity
  8
0
  6
Continuous
 62
     7
370
    25
100
AcDbEllipse
 10
744.1154491333
 20
519.4847591255
 30
0.0
 11
7.499996523113964
 21
0.4143631671935282
 31
0.0
210
0.0
220
0.0
230
1.0
 40
0.0174284859
 41
4.976419334597757
 42
5.167309992308295
  0
LINE
  5
206
330
1F
100
AcDbEntity
  8
0
  6
Continuous
 62
     7
370
    25
100
AcDbLine
 10
746.0601015344
 20
519.6171035767
 30
0.0
 11
746.0797197918
 21
519.4667130321
 31
0.0
  0
SPLINE
  5
207
330
1F
100
AcDbEntity
  8
0
  6
Continuous
 62
     7
370
    25
100
AcDbSpline
210
0.0
220
0.0
230
1.0
 70
     8
 71
     3
 72
    10
 73
     6
 74
     0
 42
0.00000001
 43
0.00000001
 40
0.0
 40
0.0
 40
0.0
 40
0.0
 40
0.0186368637457253
 40
0.3939469944633057
 40
1.0
 40
1.0
 40
1.0
 40
1.0
 10
745.8763302486853
 20
519.6166172094197
 30
0.0
 10
745.8787864559341
 20
519.6167049598989
 30
0.0
 10
745.9307058924112
 20
519.6185598340919
 30
0.0
 10
746.0347047408891
 20
519.6212398154701
 30
0.0
 10
746.0504053982384
 20
519.6186827340725
 30
0.0
 10
746.0601015343818
 20
519.6171035766646
 30
0.0
  0
LINE
  5
208
330
1F
100
AcDbEntity
  8
0
  6
Continuous
 62
     7
370
    25
100
AcDbLine
 10
729.3384461721
 20
518.7032031655
 30
0.0
 11
745.8763302487
 21
519.6166172094
 31
0.0
  0
LINE
  5
209
330
1F
100
AcDbEntity
  8
0
  6
Continuous
 62
     7
370
    25
100
AcDbLine
 10
745.8783959806
 20
529.7695499608
 30
0.0
 11
729.3444875572
 21
530.682744423
 31
0.0
  0
SPLINE
  5
20A
330
1F
100
AcDbEntity
  8
0
  6
Continuous
 62
     7
370
    25
100
AcDbSpline
210
0.0
220
0.0
230
1.0
 70
     8
 71
     3
 72
    11
 73
     7
 74
     0
 42
0.00000001
 43
0.00000001
 40
0.0
 40
0.0
 40
0.0
 40
0.0
 40
0.4177469294495291
 40
0.8392770662410922
 40
0.9817832068819584
 40
1.0
 40
1.0
 40
1.0
 40
1.0
 10
746.0621014212537
 20
529.7682005155116
 30
0.0
 10
746.0574643932218
 20
529.7671173243278
 30
0.0
 10
746.0481483432205
 20
529.7649411323447
 30
0.0
 10
745.9726518774703
 20
529.7661433092361
 30
0.0
 10
745.9023916768983
 20
529.7686138365762
 30
0.0
 10
745.8808388402407
 20
529.769454659533
 30
0.0
 10
745.8783959806107
 20
529.7695499607917
 30
0.0
  0
LINE
  5
20B
330
1F
100
AcDbEntity
  8
0
  6
Continuous
 62
     7
370
    25
100
AcDbLine
 10
746.0797197918
 20
529.9032504893
 30
0.0
 11
746.0621014213
 21
529.7682005155
 31
0.0
  0
ELLIPSE
  5
20C
330
1F
100
AcDbEntity
  8
0
  6
Continuous
 62
     7
370
    25
100
AcDbEllipse
 10
744.1154491333
 20
529.8852043959
 30
0.0
 11
7.499996523114078
 21
-0.4143631671935282
 31
0.0
210
0.0
220
0.0
230
1.0
 40
0.0174284859
 41
1.115875314871824
 42
1.306765972581883
  0
ELLIPSE
  5
20D
330
1F
100
AcDbEntity
  8
0
  6
Continuous
 62
     7
370
    25
100
AcDbEllipse
 10
763.1356766054
 20
529.5128083362
 30
0.0
 11
35.70262504606012
 21
-1.972514619921981
 31
0.0
210
0.0
220
0.0
230
1.0
 40
0.0174284859
 41
4.257467968461738
 42
4.739668468327169
  0
ELLIPSE
  5
20E
330
1F
100
AcDbEntity
  8
0
  6
Continuous
 62
     7
370
    25
100
AcDbEllipse
 10
764.4566865209
 20
528.5625247869
 30
0.0
 11
14.49999327802038
 21
-0.801102123240753
 31
0.0
210
0.0
220
0.0
230
1.0
 40
0.0174284859
 41
0.8619504781817269
 42
1.598075814737374
  0
LINE
  5
20F
330
1F
100
AcDbEntity
  8
0
  6
Continuous
 62
     7
370
    25
100
AcDbLine
 10
773.9061729419
 20
528.2329771267
 30
0.0
 11
773.9061729419
 21
528.2328787354
 31
0.0
  0
LINE
  5
210
330
1F
100
AcDbEntity
  8
0
  6
Continuous
 62
     7
370
    25
100
AcDbLine
 10
777.3711361513
 20
527.9920858477
 30
0.0
 11
773.9061729419
 21
528.2329771267
 31
0.0
  0
ELLIPSE
  5
211
330
1F
100
AcDbEntity
  8
0
  6
Continuous
 62
     7
370
    25
100
AcDbEllipse
 10
776.4217876109
 20
528.0242175387
 30
0.0
 11
1.499999304622861
 21
-0.08287263343856921
 31
0.0
210
0.0
220
0.0
230
1.0
 40
0.0174284859
 41
0.4827407934793567
 42
0.8864673368945186
  0
LINE
  5
212
330
1F
100
AcDbEntity
  8
0
  6
Continuous
 62
     7
370
    25
100
AcDbLine
 10
777.916868793
 20
527.9364866356
 30
0.0
 11
777.9215591536
 21
527.9409250887
 31
0.0
  0
LINE
  5
213
330
1F
100
AcDbEntity
  8
0
  6
Continuous
 62
     7
370
    25
100
AcDbLine
 10
729.3444875572
 20
530.682744423
 30
0.0
 11
729.3114599904
 21
530.5954700806
 31
0.0
  0
SPLINE
  5
214
330
1F
100
AcDbEntity
  8
0
  6
Continuous
 62
     7
370
    25
100
AcDbSpline
210
0.0
220
0.0
230
1.0
 70
     8
 71
     3
 72
     9
 73
     5
 74
     0
 42
0.00000001
 43
0.00000001
 40
0.0
 40
0.0
 40
0.0
 40
0.0
 40
0.5001021276704695
 40
1.0
 40
1.0
 40
1.0
 40
1.0
 10
726.5185477432985
 20
517.6370891794218
 30
0.0
 10
726.9474955190059
 20
517.9236148135102
 30
0.0
 10
727.8052158764563
 20
518.4965490568081
 30
0.0
 10
728.8274390050714
 20
518.6343278432622
 30
0.0
 10
729.3384461721122
 20
518.7032031654628
 30
0.0
  0
LINE
  5
215
330
1F
100
AcDbEntity
  8
0
  6
Continuous
 62
     7
370
    25
100
AcDbLine
 10
726.5185477433
 20
517.6370891794
 30
0.0
 11
726.4853288772
 21
517.7027806264
 31
0.0
  0
SPLINE
  5
216
330
1F
100
AcDbEntity
  8
0
  6
Continuous
 62
     7
370
    25
100
AcDbSpline
210
0.0
220
0.0
230
1.0
 70
     8
 71
     3
 72
     9
 73
     5
 74
     0
 42
0.00000001
 43
0.00000001
 40
0.0
 40
0.0
 40
0.0
 40
0.0
 40
0.400722737156528
 40
1.0
 40
1.0
 40
1.0
 40
1.0
 10
729.3444875571638
 20
530.6827444230062
 30
0.0
 10
728.9358014337546
 20
530.7311516850718
 30
0.0
 10
727.9159288747148
 20
530.8519515738155
 30
0.0
 10
727.0468528308888
 20
531.4120588471692
 30
0.0
 10
726.526035318142
 20
531.7477184008434
 30
0.0
  0
LINE
  5
217
330
1F
100
AcDbEntity
  8
0
  6
Continuous
 62
     7
370
    25
100
AcDbLine
 10
726.4853288772
 20
531.667182895
 30
0.0
 11
726.5260353181
 21
531.7477184008
 31
0.0
  0
ARC
  5
218
330
1F
100
AcDbEntity
  8
0
  6
Continuous
 62
     7
370
    25
100
AcDbCircle
 10
720.9607021634
 20
524.6849817607
 30
0.0
 40
8.975658044222124
100
AcDbArc
 50
245.1648853947
 51
308.2586979829
  0
LWPOLYLINE
  5
219
330
1F
100
AcDbEntity
  8
0
  6
Continuous
 62
     7
370
    25
100
AcDbPolyline
 90
        3
 70
   128
 43
0.0
 10
717.0253887392
 20
516.4343220374
 10
717.1299703033
 20
516.5005744487
 10
717.190850846
 20
516.539390415
  0
ARC
  5
21A
330
1F
100
AcDbEntity
  8
0
  6
Continuous
 62
     7
370
    25
100
AcDbCircle
 10
720.9607021634
 20
524.6849817607
 30
0.0
 40
9.141120151092208
100
AcDbArc
 50
115.4997164176
 51
244.500279429
  0
LWPOLYLINE
  5
21B
330
1F
100
AcDbEntity
  8
0
  6
Continuous
 62
     7
370
    25
100
AcDbPolyline
 90
        3
 70
   128
 43
0.0
 10
717.1745579356
 20
532.8409791771
 10
717.1299703033
 20
532.8693890727
 10
717.0253887389
 20
532.9356414842
  0
ARC
  5
21C
330
1F
100
AcDbEntity
  8
0
  6
Continuous
 62
     7
370
    25
100
AcDbCircle
 10
720.9607021634
 20
524.6849817607
 30
0.0
 40
8.991950954660766
100
AcDbArc
 50
51.762407147
 51
114.9014811666
  0
LINE
  5
21D
330
1F
100
AcDbEntity
  8
0
  6
Continuous
 62
     7
370
    25
100
AcDbLine
 10
778.3939134187
 20
527.4417620176
 30
0.0
 11
778.3892230581
 21
527.4373235645
 31
0.0
  0
LINE
  5
21E
330
1F
100
AcDbEntity
  8
0
  6
Continuous
 62
     7
370
    25
100
AcDbLine
 10
778.3939134187
 20
521.9282015038
 30
0.0
 11
778.3939134187
 21
527.4417620176
 31
0.0
  0
LINE
  5
21F
330
1F
100
AcDbEntity
  8
0
  6
Continuous
 62
     7
370
    25
100
AcDbLine
 10
778.3892230581
 20
521.9326399569
 30
0.0
 11
778.3939134187
 21
521.9282015038
 31
0.0
  0
ARC
  5
220
330
1F
100
AcDbEntity
  8
0
  6
Continuous
 62
     7
370
    25
100
AcDbCircle
 10
777.8938135311
 20
527.4415954323
 30
0.0
 40
0.5000999153468471
100
AcDbArc
 50
0.0190854617
 51
86.8195880753
  0
ARC
  5
221
330
1F
100
AcDbEntity
  8
0
  6
Continuous
 62
     7
370
    25
100
AcDbCircle
 10
777.8938135311
 20
521.9283680891
 30
0.0
 40
0.5000999153466861
100
AcDbArc
 50
273.1804119247
 51
359.9809145383
  0
LINE
  5
222
330
1F
100
AcDbEntity
  8
0
  6
Continuous
 62
     7
370
    25
100
AcDbLine
 10
777.3711361513
 20
521.3778776737
 30
0.0
 11
777.3782438821
 21
521.3782447103
 31
0.0
  0
LINE
  5
223
330
1F
100
AcDbEntity
  8
0
  6
Continuous
 62
     7
370
    25
100
AcDbLine
 10
777.3711361513
 20
527.9920858477
 30
0.0
 11
777.3782438821
 21
527.991718811
 31
0.0
  0
SPLINE
  5
224
330
1F
100
AcDbEntity
  8
0
  6
Continuous
 62
     7
370
    25
100
AcDbSpline
210
0.0
220
0.0
230
1.0
 70
     8
 71
     3
 72
    12
 73
     8
 74
     0
 42
0.00000001
 43
0.00000001
 40
0.0
 40
0.0
 40
0.0
 40
0.0
 40
0.1662426524176545
 40
0.3368059756191297
 40
0.6054181071254586
 40
0.8801435087136193
 40
1.0
 40
1.0
 40
1.0
 40
1.0
 10
727.0827614107423
 20
513.0083213790239
 30
0.0
 10
726.4450798902061
 20
513.1638065545068
 30
0.0
 10
725.1531434134056
 20
513.478817987862
 30
0.0
 10
722.9689570310561
 20
514.1417830928605
 30
0.0
 10
720.6069826874964
 20
514.993978009666
 30
0.0
 10
718.6414451256038
 20
515.836606688278
 30
0.0
 10
717.5276701408083
 20
516.3744647809733
 30
0.0
 10
717.1893546626507
 20
516.5378422318006
 30
0.0
  0
LINE
  5
225
330
1F
100
AcDbEntity
  8
0
  6
Continuous
 62
     7
370
    25
100
AcDbLine
 10
727.0827614107
 20
513.008321379
 30
0.0
 11
727.0669033338
 21
512.9388478475
 31
0.0
  0
ARC
  5
226
330
1F
100
AcDbEntity
  8
0
  6
Continuous
 62
     7
370
    25
100
AcDbCircle
 10
737.7886815703
 20
559.9104826597
 30
0.0
 40
48.17977797259048
100
AcDbArc
 50
244.4718479123
 51
257.1419190681
  0
LWPOLYLINE
  5
227
330
1F
100
AcDbEntity
  8
0
  6
Continuous
 62
     7
370
    25
100
AcDbPolyline
 90
        3
 70
   128
 43
0.0
 10
717.1893546627
 20
516.5378422318
 10
717.1299668123
 20
516.5003185282
 10
717.0253887395
 20
516.4343204983
  0
SPLINE
  5
228
330
1F
100
AcDbEntity
  8
0
  6
Continuous
 62
     7
370
    25
100
AcDbSpline
210
0.0
220
0.0
230
1.0
 70
     8
 71
     3
 72
    11
 73
     7
 74
     0
 42
0.00000001
 43
0.00000001
 40
0.0
 40
0.0
 40
0.0
 40
0.0
 40
0.1345990676765959
 40
0.4126978815969493
 40
0.6969472592954598
 40
1.0
 40
1.0
 40
1.0
 40
1.0
 10
717.1900722396077
 20
516.5385837978745
 30
0.0
 10
717.619378259856
 20
516.3476999127133
 30
0.0
 10
718.9356851865803
 20
515.7624256132935
 30
0.0
 10
721.3114952374635
 20
515.1399577292699
 30
0.0
 10
724.3651846223446
 20
514.7634550467695
 30
0.0
 10
726.5562145307053
 20
514.7363137184367
 30
0.0
 10
727.6868040482433
 20
514.7223085689916
 30
0.0
  0
ARC
  5
229
330
1F
100
AcDbEntity
  8
0
  6
Continuous
 62
     7
370
    25
100
AcDbCircle
 10
723.1942730552
 20
515.3421326136
 30
0.0
 40
4.535087272521946
100
AcDbArc
 50
329.0284626407
 51
352.1446266983
  0
LINE
  5
22A
330
1F
100
AcDbEntity
  8
0
  6
Continuous
 62
     7
370
    25
100
AcDbLine
 10
717.1893546627
 20
516.5378422318
 30
0.0
 11
717.1900722396
 21
516.5385837979
 31
0.0
  0
LINE
  5
22B
330
1F
100
AcDbEntity
  8
0
  6
Continuous
 62
     7
370
    25
100
AcDbLine
 10
726.5185477433
 20
517.6370891794
 30
0.0
 11
728.7164196635
 21
514.8499723051
 31
0.0
  0
ARC
  5
22C
330
1F
100
AcDbEntity
  8
0
  6
Continuous
 62
     7
370
    25
100
AcDbCircle
 10
720.9607021634
 20
524.6849817607
 30
0.0
 40
12.52511736202729
100
AcDbArc
 50
307.8583068702
 51
308.2586979829
  0
LINE
  5
22D
330
1F
100
AcDbEntity
  8
0
  6
Continuous
 62
     7
370
    25
100
AcDbLine
 10
727.6868040482
 20
514.722308569
 30
0.0
 11
728.6475023971
 21
514.7960148227
 31
0.0
  0
LINE
  5
22E
330
1F
100
AcDbEntity
  8
0
  6
Continuous
 62
     7
370
    25
100
AcDbLine
 10
717.190850846
 20
516.539390415
 30
0.0
 11
717.1900722396
 21
516.5385837979
 31
0.0
  0
ARC
  5
22F
330
1F
100
AcDbEntity
  8
0
  6
Continuous
 62
     7
370
    25
100
AcDbCircle
 10
738.8783738771
 20
519.4083823725
 30
0.0
 40
6.834138728215066
100
AcDbArc
 50
211.8771071303
 51
226.9488007428
  0
SPLINE
  5
230
330
1F
100
AcDbEntity
  8
0
  6
Continuous
 62
     7
370
    25
100
AcDbSpline
210
0.0
220
0.0
230
1.0
 70
     8
 71
     3
 72
    17
 73
    13
 74
     0
 42
0.00000001
 43
0.00000001
 40
0.0
 40
0.0
 40
0.0
 40
0.0
 40
0.2859834379244703
 40
0.521592264412224
 40
0.759239901680938
 40
0.85214924050605
 40
0.9266708633836014
 40
0.9605058393195369
 40
0.9835417153308584
 40
0.9930790992390832
 40
0.9972256067114875
 40
1.0
 40
1.0
 40
1.0
 40
1.0
 10
733.0749410859911
 20
515.7992799917096
 30
0.0
 10
734.3037192697386
 20
516.33114811573
 30
0.0
 10
736.5448322515693
 20
517.3011983437776
 30
0.0
 10
739.8837809384711
 20
518.3434290145623
 30
0.0
 10
742.386436305178
 20
518.961247575489
 30
0.0
 10
744.1567425892141
 20
519.315222884707
 30
0.0
 10
745.0218634245514
 20
519.46992391932
 30
0.0
 10
745.547450853827
 20
519.5584239101518
 30
0.0
 10
745.7811129674841
 20
519.5975356729742
 30
0.0
 10
745.8587631269735
 20
519.6118554397362
 30
0.0
 10
745.8748447811736
 20
519.6155891920536
 30
0.0
 10
745.8759051691495
 20
519.6163230332486
 30
0.0
 10
745.8763302486853
 20
519.6166172094197
 30
0.0
  0
SPLINE
  5
231
330
1F
100
AcDbEntity
  8
0
  6
Continuous
 62
     7
370
    25
100
AcDbSpline
210
0.0
220
0.0
230
1.0
 70
     8
 71
     3
 72
    10
 73
     6
 74
     0
 42
0.00000001
 43
0.00000001
 40
0.0
 40
0.0
 40
0.0
 40
0.0
 40
0.5975855365574454
 40
0.9790563563181981
 40
1.0
 40
1.0
 40
1.0
 40
1.0
 10
745.9863555683731
 20
519.6074903120802
 30
0.0
 10
745.9888747077266
 20
519.6112296098066
 30
0.0
 10
745.9930019485072
 20
519.6173559013301
 30
0.0
 10
745.9186308219516
 20
519.6177324601867
 30
0.0
 10
745.8784228698473
 20
519.6166723811863
 30
0.0
 10
745.8763302486853
 20
519.6166172094197
 30
0.0
  0
SPLINE
  5
232
330
1F
100
AcDbEntity
  8
0
  6
Continuous
 62
     7
370
    25
100
AcDbSpline
210
0.0
220
0.0
230
1.0
 70
     8
 71
     3
 72
    14
 73
    10
 74
     0
 42
0.00000001
 43
0.00000001
 40
0.0
 40
0.0
 40
0.0
 40
0.0
 40
0.0129036569231464
 40
0.0519665716781148
 40
0.1318891824261205
 40
0.2280032005552168
 40
0.4679440229400844
 40
0.7079115564493632
 40
1.0
 40
1.0
 40
1.0
 40
1.0
 10
745.9863555683731
 20
519.6074903120802
 30
0.0
 10
745.9528869919087
 20
519.599645338019
 30
0.0
 10
745.818099839076
 20
519.5680514720864
 30
0.0
 10
745.3788263940836
 20
519.4656694247926
 30
0.0
 10
744.5673989758577
 20
519.2632679159756
 30
0.0
 10
742.913921794037
 20
518.7962172352094
 30
0.0
 10
740.5696317217934
 20
517.9587601758191
 30
0.0
 10
737.4245375452962
 20
516.5138199354687
 30
0.0
 10
735.3512388711036
 20
515.1584490526741
 30
0.0
 10
734.2130379883566
 20
514.4143766455244
 30
0.0
  0
LINE
  5
233
330
1F
100
AcDbEntity
  8
0
  6
Continuous
 62
     7
370
    25
100
AcDbLine
 10
731.6342727239
 20
515.2751363097
 30
0.0
 11
729.5341902078
 21
515.159145361
 31
0.0
  0
LINE
  5
234
330
1F
100
AcDbEntity
  8
0
  6
Continuous
 62
     7
370
    25
100
AcDbLine
 10
729.3384461721
 20
518.7032031655
 30
0.0
 11
729.5341902078
 21
515.159145361
 31
0.0
  0
LINE
  5
235
330
1F
100
AcDbEntity
  8
0
  6
Continuous
 62
     7
370
    25
100
AcDbLine
 10
731.6342727239
 20
515.2751363097
 30
0.0
 11
733.074941086
 21
515.7992799917
 31
0.0
  0
LWPOLYLINE
  5
236
330
1F
100
AcDbEntity
  8
0
  6
Continuous
 62
     7
370
    25
100
AcDbPolyline
 90
        4
 70
   128
 43
0.0
 10
746.0058823824
 20
519.4563947358
 10
746.0036377468
 20
519.4737528827
 10
745.9946627128
 20
519.5431856289
 10
745.9863555684
 20
519.6074903121
  0
LINE
  5
237
330
1F
100
AcDbEntity
  8
0
  6
Continuous
 62
     7
370
    25
100
AcDbLine
 10
744.2177580987
 20
519.0268672325
 30
0.0
 11
746.0058823824
 21
519.4563947358
 31
0.0
  0
ARC
  5
238
330
1F
100
AcDbEntity
  8
0
  6
Continuous
 62
     7
370
    25
100
AcDbCircle
 10
752.4033164972
 20
488.6011736387
 30
0.0
 40
31.50755777528331
100
AcDbArc
 50
105.0579972479
 51
125.1719294169
  0
LINE
  5
239
330
1F
100
AcDbEntity
  8
0
  6
Continuous
 62
     7
370
    25
100
AcDbLine
 10
734.2130379884
 20
514.4143766455
 30
0.0
 11
734.2539578746
 21
514.3563086325
 31
0.0
  0
SPLINE
  5
23A
330
1F
100
AcDbEntity
  8
0
  6
Continuous
 62
     7
370
    25
100
AcDbSpline
210
0.0
220
0.0
230
1.0
 70
     8
 71
     3
 72
     9
 73
     5
 74
     0
 42
0.00000001
 43
0.00000001
 40
0.0
 40
0.0
 40
0.0
 40
0.0
 40
0.4998978730609624
 40
1.0
 40
1.0
 40
1.0
 40
1.0
 10
729.5341902078173
 20
515.1591453610189
 30
0.0
 10
729.3859952919217
 20
515.1391790230166
 30
0.0
 10
729.0895449089898
 20
515.0992381889419
 30
0.0
 10
728.840811680213
 20
514.9330722463714
 30
0.0
 10
728.7164196634615
 20
514.849972305067
 30
0.0
  0
ARC
  5
23B
330
1F
100
AcDbEntity
  8
0
  6
Continuous
 62
     7
370
    25
100
AcDbCircle
 10
746.0876908833
 20
519.1177888723
 30
0.0
 40
0.5000763403809522
100
AcDbArc
 50
93.16262964
 51
101.6913635617
  0
SPLINE
  5
23C
330
1F
100
AcDbEntity
  8
0
  6
Continuous
 62
     7
370
    25
100
AcDbSpline
210
0.0
220
0.0
230
1.0
 70
     8
 71
     3
 72
    13
 73
     9
 74
     0
 42
0.00000001
 43
0.00000001
 40
0.0
 40
0.0
 40
0.0
 40
0.0
 40
0.0460329529079886
 40
0.2492425848193727
 40
0.477522557027288
 40
0.7051721168687837
 40
0.8526808263814667
 40
0.9999999999999999
 40
0.9999999999999999
 40
0.9999999999999999
 40
0.9999999999999999
 10
717.1733236889605
 20
532.8422535207973
 30
0.0
 10
717.3016583409988
 20
532.9047624892339
 30
0.0
 10
717.9965184004844
 20
533.2432134441112
 30
0.0
 10
719.356181635061
 20
533.8611908681402
 30
0.0
 10
721.3641542518794
 20
534.6716631948534
 30
0.0
 10
723.3786645137825
 20
535.364287996118
 30
0.0
 10
725.2409477950279
 20
535.9145217978161
 30
0.0
 10
726.3333173582665
 20
536.182037908922
 30
0.0
 10
726.8791510142736
 20
536.3157099754823
 30
0.0
  0
LINE
  5
23D
330
1F
100
AcDbEntity
  8
0
  6
Continuous
 62
     7
370
    25
100
AcDbLine
 10
727.3326110922
 20
534.3681074463
 30
0.0
 11
726.8791510143
 21
536.3157099755
 31
0.0
  0
SPLINE
  5
23E
330
1F
100
AcDbEntity
  8
0
  6
Continuous
 62
     7
370
    25
100
AcDbSpline
210
0.0
220
0.0
230
1.0
 70
     8
 71
     3
 72
    13
 73
     9
 74
     0
 42
0.00000001
 43
0.00000001
 40
0.0
 40
0.0
 40
0.0
 40
0.0
 40
0.2574896950994368
 40
0.4890886589321025
 40
0.7206004760683485
 40
0.9447506334961274
 40
0.9460032291293288
 40
1.0
 40
1.0
 40
1.0
 40
1.0
 10
727.3326110921605
 20
534.3681074462683
 30
0.0
 10
726.4138855161727
 20
534.396170410383
 30
0.0
 10
724.6688127290346
 20
534.4494745920485
 30
0.0
 10
722.1742474831211
 20
534.2849104732104
 30
0.0
 10
719.8585976771203
 20
533.8715364782003
 30
0.0
 10
718.3814890755162
 20
533.371979291637
 30
0.0
 10
717.5102276309756
 20
532.997736436707
 30
0.0
 10
717.3401812221528
 20
532.9187560182218
 30
0.0
 10
717.1739900500974
 20
532.8415662180472
 30
0.0
  0
LINE
  5
23F
330
1F
100
AcDbEntity
  8
0
  6
Continuous
 62
     7
370
    25
100
AcDbLine
 10
717.1739900501
 20
532.841566218
 30
0.0
 11
717.173323689
 21
532.8422535208
 31
0.0
  0
ARC
  5
240
330
1F
100
AcDbEntity
  8
0
  6
Continuous
 62
     7
370
    25
100
AcDbCircle
 10
737.7886815703
 20
489.4594808617
 30
0.0
 40
48.10950076354636
100
AcDbArc
 50
102.8580809319
 51
103.1066633214
  0
LWPOLYLINE
  5
241
330
1F
100
AcDbEntity
  8
0
  6
Continuous
 62
     7
370
    25
100
AcDbPolyline
 90
        3
 70
   128
 43
0.0
 10
717.173323689
 20
532.8422535208
 10
717.1299668123
 20
532.8696449932
 10
717.0253887392
 20
532.9356430232
  0
ARC
  5
242
330
1F
100
AcDbEntity
  8
0
  6
Continuous
 62
     7
370
    25
100
AcDbCircle
 10
737.7886815703
 20
489.4594808617
 30
0.0
 40
48.17977797259042
100
AcDbArc
 50
102.8580809319
 51
115.5281512988
  0
LINE
  5
243
330
1F
100
AcDbEntity
  8
0
  6
Continuous
 62
     7
370
    25
100
AcDbLine
 10
727.0825426058
 20
536.3626007173
 30
0.0
 11
727.0669033338
 21
536.4311156739
 31
0.0
  0
LINE
  5
244
330
1F
100
AcDbEntity
  8
0
  6
Continuous
 62
     7
370
    25
100
AcDbLine
 10
733.4379304079
 20
533.0602230388
 30
0.0
 11
734.5674058254
 21
534.7103948284
 31
0.0
  0
SPLINE
  5
245
330
1F
100
AcDbEntity
  8
0
  6
Continuous
 62
     7
370
    25
100
AcDbSpline
210
0.0
220
0.0
230
1.0
 70
     8
 71
     3
 72
    15
 73
    11
 74
     0
 42
0.00000001
 43
0.00000001
 40
0.0
 40
0.0
 40
0.0
 40
0.0
 40
0.2255198391625378
 40
0.451564594375195
 40
0.6337799820516977
 40
0.8158790324473547
 40
0.8946729146060269
 40
0.9638048440471935
 40
0.9940832206369723
 40
1.0
 40
1.0
 40
1.0
 40
1.0
 10
734.5674058254293
 20
534.710394828425
 30
0.0
 10
735.4128543662832
 20
534.1653871590836
 30
0.0
 10
737.1057192992911
 20
533.0741032700411
 30
0.0
 10
739.5820354929705
 20
531.8569998804484
 30
0.0
 10
741.9104464076817
 20
530.9261000720131
 30
0.0
 10
743.6509258975042
 20
530.3703095271997
 30
0.0
 10
744.9085947538738
 20
530.0337567002354
 30
0.0
 10
745.5527276517862
 20
529.8784095939109
 30
0.0
 10
745.8806729418682
 20
529.8028561956434
 30
0.0
 10
745.9732103854924
 20
529.7813354875933
 30
0.0
 10
745.9883373720278
 20
529.7778175228847
 30
0.0
  0
SPLINE
  5
246
330
1F
100
AcDbEntity
  8
0
  6
Continuous
 62
     7
370
    25
100
AcDbSpline
210
0.0
220
0.0
230
1.0
 70
     8
 71
     3
 72
    11
 73
     7
 74
     0
 42
0.00000001
 43
0.00000001
 40
0.0
 40
0.0
 40
0.0
 40
0.0
 40
0.019556121229571
 40
0.168189199674442
 40
0.5898876540792781
 40
1.0
 40
1.0
 40
1.0
 40
1.0
 10
745.8783959806107
 20
529.7695499607917
 30
0.0
 10
745.8803546937587
 20
529.7694918470759
 30
0.0
 10
745.8972002835814
 20
529.7689920496351
 30
0.0
 10
745.9491008473408
 20
529.7681456322216
 30
0.0
 10
745.9983854794061
 20
529.7702349307438
 30
0.0
 10
745.9916554943297
 20
529.7753135719272
 30
0.0
 10
745.9883373720278
 20
529.7778175228847
 30
0.0
  0
SPLINE
  5
247
330
1F
100
AcDbEntity
  8
0
  6
Continuous
 62
     7
370
    25
100
AcDbSpline
210
0.0
220
0.0
230
1.0
 70
     8
 71
     3
 72
    17
 73
    13
 74
     0
 42
0.00000001
 43
0.00000001
 40
0.0
 40
0.0
 40
0.0
 40
0.0
 40
0.0068263121770685
 40
0.0088448507297254
 40
0.0223990310416126
 40
0.0309593028397538
 40
0.0563218912149143
 40
0.1198824177066684
 40
0.1957460556357056
 40
0.5558621944880031
 40
0.77803360979772
 40
1.0
 40
1.0
 40
1.0
 40
1.0
 10
745.8783959806107
 20
529.7695499607917
 30
0.0
 10
745.874775835449
 20
529.7705881438367
 30
0.0
 10
745.8700852144016
 20
529.7719333173104
 30
0.0
 10
745.8265525016983
 20
529.7795233053854
 30
0.0
 10
745.7520205792658
 20
529.7912748121919
 30
0.0
 10
745.5851883337639
 20
529.8169937074151
 30
0.0
 10
745.2036122166965
 20
529.8755082864374
 30
0.0
 10
744.5207112499622
 20
529.9847052710246
 30
0.0
 10
742.4157119330445
 20
530.3518775034486
 30
0.0
 10
739.6027773512584
 20
530.986055187414
 30
0.0
 10
736.2039931366917
 20
531.9989954792725
 30
0.0
 10
734.3596675219279
 20
532.7065893999592
 30
0.0
 10
733.4379304079374
 20
533.0602230387861
 30
0.0
  0
LINE
  5
248
330
1F
100
AcDbEntity
  8
0
  6
Continuous
 62
     7
370
    25
100
AcDbLine
 10
729.3444875572
 20
530.682744423
 30
0.0
 11
729.4878493861
 21
533.2783923925
 31
0.0
  0
LINE
  5
249
330
1F
100
AcDbEntity
  8
0
  6
Continuous
 62
     7
370
    25
100
AcDbLine
 10
729.4878493861
 20
533.2783923925
 30
0.0
 11
733.4379304079
 21
533.0602230388
 31
0.0
  0
LINE
  5
24A
330
1F
100
AcDbEntity
  8
0
  6
Continuous
 62
     7
370
    25
100
AcDbLine
 10
726.5260353181
 20
531.7477184008
 30
0.0
 11
728.1349923114
 21
533.7895799018
 31
0.0
  0
LINE
  5
24B
330
1F
100
AcDbEntity
  8
0
  6
Continuous
 62
     7
370
    25
100
AcDbLine
 10
717.1739900501
 20
532.841566218
 30
0.0
 11
717.1745579356
 21
532.8409791771
 31
0.0
  0
ARC
  5
24C
330
1F
100
AcDbEntity
  8
0
  6
Continuous
 62
     7
370
    25
100
AcDbCircle
 10
720.9607021634
 20
524.6849817607
 30
0.0
 40
11.59155496206734
100
AcDbArc
 50
51.762407147
 51
56.6533814372
  0
LWPOLYLINE
  5
24D
330
1F
100
AcDbEntity
  8
0
  6
Continuous
 62
     7
370
    25
100
AcDbPolyline
 90
        4
 70
   128
 43
0.0
 10
745.988337372
 20
529.7778175229
 10
745.9905796183
 20
529.7951757779
 10
745.9995521012
 20
529.8646086395
 10
746.0058823824
 20
529.9135687856
  0
ARC
  5
24E
330
1F
100
AcDbEntity
  8
0
  6
Continuous
 62
     7
370
    25
100
AcDbCircle
 10
752.4033164972
 20
560.7687898827
 30
0.0
 40
31.57783498432754
100
AcDbArc
 50
234.8280705831
 51
235.6099480104
  0
LINE
  5
24F
330
1F
100
AcDbEntity
  8
0
  6
Continuous
 62
     7
370
    25
100
AcDbLine
 10
734.2134759597
 20
534.9562083861
 30
0.0
 11
734.2539578746
 21
535.0136548889
 31
0.0
  0
ARC
  5
250
330
1F
100
AcDbEntity
  8
0
  6
Continuous
 62
     7
370
    25
100
AcDbCircle
 10
752.4033164972
 20
560.7687898827
 30
0.0
 40
31.50755777528333
100
AcDbArc
 50
234.8280705831
 51
254.9420027521
  0
LINE
  5
251
330
1F
100
AcDbEntity
  8
0
  6
Continuous
 62
     7
370
    25
100
AcDbLine
 10
746.0058823824
 20
529.9135687856
 30
0.0
 11
744.2177580987
 21
530.3430962889
 31
0.0
  0
LINE
  5
252
330
1F
100
AcDbEntity
  8
0
  6
Continuous
 62
     7
370
    25
100
AcDbLine
 10
746.0797197918
 20
519.4667130321
 30
0.0
 11
746.0058823824
 21
519.4563947358
 31
0.0
  0
SPLINE
  5
253
330
1F
100
AcDbEntity
  8
0
  6
Continuous
 62
     7
370
    25
100
AcDbSpline
210
0.0
220
0.0
230
1.0
 70
     8
 71
     3
 72
    10
 73
     6
 74
     0
 42
0.00000001
 43
0.00000001
 40
0.0
 40
0.0
 40
0.0
 40
0.0
 40
0.0490769085761659
 40
0.599580584366531
 40
1.0
 40
1.0
 40
1.0
 40
1.0
 10
728.1349923114005
 20
533.7895799018196
 30
0.0
 10
728.1539398497696
 20
533.7749571662182
 30
0.0
 10
728.3854250116761
 20
533.5963088240292
 30
0.0
 10
728.8312987864934
 20
533.3622568306079
 30
0.0
 10
729.2933053633778
 20
533.3032424575903
 30
0.0
 10
729.4878493861315
 20
533.278392392458
 30
0.0
  0
ARC
  5
254
330
1F
100
AcDbEntity
  8
0
  6
Continuous
 62
     7
370
    25
100
AcDbCircle
 10
746.089690773
 20
530.2675152199
 30
0.0
 40
0.500076340487477
100
AcDbArc
 50
258.3065203377
 51
266.8373700348
  0
SPLINE
  5
255
330
1F
100
AcDbEntity
  8
0
  6
Continuous
 62
     7
370
    25
100
AcDbSpline
210
0.0
220
0.0
230
1.0
 70
     8
 71
     3
 72
     9
 73
     5
 74
     0
 42
0.00000001
 43
0.00000001
 40
0.0
 40
0.0
 40
0.0
 40
0.0
 40
0.8458911907785723
 40
1.0
 40
1.0
 40
1.0
 40
1.0
 10
746.0058823824382
 20
529.9135687855709
 30
0.0
 10
746.0267229785493
 20
529.9097539785786
 30
0.0
 10
746.0513604216843
 20
529.9052441704213
 30
0.0
 10
746.0759329488604
 20
529.9035167066701
 30
0.0
 10
746.0797197917632
 20
529.9032504892886
 30
0.0
  0
LINE
  5
256
330
1F
100
AcDbEntity
  8
0
  6
Continuous
 62
     7
370
    25
100
AcDbLine
 10
764.0751399894
 20
528.836994636
 30
0.0
 11
764.0746819696
 21
528.8370197225
 31
0.0
  0
LINE
  5
257
330
1F
100
AcDbEntity
  8
0
  6
Continuous
 62
     7
370
    25
100
AcDbLine
 10
734.2130379884
 20
514.4143766455
 30
0.0
 11
732.374297139
 21
513.4174104099
 31
0.0
  0
LINE
  5
258
330
1F
100
AcDbEntity
  8
0
  6
Continuous
 62
     7
370
    25
100
AcDbLine
 10
731.6342727239
 20
515.2751363097
 30
0.0
 11
732.374297139
 21
513.4174104099
 31
0.0
  0
LINE
  5
259
330
1F
100
AcDbEntity
  8
0
  6
Continuous
 62
     7
370
    25
100
AcDbLine
 10
728.6475023971
 20
514.7960148227
 30
0.0
 11
728.5256686505
 21
512.8000343138
 31
0.0
  0
LINE
  5
25A
330
1F
100
AcDbEntity
  8
0
  6
Continuous
 62
     7
370
    25
100
AcDbLine
 10
728.5256686505
 20
512.8000343138
 30
0.0
 11
727.0827614107
 21
513.008321379
 31
0.0
  0
ARC
  5
25B
330
1F
100
AcDbEntity
  8
0
  6
Continuous
 62
     7
370
    25
100
AcDbCircle
 10
729.0697173687
 20
521.7130872849
 30
0.0
 40
6.929946387144304
100
AcDbArc
 50
266.5070253286
 51
291.7198462835
  0
ARC
  5
25C
330
1F
100
AcDbEntity
  8
0
  6
Continuous
 62
     7
370
    25
100
AcDbCircle
 10
729.0697173687
 20
521.7130872849
 30
0.0
 40
8.929641777457016
100
AcDbArc
 50
266.5070253286
 51
291.7198462835
  0
ARC
  5
25D
330
1F
100
AcDbEntity
  8
0
  6
Continuous
 62
     7
370
    25
100
AcDbCircle
 10
752.4033164972
 20
560.7687898827
 30
0.0
 40
33.57753037464028
100
AcDbArc
 50
234.8280705831
 51
235.6099480104
  0
ARC
  5
25E
330
1F
100
AcDbEntity
  8
0
  6
Continuous
 62
     7
370
    25
100
AcDbCircle
 10
737.7886815703
 20
489.4594808617
 30
0.0
 40
46.10980537323352
100
AcDbArc
 50
102.8580809319
 51
103.1066633214
  0
ARC
  5
25F
330
1F
100
AcDbEntity
  8
0
  6
Continuous
 62
     7
370
    25
100
AcDbCircle
 10
729.0697173687
 20
527.6568762365
 30
0.0
 40
6.929946387144233
100
AcDbArc
 50
54.8280705831
 51
102.8580809319
  0
LINE
  5
260
330
1F
100
AcDbEntity
  8
0
  6
Continuous
 62
     7
370
    25
100
AcDbLine
 10
727.5275486107
 20
534.413049151
 30
0.0
 11
727.0825426058
 21
536.3626007173
 31
0.0
  0
LINE
  5
261
330
1F
100
AcDbEntity
  8
0
  6
Continuous
 62
     7
370
    25
100
AcDbLine
 10
733.0615876086
 20
533.3216029657
 30
0.0
 11
734.2134759597
 21
534.9562083861
 31
0.0
  0
ARC
  5
262
330
1F
100
AcDbEntity
  8
0
  6
Continuous
 62
     7
370
    25
100
AcDbCircle
 10
729.0697173687
 20
527.6568762365
 30
0.0
 40
8.929641777457071
100
AcDbArc
 50
54.8280705831
 51
102.8580809319
  0
ARC
  5
263
330
1F
100
AcDbEntity
  8
0
  6
Continuous
 62
     7
370
    25
100
AcDbCircle
 10
729.0697173687
 20
521.7130872849
 30
0.0
 40
8.999918986501244
100
AcDbArc
 50
257.1419190681
 51
305.1719294169
  0
ARC
  5
264
330
1F
100
AcDbEntity
  8
0
  6
Continuous
 62
     7
370
    25
100
AcDbCircle
 10
729.0697173687
 20
527.6568762365
 30
0.0
 40
8.999918986501134
100
AcDbArc
 50
54.8280705831
 51
102.8580809319
  0
SPLINE
  5
265
330
1F
100
AcDbEntity
  8
0
  6
Continuous
 62
     7
370
    25
100
AcDbSpline
210
0.0
220
0.0
230
1.0
 70
    24
 71
     3
 72
    10
 73
     6
 74
     0
 42
0.00000001
 43
0.00000001
 40
0.0
 40
0.0
 40
0.0
 40
0.0
 40
0.4529754175014549
 40
0.9408801241648225
 40
1.0
 40
1.0
 40
1.0
 40
1.0
 10
720.8964198582102
 20
514.9395604718663
 30
0.0
 10
720.2906616758398
 20
514.9395604718663
 30
0.0
 10
719.0324348232966
 20
514.9395604718663
 30
0.0
 10
717.7398106894975
 20
514.9395604718663
 30
0.0
 10
717.0547866329589
 20
514.9395604718663
 30
0.0
 10
716.9807524150051
 20
514.9395604718663
 30
0.0
  0
ARC
  5
266
330
1F
100
AcDbEntity
  8
0
  6
Continuous
 62
     7
370
    25
100
AcDbCircle
 10
720.9607021634
 20
524.4395604719
 30
0.0
 40
10.30000000000012
100
AcDbArc
 50
232.7308609266
 51
247.2691390734
  0
SPLINE
  5
267
330
1F
100
AcDbEntity
  8
0
  6
Continuous
 62
     7
370
    25
100
AcDbSpline
210
0.0
220
0.0
230
1.0
 70
    24
 71
     3
 72
    11
 73
     7
 74
     0
 42
0.00000001
 43
0.00000001
 40
0.0
 40
0.0
 40
0.0
 40
0.0
 40
0.2431641197380911
 40
0.4936284730588937
 40
0.7421706076863289
 40
1.0
 40
1.0
 40
1.0
 40
1.0
 10
714.7234357016928
 20
516.2428228839436
 30
0.0
 10
714.409676699996
 20
516.7862694162144
 30
0.0
 10
713.772739074976
 20
517.8894777440013
 30
0.0
 10
712.7623501059694
 20
519.6395227737278
 30
0.0
 10
711.7306429781335
 20
521.4264919376707
 30
0.0
 10
711.0765372352353
 20
522.5594363178931
 30
0.0
 10
710.7434859532661
 20
523.1362980597893
 30
0.0
  0
ARC
  5
268
330
1F
100
AcDbEntity
  8
0
  6
Continuous
 62
     7
370
    25
100
AcDbCircle
 10
720.9607021634
 20
524.4395604719
 30
0.0
 40
10.30000000000007
100
AcDbArc
 50
172.7308609266
 51
187.2691390734
  0
SPLINE
  5
269
330
1F
100
AcDbEntity
  8
0
  6
Continuous
 62
     7
370
    25
100
AcDbSpline
210
0.0
220
0.0
230
1.0
 70
    24
 71
     3
 72
    11
 73
     7
 74
     0
 42
0.00000001
 43
0.00000001
 40
0.0
 40
0.0
 40
0.0
 40
0.0
 40
0.2431641197380909
 40
0.4936284730588934
 40
0.7421706076863288
 40
1.0
 40
1.0
 40
1.0
 40
1.0
 10
710.7434859532663
 20
525.7428228839436
 30
0.0
 10
711.057244954963
 20
526.2862694162145
 30
0.0
 10
711.6941825799829
 20
527.3894777440013
 30
0.0
 10
712.7045715489895
 20
529.1395227737278
 30
0.0
 10
713.7362786768256
 20
530.9264919376707
 30
0.0
 10
714.3903844197238
 20
532.059436317893
 30
0.0
 10
714.7234357016928
 20
532.6362980597892
 30
0.0
  0
ARC
  5
26A
330
1F
100
AcDbEntity
  8
0
  6
Continuous
 62
     7
370
    25
100
AcDbCircle
 10
720.9607021634
 20
524.4395604719
 30
0.0
 40
10.30000000000001
100
AcDbArc
 50
112.7308609266
 51
127.2691390734
  0
SPLINE
  5
26B
330
1F
100
AcDbEntity
  8
0
  6
Continuous
 62
     7
370
    25
100
AcDbSpline
210
0.0
220
0.0
230
1.0
 70
    24
 71
     3
 72
    10
 73
     6
 74
     0
 42
0.00000001
 43
0.00000001
 40
0.0
 40
0.0
 40
0.0
 40
0.0
 40
0.0927531540696888
 40
0.8582266904932495
 40
1.0
 40
1.0
 40
1.0
 40
1.0
 10
716.9807524150051
 20
533.9395604718665
 30
0.0
 10
717.0548056824935
 20
533.9395604718665
 30
0.0
 10
717.7400060006289
 20
533.9395604718665
 30
0.0
 10
718.5584152913693
 20
533.9395604718665
 30
0.0
 10
719.3290483791112
 20
533.9395604718665
 30
0.0
 10
719.4494733811431
 20
533.9395604718665
 30
0.0
  0
ARC
  5
26C
330
1F
100
AcDbEntity
  8
0
  6
Continuous
 62
     7
370
    25
100
AcDbCircle
 10
517.7607021634
 20
524.4395604719
 30
0.0
 40
10.30000000000012
100
AcDbArc
 50
292.7308609266
 51
307.2691390734
  0
SPLINE
  5
26D
330
1F
100
AcDbEntity
  8
0
  6
Continuous
 62
     7
370
    25
100
AcDbSpline
210
0.0
220
0.0
230
1.0
 70
    24
 71
     3
 72
    10
 73
     6
 74
     0
 42
0.00000001
 43
0.00000001
 40
0.0
 40
0.0
 40
0.0
 40
0.0
 40
0.0804599351325081
 40
0.7098232737096025
 40
0.9999999999999999
 40
0.9999999999999999
 40
0.9999999999999999
 40
0.9999999999999999
 10
521.7406519118581
 20
514.9395604718663
 30
0.0
 10
521.6654375442919
 20
514.9395604718663
 30
0.0
 10
521.0018910409548
 20
514.9395604718663
 30
0.0
 10
520.0416317564069
 20
514.9395604718663
 30
0.0
 10
519.1262907187872
 20
514.9395604718663
 30
0.0
 10
518.8374390679633
 20
514.9395604718663
 30
0.0
  0
SPLINE
  5
26E
330
1F
100
AcDbEntity
  8
0
  6
Continuous
 62
     7
370
    25
100
AcDbSpline
210
0.0
220
0.0
230
1.0
 70
    24
 71
     3
 72
    10
 73
     6
 74
     0
 42
0.00000001
 43
0.00000001
 40
0.0
 40
0.0
 40
0.0
 40
0.0
 40
0.369983093100863
 40
0.9285862814886738
 40
0.9999999999999999
 40
0.9999999999999999
 40
0.9999999999999999
 40
0.9999999999999999
 10
518.4605603435972
 20
533.9395604718665
 30
0.0
 10
518.8758706692162
 20
533.9395604718665
 30
0.0
 10
519.9182195714275
 20
533.9395604718665
 30
0.0
 10
521.0019412561295
 20
533.9395604718665
 30
0.0
 10
521.6654426567751
 20
533.9395604718665
 30
0.0
 10
521.7406519118581
 20
533.9395604718665
 30
0.0
  0
ARC
  5
26F
330
1F
100
AcDbEntity
  8
0
  6
Continuous
 62
     7
370
    25
100
AcDbCircle
 10
517.7607021634
 20
524.4395604719
 30
0.0
 40
10.30000000000002
100
AcDbArc
 50
52.7308609266
 51
67.2691390734
  0
SPLINE
  5
270
330
1F
100
AcDbEntity
  8
0
  6
Continuous
 62
     7
370
    25
100
AcDbSpline
210
0.0
220
0.0
230
1.0
 70
    24
 71
     3
 72
    11
 73
     7
 74
     0
 42
0.00000001
 43
0.00000001
 40
0.0
 40
0.0
 40
0.0
 40
0.0
 40
0.2431641197380913
 40
0.4936284730588932
 40
0.7421706076863291
 40
1.0
 40
1.0
 40
1.0
 40
1.0
 10
523.9979686251705
 20
532.6362980597893
 30
0.0
 10
524.3117276268673
 20
532.0928515275184
 30
0.0
 10
524.9486652518872
 20
530.9896431997316
 30
0.0
 10
525.9590542208937
 20
529.2395981700051
 30
0.0
 10
526.9907613487298
 20
527.4526290060621
 30
0.0
 10
527.644867091628
 20
526.3196846258398
 30
0.0
 10
527.977918373597
 20
525.7428228839436
 30
0.0
  0
ARC
  5
271
330
1F
100
AcDbEntity
  8
0
  6
Continuous
 62
     7
370
    25
100
AcDbCircle
 10
517.7607021634
 20
524.4395604719
 30
0.0
 40
10.30000000000007
100
AcDbArc
 50
352.7308609266
 51
7.2691390734
  0
SPLINE
  5
272
330
1F
100
AcDbEntity
  8
0
  6
Continuous
 62
     7
370
    25
100
AcDbSpline
210
0.0
220
0.0
230
1.0
 70
    24
 71
     3
 72
    11
 73
     7
 74
     0
 42
0.00000001
 43
0.00000001
 40
0.0
 40
0.0
 40
0.0
 40
0.0
 40
0.2431641197380911
 40
0.493628473058894
 40
0.742170607686329
 40
1.0
 40
1.0
 40
1.0
 40
1.0
 10
527.9779183735969
 20
523.1362980597893
 30
0.0
 10
527.6641593719003
 20
522.5928515275184
 30
0.0
 10
527.0272217468803
 20
521.4896431997315
 30
0.0
 10
526.0168327778737
 20
519.739598170005
 30
0.0
 10
524.9851256500377
 20
517.9526290060622
 30
0.0
 10
524.3310199071396
 20
516.81968462584
 30
0.0
 10
523.9979686251705
 20
516.2428228839436
 30
0.0
  0
ARC
  5
273
330
1F
100
AcDbEntity
  8
0
  6
Continuous
 62
     7
370
    25
100
AcDbCircle
 10
517.7607021634
 20
524.4395604719
 30
0.0
 40
10.57500000000006
100
AcDbArc
 50
261.6509017607
 51
30.0
  0
ARC
  5
274
330
1F
100
AcDbEntity
  8
0
  6
Continuous
 62
     7
370
    25
100
AcDbCircle
 10
517.7607021634
 20
524.4395604719
 30
0.0
 40
10.57500000000006
100
AcDbArc
 50
30.0
 51
98.3490982393
  0
ARC
  5
275
330
1F
100
AcDbEntity
  8
0
  6
Continuous
 62
     7
370
    25
100
AcDbCircle
 10
517.7607021634
 20
524.4395604719
 30
0.0
 40
14.87500000000004
100
AcDbArc
 50
233.3837470415
 51
30.0
  0
ARC
  5
276
330
1F
100
AcDbEntity
  8
0
  6
Continuous
 62
     7
370
    25
100
AcDbCircle
 10
517.7607021634
 20
524.4395604719
 30
0.0
 40
14.875
100
AcDbArc
 50
30.0
 51
126.6162529585
  0
ARC
  5
277
330
1F
100
AcDbEntity
  8
0
  6
Continuous
 62
     7
370
    25
100
AcDbCircle
 10
517.7607021634
 20
524.4395604719
 30
0.0
 40
16.19999999999995
100
AcDbArc
 50
223.9250761661
 51
136.0749238339
  0
SPLINE
  5
278
330
1F
100
AcDbEntity
  8
0
  6
Continuous
 62
     7
370
    25
100
AcDbSpline
210
0.0
220
0.0
230
1.0
 70
     8
 71
     3
 72
     9
 73
     5
 74
     0
 42
0.00000001
 43
0.00000001
 40
0.0
 40
0.0
 40
0.0
 40
0.0
 40
0.5850553834534097
 40
1.0
 40
1.0
 40
1.0
 40
1.0
 10
506.6342915155168
 20
511.2110690199303
 30
0.0
 10
506.8940664353256
 20
510.8245224943661
 30
0.0
 10
507.338084091014
 20
510.163821753041
 30
0.0
 10
508.0099352830468
 20
509.6856629209149
 30
0.0
 10
508.2887163183013
 20
509.48725348767
 30
0.0
  0
LINE
  5
279
330
1F
100
AcDbEntity
  8
0
  6
Continuous
 62
     7
370
    25
100
AcDbLine
 10
505.140968113
 20
513.7975810253
 30
0.0
 11
506.6342915155
 21
511.2110690199
 31
0.0
  0
SPLINE
  5
27A
330
1F
100
AcDbEntity
  8
0
  6
Continuous
 62
     7
370
    25
100
AcDbSpline
210
0.0
220
0.0
230
1.0
 70
    24
 71
     3
 72
     9
 73
     5
 74
     0
 42
0.00000001
 43
0.00000001
 40
0.0
 40
0.0
 40
0.0
 40
0.0
 40
0.9636754568892164
 40
1.0
 40
1.0
 40
1.0
 40
1.0
 10
506.6342915155176
 20
537.6680519238041
 30
0.0
 10
506.1905624334752
 20
536.8994906089106
 30
0.0
 10
505.7301075377214
 20
536.1019593348713
 30
0.0
 10
505.2490384258782
 20
535.2687231912067
 30
0.0
 10
505.2315638101857
 20
535.2384562689848
 30
0.0
  0
SPLINE
  5
27B
330
1F
100
AcDbEntity
  8
0
  6
Continuous
 62
     7
370
    25
100
AcDbSpline
210
0.0
220
0.0
230
1.0
 70
     8
 71
     3
 72
     9
 73
     5
 74
     0
 42
0.00000001
 43
0.00000001
 40
0.0
 40
0.0
 40
0.0
 40
0.0
 40
0.584191749740925
 40
1.0
 40
1.0
 40
1.0
 40
1.0
 10
508.2887163183013
 20
539.391867456063
 30
0.0
 10
507.9010600528508
 20
539.1025915525632
 30
0.0
 10
507.2374829557376
 20
538.6074186857297
 30
0.0
 10
506.8114426073291
 20
537.9439342331185
 30
0.0
 10
506.6342915155176
 20
537.6680519238041
 30
0.0
  0
ARC
  5
27C
330
1F
100
AcDbEntity
  8
0
  6
Continuous
 62
     7
370
    25
100
AcDbCircle
 10
517.7607021634
 20
524.4395604719
 30
0.0
 40
17.70000000000002
100
AcDbArc
 50
117.6465635726
 51
122.3534364274
  0
SPLINE
  5
27D
330
1F
100
AcDbEntity
  8
0
  6
Continuous
 62
     7
370
    25
100
AcDbSpline
210
0.0
220
0.0
230
1.0
 70
     8
 71
     3
 72
     9
 73
     5
 74
     0
 42
0.00000001
 43
0.00000001
 40
0.0
 40
0.0
 40
0.0
 40
0.0
 40
0.5850553834536162
 40
1.0
 40
1.0
 40
1.0
 40
1.0
 10
511.8676978362654
 20
540.6895604718665
 30
0.0
 10
511.403051265478
 20
540.6578620548278
 30
0.0
 10
510.6088588113475
 20
540.6036818559352
 30
0.0
 10
509.8588355196665
 20
540.2609210721351
 30
0.0
 10
509.5476173924991
 20
540.1186943301342
 30
0.0
  0
SPLINE
  5
27E
330
1F
100
AcDbEntity
  8
0
  6
Continuous
 62
     7
370
    25
100
AcDbSpline
210
0.0
220
0.0
230
1.0
 70
    24
 71
     3
 72
    11
 73
     7
 74
     0
 42
0.00000001
 43
0.00000001
 40
0.0
 40
0.0
 40
0.0
 40
0.0
 40
0.2328716322111479
 40
0.4710265024313248
 40
0.7311421212560302
 40
0.9999999999999999
 40
0.9999999999999999
 40
0.9999999999999999
 40
0.9999999999999999
 10
523.6537064905979
 20
540.6895604718665
 30
0.0
 10
522.7598500602775
 20
540.6895604718665
 30
0.0
 10
520.9518579744581
 20
540.6895604718665
 30
0.0
 10
518.0241852338952
 20
540.6895604718665
 30
0.0
 10
514.9370863234171
 20
540.6895604718665
 30
0.0
 10
512.9020383024309
 20
540.6895604718665
 30
0.0
 10
511.8676978362654
 20
540.6895604718665
 30
0.0
  0
SPLINE
  5
27F
330
1F
100
AcDbEntity
  8
0
  6
Continuous
 62
     7
370
    25
100
AcDbSpline
210
0.0
220
0.0
230
1.0
 70
     8
 71
     3
 72
     9
 73
     5
 74
     0
 42
0.00000001
 43
0.00000001
 40
0.0
 40
0.0
 40
0.0
 40
0.0
 40
0.5841917497409234
 40
1.0
 40
1.0
 40
1.0
 40
1.0
 10
525.9737869343642
 20
540.1186943301342
 30
0.0
 10
525.5294385205053
 20
540.3097765522007
 30
0.0
 10
524.7688176900061
 20
540.6368647422535
 30
0.0
 10
523.9812031248246
 20
540.6740842807068
 30
0.0
 10
523.6537064905979
 20
540.6895604718665
 30
0.0
  0
ARC
  5
280
330
1F
100
AcDbEntity
  8
0
  6
Continuous
 62
     7
370
    25
100
AcDbCircle
 10
517.7607021634
 20
524.4395604719
 30
0.0
 40
17.70000000000007
100
AcDbArc
 50
57.6465635726
 51
62.3534364274
  0
SPLINE
  5
281
330
1F
100
AcDbEntity
  8
0
  6
Continuous
 62
     7
370
    25
100
AcDbSpline
210
0.0
220
0.0
230
1.0
 70
     8
 71
     3
 72
     9
 73
     5
 74
     0
 42
0.00000001
 43
0.00000001
 40
0.0
 40
0.0
 40
0.0
 40
0.0
 40
0.5850553834536193
 40
1.0
 40
1.0
 40
1.0
 40
1.0
 10
528.8871128113456
 20
537.6680519238041
 30
0.0
 10
528.6273378915367
 20
538.0545984493679
 30
0.0
 10
528.1833202358484
 20
538.7152991906925
 30
0.0
 10
527.5114690438161
 20
539.1934580228183
 30
0.0
 10
527.2326880085619
 20
539.391867456063
 30
0.0
  0
SPLINE
  5
282
330
1F
100
AcDbEntity
  8
0
  6
Continuous
 62
     7
370
    25
100
AcDbSpline
210
0.0
220
0.0
230
1.0
 70
    24
 71
     3
 72
    11
 73
     7
 74
     0
 42
0.00000001
 43
0.00000001
 40
0.0
 40
0.0
 40
0.0
 40
0.0
 40
0.2556279644380972
 40
0.5185037642963867
 40
0.7560467972580103
 40
1.0
 40
1.0
 40
1.0
 40
1.0
 10
534.7801171385119
 20
527.4610690199288
 30
0.0
 10
534.2888240602437
 20
528.3120135928963
 30
0.0
 10
533.2923082407997
 20
530.0380296227194
 30
0.0
 10
531.7720973343465
 20
532.6711121509167
 30
0.0
 10
530.2803816127984
 20
535.2548395710875
 30
0.0
 10
529.3556394492919
 20
536.8565399821817
 30
0.0
 10
528.8871128113456
 20
537.6680519238041
 30
0.0
  0
SPLINE
  5
283
330
1F
100
AcDbEntity
  8
0
  6
Continuous
 62
     7
370
    25
100
AcDbSpline
210
0.0
220
0.0
230
1.0
 70
     8
 71
     3
 72
     9
 73
     5
 74
     0
 42
0.00000001
 43
0.00000001
 40
0.0
 40
0.0
 40
0.0
 40
0.0
 40
0.5841917497409242
 40
1.0
 40
1.0
 40
1.0
 40
1.0
 10
535.4457727794944
 20
525.1663873459377
 30
0.0
 10
535.3890806310862
 20
525.6467454715039
 30
0.0
 10
535.2920368977002
 20
526.4690065283902
 30
0.0
 10
534.9304626809271
 20
527.1697105194548
 30
0.0
 10
534.7801171385119
 20
527.4610690199288
 30
0.0
  0
ARC
  5
284
330
1F
100
AcDbEntity
  8
0
  6
Continuous
 62
     7
370
    25
100
AcDbCircle
 10
517.7607021634
 20
524.4395604719
 30
0.0
 40
17.70000000000003
100
AcDbArc
 50
357.6465635726
 51
2.3534364274
  0
SPLINE
  5
285
330
1F
100
AcDbEntity
  8
0
  6
Continuous
 62
     7
370
    25
100
AcDbSpline
210
0.0
220
0.0
230
1.0
 70
     8
 71
     3
 72
     9
 73
     5
 74
     0
 42
0.00000001
 43
0.00000001
 40
0.0
 40
0.0
 40
0.0
 40
0.0
 40
0.5850553834536182
 40
0.9999999999999999
 40
0.9999999999999999
 40
0.9999999999999999
 40
0.9999999999999999
 10
534.7801171385119
 20
521.4180519238041
 30
0.0
 10
534.9849887894903
 20
521.8362968664065
 30
0.0
 10
535.3351635879326
 20
522.5511778066237
 30
0.0
 10
535.4133356875811
 20
523.3720974225496
 30
0.0
 10
535.4457727794944
 20
523.7127335977951
 30
0.0
  0
SPLINE
  5
286
330
1F
100
AcDbEntity
  8
0
  6
Continuous
 62
     7
370
    25
100
AcDbSpline
210
0.0
220
0.0
230
1.0
 70
    24
 71
     3
 72
    11
 73
     7
 74
     0
 42
0.00000001
 43
0.00000001
 40
0.0
 40
0.0
 40
0.0
 40
0.0
 40
0.2328716322111471
 40
0.471026502431323
 40
0.7311421212560296
 40
1.0
 40
1.0
 40
1.0
 40
1.0
 10
528.8871128113456
 20
511.2110690199289
 30
0.0
 10
529.3340410265058
 20
511.9851713959225
 30
0.0
 10
530.2380370694156
 20
513.5509384720831
 30
0.0
 10
531.701873439697
 20
516.0863774393779
 30
0.0
 10
533.2454228949359
 20
518.759883519847
 30
0.0
 10
534.2629469054291
 20
520.5222868039423
 30
0.0
 10
534.7801171385119
 20
521.4180519238041
 30
0.0
  0
SPLINE
  5
287
330
1F
100
AcDbEntity
  8
0
  6
Continuous
 62
     7
370
    25
100
AcDbSpline
210
0.0
220
0.0
230
1.0
 70
     8
 71
     3
 72
     9
 73
     5
 74
     0
 42
0.00000001
 43
0.00000001
 40
0.0
 40
0.0
 40
0.0
 40
0.0
 40
0.5841917497409237
 40
1.0
 40
1.0
 40
1.0
 40
1.0
 10
527.2326880085619
 20
509.48725348767
 30
0.0
 10
527.6203442740125
 20
509.7765293911697
 30
0.0
 10
528.2839213711256
 20
510.2717022580032
 30
0.0
 10
528.7099617195341
 20
510.9351867106145
 30
0.0
 10
528.8871128113456
 20
511.2110690199289
 30
0.0
  0
ARC
  5
288
330
1F
100
AcDbEntity
  8
0
  6
Continuous
 62
     7
370
    25
100
AcDbCircle
 10
517.7607021634
 20
524.4395604719
 30
0.0
 40
17.70000000000002
100
AcDbArc
 50
297.6465635726
 51
302.3534364274
  0
SPLINE
  5
289
330
1F
100
AcDbEntity
  8
0
  6
Continuous
 62
     7
370
    25
100
AcDbSpline
210
0.0
220
0.0
230
1.0
 70
     8
 71
     3
 72
     9
 73
     5
 74
     0
 42
0.00000001
 43
0.00000001
 40
0.0
 40
0.0
 40
0.0
 40
0.0
 40
0.5850553834536171
 40
1.0
 40
1.0
 40
1.0
 40
1.0
 10
523.6537064905979
 20
508.1895604718665
 30
0.0
 10
524.1183530613852
 20
508.2212588889051
 30
0.0
 10
524.9125455155157
 20
508.2754390877976
 30
0.0
 10
525.6625688071966
 20
508.6181998715977
 30
0.0
 10
525.973786934364
 20
508.7604266135988
 30
0.0
  0
SPLINE
  5
28A
330
1F
100
AcDbEntity
  8
0
  6
Continuous
 62
     7
370
    25
100
AcDbSpline
210
0.0
220
0.0
230
1.0
 70
    24
 71
     3
 72
    11
 73
     7
 74
     0
 42
0.00000001
 43
0.00000001
 40
0.0
 40
0.0
 40
0.0
 40
0.0
 40
0.2328716322111485
 40
0.471026502431326
 40
0.7311421212560308
 40
1.0
 40
1.0
 40
1.0
 40
1.0
 10
511.8676978362654
 20
508.1895604718665
 30
0.0
 10
512.7615542665859
 20
508.1895604718665
 30
0.0
 10
514.5695463524052
 20
508.1895604718665
 30
0.0
 10
517.4972190929681
 20
508.1895604718665
 30
0.0
 10
520.584318003446
 20
508.1895604718665
 30
0.0
 10
522.6193660244322
 20
508.1895604718665
 30
0.0
 10
523.6537064905979
 20
508.1895604718665
 30
0.0
  0
SPLINE
  5
28B
330
1F
100
AcDbEntity
  8
0
  6
Continuous
 62
     7
370
    25
100
AcDbSpline
210
0.0
220
0.0
230
1.0
 70
     8
 71
     3
 72
     9
 73
     5
 74
     0
 42
0.00000001
 43
0.00000001
 40
0.0
 40
0.0
 40
0.0
 40
0.0
 40
0.5841917497409266
 40
1.0
 40
1.0
 40
1.0
 40
1.0
 10
509.5476173924991
 20
508.7604266135988
 30
0.0
 10
509.9919658063579
 20
508.5693443915322
 30
0.0
 10
510.7525866368571
 20
508.2422562014794
 30
0.0
 10
511.5402012020387
 20
508.2050366630262
 30
0.0
 10
511.8676978362654
 20
508.1895604718665
 30
0.0
  0
ARC
  5
28C
330
1F
100
AcDbEntity
  8
0
  6
Continuous
 62
     7
370
    25
100
AcDbCircle
 10
517.7607021634
 20
524.4395604719
 30
0.0
 40
17.69999999999997
100
AcDbArc
 50
237.6465635726
 51
242.3534364274
  0
LINE
  5
28D
330
1F
100
AcDbEntity
  8
0
  6
Continuous
 62
     7
370
    25
100
AcDbLine
 10
712.5169544765
 20
519.5645604719
 30
0.0
 11
711.8795852243
 21
520.8905021266
 31
0.0
  0
LWPOLYLINE
  5
28E
330
1F
100
AcDbEntity
  8
0
  6
Continuous
 62
     7
370
    25
100
AcDbPolyline
 90
        3
 70
   128
 43
0.0
 10
713.5345982526
 20
518.1216905218
 10
713.491768843
 20
518.1723812774
 10
712.5169544765
 20
519.5645604719
  0
ARC
  5
28F
330
1F
100
AcDbEntity
  8
0
  6
Continuous
 62
     7
370
    25
100
AcDbCircle
 10
720.9607021634
 20
524.4395604719
 30
0.0
 40
10.57500000000009
100
AcDbArc
 50
84.5490172093
 51
281.0490866707
  0
ARC
  5
290
330
1F
100
AcDbEntity
  8
0
  6
Continuous
 62
     7
370
    25
100
AcDbCircle
 10
720.9607021634
 20
524.4395604719
 30
0.0
 40
14.87500000000004
100
AcDbArc
 50
55.1611835908
 51
308.4167037132
  0
ARC
  5
291
330
1F
100
AcDbEntity
  8
0
  6
Continuous
 62
     7
370
    25
100
AcDbCircle
 10
720.9607021634
 20
524.4395604719
 30
0.0
 40
16.20000000000002
100
AcDbArc
 50
210.0
 51
318.1420914366
  0
ARC
  5
292
330
1F
100
AcDbEntity
  8
0
  6
Continuous
 62
     7
370
    25
100
AcDbCircle
 10
720.9607021634
 20
524.4395604719
 30
0.0
 40
16.19999999999999
100
AcDbArc
 50
45.9729863763
 51
210.0
  0
SPLINE
  5
293
330
1F
100
AcDbEntity
  8
0
  6
Continuous
 62
     7
370
    25
100
AcDbSpline
210
0.0
220
0.0
230
1.0
 70
     8
 71
     3
 72
     9
 73
     5
 74
     0
 42
0.00000001
 43
0.00000001
 40
0.0
 40
0.0
 40
0.0
 40
0.0
 40
0.5850553834534097
 40
1.0
 40
1.0
 40
1.0
 40
1.0
 10
709.834291515517
 20
511.2110690199303
 30
0.0
 10
710.0940664353257
 20
510.8245224943661
 30
0.0
 10
710.5380840910141
 20
510.163821753041
 30
0.0
 10
711.2099352830469
 20
509.6856629209149
 30
0.0
 10
711.4887163183014
 20
509.48725348767
 30
0.0
  0
SPLINE
  5
294
330
1F
100
AcDbEntity
  8
0
  6
Continuous
 62
     7
370
    25
100
AcDbSpline
210
0.0
220
0.0
230
1.0
 70
    24
 71
     3
 72
    11
 73
     7
 74
     0
 42
0.00000001
 43
0.00000001
 40
0.0
 40
0.0
 40
0.0
 40
0.0
 40
0.2379053903768482
 40
0.4814905141303176
 40
0.7366519444348056
 40
0.9999999999999999
 40
0.9999999999999999
 40
0.9999999999999999
 40
0.9999999999999999
 10
703.9412871883512
 20
521.4180519238043
 30
0.0
 10
704.3980192991265
 20
520.6269687024934
 30
0.0
 10
705.3223875048601
 20
519.0259160052616
 30
0.0
 10
706.7987135973798
 20
516.4688442044778
 30
0.0
 10
708.3308469818433
 20
513.8151113386147
 30
0.0
 10
709.3278959464897
 20
512.088171874213
 30
0.0
 10
709.834291515517
 20
511.2110690199303
 30
0.0
  0
SPLINE
  5
295
330
1F
100
AcDbEntity
  8
0
  6
Continuous
 62
     7
370
    25
100
AcDbSpline
210
0.0
220
0.0
230
1.0
 70
     8
 71
     3
 72
     9
 73
     5
 74
     0
 42
0.00000001
 43
0.00000001
 40
0.0
 40
0.0
 40
0.0
 40
0.0
 40
0.5841917497409942
 40
1.0
 40
1.0
 40
1.0
 40
1.0
 10
703.2756315473688
 20
523.7127335977951
 30
0.0
 10
703.3323236957771
 20
523.232375472229
 30
0.0
 10
703.4293674291631
 20
522.4101144153427
 30
0.0
 10
703.7909416459362
 20
521.7094104242783
 30
0.0
 10
703.9412871883512
 20
521.4180519238043
 30
0.0
  0
ARC
  5
296
330
1F
100
AcDbEntity
  8
0
  6
Continuous
 62
     7
370
    25
100
AcDbCircle
 10
720.9607021634
 20
524.4395604719
 30
0.0
 40
17.70000000000003
100
AcDbArc
 50
177.6465635726
 51
182.3534364274
  0
SPLINE
  5
297
330
1F
100
AcDbEntity
  8
0
  6
Continuous
 62
     7
370
    25
100
AcDbSpline
210
0.0
220
0.0
230
1.0
 70
     8
 71
     3
 72
     9
 73
     5
 74
     0
 42
0.00000001
 43
0.00000001
 40
0.0
 40
0.0
 40
0.0
 40
0.0
 40
0.5850553834536183
 40
1.0
 40
1.0
 40
1.0
 40
1.0
 10
703.9412871883515
 20
527.4610690199288
 30
0.0
 10
703.736415537373
 20
527.0428240773264
 30
0.0
 10
703.3862407389307
 20
526.3279431371092
 30
0.0
 10
703.3080686392822
 20
525.5070235211834
 30
0.0
 10
703.2756315473688
 20
525.1663873459377
 30
0.0
  0
SPLINE
  5
298
330
1F
100
AcDbEntity
  8
0
  6
Continuous
 62
     7
370
    25
100
AcDbSpline
210
0.0
220
0.0
230
1.0
 70
    24
 71
     3
 72
    11
 73
     7
 74
     0
 42
0.00000001
 43
0.00000001
 40
0.0
 40
0.0
 40
0.0
 40
0.0
 40
0.2328716322111468
 40
0.4710265024313225
 40
0.7311421212560294
 40
1.0
 40
1.0
 40
1.0
 40
1.0
 10
709.8342915155176
 20
537.668051923804
 30
0.0
 10
709.3873633003575
 20
536.8939495478104
 30
0.0
 10
708.4833672574479
 20
535.3281824716497
 30
0.0
 10
707.0195308871663
 20
532.792743504355
 30
0.0
 10
705.4759814319274
 20
530.1192374238858
 30
0.0
 10
704.4584574214342
 20
528.3568341397905
 30
0.0
 10
703.9412871883515
 20
527.4610690199288
 30
0.0
  0
SPLINE
  5
299
330
1F
100
AcDbEntity
  8
0
  6
Continuous
 62
     7
370
    25
100
AcDbSpline
210
0.0
220
0.0
230
1.0
 70
     8
 71
     3
 72
     9
 73
     5
 74
     0
 42
0.00000001
 43
0.00000001
 40
0.0
 40
0.0
 40
0.0
 40
0.0
 40
0.584191749740925
 40
1.0
 40
1.0
 40
1.0
 40
1.0
 10
711.4887163183014
 20
539.391867456063
 30
0.0
 10
711.1010600528508
 20
539.1025915525632
 30
0.0
 10
710.4374829557377
 20
538.6074186857297
 30
0.0
 10
710.0114426073292
 20
537.9439342331184
 30
0.0
 10
709.8342915155176
 20
537.668051923804
 30
0.0
  0
ARC
  5
29A
330
1F
100
AcDbEntity
  8
0
  6
Continuous
 62
     7
370
    25
100
AcDbCircle
 10
720.9607021634
 20
524.4395604719
 30
0.0
 40
17.70000000000002
100
AcDbArc
 50
117.6465635726
 51
122.3534364274
  0
SPLINE
  5
29B
330
1F
100
AcDbEntity
  8
0
  6
Continuous
 62
     7
370
    25
100
AcDbSpline
210
0.0
220
0.0
230
1.0
 70
     8
 71
     3
 72
     9
 73
     5
 74
     0
 42
0.00000001
 43
0.00000001
 40
0.0
 40
0.0
 40
0.0
 40
0.0
 40
0.5850553834536162
 40
1.0
 40
1.0
 40
1.0
 40
1.0
 10
715.0676978362654
 20
540.6895604718665
 30
0.0
 10
714.603051265478
 20
540.6578620548278
 30
0.0
 10
713.8088588113476
 20
540.6036818559352
 30
0.0
 10
713.0588355196666
 20
540.2609210721351
 30
0.0
 10
712.7476173924991
 20
540.1186943301342
 30
0.0
  0
SPLINE
  5
29C
330
1F
100
AcDbEntity
  8
0
  6
Continuous
 62
     7
370
    25
100
AcDbSpline
210
0.0
220
0.0
230
1.0
 70
    24
 71
     3
 72
    11
 73
     7
 74
     0
 42
0.00000001
 43
0.00000001
 40
0.0
 40
0.0
 40
0.0
 40
0.0
 40
0.2328716322111479
 40
0.4710265024313248
 40
0.7311421212560302
 40
0.9999999999999999
 40
0.9999999999999999
 40
0.9999999999999999
 40
0.9999999999999999
 10
726.8537064905979
 20
540.6895604718665
 30
0.0
 10
725.9598500602775
 20
540.6895604718665
 30
0.0
 10
724.1518579744582
 20
540.6895604718665
 30
0.0
 10
721.2241852338952
 20
540.6895604718665
 30
0.0
 10
718.1370863234172
 20
540.6895604718665
 30
0.0
 10
716.102038302431
 20
540.6895604718665
 30
0.0
 10
715.0676978362654
 20
540.6895604718665
 30
0.0
  0
SPLINE
  5
29D
330
1F
100
AcDbEntity
  8
0
  6
Continuous
 62
     7
370
    25
100
AcDbSpline
210
0.0
220
0.0
230
1.0
 70
     8
 71
     3
 72
     9
 73
     5
 74
     0
 42
0.00000001
 43
0.00000001
 40
0.0
 40
0.0
 40
0.0
 40
0.0
 40
0.5841917497409234
 40
1.0
 40
1.0
 40
1.0
 40
1.0
 10
729.1737869343642
 20
540.1186943301342
 30
0.0
 10
728.7294385205054
 20
540.3097765522007
 30
0.0
 10
727.9688176900062
 20
540.6368647422535
 30
0.0
 10
727.1812031248246
 20
540.6740842807068
 30
0.0
 10
726.8537064905979
 20
540.6895604718665
 30
0.0
  0
ARC
  5
29E
330
1F
100
AcDbEntity
  8
0
  6
Continuous
 62
     7
370
    25
100
AcDbCircle
 10
720.9607021634
 20
524.4395604719
 30
0.0
 40
17.70000000000007
100
AcDbArc
 50
57.6465635726
 51
62.3534364274
  0
SPLINE
  5
29F
330
1F
100
AcDbEntity
  8
0
  6
Continuous
 62
     7
370
    25
100
AcDbSpline
210
0.0
220
0.0
230
1.0
 70
     8
 71
     3
 72
     9
 73
     5
 74
     0
 42
0.00000001
 43
0.00000001
 40
0.0
 40
0.0
 40
0.0
 40
0.0
 40
0.5850553834536193
 40
1.0
 40
1.0
 40
1.0
 40
1.0
 10
732.0871128113456
 20
537.668051923804
 30
0.0
 10
731.8273378915368
 20
538.0545984493679
 30
0.0
 10
731.3833202358485
 20
538.7152991906925
 30
0.0
 10
730.7114690438161
 20
539.1934580228183
 30
0.0
 10
730.432688008562
 20
539.391867456063
 30
0.0
  0
LINE
  5
2A0
330
1F
100
AcDbEntity
  8
0
  6
Continuous
 62
     7
370
    25
100
AcDbLine
 10
733.3867143507
 20
535.4170760281
 30
0.0
 11
732.0871128113
 21
537.6680519238
 31
0.0
  0
SPLINE
  5
2A1
330
1F
100
AcDbEntity
  8
0
  6
Continuous
 62
     7
370
    25
100
AcDbSpline
210
0.0
220
0.0
230
1.0
 70
    24
 71
     3
 72
     9
 73
     5
 74
     0
 42
0.00000001
 43
0.00000001
 40
0.0
 40
0.0
 40
0.0
 40
0.0
 40
0.7763876325952248
 40
0.9999999999999999
 40
0.9999999999999999
 40
0.9999999999999999
 40
0.9999999999999999
 10
732.0871128113456
 20
511.2110690199289
 30
0.0
 10
732.5320820767837
 20
511.9817783954742
 30
0.0
 10
733.1052097861351
 20
512.9744647072964
 30
0.0
 10
733.7039244745605
 20
514.0114689668869
 30
0.0
 10
733.8378044834393
 20
514.2433559443826
 30
0.0
  0
SPLINE
  5
2A2
330
1F
100
AcDbEntity
  8
0
  6
Continuous
 62
     7
370
    25
100
AcDbSpline
210
0.0
220
0.0
230
1.0
 70
     8
 71
     3
 72
     9
 73
     5
 74
     0
 42
0.00000001
 43
0.00000001
 40
0.0
 40
0.0
 40
0.0
 40
0.0
 40
0.5841917497409237
 40
1.0
 40
1.0
 40
1.0
 40
1.0
 10
730.432688008562
 20
509.48725348767
 30
0.0
 10
730.8203442740125
 20
509.7765293911697
 30
0.0
 10
731.4839213711257
 20
510.2717022580032
 30
0.0
 10
731.9099617195342
 20
510.9351867106145
 30
0.0
 10
732.0871128113456
 20
511.2110690199289
 30
0.0
  0
ARC
  5
2A3
330
1F
100
AcDbEntity
  8
0
  6
Continuous
 62
     7
370
    25
100
AcDbCircle
 10
720.9607021634
 20
524.4395604719
 30
0.0
 40
17.70000000000002
100
AcDbArc
 50
297.6465635726
 51
302.3534364274
  0
SPLINE
  5
2A4
330
1F
100
AcDbEntity
  8
0
  6
Continuous
 62
     7
370
    25
100
AcDbSpline
210
0.0
220
0.0
230
1.0
 70
     8
 71
     3
 72
     9
 73
     5
 74
     0
 42
0.00000001
 43
0.00000001
 40
0.0
 40
0.0
 40
0.0
 40
0.0
 40
0.5850553834536171
 40
1.0
 40
1.0
 40
1.0
 40
1.0
 10
726.8537064905979
 20
508.1895604718665
 30
0.0
 10
727.3183530613852
 20
508.2212588889051
 30
0.0
 10
728.1125455155158
 20
508.2754390877976
 30
0.0
 10
728.8625688071967
 20
508.6181998715976
 30
0.0
 10
729.1737869343642
 20
508.7604266135988
 30
0.0
  0
SPLINE
  5
2A5
330
1F
100
AcDbEntity
  8
0
  6
Continuous
 62
     7
370
    25
100
AcDbSpline
210
0.0
220
0.0
230
1.0
 70
    24
 71
     3
 72
    11
 73
     7
 74
     0
 42
0.00000001
 43
0.00000001
 40
0.0
 40
0.0
 40
0.0
 40
0.0
 40
0.2328716322111485
 40
0.471026502431326
 40
0.7311421212560308
 40
1.0
 40
1.0
 40
1.0
 40
1.0
 10
715.0676978362654
 20
508.1895604718665
 30
0.0
 10
715.9615542665858
 20
508.1895604718665
 30
0.0
 10
717.7695463524052
 20
508.1895604718665
 30
0.0
 10
720.6972190929681
 20
508.1895604718665
 30
0.0
 10
723.7843180034461
 20
508.1895604718665
 30
0.0
 10
725.8193660244322
 20
508.1895604718665
 30
0.0
 10
726.8537064905979
 20
508.1895604718665
 30
0.0
  0
SPLINE
  5
2A6
330
1F
100
AcDbEntity
  8
0
  6
Continuous
 62
     7
370
    25
100
AcDbSpline
210
0.0
220
0.0
230
1.0
 70
     8
 71
     3
 72
     9
 73
     5
 74
     0
 42
0.00000001
 43
0.00000001
 40
0.0
 40
0.0
 40
0.0
 40
0.0
 40
0.5841917497409266
 40
1.0
 40
1.0
 40
1.0
 40
1.0
 10
712.7476173924991
 20
508.7604266135988
 30
0.0
 10
713.1919658063579
 20
508.5693443915322
 30
0.0
 10
713.9525866368572
 20
508.2422562014794
 30
0.0
 10
714.7402012020387
 20
508.2050366630262
 30
0.0
 10
715.0676978362654
 20
508.1895604718665
 30
0.0
  0
ARC
  5
2A7
330
1F
100
AcDbEntity
  8
0
  6
Continuous
 62
     7
370
    25
100
AcDbCircle
 10
720.9607021634
 20
524.4395604719
 30
0.0
 40
17.69999999999997
100
AcDbArc
 50
237.6465635726
 51
242.3534364274
  0
SPLINE
  5
2A8
330
1F
100
AcDbEntity
  8
0
  6
Continuous
 62
     7
370
    25
100
AcDbSpline
210
0.0
220
0.0
230
1.0
 70
    24
 71
     3
 72
    10
 73
     6
 74
     0
 42
0.00000001
 43
0.00000001
 40
0.0
 40
0.0
 40
0.0
 40
0.0
 40
0.0758088660246492
 40
0.5355965009692758
 40
1.0
 40
1.0
 40
1.0
 40
1.0
 10
503.7501150290728
 20
513.8923880003122
 30
0.0
 10
503.8521061226762
 20
513.7157342442717
 30
0.0
 10
504.5726824316023
 20
512.467659466481
 30
0.0
 10
505.9047115989432
 20
510.1605172714832
 30
0.0
 10
507.106704194961
 20
508.0786050248587
 30
0.0
 10
507.7107021634316
 20
507.0324498557992
 30
0.0
  0
SPLINE
  5
2A9
330
1F
100
AcDbEntity
  8
0
  6
Continuous
 62
     7
370
    25
100
AcDbSpline
210
0.0
220
0.0
230
1.0
 70
    24
 71
     3
 72
     9
 73
     5
 74
     0
 42
0.00000001
 43
0.00000001
 40
0.0
 40
0.0
 40
0.0
 40
0.0
 40
0.7038166668989727
 40
0.9999999999999999
 40
0.9999999999999999
 40
0.9999999999999999
 40
0.9999999999999999
 10
507.7107021634316
 20
541.8466710879337
 30
0.0
 10
506.8402897852793
 20
540.339072625437
 30
0.0
 10
505.6035865085761
 20
538.1970397163001
 30
0.0
 10
504.3245316360054
 20
535.9816516913392
 30
0.0
 10
503.9456969006283
 20
535.3254906819942
 30
0.0
  0
SPLINE
  5
2AA
330
1F
100
AcDbEntity
  8
0
  6
Continuous
 62
     7
370
    25
100
AcDbSpline
210
0.0
220
0.0
230
1.0
 70
    24
 71
     3
 72
     9
 73
     5
 74
     0
 42
0.00000001
 43
0.00000001
 40
0.0
 40
0.0
 40
0.0
 40
0.0
 40
0.6843869061424409
 40
1.0
 40
1.0
 40
1.0
 40
1.0
 10
527.8107021634316
 20
541.8466710879337
 30
0.0
 10
526.0694913020424
 20
541.8466710879337
 30
0.0
 10
523.5253005149866
 20
541.8466710879337
 30
0.0
 10
520.8940018105417
 20
541.8466710879337
 30
0.0
 10
520.0635294855684
 20
541.8466710879337
 30
0.0
  0
SPLINE
  5
2AB
330
1F
100
AcDbEntity
  8
0
  6
Continuous
 62
     7
370
    25
100
AcDbSpline
210
0.0
220
0.0
230
1.0
 70
    24
 71
     3
 72
     9
 73
     5
 74
     0
 42
0.00000001
 43
0.00000001
 40
0.0
 40
0.0
 40
0.0
 40
0.0
 40
0.3728403501277988
 40
0.9999999999999999
 40
0.9999999999999999
 40
0.9999999999999999
 40
0.9999999999999999
 10
515.2015264121408
 20
541.8466710879337
 30
0.0
 10
514.2542511393958
 20
541.8466710879337
 30
0.0
 10
511.7135516887589
 20
541.8466710879337
 30
0.0
 10
509.2535290808717
 20
541.8466710879337
 30
0.0
 10
507.7107021634316
 20
541.8466710879337
 30
0.0
  0
SPLINE
  5
2AC
330
1F
100
AcDbEntity
  8
0
  6
Continuous
 62
     7
370
    25
100
AcDbSpline
210
0.0
220
0.0
230
1.0
 70
    24
 71
     3
 72
     9
 73
     5
 74
     0
 42
0.00000001
 43
0.00000001
 40
0.0
 40
0.0
 40
0.0
 40
0.0
 40
0.5287193268548248
 40
0.9999999999999999
 40
0.9999999999999999
 40
0.9999999999999999
 40
0.9999999999999999
 10
530.5419619352047
 20
537.1159903945538
 30
0.0
 10
530.0533122550104
 20
537.9623564677526
 30
0.0
 10
529.1290984890769
 20
539.5631416674038
 30
0.0
 10
528.2330109174059
 20
541.1152108695693
 30
0.0
 10
527.8107021634316
 20
541.8466710879337
 30
0.0
  0
SPLINE
  5
2AD
330
1F
100
AcDbEntity
  8
0
  6
Continuous
 62
     7
370
    25
100
AcDbSpline
210
0.0
220
0.0
230
1.0
 70
    24
 71
     3
 72
     9
 73
     5
 74
     0
 42
0.00000001
 43
0.00000001
 40
0.0
 40
0.0
 40
0.0
 40
0.0
 40
0.9674793701674816
 40
1.0
 40
1.0
 40
1.0
 40
1.0
 10
527.8107021634316
 20
507.0324498557992
 30
0.0
 10
528.6784948101417
 20
508.5355108103356
 30
0.0
 10
529.5754572400072
 20
510.0890953113426
 30
0.0
 10
530.5032293800947
 20
511.6960437958217
 30
0.0
 10
530.5334011144314
 20
511.7483027726453
 30
0.0
  0
SPLINE
  5
2AE
330
1F
100
AcDbEntity
  8
0
  6
Continuous
 62
     7
370
    25
100
AcDbSpline
210
0.0
220
0.0
230
1.0
 70
    24
 71
     3
 72
     9
 73
     5
 74
     0
 42
0.00000001
 43
0.00000001
 40
0.0
 40
0.0
 40
0.0
 40
0.0
 40
0.609426769288297
 40
1.0
 40
1.0
 40
1.0
 40
1.0
 10
507.7107021634316
 20
507.0324498557992
 30
0.0
 10
509.4534026206189
 20
507.0324498557992
 30
0.0
 10
512.3129758212225
 20
507.0324498557992
 30
0.0
 10
515.2703713051368
 20
507.0324498557992
 30
0.0
 10
516.4254508137814
 20
507.0324498557992
 30
0.0
  0
SPLINE
  5
2AF
330
1F
100
AcDbEntity
  8
0
  6
Continuous
 62
     7
370
    25
100
AcDbSpline
210
0.0
220
0.0
230
1.0
 70
    24
 71
     3
 72
     9
 73
     5
 74
     0
 42
0.00000001
 43
0.00000001
 40
0.0
 40
0.0
 40
0.0
 40
0.0
 40
0.4212284685321361
 40
1.0
 40
1.0
 40
1.0
 40
1.0
 10
519.6851481756485
 20
507.0324498557992
 30
0.0
 10
520.8454322516469
 20
507.0324498557992
 30
0.0
 10
523.599956607614
 20
507.0324498557992
 30
0.0
 10
526.2670591439149
 20
507.0324498557992
 30
0.0
 10
527.8107021634316
 20
507.0324498557992
 30
0.0
  0
SPLINE
  5
2B0
330
1F
100
AcDbEntity
  8
0
  6
Continuous
 62
     7
370
    25
100
AcDbSpline
210
0.0
220
0.0
230
1.0
 70
    24
 71
     3
 72
    10
 73
     6
 74
     0
 42
0.00000001
 43
0.00000001
 40
0.0
 40
0.0
 40
0.0
 40
0.0
 40
0.0287206195774225
 40
0.5119347868395918
 40
1.0
 40
1.0
 40
1.0
 40
1.0
 10
734.775707426235
 20
535.3254906819942
 30
0.0
 10
734.7389511106181
 20
535.3891544881416
 30
0.0
 10
734.0837829117006
 20
536.5239390961698
 30
0.0
 10
732.8168429323974
 20
538.7183435104637
 30
0.0
 10
731.6147503664943
 20
540.8004289100086
 30
0.0
 10
731.0107021634317
 20
541.8466710879337
 30
0.0
  0
SPLINE
  5
2B1
330
1F
100
AcDbEntity
  8
0
  6
Continuous
 62
     7
370
    25
100
AcDbSpline
210
0.0
220
0.0
230
1.0
 70
    24
 71
     3
 72
     9
 73
     5
 74
     0
 42
0.00000001
 43
0.00000001
 40
0.0
 40
0.0
 40
0.0
 40
0.0
 40
0.6695761589334299
 40
1.0
 40
1.0
 40
1.0
 40
1.0
 10
731.0107021634317
 20
507.0324498557992
 30
0.0
 10
731.881454752521
 20
508.5406375809241
 30
0.0
 10
733.1819081475109
 20
510.7930889339219
 30
0.0
 10
734.5268788967159
 20
513.1226466062391
 30
0.0
 10
734.9712892977905
 20
513.8923880003122
 30
0.0
  0
SPLINE
  5
2B2
330
1F
100
AcDbEntity
  8
0
  6
Continuous
 62
     7
370
    25
100
AcDbSpline
210
0.0
220
0.0
230
1.0
 70
    24
 71
     3
 72
     9
 73
     5
 74
     0
 42
0.00000001
 43
0.00000001
 40
0.0
 40
0.0
 40
0.0
 40
0.0
 40
0.6529780563924403
 40
1.0
 40
1.0
 40
1.0
 40
1.0
 10
710.9107021634317
 20
507.0324498557992
 30
0.0
 10
712.6525371764376
 20
507.0324498557992
 30
0.0
 10
715.320061752423
 20
507.0324498557992
 30
0.0
 10
718.0788842173631
 20
507.0324498557992
 30
0.0
 10
719.0362561512148
 20
507.0324498557992
 30
0.0
  0
SPLINE
  5
2B3
330
1F
100
AcDbEntity
  8
0
  6
Continuous
 62
     7
370
    25
100
AcDbSpline
210
0.0
220
0.0
230
1.0
 70
    24
 71
     3
 72
     9
 73
     5
 74
     0
 42
0.00000001
 43
0.00000001
 40
0.0
 40
0.0
 40
0.0
 40
0.0
 40
0.4599094230893744
 40
1.0
 40
1.0
 40
1.0
 40
1.0
 10
722.2959535130818
 20
507.0324498557992
 30
0.0
 10
723.65407045879
 20
507.0324498557992
 30
0.0
 10
726.6070800679106
 20
507.0324498557992
 30
0.0
 10
729.4664067604709
 20
507.0324498557992
 30
0.0
 10
731.0107021634317
 20
507.0324498557992
 30
0.0
  0
SPLINE
  5
2B4
330
1F
100
AcDbEntity
  8
0
  6
Continuous
 62
     7
370
    25
100
AcDbSpline
210
0.0
220
0.0
230
1.0
 70
    24
 71
     3
 72
     9
 73
     5
 74
     0
 42
0.00000001
 43
0.00000001
 40
0.0
 40
0.0
 40
0.0
 40
0.0
 40
0.5290241437463714
 40
1.0
 40
1.0
 40
1.0
 40
1.0
 10
708.1776575549192
 20
511.7662219770952
 30
0.0
 10
708.6669069016608
 20
510.9188172509687
 30
0.0
 10
709.5917216809579
 20
509.3169910656355
 30
0.0
 10
710.4883920626411
 20
507.763912406918
 30
0.0
 10
710.9107021634317
 20
507.0324498557992
 30
0.0
  0
SPLINE
  5
2B5
330
1F
100
AcDbEntity
  8
0
  6
Continuous
 62
     7
370
    25
100
AcDbSpline
210
0.0
220
0.0
230
1.0
 70
    24
 71
     3
 72
     9
 73
     5
 74
     0
 42
0.00000001
 43
0.00000001
 40
0.0
 40
0.0
 40
0.0
 40
0.0
 40
0.9693479349218207
 40
1.0
 40
1.0
 40
1.0
 40
1.0
 10
710.9107021634317
 20
541.8466710879337
 30
0.0
 10
710.042928082631
 20
540.3436422904956
 30
0.0
 10
709.1477138364988
 20
538.7930857325355
 30
0.0
 10
708.2217492705208
 20
537.1892680582528
 30
0.0
 10
708.1933665443844
 20
537.1401077345271
 30
0.0
  0
SPLINE
  5
2B6
330
1F
100
AcDbEntity
  8
0
  6
Continuous
 62
     7
370
    25
100
AcDbSpline
210
0.0
220
0.0
230
1.0
 70
    24
 71
     3
 72
     9
 73
     5
 74
     0
 42
0.00000001
 43
0.00000001
 40
0.0
 40
0.0
 40
0.0
 40
0.0
 40
0.7074408133422876
 40
1.0
 40
1.0
 40
1.0
 40
1.0
 10
731.0107021634317
 20
541.8466710879337
 30
0.0
 10
729.269949425583
 20
541.8466710879337
 30
0.0
 10
726.8093156806559
 20
541.8466710879337
 30
0.0
 10
724.2644126697236
 20
541.8466710879337
 30
0.0
 10
723.5198779147225
 20
541.8466710879337
 30
0.0
  0
SPLINE
  5
2B7
330
1F
100
AcDbEntity
  8
0
  6
Continuous
 62
     7
370
    25
100
AcDbSpline
210
0.0
220
0.0
230
1.0
 70
    24
 71
     3
 72
     9
 73
     5
 74
     0
 42
0.00000001
 43
0.00000001
 40
0.0
 40
0.0
 40
0.0
 40
0.0
 40
0.3933250429310001
 40
1.0
 40
1.0
 40
1.0
 40
1.0
 10
718.6578748412949
 20
541.8466710879337
 30
0.0
 10
717.6245875502101
 20
541.8466710879337
 30
0.0
 10
714.9975305914542
 20
541.8466710879337
 30
0.0
 10
712.4538745706508
 20
541.8466710879337
 30
0.0
 10
710.9107021634317
 20
541.8466710879337
 30
0.0
  0
ARC
  5
2B8
330
1F
100
AcDbEntity
  8
0
  6
Continuous
 62
     7
370
    25
100
AcDbCircle
 10
720.9607021634
 20
524.4395604719
 30
0.0
 40
25.80000000000007
100
AcDbArc
 50
207.7177476896
 51
270.0
  0
ARC
  5
2B9
330
1F
100
AcDbEntity
  8
0
  6
Continuous
 62
     7
370
    25
100
AcDbCircle
 10
720.9607021634
 20
524.4395604719
 30
0.0
 40
25.80000000000001
100
AcDbArc
 50
12.3583356095
 51
152.2822523104
  0
ARC
  5
2BA
330
1F
100
AcDbEntity
  8
0
  6
Continuous
 62
     7
370
    25
100
AcDbCircle
 10
720.9607021634
 20
524.4395604719
 30
0.0
 40
25.80000000000012
100
AcDbArc
 50
270.0
 51
348.6716225743
  0
ARC
  5
2BB
330
1F
100
AcDbEntity
  8
0
  6
Continuous
 62
     7
370
    25
100
AcDbCircle
 10
517.7607021634
 20
524.4395604719
 30
0.0
 40
25.80000000000003
100
AcDbArc
 50
27.7177476896
 51
90.0
  0
ARC
  5
2BC
330
1F
100
AcDbEntity
  8
0
  6
Continuous
 62
     7
370
    25
100
AcDbCircle
 10
517.7607021634
 20
524.4395604719
 30
0.0
 40
25.80000000000003
100
AcDbArc
 50
191.6486469977
 51
332.2822523104
  0
ARC
  5
2BD
330
1F
100
AcDbEntity
  8
0
  6
Continuous
 62
     7
370
    25
100
AcDbCircle
 10
517.7607021634
 20
524.4395604719
 30
0.0
 40
25.79999999999996
100
AcDbArc
 50
90.0
 51
168.1472956426
  0
SPLINE
  5
2BE
330
1F
100
AcDbEntity
  8
0
  6
Continuous
 62
     8
370
    25
100
AcDbSpline
210
0.0
220
0.0
230
1.0
 70
     8
 71
     3
 72
    16
 73
    12
 74
     0
 42
0.00000001
 43
0.00000001
 40
0.0
 40
0.0
 40
0.0
 40
0.0
 40
0.0961490818557367
 40
0.1898118314713863
 40
0.2837145723291145
 40
0.2938991301868718
 40
0.4289456490880268
 40
0.5643578936429551
 40
0.7523444602197986
 40
0.9406047997644947
 40
1.0
 40
1.0
 40
1.0
 40
1.0
 10
597.5803701925664
 20
524.4395604718665
 30
0.0
 10
597.6147943332053
 20
524.9701269862037
 30
0.0
 10
597.6827524359285
 20
526.0175400229173
 30
0.0
 10
598.1956392969449
 20
527.4824097401728
 30
0.0
 10
598.695038907443
 20
528.4063621890698
 30
0.0
 10
599.3843957863658
 20
529.4493148006321
 30
0.0
 10
600.3173392613988
 20
530.5621698826488
 30
0.0
 10
602.0638074161651
 20
532.0702894925602
 30
0.0
 10
604.2064110121363
 20
533.386973556492
 30
0.0
 10
606.1119411887623
 20
534.3359874649674
 30
0.0
 10
607.2524324115886
 20
534.6502829200095
 30
0.0
 10
607.5259562932137
 20
534.7256603636231
 30
0.0
  0
SPLINE
  5
2BF
330
1F
100
AcDbEntity
  8
0
  6
Continuous
 62
     8
370
    25
100
AcDbSpline
210
0.0
220
0.0
230
1.0
 70
     8
 71
     3
 72
    23
 73
    19
 74
     0
 42
0.00000001
 43
0.00000001
 40
0.0
 40
0.0
 40
0.0
 40
0.0
 40
0.0663050876258315
 40
0.1657369152243784
 40
0.2650027528483695
 40
0.3308173025614351
 40
0.3964532853817868
 40
0.4390874584460941
 40
0.4816233801190166
 40
0.5421797711121991
 40
0.5652551179746916
 40
0.6352869044440174
 40
0.6508197841000055
 40
0.7068371613617295
 40
0.7630173269500719
 40
0.8451891951743334
 40
0.9279043381219934
 40
1.0
 40
1.0
 40
1.0
 40
1.0
 10
628.6308243243859
 20
535.4565966585118
 30
0.0
 10
629.305268955502
 20
535.3116297045092
 30
0.0
 10
630.9911180608017
 20
534.9492687360502
 30
0.0
 10
633.5892084903588
 20
533.8806433248923
 30
0.0
 10
636.061499335714
 20
532.4964478338164
 30
0.0
 10
638.0373021489318
 20
530.9244079527256
 30
0.0
 10
639.3537308192466
 20
529.4757617886556
 30
0.0
 10
640.2777891164864
 20
528.0037624687845
 30
0.0
 10
640.9434126235194
 20
526.4191890480093
 30
0.0
 10
641.1840507881957
 20
524.8899390997699
 30
0.0
 10
641.0758566451282
 20
523.0411579461975
 30
0.0
 10
640.6910763474992
 20
521.7717471672734
 30
0.0
 10
639.9458680200474
 20
520.3057055470589
 30
0.0
 10
639.1090254136125
 20
519.0996096493412
 30
0.0
 10
637.5927712955635
 20
517.5529489635375
 30
0.0
 10
635.6535021120833
 20
516.1230378453891
 30
0.0
 10
633.4219710994926
 20
514.9206572425754
 30
0.0
 10
631.8922373612359
 20
514.3618958621267
 30
0.0
 10
631.1798376906772
 20
514.1016797124807
 30
0.0
  0
SPLINE
  5
2C0
330
1F
100
AcDbEntity
  8
0
  6
Continuous
 62
     8
370
    25
100
AcDbSpline
210
0.0
220
0.0
230
1.0
 70
     8
 71
     3
 72
    15
 73
    11
 74
     0
 42
0.00000001
 43
0.00000001
 40
0.0
 40
0.0
 40
0.0
 40
0.0
 40
0.1470288848989916
 40
0.3452979151469482
 40
0.5430476916550921
 40
0.6556896590239909
 40
0.7680052823731757
 40
0.844972886296423
 40
0.9217575037793772
 40
1.0
 40
1.0
 40
1.0
 40
1.0
 10
610.0947217361415
 20
513.4181174184218
 30
0.0
 10
609.2844907816917
 20
513.6037373230143
 30
0.0
 10
607.3816601946863
 20
514.0396663998731
 30
0.0
 10
604.511727684341
 20
515.2816230749652
 30
0.0
 10
601.9790218038817
 20
516.8459341369999
 30
0.0
 10
600.0999139530519
 20
518.5421228246929
 30
0.0
 10
598.940226419536
 20
519.9995049675719
 30
0.0
 10
598.1587870587381
 20
521.4853398899795
 30
0.0
 10
597.6760005714699
 20
522.9126607503243
 30
0.0
 10
597.6124462077934
 20
523.9274129798256
 30
0.0
 10
597.5803701925664
 20
524.4395604718665
 30
0.0
  0
SPLINE
  5
2C1
330
1F
100
AcDbEntity
  8
0
  6
Continuous
 62
     8
370
    25
100
AcDbSpline
210
0.0
220
0.0
230
1.0
 70
     8
 71
     3
 72
    14
 73
    10
 74
     0
 42
0.00000001
 43
0.00000001
 40
0.0
 40
0.0
 40
0.0
 40
0.0
 40
0.3072455798152211
 40
0.5118946112366083
 40
0.7157492588510835
 40
0.8814935063809975
 40
0.9340046825403985
 40
0.996880845828901
 40
0.9999999999999999
 40
0.9999999999999999
 40
0.9999999999999999
 40
0.9999999999999999
 10
540.3739726035959
 20
517.2395604718664
 30
0.0
 10
539.5556643996421
 20
516.4284909779326
 30
0.0
 10
538.192300408575
 20
515.0771872308364
 30
0.0
 10
536.1996843017016
 20
513.7634373682124
 30
0.0
 10
534.7852322591251
 20
512.9530316826488
 30
0.0
 10
534.008982924079
 20
512.5692122481219
 30
0.0
 10
533.7933297447352
 20
512.464844976282
 30
0.0
 10
533.6958432910113
 20
512.4177025354012
 30
0.0
 10
533.745115875733
 20
512.4417183077333
 30
0.0
 10
533.7474446589569
 20
512.4428533715426
 30
0.0
  0
SPLINE
  5
2C2
330
1F
100
AcDbEntity
  8
0
  6
Continuous
 62
     8
370
    25
100
AcDbSpline
210
0.0
220
0.0
230
1.0
 70
     8
 71
     3
 72
    14
 73
    10
 74
     0
 42
0.00000001
 43
0.00000001
 40
0.0
 40
0.0
 40
0.0
 40
0.0
 40
0.0342192991071503
 40
0.1230503916462572
 40
0.2395954352455672
 40
0.3607603697162201
 40
0.5547346456161338
 40
0.7533505837792884
 40
1.0
 40
1.0
 40
1.0
 40
1.0
 10
533.7930882718847
 20
536.4142784312137
 30
0.0
 10
533.7763094676058
 20
536.4223826459092
 30
0.0
 10
533.7159739700429
 20
536.4515248790433
 30
0.0
 10
533.9692413119932
 20
536.3298733669965
 30
0.0
 10
534.4698136352617
 20
536.080391550716
 30
0.0
 10
535.4308681513133
 20
535.5676476658293
 30
0.0
 10
536.7695384959809
 20
534.7548959562249
 30
0.0
 10
538.548891037636
 20
533.4922078168202
 30
0.0
 10
539.7233790306192
 20
532.29998051999
 30
0.0
 10
540.3739726035872
 20
531.6395604718762
 30
0.0
  0
SPLINE
  5
2C3
330
1F
100
AcDbEntity
  8
0
  6
Continuous
 62
     8
370
    25
100
AcDbSpline
210
0.0
220
0.0
230
1.0
 70
     8
 71
     3
 72
    14
 73
    10
 74
     0
 42
0.00000001
 43
0.00000001
 40
0.0
 40
0.0
 40
0.0
 40
0.0
 40
0.0031612527542779
 40
0.0660525309113599
 40
0.2407241788072148
 40
0.2840681539106815
 40
0.489790220622999
 40
0.6963255446457084
 40
0.9999999999999999
 40
0.9999999999999999
 40
0.9999999999999999
 40
0.9999999999999999
 10
704.9738701422737
 20
512.4428970130584
 30
0.0
 10
704.9762265626343
 20
512.4417484661674
 30
0.0
 10
705.0254625905053
 20
512.4177502493461
 30
0.0
 10
704.8473468667872
 20
512.5038757898087
 30
0.0
 10
704.4943325467294
 20
512.6748121534629
 30
0.0
 10
703.6331891904881
 20
513.1258529886579
 30
0.0
 10
702.5068117350795
 20
513.7723987204425
 30
0.0
 10
700.5137233731909
 20
515.0894640634824
 30
0.0
 10
699.1557130596743
 20
516.4373218635823
 30
0.0
 10
698.3474317232674
 20
517.2395604718665
 30
0.0
  0
SPLINE
  5
2C4
330
1F
100
AcDbEntity
  8
0
  6
Continuous
 62
     8
370
    25
100
AcDbSpline
210
0.0
220
0.0
230
1.0
 70
     8
 71
     3
 72
    13
 73
     9
 74
     0
 42
0.00000001
 43
0.00000001
 40
0.0
 40
0.0
 40
0.0
 40
0.0
 40
0.246771546281281
 40
0.4411987723467838
 40
0.6395525306387232
 40
0.7566595934839726
 40
0.8773718091695638
 40
1.0
 40
1.0
 40
1.0
 40
1.0
 10
698.3474317232674
 20
531.6395604718664
 30
0.0
 10
698.9982628907885
 20
532.3001762310981
 30
0.0
 10
700.1618731872042
 20
533.4812802374482
 30
0.0
 10
701.9376316288666
 20
534.7460679541801
 30
0.0
 10
703.2768319348127
 20
535.5591852309553
 30
0.0
 10
704.2291478433904
 20
536.0694499505344
 30
0.0
 10
704.8541068822252
 20
536.3796615531177
 30
0.0
 10
704.9199915934954
 20
536.4106302832919
 30
0.0
 10
704.9531933254318
 20
536.4262365667199
 30
0.0
  0
LINE
  5
2C5
330
1F
100
AcDbEntity
  8
0
  6
Continuous
 62
     8
370
    25
100
AcDbLine
 10
611.3014683161
 20
516.8651994448
 30
0.0
 11
611.4607021634
 21
516.6992636316
 31
0.0
  0
ARC
  5
2C6
330
1F
100
AcDbEntity
  8
0
  6
Continuous
 62
     8
370
    25
100
AcDbCircle
 10
619.3607021634
 20
524.4395604719
 30
0.0
 40
11.05993649053895
100
AcDbArc
 50
315.5850271977
 51
223.2235523034
  0
ARC
  5
2C7
330
1F
100
AcDbEntity
  8
0
  6
Continuous
 62
     8
370
    25
100
AcDbCircle
 10
619.3607021634
 20
524.4395604719
 30
0.0
 40
11.30993649053895
100
AcDbArc
 50
314.3068486059
 51
225.6931513941
  0
LINE
  5
2C8
330
1F
100
AcDbEntity
  8
0
  6
Continuous
 62
     8
370
    25
100
AcDbLine
 10
627.2607021634
 20
512.073824162
 30
0.0
 11
627.5179610221
 21
512.1804922808
 31
0.0
  0
ARC
  5
2C9
330
1F
100
AcDbEntity
  8
0
  6
Continuous
 62
     8
370
    25
100
AcDbCircle
 10
611.2032116566
 20
512.5245062465
 30
0.0
 40
0.3529502268445978
100
AcDbArc
 50
279.538525686
 51
316.8476542186
  0
ARC
  5
2CA
330
1F
100
AcDbEntity
  8
0
  6
Continuous
 62
     8
370
    25
100
AcDbCircle
 10
619.3607021634
 20
524.4395604719
 30
0.0
 40
9.375000000000025
100
AcDbArc
 50
327.4227936768
 51
212.5772063232
  0
LWPOLYLINE
  5
2CB
330
1F
100
AcDbEntity
  8
0
  6
Continuous
 62
     8
370
    25
100
AcDbPolyline
 90
       17
 70
   128
 43
0.0
 10
611.4607021634
 20
419.3665723835
 10
611.6124984482
 20
419.9093883181
 10
612.0620538566
 20
420.4313441409
 10
612.7920922262
 20
420.9123813821
 10
613.7745585921
 20
421.3340140504
 10
614.9716973226
 20
421.6800390388
 10
616.3375030477
 20
421.9371588011
 10
617.8194886195
 20
422.0954923689
 10
619.3607021634
 20
422.1489550721
 10
620.9019157074
 20
422.0954923689
 10
622.3839012791
 20
421.9371588011
 10
623.7497070043
 20
421.6800390388
 10
624.9468457348
 20
421.3340140504
 10
625.9293121006
 20
420.9123813821
 10
626.6593504703
 20
420.4313441409
 10
627.1089058786
 20
419.9093883181
 10
627.2607021634
 20
419.3665723835
  0
LWPOLYLINE
  5
2CC
330
1F
100
AcDbEntity
  8
0
  6
Continuous
 62
     8
370
    25
100
AcDbPolyline
 90
       17
 70
   128
 43
0.0
 10
611.4607021634
 20
501.7665723835
 10
611.6124984482
 20
502.3093883181
 10
612.0620538566
 20
502.8313441409
 10
612.7920922262
 20
503.3123813821
 10
613.7745585921
 20
503.7340140504
 10
614.9716973226
 20
504.0800390388
 10
616.3375030477
 20
504.3371588011
 10
617.8194886195
 20
504.4954923689
 10
619.3607021634
 20
504.5489550721
 10
620.9019157074
 20
504.4954923689
 10
622.3839012791
 20
504.3371588011
 10
623.7497070043
 20
504.0800390388
 10
624.9468457348
 20
503.7340140504
 10
625.9293121006
 20
503.3123813821
 10
626.6593504703
 20
502.8313441409
 10
627.1089058786
 20
502.3093883181
 10
627.2607021634
 20
501.7665723835
  0
ARC
  5
2CD
330
1F
100
AcDbEntity
  8
0
  6
Continuous
 62
     8
370
    25
100
AcDbCircle
 10
619.3607021634
 20
372.0395604719
 30
0.0
 40
8.410472292019515
100
AcDbArc
 50
159.9351921799
 51
270.0
  0
ARC
  5
2CE
330
1F
100
AcDbEntity
  8
0
  6
Continuous
 62
     8
370
    25
100
AcDbCircle
 10
619.3607021634
 20
372.0395604719
 30
0.0
 40
8.410472292019621
100
AcDbArc
 50
270.0
 51
20.0648078201
  0
ELLIPSE
  5
2CF
330
1F
100
AcDbEntity
  8
0
  6
Continuous
 62
     8
370
    25
100
AcDbEllipse
 10
462.299616716
 20
521.1003246939
 30
0.0
 11
1.499999304622804
 21
-0.0828726334387966
 31
0.0
210
0.0
220
0.0
230
1.0
 40
0.0174284859
 41
3.125102257573961
 42
3.624333447076722
  0
ELLIPSE
  5
2D0
330
1F
100
AcDbEntity
  8
0
  6
Continuous
 62
     8
370
    25
100
AcDbEllipse
 10
776.4217876109
 20
528.0242175387
 30
0.0
 11
1.499999304622861
 21
-0.08287263343856921
 31
0.0
210
0.0
220
0.0
230
1.0
 40
0.0174284859
 41
6.266694911155877
 42
6.765926100658916
  0
ARC
  5
2D1
330
1F
100
AcDbEntity
  8
0
  6
Continuous
 62
     8
370
    25
100
AcDbCircle
 10
720.9607021634
 20
524.4395604719
 30
0.0
 40
24.80000000000007
100
AcDbArc
 50
270.0
 51
347.8286939288
  0
ARC
  5
2D2
330
1F
100
AcDbEntity
  8
0
  6
Continuous
 62
     8
370
    25
100
AcDbCircle
 10
720.9607021634
 20
524.4395604719
 30
0.0
 40
24.80000000000008
100
AcDbArc
 50
13.4342172664
 51
151.0614722598
  0
ARC
  5
2D3
330
1F
100
AcDbEntity
  8
0
  6
Continuous
 62
     8
370
    25
100
AcDbCircle
 10
720.9607021634
 20
524.4395604719
 30
0.0
 40
24.80000000000007
100
AcDbArc
 50
208.9385277402
 51
270.0
  0
ARC
  5
2D4
330
1F
100
AcDbEntity
  8
0
  6
Continuous
 62
     8
370
    25
100
AcDbCircle
 10
517.7607021634
 20
524.4395604719
 30
0.0
 40
24.79999999999995
100
AcDbArc
 50
90.0
 51
167.2263671815
  0
ARC
  5
2D5
330
1F
100
AcDbEntity
  8
0
  6
Continuous
 62
     8
370
    25
100
AcDbCircle
 10
517.7607021634
 20
524.4395604719
 30
0.0
 40
24.80000000000001
100
AcDbArc
 50
192.8078240298
 51
331.0614722598
  0
ARC
  5
2D6
330
1F
100
AcDbEntity
  8
0
  6
Continuous
 62
     8
370
    25
100
AcDbCircle
 10
517.7607021634
 20
524.4395604719
 30
0.0
 40
24.80000000000001
100
AcDbArc
 50
28.9385277402
 51
90.0
  0
ENDSEC
  0
SECTION
  2
OBJECTS
  0
DICTIONARY
  5
C
330
0
100
AcDbDictionary
281
     1
  3
ACAD_GROUP
350
D
  3
ACAD_LAYOUT
350
1A
  3
ACAD_MLINESTYLE
350
17
  3
ACAD_PLOTSETTINGS
350
19
  3
ACAD_PLOTSTYLENAME
350
E
  3
ACAD_SCALELIST
350
47
  3
DWGPROPS
350
2D7
  0
DICTIONARY
  5
D
102
{ACAD_REACTORS
330
C
102
}
330
C
100
AcDbDictionary
281
     1
  0
DICTIONARY
  5
1A
102
{ACAD_REACTORS
330
C
102
}
330
C
100
AcDbDictionary
281
     1
  3
Layout1
350
1E
  3
Layout2
350
26
  3
Model
350
22
  0
DICTIONARY
  5
17
102
{ACAD_REACTORS
330
C
102
}
330
C
100
AcDbDictionary
281
     1
  3
Standard
350
18
  0
DICTIONARY
  5
19
102
{ACAD_REACTORS
330
C
102
}
330
C
100
AcDbDictionary
281
     1
  0
ACDBDICTIONARYWDFLT
  5
E
102
{ACAD_REACTORS
330
C
102
}
330
C
100
AcDbDictionary
281
     1
  3
Normal
350
F
100
AcDbDictionaryWithDefault
340
F
  0
DICTIONARY
  5
47
102
{ACAD_REACTORS
330
C
102
}
330
C
100
AcDbDictionary
281
     1
  3
A0
350
48
  3
A1
350
49
  3
A2
350
4A
  3
A3
350
4B
  3
A4
350
4C
  3
A5
350
4D
  3
A6
350
4E
  3
A7
350
4F
  3
A8
350
50
  3
A9
350
51
  3
B0
350
52
  3
B1
350
53
  3
B2
350
54
  3
B3
350
55
  3
B4
350
56
  3
B5
350
57
  3
B6
350
58
  3
B7
350
59
  3
B8
350
5A
  3
B9
350
5B
  3
C0
350
5C
  3
C1
350
5D
  3
C2
350
5E
  3
C3
350
5F
  3
C4
350
60
  3
C5
350
61
  3
C6
350
62
  3
C7
350
63
  3
C8
350
64
  3
C9
350
65
  3
D0
350
66
  3
D1
350
67
  3
D2
350
68
  0
XRECORD
  5
2D7
102
{ACAD_REACTORS
330
C
102
}
330
C
100
AcDbXrecord
280
     1
  1
DWGPROPS COOKIE
  2

  3

  4

  6

  7

  8
designer5
  9

300
=
301
=
302
=
303
=
304
=
305
=
306
=
307
=
308
=
309
=
 40
0.0
 41
2460383.23128434
 42
2460383.231284977
  1

 90
        0
  0
LAYOUT
  5
1E
102
{ACAD_REACTORS
330
1A
102
}
330
1A
100
AcDbPlotSettings
  1

  2
none_device
  4

  6

 40
0.0
 41
0.0
 42
0.0
 43
0.0
 44
0.0
 45
0.0
 46
0.0
 47
0.0
 48
0.0
 49
0.0
140
0.0
141
0.0
142
1.0
143
1.0
 70
   688
 72
     1
 73
     0
 74
     5
  7

 75
    16
147
1.0
148
0.0
149
0.0
100
AcDbLayout
  1
Layout1
 70
     1
 71
     1
 10
0.0
 20
0.0
 11
420.0
 21
297.0
 12
0.0
 22
0.0
 32
0.0
 14
1.0000000000E+20
 24
1.0000000000E+20
 34
1.0000000000E+20
 15
-1.0000000000E+20
 25
-1.0000000000E+20
 35
-1.0000000000E+20
146
0.0
 13
0.0
 23
0.0
 33
0.0
 16
1.0
 26
0.0
 36
0.0
 17
0.0
 27
1.0
 37
0.0
 76
     0
330
1B
  0
LAYOUT
  5
26
102
{ACAD_REACTORS
330
1A
102
}
330
1A
100
AcDbPlotSettings
  1

  2
none_device
  4

  6

 40
0.0
 41
0.0
 42
0.0
 43
0.0
 44
0.0
 45
0.0
 46
0.0
 47
0.0
 48
0.0
 49
0.0
140
0.0
141
0.0
142
1.0
143
1.0
 70
   688
 72
     1
 73
     0
 74
     5
  7

 75
    16
147
1.0
148
0.0
149
0.0
100
AcDbLayout
  1
Layout2
 70
     1
 71
     2
 10
0.0
 20
0.0
 11
0.0
 21
0.0
 12
0.0
 22
0.0
 32
0.0
 14
0.0
 24
0.0
 34
0.0
 15
0.0
 25
0.0
 35
0.0
146
0.0
 13
0.0
 23
0.0
 33
0.0
 16
1.0
 26
0.0
 36
0.0
 17
0.0
 27
1.0
 37
0.0
 76
     0
330
23
  0
LAYOUT
  5
22
102
{ACAD_REACTORS
330
1A
102
}
330
1A
100
AcDbPlotSettings
  1

  2
none_device
  4
Letter_(8.50_x_11.00_Inches)
  6

 40
6.35
 41
6.35
 42
6.35000508
 43
6.35000508
 44
215.9
 45
279.4
 46
0.0
 47
0.0
 48
0.0
 49
0.0
140
0.0
141
0.0
142
1.0
143
1.0
 70
  1712
 72
     1
 73
     0
 74
     0
  7

 75
     0
147
1.0
148
0.0
149
0.0
100
AcDbLayout
  1
Model
 70
     1
 71
     0
 10
0.0
 20
0.0
 11
1189.0
 21
841.0
 12
0.0
 22
0.0
 32
0.0
 14
0.0
 24
0.0
 34
0.0
 15
1189.0
 25
841.0
 35
0.0
146
0.0
 13
0.0
 23
0.0
 33
0.0
 16
1.0
 26
0.0
 36
0.0
 17
0.0
 27
1.0
 37
0.0
 76
     0
330
1F
331
29
  0
MLINESTYLE
  5
18
102
{ACAD_REACTORS
330
17
102
}
330
17
100
AcDbMlineStyle
  2
Standard
 70
     0
  3

 62
   256
 51
90.0
 52
90.0
 71
     2
 49
0.5
 62
   256
  6
BYLAYER
 49
-0.5
 62
   256
  6
BYLAYER
  0
ACDBPLACEHOLDER
  5
F
102
{ACAD_REACTORS
330
E
102
}
330
E
  0
SCALE
  5
48
102
{ACAD_REACTORS
330
47
102
}
330
47
100
AcDbScale
 70
     0
300
1:1
140
1.0
141
1.0
290
     1
  0
SCALE
  5
49
102
{ACAD_REACTORS
330
47
102
}
330
47
100
AcDbScale
 70
     0
300
1:2
140
1.0
141
2.0
290
     0
  0
SCALE
  5
4A
102
{ACAD_REACTORS
330
47
102
}
330
47
100
AcDbScale
 70
     0
300
1:4
140
1.0
141
4.0
290
     0
  0
SCALE
  5
4B
102
{ACAD_REACTORS
330
47
102
}
330
47
100
AcDbScale
 70
     0
300
1:5
140
1.0
141
5.0
290
     0
  0
SCALE
  5
4C
102
{ACAD_REACTORS
330
47
102
}
330
47
100
AcDbScale
 70
     0
300
1:8
140
1.0
141
8.0
290
     0
  0
SCALE
  5
4D
102
{ACAD_REACTORS
330
47
102
}
330
47
100
AcDbScale
 70
     0
300
1:10
140
1.0
141
10.0
290
     0
  0
SCALE
  5
4E
102
{ACAD_REACTORS
330
47
102
}
330
47
100
AcDbScale
 70
     0
300
1:16
140
1.0
141
16.0
290
     0
  0
SCALE
  5
4F
102
{ACAD_REACTORS
330
47
102
}
330
47
100
AcDbScale
 70
     0
300
1:20
140
1.0
141
20.0
290
     0
  0
SCALE
  5
50
102
{ACAD_REACTORS
330
47
102
}
330
47
100
AcDbScale
 70
     0
300
1:30
140
1.0
141
30.0
290
     0
  0
SCALE
  5
51
102
{ACAD_REACTORS
330
47
102
}
330
47
100
AcDbScale
 70
     0
300
1:40
140
1.0
141
40.0
290
     0
  0
SCALE
  5
52
102
{ACAD_REACTORS
330
47
102
}
330
47
100
AcDbScale
 70
     0
300
1:50
140
1.0
141
50.0
290
     0
  0
SCALE
  5
53
102
{ACAD_REACTORS
330
47
102
}
330
47
100
AcDbScale
 70
     0
300
1:100
140
1.0
141
100.0
290
     0
  0
SCALE
  5
54
102
{ACAD_REACTORS
330
47
102
}
330
47
100
AcDbScale
 70
     0
300
2:1
140
2.0
141
1.0
290
     0
  0
SCALE
  5
55
102
{ACAD_REACTORS
330
47
102
}
330
47
100
AcDbScale
 70
     0
300
4:1
140
4.0
141
1.0
290
     0
  0
SCALE
  5
56
102
{ACAD_REACTORS
330
47
102
}
330
47
100
AcDbScale
 70
     0
300
8:1
140
8.0
141
1.0
290
     0
  0
SCALE
  5
57
102
{ACAD_REACTORS
330
47
102
}
330
47
100
AcDbScale
 70
     0
300
10:1
140
10.0
141
1.0
290
     0
  0
SCALE
  5
58
102
{ACAD_REACTORS
330
47
102
}
330
47
100
AcDbScale
 70
     0
300
100:1
140
100.0
141
1.0
290
     0
  0
SCALE
  5
59
102
{ACAD_REACTORS
330
47
102
}
330
47
100
AcDbScale
 70
     0
300
1/128" = 1'-0"
140
0.0078125
141
12.0
290
     0
  0
SCALE
  5
5A
102
{ACAD_REACTORS
330
47
102
}
330
47
100
AcDbScale
 70
     0
300
1/64" = 1'-0"
140
0.015625
141
12.0
290
     0
  0
SCALE
  5
5B
102
{ACAD_REACTORS
330
47
102
}
330
47
100
AcDbScale
 70
     0
300
1/32" = 1'-0"
140
0.03125
141
12.0
290
     0
  0
SCALE
  5
5C
102
{ACAD_REACTORS
330
47
102
}
330
47
100
AcDbScale
 70
     0
300
1/16" = 1'-0"
140
0.0625
141
12.0
290
     0
  0
SCALE
  5
5D
102
{ACAD_REACTORS
330
47
102
}
330
47
100
AcDbScale
 70
     0
300
3/32" = 1'-0"
140
0.09375
141
12.0
290
     0
  0
SCALE
  5
5E
102
{ACAD_REACTORS
330
47
102
}
330
47
100
AcDbScale
 70
     0
300
1/8" = 1'-0"
140
0.125
141
12.0
290
     0
  0
SCALE
  5
5F
102
{ACAD_REACTORS
330
47
102
}
330
47
100
AcDbScale
 70
     0
300
3/16" = 1'-0"
140
0.1875
141
12.0
290
     0
  0
SCALE
  5
60
102
{ACAD_REACTORS
330
47
102
}
330
47
100
AcDbScale
 70
     0
300
1/4" = 1'-0"
140
0.25
141
12.0
290
     0
  0
SCALE
  5
61
102
{ACAD_REACTORS
330
47
102
}
330
47
100
AcDbScale
 70
     0
300
3/8" = 1'-0"
140
0.375
141
12.0
290
     0
  0
SCALE
  5
62
102
{ACAD_REACTORS
330
47
102
}
330
47
100
AcDbScale
 70
     0
300
1/2" = 1'-0"
140
0.5
141
12.0
290
     0
  0
SCALE
  5
63
102
{ACAD_REACTORS
330
47
102
}
330
47
100
AcDbScale
 70
     0
300
3/4" = 1'-0"
140
0.75
141
12.0
290
     0
  0
SCALE
  5
64
102
{ACAD_REACTORS
330
47
102
}
330
47
100
AcDbScale
 70
     0
300
1" = 1'-0"
140
1.0
141
12.0
290
     0
  0
SCALE
  5
65
102
{ACAD_REACTORS
330
47
102
}
330
47
100
AcDbScale
 70
     0
300
1-1/2" = 1'-0"
140
1.5
141
12.0
290
     0
  0
SCALE
  5
66
102
{ACAD_REACTORS
330
47
102
}
330
47
100
AcDbScale
 70
     0
300
3" = 1'-0"
140
3.0
141
12.0
290
     0
  0
SCALE
  5
67
102
{ACAD_REACTORS
330
47
102
}
330
47
100
AcDbScale
 70
     0
300
6" = 1'-0"
140
6.0
141
12.0
290
     0
  0
SCALE
  5
68
102
{ACAD_REACTORS
330
47
102
}
330
47
100
AcDbScale
 70
     0
300
1'-0" = 1'-0"
140
12.0
141
12.0
290
     0
  0
ENDSEC
  0
EOF
